ISO-10303-21;
HEADER;
/* Generated by software containing ST-Developer
 * from STEP Tools, Inc. (www.steptools.com) 
 */
/* OPTION: using custom schema-name function */

FILE_DESCRIPTION(
/* description */ (''),
/* implementation_level */ '2;1');

FILE_NAME(
/* name */ 'h85126.0-r95026.0_3d_light.stp',
/* time_stamp */ '2021-09-03T04:31:12+02:00',
/* author */ (''),
/* organization */ ('SMS'),
/* preprocessor_version */ 'ST-DEVELOPER v16.7',
/* originating_system */ 'SIEMENS PLM Software NX 12.0',
/* authorisation */ '');

FILE_SCHEMA (('AUTOMOTIVE_DESIGN { 1 0 10303 214 3 1 1 1 }'));
ENDSEC;

DATA;
#10=CONSTRUCTIVE_GEOMETRY_REPRESENTATION_RELATIONSHIP(
'supplemental geometry','',#26,#11);
#11=CONSTRUCTIVE_GEOMETRY_REPRESENTATION('supplemental geometry',(#271,
#272,#273),#500);
#12=GEOMETRICALLY_BOUNDED_WIREFRAME_SHAPE_REPRESENTATION(
'H85126.0-R95026.0_3D_light-None',(#27),#500);
#13=SHAPE_REPRESENTATION_RELATIONSHIP('None',
'relationship between H85126.0-R95026.0_3D_light-None and H85126.0-R95
026.0_3D_light-None',#26,#15);
#14=SHAPE_REPRESENTATION_RELATIONSHIP('None',
'relationship between H85126.0-R95026.0_3D_light-None and H85126.0-R95
026.0_3D_light-None',#26,#12);
#15=ADVANCED_BREP_SHAPE_REPRESENTATION(
'H85126.0-R95026.0_3D_light-None',(#39,#40),#500);
#16=SHAPE_DEFINITION_REPRESENTATION(#17,#26);
#17=PRODUCT_DEFINITION_SHAPE('','',#18);
#18=PRODUCT_DEFINITION(' ','',#20,#19);
#19=PRODUCT_DEFINITION_CONTEXT('part definition',#25,'design');
#20=PRODUCT_DEFINITION_FORMATION_WITH_SPECIFIED_SOURCE(' ',' ',#22,
 .NOT_KNOWN.);
#21=PRODUCT_RELATED_PRODUCT_CATEGORY('part','',(#22));
#22=PRODUCT('H85126.0-R95026.0_3D_light','H85126.0-R95026.0_3D_light',
' ',(#23));
#23=PRODUCT_CONTEXT(' ',#25,'mechanical');
#24=APPLICATION_PROTOCOL_DEFINITION('international standard',
'automotive_design',2010,#25);
#25=APPLICATION_CONTEXT(
'core data for automotive mechanical design processes');
#26=SHAPE_REPRESENTATION('H85126.0-R95026.0_3D_light-None',(#270),#500);
#27=GEOMETRIC_CURVE_SET('None',(#374,#375,#376,#234));
#28=VERTEX_LOOP('',#195);
#29=SURFACE_STYLE_USAGE(.BOTH.,#31);
#30=SURFACE_STYLE_USAGE(.BOTH.,#32);
#31=SURFACE_SIDE_STYLE('',(#33));
#32=SURFACE_SIDE_STYLE('',(#34));
#33=SURFACE_STYLE_FILL_AREA(#35);
#34=SURFACE_STYLE_FILL_AREA(#36);
#35=FILL_AREA_STYLE('',(#37));
#36=FILL_AREA_STYLE('',(#38));
#37=FILL_AREA_STYLE_COLOUR('',#268);
#38=FILL_AREA_STYLE_COLOUR('',#269);
#39=MANIFOLD_SOLID_BREP('NOCUT',#41);
#40=MANIFOLD_SOLID_BREP('CUT',#42);
#41=CLOSED_SHELL('',(#74,#75,#76,#77,#78,#79,#80,#81,#82,#83,#84,#85,#86));
#42=CLOSED_SHELL('',(#87,#88,#89));
#43=LINE('',#481,#47);
#44=LINE('',#483,#48);
#45=LINE('',#484,#49);
#46=LINE('',#486,#50);
#47=VECTOR('',#347,1.);
#48=VECTOR('',#350,1.);
#49=VECTOR('',#351,1.);
#50=VECTOR('',#354,1.);
#51=ELLIPSE('',#287,21.8772393775775,16.);
#52=ELLIPSE('',#288,458.459333565503,16.);
#53=ELLIPSE('',#289,23.460466970234,16.);
#54=ELLIPSE('',#290,458.459333565503,16.);
#55=FACE_OUTER_BOUND('',#120,.T.);
#56=FACE_OUTER_BOUND('',#126,.T.);
#57=FACE_OUTER_BOUND('',#127,.T.);
#58=FACE_OUTER_BOUND('',#128,.T.);
#59=FACE_OUTER_BOUND('',#129,.T.);
#60=FACE_OUTER_BOUND('',#130,.T.);
#61=FACE_OUTER_BOUND('',#131,.T.);
#62=FACE_OUTER_BOUND('',#134,.T.);
#63=CONICAL_SURFACE('',#282,12.8,25.4077181089485);
#64=CONICAL_SURFACE('',#286,16.,44.9999999999999);
#65=CONICAL_SURFACE('',#300,13.0018,0.0103132402009728);
#66=CONICAL_SURFACE('',#302,1.5283592053359E-14,70.);
#67=PLANE('',#279);
#68=PLANE('',#284);
#69=PLANE('',#292);
#70=PLANE('',#293);
#71=PLANE('',#294);
#72=PLANE('',#297);
#73=PLANE('',#301);
#74=ADVANCED_FACE('',(#95,#96),#90,.T.);
#75=ADVANCED_FACE('',(#97,#98),#67,.T.);
#76=ADVANCED_FACE('',(#99,#100),#91,.T.);
#77=ADVANCED_FACE('',(#101,#102),#63,.T.);
#78=ADVANCED_FACE('',(#55),#68,.T.);
#79=ADVANCED_FACE('',(#103,#104),#64,.T.);
#80=ADVANCED_FACE('CYL_FACE',(#105,#106,#107),#92,.T.);
#81=ADVANCED_FACE('',(#56),#69,.T.);
#82=ADVANCED_FACE('',(#57),#70,.T.);
#83=ADVANCED_FACE('',(#58),#71,.T.);
#84=ADVANCED_FACE('',(#59),#93,.F.);
#85=ADVANCED_FACE('',(#60),#94,.F.);
#86=ADVANCED_FACE('',(#61),#72,.T.);
#87=ADVANCED_FACE('',(#108,#109),#65,.T.);
#88=ADVANCED_FACE('',(#62),#73,.F.);
#89=ADVANCED_FACE('',(#110,#111),#66,.T.);
#90=CYLINDRICAL_SURFACE('',#276,12.8);
#91=CYLINDRICAL_SURFACE('',#281,18.5);
#92=CYLINDRICAL_SURFACE('',#291,16.);
#93=CYLINDRICAL_SURFACE('',#295,1.6);
#94=CYLINDRICAL_SURFACE('',#296,1.6);
#95=FACE_BOUND('',#112,.T.);
#96=FACE_BOUND('',#113,.T.);
#97=FACE_BOUND('',#114,.T.);
#98=FACE_BOUND('',#115,.T.);
#99=FACE_BOUND('',#116,.T.);
#100=FACE_BOUND('',#117,.T.);
#101=FACE_BOUND('',#118,.T.);
#102=FACE_BOUND('',#119,.T.);
#103=FACE_BOUND('',#121,.T.);
#104=FACE_BOUND('',#122,.T.);
#105=FACE_BOUND('',#123,.T.);
#106=FACE_BOUND('',#124,.T.);
#107=FACE_BOUND('',#125,.T.);
#108=FACE_BOUND('',#132,.T.);
#109=FACE_BOUND('',#133,.T.);
#110=FACE_BOUND('',#28,.T.);
#111=FACE_BOUND('',#135,.T.);
#112=EDGE_LOOP('',(#136));
#113=EDGE_LOOP('',(#137));
#114=EDGE_LOOP('',(#138));
#115=EDGE_LOOP('',(#139));
#116=EDGE_LOOP('',(#140));
#117=EDGE_LOOP('',(#141));
#118=EDGE_LOOP('',(#142));
#119=EDGE_LOOP('',(#143));
#120=EDGE_LOOP('',(#144));
#121=EDGE_LOOP('',(#145));
#122=EDGE_LOOP('',(#146));
#123=EDGE_LOOP('',(#147,#148,#149,#150,#151,#152,#153,#154));
#124=EDGE_LOOP('',(#155));
#125=EDGE_LOOP('',(#156));
#126=EDGE_LOOP('',(#157,#158));
#127=EDGE_LOOP('',(#159,#160,#161,#162));
#128=EDGE_LOOP('',(#163,#164));
#129=EDGE_LOOP('',(#165,#166,#167,#168));
#130=EDGE_LOOP('',(#169,#170,#171,#172));
#131=EDGE_LOOP('',(#173));
#132=EDGE_LOOP('',(#174));
#133=EDGE_LOOP('',(#175));
#134=EDGE_LOOP('',(#176));
#135=EDGE_LOOP('',(#177));
#136=ORIENTED_EDGE('',*,*,#196,.F.);
#137=ORIENTED_EDGE('',*,*,#197,.F.);
#138=ORIENTED_EDGE('',*,*,#198,.T.);
#139=ORIENTED_EDGE('',*,*,#199,.F.);
#140=ORIENTED_EDGE('',*,*,#199,.T.);
#141=ORIENTED_EDGE('',*,*,#200,.F.);
#142=ORIENTED_EDGE('',*,*,#200,.T.);
#143=ORIENTED_EDGE('',*,*,#197,.T.);
#144=ORIENTED_EDGE('',*,*,#201,.F.);
#145=ORIENTED_EDGE('',*,*,#201,.T.);
#146=ORIENTED_EDGE('',*,*,#202,.F.);
#147=ORIENTED_EDGE('',*,*,#203,.F.);
#148=ORIENTED_EDGE('',*,*,#204,.T.);
#149=ORIENTED_EDGE('',*,*,#205,.F.);
#150=ORIENTED_EDGE('',*,*,#206,.T.);
#151=ORIENTED_EDGE('',*,*,#207,.F.);
#152=ORIENTED_EDGE('',*,*,#208,.T.);
#153=ORIENTED_EDGE('',*,*,#209,.F.);
#154=ORIENTED_EDGE('',*,*,#210,.T.);
#155=ORIENTED_EDGE('',*,*,#202,.T.);
#156=ORIENTED_EDGE('',*,*,#198,.F.);
#157=ORIENTED_EDGE('',*,*,#211,.T.);
#158=ORIENTED_EDGE('',*,*,#204,.F.);
#159=ORIENTED_EDGE('',*,*,#212,.T.);
#160=ORIENTED_EDGE('',*,*,#206,.F.);
#161=ORIENTED_EDGE('',*,*,#213,.T.);
#162=ORIENTED_EDGE('',*,*,#210,.F.);
#163=ORIENTED_EDGE('',*,*,#214,.T.);
#164=ORIENTED_EDGE('',*,*,#208,.F.);
#165=ORIENTED_EDGE('',*,*,#203,.T.);
#166=ORIENTED_EDGE('',*,*,#213,.F.);
#167=ORIENTED_EDGE('',*,*,#205,.T.);
#168=ORIENTED_EDGE('',*,*,#211,.F.);
#169=ORIENTED_EDGE('',*,*,#209,.T.);
#170=ORIENTED_EDGE('',*,*,#214,.F.);
#171=ORIENTED_EDGE('',*,*,#207,.T.);
#172=ORIENTED_EDGE('',*,*,#212,.F.);
#173=ORIENTED_EDGE('',*,*,#196,.T.);
#174=ORIENTED_EDGE('',*,*,#215,.T.);
#175=ORIENTED_EDGE('',*,*,#216,.T.);
#176=ORIENTED_EDGE('',*,*,#216,.F.);
#177=ORIENTED_EDGE('',*,*,#215,.F.);
#178=VERTEX_POINT('',#394);
#179=VERTEX_POINT('',#396);
#180=VERTEX_POINT('',#399);
#181=VERTEX_POINT('',#401);
#182=VERTEX_POINT('',#404);
#183=VERTEX_POINT('',#408);
#184=VERTEX_POINT('',#411);
#185=VERTEX_POINT('',#429);
#186=VERTEX_POINT('',#430);
#187=VERTEX_POINT('',#432);
#188=VERTEX_POINT('',#446);
#189=VERTEX_POINT('',#448);
#190=VERTEX_POINT('',#462);
#191=VERTEX_POINT('',#464);
#192=VERTEX_POINT('',#478);
#193=VERTEX_POINT('',#492);
#194=VERTEX_POINT('',#494);
#195=VERTEX_POINT('',#497);
#196=EDGE_CURVE('',#178,#178,#217,.T.);
#197=EDGE_CURVE('',#179,#179,#218,.T.);
#198=EDGE_CURVE('',#180,#180,#219,.T.);
#199=EDGE_CURVE('',#181,#181,#220,.T.);
#200=EDGE_CURVE('',#182,#182,#221,.T.);
#201=EDGE_CURVE('',#183,#183,#222,.T.);
#202=EDGE_CURVE('',#184,#184,#223,.T.);
#203=EDGE_CURVE('',#185,#186,#235,.T.);
#204=EDGE_CURVE('',#185,#187,#51,.T.);
#205=EDGE_CURVE('',#188,#187,#236,.T.);
#206=EDGE_CURVE('',#188,#189,#52,.T.);
#207=EDGE_CURVE('',#190,#189,#237,.T.);
#208=EDGE_CURVE('',#190,#191,#53,.T.);
#209=EDGE_CURVE('',#192,#191,#238,.T.);
#210=EDGE_CURVE('',#192,#186,#54,.T.);
#211=EDGE_CURVE('',#185,#187,#43,.T.);
#212=EDGE_CURVE('',#192,#189,#44,.T.);
#213=EDGE_CURVE('',#188,#186,#45,.T.);
#214=EDGE_CURVE('',#190,#191,#46,.T.);
#215=EDGE_CURVE('',#193,#193,#224,.T.);
#216=EDGE_CURVE('',#194,#194,#225,.T.);
#217=CIRCLE('',#274,12.8);
#218=CIRCLE('',#275,12.8);
#219=CIRCLE('',#277,16.);
#220=CIRCLE('',#278,18.5);
#221=CIRCLE('',#280,18.5);
#222=CIRCLE('',#283,15.);
#223=CIRCLE('',#285,16.);
#224=CIRCLE('',#298,13.);
#225=CIRCLE('',#299,12.9978996903482);
#226=CURVE_STYLE('',#230,POSITIVE_LENGTH_MEASURE(0.18),#240);
#227=CURVE_STYLE('',#231,POSITIVE_LENGTH_MEASURE(0.13),#267);
#228=CURVE_STYLE('',#232,POSITIVE_LENGTH_MEASURE(0.18),#266);
#229=CURVE_STYLE('',#233,POSITIVE_LENGTH_MEASURE(0.18),#266);
#230=DRAUGHTING_PRE_DEFINED_CURVE_FONT('continuous');
#231=DRAUGHTING_PRE_DEFINED_CURVE_FONT('continuous');
#232=DRAUGHTING_PRE_DEFINED_CURVE_FONT('continuous');
#233=DRAUGHTING_PRE_DEFINED_CURVE_FONT('continuous');
#234=B_SPLINE_CURVE_WITH_KNOTS('CUTTING PART LINE',3,(#377,#378,#379,#380,
#381,#382,#383,#384,#385,#386,#387,#388,#389),.UNSPECIFIED.,.T.,.F.,(4,
3,3,3,4),(0.,0.298721701300981,0.535475037206444,0.748011650558033,1.),
 .UNSPECIFIED.);
#235=B_SPLINE_CURVE_WITH_KNOTS('',3,(#413,#414,#415,#416,#417,#418,#419,
#420,#421,#422,#423,#424,#425,#426,#427,#428),.UNSPECIFIED.,.F.,.F.,(4,
3,3,3,3,4),(0.,0.482288237617616,0.662012399879199,0.844157231180557,0.943841010710756,
1.),.UNSPECIFIED.);
#236=B_SPLINE_CURVE_WITH_KNOTS('',3,(#433,#434,#435,#436,#437,#438,#439,
#440,#441,#442,#443,#444,#445),.UNSPECIFIED.,.F.,.F.,(4,3,3,3,4),(0.,0.0981907941241538,
0.225343381255018,0.448505422443364,1.),.UNSPECIFIED.);
#237=B_SPLINE_CURVE_WITH_KNOTS('',3,(#449,#450,#451,#452,#453,#454,#455,
#456,#457,#458,#459,#460,#461),.UNSPECIFIED.,.F.,.F.,(4,3,3,3,4),(0.,0.417392864732186,
0.664904253509585,0.869204552832247,1.),.UNSPECIFIED.);
#238=B_SPLINE_CURVE_WITH_KNOTS('',3,(#465,#466,#467,#468,#469,#470,#471,
#472,#473,#474,#475,#476,#477),.UNSPECIFIED.,.F.,.F.,(4,3,3,3,4),(0.,0.190725953457416,
0.380210617369604,0.677552516524726,1.),.UNSPECIFIED.);
#239=DRAUGHTING_PRE_DEFINED_COLOUR('white');
#240=DRAUGHTING_PRE_DEFINED_COLOUR('blue');
#241=PRESENTATION_LAYER_ASSIGNMENT('1','Layer 1',(#374,#375,#376,#234,#271,
#272,#273,#39,#40));
#242=STYLED_ITEM('',(#251),#374);
#243=STYLED_ITEM('',(#252),#375);
#244=STYLED_ITEM('',(#253),#376);
#245=STYLED_ITEM('',(#254),#234);
#246=STYLED_ITEM('',(#255),#271);
#247=STYLED_ITEM('',(#256),#272);
#248=STYLED_ITEM('',(#257),#273);
#249=STYLED_ITEM('',(#258),#39);
#250=STYLED_ITEM('',(#259),#40);
#251=PRESENTATION_STYLE_ASSIGNMENT((#260));
#252=PRESENTATION_STYLE_ASSIGNMENT((#261));
#253=PRESENTATION_STYLE_ASSIGNMENT((#262));
#254=PRESENTATION_STYLE_ASSIGNMENT((#226));
#255=PRESENTATION_STYLE_ASSIGNMENT((#227));
#256=PRESENTATION_STYLE_ASSIGNMENT((#228));
#257=PRESENTATION_STYLE_ASSIGNMENT((#229));
#258=PRESENTATION_STYLE_ASSIGNMENT((#29));
#259=PRESENTATION_STYLE_ASSIGNMENT((#30));
#260=POINT_STYLE('',#263,POSITIVE_LENGTH_MEASURE(3.),#266);
#261=POINT_STYLE('',#264,POSITIVE_LENGTH_MEASURE(3.),#239);
#262=POINT_STYLE('',#265,POSITIVE_LENGTH_MEASURE(3.),#266);
#263=PRE_DEFINED_POINT_MARKER_SYMBOL('plus');
#264=PRE_DEFINED_POINT_MARKER_SYMBOL('plus');
#265=PRE_DEFINED_POINT_MARKER_SYMBOL('plus');
#266=COLOUR_RGB('Medium Maroon',0.6,0.4,0.4);
#267=COLOUR_RGB('Silver Gray',0.6,0.6,0.6);
#268=COLOUR_RGB('TLS_NOCUT',0.498023956664378,0.498023956664378,0.498023956664378);
#269=COLOUR_RGB('TLS_CUT',0.8,0.8,0.8);
#270=AXIS2_PLACEMENT_3D('',#373,#303,#304);
#271=AXIS2_PLACEMENT_3D('PCS',#390,#305,#306);
#272=AXIS2_PLACEMENT_3D('MCS',#391,#307,#308);
#273=AXIS2_PLACEMENT_3D('CIP',#392,#309,#310);
#274=AXIS2_PLACEMENT_3D('',#393,#311,#312);
#275=AXIS2_PLACEMENT_3D('',#395,#313,#314);
#276=AXIS2_PLACEMENT_3D('',#397,#315,#316);
#277=AXIS2_PLACEMENT_3D('',#398,#317,#318);
#278=AXIS2_PLACEMENT_3D('',#400,#319,#320);
#279=AXIS2_PLACEMENT_3D('',#402,#321,#322);
#280=AXIS2_PLACEMENT_3D('',#403,#323,#324);
#281=AXIS2_PLACEMENT_3D('',#405,#325,#326);
#282=AXIS2_PLACEMENT_3D('',#406,#327,#328);
#283=AXIS2_PLACEMENT_3D('',#407,#329,#330);
#284=AXIS2_PLACEMENT_3D('',#409,#331,#332);
#285=AXIS2_PLACEMENT_3D('',#410,#333,#334);
#286=AXIS2_PLACEMENT_3D('',#412,#335,#336);
#287=AXIS2_PLACEMENT_3D('',#431,#337,#338);
#288=AXIS2_PLACEMENT_3D('',#447,#339,#340);
#289=AXIS2_PLACEMENT_3D('',#463,#341,#342);
#290=AXIS2_PLACEMENT_3D('',#479,#343,#344);
#291=AXIS2_PLACEMENT_3D('',#480,#345,#346);
#292=AXIS2_PLACEMENT_3D('',#482,#348,#349);
#293=AXIS2_PLACEMENT_3D('',#485,#352,#353);
#294=AXIS2_PLACEMENT_3D('',#487,#355,#356);
#295=AXIS2_PLACEMENT_3D('',#488,#357,#358);
#296=AXIS2_PLACEMENT_3D('',#489,#359,#360);
#297=AXIS2_PLACEMENT_3D('',#490,#361,#362);
#298=AXIS2_PLACEMENT_3D('',#491,#363,#364);
#299=AXIS2_PLACEMENT_3D('',#493,#365,#366);
#300=AXIS2_PLACEMENT_3D('',#495,#367,#368);
#301=AXIS2_PLACEMENT_3D('',#496,#369,#370);
#302=AXIS2_PLACEMENT_3D('',#498,#371,#372);
#303=DIRECTION('',(0.,0.,1.));
#304=DIRECTION('',(1.,0.,0.));
#305=DIRECTION('',(0.,0.,1.));
#306=DIRECTION('',(1.,0.,0.));
#307=DIRECTION('',(0.,0.,1.));
#308=DIRECTION('',(1.,0.,0.));
#309=DIRECTION('',(0.,0.,1.));
#310=DIRECTION('',(1.,0.,0.));
#311=DIRECTION('',(0.,0.,-1.));
#312=DIRECTION('',(1.,0.,0.));
#313=DIRECTION('',(0.,0.,1.));
#314=DIRECTION('',(-1.,0.,0.));
#315=DIRECTION('',(0.,0.,1.));
#316=DIRECTION('',(1.,0.,0.));
#317=DIRECTION('',(0.,0.,-1.));
#318=DIRECTION('',(-1.,0.,0.));
#319=DIRECTION('',(0.,0.,-1.));
#320=DIRECTION('',(-1.,0.,0.));
#321=DIRECTION('',(0.,0.,1.));
#322=DIRECTION('',(1.,0.,0.));
#323=DIRECTION('',(0.,0.,-1.));
#324=DIRECTION('',(-1.,0.,0.));
#325=DIRECTION('',(0.,0.,-1.));
#326=DIRECTION('',(-1.,0.,0.));
#327=DIRECTION('',(0.,0.,1.));
#328=DIRECTION('',(1.,0.,5.68994990070293E-17));
#329=DIRECTION('',(0.,0.,-1.));
#330=DIRECTION('',(-1.,0.,0.));
#331=DIRECTION('',(0.,0.,1.));
#332=DIRECTION('',(1.,0.,0.));
#333=DIRECTION('',(0.,0.,-1.));
#334=DIRECTION('',(-1.,0.,0.));
#335=DIRECTION('',(0.,0.,-1.));
#336=DIRECTION('',(-1.,0.,1.09273919746571E-16));
#337=DIRECTION('',(0.,0.681998360062499,0.73135370161917));
#338=DIRECTION('',(0.,0.73135370161917,-0.681998360062499));
#339=DIRECTION('',(0.,0.999390827019096,0.0348994967025009));
#340=DIRECTION('',(0.,0.0348994967025009,-0.999390827019096));
#341=DIRECTION('',(0.,0.73135370161917,-0.681998360062499));
#342=DIRECTION('',(0.,-0.681998360062499,-0.73135370161917));
#343=DIRECTION('',(0.,0.999390827019096,0.0348994967025009));
#344=DIRECTION('',(0.,0.0348994967025009,-0.999390827019096));
#345=DIRECTION('',(0.,0.,-1.));
#346=DIRECTION('',(-1.,0.,0.));
#347=DIRECTION('',(1.,0.,0.));
#348=DIRECTION('',(0.,-0.681998360062499,-0.73135370161917));
#349=DIRECTION('',(0.,-0.73135370161917,0.681998360062499));
#350=DIRECTION('',(1.,0.,0.));
#351=DIRECTION('',(-1.,0.,0.));
#352=DIRECTION('',(0.,-0.999390827019096,-0.0348994967025009));
#353=DIRECTION('',(0.,-0.0348994967025009,0.999390827019096));
#354=DIRECTION('',(-1.,0.,0.));
#355=DIRECTION('',(0.,-0.73135370161917,0.681998360062499));
#356=DIRECTION('',(0.,0.681998360062499,0.73135370161917));
#357=DIRECTION('',(1.,0.,0.));
#358=DIRECTION('',(0.,0.,-1.));
#359=DIRECTION('',(1.,0.,0.));
#360=DIRECTION('',(0.,0.,-0.999999999999998));
#361=DIRECTION('',(0.,0.,-1.));
#362=DIRECTION('',(-1.,0.,0.));
#363=DIRECTION('',(0.,0.,1.));
#364=DIRECTION('',(1.,0.,0.));
#365=DIRECTION('',(0.,0.,-1.));
#366=DIRECTION('',(1.,0.,0.));
#367=DIRECTION('',(0.,0.,-1.));
#368=DIRECTION('',(-1.,0.,4.21119659160796E-15));
#369=DIRECTION('',(0.,0.,-1.));
#370=DIRECTION('',(-1.,0.,0.));
#371=DIRECTION('',(0.,0.,1.));
#372=DIRECTION('',(1.,0.,1.01022033590138E-17));
#373=CARTESIAN_POINT('',(0.,0.,0.));
#374=CARTESIAN_POINT('',(0.,0.,-60.));
#375=CARTESIAN_POINT('CRP',(-13.,0.,-122.568386954539));
#376=CARTESIAN_POINT('CIP_DCSYS',(0.,0.,-127.3));
#377=CARTESIAN_POINT('',(0.,0.,-127.3));
#378=CARTESIAN_POINT('',(0.,0.,-121.833333333333));
#379=CARTESIAN_POINT('',(0.,0.,-116.366666666667));
#380=CARTESIAN_POINT('',(0.,0.,-110.9));
#381=CARTESIAN_POINT('',(-4.33263323011606,0.,-110.9));
#382=CARTESIAN_POINT('',(-8.66526646023212,0.,-110.9));
#383=CARTESIAN_POINT('',(-12.9978996903482,0.,-110.899999999994));
#384=CARTESIAN_POINT('',(-12.9985997935655,0.,-114.789462318171));
#385=CARTESIAN_POINT('',(-12.9992998967827,0.,-118.678924636355));
#386=CARTESIAN_POINT('',(-13.,0.,-122.568386954539));
#387=CARTESIAN_POINT('',(-8.66666666666667,0.,-124.145591303026));
#388=CARTESIAN_POINT('',(-4.33333333333333,0.,-125.722795651513));
#389=CARTESIAN_POINT('',(0.,0.,-127.3));
#390=CARTESIAN_POINT('',(0.,0.,0.));
#391=CARTESIAN_POINT('',(0.,0.,-60.));
#392=CARTESIAN_POINT('',(0.,0.,-127.3));
#393=CARTESIAN_POINT('',(0.,0.,-110.9));
#394=CARTESIAN_POINT('',(12.8,0.,-110.9));
#395=CARTESIAN_POINT('',(0.,0.,-75.));
#396=CARTESIAN_POINT('',(-12.8,0.,-75.));
#397=CARTESIAN_POINT('',(0.,0.,20.9080749503476));
#398=CARTESIAN_POINT('',(0.,0.,-60.));
#399=CARTESIAN_POINT('',(-16.,0.,-60.));
#400=CARTESIAN_POINT('',(0.,0.,-60.));
#401=CARTESIAN_POINT('',(-18.5,0.,-60.));
#402=CARTESIAN_POINT('',(-18.5,0.,-60.));
#403=CARTESIAN_POINT('',(0.,0.,-63.));
#404=CARTESIAN_POINT('',(-18.5,0.,-63.));
#405=CARTESIAN_POINT('',(0.,0.,20.9080749503476));
#406=CARTESIAN_POINT('',(0.,0.,-75.));
#407=CARTESIAN_POINT('',(0.,0.,0.));
#408=CARTESIAN_POINT('',(-15.,0.,0.));
#409=CARTESIAN_POINT('',(-15.,0.,8.32667268468867E-16));
#410=CARTESIAN_POINT('',(0.,0.,-1.));
#411=CARTESIAN_POINT('',(-16.,0.,-1.));
#412=CARTESIAN_POINT('',(0.,0.,-1.));
#413=CARTESIAN_POINT('',(-3.67404242557649,-15.5724568471087,-3.39869044004595));
#414=CARTESIAN_POINT('',(-4.01276128152894,-15.4925421965606,-3.47321205728547));
#415=CARTESIAN_POINT('',(-4.34832874378216,-15.4011742872174,-3.57010493151581));
#416=CARTESIAN_POINT('',(-4.65705236814442,-15.3072487155713,-3.72023153454654));
#417=CARTESIAN_POINT('',(-4.77274655487153,-15.2720501050118,-3.77649148316441));
#418=CARTESIAN_POINT('',(-4.88519211669812,-15.2363658096054,-3.84094609623311));
#419=CARTESIAN_POINT('',(-4.98903669914807,-15.2022864337755,-3.91739325239406));
#420=CARTESIAN_POINT('',(-5.09364832181035,-15.1679553331944,-3.99440507973487));
#421=CARTESIAN_POINT('',(-5.19199885015079,-15.134379825439,-4.08537802938075));
#422=CARTESIAN_POINT('',(-5.26697588138398,-15.1082416271689,-4.19376749839025));
#423=CARTESIAN_POINT('',(-5.30827044602909,-15.0938456781641,-4.25346439304244));
#424=CARTESIAN_POINT('',(-5.34287006244837,-15.0815879122911,-4.31975744082794));
#425=CARTESIAN_POINT('',(-5.36505381012947,-15.0736922356274,-4.38991257803783));
#426=CARTESIAN_POINT('',(-5.3776466805801,-15.0692101600659,-4.42973698313973));
#427=CARTESIAN_POINT('',(-5.38637265167416,-15.0660880262537,-4.47123325831567));
#428=CARTESIAN_POINT('',(-5.39045045482675,-15.0646288999782,-4.51301716791262));
#429=CARTESIAN_POINT('',(-3.67404242557649,-15.5724568471087,-3.39869044004595));
#430=CARTESIAN_POINT('',(-5.39045045482675,-15.0646288999782,-4.51301716791262));
#431=CARTESIAN_POINT('',(0.,0.,-17.9202413782026));
#432=CARTESIAN_POINT('',(3.67404242557649,-15.5724568471087,-3.39869044004595));
#433=CARTESIAN_POINT('',(5.39045045482675,-15.0646288999782,-4.51301716791262));
#434=CARTESIAN_POINT('',(5.38336936807677,-15.0671626661629,-4.4404595976873));
#435=CARTESIAN_POINT('',(5.36187522166332,-15.0748590212785,-4.36863024139355));
#436=CARTESIAN_POINT('',(5.33088378005514,-15.0858104894482,-4.30350913383527));
#437=CARTESIAN_POINT('',(5.29074093694813,-15.0999957949944,-4.21915854322004));
#438=CARTESIAN_POINT('',(5.23418252138736,-15.119781857223,-4.14296598053896));
#439=CARTESIAN_POINT('',(5.17091173140115,-15.1413893637955,-4.07620060270335));
#440=CARTESIAN_POINT('',(5.06020595948087,-15.1791963153903,-3.9593803023333));
#441=CARTESIAN_POINT('',(4.92628383276863,-15.2234349964364,-3.86617783348768));
#442=CARTESIAN_POINT('',(4.78720263485793,-15.2670459137585,-3.78816101234018));
#443=CARTESIAN_POINT('',(4.44558483947574,-15.3741651049502,-3.59653241808369));
#444=CARTESIAN_POINT('',(4.06050788923381,-15.4812772391999,-3.48371679996909));
#445=CARTESIAN_POINT('',(3.67404242557649,-15.5724568471087,-3.39869044004595));
#446=CARTESIAN_POINT('',(5.39045045482675,-15.0646288999782,-4.51301716791262));
#447=CARTESIAN_POINT('',(0.,0.,-435.90754596082));
#448=CARTESIAN_POINT('',(8.3346375228795,-13.6577383692253,-44.801090747888));
#449=CARTESIAN_POINT('',(7.58734230610621,-14.0865977698652,-45.948127318712));
#450=CARTESIAN_POINT('',(7.75212490229818,-13.9978423454665,-45.8529487787419));
#451=CARTESIAN_POINT('',(7.90892912456778,-13.9093997531712,-45.735470777438));
#452=CARTESIAN_POINT('',(8.0387990614189,-13.8339332675176,-45.588745207464));
#453=CARTESIAN_POINT('',(8.11615313545507,-13.7889833717986,-45.5013514589341));
#454=CARTESIAN_POINT('',(8.18500244660926,-13.7480674272843,-45.4017367751422));
#455=CARTESIAN_POINT('',(8.23660581726443,-13.7170814902809,-45.2921065921528));
#456=CARTESIAN_POINT('',(8.27918407554366,-13.6915148032214,-45.2016500543867));
#457=CARTESIAN_POINT('',(8.31060765116349,-13.6723849630141,-45.1022192599686));
#458=CARTESIAN_POINT('',(8.32564564548339,-13.6632216034815,-45.0005391716581));
#459=CARTESIAN_POINT('',(8.33534740580155,-13.6573098631255,-44.9349402742964));
#460=CARTESIAN_POINT('',(8.33843868327076,-13.6554187103498,-44.8675170869769));
#461=CARTESIAN_POINT('',(8.3346375228795,-13.6577383692253,-44.801090747888));
#462=CARTESIAN_POINT('',(7.58734230610621,-14.0865977698652,-45.948127318712));
#463=CARTESIAN_POINT('',(0.,0.,-30.8421006396051));
#464=CARTESIAN_POINT('',(-7.58734230610621,-14.0865977698652,-45.948127318712));
#465=CARTESIAN_POINT('',(-8.3346375228795,-13.6577383692253,-44.801090747888));
#466=CARTESIAN_POINT('',(-8.34013347045375,-13.6543844661384,-44.8971339661699));
#467=CARTESIAN_POINT('',(-8.33091284684309,-13.6600355382101,-44.9955967931902));
#468=CARTESIAN_POINT('',(-8.30863146732457,-13.6735746291957,-45.088257394449));
#469=CARTESIAN_POINT('',(-8.28643022080475,-13.6870650280453,-45.1805847501008));
#470=CARTESIAN_POINT('',(-8.25106554703891,-13.708484370905,-45.269355685761));
#471=CARTESIAN_POINT('',(-8.20707264243254,-13.7347718816817,-45.3504286031335));
#472=CARTESIAN_POINT('',(-8.13838960695555,-13.77581272796,-45.4770020610567));
#473=CARTESIAN_POINT('',(-8.0473305996624,-13.8294554376399,-45.5884652713946));
#474=CARTESIAN_POINT('',(-7.94698241007606,-13.8868812400028,-45.6836233963548));
#475=CARTESIAN_POINT('',(-7.8377334507094,-13.9494006454331,-45.7872219382919));
#476=CARTESIAN_POINT('',(-7.7152782655766,-14.0176887306763,-45.8742314212479));
#477=CARTESIAN_POINT('',(-7.58734230610621,-14.0865977698652,-45.948127318712));
#478=CARTESIAN_POINT('',(-8.3346375228795,-13.6577383692253,-44.801090747888));
#479=CARTESIAN_POINT('',(0.,0.,-435.90754596082));
#480=CARTESIAN_POINT('',(0.,0.,20.9080749503476));
#481=CARTESIAN_POINT('',(-20.,-15.5724568471087,-3.39869044004595));
#482=CARTESIAN_POINT('',(-20.,-17.,-2.06748491386233));
#483=CARTESIAN_POINT('',(-20.,-13.6577383692253,-44.801090747888));
#484=CARTESIAN_POINT('',(-20.,-15.0646288999782,-4.51301716791262));
#485=CARTESIAN_POINT('',(-20.,-15.0877582517449,-3.8506791924525));
#486=CARTESIAN_POINT('',(-20.,-14.0865977698652,-45.948127318712));
#487=CARTESIAN_POINT('',(-20.,-13.6346090174586,-45.4634287233481));
#488=CARTESIAN_POINT('',(-20.,-16.6636542232087,-4.56885636263662));
#489=CARTESIAN_POINT('',(-20.,-15.2567636924559,-44.856929942612));
#490=CARTESIAN_POINT('',(0.,0.,-110.9));
#491=CARTESIAN_POINT('',(0.,0.,-122.568386954541));
#492=CARTESIAN_POINT('',(13.,0.,-122.568386954541));
#493=CARTESIAN_POINT('',(0.,0.,-110.9));
#494=CARTESIAN_POINT('',(12.9978996903482,0.,-110.9));
#495=CARTESIAN_POINT('',(0.,0.,-132.568386954539));
#496=CARTESIAN_POINT('',(-12.9978996903482,0.,-110.9));
#497=CARTESIAN_POINT('',(-1.5283592053359E-14,0.,-127.3));
#498=CARTESIAN_POINT('',(0.,0.,-127.3));
#499=MECHANICAL_DESIGN_GEOMETRIC_PRESENTATION_REPRESENTATION('',(#242,#243,
#244,#245,#246,#247,#248,#249,#250),#500);
#500=(
GEOMETRIC_REPRESENTATION_CONTEXT(3)
GLOBAL_UNCERTAINTY_ASSIGNED_CONTEXT((#501))
GLOBAL_UNIT_ASSIGNED_CONTEXT((#507,#503,#502))
REPRESENTATION_CONTEXT('h85126.0-r95026','TOP_LEVEL_ASSEMBLY_PART')
);
#501=UNCERTAINTY_MEASURE_WITH_UNIT(LENGTH_MEASURE(0.0508),#507,
'DISTANCE_ACCURACY_VALUE','Maximum Tolerance applied to model');
#502=(
NAMED_UNIT(*)
SI_UNIT($,.STERADIAN.)
SOLID_ANGLE_UNIT()
);
#503=(
CONVERSION_BASED_UNIT('DEGREE',#505)
NAMED_UNIT(#504)
PLANE_ANGLE_UNIT()
);
#504=DIMENSIONAL_EXPONENTS(0.,0.,0.,0.,0.,0.,0.);
#505=PLANE_ANGLE_MEASURE_WITH_UNIT(PLANE_ANGLE_MEASURE(0.0174532925),#506);
#506=(
NAMED_UNIT(*)
PLANE_ANGLE_UNIT()
SI_UNIT($,.RADIAN.)
);
#507=(
LENGTH_UNIT()
NAMED_UNIT(*)
SI_UNIT(.MILLI.,.METRE.)
);
ENDSEC;
END-ISO-10303-21;
