ISO-10303-21;
HEADER;
/* Generated by software containing ST-Developer
 * from STEP Tools, Inc. (www.steptools.com) 
 */
/* OPTION: using custom schema-name function */

FILE_DESCRIPTION(
/* description */ (''),
/* implementation_level */ '2;1');

FILE_NAME(
/* name */ 'h85123.0-r95023.0_3d_light.stp',
/* time_stamp */ '2021-09-03T04:28:36+02:00',
/* author */ (''),
/* organization */ ('SMS'),
/* preprocessor_version */ 'ST-DEVELOPER v16.7',
/* originating_system */ 'SIEMENS PLM Software NX 12.0',
/* authorisation */ '');

FILE_SCHEMA (('AUTOMOTIVE_DESIGN { 1 0 10303 214 3 1 1 1 }'));
ENDSEC;

DATA;
#10=CONSTRUCTIVE_GEOMETRY_REPRESENTATION_RELATIONSHIP(
'supplemental geometry','',#26,#11);
#11=CONSTRUCTIVE_GEOMETRY_REPRESENTATION('supplemental geometry',(#271,
#272,#273),#497);
#12=GEOMETRICALLY_BOUNDED_WIREFRAME_SHAPE_REPRESENTATION(
'H85123.0-R95023.0_3D_light-None',(#27),#497);
#13=SHAPE_REPRESENTATION_RELATIONSHIP('None',
'relationship between H85123.0-R95023.0_3D_light-None and H85123.0-R95
023.0_3D_light-None',#26,#15);
#14=SHAPE_REPRESENTATION_RELATIONSHIP('None',
'relationship between H85123.0-R95023.0_3D_light-None and H85123.0-R95
023.0_3D_light-None',#26,#12);
#15=ADVANCED_BREP_SHAPE_REPRESENTATION(
'H85123.0-R95023.0_3D_light-None',(#39,#40),#497);
#16=SHAPE_DEFINITION_REPRESENTATION(#17,#26);
#17=PRODUCT_DEFINITION_SHAPE('','',#18);
#18=PRODUCT_DEFINITION(' ','',#20,#19);
#19=PRODUCT_DEFINITION_CONTEXT('part definition',#25,'design');
#20=PRODUCT_DEFINITION_FORMATION_WITH_SPECIFIED_SOURCE(' ',' ',#22,
 .NOT_KNOWN.);
#21=PRODUCT_RELATED_PRODUCT_CATEGORY('part','',(#22));
#22=PRODUCT('H85123.0-R95023.0_3D_light','H85123.0-R95023.0_3D_light',
' ',(#23));
#23=PRODUCT_CONTEXT(' ',#25,'mechanical');
#24=APPLICATION_PROTOCOL_DEFINITION('international standard',
'automotive_design',2010,#25);
#25=APPLICATION_CONTEXT(
'core data for automotive mechanical design processes');
#26=SHAPE_REPRESENTATION('H85123.0-R95023.0_3D_light-None',(#270),#497);
#27=GEOMETRIC_CURVE_SET('None',(#374,#375,#376,#234));
#28=VERTEX_LOOP('',#195);
#29=SURFACE_STYLE_USAGE(.BOTH.,#31);
#30=SURFACE_STYLE_USAGE(.BOTH.,#32);
#31=SURFACE_SIDE_STYLE('',(#33));
#32=SURFACE_SIDE_STYLE('',(#34));
#33=SURFACE_STYLE_FILL_AREA(#35);
#34=SURFACE_STYLE_FILL_AREA(#36);
#35=FILL_AREA_STYLE('',(#37));
#36=FILL_AREA_STYLE('',(#38));
#37=FILL_AREA_STYLE_COLOUR('',#268);
#38=FILL_AREA_STYLE_COLOUR('',#269);
#39=MANIFOLD_SOLID_BREP('NOCUT',#41);
#40=MANIFOLD_SOLID_BREP('CUT',#42);
#41=CLOSED_SHELL('',(#74,#75,#76,#77,#78,#79,#80,#81,#82,#83,#84,#85,#86));
#42=CLOSED_SHELL('',(#87,#88,#89));
#43=LINE('',#478,#47);
#44=LINE('',#480,#48);
#45=LINE('',#481,#49);
#46=LINE('',#483,#50);
#47=VECTOR('',#347,1.);
#48=VECTOR('',#350,1.);
#49=VECTOR('',#351,1.);
#50=VECTOR('',#354,1.);
#51=ELLIPSE('',#287,17.0915932637324,12.5);
#52=ELLIPSE('',#288,358.171354348049,12.5);
#53=ELLIPSE('',#289,18.3284898204953,12.5);
#54=ELLIPSE('',#290,358.171354348049,12.5);
#55=FACE_OUTER_BOUND('',#120,.T.);
#56=FACE_OUTER_BOUND('',#126,.T.);
#57=FACE_OUTER_BOUND('',#127,.T.);
#58=FACE_OUTER_BOUND('',#128,.T.);
#59=FACE_OUTER_BOUND('',#129,.T.);
#60=FACE_OUTER_BOUND('',#130,.T.);
#61=FACE_OUTER_BOUND('',#131,.T.);
#62=FACE_OUTER_BOUND('',#134,.T.);
#63=CONICAL_SURFACE('',#282,11.3,17.136274503576);
#64=CONICAL_SURFACE('',#286,12.5,45.);
#65=CONICAL_SURFACE('',#300,11.5018,0.0103132402009799);
#66=CONICAL_SURFACE('',#302,1.41446705301519E-14,70.);
#67=PLANE('',#279);
#68=PLANE('',#284);
#69=PLANE('',#292);
#70=PLANE('',#293);
#71=PLANE('',#294);
#72=PLANE('',#297);
#73=PLANE('',#301);
#74=ADVANCED_FACE('',(#95,#96),#90,.T.);
#75=ADVANCED_FACE('',(#97,#98),#67,.T.);
#76=ADVANCED_FACE('',(#99,#100),#91,.T.);
#77=ADVANCED_FACE('',(#101,#102),#63,.T.);
#78=ADVANCED_FACE('',(#55),#68,.T.);
#79=ADVANCED_FACE('',(#103,#104),#64,.T.);
#80=ADVANCED_FACE('CYL_FACE',(#105,#106,#107),#92,.T.);
#81=ADVANCED_FACE('',(#56),#69,.T.);
#82=ADVANCED_FACE('',(#57),#70,.T.);
#83=ADVANCED_FACE('',(#58),#71,.T.);
#84=ADVANCED_FACE('',(#59),#93,.F.);
#85=ADVANCED_FACE('',(#60),#94,.F.);
#86=ADVANCED_FACE('',(#61),#72,.T.);
#87=ADVANCED_FACE('',(#108,#109),#65,.T.);
#88=ADVANCED_FACE('',(#62),#73,.F.);
#89=ADVANCED_FACE('',(#110,#111),#66,.T.);
#90=CYLINDRICAL_SURFACE('',#276,11.3);
#91=CYLINDRICAL_SURFACE('',#281,15.);
#92=CYLINDRICAL_SURFACE('',#291,12.5);
#93=CYLINDRICAL_SURFACE('',#295,1.6);
#94=CYLINDRICAL_SURFACE('',#296,1.6);
#95=FACE_BOUND('',#112,.T.);
#96=FACE_BOUND('',#113,.T.);
#97=FACE_BOUND('',#114,.T.);
#98=FACE_BOUND('',#115,.T.);
#99=FACE_BOUND('',#116,.T.);
#100=FACE_BOUND('',#117,.T.);
#101=FACE_BOUND('',#118,.T.);
#102=FACE_BOUND('',#119,.T.);
#103=FACE_BOUND('',#121,.T.);
#104=FACE_BOUND('',#122,.T.);
#105=FACE_BOUND('',#123,.T.);
#106=FACE_BOUND('',#124,.T.);
#107=FACE_BOUND('',#125,.T.);
#108=FACE_BOUND('',#132,.T.);
#109=FACE_BOUND('',#133,.T.);
#110=FACE_BOUND('',#28,.T.);
#111=FACE_BOUND('',#135,.T.);
#112=EDGE_LOOP('',(#136));
#113=EDGE_LOOP('',(#137));
#114=EDGE_LOOP('',(#138));
#115=EDGE_LOOP('',(#139));
#116=EDGE_LOOP('',(#140));
#117=EDGE_LOOP('',(#141));
#118=EDGE_LOOP('',(#142));
#119=EDGE_LOOP('',(#143));
#120=EDGE_LOOP('',(#144));
#121=EDGE_LOOP('',(#145));
#122=EDGE_LOOP('',(#146));
#123=EDGE_LOOP('',(#147,#148,#149,#150,#151,#152,#153,#154));
#124=EDGE_LOOP('',(#155));
#125=EDGE_LOOP('',(#156));
#126=EDGE_LOOP('',(#157,#158));
#127=EDGE_LOOP('',(#159,#160,#161,#162));
#128=EDGE_LOOP('',(#163,#164));
#129=EDGE_LOOP('',(#165,#166,#167,#168));
#130=EDGE_LOOP('',(#169,#170,#171,#172));
#131=EDGE_LOOP('',(#173));
#132=EDGE_LOOP('',(#174));
#133=EDGE_LOOP('',(#175));
#134=EDGE_LOOP('',(#176));
#135=EDGE_LOOP('',(#177));
#136=ORIENTED_EDGE('',*,*,#196,.F.);
#137=ORIENTED_EDGE('',*,*,#197,.F.);
#138=ORIENTED_EDGE('',*,*,#198,.T.);
#139=ORIENTED_EDGE('',*,*,#199,.F.);
#140=ORIENTED_EDGE('',*,*,#199,.T.);
#141=ORIENTED_EDGE('',*,*,#200,.F.);
#142=ORIENTED_EDGE('',*,*,#200,.T.);
#143=ORIENTED_EDGE('',*,*,#197,.T.);
#144=ORIENTED_EDGE('',*,*,#201,.F.);
#145=ORIENTED_EDGE('',*,*,#201,.T.);
#146=ORIENTED_EDGE('',*,*,#202,.F.);
#147=ORIENTED_EDGE('',*,*,#203,.F.);
#148=ORIENTED_EDGE('',*,*,#204,.T.);
#149=ORIENTED_EDGE('',*,*,#205,.F.);
#150=ORIENTED_EDGE('',*,*,#206,.T.);
#151=ORIENTED_EDGE('',*,*,#207,.F.);
#152=ORIENTED_EDGE('',*,*,#208,.T.);
#153=ORIENTED_EDGE('',*,*,#209,.F.);
#154=ORIENTED_EDGE('',*,*,#210,.T.);
#155=ORIENTED_EDGE('',*,*,#202,.T.);
#156=ORIENTED_EDGE('',*,*,#198,.F.);
#157=ORIENTED_EDGE('',*,*,#211,.T.);
#158=ORIENTED_EDGE('',*,*,#204,.F.);
#159=ORIENTED_EDGE('',*,*,#212,.T.);
#160=ORIENTED_EDGE('',*,*,#206,.F.);
#161=ORIENTED_EDGE('',*,*,#213,.T.);
#162=ORIENTED_EDGE('',*,*,#210,.F.);
#163=ORIENTED_EDGE('',*,*,#214,.T.);
#164=ORIENTED_EDGE('',*,*,#208,.F.);
#165=ORIENTED_EDGE('',*,*,#203,.T.);
#166=ORIENTED_EDGE('',*,*,#213,.F.);
#167=ORIENTED_EDGE('',*,*,#205,.T.);
#168=ORIENTED_EDGE('',*,*,#211,.F.);
#169=ORIENTED_EDGE('',*,*,#209,.T.);
#170=ORIENTED_EDGE('',*,*,#214,.F.);
#171=ORIENTED_EDGE('',*,*,#207,.T.);
#172=ORIENTED_EDGE('',*,*,#212,.F.);
#173=ORIENTED_EDGE('',*,*,#196,.T.);
#174=ORIENTED_EDGE('',*,*,#215,.T.);
#175=ORIENTED_EDGE('',*,*,#216,.T.);
#176=ORIENTED_EDGE('',*,*,#216,.F.);
#177=ORIENTED_EDGE('',*,*,#215,.F.);
#178=VERTEX_POINT('',#394);
#179=VERTEX_POINT('',#396);
#180=VERTEX_POINT('',#399);
#181=VERTEX_POINT('',#401);
#182=VERTEX_POINT('',#404);
#183=VERTEX_POINT('',#408);
#184=VERTEX_POINT('',#411);
#185=VERTEX_POINT('',#426);
#186=VERTEX_POINT('',#427);
#187=VERTEX_POINT('',#429);
#188=VERTEX_POINT('',#443);
#189=VERTEX_POINT('',#445);
#190=VERTEX_POINT('',#459);
#191=VERTEX_POINT('',#461);
#192=VERTEX_POINT('',#475);
#193=VERTEX_POINT('',#489);
#194=VERTEX_POINT('',#491);
#195=VERTEX_POINT('',#494);
#196=EDGE_CURVE('',#178,#178,#217,.T.);
#197=EDGE_CURVE('',#179,#179,#218,.T.);
#198=EDGE_CURVE('',#180,#180,#219,.T.);
#199=EDGE_CURVE('',#181,#181,#220,.T.);
#200=EDGE_CURVE('',#182,#182,#221,.T.);
#201=EDGE_CURVE('',#183,#183,#222,.T.);
#202=EDGE_CURVE('',#184,#184,#223,.T.);
#203=EDGE_CURVE('',#185,#186,#235,.T.);
#204=EDGE_CURVE('',#185,#187,#51,.T.);
#205=EDGE_CURVE('',#188,#187,#236,.T.);
#206=EDGE_CURVE('',#188,#189,#52,.T.);
#207=EDGE_CURVE('',#190,#189,#237,.T.);
#208=EDGE_CURVE('',#190,#191,#53,.T.);
#209=EDGE_CURVE('',#192,#191,#238,.T.);
#210=EDGE_CURVE('',#192,#186,#54,.T.);
#211=EDGE_CURVE('',#185,#187,#43,.T.);
#212=EDGE_CURVE('',#192,#189,#44,.T.);
#213=EDGE_CURVE('',#188,#186,#45,.T.);
#214=EDGE_CURVE('',#190,#191,#46,.T.);
#215=EDGE_CURVE('',#193,#193,#224,.T.);
#216=EDGE_CURVE('',#194,#194,#225,.T.);
#217=CIRCLE('',#274,11.3);
#218=CIRCLE('',#275,11.3);
#219=CIRCLE('',#277,12.5);
#220=CIRCLE('',#278,15.);
#221=CIRCLE('',#280,15.);
#222=CIRCLE('',#283,11.5);
#223=CIRCLE('',#285,12.5);
#224=CIRCLE('',#298,11.5);
#225=CIRCLE('',#299,11.4980354183849);
#226=CURVE_STYLE('',#230,POSITIVE_LENGTH_MEASURE(0.18),#240);
#227=CURVE_STYLE('',#231,POSITIVE_LENGTH_MEASURE(0.13),#267);
#228=CURVE_STYLE('',#232,POSITIVE_LENGTH_MEASURE(0.18),#266);
#229=CURVE_STYLE('',#233,POSITIVE_LENGTH_MEASURE(0.18),#266);
#230=DRAUGHTING_PRE_DEFINED_CURVE_FONT('continuous');
#231=DRAUGHTING_PRE_DEFINED_CURVE_FONT('continuous');
#232=DRAUGHTING_PRE_DEFINED_CURVE_FONT('continuous');
#233=DRAUGHTING_PRE_DEFINED_CURVE_FONT('continuous');
#234=B_SPLINE_CURVE_WITH_KNOTS('CUTTING PART LINE',3,(#377,#378,#379,#380,
#381,#382,#383,#384,#385,#386,#387,#388,#389),.UNSPECIFIED.,.T.,.F.,(4,
3,3,3,4),(0.,0.303515011665234,0.534629339752162,0.754011246106801,1.),
 .UNSPECIFIED.);
#235=B_SPLINE_CURVE_WITH_KNOTS('',3,(#413,#414,#415,#416,#417,#418,#419,
#420,#421,#422,#423,#424,#425),.UNSPECIFIED.,.F.,.F.,(4,3,3,3,4),(0.,0.491131336875004,
0.679303273544973,0.870537414434154,1.),.UNSPECIFIED.);
#236=B_SPLINE_CURVE_WITH_KNOTS('',3,(#430,#431,#432,#433,#434,#435,#436,
#437,#438,#439,#440,#441,#442),.UNSPECIFIED.,.F.,.F.,(4,3,3,3,4),(0.,0.126327675418301,
0.28660051644285,0.549902758506162,1.),.UNSPECIFIED.);
#237=B_SPLINE_CURVE_WITH_KNOTS('',3,(#446,#447,#448,#449,#450,#451,#452,
#453,#454,#455,#456,#457,#458),.UNSPECIFIED.,.F.,.F.,(4,3,3,3,4),(0.,0.391270122577184,
0.665384352989221,0.892583682270062,1.),.UNSPECIFIED.);
#238=B_SPLINE_CURVE_WITH_KNOTS('',3,(#462,#463,#464,#465,#466,#467,#468,
#469,#470,#471,#472,#473,#474),.UNSPECIFIED.,.F.,.F.,(4,3,3,3,4),(0.,0.250959729373697,
0.499531735075398,0.85589714423705,1.),.UNSPECIFIED.);
#239=DRAUGHTING_PRE_DEFINED_COLOUR('white');
#240=DRAUGHTING_PRE_DEFINED_COLOUR('blue');
#241=PRESENTATION_LAYER_ASSIGNMENT('1','Layer 1',(#374,#375,#376,#234,#271,
#272,#273,#39,#40));
#242=STYLED_ITEM('',(#251),#374);
#243=STYLED_ITEM('',(#252),#375);
#244=STYLED_ITEM('',(#253),#376);
#245=STYLED_ITEM('',(#254),#234);
#246=STYLED_ITEM('',(#255),#271);
#247=STYLED_ITEM('',(#256),#272);
#248=STYLED_ITEM('',(#257),#273);
#249=STYLED_ITEM('',(#258),#39);
#250=STYLED_ITEM('',(#259),#40);
#251=PRESENTATION_STYLE_ASSIGNMENT((#260));
#252=PRESENTATION_STYLE_ASSIGNMENT((#261));
#253=PRESENTATION_STYLE_ASSIGNMENT((#262));
#254=PRESENTATION_STYLE_ASSIGNMENT((#226));
#255=PRESENTATION_STYLE_ASSIGNMENT((#227));
#256=PRESENTATION_STYLE_ASSIGNMENT((#228));
#257=PRESENTATION_STYLE_ASSIGNMENT((#229));
#258=PRESENTATION_STYLE_ASSIGNMENT((#29));
#259=PRESENTATION_STYLE_ASSIGNMENT((#30));
#260=POINT_STYLE('',#263,POSITIVE_LENGTH_MEASURE(3.),#266);
#261=POINT_STYLE('',#264,POSITIVE_LENGTH_MEASURE(3.),#239);
#262=POINT_STYLE('',#265,POSITIVE_LENGTH_MEASURE(3.),#266);
#263=PRE_DEFINED_POINT_MARKER_SYMBOL('plus');
#264=PRE_DEFINED_POINT_MARKER_SYMBOL('plus');
#265=PRE_DEFINED_POINT_MARKER_SYMBOL('plus');
#266=COLOUR_RGB('Medium Maroon',0.6,0.4,0.4);
#267=COLOUR_RGB('Silver Gray',0.6,0.6,0.6);
#268=COLOUR_RGB('TLS_NOCUT',0.498023956664378,0.498023956664378,0.498023956664378);
#269=COLOUR_RGB('TLS_CUT',0.8,0.8,0.8);
#270=AXIS2_PLACEMENT_3D('',#373,#303,#304);
#271=AXIS2_PLACEMENT_3D('PCS',#390,#305,#306);
#272=AXIS2_PLACEMENT_3D('MCS',#391,#307,#308);
#273=AXIS2_PLACEMENT_3D('CIP',#392,#309,#310);
#274=AXIS2_PLACEMENT_3D('',#393,#311,#312);
#275=AXIS2_PLACEMENT_3D('',#395,#313,#314);
#276=AXIS2_PLACEMENT_3D('',#397,#315,#316);
#277=AXIS2_PLACEMENT_3D('',#398,#317,#318);
#278=AXIS2_PLACEMENT_3D('',#400,#319,#320);
#279=AXIS2_PLACEMENT_3D('',#402,#321,#322);
#280=AXIS2_PLACEMENT_3D('',#403,#323,#324);
#281=AXIS2_PLACEMENT_3D('',#405,#325,#326);
#282=AXIS2_PLACEMENT_3D('',#406,#327,#328);
#283=AXIS2_PLACEMENT_3D('',#407,#329,#330);
#284=AXIS2_PLACEMENT_3D('',#409,#331,#332);
#285=AXIS2_PLACEMENT_3D('',#410,#333,#334);
#286=AXIS2_PLACEMENT_3D('',#412,#335,#336);
#287=AXIS2_PLACEMENT_3D('',#428,#337,#338);
#288=AXIS2_PLACEMENT_3D('',#444,#339,#340);
#289=AXIS2_PLACEMENT_3D('',#460,#341,#342);
#290=AXIS2_PLACEMENT_3D('',#476,#343,#344);
#291=AXIS2_PLACEMENT_3D('',#477,#345,#346);
#292=AXIS2_PLACEMENT_3D('',#479,#348,#349);
#293=AXIS2_PLACEMENT_3D('',#482,#352,#353);
#294=AXIS2_PLACEMENT_3D('',#484,#355,#356);
#295=AXIS2_PLACEMENT_3D('',#485,#357,#358);
#296=AXIS2_PLACEMENT_3D('',#486,#359,#360);
#297=AXIS2_PLACEMENT_3D('',#487,#361,#362);
#298=AXIS2_PLACEMENT_3D('',#488,#363,#364);
#299=AXIS2_PLACEMENT_3D('',#490,#365,#366);
#300=AXIS2_PLACEMENT_3D('',#492,#367,#368);
#301=AXIS2_PLACEMENT_3D('',#493,#369,#370);
#302=AXIS2_PLACEMENT_3D('',#495,#371,#372);
#303=DIRECTION('',(0.,0.,1.));
#304=DIRECTION('',(1.,0.,0.));
#305=DIRECTION('',(0.,0.,1.));
#306=DIRECTION('',(1.,0.,0.));
#307=DIRECTION('',(0.,0.,1.));
#308=DIRECTION('',(1.,0.,0.));
#309=DIRECTION('',(0.,0.,1.));
#310=DIRECTION('',(1.,0.,0.));
#311=DIRECTION('',(0.,0.,-1.));
#312=DIRECTION('',(1.,0.,0.));
#313=DIRECTION('',(0.,0.,1.));
#314=DIRECTION('',(-1.,0.,0.));
#315=DIRECTION('',(0.,0.,1.));
#316=DIRECTION('',(1.,0.,0.));
#317=DIRECTION('',(0.,0.,-1.));
#318=DIRECTION('',(-1.,0.,0.));
#319=DIRECTION('',(0.,0.,-1.));
#320=DIRECTION('',(-1.,0.,0.));
#321=DIRECTION('',(0.,0.,1.));
#322=DIRECTION('',(1.,0.,0.));
#323=DIRECTION('',(0.,0.,-1.));
#324=DIRECTION('',(-1.,0.,0.));
#325=DIRECTION('',(0.,0.,-1.));
#326=DIRECTION('',(-1.,0.,0.));
#327=DIRECTION('',(0.,0.,1.));
#328=DIRECTION('',(1.,0.,1.73671346014989E-16));
#329=DIRECTION('',(0.,0.,-1.));
#330=DIRECTION('',(-1.,0.,0.));
#331=DIRECTION('',(0.,0.,1.));
#332=DIRECTION('',(1.,0.,0.));
#333=DIRECTION('',(0.,0.,-1.));
#334=DIRECTION('',(-1.,0.,0.));
#335=DIRECTION('',(0.,0.,-1.));
#336=DIRECTION('',(-1.,0.,1.09651656753102E-16));
#337=DIRECTION('',(0.,0.681998360062498,0.731353701619171));
#338=DIRECTION('',(0.,0.731353701619171,-0.681998360062498));
#339=DIRECTION('',(0.,0.999390827019096,0.0348994967025009));
#340=DIRECTION('',(0.,0.0348994967025008,-0.999390827019096));
#341=DIRECTION('',(0.,0.731353701619171,-0.681998360062499));
#342=DIRECTION('',(0.,-0.681998360062499,-0.731353701619171));
#343=DIRECTION('',(0.,0.999390827019096,0.0348994967025009));
#344=DIRECTION('',(0.,0.0348994967025008,-0.999390827019096));
#345=DIRECTION('',(0.,0.,-1.));
#346=DIRECTION('',(-1.,0.,0.));
#347=DIRECTION('',(1.,0.,0.));
#348=DIRECTION('',(0.,-0.681998360062498,-0.731353701619171));
#349=DIRECTION('',(0.,-0.731353701619171,0.681998360062498));
#350=DIRECTION('',(1.,0.,0.));
#351=DIRECTION('',(-1.,0.,0.));
#352=DIRECTION('',(0.,-0.999390827019096,-0.0348994967025008));
#353=DIRECTION('',(0.,-0.0348994967025008,0.999390827019096));
#354=DIRECTION('',(-1.,0.,0.));
#355=DIRECTION('',(0.,-0.73135370161917,0.681998360062498));
#356=DIRECTION('',(0.,0.681998360062499,0.731353701619171));
#357=DIRECTION('',(1.,0.,0.));
#358=DIRECTION('',(0.,0.,-1.));
#359=DIRECTION('',(1.,0.,0.));
#360=DIRECTION('',(0.,0.,-0.999999999999998));
#361=DIRECTION('',(0.,0.,-1.));
#362=DIRECTION('',(-1.,0.,0.));
#363=DIRECTION('',(0.,0.,1.));
#364=DIRECTION('',(1.,0.,0.));
#365=DIRECTION('',(0.,0.,-1.));
#366=DIRECTION('',(1.,0.,0.));
#367=DIRECTION('',(0.,0.,-1.));
#368=DIRECTION('',(-1.,0.,-7.12790210814136E-15));
#369=DIRECTION('',(0.,0.,-1.));
#370=DIRECTION('',(-1.,0.,0.));
#371=DIRECTION('',(0.,0.,1.));
#372=DIRECTION('',(1.,0.,1.01022033590138E-17));
#373=CARTESIAN_POINT('',(0.,0.,0.));
#374=CARTESIAN_POINT('',(0.,0.,-56.));
#375=CARTESIAN_POINT('CRP',(-11.5,0.,-113.814342305939));
#376=CARTESIAN_POINT('CIP_DCSYS',(0.,0.,-118.));
#377=CARTESIAN_POINT('',(0.,0.,-118.));
#378=CARTESIAN_POINT('',(0.,0.,-112.966666666667));
#379=CARTESIAN_POINT('',(0.,0.,-107.933333333333));
#380=CARTESIAN_POINT('',(0.,0.,-102.9));
#381=CARTESIAN_POINT('',(-3.83267847279498,0.,-102.9));
#382=CARTESIAN_POINT('',(-7.66535694558996,0.,-102.9));
#383=CARTESIAN_POINT('',(-11.4980354183849,0.,-102.900000000004));
#384=CARTESIAN_POINT('',(-11.4986902789233,0.,-106.538114101985));
#385=CARTESIAN_POINT('',(-11.4993451394616,0.,-110.176228203962));
#386=CARTESIAN_POINT('',(-11.5,0.,-113.814342305939));
#387=CARTESIAN_POINT('',(-7.66666666666667,0.,-115.209561537292));
#388=CARTESIAN_POINT('',(-3.83333333333333,0.,-116.604780768646));
#389=CARTESIAN_POINT('',(4.46023502636103E-15,0.,-118.));
#390=CARTESIAN_POINT('',(0.,0.,0.));
#391=CARTESIAN_POINT('',(0.,0.,-56.));
#392=CARTESIAN_POINT('',(0.,0.,-118.));
#393=CARTESIAN_POINT('',(0.,0.,-102.9));
#394=CARTESIAN_POINT('',(11.3,0.,-102.9));
#395=CARTESIAN_POINT('',(0.,0.,-71.));
#396=CARTESIAN_POINT('',(-11.3,0.,-71.));
#397=CARTESIAN_POINT('',(0.,0.,20.9080749503476));
#398=CARTESIAN_POINT('',(0.,0.,-56.));
#399=CARTESIAN_POINT('',(-12.5,0.,-56.));
#400=CARTESIAN_POINT('',(0.,0.,-56.));
#401=CARTESIAN_POINT('',(-15.,0.,-56.));
#402=CARTESIAN_POINT('',(-15.,0.,-56.));
#403=CARTESIAN_POINT('',(0.,0.,-59.));
#404=CARTESIAN_POINT('',(-15.,0.,-59.));
#405=CARTESIAN_POINT('',(0.,0.,20.9080749503476));
#406=CARTESIAN_POINT('',(0.,0.,-71.));
#407=CARTESIAN_POINT('',(0.,0.,0.));
#408=CARTESIAN_POINT('',(-11.5,0.,0.));
#409=CARTESIAN_POINT('',(-11.5,0.,6.10622663543836E-16));
#410=CARTESIAN_POINT('',(0.,0.,-1.));
#411=CARTESIAN_POINT('',(-12.5,0.,-1.));
#412=CARTESIAN_POINT('',(0.,0.,-1.));
#413=CARTESIAN_POINT('',(-3.6205909735546,-11.9641682118823,-3.49967122605187));
#414=CARTESIAN_POINT('',(-3.91389528705163,-11.87540859808,-3.58244090496223));
#415=CARTESIAN_POINT('',(-4.20266908820143,-11.7754621060775,-3.69102825523264));
#416=CARTESIAN_POINT('',(-4.45670990440016,-11.6785160370666,-3.85480014694065));
#417=CARTESIAN_POINT('',(-4.55486503692705,-11.6410584568473,-3.91807758391048));
#418=CARTESIAN_POINT('',(-4.64845978346348,-11.6038687407932,-3.99058104128525));
#419=CARTESIAN_POINT('',(-4.73097994830078,-11.570126564942,-4.07480349880564));
#420=CARTESIAN_POINT('',(-4.81424578280569,-11.5360794876511,-4.15978700827048));
#421=CARTESIAN_POINT('',(-4.88814521209517,-11.5047345841312,-4.25943954030359));
#422=CARTESIAN_POINT('',(-4.93745943432953,-11.4835314400384,-4.37094350307984));
#423=CARTESIAN_POINT('',(-4.9709987156163,-11.4691108899076,-4.44677888286886));
#424=CARTESIAN_POINT('',(-4.99351826281422,-11.4592682548284,-4.53015128847377));
#425=CARTESIAN_POINT('',(-5.00022676868039,-11.4563402647517,-4.61399795391855));
#426=CARTESIAN_POINT('',(-3.6205909735546,-11.9641682118823,-3.49967122605187));
#427=CARTESIAN_POINT('',(-5.00022676868039,-11.4563402647517,-4.61399795391855));
#428=CARTESIAN_POINT('',(0.,0.,-14.6564385767208));
#429=CARTESIAN_POINT('',(3.6205909735546,-11.9641682118823,-3.49967122605187));
#430=CARTESIAN_POINT('',(5.00022676868039,-11.4563402647517,-4.61399795391855));
#431=CARTESIAN_POINT('',(4.9936819197522,-11.4591968252284,-4.53219676459035));
#432=CARTESIAN_POINT('',(4.97211339633092,-11.4686230997891,-4.45085090877786));
#433=CARTESIAN_POINT('',(4.93993059854638,-11.4824686231466,-4.37658787241066));
#434=CARTESIAN_POINT('',(4.89911515923276,-11.5000280386499,-4.28240468565412));
#435=CARTESIAN_POINT('',(4.84065564430139,-11.5248961055671,-4.19646014715334));
#436=CARTESIAN_POINT('',(4.7741568948132,-11.5523775017832,-4.12117804433124));
#437=CARTESIAN_POINT('',(4.66522715742576,-11.5973940065432,-3.99786054206989));
#438=CARTESIAN_POINT('',(4.5321546540578,-11.6503991463946,-3.89802938942383));
#439=CARTESIAN_POINT('',(4.39257865119767,-11.7027882486629,-3.81512401480192));
#440=CARTESIAN_POINT('',(4.15421720081085,-11.7922559375581,-3.67354204558946));
#441=CARTESIAN_POINT('',(3.88977483724848,-11.8827079172879,-3.57563417968235));
#442=CARTESIAN_POINT('',(3.6205909735546,-11.9641682118823,-3.49967122605187));
#443=CARTESIAN_POINT('',(5.00022676868039,-11.4563402647517,-4.61399795391855));
#444=CARTESIAN_POINT('',(0.,0.,-332.680659470615));
#445=CARTESIAN_POINT('',(7.23777548279986,-10.1913986312273,-40.8371869596301));
#446=CARTESIAN_POINT('',(6.59242894057729,-10.6202580318672,-41.9842235304541));
#447=CARTESIAN_POINT('',(6.73239958328264,-10.5333725237154,-41.8910502301575));
#448=CARTESIAN_POINT('',(6.86357167447969,-10.4478851193573,-41.7771952215982));
#449=CARTESIAN_POINT('',(6.97153774790053,-10.3753390994993,-41.6397087196166));
#450=CARTESIAN_POINT('',(7.04732786801475,-10.3244131800448,-41.5431958228415));
#451=CARTESIAN_POINT('',(7.11291009075693,-10.2790931336992,-41.4327952149128));
#452=CARTESIAN_POINT('',(7.159609580173,-10.246462348513,-41.3127672166393));
#453=CARTESIAN_POINT('',(7.19833981088863,-10.2194000004125,-41.2132219727064));
#454=CARTESIAN_POINT('',(7.2246808479356,-10.2006927785596,-41.1046839131647));
#455=CARTESIAN_POINT('',(7.23455194504945,-10.1936871716951,-40.9951615868568));
#456=CARTESIAN_POINT('',(7.23927071139773,-10.1903382205562,-40.9428056772951));
#457=CARTESIAN_POINT('',(7.24036087314814,-10.1895625265322,-40.8897661187324));
#458=CARTESIAN_POINT('',(7.23777548279986,-10.1913986312273,-40.8371869596301));
#459=CARTESIAN_POINT('',(6.59242894057729,-10.6202580318672,-41.9842235304541));
#460=CARTESIAN_POINT('',(0.,0.,-30.5953911246915));
#461=CARTESIAN_POINT('',(-6.59242894057729,-10.6202580318672,-41.9842235304541));
#462=CARTESIAN_POINT('',(-7.23777548279986,-10.1913986312273,-40.8371869596301));
#463=CARTESIAN_POINT('',(-7.24372894819923,-10.1871705711283,-40.9582627595194));
#464=CARTESIAN_POINT('',(-7.22940687099564,-10.1974102681277,-41.0828089119964));
#465=CARTESIAN_POINT('',(-7.19774349107635,-10.2197107902655,-41.1977557981907));
#466=CARTESIAN_POINT('',(-7.16624821213432,-10.2418929188655,-41.3120924310275));
#467=CARTESIAN_POINT('',(-7.11723036321942,-10.2761993151657,-41.4203881660696));
#468=CARTESIAN_POINT('',(-7.05748159425157,-10.3170709771136,-41.5169099609647));
#469=CARTESIAN_POINT('',(-6.97208733123169,-10.3754856609764,-41.654861046532));
#470=CARTESIAN_POINT('',(-6.86283987359602,-10.4485133775156,-41.773270495072));
#471=CARTESIAN_POINT('',(-6.74375645081394,-10.5248158621472,-41.8719215301108));
#472=CARTESIAN_POINT('',(-6.69513075152201,-10.5559726897412,-41.9122040098428));
#473=CARTESIAN_POINT('',(-6.64450156039526,-10.5879344249577,-41.9495607058092));
#474=CARTESIAN_POINT('',(-6.59242894057729,-10.6202580318672,-41.9842235304541));
#475=CARTESIAN_POINT('',(-7.23777548279986,-10.1913986312273,-40.8371869596301));
#476=CARTESIAN_POINT('',(0.,0.,-332.680659470615));
#477=CARTESIAN_POINT('',(0.,0.,20.9080749503476));
#478=CARTESIAN_POINT('',(-20.,-11.9641682118823,-3.49967122605187));
#479=CARTESIAN_POINT('',(-20.,-13.5,-2.06748491386234));
#480=CARTESIAN_POINT('',(-20.,-10.1913986312273,-40.8371869596301));
#481=CARTESIAN_POINT('',(-20.,-11.4563402647517,-4.61399795391855));
#482=CARTESIAN_POINT('',(-20.,-11.4794696165184,-3.95165997845843));
#483=CARTESIAN_POINT('',(-20.,-10.6202580318672,-41.9842235304541));
#484=CARTESIAN_POINT('',(-20.,-10.1682692794606,-41.4995249350902));
#485=CARTESIAN_POINT('',(-20.,-13.0553655879823,-4.66983714864255));
#486=CARTESIAN_POINT('',(-20.,-11.7904239544578,-40.8930261543541));
#487=CARTESIAN_POINT('',(0.,0.,-102.9));
#488=CARTESIAN_POINT('',(0.,0.,-113.814342305936));
#489=CARTESIAN_POINT('',(11.5,0.,-113.814342305936));
#490=CARTESIAN_POINT('',(0.,0.,-102.9));
#491=CARTESIAN_POINT('',(11.4980354183849,0.,-102.9));
#492=CARTESIAN_POINT('',(0.,0.,-123.814342305939));
#493=CARTESIAN_POINT('',(-11.4980354183849,0.,-102.9));
#494=CARTESIAN_POINT('',(-1.41446705301519E-14,0.,-118.));
#495=CARTESIAN_POINT('',(0.,0.,-118.));
#496=MECHANICAL_DESIGN_GEOMETRIC_PRESENTATION_REPRESENTATION('',(#242,#243,
#244,#245,#246,#247,#248,#249,#250),#497);
#497=(
GEOMETRIC_REPRESENTATION_CONTEXT(3)
GLOBAL_UNCERTAINTY_ASSIGNED_CONTEXT((#498))
GLOBAL_UNIT_ASSIGNED_CONTEXT((#504,#500,#499))
REPRESENTATION_CONTEXT('h85123.0-r95023','TOP_LEVEL_ASSEMBLY_PART')
);
#498=UNCERTAINTY_MEASURE_WITH_UNIT(LENGTH_MEASURE(0.0508),#504,
'DISTANCE_ACCURACY_VALUE','Maximum Tolerance applied to model');
#499=(
NAMED_UNIT(*)
SI_UNIT($,.STERADIAN.)
SOLID_ANGLE_UNIT()
);
#500=(
CONVERSION_BASED_UNIT('DEGREE',#502)
NAMED_UNIT(#501)
PLANE_ANGLE_UNIT()
);
#501=DIMENSIONAL_EXPONENTS(0.,0.,0.,0.,0.,0.,0.);
#502=PLANE_ANGLE_MEASURE_WITH_UNIT(PLANE_ANGLE_MEASURE(0.0174532925),#503);
#503=(
NAMED_UNIT(*)
PLANE_ANGLE_UNIT()
SI_UNIT($,.RADIAN.)
);
#504=(
LENGTH_UNIT()
NAMED_UNIT(*)
SI_UNIT(.MILLI.,.METRE.)
);
ENDSEC;
END-ISO-10303-21;
