ISO-10303-21;
HEADER;
/* Generated by software containing ST-Developer
 * from STEP Tools, Inc. (www.steptools.com) 
 */
/* OPTION: using custom schema-name function */

FILE_DESCRIPTION(
/* description */ (''),
/* implementation_level */ '2;1');

FILE_NAME(
/* name */ 'h85118.0-r95018.0_3d_light.stp',
/* time_stamp */ '2021-09-03T04:03:26+02:00',
/* author */ (''),
/* organization */ ('SMS'),
/* preprocessor_version */ 'ST-DEVELOPER v16.7',
/* originating_system */ 'SIEMENS PLM Software NX 12.0',
/* authorisation */ '');

FILE_SCHEMA (('AUTOMOTIVE_DESIGN { 1 0 10303 214 3 1 1 1 }'));
ENDSEC;

DATA;
#10=CONSTRUCTIVE_GEOMETRY_REPRESENTATION_RELATIONSHIP(
'supplemental geometry','',#26,#11);
#11=CONSTRUCTIVE_GEOMETRY_REPRESENTATION('supplemental geometry',(#271,
#272,#273),#497);
#12=GEOMETRICALLY_BOUNDED_WIREFRAME_SHAPE_REPRESENTATION(
'H85118.0-R95018.0_3D_light-None',(#27),#497);
#13=SHAPE_REPRESENTATION_RELATIONSHIP('None',
'relationship between H85118.0-R95018.0_3D_light-None and H85118.0-R95
018.0_3D_light-None',#26,#15);
#14=SHAPE_REPRESENTATION_RELATIONSHIP('None',
'relationship between H85118.0-R95018.0_3D_light-None and H85118.0-R95
018.0_3D_light-None',#26,#12);
#15=ADVANCED_BREP_SHAPE_REPRESENTATION(
'H85118.0-R95018.0_3D_light-None',(#39,#40),#497);
#16=SHAPE_DEFINITION_REPRESENTATION(#17,#26);
#17=PRODUCT_DEFINITION_SHAPE('','',#18);
#18=PRODUCT_DEFINITION(' ','',#20,#19);
#19=PRODUCT_DEFINITION_CONTEXT('part definition',#25,'design');
#20=PRODUCT_DEFINITION_FORMATION_WITH_SPECIFIED_SOURCE(' ',' ',#22,
 .NOT_KNOWN.);
#21=PRODUCT_RELATED_PRODUCT_CATEGORY('part','',(#22));
#22=PRODUCT('H85118.0-R95018.0_3D_light','H85118.0-R95018.0_3D_light',
' ',(#23));
#23=PRODUCT_CONTEXT(' ',#25,'mechanical');
#24=APPLICATION_PROTOCOL_DEFINITION('international standard',
'automotive_design',2010,#25);
#25=APPLICATION_CONTEXT(
'core data for automotive mechanical design processes');
#26=SHAPE_REPRESENTATION('H85118.0-R95018.0_3D_light-None',(#270),#497);
#27=GEOMETRIC_CURVE_SET('None',(#374,#375,#376,#234));
#28=VERTEX_LOOP('',#195);
#29=SURFACE_STYLE_USAGE(.BOTH.,#31);
#30=SURFACE_STYLE_USAGE(.BOTH.,#32);
#31=SURFACE_SIDE_STYLE('',(#33));
#32=SURFACE_SIDE_STYLE('',(#34));
#33=SURFACE_STYLE_FILL_AREA(#35);
#34=SURFACE_STYLE_FILL_AREA(#36);
#35=FILL_AREA_STYLE('',(#37));
#36=FILL_AREA_STYLE('',(#38));
#37=FILL_AREA_STYLE_COLOUR('',#268);
#38=FILL_AREA_STYLE_COLOUR('',#269);
#39=MANIFOLD_SOLID_BREP('NOCUT',#41);
#40=MANIFOLD_SOLID_BREP('CUT',#42);
#41=CLOSED_SHELL('',(#74,#75,#76,#77,#78,#79,#80,#81,#82,#83,#84,#85,#86));
#42=CLOSED_SHELL('',(#87,#88,#89));
#43=LINE('',#478,#47);
#44=LINE('',#480,#48);
#45=LINE('',#481,#49);
#46=LINE('',#483,#50);
#47=VECTOR('',#347,1.);
#48=VECTOR('',#350,1.);
#49=VECTOR('',#351,1.);
#50=VECTOR('',#354,1.);
#51=ELLIPSE('',#287,13.673274610986,10.);
#52=ELLIPSE('',#288,286.537083478439,10.);
#53=ELLIPSE('',#289,14.6627918563962,10.);
#54=ELLIPSE('',#290,286.537083478439,10.);
#55=FACE_OUTER_BOUND('',#120,.T.);
#56=FACE_OUTER_BOUND('',#126,.T.);
#57=FACE_OUTER_BOUND('',#127,.T.);
#58=FACE_OUTER_BOUND('',#128,.T.);
#59=FACE_OUTER_BOUND('',#129,.T.);
#60=FACE_OUTER_BOUND('',#130,.T.);
#61=FACE_OUTER_BOUND('',#131,.T.);
#62=FACE_OUTER_BOUND('',#134,.T.);
#63=CONICAL_SURFACE('',#282,8.7,17.5712587783224);
#64=CONICAL_SURFACE('',#286,10.,45.);
#65=CONICAL_SURFACE('',#300,9.0018,0.0103132402009736);
#66=CONICAL_SURFACE('',#302,1.86306735425213E-14,69.9999999999999);
#67=PLANE('',#279);
#68=PLANE('',#284);
#69=PLANE('',#292);
#70=PLANE('',#293);
#71=PLANE('',#294);
#72=PLANE('',#297);
#73=PLANE('',#301);
#74=ADVANCED_FACE('',(#95,#96),#90,.T.);
#75=ADVANCED_FACE('',(#97,#98),#67,.T.);
#76=ADVANCED_FACE('',(#99,#100),#91,.T.);
#77=ADVANCED_FACE('',(#101,#102),#63,.T.);
#78=ADVANCED_FACE('',(#55),#68,.T.);
#79=ADVANCED_FACE('',(#103,#104),#64,.T.);
#80=ADVANCED_FACE('CYL_FACE',(#105,#106,#107),#92,.T.);
#81=ADVANCED_FACE('',(#56),#69,.T.);
#82=ADVANCED_FACE('',(#57),#70,.T.);
#83=ADVANCED_FACE('',(#58),#71,.T.);
#84=ADVANCED_FACE('',(#59),#93,.F.);
#85=ADVANCED_FACE('',(#60),#94,.F.);
#86=ADVANCED_FACE('',(#61),#72,.T.);
#87=ADVANCED_FACE('',(#108,#109),#65,.T.);
#88=ADVANCED_FACE('',(#62),#73,.F.);
#89=ADVANCED_FACE('',(#110,#111),#66,.T.);
#90=CYLINDRICAL_SURFACE('',#276,8.70000000000001);
#91=CYLINDRICAL_SURFACE('',#281,12.5);
#92=CYLINDRICAL_SURFACE('',#291,10.);
#93=CYLINDRICAL_SURFACE('',#295,1.6);
#94=CYLINDRICAL_SURFACE('',#296,1.6);
#95=FACE_BOUND('',#112,.T.);
#96=FACE_BOUND('',#113,.T.);
#97=FACE_BOUND('',#114,.T.);
#98=FACE_BOUND('',#115,.T.);
#99=FACE_BOUND('',#116,.T.);
#100=FACE_BOUND('',#117,.T.);
#101=FACE_BOUND('',#118,.T.);
#102=FACE_BOUND('',#119,.T.);
#103=FACE_BOUND('',#121,.T.);
#104=FACE_BOUND('',#122,.T.);
#105=FACE_BOUND('',#123,.T.);
#106=FACE_BOUND('',#124,.T.);
#107=FACE_BOUND('',#125,.T.);
#108=FACE_BOUND('',#132,.T.);
#109=FACE_BOUND('',#133,.T.);
#110=FACE_BOUND('',#28,.T.);
#111=FACE_BOUND('',#135,.T.);
#112=EDGE_LOOP('',(#136));
#113=EDGE_LOOP('',(#137));
#114=EDGE_LOOP('',(#138));
#115=EDGE_LOOP('',(#139));
#116=EDGE_LOOP('',(#140));
#117=EDGE_LOOP('',(#141));
#118=EDGE_LOOP('',(#142));
#119=EDGE_LOOP('',(#143));
#120=EDGE_LOOP('',(#144));
#121=EDGE_LOOP('',(#145));
#122=EDGE_LOOP('',(#146));
#123=EDGE_LOOP('',(#147,#148,#149,#150,#151,#152,#153,#154));
#124=EDGE_LOOP('',(#155));
#125=EDGE_LOOP('',(#156));
#126=EDGE_LOOP('',(#157,#158));
#127=EDGE_LOOP('',(#159,#160,#161,#162));
#128=EDGE_LOOP('',(#163,#164));
#129=EDGE_LOOP('',(#165,#166,#167,#168));
#130=EDGE_LOOP('',(#169,#170,#171,#172));
#131=EDGE_LOOP('',(#173));
#132=EDGE_LOOP('',(#174));
#133=EDGE_LOOP('',(#175));
#134=EDGE_LOOP('',(#176));
#135=EDGE_LOOP('',(#177));
#136=ORIENTED_EDGE('',*,*,#196,.F.);
#137=ORIENTED_EDGE('',*,*,#197,.F.);
#138=ORIENTED_EDGE('',*,*,#198,.T.);
#139=ORIENTED_EDGE('',*,*,#199,.F.);
#140=ORIENTED_EDGE('',*,*,#199,.T.);
#141=ORIENTED_EDGE('',*,*,#200,.F.);
#142=ORIENTED_EDGE('',*,*,#200,.T.);
#143=ORIENTED_EDGE('',*,*,#197,.T.);
#144=ORIENTED_EDGE('',*,*,#201,.F.);
#145=ORIENTED_EDGE('',*,*,#201,.T.);
#146=ORIENTED_EDGE('',*,*,#202,.F.);
#147=ORIENTED_EDGE('',*,*,#203,.F.);
#148=ORIENTED_EDGE('',*,*,#204,.T.);
#149=ORIENTED_EDGE('',*,*,#205,.F.);
#150=ORIENTED_EDGE('',*,*,#206,.T.);
#151=ORIENTED_EDGE('',*,*,#207,.F.);
#152=ORIENTED_EDGE('',*,*,#208,.T.);
#153=ORIENTED_EDGE('',*,*,#209,.F.);
#154=ORIENTED_EDGE('',*,*,#210,.T.);
#155=ORIENTED_EDGE('',*,*,#202,.T.);
#156=ORIENTED_EDGE('',*,*,#198,.F.);
#157=ORIENTED_EDGE('',*,*,#211,.T.);
#158=ORIENTED_EDGE('',*,*,#204,.F.);
#159=ORIENTED_EDGE('',*,*,#212,.T.);
#160=ORIENTED_EDGE('',*,*,#206,.F.);
#161=ORIENTED_EDGE('',*,*,#213,.T.);
#162=ORIENTED_EDGE('',*,*,#210,.F.);
#163=ORIENTED_EDGE('',*,*,#214,.T.);
#164=ORIENTED_EDGE('',*,*,#208,.F.);
#165=ORIENTED_EDGE('',*,*,#203,.T.);
#166=ORIENTED_EDGE('',*,*,#213,.F.);
#167=ORIENTED_EDGE('',*,*,#205,.T.);
#168=ORIENTED_EDGE('',*,*,#211,.F.);
#169=ORIENTED_EDGE('',*,*,#209,.T.);
#170=ORIENTED_EDGE('',*,*,#214,.F.);
#171=ORIENTED_EDGE('',*,*,#207,.T.);
#172=ORIENTED_EDGE('',*,*,#212,.F.);
#173=ORIENTED_EDGE('',*,*,#196,.T.);
#174=ORIENTED_EDGE('',*,*,#215,.T.);
#175=ORIENTED_EDGE('',*,*,#216,.T.);
#176=ORIENTED_EDGE('',*,*,#216,.F.);
#177=ORIENTED_EDGE('',*,*,#215,.F.);
#178=VERTEX_POINT('',#394);
#179=VERTEX_POINT('',#396);
#180=VERTEX_POINT('',#399);
#181=VERTEX_POINT('',#401);
#182=VERTEX_POINT('',#404);
#183=VERTEX_POINT('',#408);
#184=VERTEX_POINT('',#411);
#185=VERTEX_POINT('',#426);
#186=VERTEX_POINT('',#427);
#187=VERTEX_POINT('',#429);
#188=VERTEX_POINT('',#443);
#189=VERTEX_POINT('',#445);
#190=VERTEX_POINT('',#459);
#191=VERTEX_POINT('',#461);
#192=VERTEX_POINT('',#475);
#193=VERTEX_POINT('',#489);
#194=VERTEX_POINT('',#491);
#195=VERTEX_POINT('',#494);
#196=EDGE_CURVE('',#178,#178,#217,.T.);
#197=EDGE_CURVE('',#179,#179,#218,.T.);
#198=EDGE_CURVE('',#180,#180,#219,.T.);
#199=EDGE_CURVE('',#181,#181,#220,.T.);
#200=EDGE_CURVE('',#182,#182,#221,.T.);
#201=EDGE_CURVE('',#183,#183,#222,.T.);
#202=EDGE_CURVE('',#184,#184,#223,.T.);
#203=EDGE_CURVE('',#185,#186,#235,.T.);
#204=EDGE_CURVE('',#185,#187,#51,.T.);
#205=EDGE_CURVE('',#188,#187,#236,.T.);
#206=EDGE_CURVE('',#188,#189,#52,.T.);
#207=EDGE_CURVE('',#190,#189,#237,.T.);
#208=EDGE_CURVE('',#190,#191,#53,.T.);
#209=EDGE_CURVE('',#192,#191,#238,.T.);
#210=EDGE_CURVE('',#192,#186,#54,.T.);
#211=EDGE_CURVE('',#185,#187,#43,.T.);
#212=EDGE_CURVE('',#192,#189,#44,.T.);
#213=EDGE_CURVE('',#188,#186,#45,.T.);
#214=EDGE_CURVE('',#190,#191,#46,.T.);
#215=EDGE_CURVE('',#193,#193,#224,.T.);
#216=EDGE_CURVE('',#194,#194,#225,.T.);
#217=CIRCLE('',#274,8.70000000000001);
#218=CIRCLE('',#275,8.70000000000001);
#219=CIRCLE('',#277,10.);
#220=CIRCLE('',#278,12.5);
#221=CIRCLE('',#280,12.5);
#222=CIRCLE('',#283,9.);
#223=CIRCLE('',#285,10.);
#224=CIRCLE('',#298,9.00000000000001);
#225=CIRCLE('',#299,8.99826763177951);
#226=CURVE_STYLE('',#230,POSITIVE_LENGTH_MEASURE(0.18),#240);
#227=CURVE_STYLE('',#231,POSITIVE_LENGTH_MEASURE(0.13),#267);
#228=CURVE_STYLE('',#232,POSITIVE_LENGTH_MEASURE(0.18),#266);
#229=CURVE_STYLE('',#233,POSITIVE_LENGTH_MEASURE(0.18),#266);
#230=DRAUGHTING_PRE_DEFINED_CURVE_FONT('continuous');
#231=DRAUGHTING_PRE_DEFINED_CURVE_FONT('continuous');
#232=DRAUGHTING_PRE_DEFINED_CURVE_FONT('continuous');
#233=DRAUGHTING_PRE_DEFINED_CURVE_FONT('continuous');
#234=B_SPLINE_CURVE_WITH_KNOTS('CUTTING PART LINE',3,(#377,#378,#379,#380,
#381,#382,#383,#384,#385,#386,#387,#388,#389),.UNSPECIFIED.,.T.,.F.,(4,
3,3,3,4),(0.,0.313867577364989,0.532802806980763,0.766969140002477,1.),
 .UNSPECIFIED.);
#235=B_SPLINE_CURVE_WITH_KNOTS('',3,(#413,#414,#415,#416,#417,#418,#419,
#420,#421,#422,#423,#424,#425),.UNSPECIFIED.,.F.,.F.,(4,3,3,3,4),(0.,0.468567915306647,
0.679577448438242,0.893996416085665,1.),.UNSPECIFIED.);
#236=B_SPLINE_CURVE_WITH_KNOTS('',3,(#430,#431,#432,#433,#434,#435,#436,
#437,#438,#439,#440,#441,#442),.UNSPECIFIED.,.F.,.F.,(4,3,3,3,4),(0.,0.161930832438249,
0.3621305400234,0.669333450980627,1.),.UNSPECIFIED.);
#237=B_SPLINE_CURVE_WITH_KNOTS('',3,(#446,#447,#448,#449,#450,#451,#452,
#453,#454,#455,#456,#457,#458),.UNSPECIFIED.,.F.,.F.,(4,3,3,3,4),(0.,0.378981530677497,
0.667040703593214,0.911039376110413,1.),.UNSPECIFIED.);
#238=B_SPLINE_CURVE_WITH_KNOTS('',3,(#462,#463,#464,#465,#466,#467,#468,
#469,#470,#471,#472,#473,#474),.UNSPECIFIED.,.F.,.F.,(4,3,3,3,4),(0.,0.265685717474542,
0.529303602028099,0.894736544369598,1.),.UNSPECIFIED.);
#239=DRAUGHTING_PRE_DEFINED_COLOUR('white');
#240=DRAUGHTING_PRE_DEFINED_COLOUR('blue');
#241=PRESENTATION_LAYER_ASSIGNMENT('1','Layer 1',(#374,#375,#376,#234,#271,
#272,#273,#39,#40));
#242=STYLED_ITEM('',(#251),#374);
#243=STYLED_ITEM('',(#252),#375);
#244=STYLED_ITEM('',(#253),#376);
#245=STYLED_ITEM('',(#254),#234);
#246=STYLED_ITEM('',(#255),#271);
#247=STYLED_ITEM('',(#256),#272);
#248=STYLED_ITEM('',(#257),#273);
#249=STYLED_ITEM('',(#258),#39);
#250=STYLED_ITEM('',(#259),#40);
#251=PRESENTATION_STYLE_ASSIGNMENT((#260));
#252=PRESENTATION_STYLE_ASSIGNMENT((#261));
#253=PRESENTATION_STYLE_ASSIGNMENT((#262));
#254=PRESENTATION_STYLE_ASSIGNMENT((#226));
#255=PRESENTATION_STYLE_ASSIGNMENT((#227));
#256=PRESENTATION_STYLE_ASSIGNMENT((#228));
#257=PRESENTATION_STYLE_ASSIGNMENT((#229));
#258=PRESENTATION_STYLE_ASSIGNMENT((#29));
#259=PRESENTATION_STYLE_ASSIGNMENT((#30));
#260=POINT_STYLE('',#263,POSITIVE_LENGTH_MEASURE(3.),#266);
#261=POINT_STYLE('',#264,POSITIVE_LENGTH_MEASURE(3.),#239);
#262=POINT_STYLE('',#265,POSITIVE_LENGTH_MEASURE(3.),#266);
#263=PRE_DEFINED_POINT_MARKER_SYMBOL('plus');
#264=PRE_DEFINED_POINT_MARKER_SYMBOL('plus');
#265=PRE_DEFINED_POINT_MARKER_SYMBOL('plus');
#266=COLOUR_RGB('Medium Maroon',0.6,0.4,0.4);
#267=COLOUR_RGB('Silver Gray',0.6,0.6,0.6);
#268=COLOUR_RGB('TLS_NOCUT',0.498023956664378,0.498023956664378,0.498023956664378);
#269=COLOUR_RGB('TLS_CUT',0.8,0.8,0.8);
#270=AXIS2_PLACEMENT_3D('',#373,#303,#304);
#271=AXIS2_PLACEMENT_3D('PCS',#390,#305,#306);
#272=AXIS2_PLACEMENT_3D('MCS',#391,#307,#308);
#273=AXIS2_PLACEMENT_3D('CIP',#392,#309,#310);
#274=AXIS2_PLACEMENT_3D('',#393,#311,#312);
#275=AXIS2_PLACEMENT_3D('',#395,#313,#314);
#276=AXIS2_PLACEMENT_3D('',#397,#315,#316);
#277=AXIS2_PLACEMENT_3D('',#398,#317,#318);
#278=AXIS2_PLACEMENT_3D('',#400,#319,#320);
#279=AXIS2_PLACEMENT_3D('',#402,#321,#322);
#280=AXIS2_PLACEMENT_3D('',#403,#323,#324);
#281=AXIS2_PLACEMENT_3D('',#405,#325,#326);
#282=AXIS2_PLACEMENT_3D('',#406,#327,#328);
#283=AXIS2_PLACEMENT_3D('',#407,#329,#330);
#284=AXIS2_PLACEMENT_3D('',#409,#331,#332);
#285=AXIS2_PLACEMENT_3D('',#410,#333,#334);
#286=AXIS2_PLACEMENT_3D('',#412,#335,#336);
#287=AXIS2_PLACEMENT_3D('',#428,#337,#338);
#288=AXIS2_PLACEMENT_3D('',#444,#339,#340);
#289=AXIS2_PLACEMENT_3D('',#460,#341,#342);
#290=AXIS2_PLACEMENT_3D('',#476,#343,#344);
#291=AXIS2_PLACEMENT_3D('',#477,#345,#346);
#292=AXIS2_PLACEMENT_3D('',#479,#348,#349);
#293=AXIS2_PLACEMENT_3D('',#482,#352,#353);
#294=AXIS2_PLACEMENT_3D('',#484,#355,#356);
#295=AXIS2_PLACEMENT_3D('',#485,#357,#358);
#296=AXIS2_PLACEMENT_3D('',#486,#359,#360);
#297=AXIS2_PLACEMENT_3D('',#487,#361,#362);
#298=AXIS2_PLACEMENT_3D('',#488,#363,#364);
#299=AXIS2_PLACEMENT_3D('',#490,#365,#366);
#300=AXIS2_PLACEMENT_3D('',#492,#367,#368);
#301=AXIS2_PLACEMENT_3D('',#493,#369,#370);
#302=AXIS2_PLACEMENT_3D('',#495,#371,#372);
#303=DIRECTION('',(0.,0.,1.));
#304=DIRECTION('',(1.,0.,0.));
#305=DIRECTION('',(0.,0.,1.));
#306=DIRECTION('',(1.,0.,0.));
#307=DIRECTION('',(0.,0.,1.));
#308=DIRECTION('',(1.,0.,0.));
#309=DIRECTION('',(0.,0.,1.));
#310=DIRECTION('',(1.,0.,0.));
#311=DIRECTION('',(0.,0.,-1.));
#312=DIRECTION('',(1.,0.,0.));
#313=DIRECTION('',(0.,0.,1.));
#314=DIRECTION('',(-1.,0.,0.));
#315=DIRECTION('',(0.,0.,1.));
#316=DIRECTION('',(1.,0.,0.));
#317=DIRECTION('',(0.,0.,-1.));
#318=DIRECTION('',(-1.,0.,0.));
#319=DIRECTION('',(0.,0.,-1.));
#320=DIRECTION('',(-1.,0.,0.));
#321=DIRECTION('',(0.,0.,1.));
#322=DIRECTION('',(1.,0.,0.));
#323=DIRECTION('',(0.,0.,-1.));
#324=DIRECTION('',(-1.,0.,0.));
#325=DIRECTION('',(0.,0.,-1.));
#326=DIRECTION('',(-1.,0.,0.));
#327=DIRECTION('',(0.,0.,1.));
#328=DIRECTION('',(1.,0.,1.70611057979483E-16));
#329=DIRECTION('',(0.,0.,-1.));
#330=DIRECTION('',(-1.,0.,0.));
#331=DIRECTION('',(0.,0.,1.));
#332=DIRECTION('',(1.,0.,0.));
#333=DIRECTION('',(0.,0.,-1.));
#334=DIRECTION('',(-1.,0.,0.));
#335=DIRECTION('',(0.,0.,-1.));
#336=DIRECTION('',(-1.,0.,1.09923071745065E-16));
#337=DIRECTION('',(0.,0.681998360062499,0.73135370161917));
#338=DIRECTION('',(0.,0.73135370161917,-0.681998360062499));
#339=DIRECTION('',(0.,0.999390827019096,0.0348994967025009));
#340=DIRECTION('',(0.,0.0348994967025009,-0.999390827019096));
#341=DIRECTION('',(0.,0.731353701619169,-0.6819983600625));
#342=DIRECTION('',(0.,-0.6819983600625,-0.731353701619169));
#343=DIRECTION('',(0.,0.999390827019096,0.0348994967025009));
#344=DIRECTION('',(0.,0.0348994967025009,-0.999390827019096));
#345=DIRECTION('',(0.,0.,-1.));
#346=DIRECTION('',(-1.,0.,0.));
#347=DIRECTION('',(1.,0.,0.));
#348=DIRECTION('',(0.,-0.681998360062499,-0.73135370161917));
#349=DIRECTION('',(0.,-0.73135370161917,0.681998360062499));
#350=DIRECTION('',(1.,0.,0.));
#351=DIRECTION('',(-1.,0.,0.));
#352=DIRECTION('',(0.,-0.999390827019096,-0.0348994967025009));
#353=DIRECTION('',(0.,-0.0348994967025009,0.999390827019096));
#354=DIRECTION('',(-1.,0.,0.));
#355=DIRECTION('',(0.,-0.731353701619169,0.6819983600625));
#356=DIRECTION('',(0.,0.6819983600625,0.731353701619169));
#357=DIRECTION('',(1.,0.,0.));
#358=DIRECTION('',(0.,0.,-1.));
#359=DIRECTION('',(1.,0.,0.));
#360=DIRECTION('',(0.,0.,-0.999999999999998));
#361=DIRECTION('',(0.,0.,-1.));
#362=DIRECTION('',(-1.,0.,0.));
#363=DIRECTION('',(0.,0.,1.));
#364=DIRECTION('',(1.,0.,0.));
#365=DIRECTION('',(0.,0.,-1.));
#366=DIRECTION('',(1.,0.,0.));
#367=DIRECTION('',(0.,0.,-1.));
#368=DIRECTION('',(-1.,0.,-9.06867137673293E-15));
#369=DIRECTION('',(0.,0.,-1.));
#370=DIRECTION('',(-1.,0.,0.));
#371=DIRECTION('',(0.,0.,1.));
#372=DIRECTION('',(1.,0.,1.01022033590138E-17));
#373=CARTESIAN_POINT('',(0.,0.,0.));
#374=CARTESIAN_POINT('',(0.,0.,-50.));
#375=CARTESIAN_POINT('CRP',(-9.,0.,-100.724267891604));
#376=CARTESIAN_POINT('CIP_DCSYS',(0.,0.,-104.));
#377=CARTESIAN_POINT('',(0.,0.,-104.));
#378=CARTESIAN_POINT('',(0.,0.,-99.7));
#379=CARTESIAN_POINT('',(0.,0.,-95.4));
#380=CARTESIAN_POINT('',(0.,0.,-91.1));
#381=CARTESIAN_POINT('',(-2.9994225439265,0.,-91.1));
#382=CARTESIAN_POINT('',(-5.99884508785301,0.,-91.1));
#383=CARTESIAN_POINT('',(-8.99826763177951,0.,-91.1000000000022));
#384=CARTESIAN_POINT('',(-8.99884508785301,0.,-94.3080892972043));
#385=CARTESIAN_POINT('',(-8.99942254392651,0.,-97.5161785944042));
#386=CARTESIAN_POINT('',(-9.00000000000001,0.,-100.724267891604));
#387=CARTESIAN_POINT('',(-6.,0.,-101.816178594403));
#388=CARTESIAN_POINT('',(-3.,0.,-102.908089297201));
#389=CARTESIAN_POINT('',(0.,0.,-104.));
#390=CARTESIAN_POINT('',(0.,0.,0.));
#391=CARTESIAN_POINT('',(0.,0.,-50.));
#392=CARTESIAN_POINT('',(0.,0.,-104.));
#393=CARTESIAN_POINT('',(0.,0.,-91.1));
#394=CARTESIAN_POINT('',(8.70000000000001,0.,-91.1));
#395=CARTESIAN_POINT('',(0.,0.,-65.));
#396=CARTESIAN_POINT('',(-8.70000000000001,0.,-65.));
#397=CARTESIAN_POINT('',(0.,0.,20.9080749503476));
#398=CARTESIAN_POINT('',(0.,0.,-50.));
#399=CARTESIAN_POINT('',(-10.,0.,-50.));
#400=CARTESIAN_POINT('',(0.,0.,-50.));
#401=CARTESIAN_POINT('',(-12.5,0.,-50.));
#402=CARTESIAN_POINT('',(-12.5,0.,-50.));
#403=CARTESIAN_POINT('',(0.,0.,-53.));
#404=CARTESIAN_POINT('',(-12.5,0.,-53.));
#405=CARTESIAN_POINT('',(0.,0.,20.9080749503476));
#406=CARTESIAN_POINT('',(0.,0.,-65.));
#407=CARTESIAN_POINT('',(0.,0.,0.));
#408=CARTESIAN_POINT('',(-9.,0.,0.));
#409=CARTESIAN_POINT('',(-9.,0.,4.44089209850063E-16));
#410=CARTESIAN_POINT('',(0.,0.,-1.));
#411=CARTESIAN_POINT('',(-10.,0.,-1.));
#412=CARTESIAN_POINT('',(0.,0.,-1.));
#413=CARTESIAN_POINT('',(-3.65034953143106,-9.30993814686119,-6.64349308842006));
#414=CARTESIAN_POINT('',(-3.88760159556277,-9.21691358026659,-6.73023990015094));
#415=CARTESIAN_POINT('',(-4.11787443235169,-9.11538313051843,-6.84362159299471));
#416=CARTESIAN_POINT('',(-4.31366849315763,-9.02176613148109,-7.00289388975315));
#417=CARTESIAN_POINT('',(-4.4025934053921,-8.97924756177176,-7.07523150281621));
#418=CARTESIAN_POINT('',(-4.48524964367385,-8.9380401985969,-7.15827863386241));
#419=CARTESIAN_POINT('',(-4.55436427397744,-8.90268308207801,-7.25273095643399));
#420=CARTESIAN_POINT('',(-4.62411022766658,-8.86700299812941,-7.34804604799957));
#421=CARTESIAN_POINT('',(-4.68144794239438,-8.83659723474444,-7.45820247042538));
#422=CARTESIAN_POINT('',(-4.71451039217822,-8.8189223696574,-7.57574823464164));
#423=CARTESIAN_POINT('',(-4.73108081571778,-8.81006398189691,-7.6346604783223));
#424=CARTESIAN_POINT('',(-4.74183092909192,-8.80426374157311,-7.69615044663014));
#425=CARTESIAN_POINT('',(-4.74582511601492,-8.80211019973063,-7.75781981628673));
#426=CARTESIAN_POINT('',(-3.65034953143106,-9.30993814686119,-6.64349308842006));
#427=CARTESIAN_POINT('',(-4.74582511601492,-8.80211019973063,-7.75781981628673));
#428=CARTESIAN_POINT('',(0.,0.,-15.3251508613766));
#429=CARTESIAN_POINT('',(3.65034953143106,-9.30993814686119,-6.64349308842006));
#430=CARTESIAN_POINT('',(4.74582511601492,-8.80211019973063,-7.75781981628673));
#431=CARTESIAN_POINT('',(4.73978442862273,-8.80536715122219,-7.66455292844432));
#432=CARTESIAN_POINT('',(4.71794890574512,-8.81716575811446,-7.57147989087015));
#433=CARTESIAN_POINT('',(4.68426110640565,-8.83502676209955,-7.48608711180011));
#434=CARTESIAN_POINT('',(4.64264340517157,-8.85709213716611,-7.38059339488876));
#435=CARTESIAN_POINT('',(4.58223724956665,-8.88871422557579,-7.28352621411308));
#436=CARTESIAN_POINT('',(4.51231675894227,-8.92406843692767,-7.19862013146207));
#437=CARTESIAN_POINT('',(4.40531300215839,-8.97817322651083,-7.06868297375149));
#438=CARTESIAN_POINT('',(4.2734778909051,-9.04217761204219,-6.96222750769309));
#439=CARTESIAN_POINT('',(4.13362586666324,-9.10566511543515,-6.8746401489934));
#440=CARTESIAN_POINT('',(3.98245936759366,-9.17428896034986,-6.77996669360968));
#441=CARTESIAN_POINT('',(3.81878219537111,-9.24389709629862,-6.70507736437403));
#442=CARTESIAN_POINT('',(3.65034953143106,-9.30993814686119,-6.64349308842006));
#443=CARTESIAN_POINT('',(4.74582511601492,-8.80211019973063,-7.75781981628673));
#444=CARTESIAN_POINT('',(0.,0.,-259.817276919908));
#445=CARTESIAN_POINT('',(6.1942997536881,-7.85051912687687,-35.0078228002884));
#446=CARTESIAN_POINT('',(5.60819856978107,-8.27937852751676,-36.1548593711124));
#447=CARTESIAN_POINT('',(5.73548970073651,-8.19315539661418,-36.0623963834521));
#448=CARTESIAN_POINT('',(5.85335375446695,-8.10879646450695,-35.949847060665));
#449=CARTESIAN_POINT('',(5.94957086797646,-8.03757466446974,-35.8162185207606));
#450=CARTESIAN_POINT('',(6.02277824515413,-7.9833851238733,-35.7145464318186));
#451=CARTESIAN_POINT('',(6.08473873420173,-7.93592354860724,-35.5982236294925));
#452=CARTESIAN_POINT('',(6.1275016332713,-7.90276684043365,-35.4729040092434));
#453=CARTESIAN_POINT('',(6.16375416105611,-7.87465802390181,-35.3666634803291));
#454=CARTESIAN_POINT('',(6.18684142383835,-7.85640275849914,-35.2514041597004));
#455=CARTESIAN_POINT('',(6.19346195095861,-7.85118010632974,-35.1359905823077));
#456=CARTESIAN_POINT('',(6.19590623810284,-7.84925191219588,-35.0933800894624));
#457=CARTESIAN_POINT('',(6.19618763020548,-7.84902953455086,-35.0504791434244));
#458=CARTESIAN_POINT('',(6.1942997536881,-7.85051912687687,-35.0078228002884));
#459=CARTESIAN_POINT('',(5.60819856978107,-8.27937852751676,-36.1548593711124));
#460=CARTESIAN_POINT('',(0.,0.,-27.2763128997532));
#461=CARTESIAN_POINT('',(-5.60819856978108,-8.27937852751675,-36.1548593711124));
#462=CARTESIAN_POINT('',(-6.1942997536881,-7.85051912687687,-35.0078228002884));
#463=CARTESIAN_POINT('',(-6.19985391217198,-7.84613672592062,-35.1333183440588));
#464=CARTESIAN_POINT('',(-6.18589550730156,-7.85724144411401,-35.2621809641192));
#465=CARTESIAN_POINT('',(-6.1549029012489,-7.88144468204896,-35.3815662532647));
#466=CARTESIAN_POINT('',(-6.12404445607828,-7.90554314893807,-35.500434747028));
#467=CARTESIAN_POINT('',(-6.07584111834942,-7.94290192246206,-35.6133516448125));
#468=CARTESIAN_POINT('',(-6.01640811954107,-7.98766757815574,-35.7139819249336));
#469=CARTESIAN_POINT('',(-5.93427006993291,-8.04953495355043,-35.8530557577605));
#470=CARTESIAN_POINT('',(-5.82873748131893,-8.12685896658938,-35.973021119307));
#471=CARTESIAN_POINT('',(-5.71261316404866,-8.20768242794139,-36.0725121909789));
#472=CARTESIAN_POINT('',(-5.67880311327456,-8.23121449595511,-36.1014794070097));
#473=CARTESIAN_POINT('',(-5.64392844472447,-8.25517619966223,-36.1289055520123));
#474=CARTESIAN_POINT('',(-5.60819856978154,-8.2793785275166,-36.154859371113));
#475=CARTESIAN_POINT('',(-6.1942997536881,-7.85051912687687,-35.0078228002884));
#476=CARTESIAN_POINT('',(0.,0.,-259.817276919908));
#477=CARTESIAN_POINT('',(0.,0.,20.9080749503476));
#478=CARTESIAN_POINT('',(-20.,-9.30993814686119,-6.64349308842006));
#479=CARTESIAN_POINT('',(-20.,-11.,-5.06748491386234));
#480=CARTESIAN_POINT('',(-20.,-7.85051912687687,-35.0078228002884));
#481=CARTESIAN_POINT('',(-20.,-8.80211019973063,-7.75781981628673));
#482=CARTESIAN_POINT('',(-20.,-8.8252395514973,-7.09548184082661));
#483=CARTESIAN_POINT('',(-20.,-8.27937852751675,-36.1548593711124));
#484=CARTESIAN_POINT('',(-20.,-7.8273897751102,-35.6701607757485));
#485=CARTESIAN_POINT('',(-20.,-10.4011355229612,-7.81365901101073));
#486=CARTESIAN_POINT('',(-20.,-9.44954445010743,-35.0636619950124));
#487=CARTESIAN_POINT('',(0.,0.,-91.1));
#488=CARTESIAN_POINT('',(0.,0.,-100.724267891607));
#489=CARTESIAN_POINT('',(9.00000000000001,0.,-100.724267891607));
#490=CARTESIAN_POINT('',(0.,0.,-91.1));
#491=CARTESIAN_POINT('',(8.99826763177951,0.,-91.1));
#492=CARTESIAN_POINT('',(0.,0.,-110.724267891604));
#493=CARTESIAN_POINT('',(-8.99826763177951,0.,-91.1));
#494=CARTESIAN_POINT('',(-1.24301650113456E-14,0.,-104.));
#495=CARTESIAN_POINT('',(0.,0.,-104.));
#496=MECHANICAL_DESIGN_GEOMETRIC_PRESENTATION_REPRESENTATION('',(#242,#243,
#244,#245,#246,#247,#248,#249,#250),#497);
#497=(
GEOMETRIC_REPRESENTATION_CONTEXT(3)
GLOBAL_UNCERTAINTY_ASSIGNED_CONTEXT((#498))
GLOBAL_UNIT_ASSIGNED_CONTEXT((#504,#500,#499))
REPRESENTATION_CONTEXT('h85118.0-r95018','TOP_LEVEL_ASSEMBLY_PART')
);
#498=UNCERTAINTY_MEASURE_WITH_UNIT(LENGTH_MEASURE(0.0508),#504,
'DISTANCE_ACCURACY_VALUE','Maximum Tolerance applied to model');
#499=(
NAMED_UNIT(*)
SI_UNIT($,.STERADIAN.)
SOLID_ANGLE_UNIT()
);
#500=(
CONVERSION_BASED_UNIT('DEGREE',#502)
NAMED_UNIT(#501)
PLANE_ANGLE_UNIT()
);
#501=DIMENSIONAL_EXPONENTS(0.,0.,0.,0.,0.,0.,0.);
#502=PLANE_ANGLE_MEASURE_WITH_UNIT(PLANE_ANGLE_MEASURE(0.0174532925),#503);
#503=(
NAMED_UNIT(*)
PLANE_ANGLE_UNIT()
SI_UNIT($,.RADIAN.)
);
#504=(
LENGTH_UNIT()
NAMED_UNIT(*)
SI_UNIT(.MILLI.,.METRE.)
);
ENDSEC;
END-ISO-10303-21;
