ISO-10303-21;
HEADER;
/* Generated by software containing ST-Developer
 * from STEP Tools, Inc. (www.steptools.com) 
 */
/* OPTION: using custom schema-name function */

FILE_DESCRIPTION(
/* description */ (''),
/* implementation_level */ '2;1');

FILE_NAME(
/* name */ 'h85113.0-r95013.0_3d_light.stp',
/* time_stamp */ '2021-09-03T03:54:50+02:00',
/* author */ (''),
/* organization */ ('SMS'),
/* preprocessor_version */ 'ST-DEVELOPER v16.7',
/* originating_system */ 'SIEMENS PLM Software NX 12.0',
/* authorisation */ '');

FILE_SCHEMA (('AUTOMOTIVE_DESIGN { 1 0 10303 214 3 1 1 1 }'));
ENDSEC;

DATA;
#10=CONSTRUCTIVE_GEOMETRY_REPRESENTATION_RELATIONSHIP(
'supplemental geometry','',#26,#11);
#11=CONSTRUCTIVE_GEOMETRY_REPRESENTATION('supplemental geometry',(#271,
#272,#273),#497);
#12=GEOMETRICALLY_BOUNDED_WIREFRAME_SHAPE_REPRESENTATION(
'H85113.0-R95013.0_3D_light-None',(#27),#497);
#13=SHAPE_REPRESENTATION_RELATIONSHIP('None',
'relationship between H85113.0-R95013.0_3D_light-None and H85113.0-R95
013.0_3D_light-None',#26,#15);
#14=SHAPE_REPRESENTATION_RELATIONSHIP('None',
'relationship between H85113.0-R95013.0_3D_light-None and H85113.0-R95
013.0_3D_light-None',#26,#12);
#15=ADVANCED_BREP_SHAPE_REPRESENTATION(
'H85113.0-R95013.0_3D_light-None',(#39,#40),#497);
#16=SHAPE_DEFINITION_REPRESENTATION(#17,#26);
#17=PRODUCT_DEFINITION_SHAPE('','',#18);
#18=PRODUCT_DEFINITION(' ','',#20,#19);
#19=PRODUCT_DEFINITION_CONTEXT('part definition',#25,'design');
#20=PRODUCT_DEFINITION_FORMATION_WITH_SPECIFIED_SOURCE(' ',' ',#22,
 .NOT_KNOWN.);
#21=PRODUCT_RELATED_PRODUCT_CATEGORY('part','',(#22));
#22=PRODUCT('H85113.0-R95013.0_3D_light','H85113.0-R95013.0_3D_light',
' ',(#23));
#23=PRODUCT_CONTEXT(' ',#25,'mechanical');
#24=APPLICATION_PROTOCOL_DEFINITION('international standard',
'automotive_design',2010,#25);
#25=APPLICATION_CONTEXT(
'core data for automotive mechanical design processes');
#26=SHAPE_REPRESENTATION('H85113.0-R95013.0_3D_light-None',(#270),#497);
#27=GEOMETRIC_CURVE_SET('None',(#374,#375,#376,#234));
#28=VERTEX_LOOP('',#195);
#29=SURFACE_STYLE_USAGE(.BOTH.,#31);
#30=SURFACE_STYLE_USAGE(.BOTH.,#32);
#31=SURFACE_SIDE_STYLE('',(#33));
#32=SURFACE_SIDE_STYLE('',(#34));
#33=SURFACE_STYLE_FILL_AREA(#35);
#34=SURFACE_STYLE_FILL_AREA(#36);
#35=FILL_AREA_STYLE('',(#37));
#36=FILL_AREA_STYLE('',(#38));
#37=FILL_AREA_STYLE_COLOUR('',#268);
#38=FILL_AREA_STYLE_COLOUR('',#269);
#39=MANIFOLD_SOLID_BREP('NOCUT',#41);
#40=MANIFOLD_SOLID_BREP('CUT',#42);
#41=CLOSED_SHELL('',(#74,#75,#76,#77,#78,#79,#80,#81,#82,#83,#84,#85,#86));
#42=CLOSED_SHELL('',(#87,#88,#89));
#43=LINE('',#478,#47);
#44=LINE('',#480,#48);
#45=LINE('',#481,#49);
#46=LINE('',#483,#50);
#47=VECTOR('',#347,1.);
#48=VECTOR('',#350,1.);
#49=VECTOR('',#351,1.);
#50=VECTOR('',#354,1.);
#51=ELLIPSE('',#287,10.9386196887888,8.);
#52=ELLIPSE('',#288,229.229666782751,8.);
#53=ELLIPSE('',#289,11.730233485117,8.);
#54=ELLIPSE('',#290,229.229666782751,8.);
#55=FACE_OUTER_BOUND('',#120,.T.);
#56=FACE_OUTER_BOUND('',#126,.T.);
#57=FACE_OUTER_BOUND('',#127,.T.);
#58=FACE_OUTER_BOUND('',#128,.T.);
#59=FACE_OUTER_BOUND('',#129,.T.);
#60=FACE_OUTER_BOUND('',#130,.T.);
#61=FACE_OUTER_BOUND('',#131,.T.);
#62=FACE_OUTER_BOUND('',#134,.T.);
#63=CONICAL_SURFACE('',#282,6.40000000000001,16.6992442339936);
#64=CONICAL_SURFACE('',#286,8.,45.);
#65=CONICAL_SURFACE('',#300,6.5018,0.010313240200981);
#66=CONICAL_SURFACE('',#302,1.07156594925393E-14,70.);
#67=PLANE('',#279);
#68=PLANE('',#284);
#69=PLANE('',#292);
#70=PLANE('',#293);
#71=PLANE('',#294);
#72=PLANE('',#297);
#73=PLANE('',#301);
#74=ADVANCED_FACE('',(#95,#96),#90,.T.);
#75=ADVANCED_FACE('',(#97,#98),#67,.T.);
#76=ADVANCED_FACE('',(#99,#100),#91,.T.);
#77=ADVANCED_FACE('',(#101,#102),#63,.T.);
#78=ADVANCED_FACE('',(#55),#68,.T.);
#79=ADVANCED_FACE('',(#103,#104),#64,.T.);
#80=ADVANCED_FACE('CYL_FACE',(#105,#106,#107),#92,.T.);
#81=ADVANCED_FACE('',(#56),#69,.T.);
#82=ADVANCED_FACE('',(#57),#70,.T.);
#83=ADVANCED_FACE('',(#58),#71,.T.);
#84=ADVANCED_FACE('',(#59),#93,.F.);
#85=ADVANCED_FACE('',(#60),#94,.F.);
#86=ADVANCED_FACE('',(#61),#72,.T.);
#87=ADVANCED_FACE('',(#108,#109),#65,.T.);
#88=ADVANCED_FACE('',(#62),#73,.F.);
#89=ADVANCED_FACE('',(#110,#111),#66,.T.);
#90=CYLINDRICAL_SURFACE('',#276,6.40000000000001);
#91=CYLINDRICAL_SURFACE('',#281,10.);
#92=CYLINDRICAL_SURFACE('',#291,8.);
#93=CYLINDRICAL_SURFACE('',#295,1.6);
#94=CYLINDRICAL_SURFACE('',#296,1.6);
#95=FACE_BOUND('',#112,.T.);
#96=FACE_BOUND('',#113,.T.);
#97=FACE_BOUND('',#114,.T.);
#98=FACE_BOUND('',#115,.T.);
#99=FACE_BOUND('',#116,.T.);
#100=FACE_BOUND('',#117,.T.);
#101=FACE_BOUND('',#118,.T.);
#102=FACE_BOUND('',#119,.T.);
#103=FACE_BOUND('',#121,.T.);
#104=FACE_BOUND('',#122,.T.);
#105=FACE_BOUND('',#123,.T.);
#106=FACE_BOUND('',#124,.T.);
#107=FACE_BOUND('',#125,.T.);
#108=FACE_BOUND('',#132,.T.);
#109=FACE_BOUND('',#133,.T.);
#110=FACE_BOUND('',#28,.T.);
#111=FACE_BOUND('',#135,.T.);
#112=EDGE_LOOP('',(#136));
#113=EDGE_LOOP('',(#137));
#114=EDGE_LOOP('',(#138));
#115=EDGE_LOOP('',(#139));
#116=EDGE_LOOP('',(#140));
#117=EDGE_LOOP('',(#141));
#118=EDGE_LOOP('',(#142));
#119=EDGE_LOOP('',(#143));
#120=EDGE_LOOP('',(#144));
#121=EDGE_LOOP('',(#145));
#122=EDGE_LOOP('',(#146));
#123=EDGE_LOOP('',(#147,#148,#149,#150,#151,#152,#153,#154));
#124=EDGE_LOOP('',(#155));
#125=EDGE_LOOP('',(#156));
#126=EDGE_LOOP('',(#157,#158));
#127=EDGE_LOOP('',(#159,#160,#161,#162));
#128=EDGE_LOOP('',(#163,#164));
#129=EDGE_LOOP('',(#165,#166,#167,#168));
#130=EDGE_LOOP('',(#169,#170,#171,#172));
#131=EDGE_LOOP('',(#173));
#132=EDGE_LOOP('',(#174));
#133=EDGE_LOOP('',(#175));
#134=EDGE_LOOP('',(#176));
#135=EDGE_LOOP('',(#177));
#136=ORIENTED_EDGE('',*,*,#196,.F.);
#137=ORIENTED_EDGE('',*,*,#197,.F.);
#138=ORIENTED_EDGE('',*,*,#198,.T.);
#139=ORIENTED_EDGE('',*,*,#199,.F.);
#140=ORIENTED_EDGE('',*,*,#199,.T.);
#141=ORIENTED_EDGE('',*,*,#200,.F.);
#142=ORIENTED_EDGE('',*,*,#200,.T.);
#143=ORIENTED_EDGE('',*,*,#197,.T.);
#144=ORIENTED_EDGE('',*,*,#201,.F.);
#145=ORIENTED_EDGE('',*,*,#201,.T.);
#146=ORIENTED_EDGE('',*,*,#202,.F.);
#147=ORIENTED_EDGE('',*,*,#203,.F.);
#148=ORIENTED_EDGE('',*,*,#204,.T.);
#149=ORIENTED_EDGE('',*,*,#205,.F.);
#150=ORIENTED_EDGE('',*,*,#206,.T.);
#151=ORIENTED_EDGE('',*,*,#207,.F.);
#152=ORIENTED_EDGE('',*,*,#208,.T.);
#153=ORIENTED_EDGE('',*,*,#209,.F.);
#154=ORIENTED_EDGE('',*,*,#210,.T.);
#155=ORIENTED_EDGE('',*,*,#202,.T.);
#156=ORIENTED_EDGE('',*,*,#198,.F.);
#157=ORIENTED_EDGE('',*,*,#211,.T.);
#158=ORIENTED_EDGE('',*,*,#204,.F.);
#159=ORIENTED_EDGE('',*,*,#212,.T.);
#160=ORIENTED_EDGE('',*,*,#206,.F.);
#161=ORIENTED_EDGE('',*,*,#213,.T.);
#162=ORIENTED_EDGE('',*,*,#210,.F.);
#163=ORIENTED_EDGE('',*,*,#214,.T.);
#164=ORIENTED_EDGE('',*,*,#208,.F.);
#165=ORIENTED_EDGE('',*,*,#203,.T.);
#166=ORIENTED_EDGE('',*,*,#213,.F.);
#167=ORIENTED_EDGE('',*,*,#205,.T.);
#168=ORIENTED_EDGE('',*,*,#211,.F.);
#169=ORIENTED_EDGE('',*,*,#209,.T.);
#170=ORIENTED_EDGE('',*,*,#214,.F.);
#171=ORIENTED_EDGE('',*,*,#207,.T.);
#172=ORIENTED_EDGE('',*,*,#212,.F.);
#173=ORIENTED_EDGE('',*,*,#196,.T.);
#174=ORIENTED_EDGE('',*,*,#215,.T.);
#175=ORIENTED_EDGE('',*,*,#216,.T.);
#176=ORIENTED_EDGE('',*,*,#216,.F.);
#177=ORIENTED_EDGE('',*,*,#215,.F.);
#178=VERTEX_POINT('',#394);
#179=VERTEX_POINT('',#396);
#180=VERTEX_POINT('',#399);
#181=VERTEX_POINT('',#401);
#182=VERTEX_POINT('',#404);
#183=VERTEX_POINT('',#408);
#184=VERTEX_POINT('',#411);
#185=VERTEX_POINT('',#426);
#186=VERTEX_POINT('',#427);
#187=VERTEX_POINT('',#429);
#188=VERTEX_POINT('',#443);
#189=VERTEX_POINT('',#445);
#190=VERTEX_POINT('',#459);
#191=VERTEX_POINT('',#461);
#192=VERTEX_POINT('',#475);
#193=VERTEX_POINT('',#489);
#194=VERTEX_POINT('',#491);
#195=VERTEX_POINT('',#494);
#196=EDGE_CURVE('',#178,#178,#217,.T.);
#197=EDGE_CURVE('',#179,#179,#218,.T.);
#198=EDGE_CURVE('',#180,#180,#219,.T.);
#199=EDGE_CURVE('',#181,#181,#220,.T.);
#200=EDGE_CURVE('',#182,#182,#221,.T.);
#201=EDGE_CURVE('',#183,#183,#222,.T.);
#202=EDGE_CURVE('',#184,#184,#223,.T.);
#203=EDGE_CURVE('',#185,#186,#235,.T.);
#204=EDGE_CURVE('',#185,#187,#51,.T.);
#205=EDGE_CURVE('',#188,#187,#236,.T.);
#206=EDGE_CURVE('',#188,#189,#52,.T.);
#207=EDGE_CURVE('',#190,#189,#237,.T.);
#208=EDGE_CURVE('',#190,#191,#53,.T.);
#209=EDGE_CURVE('',#192,#191,#238,.T.);
#210=EDGE_CURVE('',#192,#186,#54,.T.);
#211=EDGE_CURVE('',#185,#187,#43,.T.);
#212=EDGE_CURVE('',#192,#189,#44,.T.);
#213=EDGE_CURVE('',#188,#186,#45,.T.);
#214=EDGE_CURVE('',#190,#191,#46,.T.);
#215=EDGE_CURVE('',#193,#193,#224,.T.);
#216=EDGE_CURVE('',#194,#194,#225,.T.);
#217=CIRCLE('',#274,6.40000000000001);
#218=CIRCLE('',#275,6.40000000000001);
#219=CIRCLE('',#277,8.);
#220=CIRCLE('',#278,10.);
#221=CIRCLE('',#280,10.);
#222=CIRCLE('',#283,7.);
#223=CIRCLE('',#285,8.);
#224=CIRCLE('',#298,6.5);
#225=CIRCLE('',#299,6.49867984517409);
#226=CURVE_STYLE('',#230,POSITIVE_LENGTH_MEASURE(0.18),#240);
#227=CURVE_STYLE('',#231,POSITIVE_LENGTH_MEASURE(0.13),#267);
#228=CURVE_STYLE('',#232,POSITIVE_LENGTH_MEASURE(0.18),#266);
#229=CURVE_STYLE('',#233,POSITIVE_LENGTH_MEASURE(0.18),#266);
#230=DRAUGHTING_PRE_DEFINED_CURVE_FONT('continuous');
#231=DRAUGHTING_PRE_DEFINED_CURVE_FONT('continuous');
#232=DRAUGHTING_PRE_DEFINED_CURVE_FONT('continuous');
#233=DRAUGHTING_PRE_DEFINED_CURVE_FONT('continuous');
#234=B_SPLINE_CURVE_WITH_KNOTS('CUTTING PART LINE',3,(#377,#378,#379,#380,
#381,#382,#383,#384,#385,#386,#387,#388,#389),.UNSPECIFIED.,.T.,.F.,(4,
3,3,3,4),(0.,0.31855470522124,0.531975843611245,0.772835831137976,1.),
 .UNSPECIFIED.);
#235=B_SPLINE_CURVE_WITH_KNOTS('',3,(#413,#414,#415,#416,#417,#418,#419,
#420,#421,#422,#423,#424,#425),.UNSPECIFIED.,.F.,.F.,(4,3,3,3,4),(0.,0.503918764243601,
0.724984372231463,0.949115811227278,1.),.UNSPECIFIED.);
#236=B_SPLINE_CURVE_WITH_KNOTS('',3,(#430,#431,#432,#433,#434,#435,#436,
#437,#438,#439,#440,#441,#442),.UNSPECIFIED.,.F.,.F.,(4,3,3,3,4),(0.,0.189784296307931,
0.37798063526448,0.688351772341069,1.),.UNSPECIFIED.);
#237=B_SPLINE_CURVE_WITH_KNOTS('',3,(#446,#447,#448,#449,#450,#451,#452,
#453,#454,#455,#456,#457,#458),.UNSPECIFIED.,.F.,.F.,(4,3,3,3,4),(0.,0.370491768076569,
0.676127028930204,0.945274999137051,1.),.UNSPECIFIED.);
#238=B_SPLINE_CURVE_WITH_KNOTS('',3,(#462,#463,#464,#465,#466,#467,#468,
#469,#470,#471,#472,#473,#474),.UNSPECIFIED.,.F.,.F.,(4,3,3,3,4),(0.,0.287943312691012,
0.57420506210481,0.952882445148986,1.),.UNSPECIFIED.);
#239=DRAUGHTING_PRE_DEFINED_COLOUR('white');
#240=DRAUGHTING_PRE_DEFINED_COLOUR('blue');
#241=PRESENTATION_LAYER_ASSIGNMENT('1','Layer 1',(#374,#375,#376,#234,#271,
#272,#273,#39,#40));
#242=STYLED_ITEM('',(#251),#374);
#243=STYLED_ITEM('',(#252),#375);
#244=STYLED_ITEM('',(#253),#376);
#245=STYLED_ITEM('',(#254),#234);
#246=STYLED_ITEM('',(#255),#271);
#247=STYLED_ITEM('',(#256),#272);
#248=STYLED_ITEM('',(#257),#273);
#249=STYLED_ITEM('',(#258),#39);
#250=STYLED_ITEM('',(#259),#40);
#251=PRESENTATION_STYLE_ASSIGNMENT((#260));
#252=PRESENTATION_STYLE_ASSIGNMENT((#261));
#253=PRESENTATION_STYLE_ASSIGNMENT((#262));
#254=PRESENTATION_STYLE_ASSIGNMENT((#226));
#255=PRESENTATION_STYLE_ASSIGNMENT((#227));
#256=PRESENTATION_STYLE_ASSIGNMENT((#228));
#257=PRESENTATION_STYLE_ASSIGNMENT((#229));
#258=PRESENTATION_STYLE_ASSIGNMENT((#29));
#259=PRESENTATION_STYLE_ASSIGNMENT((#30));
#260=POINT_STYLE('',#263,POSITIVE_LENGTH_MEASURE(3.),#266);
#261=POINT_STYLE('',#264,POSITIVE_LENGTH_MEASURE(3.),#239);
#262=POINT_STYLE('',#265,POSITIVE_LENGTH_MEASURE(3.),#266);
#263=PRE_DEFINED_POINT_MARKER_SYMBOL('plus');
#264=PRE_DEFINED_POINT_MARKER_SYMBOL('plus');
#265=PRE_DEFINED_POINT_MARKER_SYMBOL('plus');
#266=COLOUR_RGB('Medium Maroon',0.6,0.4,0.4);
#267=COLOUR_RGB('Silver Gray',0.6,0.6,0.6);
#268=COLOUR_RGB('TLS_NOCUT',0.498023956664378,0.498023956664378,0.498023956664378);
#269=COLOUR_RGB('TLS_CUT',0.8,0.8,0.8);
#270=AXIS2_PLACEMENT_3D('',#373,#303,#304);
#271=AXIS2_PLACEMENT_3D('PCS',#390,#305,#306);
#272=AXIS2_PLACEMENT_3D('MCS',#391,#307,#308);
#273=AXIS2_PLACEMENT_3D('CIP',#392,#309,#310);
#274=AXIS2_PLACEMENT_3D('',#393,#311,#312);
#275=AXIS2_PLACEMENT_3D('',#395,#313,#314);
#276=AXIS2_PLACEMENT_3D('',#397,#315,#316);
#277=AXIS2_PLACEMENT_3D('',#398,#317,#318);
#278=AXIS2_PLACEMENT_3D('',#400,#319,#320);
#279=AXIS2_PLACEMENT_3D('',#402,#321,#322);
#280=AXIS2_PLACEMENT_3D('',#403,#323,#324);
#281=AXIS2_PLACEMENT_3D('',#405,#325,#326);
#282=AXIS2_PLACEMENT_3D('',#406,#327,#328);
#283=AXIS2_PLACEMENT_3D('',#407,#329,#330);
#284=AXIS2_PLACEMENT_3D('',#409,#331,#332);
#285=AXIS2_PLACEMENT_3D('',#410,#333,#334);
#286=AXIS2_PLACEMENT_3D('',#412,#335,#336);
#287=AXIS2_PLACEMENT_3D('',#428,#337,#338);
#288=AXIS2_PLACEMENT_3D('',#444,#339,#340);
#289=AXIS2_PLACEMENT_3D('',#460,#341,#342);
#290=AXIS2_PLACEMENT_3D('',#476,#343,#344);
#291=AXIS2_PLACEMENT_3D('',#477,#345,#346);
#292=AXIS2_PLACEMENT_3D('',#479,#348,#349);
#293=AXIS2_PLACEMENT_3D('',#482,#352,#353);
#294=AXIS2_PLACEMENT_3D('',#484,#355,#356);
#295=AXIS2_PLACEMENT_3D('',#485,#357,#358);
#296=AXIS2_PLACEMENT_3D('',#486,#359,#360);
#297=AXIS2_PLACEMENT_3D('',#487,#361,#362);
#298=AXIS2_PLACEMENT_3D('',#488,#363,#364);
#299=AXIS2_PLACEMENT_3D('',#490,#365,#366);
#300=AXIS2_PLACEMENT_3D('',#492,#367,#368);
#301=AXIS2_PLACEMENT_3D('',#493,#369,#370);
#302=AXIS2_PLACEMENT_3D('',#495,#371,#372);
#303=DIRECTION('',(0.,0.,1.));
#304=DIRECTION('',(1.,0.,0.));
#305=DIRECTION('',(0.,0.,1.));
#306=DIRECTION('',(1.,0.,0.));
#307=DIRECTION('',(0.,0.,1.));
#308=DIRECTION('',(1.,0.,0.));
#309=DIRECTION('',(0.,0.,1.));
#310=DIRECTION('',(1.,0.,0.));
#311=DIRECTION('',(0.,0.,-1.));
#312=DIRECTION('',(1.,0.,0.));
#313=DIRECTION('',(0.,0.,1.));
#314=DIRECTION('',(-1.,0.,0.));
#315=DIRECTION('',(0.,0.,1.));
#316=DIRECTION('',(1.,0.,0.));
#317=DIRECTION('',(0.,0.,-1.));
#318=DIRECTION('',(-1.,0.,0.));
#319=DIRECTION('',(0.,0.,-1.));
#320=DIRECTION('',(-1.,0.,0.));
#321=DIRECTION('',(0.,0.,1.));
#322=DIRECTION('',(1.,0.,0.));
#323=DIRECTION('',(0.,0.,-1.));
#324=DIRECTION('',(-1.,0.,0.));
#325=DIRECTION('',(0.,0.,-1.));
#326=DIRECTION('',(-1.,0.,0.));
#327=DIRECTION('',(0.,0.,1.));
#328=DIRECTION('',(1.,0.,1.81172164592878E-16));
#329=DIRECTION('',(0.,0.,-1.));
#330=DIRECTION('',(-1.,0.,0.));
#331=DIRECTION('',(0.,0.,1.));
#332=DIRECTION('',(1.,0.,0.));
#333=DIRECTION('',(0.,0.,-1.));
#334=DIRECTION('',(-1.,0.,0.));
#335=DIRECTION('',(0.,0.,-1.));
#336=DIRECTION('',(-1.,0.,1.10141173077893E-16));
#337=DIRECTION('',(0.,0.681998360062498,0.73135370161917));
#338=DIRECTION('',(0.,0.73135370161917,-0.681998360062498));
#339=DIRECTION('',(0.,0.999390827019096,0.0348994967025008));
#340=DIRECTION('',(0.,0.0348994967025008,-0.999390827019096));
#341=DIRECTION('',(0.,0.731353701619171,-0.681998360062498));
#342=DIRECTION('',(0.,-0.681998360062498,-0.731353701619171));
#343=DIRECTION('',(0.,0.999390827019096,0.0348994967025008));
#344=DIRECTION('',(0.,0.0348994967025008,-0.999390827019096));
#345=DIRECTION('',(0.,0.,-1.));
#346=DIRECTION('',(-1.,0.,0.));
#347=DIRECTION('',(1.,0.,0.));
#348=DIRECTION('',(0.,-0.681998360062498,-0.73135370161917));
#349=DIRECTION('',(0.,-0.731353701619171,0.681998360062499));
#350=DIRECTION('',(1.,0.,0.));
#351=DIRECTION('',(-1.,0.,0.));
#352=DIRECTION('',(0.,-0.999390827019096,-0.0348994967025008));
#353=DIRECTION('',(0.,-0.0348994967025008,0.999390827019096));
#354=DIRECTION('',(-1.,0.,0.));
#355=DIRECTION('',(0.,-0.731353701619171,0.681998360062498));
#356=DIRECTION('',(0.,0.681998360062498,0.731353701619171));
#357=DIRECTION('',(1.,0.,0.));
#358=DIRECTION('',(0.,0.,-1.));
#359=DIRECTION('',(1.,0.,0.));
#360=DIRECTION('',(0.,0.,-0.999999999999998));
#361=DIRECTION('',(0.,0.,-1.));
#362=DIRECTION('',(-1.,0.,0.));
#363=DIRECTION('',(0.,0.,1.));
#364=DIRECTION('',(1.,0.,0.));
#365=DIRECTION('',(0.,0.,-1.));
#366=DIRECTION('',(1.,0.,0.));
#367=DIRECTION('',(0.,0.,-1.));
#368=DIRECTION('',(-1.,0.,-1.24617209205431E-14));
#369=DIRECTION('',(0.,0.,-1.));
#370=DIRECTION('',(-1.,0.,0.));
#371=DIRECTION('',(0.,0.,1.));
#372=DIRECTION('',(1.,0.,1.01022033590137E-17));
#373=CARTESIAN_POINT('',(0.,0.,0.));
#374=CARTESIAN_POINT('',(0.,0.,-48.));
#375=CARTESIAN_POINT('CRP',(-6.5,0.,-87.6341934772697));
#376=CARTESIAN_POINT('CIP_DCSYS',(0.,0.,-90.));
#377=CARTESIAN_POINT('',(0.,0.,-90.));
#378=CARTESIAN_POINT('',(0.,0.,-86.7666666666667));
#379=CARTESIAN_POINT('',(0.,0.,-83.5333333333333));
#380=CARTESIAN_POINT('',(0.,0.,-80.3));
#381=CARTESIAN_POINT('',(-2.16622661505803,0.,-80.3));
#382=CARTESIAN_POINT('',(-4.33245323011606,0.,-80.3));
#383=CARTESIAN_POINT('',(-6.49867984517409,0.,-80.300000000003));
#384=CARTESIAN_POINT('',(-6.49911989678273,0.,-82.7447311590939));
#385=CARTESIAN_POINT('',(-6.49955994839137,0.,-85.1894623181818));
#386=CARTESIAN_POINT('',(-6.5,0.,-87.6341934772697));
#387=CARTESIAN_POINT('',(-4.33333333333333,0.,-88.4227956515131));
#388=CARTESIAN_POINT('',(-2.16666666666667,0.,-89.2113978257566));
#389=CARTESIAN_POINT('',(0.,0.,-90.));
#390=CARTESIAN_POINT('',(0.,0.,0.));
#391=CARTESIAN_POINT('',(0.,0.,-48.));
#392=CARTESIAN_POINT('',(0.,0.,-90.));
#393=CARTESIAN_POINT('',(0.,0.,-80.3));
#394=CARTESIAN_POINT('',(6.40000000000001,0.,-80.3));
#395=CARTESIAN_POINT('',(0.,0.,-63.));
#396=CARTESIAN_POINT('',(-6.40000000000001,0.,-63.));
#397=CARTESIAN_POINT('',(0.,0.,20.9080749503476));
#398=CARTESIAN_POINT('',(0.,0.,-48.));
#399=CARTESIAN_POINT('',(-8.,0.,-48.));
#400=CARTESIAN_POINT('',(0.,0.,-48.));
#401=CARTESIAN_POINT('',(-10.,0.,-48.));
#402=CARTESIAN_POINT('',(-10.,0.,-48.));
#403=CARTESIAN_POINT('',(0.,0.,-51.));
#404=CARTESIAN_POINT('',(-10.,0.,-51.));
#405=CARTESIAN_POINT('',(0.,0.,20.9080749503476));
#406=CARTESIAN_POINT('',(0.,0.,-63.));
#407=CARTESIAN_POINT('',(0.,0.,0.));
#408=CARTESIAN_POINT('',(-7.,0.,0.));
#409=CARTESIAN_POINT('',(-7.,0.,3.33066907387547E-16));
#410=CARTESIAN_POINT('',(0.,0.,-1.));
#411=CARTESIAN_POINT('',(-8.,0.,-1.));
#412=CARTESIAN_POINT('',(0.,0.,-1.));
#413=CARTESIAN_POINT('',(-3.33034885603652,-7.27384193511904,-6.67715335042203));
#414=CARTESIAN_POINT('',(-3.55961122589998,-7.16887351842571,-6.77503798255655));
#415=CARTESIAN_POINT('',(-3.77907098441777,-7.05395394067436,-6.90697473677488));
#416=CARTESIAN_POINT('',(-3.95218455482181,-6.95559035917354,-7.09005204700998));
#417=CARTESIAN_POINT('',(-4.02918195725194,-6.91184023460727,-7.17148111868297));
#418=CARTESIAN_POINT('',(-4.09791876168372,-6.87102229871778,-7.2646125229474));
#419=CARTESIAN_POINT('',(-4.15120456541471,-6.83867682056113,-7.36750936574463));
#420=CARTESIAN_POINT('',(-4.20491857164171,-6.80607141549127,-7.47123308327831));
#421=CARTESIAN_POINT('',(-4.24386042150212,-6.7815953230833,-7.58821457922505));
#422=CARTESIAN_POINT('',(-4.26049804686624,-6.77112667084651,-7.70788292602704));
#423=CARTESIAN_POINT('',(-4.26434609385164,-6.76870541992883,-7.73556051889749));
#424=CARTESIAN_POINT('',(-4.26706352395035,-6.76699137267959,-7.76349144271916));
#425=CARTESIAN_POINT('',(-4.2686127388584,-6.76601398798848,-7.7914800782887));
#426=CARTESIAN_POINT('',(-3.33034885603652,-7.27384193511904,-6.67715335042203));
#427=CARTESIAN_POINT('',(-4.2686127388584,-6.76601398798848,-7.7914800782887));
#428=CARTESIAN_POINT('',(0.,0.,-13.4601206891013));
#429=CARTESIAN_POINT('',(3.33034885603652,-7.27384193511904,-6.67715335042203));
#430=CARTESIAN_POINT('',(4.2686127388584,-6.76601398798848,-7.7914800782887));
#431=CARTESIAN_POINT('',(4.26294527952317,-6.76958953322949,-7.68908985914271));
#432=CARTESIAN_POINT('',(4.24103571957246,-6.78345598923,-7.58669998117661));
#433=CARTESIAN_POINT('',(4.20638832537254,-6.80487305217148,-7.49252180384254));
#434=CARTESIAN_POINT('',(4.17190918486472,-6.82618611017991,-7.39880097189958));
#435=CARTESIAN_POINT('',(4.12433604014201,-6.85521993134839,-7.31087984359227));
#436=CARTESIAN_POINT('',(4.06861503295429,-6.88813267247506,-7.2318952074823));
#437=CARTESIAN_POINT('',(3.97725604196156,-6.94209571032912,-7.1023936599847));
#438=CARTESIAN_POINT('',(3.86199268185757,-7.00748991037386,-6.99319408913274));
#439=CARTESIAN_POINT('',(3.73725728182676,-7.07339437677788,-6.90304528558506));
#440=CARTESIAN_POINT('',(3.61140965871472,-7.13988649086389,-6.81209265585792));
#441=CARTESIAN_POINT('',(3.47351918287925,-7.20829100089857,-6.73828058549304));
#442=CARTESIAN_POINT('',(3.33034885603652,-7.27384193511904,-6.67715335042203));
#443=CARTESIAN_POINT('',(4.2686127388584,-6.76601398798848,-7.7914800782887));
#444=CARTESIAN_POINT('',(0.,0.,-201.544770354077));
#445=CARTESIAN_POINT('',(5.42000303685278,-5.88417938887885,-33.0439190120305));
#446=CARTESIAN_POINT('',(4.91381127456396,-6.31303878951873,-34.1909555828545));
#447=CARTESIAN_POINT('',(5.02622494621434,-6.2255405837279,-34.0971252447811));
#448=CARTESIAN_POINT('',(5.12829970665137,-6.14102519828816,-33.9834682542438));
#449=CARTESIAN_POINT('',(5.2101996857638,-6.07073465360387,-33.8513753525311));
#450=CARTESIAN_POINT('',(5.27778055777527,-6.01273346293927,-33.7423771136914));
#451=CARTESIAN_POINT('',(5.33292893736261,-5.96341042144295,-33.6181413727695));
#452=CARTESIAN_POINT('',(5.36920752196136,-5.93056578971295,-33.4861678037621));
#453=CARTESIAN_POINT('',(5.40118260886147,-5.90161730769842,-33.3698494196741));
#454=CARTESIAN_POINT('',(5.41915596855747,-5.88496000811553,-33.244675997081));
#455=CARTESIAN_POINT('',(5.42091308907267,-5.88334099646796,-33.1206410076673));
#456=CARTESIAN_POINT('',(5.42127535866886,-5.88300720109608,-33.0950684273346));
#457=CARTESIAN_POINT('',(5.42097142430435,-5.88328739314223,-33.0694624278717));
#458=CARTESIAN_POINT('',(5.42000303685278,-5.88417938887885,-33.0439190120305));
#459=CARTESIAN_POINT('',(4.91381127456396,-6.31303878951873,-34.1909555828545));
#460=CARTESIAN_POINT('',(0.,0.,-27.4210503198025));
#461=CARTESIAN_POINT('',(-4.91381127456396,-6.31303878951873,-34.1909555828545));
#462=CARTESIAN_POINT('',(-5.42000303685278,-5.88417938887885,-33.0439190120305));
#463=CARTESIAN_POINT('',(-5.42502048484393,-5.879557744712,-33.176265584976));
#464=CARTESIAN_POINT('',(-5.41155916970743,-5.89208564984709,-33.3118929413517));
#465=CARTESIAN_POINT('',(-5.38154027844819,-5.9193770137946,-33.438052353886));
#466=CARTESIAN_POINT('',(-5.35161849277741,-5.94658009520251,-33.5638036639395));
#467=CARTESIAN_POINT('',(-5.30468267034454,-5.98885667228236,-33.6836391755654));
#468=CARTESIAN_POINT('',(-5.24589778281787,-6.03991361297714,-33.7903454953471));
#469=CARTESIAN_POINT('',(-5.16835634455993,-6.10726134095786,-33.9310987034454));
#470=CARTESIAN_POINT('',(-5.06824111030211,-6.19137822069665,-34.0532143044883));
#471=CARTESIAN_POINT('',(-4.9565914686559,-6.27950643067172,-34.1538504452536));
#472=CARTESIAN_POINT('',(-4.94253429121556,-6.29060215715014,-34.1665209748387));
#473=CARTESIAN_POINT('',(-4.92826854849135,-6.30178583860358,-34.1788882703977));
#474=CARTESIAN_POINT('',(-4.91381127456396,-6.31303878951873,-34.1909555828545));
#475=CARTESIAN_POINT('',(-5.42000303685278,-5.88417938887885,-33.0439190120305));
#476=CARTESIAN_POINT('',(0.,0.,-201.544770354077));
#477=CARTESIAN_POINT('',(0.,0.,20.9080749503476));
#478=CARTESIAN_POINT('',(-20.,-7.27384193511904,-6.67715335042203));
#479=CARTESIAN_POINT('',(-20.,-9.,-5.06748491386234));
#480=CARTESIAN_POINT('',(-20.,-5.88417938887885,-33.0439190120305));
#481=CARTESIAN_POINT('',(-20.,-6.76601398798848,-7.7914800782887));
#482=CARTESIAN_POINT('',(-20.,-6.78914333975515,-7.12914210282859));
#483=CARTESIAN_POINT('',(-20.,-6.31303878951873,-34.1909555828545));
#484=CARTESIAN_POINT('',(-20.,-5.86105003711218,-33.7062569874906));
#485=CARTESIAN_POINT('',(-20.,-8.36503931121903,-7.8473192730127));
#486=CARTESIAN_POINT('',(-20.,-7.4832047121094,-33.0997582067545));
#487=CARTESIAN_POINT('',(0.,0.,-80.3));
#488=CARTESIAN_POINT('',(0.,0.,-87.6341934772711));
#489=CARTESIAN_POINT('',(6.5,0.,-87.6341934772711));
#490=CARTESIAN_POINT('',(0.,0.,-80.3));
#491=CARTESIAN_POINT('',(6.49867984517409,0.,-80.3));
#492=CARTESIAN_POINT('',(0.,0.,-97.6341934772697));
#493=CARTESIAN_POINT('',(-6.49867984517409,0.,-80.3));
#494=CARTESIAN_POINT('',(-1.07156594925393E-14,0.,-90.));
#495=CARTESIAN_POINT('',(0.,0.,-90.));
#496=MECHANICAL_DESIGN_GEOMETRIC_PRESENTATION_REPRESENTATION('',(#242,#243,
#244,#245,#246,#247,#248,#249,#250),#497);
#497=(
GEOMETRIC_REPRESENTATION_CONTEXT(3)
GLOBAL_UNCERTAINTY_ASSIGNED_CONTEXT((#498))
GLOBAL_UNIT_ASSIGNED_CONTEXT((#504,#500,#499))
REPRESENTATION_CONTEXT('h85113.0-r95013','TOP_LEVEL_ASSEMBLY_PART')
);
#498=UNCERTAINTY_MEASURE_WITH_UNIT(LENGTH_MEASURE(0.0508),#504,
'DISTANCE_ACCURACY_VALUE','Maximum Tolerance applied to model');
#499=(
NAMED_UNIT(*)
SI_UNIT($,.STERADIAN.)
SOLID_ANGLE_UNIT()
);
#500=(
CONVERSION_BASED_UNIT('DEGREE',#502)
NAMED_UNIT(#501)
PLANE_ANGLE_UNIT()
);
#501=DIMENSIONAL_EXPONENTS(0.,0.,0.,0.,0.,0.,0.);
#502=PLANE_ANGLE_MEASURE_WITH_UNIT(PLANE_ANGLE_MEASURE(0.0174532925),#503);
#503=(
NAMED_UNIT(*)
PLANE_ANGLE_UNIT()
SI_UNIT($,.RADIAN.)
);
#504=(
LENGTH_UNIT()
NAMED_UNIT(*)
SI_UNIT(.MILLI.,.METRE.)
);
ENDSEC;
END-ISO-10303-21;
