ISO-10303-21;
HEADER;
/* Generated by software containing ST-Developer
 * from STEP Tools, Inc. (www.steptools.com) 
 */
/* OPTION: using custom schema-name function */

FILE_DESCRIPTION(
/* description */ (''),
/* implementation_level */ '2;1');

FILE_NAME(
/* name */ 'CAD_7156707_MOD_003_003_FR.stp',
/* time_stamp */ '2016-04-28T17:11:34+02:00',
/* author */ ('VR - Julian Pauli'),
/* organization */ ('Walter AG'),
/* preprocessor_version */ 'ST-DEVELOPER v11',
/* originating_system */ 'SIEMENS UGS NX 6.0',
/* authorisation */ '');

FILE_SCHEMA (('AUTOMOTIVE_DESIGN { 1 0 10303 214 1 1 1 1 }'));
ENDSEC;

DATA;
#10=SHAPE_DEFINITION_REPRESENTATION(#11,#20);
#11=PRODUCT_DEFINITION_SHAPE('','',#12);
#12=PRODUCT_DEFINITION(' ','',#14,#13);
#13=PRODUCT_DEFINITION_CONTEXT('part definition',#19,'design');
#14=PRODUCT_DEFINITION_FORMATION_WITH_SPECIFIED_SOURCE(' ',' ',#16,.NOT_KNOWN.);
#15=PRODUCT_RELATED_PRODUCT_CATEGORY('part','',(#16));
#16=PRODUCT('042975_simple','042975_simple',' ',(#17));
#17=PRODUCT_CONTEXT(' ',#19,'mechanical');
#18=APPLICATION_PROTOCOL_DEFINITION('international standard',
'automotive_design',2001,#19);
#19=APPLICATION_CONTEXT(
'core data for automotive mechanical design processes');
#20=SHAPE_REPRESENTATION('042975_simple-None',(#192,#36,#37,#21),#309);
#21=GEOMETRIC_CURVE_SET('None',(#181,#182,#183,#184,#185));
#22=TOROIDAL_SURFACE('',#213,11.5,2.);
#23=TOROIDAL_SURFACE('',#215,8.,2.);
#24=SURFACE_STYLE_USAGE(.BOTH.,#26);
#25=SURFACE_STYLE_USAGE(.BOTH.,#27);
#26=SURFACE_SIDE_STYLE('',(#28));
#27=SURFACE_SIDE_STYLE('',(#29));
#28=SURFACE_STYLE_FILL_AREA(#30);
#29=SURFACE_STYLE_FILL_AREA(#31);
#30=FILL_AREA_STYLE('',(#32));
#31=FILL_AREA_STYLE('',(#33));
#32=FILL_AREA_STYLE_COLOUR('',#34);
#33=FILL_AREA_STYLE_COLOUR('',#35);
#34=COLOUR_RGB('Pale Gray',0.8,0.8,0.8);
#35=COLOUR_RGB('Dark Gray',0.4,0.4,0.4);
#36=MANIFOLD_SOLID_BREP('',#38);
#37=MANIFOLD_SOLID_BREP('',#39);
#38=CLOSED_SHELL('',(#62,#63,#64,#65));
#39=CLOSED_SHELL('',(#66,#67,#68,#69,#70,#71,#72,#73));
#40=CYLINDRICAL_SURFACE('',#201,10.);
#41=CYLINDRICAL_SURFACE('',#204,9.99999999999999);
#42=CYLINDRICAL_SURFACE('',#210,9.49999999999999);
#43=CONICAL_SURFACE('',#200,7.00000000000001,44.9999999999999);
#44=CONICAL_SURFACE('',#206,10.,45.);
#45=CONICAL_SURFACE('',#212,9.49999999999999,30.0000000000002);
#46=FACE_BOUND('',#84,.T.);
#47=FACE_BOUND('',#85,.T.);
#48=FACE_BOUND('',#86,.T.);
#49=FACE_BOUND('',#87,.T.);
#50=FACE_BOUND('',#88,.T.);
#51=FACE_BOUND('',#89,.T.);
#52=FACE_BOUND('',#90,.T.);
#53=FACE_BOUND('',#91,.T.);
#54=FACE_BOUND('',#93,.T.);
#55=FACE_BOUND('',#94,.T.);
#56=FACE_BOUND('',#95,.T.);
#57=FACE_BOUND('',#96,.T.);
#58=FACE_BOUND('',#97,.T.);
#59=FACE_BOUND('',#98,.T.);
#60=FACE_BOUND('',#99,.T.);
#61=FACE_BOUND('',#100,.T.);
#62=ADVANCED_FACE('',(#78),#74,.F.);
#63=ADVANCED_FACE('',(#79),#75,.F.);
#64=ADVANCED_FACE('',(#46,#47),#43,.T.);
#65=ADVANCED_FACE('',(#48,#49),#40,.T.);
#66=ADVANCED_FACE('',(#50,#51),#41,.T.);
#67=ADVANCED_FACE('',(#52,#53),#44,.T.);
#68=ADVANCED_FACE('',(#80),#76,.T.);
#69=ADVANCED_FACE('',(#54,#55),#42,.T.);
#70=ADVANCED_FACE('',(#56,#57),#45,.T.);
#71=ADVANCED_FACE('',(#58,#59),#22,.F.);
#72=ADVANCED_FACE('',(#60,#61),#23,.T.);
#73=ADVANCED_FACE('',(#81),#77,.T.);
#74=PLANE('',#196);
#75=PLANE('',#198);
#76=PLANE('',#207);
#77=PLANE('',#216);
#78=FACE_OUTER_BOUND('',#82,.T.);
#79=FACE_OUTER_BOUND('',#83,.T.);
#80=FACE_OUTER_BOUND('',#92,.T.);
#81=FACE_OUTER_BOUND('',#101,.T.);
#82=EDGE_LOOP('',(#102));
#83=EDGE_LOOP('',(#103));
#84=EDGE_LOOP('',(#104));
#85=EDGE_LOOP('',(#105));
#86=EDGE_LOOP('',(#106));
#87=EDGE_LOOP('',(#107));
#88=EDGE_LOOP('',(#108));
#89=EDGE_LOOP('',(#109));
#90=EDGE_LOOP('',(#110));
#91=EDGE_LOOP('',(#111));
#92=EDGE_LOOP('',(#112));
#93=EDGE_LOOP('',(#113));
#94=EDGE_LOOP('',(#114));
#95=EDGE_LOOP('',(#115));
#96=EDGE_LOOP('',(#116));
#97=EDGE_LOOP('',(#117));
#98=EDGE_LOOP('',(#118));
#99=EDGE_LOOP('',(#119));
#100=EDGE_LOOP('',(#120));
#101=EDGE_LOOP('',(#121));
#102=ORIENTED_EDGE('',*,*,#132,.T.);
#103=ORIENTED_EDGE('',*,*,#133,.F.);
#104=ORIENTED_EDGE('',*,*,#134,.F.);
#105=ORIENTED_EDGE('',*,*,#133,.T.);
#106=ORIENTED_EDGE('',*,*,#132,.F.);
#107=ORIENTED_EDGE('',*,*,#134,.T.);
#108=ORIENTED_EDGE('',*,*,#135,.T.);
#109=ORIENTED_EDGE('',*,*,#136,.F.);
#110=ORIENTED_EDGE('',*,*,#137,.F.);
#111=ORIENTED_EDGE('',*,*,#136,.T.);
#112=ORIENTED_EDGE('',*,*,#137,.T.);
#113=ORIENTED_EDGE('',*,*,#138,.T.);
#114=ORIENTED_EDGE('',*,*,#139,.T.);
#115=ORIENTED_EDGE('',*,*,#140,.T.);
#116=ORIENTED_EDGE('',*,*,#135,.F.);
#117=ORIENTED_EDGE('',*,*,#139,.F.);
#118=ORIENTED_EDGE('',*,*,#140,.F.);
#119=ORIENTED_EDGE('',*,*,#141,.F.);
#120=ORIENTED_EDGE('',*,*,#138,.F.);
#121=ORIENTED_EDGE('',*,*,#141,.T.);
#122=VERTEX_POINT('',#277);
#123=VERTEX_POINT('',#280);
#124=VERTEX_POINT('',#283);
#125=VERTEX_POINT('',#287);
#126=VERTEX_POINT('',#289);
#127=VERTEX_POINT('',#292);
#128=VERTEX_POINT('',#296);
#129=VERTEX_POINT('',#298);
#130=VERTEX_POINT('',#301);
#131=VERTEX_POINT('',#305);
#132=EDGE_CURVE('',#122,#122,#145,.T.);
#133=EDGE_CURVE('',#123,#123,#146,.T.);
#134=EDGE_CURVE('',#124,#124,#147,.T.);
#135=EDGE_CURVE('',#125,#125,#148,.T.);
#136=EDGE_CURVE('',#126,#126,#149,.T.);
#137=EDGE_CURVE('',#127,#127,#150,.T.);
#138=EDGE_CURVE('',#128,#128,#151,.T.);
#139=EDGE_CURVE('',#129,#129,#152,.T.);
#140=EDGE_CURVE('',#130,#130,#153,.T.);
#141=EDGE_CURVE('',#131,#131,#154,.T.);
#142=INVISIBILITY((#159,#160));
#143=CIRCLE('',#193,2.);
#144=CIRCLE('',#194,2.);
#145=CIRCLE('',#195,10.);
#146=CIRCLE('',#197,7.00000000000001);
#147=CIRCLE('',#199,10.);
#148=CIRCLE('',#202,10.);
#149=CIRCLE('',#203,10.);
#150=CIRCLE('',#205,9.);
#151=CIRCLE('',#208,9.49999999999999);
#152=CIRCLE('',#209,9.49999999999999);
#153=CIRCLE('',#211,9.76794919243112);
#154=CIRCLE('',#214,10.);
#155=PRESENTATION_LAYER_ASSIGNMENT('1','Layer 1',(#181,#182,#183,#184,#185,
#36,#37));
#156=STYLED_ITEM('',(#163),#181);
#157=STYLED_ITEM('',(#164),#182);
#158=STYLED_ITEM('',(#165),#183);
#159=STYLED_ITEM('',(#166),#184);
#160=STYLED_ITEM('',(#167),#185);
#161=STYLED_ITEM('',(#168),#36);
#162=STYLED_ITEM('',(#169),#37);
#163=PRESENTATION_STYLE_ASSIGNMENT((#170));
#164=PRESENTATION_STYLE_ASSIGNMENT((#171));
#165=PRESENTATION_STYLE_ASSIGNMENT((#172));
#166=PRESENTATION_STYLE_ASSIGNMENT((#173));
#167=PRESENTATION_STYLE_ASSIGNMENT((#174));
#168=PRESENTATION_STYLE_ASSIGNMENT((#24));
#169=PRESENTATION_STYLE_ASSIGNMENT((#25));
#170=CURVE_STYLE('',#176,POSITIVE_LENGTH_MEASURE(0.352777777777778),#175);
#171=CURVE_STYLE('',#177,POSITIVE_LENGTH_MEASURE(0.352777777777778),#175);
#172=CURVE_STYLE('',#178,POSITIVE_LENGTH_MEASURE(0.352777777777778),#175);
#173=CURVE_STYLE('',#179,POSITIVE_LENGTH_MEASURE(0.352777777777778),#175);
#174=CURVE_STYLE('',#180,POSITIVE_LENGTH_MEASURE(0.352777777777778),#175);
#175=DRAUGHTING_PRE_DEFINED_COLOUR('blue');
#176=DRAUGHTING_PRE_DEFINED_CURVE_FONT('continuous');
#177=DRAUGHTING_PRE_DEFINED_CURVE_FONT('continuous');
#178=DRAUGHTING_PRE_DEFINED_CURVE_FONT('continuous');
#179=DRAUGHTING_PRE_DEFINED_CURVE_FONT('dashed');
#180=DRAUGHTING_PRE_DEFINED_CURVE_FONT('dashed');
#181=TRIMMED_CURVE('',#186,(PARAMETER_VALUE(0.)),(PARAMETER_VALUE(1.)),.T.,
 .PARAMETER.);
#182=TRIMMED_CURVE('',#187,(PARAMETER_VALUE(0.)),(PARAMETER_VALUE(1.)),.T.,
 .PARAMETER.);
#183=TRIMMED_CURVE('',#188,(PARAMETER_VALUE(0.)),(PARAMETER_VALUE(1.)),.T.,
 .PARAMETER.);
#184=TRIMMED_CURVE('',#143,(PARAMETER_VALUE(270.)),(PARAMETER_VALUE(360.)),
 .T.,.PARAMETER.);
#185=TRIMMED_CURVE('',#144,(PARAMETER_VALUE(180.)),(PARAMETER_VALUE(270.)),
 .T.,.PARAMETER.);
#186=LINE('',#271,#189);
#187=LINE('',#272,#190);
#188=LINE('',#273,#191);
#189=VECTOR('',#219,7.00000000000001);
#190=VECTOR('',#220,16.999);
#191=VECTOR('',#221,4.24264068711928);
#192=AXIS2_PLACEMENT_3D('',#270,#217,#218);
#193=AXIS2_PLACEMENT_3D('',#274,#222,#223);
#194=AXIS2_PLACEMENT_3D('',#275,#224,#225);
#195=AXIS2_PLACEMENT_3D('',#276,#226,#227);
#196=AXIS2_PLACEMENT_3D('',#278,#228,#229);
#197=AXIS2_PLACEMENT_3D('',#279,#230,#231);
#198=AXIS2_PLACEMENT_3D('',#281,#232,#233);
#199=AXIS2_PLACEMENT_3D('',#282,#234,#235);
#200=AXIS2_PLACEMENT_3D('',#284,#236,#237);
#201=AXIS2_PLACEMENT_3D('',#285,#238,#239);
#202=AXIS2_PLACEMENT_3D('',#286,#240,#241);
#203=AXIS2_PLACEMENT_3D('',#288,#242,#243);
#204=AXIS2_PLACEMENT_3D('',#290,#244,#245);
#205=AXIS2_PLACEMENT_3D('',#291,#246,#247);
#206=AXIS2_PLACEMENT_3D('',#293,#248,#249);
#207=AXIS2_PLACEMENT_3D('',#294,#250,#251);
#208=AXIS2_PLACEMENT_3D('',#295,#252,#253);
#209=AXIS2_PLACEMENT_3D('',#297,#254,#255);
#210=AXIS2_PLACEMENT_3D('',#299,#256,#257);
#211=AXIS2_PLACEMENT_3D('',#300,#258,#259);
#212=AXIS2_PLACEMENT_3D('',#302,#260,#261);
#213=AXIS2_PLACEMENT_3D('',#303,#262,#263);
#214=AXIS2_PLACEMENT_3D('',#304,#264,#265);
#215=AXIS2_PLACEMENT_3D('',#306,#266,#267);
#216=AXIS2_PLACEMENT_3D('',#307,#268,#269);
#217=DIRECTION('',(0.,0.,1.));
#218=DIRECTION('',(1.,0.,0.));
#219=DIRECTION('',(1.,6.34413156928661E-017,0.));
#220=DIRECTION('',(0.,0.,1.));
#221=DIRECTION('',(0.707106781186547,0.,0.707106781186549));
#222=DIRECTION('',(0.992200325818088,0.124653573741305,0.));
#223=DIRECTION('',(-0.124653573741305,0.992200325818088,0.));
#224=DIRECTION('',(0.992200325818088,0.124653573741305,0.));
#225=DIRECTION('',(-0.124653573741305,0.992200325818088,0.));
#226=DIRECTION('',(0.,0.,1.));
#227=DIRECTION('',(0.89167393095628,-0.452678253125743,0.));
#228=DIRECTION('',(0.,0.,-1.));
#229=DIRECTION('',(-0.89167393095628,0.452678253125743,0.));
#230=DIRECTION('',(0.,0.,1.));
#231=DIRECTION('',(0.89167393095628,-0.452678253125743,0.));
#232=DIRECTION('',(0.,0.,1.));
#233=DIRECTION('',(0.89167393095628,-0.452678253125743,0.));
#234=DIRECTION('',(0.,0.,1.));
#235=DIRECTION('',(0.89167393095628,-0.452678253125743,0.));
#236=DIRECTION('',(0.,0.,1.));
#237=DIRECTION('',(0.89167393095628,-0.452678253125743,0.));
#238=DIRECTION('',(0.,0.,1.));
#239=DIRECTION('',(0.89167393095628,-0.452678253125743,0.));
#240=DIRECTION('',(0.,0.,1.));
#241=DIRECTION('',(0.89167393095628,-0.452678253125743,0.));
#242=DIRECTION('',(0.,0.,1.));
#243=DIRECTION('',(0.89167393095628,-0.452678253125743,0.));
#244=DIRECTION('',(0.,0.,1.));
#245=DIRECTION('',(0.89167393095628,-0.452678253125743,0.));
#246=DIRECTION('',(0.,0.,1.));
#247=DIRECTION('',(0.89167393095628,-0.452678253125743,0.));
#248=DIRECTION('',(0.,0.,-1.));
#249=DIRECTION('',(-0.89167393095628,0.452678253125743,1.08420217248551E-016));
#250=DIRECTION('',(0.,0.,1.));
#251=DIRECTION('',(0.89167393095628,-0.452678253125743,0.));
#252=DIRECTION('',(0.,0.,1.));
#253=DIRECTION('',(-0.891673930956281,0.452678253125743,0.));
#254=DIRECTION('',(0.,0.,-1.));
#255=DIRECTION('',(0.891673930956281,-0.452678253125743,0.));
#256=DIRECTION('',(0.,0.,1.));
#257=DIRECTION('',(0.891673930956281,-0.452678253125743,0.));
#258=DIRECTION('',(0.,0.,1.));
#259=DIRECTION('',(0.891673930956281,-0.452678253125743,0.));
#260=DIRECTION('',(0.,0.,1.));
#261=DIRECTION('',(0.89167393095628,-0.452678253125743,2.36479193014225E-017));
#262=DIRECTION('',(0.,0.,1.));
#263=DIRECTION('',(0.89167393095628,-0.452678253125743,0.));
#264=DIRECTION('',(0.,0.,-1.));
#265=DIRECTION('',(-0.89167393095628,0.452678253125743,0.));
#266=DIRECTION('',(0.,0.,1.));
#267=DIRECTION('',(0.89167393095628,-0.452678253125743,0.));
#268=DIRECTION('',(0.,0.,-1.));
#269=DIRECTION('',(-0.89167393095628,0.452678253125743,0.));
#270=CARTESIAN_POINT('',(0.,0.,0.));
#271=CARTESIAN_POINT('',(-2.07130250170076E-030,-6.76379937112322E-031,-140.));
#272=CARTESIAN_POINT('',(10.,8.88178419700125E-016,-137.));
#273=CARTESIAN_POINT('',(7.00000000000001,0.,-140.));
#274=CARTESIAN_POINT('',(-0.747921442447832,5.95320195490855,-98.0000000000001));
#275=CARTESIAN_POINT('',(0.747921442447834,-5.95320195490855,-98.0000000000001));
#276=CARTESIAN_POINT('',(0.,0.,-120.));
#277=CARTESIAN_POINT('',(8.9167393095628,-4.52678253125743,-120.));
#278=CARTESIAN_POINT('',(0.,0.,-120.));
#279=CARTESIAN_POINT('',(0.,0.,-140.));
#280=CARTESIAN_POINT('',(6.24171751669397,-3.16874777188021,-140.));
#281=CARTESIAN_POINT('',(1.10875176003837E-014,-5.62882677691371E-015,-140.));
#282=CARTESIAN_POINT('',(0.,0.,-137.));
#283=CARTESIAN_POINT('',(8.9167393095628,-4.52678253125743,-137.));
#284=CARTESIAN_POINT('',(0.,0.,-140.));
#285=CARTESIAN_POINT('',(0.,0.,0.));
#286=CARTESIAN_POINT('',(0.,0.,-104.133974596216));
#287=CARTESIAN_POINT('',(8.9167393095628,-4.52678253125743,-104.133974596216));
#288=CARTESIAN_POINT('',(0.,0.,-0.999999999999999));
#289=CARTESIAN_POINT('',(8.9167393095628,-4.52678253125743,-0.999999999999999));
#290=CARTESIAN_POINT('',(0.,0.,0.));
#291=CARTESIAN_POINT('',(0.,0.,1.26163185801275E-016));
#292=CARTESIAN_POINT('',(8.02506537860652,-4.07410427813169,1.26163185801275E-016));
#293=CARTESIAN_POINT('',(0.,0.,-0.999999999999999));
#294=CARTESIAN_POINT('',(-1.5839310857691E-015,8.04118110987672E-016,8.03647919695936E-016));
#295=CARTESIAN_POINT('',(0.,0.,-118.677124344468));
#296=CARTESIAN_POINT('',(-8.47090234408465,4.30044340469456,-118.677124344468));
#297=CARTESIAN_POINT('',(0.,0.,-105.535898384862));
#298=CARTESIAN_POINT('',(8.47090234408465,-4.30044340469456,-105.535898384862));
#299=CARTESIAN_POINT('',(0.,0.,0.));
#300=CARTESIAN_POINT('',(0.,0.,-104.535898384862));
#301=CARTESIAN_POINT('',(8.70982565379628,-4.42173817705074,-104.535898384862));
#302=CARTESIAN_POINT('',(0.,0.,-105.));
#303=CARTESIAN_POINT('',(0.,0.,-105.535898384862));
#304=CARTESIAN_POINT('',(0.,0.,-120.));
#305=CARTESIAN_POINT('',(-8.9167393095628,4.52678253125743,-120.));
#306=CARTESIAN_POINT('',(0.,0.,-120.));
#307=CARTESIAN_POINT('',(0.,0.,-120.));
#308=MECHANICAL_DESIGN_GEOMETRIC_PRESENTATION_REPRESENTATION('',(#156,#157,
#158,#159,#160,#161,#162),#309);
#309=(
GEOMETRIC_REPRESENTATION_CONTEXT(3)
GLOBAL_UNCERTAINTY_ASSIGNED_CONTEXT((#310))
GLOBAL_UNIT_ASSIGNED_CONTEXT((#316,#312,#311))
REPRESENTATION_CONTEXT('CAD_7156707_MOD_003_003_FR',
'TOP_LEVEL_ASSEMBLY_PART')
);
#310=UNCERTAINTY_MEASURE_WITH_UNIT(LENGTH_MEASURE(2.E-005),#316,
'DISTANCE_ACCURACY_VALUE','Maximum Tolerance applied to model');
#311=(
NAMED_UNIT(*)
SI_UNIT($,.STERADIAN.)
SOLID_ANGLE_UNIT()
);
#312=(
CONVERSION_BASED_UNIT('DEGREE',#314)
NAMED_UNIT(#313)
PLANE_ANGLE_UNIT()
);
#313=DIMENSIONAL_EXPONENTS(0.,0.,0.,0.,0.,0.,0.);
#314=PLANE_ANGLE_MEASURE_WITH_UNIT(PLANE_ANGLE_MEASURE(0.0174532925),#315);
#315=(
NAMED_UNIT(*)
PLANE_ANGLE_UNIT()
SI_UNIT($,.RADIAN.)
);
#316=(
LENGTH_UNIT()
NAMED_UNIT(*)
SI_UNIT(.MILLI.,.METRE.)
);
ENDSEC;
END-ISO-10303-21;
