ISO-10303-21;
HEADER;
/* Generated by software containing ST-Developer
 * from STEP Tools, Inc. (www.steptools.com) 
 */
/* OPTION: using custom schema-name function */

FILE_DESCRIPTION(
/* description */ (''),
/* implementation_level */ '2;1');

FILE_NAME(
/* name */ 'BT.30AD-W.12.050.stp',
/* time_stamp */ '2024-07-07T22:10:04+02:00',
/* author */ (''),
/* organization */ (''),
/* preprocessor_version */ 'ST-DEVELOPER v16.7',
/* originating_system */ 'SIEMENS PLM Software NX 12.0',
/* authorisation */ '');

FILE_SCHEMA (('AUTOMOTIVE_DESIGN { 1 0 10303 214 3 1 1 1 }'));
ENDSEC;

DATA;
#10=CONSTRUCTIVE_GEOMETRY_REPRESENTATION_RELATIONSHIP(
'supplemental geometry','',#32,#11);
#11=CONSTRUCTIVE_GEOMETRY_REPRESENTATION('supplemental geometry',(#276,
#277,#278),#468);
#12=PROPERTY_DEFINITION_REPRESENTATION(#16,#14);
#13=PROPERTY_DEFINITION_REPRESENTATION(#17,#15);
#14=REPRESENTATION('',(#18),#468);
#15=REPRESENTATION('',(#19),#468);
#16=PROPERTY_DEFINITION('pmi validation property','',#23);
#17=PROPERTY_DEFINITION('pmi validation property','',#23);
#18=VALUE_REPRESENTATION_ITEM('number of annotations',COUNT_MEASURE(0.));
#19=VALUE_REPRESENTATION_ITEM('number of views',COUNT_MEASURE(0.));
#20=SHAPE_REPRESENTATION_RELATIONSHIP('None',
'relationship between pf661FBC17438yk1-None and pf661FBC17438yk1-None',
#32,#21);
#21=ADVANCED_BREP_SHAPE_REPRESENTATION('pf661FBC17438yk1-None',(#38),#468);
#22=SHAPE_DEFINITION_REPRESENTATION(#23,#32);
#23=PRODUCT_DEFINITION_SHAPE('','',#24);
#24=PRODUCT_DEFINITION(' ','',#26,#25);
#25=PRODUCT_DEFINITION_CONTEXT('part definition',#31,'design');
#26=PRODUCT_DEFINITION_FORMATION_WITH_SPECIFIED_SOURCE(' ',' ',#28,
 .NOT_KNOWN.);
#27=PRODUCT_RELATED_PRODUCT_CATEGORY('part','',(#28));
#28=PRODUCT('pf661FBC17438yk1','pf661FBC17438yk1',' ',(#29));
#29=PRODUCT_CONTEXT(' ',#31,'mechanical');
#30=APPLICATION_PROTOCOL_DEFINITION('international standard',
'automotive_design',2010,#31);
#31=APPLICATION_CONTEXT(
'core data for automotive mechanical design processes');
#32=SHAPE_REPRESENTATION('pf661FBC17438yk1-None',(#275),#468);
#33=SURFACE_STYLE_USAGE(.BOTH.,#34);
#34=SURFACE_SIDE_STYLE('',(#35));
#35=SURFACE_STYLE_FILL_AREA(#36);
#36=FILL_AREA_STYLE('',(#37));
#37=FILL_AREA_STYLE_COLOUR('',#271);
#38=MANIFOLD_SOLID_BREP('',#39);
#39=CLOSED_SHELL('',(#72,#73,#74,#75,#76,#77,#78,#79,#80,#81,#82,#83,#84,
#85,#86,#87,#88));
#40=CYLINDRICAL_SURFACE('',#295,21.);
#41=CYLINDRICAL_SURFACE('',#298,23.);
#42=CYLINDRICAL_SURFACE('',#306,23.);
#43=CYLINDRICAL_SURFACE('',#309,19.);
#44=TOROIDAL_SURFACE('',#292,21.8,0.8);
#45=TOROIDAL_SURFACE('',#302,19.5,0.5);
#46=TOROIDAL_SURFACE('',#308,19.5,0.5);
#47=CONICAL_SURFACE('',#287,18.17554531327,25.);
#48=CONICAL_SURFACE('',#289,18.17554531327,25.);
#49=CONICAL_SURFACE('',#300,21.23312865488,60.125);
#50=CONICAL_SURFACE('',#305,21.23312865491,60.125);
#51=CONICAL_SURFACE('',#313,12.37704973254,8.2971);
#52=CONICAL_SURFACE('',#314,12.37704973254,8.2971);
#53=LINE('',#417,#59);
#54=LINE('',#421,#60);
#55=LINE('',#434,#61);
#56=LINE('',#438,#62);
#57=LINE('',#463,#63);
#58=LINE('',#464,#64);
#59=VECTOR('',#337,1.);
#60=VECTOR('',#340,1.);
#61=VECTOR('',#359,1.);
#62=VECTOR('',#362,1.);
#63=VECTOR('',#395,1.);
#64=VECTOR('',#396,1.);
#65=FACE_OUTER_BOUND('',#115,.T.);
#66=FACE_OUTER_BOUND('',#116,.T.);
#67=FACE_OUTER_BOUND('',#117,.T.);
#68=FACE_OUTER_BOUND('',#124,.T.);
#69=FACE_OUTER_BOUND('',#137,.T.);
#70=FACE_OUTER_BOUND('',#138,.T.);
#71=FACE_OUTER_BOUND('',#139,.T.);
#72=ADVANCED_FACE('',(#93,#94),#89,.F.);
#73=ADVANCED_FACE('',(#65),#90,.F.);
#74=ADVANCED_FACE('',(#66),#47,.T.);
#75=ADVANCED_FACE('',(#67),#48,.T.);
#76=ADVANCED_FACE('',(#95,#96),#44,.F.);
#77=ADVANCED_FACE('',(#97,#98),#91,.T.);
#78=ADVANCED_FACE('',(#99,#100),#40,.T.);
#79=ADVANCED_FACE('',(#68),#41,.T.);
#80=ADVANCED_FACE('',(#101,#102),#49,.T.);
#81=ADVANCED_FACE('',(#103,#104),#45,.F.);
#82=ADVANCED_FACE('',(#105,#106),#50,.T.);
#83=ADVANCED_FACE('',(#107,#108),#42,.T.);
#84=ADVANCED_FACE('',(#109,#110),#46,.F.);
#85=ADVANCED_FACE('',(#111,#112),#43,.T.);
#86=ADVANCED_FACE('',(#69),#92,.F.);
#87=ADVANCED_FACE('',(#70),#51,.T.);
#88=ADVANCED_FACE('',(#71),#52,.T.);
#89=PLANE('',#282);
#90=PLANE('',#285);
#91=PLANE('',#294);
#92=PLANE('',#312);
#93=FACE_BOUND('',#113,.T.);
#94=FACE_BOUND('',#114,.T.);
#95=FACE_BOUND('',#118,.T.);
#96=FACE_BOUND('',#119,.T.);
#97=FACE_BOUND('',#120,.T.);
#98=FACE_BOUND('',#121,.T.);
#99=FACE_BOUND('',#122,.T.);
#100=FACE_BOUND('',#123,.T.);
#101=FACE_BOUND('',#125,.T.);
#102=FACE_BOUND('',#126,.T.);
#103=FACE_BOUND('',#127,.T.);
#104=FACE_BOUND('',#128,.T.);
#105=FACE_BOUND('',#129,.T.);
#106=FACE_BOUND('',#130,.T.);
#107=FACE_BOUND('',#131,.T.);
#108=FACE_BOUND('',#132,.T.);
#109=FACE_BOUND('',#133,.T.);
#110=FACE_BOUND('',#134,.T.);
#111=FACE_BOUND('',#135,.T.);
#112=FACE_BOUND('',#136,.T.);
#113=EDGE_LOOP('',(#140));
#114=EDGE_LOOP('',(#141,#142));
#115=EDGE_LOOP('',(#143,#144));
#116=EDGE_LOOP('',(#145,#146,#147,#148));
#117=EDGE_LOOP('',(#149,#150,#151,#152));
#118=EDGE_LOOP('',(#153));
#119=EDGE_LOOP('',(#154));
#120=EDGE_LOOP('',(#155));
#121=EDGE_LOOP('',(#156));
#122=EDGE_LOOP('',(#157));
#123=EDGE_LOOP('',(#158,#159));
#124=EDGE_LOOP('',(#160,#161,#162,#163,#164,#165,#166));
#125=EDGE_LOOP('',(#167));
#126=EDGE_LOOP('',(#168,#169));
#127=EDGE_LOOP('',(#170));
#128=EDGE_LOOP('',(#171));
#129=EDGE_LOOP('',(#172));
#130=EDGE_LOOP('',(#173));
#131=EDGE_LOOP('',(#174));
#132=EDGE_LOOP('',(#175));
#133=EDGE_LOOP('',(#176));
#134=EDGE_LOOP('',(#177));
#135=EDGE_LOOP('',(#178));
#136=EDGE_LOOP('',(#179));
#137=EDGE_LOOP('',(#180,#181));
#138=EDGE_LOOP('',(#182,#183,#184,#185));
#139=EDGE_LOOP('',(#186,#187,#188,#189));
#140=ORIENTED_EDGE('',*,*,#210,.T.);
#141=ORIENTED_EDGE('',*,*,#211,.T.);
#142=ORIENTED_EDGE('',*,*,#212,.T.);
#143=ORIENTED_EDGE('',*,*,#213,.F.);
#144=ORIENTED_EDGE('',*,*,#214,.T.);
#145=ORIENTED_EDGE('',*,*,#213,.T.);
#146=ORIENTED_EDGE('',*,*,#215,.T.);
#147=ORIENTED_EDGE('',*,*,#216,.T.);
#148=ORIENTED_EDGE('',*,*,#217,.F.);
#149=ORIENTED_EDGE('',*,*,#218,.T.);
#150=ORIENTED_EDGE('',*,*,#215,.F.);
#151=ORIENTED_EDGE('',*,*,#214,.F.);
#152=ORIENTED_EDGE('',*,*,#217,.T.);
#153=ORIENTED_EDGE('',*,*,#219,.F.);
#154=ORIENTED_EDGE('',*,*,#220,.F.);
#155=ORIENTED_EDGE('',*,*,#221,.T.);
#156=ORIENTED_EDGE('',*,*,#220,.T.);
#157=ORIENTED_EDGE('',*,*,#219,.T.);
#158=ORIENTED_EDGE('',*,*,#218,.F.);
#159=ORIENTED_EDGE('',*,*,#216,.F.);
#160=ORIENTED_EDGE('',*,*,#221,.F.);
#161=ORIENTED_EDGE('',*,*,#222,.F.);
#162=ORIENTED_EDGE('',*,*,#223,.F.);
#163=ORIENTED_EDGE('',*,*,#224,.T.);
#164=ORIENTED_EDGE('',*,*,#224,.F.);
#165=ORIENTED_EDGE('',*,*,#225,.F.);
#166=ORIENTED_EDGE('',*,*,#222,.T.);
#167=ORIENTED_EDGE('',*,*,#226,.T.);
#168=ORIENTED_EDGE('',*,*,#223,.T.);
#169=ORIENTED_EDGE('',*,*,#225,.T.);
#170=ORIENTED_EDGE('',*,*,#227,.F.);
#171=ORIENTED_EDGE('',*,*,#226,.F.);
#172=ORIENTED_EDGE('',*,*,#228,.T.);
#173=ORIENTED_EDGE('',*,*,#229,.T.);
#174=ORIENTED_EDGE('',*,*,#229,.F.);
#175=ORIENTED_EDGE('',*,*,#210,.F.);
#176=ORIENTED_EDGE('',*,*,#228,.F.);
#177=ORIENTED_EDGE('',*,*,#230,.F.);
#178=ORIENTED_EDGE('',*,*,#230,.T.);
#179=ORIENTED_EDGE('',*,*,#227,.T.);
#180=ORIENTED_EDGE('',*,*,#231,.T.);
#181=ORIENTED_EDGE('',*,*,#232,.T.);
#182=ORIENTED_EDGE('',*,*,#233,.F.);
#183=ORIENTED_EDGE('',*,*,#211,.F.);
#184=ORIENTED_EDGE('',*,*,#234,.T.);
#185=ORIENTED_EDGE('',*,*,#231,.F.);
#186=ORIENTED_EDGE('',*,*,#234,.F.);
#187=ORIENTED_EDGE('',*,*,#212,.F.);
#188=ORIENTED_EDGE('',*,*,#233,.T.);
#189=ORIENTED_EDGE('',*,*,#232,.F.);
#190=VERTEX_POINT('',#406);
#191=VERTEX_POINT('',#408);
#192=VERTEX_POINT('',#409);
#193=VERTEX_POINT('',#413);
#194=VERTEX_POINT('',#414);
#195=VERTEX_POINT('',#418);
#196=VERTEX_POINT('',#420);
#197=VERTEX_POINT('',#426);
#198=VERTEX_POINT('',#428);
#199=VERTEX_POINT('',#431);
#200=VERTEX_POINT('',#435);
#201=VERTEX_POINT('',#437);
#202=VERTEX_POINT('',#439);
#203=VERTEX_POINT('',#443);
#204=VERTEX_POINT('',#446);
#205=VERTEX_POINT('',#449);
#206=VERTEX_POINT('',#451);
#207=VERTEX_POINT('',#455);
#208=VERTEX_POINT('',#459);
#209=VERTEX_POINT('',#460);
#210=EDGE_CURVE('',#190,#190,#235,.T.);
#211=EDGE_CURVE('',#191,#192,#236,.T.);
#212=EDGE_CURVE('',#192,#191,#237,.T.);
#213=EDGE_CURVE('',#193,#194,#238,.T.);
#214=EDGE_CURVE('',#193,#194,#239,.T.);
#215=EDGE_CURVE('',#194,#195,#53,.T.);
#216=EDGE_CURVE('',#195,#196,#240,.T.);
#217=EDGE_CURVE('',#193,#196,#54,.T.);
#218=EDGE_CURVE('',#196,#195,#241,.T.);
#219=EDGE_CURVE('',#197,#197,#242,.T.);
#220=EDGE_CURVE('',#198,#198,#243,.T.);
#221=EDGE_CURVE('',#199,#199,#244,.T.);
#222=EDGE_CURVE('',#200,#199,#55,.T.);
#223=EDGE_CURVE('',#201,#200,#245,.T.);
#224=EDGE_CURVE('',#201,#202,#56,.T.);
#225=EDGE_CURVE('',#200,#201,#246,.T.);
#226=EDGE_CURVE('',#203,#203,#247,.T.);
#227=EDGE_CURVE('',#204,#204,#248,.T.);
#228=EDGE_CURVE('',#205,#205,#249,.T.);
#229=EDGE_CURVE('',#206,#206,#250,.T.);
#230=EDGE_CURVE('',#207,#207,#251,.T.);
#231=EDGE_CURVE('',#208,#209,#252,.T.);
#232=EDGE_CURVE('',#209,#208,#253,.T.);
#233=EDGE_CURVE('',#192,#208,#57,.T.);
#234=EDGE_CURVE('',#191,#209,#58,.T.);
#235=CIRCLE('',#279,23.);
#236=CIRCLE('',#280,16.1666650635361);
#237=CIRCLE('',#281,16.1666650635361);
#238=CIRCLE('',#283,15.0000000000043);
#239=CIRCLE('',#284,15.0000000000043);
#240=CIRCLE('',#286,21.);
#241=CIRCLE('',#288,21.);
#242=CIRCLE('',#290,21.);
#243=CIRCLE('',#291,21.8);
#244=CIRCLE('',#293,23.);
#245=CIRCLE('',#296,23.);
#246=CIRCLE('',#297,23.);
#247=CIRCLE('',#299,19.46625730976);
#248=CIRCLE('',#301,19.);
#249=CIRCLE('',#303,19.46625730983);
#250=CIRCLE('',#304,23.);
#251=CIRCLE('',#307,19.);
#252=CIRCLE('',#310,8.81670546235043);
#253=CIRCLE('',#311,8.81670546235043);
#254=INVISIBILITY((#255,#256,#257));
#255=PRESENTATION_LAYER_ASSIGNMENT('100','Layer 100',(#276));
#256=PRESENTATION_LAYER_ASSIGNMENT('101','Layer 101',(#277));
#257=PRESENTATION_LAYER_ASSIGNMENT('102','Layer 102',(#278));
#258=PRESENTATION_LAYER_ASSIGNMENT('98','Layer 98',(#38));
#259=STYLED_ITEM('',(#263),#276);
#260=STYLED_ITEM('',(#264),#277);
#261=STYLED_ITEM('',(#265),#278);
#262=STYLED_ITEM('',(#266),#38);
#263=PRESENTATION_STYLE_ASSIGNMENT((#267));
#264=PRESENTATION_STYLE_ASSIGNMENT((#268));
#265=PRESENTATION_STYLE_ASSIGNMENT((#269));
#266=PRESENTATION_STYLE_ASSIGNMENT((#33));
#267=CURVE_STYLE('',#272,POSITIVE_LENGTH_MEASURE(0.7),#270);
#268=CURVE_STYLE('',#273,POSITIVE_LENGTH_MEASURE(0.7),#270);
#269=CURVE_STYLE('',#274,POSITIVE_LENGTH_MEASURE(0.7),#270);
#270=COLOUR_RGB('Medium Maroon',0.6,0.4,0.4);
#271=COLOUR_RGB('Medium Gray',0.490196078431373,0.490196078431373,0.490196078431373);
#272=DRAUGHTING_PRE_DEFINED_CURVE_FONT('continuous');
#273=DRAUGHTING_PRE_DEFINED_CURVE_FONT('continuous');
#274=DRAUGHTING_PRE_DEFINED_CURVE_FONT('continuous');
#275=AXIS2_PLACEMENT_3D('',#401,#315,#316);
#276=AXIS2_PLACEMENT_3D('PCS',#402,#317,#318);
#277=AXIS2_PLACEMENT_3D('CSW',#403,#319,#320);
#278=AXIS2_PLACEMENT_3D('MCS',#404,#321,#322);
#279=AXIS2_PLACEMENT_3D('',#405,#323,#324);
#280=AXIS2_PLACEMENT_3D('',#407,#325,#326);
#281=AXIS2_PLACEMENT_3D('',#410,#327,#328);
#282=AXIS2_PLACEMENT_3D('',#411,#329,#330);
#283=AXIS2_PLACEMENT_3D('',#412,#331,#332);
#284=AXIS2_PLACEMENT_3D('',#415,#333,#334);
#285=AXIS2_PLACEMENT_3D('',#416,#335,#336);
#286=AXIS2_PLACEMENT_3D('',#419,#338,#339);
#287=AXIS2_PLACEMENT_3D('',#422,#341,#342);
#288=AXIS2_PLACEMENT_3D('',#423,#343,#344);
#289=AXIS2_PLACEMENT_3D('',#424,#345,#346);
#290=AXIS2_PLACEMENT_3D('',#425,#347,#348);
#291=AXIS2_PLACEMENT_3D('',#427,#349,#350);
#292=AXIS2_PLACEMENT_3D('',#429,#351,#352);
#293=AXIS2_PLACEMENT_3D('',#430,#353,#354);
#294=AXIS2_PLACEMENT_3D('',#432,#355,#356);
#295=AXIS2_PLACEMENT_3D('',#433,#357,#358);
#296=AXIS2_PLACEMENT_3D('',#436,#360,#361);
#297=AXIS2_PLACEMENT_3D('',#440,#363,#364);
#298=AXIS2_PLACEMENT_3D('',#441,#365,#366);
#299=AXIS2_PLACEMENT_3D('',#442,#367,#368);
#300=AXIS2_PLACEMENT_3D('',#444,#369,#370);
#301=AXIS2_PLACEMENT_3D('',#445,#371,#372);
#302=AXIS2_PLACEMENT_3D('',#447,#373,#374);
#303=AXIS2_PLACEMENT_3D('',#448,#375,#376);
#304=AXIS2_PLACEMENT_3D('',#450,#377,#378);
#305=AXIS2_PLACEMENT_3D('',#452,#379,#380);
#306=AXIS2_PLACEMENT_3D('',#453,#381,#382);
#307=AXIS2_PLACEMENT_3D('',#454,#383,#384);
#308=AXIS2_PLACEMENT_3D('',#456,#385,#386);
#309=AXIS2_PLACEMENT_3D('',#457,#387,#388);
#310=AXIS2_PLACEMENT_3D('',#458,#389,#390);
#311=AXIS2_PLACEMENT_3D('',#461,#391,#392);
#312=AXIS2_PLACEMENT_3D('',#462,#393,#394);
#313=AXIS2_PLACEMENT_3D('',#465,#397,#398);
#314=AXIS2_PLACEMENT_3D('',#466,#399,#400);
#315=DIRECTION('',(0.,0.,1.));
#316=DIRECTION('',(1.,0.,0.));
#317=DIRECTION('',(0.,0.,1.));
#318=DIRECTION('',(1.,0.,0.));
#319=DIRECTION('',(0.,0.,1.));
#320=DIRECTION('',(1.,0.,0.));
#321=DIRECTION('',(0.,0.,1.));
#322=DIRECTION('',(1.,0.,0.));
#323=DIRECTION('',(0.,0.,1.));
#324=DIRECTION('',(-1.,0.,0.));
#325=DIRECTION('',(0.,0.,-1.));
#326=DIRECTION('',(-1.,0.,0.));
#327=DIRECTION('',(0.,0.,-1.));
#328=DIRECTION('',(-1.,0.,0.));
#329=DIRECTION('',(0.,0.,-1.));
#330=DIRECTION('',(0.,1.,0.));
#331=DIRECTION('',(0.,0.,1.));
#332=DIRECTION('',(1.,0.,0.));
#333=DIRECTION('',(0.,0.,-1.));
#334=DIRECTION('',(1.,0.,0.));
#335=DIRECTION('',(0.,0.,1.));
#336=DIRECTION('',(0.,-1.,0.));
#337=DIRECTION('',(0.,-0.422618261740719,0.906307787036641));
#338=DIRECTION('',(0.,0.,-1.));
#339=DIRECTION('',(1.,0.,0.));
#340=DIRECTION('',(0.,0.422618261740719,0.906307787036641));
#341=DIRECTION('',(0.,0.,1.));
#342=DIRECTION('',(0.,-1.,-5.72890358570435E-17));
#343=DIRECTION('',(0.,0.,-1.));
#344=DIRECTION('',(1.,0.,0.));
#345=DIRECTION('',(0.,0.,1.));
#346=DIRECTION('',(0.,-1.,-5.72890358570435E-17));
#347=DIRECTION('',(0.,0.,-1.));
#348=DIRECTION('',(-0.214561192692202,-0.976710548008211,0.));
#349=DIRECTION('',(0.,0.,1.));
#350=DIRECTION('',(0.218360274906094,-0.975868223861672,0.));
#351=DIRECTION('',(0.,0.,1.));
#352=DIRECTION('',(0.999999564444476,-0.000933333197827278,0.));
#353=DIRECTION('',(0.,0.,-1.));
#354=DIRECTION('',(-1.,0.,0.));
#355=DIRECTION('',(0.,0.,-1.));
#356=DIRECTION('',(0.,1.,0.));
#357=DIRECTION('',(0.,0.,1.));
#358=DIRECTION('',(0.,-1.,0.));
#359=DIRECTION('',(-1.865296255125E-14,0.,-1.));
#360=DIRECTION('',(0.,0.,1.));
#361=DIRECTION('',(0.,-1.,0.));
#362=DIRECTION('',(1.716714750493E-14,0.,-1.));
#363=DIRECTION('',(0.,0.,1.));
#364=DIRECTION('',(0.,1.,0.));
#365=DIRECTION('',(0.,0.,-1.));
#366=DIRECTION('',(0.,1.,0.));
#367=DIRECTION('',(0.,0.,-1.));
#368=DIRECTION('',(-0.935113696728894,0.354347815274798,0.));
#369=DIRECTION('',(0.,0.,-1.));
#370=DIRECTION('',(0.,1.,-3.15038448341422E-17));
#371=DIRECTION('',(0.,0.,1.));
#372=DIRECTION('',(-0.925969316602606,-0.377598761532003,0.));
#373=DIRECTION('',(0.,0.,-1.));
#374=DIRECTION('',(7.52274502572012E-5,-0.999999997170416,0.));
#375=DIRECTION('',(0.,0.,1.));
#376=DIRECTION('',(0.910520332785723,0.413464295415911,0.));
#377=DIRECTION('',(0.,0.,-1.));
#378=DIRECTION('',(-0.936749699759765,0.349999999999987,0.));
#379=DIRECTION('',(0.,0.,1.));
#380=DIRECTION('',(0.,-1.,2.16588933234724E-17));
#381=DIRECTION('',(0.,0.,-1.));
#382=DIRECTION('',(0.,1.,0.));
#383=DIRECTION('',(0.,0.,-1.));
#384=DIRECTION('',(0.906453500572644,-0.422305637305021,0.));
#385=DIRECTION('',(0.,0.,-1.));
#386=DIRECTION('',(7.48698167319367E-5,-0.999999997197255,0.));
#387=DIRECTION('',(0.,0.,-1.));
#388=DIRECTION('',(0.,1.,0.));
#389=DIRECTION('',(0.,0.,1.));
#390=DIRECTION('',(-1.,0.,0.));
#391=DIRECTION('',(0.,0.,1.));
#392=DIRECTION('',(-1.,0.,0.));
#393=DIRECTION('',(0.,0.,-1.));
#394=DIRECTION('',(0.,1.,0.));
#395=DIRECTION('',(-1.34588766422297E-13,0.144306116415197,0.989533094325381));
#396=DIRECTION('',(1.34575859389097E-13,-0.144306116415197,0.989533094325381));
#397=DIRECTION('',(0.,0.,-1.));
#398=DIRECTION('',(0.,1.,0.));
#399=DIRECTION('',(0.,0.,-1.));
#400=DIRECTION('',(0.,1.,0.));
#401=CARTESIAN_POINT('',(0.,0.,0.));
#402=CARTESIAN_POINT('',(0.,0.,0.));
#403=CARTESIAN_POINT('',(0.,0.,-50.));
#404=CARTESIAN_POINT('',(0.,0.,0.));
#405=CARTESIAN_POINT('',(0.,0.,-1.99999999999999));
#406=CARTESIAN_POINT('',(-23.,0.,-1.99999999999999));
#407=CARTESIAN_POINT('',(0.,0.,-2.));
#408=CARTESIAN_POINT('',(0.,16.1666650635361,-2.));
#409=CARTESIAN_POINT('',(-4.30568506292353E-12,-16.1666650635361,-2.));
#410=CARTESIAN_POINT('',(0.,0.,-2.));
#411=CARTESIAN_POINT('',(0.,0.,-2.));
#412=CARTESIAN_POINT('',(0.,0.,-50.));
#413=CARTESIAN_POINT('',(0.,15.000000000001,-50.));
#414=CARTESIAN_POINT('',(0.,-15.000000000001,-50.));
#415=CARTESIAN_POINT('',(0.,0.,-50.));
#416=CARTESIAN_POINT('',(0.,0.,-50.));
#417=CARTESIAN_POINT('',(0.,-15.53847505246,-48.84523652348));
#418=CARTESIAN_POINT('',(0.,-21.,-37.1329584769455));
#419=CARTESIAN_POINT('',(0.,0.,-37.1329584769519));
#420=CARTESIAN_POINT('',(0.,21.,-37.1329584769455));
#421=CARTESIAN_POINT('',(0.,15.53847505246,-48.84523652348));
#422=CARTESIAN_POINT('',(0.,0.,-43.19002109931));
#423=CARTESIAN_POINT('',(0.,0.,-37.1329584769519));
#424=CARTESIAN_POINT('',(0.,0.,-43.19002109931));
#425=CARTESIAN_POINT('',(0.,0.,-22.8));
#426=CARTESIAN_POINT('',(-4.50578504653625,-20.5109215081724,-22.8));
#427=CARTESIAN_POINT('',(0.,0.,-22.));
#428=CARTESIAN_POINT('',(4.76025399295285,-21.2739272801845,-22.));
#429=CARTESIAN_POINT('',(0.,0.,-22.8));
#430=CARTESIAN_POINT('',(0.,0.,-22.));
#431=CARTESIAN_POINT('',(-7.869785999103E-14,23.,-22.));
#432=CARTESIAN_POINT('',(0.,0.,-22.));
#433=CARTESIAN_POINT('',(0.,0.,-53.045));
#434=CARTESIAN_POINT('',(-6.004489743978E-14,23.,-21.));
#435=CARTESIAN_POINT('',(0.,23.,-17.629940959506));
#436=CARTESIAN_POINT('',(0.,0.,-17.629940959506));
#437=CARTESIAN_POINT('',(0.,-23.,-17.629940959506));
#438=CARTESIAN_POINT('',(4.748003950361E-14,-23.,-20.505073898634));
#439=CARTESIAN_POINT('',(4.748003950361E-14,-23.,-20.505073898634));
#440=CARTESIAN_POINT('',(0.,0.,-17.629940959506));
#441=CARTESIAN_POINT('',(0.,0.,51.92));
#442=CARTESIAN_POINT('',(0.,0.,-15.59999999186));
#443=CARTESIAN_POINT('',(-18.2031638344055,6.89782574929052,-15.59999999186));
#444=CARTESIAN_POINT('',(0.,0.,-16.614970475683));
#445=CARTESIAN_POINT('',(0.,0.,-15.101139860304));
#446=CARTESIAN_POINT('',(-17.5934170154495,-7.17437646910805,-15.101139860304));
#447=CARTESIAN_POINT('',(0.,0.,-15.101139860304));
#448=CARTESIAN_POINT('',(0.,0.,-11.6000000081));
#449=CARTESIAN_POINT('',(17.7244230838389,8.04860236299368,-11.6000000081));
#450=CARTESIAN_POINT('',(0.,0.,-9.57005904049));
#451=CARTESIAN_POINT('',(-21.5452430944746,8.0499999999997,-9.57005904049));
#452=CARTESIAN_POINT('',(0.,0.,-10.5850295243));
#453=CARTESIAN_POINT('',(0.,0.,51.92));
#454=CARTESIAN_POINT('',(0.,0.,-12.098860139661));
#455=CARTESIAN_POINT('',(17.2226165108802,-8.02380710879539,-12.098860139661));
#456=CARTESIAN_POINT('',(0.,0.,-12.098860139661));
#457=CARTESIAN_POINT('',(0.,0.,51.92));
#458=CARTESIAN_POINT('',(0.,0.,48.4));
#459=CARTESIAN_POINT('',(-6.58299993420656E-12,-8.81670546235525,48.4));
#460=CARTESIAN_POINT('',(6.58236862595577E-12,8.81670546235525,48.4));
#461=CARTESIAN_POINT('',(0.,0.,48.4));
#462=CARTESIAN_POINT('',(0.,0.,48.4));
#463=CARTESIAN_POINT('',(0.,-15.875,0.));
#464=CARTESIAN_POINT('',(0.,15.875,0.));
#465=CARTESIAN_POINT('',(0.,0.,23.9860765291));
#466=CARTESIAN_POINT('',(0.,0.,23.9860765291));
#467=MECHANICAL_DESIGN_GEOMETRIC_PRESENTATION_REPRESENTATION('',(#259,#260,
#261,#262),#468);
#468=(
GEOMETRIC_REPRESENTATION_CONTEXT(3)
GLOBAL_UNCERTAINTY_ASSIGNED_CONTEXT((#469))
GLOBAL_UNIT_ASSIGNED_CONTEXT((#475,#471,#470))
REPRESENTATION_CONTEXT('BT.30AD-W.12','TOP_LEVEL_ASSEMBLY_PART')
);
#469=UNCERTAINTY_MEASURE_WITH_UNIT(LENGTH_MEASURE(2.E-5),#475,
'DISTANCE_ACCURACY_VALUE','Maximum Tolerance applied to model');
#470=(
NAMED_UNIT(*)
SI_UNIT($,.STERADIAN.)
SOLID_ANGLE_UNIT()
);
#471=(
CONVERSION_BASED_UNIT('DEGREE',#473)
NAMED_UNIT(#472)
PLANE_ANGLE_UNIT()
);
#472=DIMENSIONAL_EXPONENTS(0.,0.,0.,0.,0.,0.,0.);
#473=PLANE_ANGLE_MEASURE_WITH_UNIT(PLANE_ANGLE_MEASURE(0.0174532925),#474);
#474=(
NAMED_UNIT(*)
PLANE_ANGLE_UNIT()
SI_UNIT($,.RADIAN.)
);
#475=(
LENGTH_UNIT()
NAMED_UNIT(*)
SI_UNIT(.MILLI.,.METRE.)
);
ENDSEC;
END-ISO-10303-21;
