ISO-10303-21;
HEADER;
/* Generated by software containing ST-Developer
 * from STEP Tools, Inc. (www.steptools.com) 
 */
/* OPTION: using custom schema-name function */

FILE_DESCRIPTION(
/* description */ (''),
/* implementation_level */ '2;1');

FILE_NAME(
/* name */ '204695881ndi000_00.stp',
/* time_stamp */ '2023-04-24T10:40:30+02:00',
/* author */ (''),
/* organization */ (''),
/* preprocessor_version */ 'ST-DEVELOPER v16.7',
/* originating_system */ 'SIEMENS PLM Software NX 12.0',
/* authorisation */ '');

FILE_SCHEMA (('AP203_CONFIGURATION_CONTROLLED_3D_DESIGN_OF_MECHANICAL_PARTS_AND_ASSEMBLIES_MIM_LF { 1 0 10303 403 2 1 2}'));
ENDSEC;

DATA;
#10=CONSTRUCTIVE_GEOMETRY_REPRESENTATION_RELATIONSHIP(
'supplemental geometry','',#102,#11);
#11=CONSTRUCTIVE_GEOMETRY_REPRESENTATION('supplemental geometry',(#362,
#363,#364),#564);
#12=PROPERTY_DEFINITION_REPRESENTATION(#16,#14);
#13=PROPERTY_DEFINITION_REPRESENTATION(#17,#15);
#14=REPRESENTATION('',(#18),#564);
#15=REPRESENTATION('',(#19),#564);
#16=PROPERTY_DEFINITION('pmi validation property','',#91);
#17=PROPERTY_DEFINITION('pmi validation property','',#91);
#18=VALUE_REPRESENTATION_ITEM('number of annotations',COUNT_MEASURE(0.));
#19=VALUE_REPRESENTATION_ITEM('number of views',COUNT_MEASURE(0.));
#20=SHAPE_REPRESENTATION_RELATIONSHIP('None',
'relationship between mp543EF4D319lsug-None and mp543EF4D319lsug-None',
#102,#21);
#21=ADVANCED_BREP_SHAPE_REPRESENTATION('mp543EF4D319lsug-None',(#109),#564);
#22=CC_DESIGN_APPROVAL(#34,(#92));
#23=CC_DESIGN_APPROVAL(#35,(#94));
#24=CC_DESIGN_APPROVAL(#36,(#41));
#25=APPROVAL_PERSON_ORGANIZATION(#79,#34,#28);
#26=APPROVAL_PERSON_ORGANIZATION(#80,#35,#29);
#27=APPROVAL_PERSON_ORGANIZATION(#81,#36,#30);
#28=APPROVAL_ROLE('approver');
#29=APPROVAL_ROLE('approver');
#30=APPROVAL_ROLE('approver');
#31=APPROVAL_DATE_TIME(#49,#34);
#32=APPROVAL_DATE_TIME(#50,#35);
#33=APPROVAL_DATE_TIME(#51,#36);
#34=APPROVAL(#37,' ');
#35=APPROVAL(#38,' ');
#36=APPROVAL(#39,' ');
#37=APPROVAL_STATUS('not_yet_approved');
#38=APPROVAL_STATUS('not_yet_approved');
#39=APPROVAL_STATUS('not_yet_approved');
#40=CC_DESIGN_SECURITY_CLASSIFICATION(#41,(#94));
#41=SECURITY_CLASSIFICATION(' ',' ',#42);
#42=SECURITY_CLASSIFICATION_LEVEL('confidential');
#43=CC_DESIGN_DATE_AND_TIME_ASSIGNMENT(#47,#45,(#92));
#44=CC_DESIGN_DATE_AND_TIME_ASSIGNMENT(#48,#46,(#41));
#45=DATE_TIME_ROLE('creation_date');
#46=DATE_TIME_ROLE('classification_date');
#47=DATE_AND_TIME(#62,#52);
#48=DATE_AND_TIME(#63,#53);
#49=DATE_AND_TIME(#64,#54);
#50=DATE_AND_TIME(#65,#55);
#51=DATE_AND_TIME(#66,#56);
#52=LOCAL_TIME(0,0,0.,#57);
#53=LOCAL_TIME(0,0,0.,#58);
#54=LOCAL_TIME(0,0,0.,#59);
#55=LOCAL_TIME(0,0,0.,#60);
#56=LOCAL_TIME(0,0,0.,#61);
#57=COORDINATED_UNIVERSAL_TIME_OFFSET(0,0,.BEHIND.);
#58=COORDINATED_UNIVERSAL_TIME_OFFSET(0,0,.BEHIND.);
#59=COORDINATED_UNIVERSAL_TIME_OFFSET(0,0,.BEHIND.);
#60=COORDINATED_UNIVERSAL_TIME_OFFSET(0,0,.BEHIND.);
#61=COORDINATED_UNIVERSAL_TIME_OFFSET(0,0,.BEHIND.);
#62=CALENDAR_DATE(0,1,1);
#63=CALENDAR_DATE(0,1,1);
#64=CALENDAR_DATE(0,1,1);
#65=CALENDAR_DATE(0,1,1);
#66=CALENDAR_DATE(0,1,1);
#67=CC_DESIGN_PERSON_AND_ORGANIZATION_ASSIGNMENT(#75,#71,(#92,#94));
#68=CC_DESIGN_PERSON_AND_ORGANIZATION_ASSIGNMENT(#76,#72,(#96));
#69=CC_DESIGN_PERSON_AND_ORGANIZATION_ASSIGNMENT(#77,#73,(#94));
#70=CC_DESIGN_PERSON_AND_ORGANIZATION_ASSIGNMENT(#78,#74,(#41));
#71=PERSON_AND_ORGANIZATION_ROLE('creator');
#72=PERSON_AND_ORGANIZATION_ROLE('design_owner');
#73=PERSON_AND_ORGANIZATION_ROLE('design_supplier');
#74=PERSON_AND_ORGANIZATION_ROLE('classification_officer');
#75=PERSON_AND_ORGANIZATION(#89,#82);
#76=PERSON_AND_ORGANIZATION(#89,#83);
#77=PERSON_AND_ORGANIZATION(#89,#84);
#78=PERSON_AND_ORGANIZATION(#89,#85);
#79=PERSON_AND_ORGANIZATION(#89,#86);
#80=PERSON_AND_ORGANIZATION(#89,#87);
#81=PERSON_AND_ORGANIZATION(#89,#88);
#82=ORGANIZATION(' ',' ',' ');
#83=ORGANIZATION(' ',' ',' ');
#84=ORGANIZATION(' ',' ',' ');
#85=ORGANIZATION(' ',' ',' ');
#86=ORGANIZATION(' ',' ',' ');
#87=ORGANIZATION(' ',' ',' ');
#88=ORGANIZATION(' ',' ',' ');
#89=PERSON(' ',' ',' ',(' '),$,$);
#90=SHAPE_DEFINITION_REPRESENTATION(#91,#102);
#91=PRODUCT_DEFINITION_SHAPE('','',#92);
#92=PRODUCT_DEFINITION(' ','',#94,#93);
#93=DESIGN_CONTEXT('',#101,'design');
#94=PRODUCT_DEFINITION_FORMATION_WITH_SPECIFIED_SOURCE(' ',' ',#96,
 .NOT_KNOWN.);
#95=PRODUCT_RELATED_PRODUCT_CATEGORY('detail','',(#96));
#96=PRODUCT('mp543EF4D319lsug','mp543EF4D319lsug',' ',(#99));
#97=PRODUCT_CATEGORY('part',' ');
#98=PRODUCT_CATEGORY(' ','');
#99=MECHANICAL_CONTEXT(' ',#101,'mechanical');
#100=APPLICATION_PROTOCOL_DEFINITION('international standard',
'config_control_design',2010,#101);
#101=APPLICATION_CONTEXT(
'configuration controlled 3D designs of mechanical parts and assemblie
s');
#102=SHAPE_REPRESENTATION('mp543EF4D319lsug-None',(#361),#564);
#103=INVISIBILITY((#344));
#104=SURFACE_STYLE_USAGE(.BOTH.,#105);
#105=SURFACE_SIDE_STYLE('',(#106));
#106=SURFACE_STYLE_FILL_AREA(#107);
#107=FILL_AREA_STYLE('',(#108));
#108=FILL_AREA_STYLE_COLOUR('',#357);
#109=MANIFOLD_SOLID_BREP('SMUSSO10',#110);
#110=CLOSED_SHELL('',(#155,#156,#157,#158,#159,#160,#161,#162,#163,#164,
#165,#166,#167,#168,#169,#170,#171));
#111=FACE_BOUND('',#200,.T.);
#112=FACE_BOUND('',#201,.T.);
#113=CYLINDRICAL_SURFACE('',#374,9.);
#114=CYLINDRICAL_SURFACE('',#381,4.25);
#115=CYLINDRICAL_SURFACE('',#382,10.);
#116=CYLINDRICAL_SURFACE('',#385,10.);
#117=CYLINDRICAL_SURFACE('',#392,4.25);
#118=CYLINDRICAL_SURFACE('',#397,9.);
#119=CONICAL_SURFACE('',#370,8.50000000000001,45.0000000000027);
#120=CONICAL_SURFACE('',#373,9.,44.9999999999994);
#121=CONICAL_SURFACE('',#377,4.25,59.9999999999997);
#122=CONICAL_SURFACE('',#380,10.,44.9999999999998);
#123=CONICAL_SURFACE('',#393,10.,44.9999999999998);
#124=CONICAL_SURFACE('',#394,4.25,59.9999999999997);
#125=CONICAL_SURFACE('',#398,9.,44.9999999999994);
#126=CONICAL_SURFACE('',#399,8.50000000000001,45.0000000000027);
#127=LINE('',#504,#141);
#128=LINE('',#508,#142);
#129=LINE('',#513,#143);
#130=LINE('',#517,#144);
#131=LINE('',#519,#145);
#132=LINE('',#520,#146);
#133=LINE('',#525,#147);
#134=LINE('',#529,#148);
#135=LINE('',#534,#149);
#136=LINE('',#538,#150);
#137=LINE('',#540,#151);
#138=LINE('',#541,#152);
#139=LINE('',#543,#153);
#140=LINE('',#544,#154);
#141=VECTOR('',#416,1.);
#142=VECTOR('',#419,1.);
#143=VECTOR('',#424,1.);
#144=VECTOR('',#427,1.);
#145=VECTOR('',#430,1.);
#146=VECTOR('',#431,1.);
#147=VECTOR('',#436,1.);
#148=VECTOR('',#439,1.);
#149=VECTOR('',#444,1.);
#150=VECTOR('',#447,1.);
#151=VECTOR('',#450,1.);
#152=VECTOR('',#451,1.);
#153=VECTOR('',#454,1.);
#154=VECTOR('',#455,1.);
#155=ADVANCED_FACE('',(#175),#172,.F.);
#156=ADVANCED_FACE('',(#176),#119,.T.);
#157=ADVANCED_FACE('',(#177),#120,.T.);
#158=ADVANCED_FACE('',(#178),#113,.T.);
#159=ADVANCED_FACE('',(#179),#121,.F.);
#160=ADVANCED_FACE('',(#180),#122,.T.);
#161=ADVANCED_FACE('',(#181),#114,.F.);
#162=ADVANCED_FACE('',(#182),#115,.T.);
#163=ADVANCED_FACE('',(#183),#116,.T.);
#164=ADVANCED_FACE('',(#111,#112),#173,.T.);
#165=ADVANCED_FACE('',(#184),#174,.F.);
#166=ADVANCED_FACE('',(#185),#117,.F.);
#167=ADVANCED_FACE('',(#186),#123,.T.);
#168=ADVANCED_FACE('',(#187),#124,.F.);
#169=ADVANCED_FACE('',(#188),#118,.T.);
#170=ADVANCED_FACE('',(#189),#125,.T.);
#171=ADVANCED_FACE('',(#190),#126,.T.);
#172=PLANE('',#367);
#173=PLANE('',#388);
#174=PLANE('',#390);
#175=FACE_OUTER_BOUND('',#191,.T.);
#176=FACE_OUTER_BOUND('',#192,.T.);
#177=FACE_OUTER_BOUND('',#193,.T.);
#178=FACE_OUTER_BOUND('',#194,.T.);
#179=FACE_OUTER_BOUND('',#195,.T.);
#180=FACE_OUTER_BOUND('',#196,.T.);
#181=FACE_OUTER_BOUND('',#197,.T.);
#182=FACE_OUTER_BOUND('',#198,.T.);
#183=FACE_OUTER_BOUND('',#199,.T.);
#184=FACE_OUTER_BOUND('',#202,.T.);
#185=FACE_OUTER_BOUND('',#203,.T.);
#186=FACE_OUTER_BOUND('',#204,.T.);
#187=FACE_OUTER_BOUND('',#205,.T.);
#188=FACE_OUTER_BOUND('',#206,.T.);
#189=FACE_OUTER_BOUND('',#207,.T.);
#190=FACE_OUTER_BOUND('',#208,.T.);
#191=EDGE_LOOP('',(#209,#210));
#192=EDGE_LOOP('',(#211,#212,#213,#214));
#193=EDGE_LOOP('',(#215,#216,#217,#218));
#194=EDGE_LOOP('',(#219,#220,#221,#222));
#195=EDGE_LOOP('',(#223,#224,#225,#226));
#196=EDGE_LOOP('',(#227,#228,#229,#230));
#197=EDGE_LOOP('',(#231,#232,#233,#234));
#198=EDGE_LOOP('',(#235,#236,#237,#238));
#199=EDGE_LOOP('',(#239,#240,#241,#242));
#200=EDGE_LOOP('',(#243,#244));
#201=EDGE_LOOP('',(#245,#246));
#202=EDGE_LOOP('',(#247,#248));
#203=EDGE_LOOP('',(#249,#250,#251,#252));
#204=EDGE_LOOP('',(#253,#254,#255,#256));
#205=EDGE_LOOP('',(#257,#258,#259,#260));
#206=EDGE_LOOP('',(#261,#262,#263,#264));
#207=EDGE_LOOP('',(#265,#266,#267,#268));
#208=EDGE_LOOP('',(#269,#270,#271,#272));
#209=ORIENTED_EDGE('',*,*,#291,.T.);
#210=ORIENTED_EDGE('',*,*,#292,.T.);
#211=ORIENTED_EDGE('',*,*,#293,.F.);
#212=ORIENTED_EDGE('',*,*,#294,.F.);
#213=ORIENTED_EDGE('',*,*,#295,.F.);
#214=ORIENTED_EDGE('',*,*,#296,.T.);
#215=ORIENTED_EDGE('',*,*,#297,.F.);
#216=ORIENTED_EDGE('',*,*,#298,.F.);
#217=ORIENTED_EDGE('',*,*,#299,.T.);
#218=ORIENTED_EDGE('',*,*,#300,.T.);
#219=ORIENTED_EDGE('',*,*,#297,.T.);
#220=ORIENTED_EDGE('',*,*,#301,.F.);
#221=ORIENTED_EDGE('',*,*,#295,.T.);
#222=ORIENTED_EDGE('',*,*,#302,.T.);
#223=ORIENTED_EDGE('',*,*,#303,.F.);
#224=ORIENTED_EDGE('',*,*,#304,.F.);
#225=ORIENTED_EDGE('',*,*,#305,.F.);
#226=ORIENTED_EDGE('',*,*,#306,.T.);
#227=ORIENTED_EDGE('',*,*,#307,.F.);
#228=ORIENTED_EDGE('',*,*,#308,.F.);
#229=ORIENTED_EDGE('',*,*,#309,.F.);
#230=ORIENTED_EDGE('',*,*,#310,.T.);
#231=ORIENTED_EDGE('',*,*,#292,.F.);
#232=ORIENTED_EDGE('',*,*,#311,.F.);
#233=ORIENTED_EDGE('',*,*,#303,.T.);
#234=ORIENTED_EDGE('',*,*,#312,.T.);
#235=ORIENTED_EDGE('',*,*,#299,.F.);
#236=ORIENTED_EDGE('',*,*,#313,.F.);
#237=ORIENTED_EDGE('',*,*,#309,.T.);
#238=ORIENTED_EDGE('',*,*,#314,.T.);
#239=ORIENTED_EDGE('',*,*,#313,.T.);
#240=ORIENTED_EDGE('',*,*,#315,.F.);
#241=ORIENTED_EDGE('',*,*,#314,.F.);
#242=ORIENTED_EDGE('',*,*,#316,.T.);
#243=ORIENTED_EDGE('',*,*,#317,.T.);
#244=ORIENTED_EDGE('',*,*,#293,.T.);
#245=ORIENTED_EDGE('',*,*,#305,.T.);
#246=ORIENTED_EDGE('',*,*,#318,.T.);
#247=ORIENTED_EDGE('',*,*,#319,.T.);
#248=ORIENTED_EDGE('',*,*,#307,.T.);
#249=ORIENTED_EDGE('',*,*,#311,.T.);
#250=ORIENTED_EDGE('',*,*,#291,.F.);
#251=ORIENTED_EDGE('',*,*,#312,.F.);
#252=ORIENTED_EDGE('',*,*,#320,.T.);
#253=ORIENTED_EDGE('',*,*,#308,.T.);
#254=ORIENTED_EDGE('',*,*,#319,.F.);
#255=ORIENTED_EDGE('',*,*,#310,.F.);
#256=ORIENTED_EDGE('',*,*,#316,.F.);
#257=ORIENTED_EDGE('',*,*,#304,.T.);
#258=ORIENTED_EDGE('',*,*,#320,.F.);
#259=ORIENTED_EDGE('',*,*,#306,.F.);
#260=ORIENTED_EDGE('',*,*,#318,.F.);
#261=ORIENTED_EDGE('',*,*,#301,.T.);
#262=ORIENTED_EDGE('',*,*,#321,.T.);
#263=ORIENTED_EDGE('',*,*,#302,.F.);
#264=ORIENTED_EDGE('',*,*,#322,.T.);
#265=ORIENTED_EDGE('',*,*,#298,.T.);
#266=ORIENTED_EDGE('',*,*,#321,.F.);
#267=ORIENTED_EDGE('',*,*,#300,.F.);
#268=ORIENTED_EDGE('',*,*,#315,.T.);
#269=ORIENTED_EDGE('',*,*,#294,.T.);
#270=ORIENTED_EDGE('',*,*,#317,.F.);
#271=ORIENTED_EDGE('',*,*,#296,.F.);
#272=ORIENTED_EDGE('',*,*,#322,.F.);
#273=VERTEX_POINT('',#497);
#274=VERTEX_POINT('',#498);
#275=VERTEX_POINT('',#502);
#276=VERTEX_POINT('',#503);
#277=VERTEX_POINT('',#505);
#278=VERTEX_POINT('',#507);
#279=VERTEX_POINT('',#511);
#280=VERTEX_POINT('',#512);
#281=VERTEX_POINT('',#514);
#282=VERTEX_POINT('',#516);
#283=VERTEX_POINT('',#523);
#284=VERTEX_POINT('',#524);
#285=VERTEX_POINT('',#526);
#286=VERTEX_POINT('',#528);
#287=VERTEX_POINT('',#532);
#288=VERTEX_POINT('',#533);
#289=VERTEX_POINT('',#535);
#290=VERTEX_POINT('',#537);
#291=EDGE_CURVE('',#273,#274,#323,.T.);
#292=EDGE_CURVE('',#274,#273,#324,.T.);
#293=EDGE_CURVE('',#275,#276,#325,.T.);
#294=EDGE_CURVE('',#277,#275,#127,.T.);
#295=EDGE_CURVE('',#278,#277,#326,.T.);
#296=EDGE_CURVE('',#278,#276,#128,.T.);
#297=EDGE_CURVE('',#279,#280,#327,.T.);
#298=EDGE_CURVE('',#281,#279,#129,.T.);
#299=EDGE_CURVE('',#281,#282,#328,.T.);
#300=EDGE_CURVE('',#282,#280,#130,.T.);
#301=EDGE_CURVE('',#278,#280,#131,.T.);
#302=EDGE_CURVE('',#277,#279,#132,.T.);
#303=EDGE_CURVE('',#283,#284,#329,.T.);
#304=EDGE_CURVE('',#285,#283,#133,.T.);
#305=EDGE_CURVE('',#286,#285,#330,.T.);
#306=EDGE_CURVE('',#286,#284,#134,.T.);
#307=EDGE_CURVE('',#287,#288,#331,.T.);
#308=EDGE_CURVE('',#289,#287,#135,.T.);
#309=EDGE_CURVE('',#290,#289,#332,.T.);
#310=EDGE_CURVE('',#290,#288,#136,.T.);
#311=EDGE_CURVE('',#283,#274,#137,.T.);
#312=EDGE_CURVE('',#284,#273,#138,.T.);
#313=EDGE_CURVE('',#290,#281,#139,.T.);
#314=EDGE_CURVE('',#289,#282,#140,.T.);
#315=EDGE_CURVE('',#282,#281,#333,.T.);
#316=EDGE_CURVE('',#289,#290,#334,.T.);
#317=EDGE_CURVE('',#276,#275,#335,.T.);
#318=EDGE_CURVE('',#285,#286,#336,.T.);
#319=EDGE_CURVE('',#288,#287,#337,.T.);
#320=EDGE_CURVE('',#284,#283,#338,.T.);
#321=EDGE_CURVE('',#280,#279,#339,.T.);
#322=EDGE_CURVE('',#277,#278,#340,.T.);
#323=CIRCLE('',#365,4.25);
#324=CIRCLE('',#366,4.25);
#325=CIRCLE('',#368,8.50000000000001);
#326=CIRCLE('',#369,9.);
#327=CIRCLE('',#371,9.);
#328=CIRCLE('',#372,10.);
#329=CIRCLE('',#375,4.25);
#330=CIRCLE('',#376,5.24999999999998);
#331=CIRCLE('',#378,9.00000000000001);
#332=CIRCLE('',#379,10.);
#333=CIRCLE('',#383,10.);
#334=CIRCLE('',#384,10.);
#335=CIRCLE('',#386,8.50000000000001);
#336=CIRCLE('',#387,5.24999999999998);
#337=CIRCLE('',#389,9.00000000000001);
#338=CIRCLE('',#391,4.25);
#339=CIRCLE('',#395,9.);
#340=CIRCLE('',#396,9.);
#341=PRESENTATION_LAYER_ASSIGNMENT('100','Layer 100',(#362));
#342=PRESENTATION_LAYER_ASSIGNMENT('101','Layer 101',(#363));
#343=PRESENTATION_LAYER_ASSIGNMENT('102','Layer 102',(#364));
#344=PRESENTATION_LAYER_ASSIGNMENT('98','Layer 98',(#109));
#345=STYLED_ITEM('',(#349),#362);
#346=STYLED_ITEM('',(#350),#363);
#347=STYLED_ITEM('',(#351),#364);
#348=STYLED_ITEM('',(#352),#109);
#349=PRESENTATION_STYLE_ASSIGNMENT((#353));
#350=PRESENTATION_STYLE_ASSIGNMENT((#354));
#351=PRESENTATION_STYLE_ASSIGNMENT((#355));
#352=PRESENTATION_STYLE_ASSIGNMENT((#104));
#353=CURVE_STYLE('',#358,POSITIVE_LENGTH_MEASURE(0.7),#356);
#354=CURVE_STYLE('',#359,POSITIVE_LENGTH_MEASURE(0.7),#356);
#355=CURVE_STYLE('',#360,POSITIVE_LENGTH_MEASURE(0.7),#356);
#356=COLOUR_RGB('Medium Maroon',0.6,0.4,0.4);
#357=COLOUR_RGB('Silver Gray',0.6,0.6,0.6);
#358=DRAUGHTING_PRE_DEFINED_CURVE_FONT('continuous');
#359=DRAUGHTING_PRE_DEFINED_CURVE_FONT('continuous');
#360=DRAUGHTING_PRE_DEFINED_CURVE_FONT('continuous');
#361=AXIS2_PLACEMENT_3D('',#492,#400,#401);
#362=AXIS2_PLACEMENT_3D('PCS',#493,#402,#403);
#363=AXIS2_PLACEMENT_3D('CSW',#494,#404,#405);
#364=AXIS2_PLACEMENT_3D('MCS',#495,#406,#407);
#365=AXIS2_PLACEMENT_3D('',#496,#408,#409);
#366=AXIS2_PLACEMENT_3D('',#499,#410,#411);
#367=AXIS2_PLACEMENT_3D('',#500,#412,#413);
#368=AXIS2_PLACEMENT_3D('',#501,#414,#415);
#369=AXIS2_PLACEMENT_3D('',#506,#417,#418);
#370=AXIS2_PLACEMENT_3D('',#509,#420,#421);
#371=AXIS2_PLACEMENT_3D('',#510,#422,#423);
#372=AXIS2_PLACEMENT_3D('',#515,#425,#426);
#373=AXIS2_PLACEMENT_3D('',#518,#428,#429);
#374=AXIS2_PLACEMENT_3D('',#521,#432,#433);
#375=AXIS2_PLACEMENT_3D('',#522,#434,#435);
#376=AXIS2_PLACEMENT_3D('',#527,#437,#438);
#377=AXIS2_PLACEMENT_3D('',#530,#440,#441);
#378=AXIS2_PLACEMENT_3D('',#531,#442,#443);
#379=AXIS2_PLACEMENT_3D('',#536,#445,#446);
#380=AXIS2_PLACEMENT_3D('',#539,#448,#449);
#381=AXIS2_PLACEMENT_3D('',#542,#452,#453);
#382=AXIS2_PLACEMENT_3D('',#545,#456,#457);
#383=AXIS2_PLACEMENT_3D('',#546,#458,#459);
#384=AXIS2_PLACEMENT_3D('',#547,#460,#461);
#385=AXIS2_PLACEMENT_3D('',#548,#462,#463);
#386=AXIS2_PLACEMENT_3D('',#549,#464,#465);
#387=AXIS2_PLACEMENT_3D('',#550,#466,#467);
#388=AXIS2_PLACEMENT_3D('',#551,#468,#469);
#389=AXIS2_PLACEMENT_3D('',#552,#470,#471);
#390=AXIS2_PLACEMENT_3D('',#553,#472,#473);
#391=AXIS2_PLACEMENT_3D('',#554,#474,#475);
#392=AXIS2_PLACEMENT_3D('',#555,#476,#477);
#393=AXIS2_PLACEMENT_3D('',#556,#478,#479);
#394=AXIS2_PLACEMENT_3D('',#557,#480,#481);
#395=AXIS2_PLACEMENT_3D('',#558,#482,#483);
#396=AXIS2_PLACEMENT_3D('',#559,#484,#485);
#397=AXIS2_PLACEMENT_3D('',#560,#486,#487);
#398=AXIS2_PLACEMENT_3D('',#561,#488,#489);
#399=AXIS2_PLACEMENT_3D('',#562,#490,#491);
#400=DIRECTION('',(0.,0.,1.));
#401=DIRECTION('',(1.,0.,0.));
#402=DIRECTION('',(0.,0.,1.));
#403=DIRECTION('',(1.,0.,0.));
#404=DIRECTION('',(0.,0.,1.));
#405=DIRECTION('',(1.,0.,0.));
#406=DIRECTION('',(0.,0.,1.));
#407=DIRECTION('',(1.,0.,0.));
#408=DIRECTION('',(0.,0.,-1.));
#409=DIRECTION('',(-1.,0.,0.));
#410=DIRECTION('',(0.,0.,-1.));
#411=DIRECTION('',(-1.,0.,0.));
#412=DIRECTION('',(0.,0.,1.));
#413=DIRECTION('',(1.,0.,0.));
#414=DIRECTION('',(0.,0.,-1.));
#415=DIRECTION('',(-1.,0.,0.));
#416=DIRECTION('',(0.707106781186581,-8.65956056235534E-17,-0.707106781186514));
#417=DIRECTION('',(0.,0.,1.));
#418=DIRECTION('',(-1.,0.,0.));
#419=DIRECTION('',(-0.707106781186581,0.,-0.707106781186514));
#420=DIRECTION('',(0.,0.,1.));
#421=DIRECTION('',(-1.,0.,0.));
#422=DIRECTION('',(0.,0.,-1.));
#423=DIRECTION('',(-1.,0.,0.));
#424=DIRECTION('',(0.707106781186541,-8.65956056235485E-17,-0.707106781186554));
#425=DIRECTION('',(0.,0.,-1.));
#426=DIRECTION('',(-1.,0.,0.));
#427=DIRECTION('',(-0.707106781186541,0.,-0.707106781186554));
#428=DIRECTION('',(0.,0.,1.));
#429=DIRECTION('',(-1.,0.,2.7508003583379E-17));
#430=DIRECTION('',(0.,0.,1.));
#431=DIRECTION('',(0.,0.,1.));
#432=DIRECTION('',(0.,0.,-1.));
#433=DIRECTION('',(1.,0.,0.));
#434=DIRECTION('',(0.,0.,-1.));
#435=DIRECTION('',(-1.,0.,0.));
#436=DIRECTION('',(-0.866025403784436,-1.0605752387249E-16,0.500000000000004));
#437=DIRECTION('',(0.,0.,1.));
#438=DIRECTION('',(-1.,0.,0.));
#439=DIRECTION('',(0.866025403784436,0.,0.500000000000004));
#440=DIRECTION('',(0.,0.,-1.));
#441=DIRECTION('',(1.,0.,4.7956394700683E-17));
#442=DIRECTION('',(0.,0.,1.));
#443=DIRECTION('',(-1.,0.,0.));
#444=DIRECTION('',(-0.707106781186544,-8.6595605623549E-17,0.707106781186551));
#445=DIRECTION('',(0.,0.,-1.));
#446=DIRECTION('',(-1.,0.,0.));
#447=DIRECTION('',(0.707106781186544,0.,0.707106781186551));
#448=DIRECTION('',(0.,0.,-1.));
#449=DIRECTION('',(1.,0.,1.09923071745066E-16));
#450=DIRECTION('',(0.,0.,1.));
#451=DIRECTION('',(0.,0.,1.));
#452=DIRECTION('',(0.,0.,-1.));
#453=DIRECTION('',(1.,0.,0.));
#454=DIRECTION('',(0.,0.,-1.));
#455=DIRECTION('',(0.,0.,-1.));
#456=DIRECTION('',(0.,0.,1.));
#457=DIRECTION('',(-1.,0.,0.));
#458=DIRECTION('',(0.,0.,-1.));
#459=DIRECTION('',(-1.,0.,0.));
#460=DIRECTION('',(0.,0.,-1.));
#461=DIRECTION('',(-1.,0.,0.));
#462=DIRECTION('',(0.,0.,1.));
#463=DIRECTION('',(-1.,0.,0.));
#464=DIRECTION('',(0.,0.,-1.));
#465=DIRECTION('',(-1.,0.,0.));
#466=DIRECTION('',(0.,0.,1.));
#467=DIRECTION('',(-1.,0.,0.));
#468=DIRECTION('',(0.,0.,-1.));
#469=DIRECTION('',(1.,0.,0.));
#470=DIRECTION('',(0.,0.,1.));
#471=DIRECTION('',(-1.,0.,0.));
#472=DIRECTION('',(0.,0.,-1.));
#473=DIRECTION('',(1.,0.,0.));
#474=DIRECTION('',(0.,0.,-1.));
#475=DIRECTION('',(-1.,0.,0.));
#476=DIRECTION('',(0.,0.,-1.));
#477=DIRECTION('',(1.,0.,0.));
#478=DIRECTION('',(0.,0.,-1.));
#479=DIRECTION('',(1.,0.,1.09923071745066E-16));
#480=DIRECTION('',(0.,0.,-1.));
#481=DIRECTION('',(1.,0.,4.7956394700683E-17));
#482=DIRECTION('',(0.,0.,-1.));
#483=DIRECTION('',(-1.,0.,0.));
#484=DIRECTION('',(0.,0.,1.));
#485=DIRECTION('',(-1.,0.,0.));
#486=DIRECTION('',(0.,0.,-1.));
#487=DIRECTION('',(1.,0.,0.));
#488=DIRECTION('',(0.,0.,1.));
#489=DIRECTION('',(-1.,0.,2.7508003583379E-17));
#490=DIRECTION('',(0.,0.,1.));
#491=DIRECTION('',(-1.,0.,0.));
#492=CARTESIAN_POINT('',(0.,0.,0.));
#493=CARTESIAN_POINT('',(0.,0.,0.));
#494=CARTESIAN_POINT('',(0.,0.,-250.));
#495=CARTESIAN_POINT('',(0.,0.,-50.));
#496=CARTESIAN_POINT('',(0.,0.,-241.));
#497=CARTESIAN_POINT('',(-4.25,0.,-241.));
#498=CARTESIAN_POINT('',(4.25,5.20474889637625E-16,-241.));
#499=CARTESIAN_POINT('',(0.,0.,-241.));
#500=CARTESIAN_POINT('',(0.,0.,-241.));
#501=CARTESIAN_POINT('',(0.,0.,-250.));
#502=CARTESIAN_POINT('',(-8.50000000000001,1.07156594925393E-15,-250.));
#503=CARTESIAN_POINT('',(8.50000000000001,0.,-250.));
#504=CARTESIAN_POINT('',(-8.50000000000001,1.04094977927525E-15,-250.));
#505=CARTESIAN_POINT('',(-9.,0.,-249.5));
#506=CARTESIAN_POINT('',(0.,0.,-249.5));
#507=CARTESIAN_POINT('',(9.,1.10218211923262E-15,-249.5));
#508=CARTESIAN_POINT('',(8.50000000000001,0.,-250.));
#509=CARTESIAN_POINT('',(0.,0.,-250.));
#510=CARTESIAN_POINT('',(0.,0.,-239.));
#511=CARTESIAN_POINT('',(-9.,0.,-239.));
#512=CARTESIAN_POINT('',(9.,1.10218211923262E-15,-239.));
#513=CARTESIAN_POINT('',(-9.,1.10218211923262E-15,-239.));
#514=CARTESIAN_POINT('',(-10.,1.22464679914735E-15,-238.));
#515=CARTESIAN_POINT('',(0.,0.,-238.));
#516=CARTESIAN_POINT('',(10.,0.,-238.));
#517=CARTESIAN_POINT('',(9.,0.,-239.));
#518=CARTESIAN_POINT('',(0.,0.,-239.));
#519=CARTESIAN_POINT('',(9.,1.10218211923262E-15,-238.));
#520=CARTESIAN_POINT('',(-9.,0.,-238.));
#521=CARTESIAN_POINT('',(0.,0.,-238.));
#522=CARTESIAN_POINT('',(0.,0.,-249.42264973081));
#523=CARTESIAN_POINT('',(4.25,5.20474889637625E-16,-249.42264973081));
#524=CARTESIAN_POINT('',(-4.25,0.,-249.42264973081));
#525=CARTESIAN_POINT('',(4.25,5.20474889637625E-16,-249.42264973081));
#526=CARTESIAN_POINT('',(5.24999999999998,6.42939569552358E-16,-250.));
#527=CARTESIAN_POINT('',(0.,0.,-250.));
#528=CARTESIAN_POINT('',(-5.24999999999998,0.,-250.));
#529=CARTESIAN_POINT('',(-4.25,0.,-249.42264973081));
#530=CARTESIAN_POINT('',(0.,0.,-249.42264973081));
#531=CARTESIAN_POINT('',(0.,0.,0.));
#532=CARTESIAN_POINT('',(9.00000000000001,1.16341445918999E-15,0.));
#533=CARTESIAN_POINT('',(-9.00000000000001,0.,0.));
#534=CARTESIAN_POINT('',(10.,1.22464679914735E-15,-1.));
#535=CARTESIAN_POINT('',(10.,0.,-1.));
#536=CARTESIAN_POINT('',(0.,0.,-1.));
#537=CARTESIAN_POINT('',(-10.,1.22464679914735E-15,-1.));
#538=CARTESIAN_POINT('',(-10.,0.,-1.));
#539=CARTESIAN_POINT('',(0.,0.,-1.));
#540=CARTESIAN_POINT('',(4.25,5.20474889637625E-16,-241.));
#541=CARTESIAN_POINT('',(-4.25,0.,-241.));
#542=CARTESIAN_POINT('',(0.,0.,-241.));
#543=CARTESIAN_POINT('',(-10.,1.22464679914735E-15,-250.));
#544=CARTESIAN_POINT('',(10.,0.,-250.));
#545=CARTESIAN_POINT('',(0.,0.,-250.));
#546=CARTESIAN_POINT('',(0.,0.,-238.));
#547=CARTESIAN_POINT('',(0.,0.,-1.));
#548=CARTESIAN_POINT('',(0.,0.,-250.));
#549=CARTESIAN_POINT('',(0.,0.,-250.));
#550=CARTESIAN_POINT('',(0.,0.,-250.));
#551=CARTESIAN_POINT('',(0.,0.,-250.));
#552=CARTESIAN_POINT('',(0.,0.,0.));
#553=CARTESIAN_POINT('',(0.,0.,0.));
#554=CARTESIAN_POINT('',(0.,0.,-249.42264973081));
#555=CARTESIAN_POINT('',(0.,0.,-241.));
#556=CARTESIAN_POINT('',(0.,0.,-1.));
#557=CARTESIAN_POINT('',(0.,0.,-249.42264973081));
#558=CARTESIAN_POINT('',(0.,0.,-239.));
#559=CARTESIAN_POINT('',(0.,0.,-249.5));
#560=CARTESIAN_POINT('',(0.,0.,-238.));
#561=CARTESIAN_POINT('',(0.,0.,-239.));
#562=CARTESIAN_POINT('',(0.,0.,-250.));
#563=MECHANICAL_DESIGN_GEOMETRIC_PRESENTATION_REPRESENTATION('',(#345,#346,
#347,#348),#564);
#564=(
GEOMETRIC_REPRESENTATION_CONTEXT(3)
GLOBAL_UNCERTAINTY_ASSIGNED_CONTEXT((#565))
GLOBAL_UNIT_ASSIGNED_CONTEXT((#571,#567,#566))
REPRESENTATION_CONTEXT('204695881ndi000_00','TOP_LEVEL_ASSEMBLY_PART')
);
#565=UNCERTAINTY_MEASURE_WITH_UNIT(LENGTH_MEASURE(2.E-5),#571,
'DISTANCE_ACCURACY_VALUE','Maximum Tolerance applied to model');
#566=(
NAMED_UNIT(*)
SI_UNIT($,.STERADIAN.)
SOLID_ANGLE_UNIT()
);
#567=(
CONVERSION_BASED_UNIT('DEGREE',#569)
NAMED_UNIT(#568)
PLANE_ANGLE_UNIT()
);
#568=DIMENSIONAL_EXPONENTS(0.,0.,0.,0.,0.,0.,0.);
#569=PLANE_ANGLE_MEASURE_WITH_UNIT(PLANE_ANGLE_MEASURE(0.0174532925),#570);
#570=(
NAMED_UNIT(*)
PLANE_ANGLE_UNIT()
SI_UNIT($,.RADIAN.)
);
#571=(
LENGTH_UNIT()
NAMED_UNIT(*)
SI_UNIT(.MILLI.,.METRE.)
);
ENDSEC;
END-ISO-10303-21;
