ISO-10303-21;
HEADER;
/* Generated by software containing ST-Developer
 * from STEP Tools, Inc. (www.steptools.com) 
 */
/* OPTION: using custom schema-name function */

FILE_DESCRIPTION(
/* description */ ('A1246.8'),
/* implementation_level */ '2;1');

FILE_NAME(
/* name */ 'CAPP~~210908185127~5968780~MOD~TM01_00~ISO~FR.STP',
/* time_stamp */ '2021-09-08T18:52:21+02:00',
/* author */ ('System'),
/* organization */ ('Dormer Pramet'),
/* preprocessor_version */ 'ST-DEVELOPER v16.7',
/* originating_system */ 'SIEMENS PLM Software NX 12.0',
/* authorisation */ '');

FILE_SCHEMA (('AUTOMOTIVE_DESIGN { 1 0 10303 214 3 1 1 1 }'));
ENDSEC;

DATA;
#10=CONSTRUCTIVE_GEOMETRY_REPRESENTATION_RELATIONSHIP(
'supplemental geometry','',#26,#11);
#11=CONSTRUCTIVE_GEOMETRY_REPRESENTATION('supplemental geometry',(#295,
#296,#297),#549);
#12=GEOMETRICALLY_BOUNDED_WIREFRAME_SHAPE_REPRESENTATION(
'CAPP~~210908185127~5968780~MOD~TM01_00~ISO~FR-None',(#27),#549);
#13=SHAPE_REPRESENTATION_RELATIONSHIP('None',
'relationship between CAPP~~210908185127~5968780~MOD~TM01_00~ISO~FR-No
ne and CAPP~~210908185127~5968780~MOD~TM01_00~ISO~FR-None',#26,#15);
#14=SHAPE_REPRESENTATION_RELATIONSHIP('None',
'relationship between CAPP~~210908185127~5968780~MOD~TM01_00~ISO~FR-No
ne and CAPP~~210908185127~5968780~MOD~TM01_00~ISO~FR-None',#26,#12);
#15=ADVANCED_BREP_SHAPE_REPRESENTATION(
'CAPP~~210908185127~5968780~MOD~TM01_00~ISO~FR-None',(#61,#62),#549);
#16=SHAPE_DEFINITION_REPRESENTATION(#17,#26);
#17=PRODUCT_DEFINITION_SHAPE('','',#18);
#18=PRODUCT_DEFINITION(' ','',#20,#19);
#19=PRODUCT_DEFINITION_CONTEXT('part definition',#25,'design');
#20=PRODUCT_DEFINITION_FORMATION_WITH_SPECIFIED_SOURCE(' ',' ',#22,
 .NOT_KNOWN.);
#21=PRODUCT_RELATED_PRODUCT_CATEGORY('part','',(#22));
#22=PRODUCT('CAPP~~210908185127~5968780~MOD~TM01_00~ISO~FR',
'CAPP~~210908185127~5968780~MOD~TM01_00~ISO~FR',' ',(#23));
#23=PRODUCT_CONTEXT(' ',#25,'mechanical');
#24=APPLICATION_PROTOCOL_DEFINITION('international standard',
'automotive_design',2010,#25);
#25=APPLICATION_CONTEXT(
'core data for automotive mechanical design processes');
#26=SHAPE_REPRESENTATION(
'CAPP~~210908185127~5968780~MOD~TM01_00~ISO~FR-None',(#294),#549);
#27=GEOMETRIC_CURVE_SET('None',(#398,#264));
#28=CYLINDRICAL_SURFACE('',#308,3.4);
#29=CYLINDRICAL_SURFACE('',#321,0.2);
#30=CYLINDRICAL_SURFACE('',#323,0.200000000000003);
#31=LINE('',#419,#41);
#32=LINE('',#458,#42);
#33=LINE('',#462,#43);
#34=LINE('',#500,#44);
#35=LINE('',#528,#45);
#36=LINE('',#529,#46);
#37=LINE('',#538,#47);
#38=LINE('',#540,#48);
#39=LINE('',#543,#49);
#40=LINE('',#545,#50);
#41=VECTOR('',#345,1.);
#42=VECTOR('',#348,1.);
#43=VECTOR('',#351,1.);
#44=VECTOR('',#354,1.);
#45=VECTOR('',#367,1.);
#46=VECTOR('',#368,1.);
#47=VECTOR('',#381,1.);
#48=VECTOR('',#384,1.);
#49=VECTOR('',#389,1.);
#50=VECTOR('',#392,1.);
#51=SURFACE_STYLE_USAGE(.BOTH.,#53);
#52=SURFACE_STYLE_USAGE(.BOTH.,#54);
#53=SURFACE_SIDE_STYLE('',(#55));
#54=SURFACE_SIDE_STYLE('',(#56));
#55=SURFACE_STYLE_FILL_AREA(#57);
#56=SURFACE_STYLE_FILL_AREA(#58);
#57=FILL_AREA_STYLE('',(#59));
#58=FILL_AREA_STYLE('',(#60));
#59=FILL_AREA_STYLE_COLOUR('',#292);
#60=FILL_AREA_STYLE_COLOUR('',#293);
#61=MANIFOLD_SOLID_BREP('CUT',#63);
#62=MANIFOLD_SOLID_BREP('NOCUT',#64);
#63=CLOSED_SHELL('',(#81,#82,#83));
#64=CLOSED_SHELL('',(#84,#85,#86,#87,#88,#89,#90,#91,#92,#93,#94,#95,#96));
#65=VERTEX_LOOP('',#196);
#66=CONICAL_SURFACE('',#301,3.40000000000001,0.00150948891089961);
#67=CONICAL_SURFACE('',#302,1.53000000000001,59.0000000000004);
#68=CONICAL_SURFACE('',#310,3.4,44.9999999999998);
#69=CONICAL_SURFACE('',#312,3.4,44.9999999999998);
#70=CONICAL_SURFACE('',#316,3.40000000000001,0.00150948891089961);
#71=FACE_BOUND('',#117,.T.);
#72=FACE_BOUND('',#118,.T.);
#73=FACE_BOUND('',#119,.T.);
#74=FACE_BOUND('',#65,.T.);
#75=FACE_BOUND('',#120,.T.);
#76=FACE_BOUND('',#121,.T.);
#77=FACE_BOUND('',#125,.T.);
#78=FACE_BOUND('',#126,.T.);
#79=FACE_BOUND('',#127,.T.);
#80=FACE_BOUND('',#128,.T.);
#81=ADVANCED_FACE('',(#105),#97,.F.);
#82=ADVANCED_FACE('',(#71,#72),#66,.T.);
#83=ADVANCED_FACE('',(#73,#74),#67,.T.);
#84=ADVANCED_FACE('',(#75,#76),#28,.T.);
#85=ADVANCED_FACE('',(#106),#68,.T.);
#86=ADVANCED_FACE('',(#107),#69,.T.);
#87=ADVANCED_FACE('',(#108),#98,.F.);
#88=ADVANCED_FACE('',(#77,#78),#70,.T.);
#89=ADVANCED_FACE('',(#79,#80),#99,.F.);
#90=ADVANCED_FACE('',(#109),#100,.T.);
#91=ADVANCED_FACE('',(#110),#101,.T.);
#92=ADVANCED_FACE('',(#111),#102,.T.);
#93=ADVANCED_FACE('',(#112),#29,.F.);
#94=ADVANCED_FACE('',(#113),#103,.T.);
#95=ADVANCED_FACE('',(#114),#30,.F.);
#96=ADVANCED_FACE('',(#115),#104,.T.);
#97=PLANE('',#299);
#98=PLANE('',#313);
#99=PLANE('',#317);
#100=PLANE('',#318);
#101=PLANE('',#319);
#102=PLANE('',#320);
#103=PLANE('',#322);
#104=PLANE('',#324);
#105=FACE_OUTER_BOUND('',#116,.T.);
#106=FACE_OUTER_BOUND('',#122,.T.);
#107=FACE_OUTER_BOUND('',#123,.T.);
#108=FACE_OUTER_BOUND('',#124,.T.);
#109=FACE_OUTER_BOUND('',#129,.T.);
#110=FACE_OUTER_BOUND('',#130,.T.);
#111=FACE_OUTER_BOUND('',#131,.T.);
#112=FACE_OUTER_BOUND('',#132,.T.);
#113=FACE_OUTER_BOUND('',#133,.T.);
#114=FACE_OUTER_BOUND('',#134,.T.);
#115=FACE_OUTER_BOUND('',#135,.T.);
#116=EDGE_LOOP('',(#136));
#117=EDGE_LOOP('',(#137));
#118=EDGE_LOOP('',(#138));
#119=EDGE_LOOP('',(#139));
#120=EDGE_LOOP('',(#140));
#121=EDGE_LOOP('',(#141,#142,#143,#144,#145,#146,#147,#148,#149,#150,#151,
#152));
#122=EDGE_LOOP('',(#153,#154,#155,#156));
#123=EDGE_LOOP('',(#157,#158,#159,#160));
#124=EDGE_LOOP('',(#161,#162,#163,#164));
#125=EDGE_LOOP('',(#165));
#126=EDGE_LOOP('',(#166));
#127=EDGE_LOOP('',(#167));
#128=EDGE_LOOP('',(#168));
#129=EDGE_LOOP('',(#169));
#130=EDGE_LOOP('',(#170,#171));
#131=EDGE_LOOP('',(#172,#173,#174,#175,#176,#177));
#132=EDGE_LOOP('',(#178,#179,#180,#181));
#133=EDGE_LOOP('',(#182,#183));
#134=EDGE_LOOP('',(#184,#185,#186,#187));
#135=EDGE_LOOP('',(#188,#189,#190,#191,#192,#193));
#136=ORIENTED_EDGE('',*,*,#216,.F.);
#137=ORIENTED_EDGE('',*,*,#216,.T.);
#138=ORIENTED_EDGE('',*,*,#217,.T.);
#139=ORIENTED_EDGE('',*,*,#217,.F.);
#140=ORIENTED_EDGE('',*,*,#218,.T.);
#141=ORIENTED_EDGE('',*,*,#219,.F.);
#142=ORIENTED_EDGE('',*,*,#220,.F.);
#143=ORIENTED_EDGE('',*,*,#221,.F.);
#144=ORIENTED_EDGE('',*,*,#222,.F.);
#145=ORIENTED_EDGE('',*,*,#223,.F.);
#146=ORIENTED_EDGE('',*,*,#224,.F.);
#147=ORIENTED_EDGE('',*,*,#225,.F.);
#148=ORIENTED_EDGE('',*,*,#226,.F.);
#149=ORIENTED_EDGE('',*,*,#227,.F.);
#150=ORIENTED_EDGE('',*,*,#228,.F.);
#151=ORIENTED_EDGE('',*,*,#229,.F.);
#152=ORIENTED_EDGE('',*,*,#230,.F.);
#153=ORIENTED_EDGE('',*,*,#231,.F.);
#154=ORIENTED_EDGE('',*,*,#230,.T.);
#155=ORIENTED_EDGE('',*,*,#232,.F.);
#156=ORIENTED_EDGE('',*,*,#233,.F.);
#157=ORIENTED_EDGE('',*,*,#234,.F.);
#158=ORIENTED_EDGE('',*,*,#235,.F.);
#159=ORIENTED_EDGE('',*,*,#236,.F.);
#160=ORIENTED_EDGE('',*,*,#224,.T.);
#161=ORIENTED_EDGE('',*,*,#237,.F.);
#162=ORIENTED_EDGE('',*,*,#233,.T.);
#163=ORIENTED_EDGE('',*,*,#238,.F.);
#164=ORIENTED_EDGE('',*,*,#235,.T.);
#165=ORIENTED_EDGE('',*,*,#239,.F.);
#166=ORIENTED_EDGE('',*,*,#240,.F.);
#167=ORIENTED_EDGE('',*,*,#218,.F.);
#168=ORIENTED_EDGE('',*,*,#239,.T.);
#169=ORIENTED_EDGE('',*,*,#240,.T.);
#170=ORIENTED_EDGE('',*,*,#227,.T.);
#171=ORIENTED_EDGE('',*,*,#241,.F.);
#172=ORIENTED_EDGE('',*,*,#225,.T.);
#173=ORIENTED_EDGE('',*,*,#236,.T.);
#174=ORIENTED_EDGE('',*,*,#238,.T.);
#175=ORIENTED_EDGE('',*,*,#232,.T.);
#176=ORIENTED_EDGE('',*,*,#229,.T.);
#177=ORIENTED_EDGE('',*,*,#242,.T.);
#178=ORIENTED_EDGE('',*,*,#228,.T.);
#179=ORIENTED_EDGE('',*,*,#241,.T.);
#180=ORIENTED_EDGE('',*,*,#226,.T.);
#181=ORIENTED_EDGE('',*,*,#242,.F.);
#182=ORIENTED_EDGE('',*,*,#221,.T.);
#183=ORIENTED_EDGE('',*,*,#243,.T.);
#184=ORIENTED_EDGE('',*,*,#220,.T.);
#185=ORIENTED_EDGE('',*,*,#244,.T.);
#186=ORIENTED_EDGE('',*,*,#222,.T.);
#187=ORIENTED_EDGE('',*,*,#243,.F.);
#188=ORIENTED_EDGE('',*,*,#219,.T.);
#189=ORIENTED_EDGE('',*,*,#231,.T.);
#190=ORIENTED_EDGE('',*,*,#237,.T.);
#191=ORIENTED_EDGE('',*,*,#234,.T.);
#192=ORIENTED_EDGE('',*,*,#223,.T.);
#193=ORIENTED_EDGE('',*,*,#244,.F.);
#194=VERTEX_POINT('',#410);
#195=VERTEX_POINT('',#413);
#196=VERTEX_POINT('',#415);
#197=VERTEX_POINT('',#418);
#198=VERTEX_POINT('',#420);
#199=VERTEX_POINT('',#421);
#200=VERTEX_POINT('',#438);
#201=VERTEX_POINT('',#440);
#202=VERTEX_POINT('',#457);
#203=VERTEX_POINT('',#459);
#204=VERTEX_POINT('',#461);
#205=VERTEX_POINT('',#463);
#206=VERTEX_POINT('',#480);
#207=VERTEX_POINT('',#482);
#208=VERTEX_POINT('',#499);
#209=VERTEX_POINT('',#501);
#210=VERTEX_POINT('',#508);
#211=VERTEX_POINT('',#513);
#212=VERTEX_POINT('',#520);
#213=VERTEX_POINT('',#522);
#214=VERTEX_POINT('',#532);
#215=VERTEX_POINT('',#534);
#216=EDGE_CURVE('',#194,#194,#245,.T.);
#217=EDGE_CURVE('',#195,#195,#246,.T.);
#218=EDGE_CURVE('',#197,#197,#247,.T.);
#219=EDGE_CURVE('',#198,#199,#31,.T.);
#220=EDGE_CURVE('',#200,#198,#265,.T.);
#221=EDGE_CURVE('',#201,#200,#248,.T.);
#222=EDGE_CURVE('',#202,#201,#266,.T.);
#223=EDGE_CURVE('',#203,#202,#32,.T.);
#224=EDGE_CURVE('',#204,#203,#249,.T.);
#225=EDGE_CURVE('',#205,#204,#33,.T.);
#226=EDGE_CURVE('',#206,#205,#267,.T.);
#227=EDGE_CURVE('',#207,#206,#250,.T.);
#228=EDGE_CURVE('',#208,#207,#268,.T.);
#229=EDGE_CURVE('',#209,#208,#34,.T.);
#230=EDGE_CURVE('',#199,#209,#251,.T.);
#231=EDGE_CURVE('',#199,#210,#269,.T.);
#232=EDGE_CURVE('',#211,#209,#270,.T.);
#233=EDGE_CURVE('',#210,#211,#252,.T.);
#234=EDGE_CURVE('',#212,#203,#271,.T.);
#235=EDGE_CURVE('',#213,#212,#253,.T.);
#236=EDGE_CURVE('',#204,#213,#272,.T.);
#237=EDGE_CURVE('',#210,#212,#35,.T.);
#238=EDGE_CURVE('',#213,#211,#36,.T.);
#239=EDGE_CURVE('',#214,#214,#254,.T.);
#240=EDGE_CURVE('',#215,#215,#255,.T.);
#241=EDGE_CURVE('',#207,#206,#37,.T.);
#242=EDGE_CURVE('',#208,#205,#38,.T.);
#243=EDGE_CURVE('',#200,#201,#39,.T.);
#244=EDGE_CURVE('',#198,#202,#40,.T.);
#245=CIRCLE('',#298,3.39960594763905);
#246=CIRCLE('',#300,3.40000000000001);
#247=CIRCLE('',#303,3.39999999999999);
#248=CIRCLE('',#304,3.4);
#249=CIRCLE('',#305,3.4);
#250=CIRCLE('',#306,3.4);
#251=CIRCLE('',#307,3.4);
#252=CIRCLE('',#309,2.41850454237763);
#253=CIRCLE('',#311,2.41850454237763);
#254=CIRCLE('',#314,3.39899999999999);
#255=CIRCLE('',#315,3.39960594763905);
#256=CURVE_STYLE('',#260,POSITIVE_LENGTH_MEASURE(0.18),#290);
#257=CURVE_STYLE('',#261,POSITIVE_LENGTH_MEASURE(0.13),#291);
#258=CURVE_STYLE('',#262,POSITIVE_LENGTH_MEASURE(0.13),#291);
#259=CURVE_STYLE('',#263,POSITIVE_LENGTH_MEASURE(0.13),#291);
#260=DRAUGHTING_PRE_DEFINED_CURVE_FONT('continuous');
#261=DRAUGHTING_PRE_DEFINED_CURVE_FONT('continuous');
#262=DRAUGHTING_PRE_DEFINED_CURVE_FONT('continuous');
#263=DRAUGHTING_PRE_DEFINED_CURVE_FONT('continuous');
#264=B_SPLINE_CURVE_WITH_KNOTS('CUTTING PART LINE',3,(#399,#400,#401,#402,
#403,#404,#405),.UNSPECIFIED.,.F.,.F.,(4,3,4),(0.,0.790391479605545,1.),
 .UNSPECIFIED.);
#265=B_SPLINE_CURVE_WITH_KNOTS('',3,(#422,#423,#424,#425,#426,#427,#428,
#429,#430,#431,#432,#433,#434,#435,#436,#437),.UNSPECIFIED.,.F.,.F.,(4,
3,3,3,3,4),(0.,0.296373935341211,0.525186777316536,0.75628548246291,0.953298516622993,
1.),.UNSPECIFIED.);
#266=B_SPLINE_CURVE_WITH_KNOTS('',3,(#441,#442,#443,#444,#445,#446,#447,
#448,#449,#450,#451,#452,#453,#454,#455,#456),.UNSPECIFIED.,.F.,.F.,(4,
3,3,3,3,4),(0.,0.174271016705893,0.34793107818833,0.530172956949094,0.737051307002228,
1.),.UNSPECIFIED.);
#267=B_SPLINE_CURVE_WITH_KNOTS('',3,(#464,#465,#466,#467,#468,#469,#470,
#471,#472,#473,#474,#475,#476,#477,#478,#479),.UNSPECIFIED.,.F.,.F.,(4,
3,3,3,3,4),(0.,0.296373935341212,0.525186777316537,0.756285482462912,0.953298516622996,
1.),.UNSPECIFIED.);
#268=B_SPLINE_CURVE_WITH_KNOTS('',3,(#483,#484,#485,#486,#487,#488,#489,
#490,#491,#492,#493,#494,#495,#496,#497,#498),.UNSPECIFIED.,.F.,.F.,(4,
3,3,3,3,4),(0.,0.174271016705891,0.347931078188323,0.530172956949084,0.737051307002211,
1.),.UNSPECIFIED.);
#269=B_SPLINE_CURVE_WITH_KNOTS('',3,(#504,#505,#506,#507),.UNSPECIFIED.,
 .F.,.F.,(4,4),(0.,1.),.UNSPECIFIED.);
#270=B_SPLINE_CURVE_WITH_KNOTS('',3,(#509,#510,#511,#512),.UNSPECIFIED.,
 .F.,.F.,(4,4),(0.,1.),.UNSPECIFIED.);
#271=B_SPLINE_CURVE_WITH_KNOTS('',3,(#516,#517,#518,#519),.UNSPECIFIED.,
 .F.,.F.,(4,4),(0.,1.),.UNSPECIFIED.);
#272=B_SPLINE_CURVE_WITH_KNOTS('',3,(#523,#524,#525,#526),.UNSPECIFIED.,
 .F.,.F.,(4,4),(0.,1.),.UNSPECIFIED.);
#273=PRESENTATION_LAYER_ASSIGNMENT('1','Layer 1',(#398,#264,#295,#296,#297,
#61,#62));
#274=STYLED_ITEM('',(#281),#398);
#275=STYLED_ITEM('',(#282),#264);
#276=STYLED_ITEM('',(#283),#295);
#277=STYLED_ITEM('',(#284),#296);
#278=STYLED_ITEM('',(#285),#297);
#279=STYLED_ITEM('',(#286),#61);
#280=STYLED_ITEM('',(#287),#62);
#281=PRESENTATION_STYLE_ASSIGNMENT((#288));
#282=PRESENTATION_STYLE_ASSIGNMENT((#256));
#283=PRESENTATION_STYLE_ASSIGNMENT((#257));
#284=PRESENTATION_STYLE_ASSIGNMENT((#258));
#285=PRESENTATION_STYLE_ASSIGNMENT((#259));
#286=PRESENTATION_STYLE_ASSIGNMENT((#51));
#287=PRESENTATION_STYLE_ASSIGNMENT((#52));
#288=POINT_STYLE('',#289,POSITIVE_LENGTH_MEASURE(3.),#290);
#289=PRE_DEFINED_POINT_MARKER_SYMBOL('plus');
#290=COLOUR_RGB('BLUE',0.,0.,0.998992904554818);
#291=COLOUR_RGB('Deep Lemon',1.,0.909788662546731,0.384298466468299);
#292=COLOUR_RGB('LIGHT GREY',0.8,0.8,0.8);
#293=COLOUR_RGB('GREY',0.499992370489052,0.499992370489052,0.499992370489052);
#294=AXIS2_PLACEMENT_3D('',#397,#325,#326);
#295=AXIS2_PLACEMENT_3D('PCS',#406,#327,#328);
#296=AXIS2_PLACEMENT_3D('CIP',#407,#329,#330);
#297=AXIS2_PLACEMENT_3D('MCS',#408,#331,#332);
#298=AXIS2_PLACEMENT_3D('',#409,#333,#334);
#299=AXIS2_PLACEMENT_3D('',#411,#335,#336);
#300=AXIS2_PLACEMENT_3D('',#412,#337,#338);
#301=AXIS2_PLACEMENT_3D('',#414,#339,#340);
#302=AXIS2_PLACEMENT_3D('',#416,#341,#342);
#303=AXIS2_PLACEMENT_3D('',#417,#343,#344);
#304=AXIS2_PLACEMENT_3D('',#439,#346,#347);
#305=AXIS2_PLACEMENT_3D('',#460,#349,#350);
#306=AXIS2_PLACEMENT_3D('',#481,#352,#353);
#307=AXIS2_PLACEMENT_3D('',#502,#355,#356);
#308=AXIS2_PLACEMENT_3D('',#503,#357,#358);
#309=AXIS2_PLACEMENT_3D('',#514,#359,#360);
#310=AXIS2_PLACEMENT_3D('',#515,#361,#362);
#311=AXIS2_PLACEMENT_3D('',#521,#363,#364);
#312=AXIS2_PLACEMENT_3D('',#527,#365,#366);
#313=AXIS2_PLACEMENT_3D('',#530,#369,#370);
#314=AXIS2_PLACEMENT_3D('',#531,#371,#372);
#315=AXIS2_PLACEMENT_3D('',#533,#373,#374);
#316=AXIS2_PLACEMENT_3D('',#535,#375,#376);
#317=AXIS2_PLACEMENT_3D('',#536,#377,#378);
#318=AXIS2_PLACEMENT_3D('',#537,#379,#380);
#319=AXIS2_PLACEMENT_3D('',#539,#382,#383);
#320=AXIS2_PLACEMENT_3D('',#541,#385,#386);
#321=AXIS2_PLACEMENT_3D('',#542,#387,#388);
#322=AXIS2_PLACEMENT_3D('',#544,#390,#391);
#323=AXIS2_PLACEMENT_3D('',#546,#393,#394);
#324=AXIS2_PLACEMENT_3D('',#547,#395,#396);
#325=DIRECTION('',(0.,0.,1.));
#326=DIRECTION('',(1.,0.,0.));
#327=DIRECTION('',(0.,0.,1.));
#328=DIRECTION('',(1.,0.,0.));
#329=DIRECTION('',(0.,0.,1.));
#330=DIRECTION('',(1.,0.,0.));
#331=DIRECTION('',(0.,0.,1.));
#332=DIRECTION('',(1.,0.,0.));
#333=DIRECTION('',(0.,0.,-1.));
#334=DIRECTION('',(0.348336194928868,0.937369668435286,0.));
#335=DIRECTION('',(0.,0.,-1.));
#336=DIRECTION('',(0.348336194928868,0.937369668435286,0.));
#337=DIRECTION('',(0.,0.,1.));
#338=DIRECTION('',(-0.348336194928868,-0.937369668435286,0.));
#339=DIRECTION('',(0.,0.,-1.));
#340=DIRECTION('',(0.348336194928868,0.937369668435286,-2.43019058045267E-14));
#341=DIRECTION('',(0.,0.,1.));
#342=DIRECTION('',(-0.348336194928868,-0.937369668435286,-1.66619147685871E-17));
#343=DIRECTION('',(0.,0.,1.));
#344=DIRECTION('',(-0.348336194928868,-0.937369668435286,0.));
#345=DIRECTION('',(0.,0.,1.));
#346=DIRECTION('',(0.,0.,1.));
#347=DIRECTION('',(-0.348336194928868,-0.937369668435286,0.));
#348=DIRECTION('',(0.,0.,-1.));
#349=DIRECTION('',(0.,0.,1.));
#350=DIRECTION('',(-0.348336194928868,-0.937369668435286,0.));
#351=DIRECTION('',(0.,0.,1.));
#352=DIRECTION('',(0.,0.,1.));
#353=DIRECTION('',(-0.348336194928868,-0.937369668435286,0.));
#354=DIRECTION('',(0.,0.,-1.));
#355=DIRECTION('',(0.,0.,1.));
#356=DIRECTION('',(-0.348336194928868,-0.937369668435286,0.));
#357=DIRECTION('',(0.,0.,1.));
#358=DIRECTION('',(-0.348336194928868,-0.937369668435286,0.));
#359=DIRECTION('',(0.,0.,1.));
#360=DIRECTION('',(-0.348336194928868,-0.937369668435286,0.));
#361=DIRECTION('',(0.,0.,-1.));
#362=DIRECTION('',(0.348336194928868,0.937369668435286,-1.38307632128907E-17));
#363=DIRECTION('',(0.,0.,1.));
#364=DIRECTION('',(-0.348336194928868,-0.937369668435286,0.));
#365=DIRECTION('',(0.,0.,-1.));
#366=DIRECTION('',(0.348336194928868,0.937369668435286,-1.38307632128907E-17));
#367=DIRECTION('',(-0.99351317405572,-0.113717074257686,0.));
#368=DIRECTION('',(0.99351317405572,0.113717074257686,0.));
#369=DIRECTION('',(0.,0.,-1.));
#370=DIRECTION('',(0.348336194928868,0.937369668435286,0.));
#371=DIRECTION('',(0.,0.,1.));
#372=DIRECTION('',(-0.348336194928868,-0.937369668435286,0.));
#373=DIRECTION('',(0.,0.,-1.));
#374=DIRECTION('',(0.348336194928868,0.937369668435286,0.));
#375=DIRECTION('',(0.,0.,-1.));
#376=DIRECTION('',(0.348336194928868,0.937369668435286,-2.43019058045267E-14));
#377=DIRECTION('',(0.,0.,1.));
#378=DIRECTION('',(-0.348336194928868,-0.937369668435286,0.));
#379=DIRECTION('',(0.,0.,-1.));
#380=DIRECTION('',(0.348336194928868,0.937369668435286,0.));
#381=DIRECTION('',(-0.99351317405572,-0.113717074257686,0.));
#382=DIRECTION('',(0.,0.,1.));
#383=DIRECTION('',(-0.348336194928868,-0.937369668435286,0.));
#384=DIRECTION('',(-0.99351317405572,-0.113717074257686,0.));
#385=DIRECTION('',(-0.113717074257686,0.99351317405572,1.62192938729804E-17));
#386=DIRECTION('',(0.993513174055721,0.113717074257686,0.));
#387=DIRECTION('',(-0.99351317405572,-0.113717074257686,0.));
#388=DIRECTION('',(-0.113717074257686,0.99351317405572,0.));
#389=DIRECTION('',(-0.99351317405572,-0.113717074257686,0.));
#390=DIRECTION('',(0.,0.,1.));
#391=DIRECTION('',(-0.348336194928868,-0.937369668435286,0.));
#392=DIRECTION('',(-0.99351317405572,-0.113717074257686,0.));
#393=DIRECTION('',(-0.99351317405572,-0.113717074257686,0.));
#394=DIRECTION('',(-0.113717074257684,0.99351317405572,0.));
#395=DIRECTION('',(0.113717074257686,-0.99351317405572,-2.09615744233633E-17));
#396=DIRECTION('',(-0.99351317405572,-0.113717074257686,0.));
#397=CARTESIAN_POINT('',(0.,0.,0.));
#398=CARTESIAN_POINT('CRP',(-4.44089209850063E-16,3.40000000000001,-77.9570738953623));
#399=CARTESIAN_POINT('',(-2.22044604925031E-16,3.39960594763905,-62.9999999999882));
#400=CARTESIAN_POINT('',(-4.44089209850063E-16,3.39973729842604,-67.9856912984462));
#401=CARTESIAN_POINT('',(-6.66133814775094E-16,3.39986864921302,-72.9713825969043));
#402=CARTESIAN_POINT('',(0.,3.40000000000003,-77.9570738953343));
#403=CARTESIAN_POINT('',(-2.22044604925031E-16,2.2666666666667,-78.6380492635375));
#404=CARTESIAN_POINT('',(-5.55111512312578E-17,1.13333333333334,-79.3190246317688));
#405=CARTESIAN_POINT('',(7.03782845784068E-17,-6.18504654794763E-15,-80.));
#406=CARTESIAN_POINT('',(0.,0.,0.));
#407=CARTESIAN_POINT('',(0.,0.,-80.));
#408=CARTESIAN_POINT('',(0.,0.,-36.6));
#409=CARTESIAN_POINT('',(0.,0.,-63.));
#410=CARTESIAN_POINT('',(1.18420580005814,3.18668749994905,-63.));
#411=CARTESIAN_POINT('',(0.,0.,-63.));
#412=CARTESIAN_POINT('',(0.,0.,-77.9570738953063));
#413=CARTESIAN_POINT('',(-1.18434306275815,-3.18705687267998,-77.9570738953063));
#414=CARTESIAN_POINT('',(0.,0.,-77.9570738953063));
#415=CARTESIAN_POINT('',(0.,0.,-80.));
#416=CARTESIAN_POINT('',(0.,0.,-79.0806832528878));
#417=CARTESIAN_POINT('',(0.,0.,-40.));
#418=CARTESIAN_POINT('',(-1.18434306275815,-3.18705687267997,-40.));
#419=CARTESIAN_POINT('',(3.09514264577318,-1.40715741916681,-80.));
#420=CARTESIAN_POINT('',(3.09514264577318,-1.40715741916681,-3.3));
#421=CARTESIAN_POINT('',(3.0951426457732,-1.40715741916681,-0.981495457622363));
#422=CARTESIAN_POINT('',(2.98890989518387,-1.62062260828113,-3.5));
#423=CARTESIAN_POINT('',(3.00505334543037,-1.59084928663449,-3.5));
#424=CARTESIAN_POINT('',(3.02101607025584,-1.56027699929391,-3.4940996757135));
#425=CARTESIAN_POINT('',(3.03528220521746,-1.53201238072354,-3.48207260632549));
#426=CARTESIAN_POINT('',(3.04634527159643,-1.51009380556204,-3.47274588487346));
#427=CARTESIAN_POINT('',(3.0566797381166,-1.48899857532247,-3.45946662287806));
#428=CARTESIAN_POINT('',(3.06541517626334,-1.47079223452341,-3.44267304127816));
#429=CARTESIAN_POINT('',(3.0742010477618,-1.45248078087557,-3.42578250328142));
#430=CARTESIAN_POINT('',(3.08163322167455,-1.43655331161608,-3.40468820040328));
#431=CARTESIAN_POINT('',(3.08674629475193,-1.42548143159959,-3.38125614750326));
#432=CARTESIAN_POINT('',(3.091117758143,-1.41601543777748,-3.36122272339998));
#433=CARTESIAN_POINT('',(3.09393025565321,-1.40982275159251,-3.33881490603795));
#434=CARTESIAN_POINT('',(3.09482006720729,-1.40786673787366,-3.31633302314859));
#435=CARTESIAN_POINT('',(3.09503481538021,-1.40739467120921,-3.31090721894081));
#436=CARTESIAN_POINT('',(3.09514264577318,-1.40715741916681,-3.30545053346147));
#437=CARTESIAN_POINT('',(3.09514264577318,-1.40715741916681,-3.3));
#438=CARTESIAN_POINT('',(2.98890989518387,-1.62062260828113,-3.5));
#439=CARTESIAN_POINT('',(0.,0.,-3.5));
#440=CARTESIAN_POINT('',(-2.5454133055789,-2.25407877053618,-3.5));
#441=CARTESIAN_POINT('',(-2.69713288587127,-2.07013869002819,-3.3));
#442=CARTESIAN_POINT('',(-2.69713288587127,-2.07013869002819,-3.31998078466835));
#443=CARTESIAN_POINT('',(-2.69493362992714,-2.073012001135,-3.34023904072181));
#444=CARTESIAN_POINT('',(-2.69078647228908,-2.07838113938374,-3.35903279484264));
#445=CARTESIAN_POINT('',(-2.68664746892995,-2.08373972065474,-3.37778959606065));
#446=CARTESIAN_POINT('',(-2.68047657235236,-2.09169723025307,-3.39559011233372));
#447=CARTESIAN_POINT('',(-2.67285772826837,-2.10138800901595,-3.41126510374583));
#448=CARTESIAN_POINT('',(-2.66485531221256,-2.11156667164647,-3.42772925520611));
#449=CARTESIAN_POINT('',(-2.65508097324111,-2.12387389606767,-3.44225933181412));
#450=CARTESIAN_POINT('',(-2.64427891635534,-2.1372386419206,-3.45423477561829));
#451=CARTESIAN_POINT('',(-2.63202371236815,-2.15240128070288,-3.46782121644239));
#452=CARTESIAN_POINT('',(-2.61817741940995,-2.16925240621179,-3.47844904376878));
#453=CARTESIAN_POINT('',(-2.60366847349201,-2.18652932295539,-3.48591132559551));
#454=CARTESIAN_POINT('',(-2.58528934537492,-2.20841476302077,-3.49536413040401));
#455=CARTESIAN_POINT('',(-2.56536974762117,-2.23154300392039,-3.5));
#456=CARTESIAN_POINT('',(-2.5454133055789,-2.25407877053618,-3.5));
#457=CARTESIAN_POINT('',(-2.69713288587127,-2.07013869002819,-3.3));
#458=CARTESIAN_POINT('',(-2.69713288587128,-2.07013869002819,-80.));
#459=CARTESIAN_POINT('',(-2.69713288587128,-2.0701386900282,-0.98149545762237));
#460=CARTESIAN_POINT('',(0.,0.,-0.981495457622369));
#461=CARTESIAN_POINT('',(-3.0951426457732,1.40715741916681,-0.981495457622363));
#462=CARTESIAN_POINT('',(-3.09514264577317,1.40715741916682,-80.));
#463=CARTESIAN_POINT('',(-3.09514264577317,1.40715741916682,-3.3));
#464=CARTESIAN_POINT('',(-2.98890989518387,1.62062260828113,-3.5));
#465=CARTESIAN_POINT('',(-3.00505334543037,1.59084928663449,-3.5));
#466=CARTESIAN_POINT('',(-3.02101607025584,1.56027699929391,-3.4940996757135));
#467=CARTESIAN_POINT('',(-3.03528220521746,1.53201238072355,-3.48207260632549));
#468=CARTESIAN_POINT('',(-3.04634527159643,1.51009380556205,-3.47274588487346));
#469=CARTESIAN_POINT('',(-3.05667973811659,1.48899857532247,-3.45946662287806));
#470=CARTESIAN_POINT('',(-3.06541517626334,1.47079223452342,-3.44267304127816));
#471=CARTESIAN_POINT('',(-3.0742010477618,1.45248078087558,-3.42578250328142));
#472=CARTESIAN_POINT('',(-3.08163322167455,1.43655331161608,-3.40468820040328));
#473=CARTESIAN_POINT('',(-3.08674629475193,1.42548143159959,-3.38125614750326));
#474=CARTESIAN_POINT('',(-3.091117758143,1.41601543777749,-3.36122272339998));
#475=CARTESIAN_POINT('',(-3.09393025565321,1.40982275159252,-3.33881490603795));
#476=CARTESIAN_POINT('',(-3.09482006720729,1.40786673787367,-3.31633302314859));
#477=CARTESIAN_POINT('',(-3.09503481538021,1.40739467120921,-3.31090721894081));
#478=CARTESIAN_POINT('',(-3.09514264577317,1.40715741916682,-3.30545053346147));
#479=CARTESIAN_POINT('',(-3.09514264577317,1.40715741916682,-3.3));
#480=CARTESIAN_POINT('',(-2.98890989518387,1.62062260828113,-3.5));
#481=CARTESIAN_POINT('',(0.,0.,-3.5));
#482=CARTESIAN_POINT('',(2.5454133055789,2.25407877053618,-3.5));
#483=CARTESIAN_POINT('',(2.69713288587127,2.0701386900282,-3.3));
#484=CARTESIAN_POINT('',(2.69713288587127,2.0701386900282,-3.31998078466835));
#485=CARTESIAN_POINT('',(2.69493362992713,2.07301200113501,-3.34023904072181));
#486=CARTESIAN_POINT('',(2.69078647228908,2.07838113938375,-3.35903279484264));
#487=CARTESIAN_POINT('',(2.68664746892995,2.08373972065475,-3.37778959606065));
#488=CARTESIAN_POINT('',(2.68047657235235,2.09169723025307,-3.39559011233372));
#489=CARTESIAN_POINT('',(2.67285772826837,2.10138800901595,-3.41126510374583));
#490=CARTESIAN_POINT('',(2.66485531221256,2.11156667164648,-3.42772925520611));
#491=CARTESIAN_POINT('',(2.65508097324111,2.12387389606768,-3.44225933181412));
#492=CARTESIAN_POINT('',(2.64427891635534,2.1372386419206,-3.45423477561828));
#493=CARTESIAN_POINT('',(2.63202371236815,2.15240128070288,-3.46782121644239));
#494=CARTESIAN_POINT('',(2.61817741940995,2.16925240621179,-3.47844904376878));
#495=CARTESIAN_POINT('',(2.60366847349202,2.18652932295539,-3.48591132559551));
#496=CARTESIAN_POINT('',(2.58528934537492,2.20841476302077,-3.49536413040401));
#497=CARTESIAN_POINT('',(2.56536974762117,2.23154300392039,-3.5));
#498=CARTESIAN_POINT('',(2.5454133055789,2.25407877053618,-3.5));
#499=CARTESIAN_POINT('',(2.69713288587127,2.0701386900282,-3.3));
#500=CARTESIAN_POINT('',(2.69713288587127,2.0701386900282,-80.));
#501=CARTESIAN_POINT('',(2.69713288587128,2.0701386900282,-0.981495457622369));
#502=CARTESIAN_POINT('',(0.,0.,-0.981495457622369));
#503=CARTESIAN_POINT('',(0.,0.,-80.));
#504=CARTESIAN_POINT('',(3.09514264577319,-1.40715741916681,-0.98149545762238));
#505=CARTESIAN_POINT('',(2.69692220036163,-1.45273755352672,-0.637845263863274));
#506=CARTESIAN_POINT('',(2.29202596708349,-1.49908179558482,-0.301877556991141));
#507=CARTESIAN_POINT('',(1.85750669476952,-1.54881667746304,4.84205687866586E-16));
#508=CARTESIAN_POINT('',(1.85750669476952,-1.54881667746304,0.));
#509=CARTESIAN_POINT('',(1.45949693486762,1.92847943173197,7.76817423689704E-16));
#510=CARTESIAN_POINT('',(1.89366757678806,1.97817440953103,-0.301635349802189));
#511=CARTESIAN_POINT('',(2.29870387698957,2.02453468358663,-0.637665280947391));
#512=CARTESIAN_POINT('',(2.69713288587128,2.0701386900282,-0.981495457622369));
#513=CARTESIAN_POINT('',(1.45949693486762,1.92847943173197,0.));
#514=CARTESIAN_POINT('',(0.,0.,0.));
#515=CARTESIAN_POINT('',(0.,0.,-0.981495457622369));
#516=CARTESIAN_POINT('',(-1.45949693486762,-1.92847943173197,9.30462125342457E-17));
#517=CARTESIAN_POINT('',(-1.89366757678807,-1.97817440953103,-0.30163534980219));
#518=CARTESIAN_POINT('',(-2.29870387698958,-2.02453468358663,-0.637665280947392));
#519=CARTESIAN_POINT('',(-2.69713288587128,-2.0701386900282,-0.98149545762237));
#520=CARTESIAN_POINT('',(-1.45949693486762,-1.92847943173197,0.));
#521=CARTESIAN_POINT('',(0.,0.,0.));
#522=CARTESIAN_POINT('',(-1.85750669476952,1.54881667746304,0.));
#523=CARTESIAN_POINT('',(-3.09514264577319,1.40715741916681,-0.98149545762238));
#524=CARTESIAN_POINT('',(-2.69692220036163,1.45273755352672,-0.637845263863275));
#525=CARTESIAN_POINT('',(-2.2920259670835,1.49908179558482,-0.301877556991142));
#526=CARTESIAN_POINT('',(-1.85750669476952,1.54881667746304,-4.06657150688201E-16));
#527=CARTESIAN_POINT('',(0.,0.,-0.981495457622369));
#528=CARTESIAN_POINT('',(2.34154157409186,-1.4934142613174,-1.11022302462516E-16));
#529=CARTESIAN_POINT('',(1.94353181418996,1.98388184787761,-1.11022302462516E-16));
#530=CARTESIAN_POINT('',(2.26703280099776,-0.842452669710009,-1.11022302462516E-16));
#531=CARTESIAN_POINT('',(0.,0.,-40.000001745331));
#532=CARTESIAN_POINT('',(-1.18399472656322,-3.18611950301153,-40.000001745331));
#533=CARTESIAN_POINT('',(0.,0.,-63.));
#534=CARTESIAN_POINT('',(1.18420580005814,3.18668749994905,-63.));
#535=CARTESIAN_POINT('',(0.,0.,-77.9570738953063));
#536=CARTESIAN_POINT('',(3.18611950301153,-1.18399472656322,-40.0000008726655));
#537=CARTESIAN_POINT('',(0.,0.,-63.));
#538=CARTESIAN_POINT('',(6.5341412887764,2.71062679436091,-3.5));
#539=CARTESIAN_POINT('',(6.53414128877641,2.71062679436091,-3.5));
#540=CARTESIAN_POINT('',(6.55688470362795,2.51192415954977,-3.3));
#541=CARTESIAN_POINT('',(6.55688470362795,2.51192415954977,3.3));
#542=CARTESIAN_POINT('',(6.5341412887764,2.71062679436091,-3.3));
#543=CARTESIAN_POINT('',(6.97763787838138,-1.16407458445639,-3.5));
#544=CARTESIAN_POINT('',(7.34153251600598,-4.34331674143469,-3.5));
#545=CARTESIAN_POINT('',(6.95489446352984,-0.965371949645242,-3.3));
#546=CARTESIAN_POINT('',(6.97763787838138,-1.16407458445639,-3.3));
#547=CARTESIAN_POINT('',(6.95489446352984,-0.965371949645245,-3.3));
#548=MECHANICAL_DESIGN_GEOMETRIC_PRESENTATION_REPRESENTATION('',(#274,#275,
#276,#277,#278,#279,#280),#549);
#549=(
GEOMETRIC_REPRESENTATION_CONTEXT(3)
GLOBAL_UNCERTAINTY_ASSIGNED_CONTEXT((#550))
GLOBAL_UNIT_ASSIGNED_CONTEXT((#556,#552,#551))
REPRESENTATION_CONTEXT('CAPP~~210908185127~5968780~MOD~TM01_00~ISO~FR',
'TOP_LEVEL_ASSEMBLY_PART')
);
#550=UNCERTAINTY_MEASURE_WITH_UNIT(LENGTH_MEASURE(0.0508),#556,
'DISTANCE_ACCURACY_VALUE','Maximum Tolerance applied to model');
#551=(
NAMED_UNIT(*)
SI_UNIT($,.STERADIAN.)
SOLID_ANGLE_UNIT()
);
#552=(
CONVERSION_BASED_UNIT('DEGREE',#554)
NAMED_UNIT(#553)
PLANE_ANGLE_UNIT()
);
#553=DIMENSIONAL_EXPONENTS(0.,0.,0.,0.,0.,0.,0.);
#554=PLANE_ANGLE_MEASURE_WITH_UNIT(PLANE_ANGLE_MEASURE(0.0174532925),#555);
#555=(
NAMED_UNIT(*)
PLANE_ANGLE_UNIT()
SI_UNIT($,.RADIAN.)
);
#556=(
LENGTH_UNIT()
NAMED_UNIT(*)
SI_UNIT(.MILLI.,.METRE.)
);
ENDSEC;
END-ISO-10303-21;
