ISO-10303-21;
HEADER;
/* Generated by software containing ST-Developer
 * from STEP Tools, Inc. (www.steptools.com) 
 */
/* OPTION: using custom schema-name function */

FILE_DESCRIPTION(
/* description */ ('A1243.5'),
/* implementation_level */ '2;1');

FILE_NAME(
/* name */ 'CAPP~~210908185045~5968726~MOD~TM01_00~ISO~FR.STP',
/* time_stamp */ '2021-09-08T18:51:36+02:00',
/* author */ ('System'),
/* organization */ ('Dormer Pramet'),
/* preprocessor_version */ 'ST-DEVELOPER v16.7',
/* originating_system */ 'SIEMENS PLM Software NX 12.0',
/* authorisation */ '');

FILE_SCHEMA (('AUTOMOTIVE_DESIGN { 1 0 10303 214 3 1 1 1 }'));
ENDSEC;

DATA;
#10=CONSTRUCTIVE_GEOMETRY_REPRESENTATION_RELATIONSHIP(
'supplemental geometry','',#26,#11);
#11=CONSTRUCTIVE_GEOMETRY_REPRESENTATION('supplemental geometry',(#295,
#296,#297),#549);
#12=GEOMETRICALLY_BOUNDED_WIREFRAME_SHAPE_REPRESENTATION(
'CAPP~~210908185045~5968726~MOD~TM01_00~ISO~FR-None',(#27),#549);
#13=SHAPE_REPRESENTATION_RELATIONSHIP('None',
'relationship between CAPP~~210908185045~5968726~MOD~TM01_00~ISO~FR-No
ne and CAPP~~210908185045~5968726~MOD~TM01_00~ISO~FR-None',#26,#15);
#14=SHAPE_REPRESENTATION_RELATIONSHIP('None',
'relationship between CAPP~~210908185045~5968726~MOD~TM01_00~ISO~FR-No
ne and CAPP~~210908185045~5968726~MOD~TM01_00~ISO~FR-None',#26,#12);
#15=ADVANCED_BREP_SHAPE_REPRESENTATION(
'CAPP~~210908185045~5968726~MOD~TM01_00~ISO~FR-None',(#61,#62),#549);
#16=SHAPE_DEFINITION_REPRESENTATION(#17,#26);
#17=PRODUCT_DEFINITION_SHAPE('','',#18);
#18=PRODUCT_DEFINITION(' ','',#20,#19);
#19=PRODUCT_DEFINITION_CONTEXT('part definition',#25,'design');
#20=PRODUCT_DEFINITION_FORMATION_WITH_SPECIFIED_SOURCE(' ',' ',#22,
 .NOT_KNOWN.);
#21=PRODUCT_RELATED_PRODUCT_CATEGORY('part','',(#22));
#22=PRODUCT('CAPP~~210908185045~5968726~MOD~TM01_00~ISO~FR',
'CAPP~~210908185045~5968726~MOD~TM01_00~ISO~FR',' ',(#23));
#23=PRODUCT_CONTEXT(' ',#25,'mechanical');
#24=APPLICATION_PROTOCOL_DEFINITION('international standard',
'automotive_design',2010,#25);
#25=APPLICATION_CONTEXT(
'core data for automotive mechanical design processes');
#26=SHAPE_REPRESENTATION(
'CAPP~~210908185045~5968726~MOD~TM01_00~ISO~FR-None',(#294),#549);
#27=GEOMETRIC_CURVE_SET('None',(#398,#264));
#28=CYLINDRICAL_SURFACE('',#308,1.75);
#29=CYLINDRICAL_SURFACE('',#321,0.2);
#30=CYLINDRICAL_SURFACE('',#323,0.200000000000003);
#31=LINE('',#419,#41);
#32=LINE('',#458,#42);
#33=LINE('',#462,#43);
#34=LINE('',#500,#44);
#35=LINE('',#528,#45);
#36=LINE('',#529,#46);
#37=LINE('',#538,#47);
#38=LINE('',#540,#48);
#39=LINE('',#543,#49);
#40=LINE('',#545,#50);
#41=VECTOR('',#345,1.);
#42=VECTOR('',#348,1.);
#43=VECTOR('',#351,1.);
#44=VECTOR('',#354,1.);
#45=VECTOR('',#367,1.);
#46=VECTOR('',#368,1.);
#47=VECTOR('',#381,1.);
#48=VECTOR('',#384,1.);
#49=VECTOR('',#389,1.);
#50=VECTOR('',#392,1.);
#51=SURFACE_STYLE_USAGE(.BOTH.,#53);
#52=SURFACE_STYLE_USAGE(.BOTH.,#54);
#53=SURFACE_SIDE_STYLE('',(#55));
#54=SURFACE_SIDE_STYLE('',(#56));
#55=SURFACE_STYLE_FILL_AREA(#57);
#56=SURFACE_STYLE_FILL_AREA(#58);
#57=FILL_AREA_STYLE('',(#59));
#58=FILL_AREA_STYLE('',(#60));
#59=FILL_AREA_STYLE_COLOUR('',#292);
#60=FILL_AREA_STYLE_COLOUR('',#293);
#61=MANIFOLD_SOLID_BREP('CUT',#63);
#62=MANIFOLD_SOLID_BREP('NOCUT',#64);
#63=CLOSED_SHELL('',(#81,#82,#83));
#64=CLOSED_SHELL('',(#84,#85,#86,#87,#88,#89,#90,#91,#92,#93,#94,#95,#96));
#65=VERTEX_LOOP('',#196);
#66=CONICAL_SURFACE('',#301,1.75000000000001,0.00239245874315018);
#67=CONICAL_SURFACE('',#302,0.787500000000012,59.0000000000003);
#68=CONICAL_SURFACE('',#310,1.75,45.0000000000001);
#69=CONICAL_SURFACE('',#312,1.75,45.0000000000001);
#70=CONICAL_SURFACE('',#316,1.75000000000001,0.00239245874315018);
#71=FACE_BOUND('',#117,.T.);
#72=FACE_BOUND('',#118,.T.);
#73=FACE_BOUND('',#119,.T.);
#74=FACE_BOUND('',#65,.T.);
#75=FACE_BOUND('',#120,.T.);
#76=FACE_BOUND('',#121,.T.);
#77=FACE_BOUND('',#125,.T.);
#78=FACE_BOUND('',#126,.T.);
#79=FACE_BOUND('',#127,.T.);
#80=FACE_BOUND('',#128,.T.);
#81=ADVANCED_FACE('',(#105),#97,.F.);
#82=ADVANCED_FACE('',(#71,#72),#66,.T.);
#83=ADVANCED_FACE('',(#73,#74),#67,.T.);
#84=ADVANCED_FACE('',(#75,#76),#28,.T.);
#85=ADVANCED_FACE('',(#106),#68,.T.);
#86=ADVANCED_FACE('',(#107),#69,.T.);
#87=ADVANCED_FACE('',(#108),#98,.F.);
#88=ADVANCED_FACE('',(#77,#78),#70,.T.);
#89=ADVANCED_FACE('',(#79,#80),#99,.F.);
#90=ADVANCED_FACE('',(#109),#100,.T.);
#91=ADVANCED_FACE('',(#110),#101,.T.);
#92=ADVANCED_FACE('',(#111),#102,.T.);
#93=ADVANCED_FACE('',(#112),#29,.F.);
#94=ADVANCED_FACE('',(#113),#103,.T.);
#95=ADVANCED_FACE('',(#114),#30,.F.);
#96=ADVANCED_FACE('',(#115),#104,.T.);
#97=PLANE('',#299);
#98=PLANE('',#313);
#99=PLANE('',#317);
#100=PLANE('',#318);
#101=PLANE('',#319);
#102=PLANE('',#320);
#103=PLANE('',#322);
#104=PLANE('',#324);
#105=FACE_OUTER_BOUND('',#116,.T.);
#106=FACE_OUTER_BOUND('',#122,.T.);
#107=FACE_OUTER_BOUND('',#123,.T.);
#108=FACE_OUTER_BOUND('',#124,.T.);
#109=FACE_OUTER_BOUND('',#129,.T.);
#110=FACE_OUTER_BOUND('',#130,.T.);
#111=FACE_OUTER_BOUND('',#131,.T.);
#112=FACE_OUTER_BOUND('',#132,.T.);
#113=FACE_OUTER_BOUND('',#133,.T.);
#114=FACE_OUTER_BOUND('',#134,.T.);
#115=FACE_OUTER_BOUND('',#135,.T.);
#116=EDGE_LOOP('',(#136));
#117=EDGE_LOOP('',(#137));
#118=EDGE_LOOP('',(#138));
#119=EDGE_LOOP('',(#139));
#120=EDGE_LOOP('',(#140));
#121=EDGE_LOOP('',(#141,#142,#143,#144,#145,#146,#147,#148,#149,#150,#151,
#152));
#122=EDGE_LOOP('',(#153,#154,#155,#156));
#123=EDGE_LOOP('',(#157,#158,#159,#160));
#124=EDGE_LOOP('',(#161,#162,#163,#164));
#125=EDGE_LOOP('',(#165));
#126=EDGE_LOOP('',(#166));
#127=EDGE_LOOP('',(#167));
#128=EDGE_LOOP('',(#168));
#129=EDGE_LOOP('',(#169));
#130=EDGE_LOOP('',(#170,#171));
#131=EDGE_LOOP('',(#172,#173,#174,#175,#176,#177));
#132=EDGE_LOOP('',(#178,#179,#180,#181));
#133=EDGE_LOOP('',(#182,#183));
#134=EDGE_LOOP('',(#184,#185,#186,#187));
#135=EDGE_LOOP('',(#188,#189,#190,#191,#192,#193));
#136=ORIENTED_EDGE('',*,*,#216,.F.);
#137=ORIENTED_EDGE('',*,*,#216,.T.);
#138=ORIENTED_EDGE('',*,*,#217,.T.);
#139=ORIENTED_EDGE('',*,*,#217,.F.);
#140=ORIENTED_EDGE('',*,*,#218,.T.);
#141=ORIENTED_EDGE('',*,*,#219,.F.);
#142=ORIENTED_EDGE('',*,*,#220,.F.);
#143=ORIENTED_EDGE('',*,*,#221,.F.);
#144=ORIENTED_EDGE('',*,*,#222,.F.);
#145=ORIENTED_EDGE('',*,*,#223,.F.);
#146=ORIENTED_EDGE('',*,*,#224,.F.);
#147=ORIENTED_EDGE('',*,*,#225,.F.);
#148=ORIENTED_EDGE('',*,*,#226,.F.);
#149=ORIENTED_EDGE('',*,*,#227,.F.);
#150=ORIENTED_EDGE('',*,*,#228,.F.);
#151=ORIENTED_EDGE('',*,*,#229,.F.);
#152=ORIENTED_EDGE('',*,*,#230,.F.);
#153=ORIENTED_EDGE('',*,*,#231,.F.);
#154=ORIENTED_EDGE('',*,*,#230,.T.);
#155=ORIENTED_EDGE('',*,*,#232,.F.);
#156=ORIENTED_EDGE('',*,*,#233,.F.);
#157=ORIENTED_EDGE('',*,*,#234,.F.);
#158=ORIENTED_EDGE('',*,*,#235,.F.);
#159=ORIENTED_EDGE('',*,*,#236,.F.);
#160=ORIENTED_EDGE('',*,*,#224,.T.);
#161=ORIENTED_EDGE('',*,*,#237,.F.);
#162=ORIENTED_EDGE('',*,*,#233,.T.);
#163=ORIENTED_EDGE('',*,*,#238,.F.);
#164=ORIENTED_EDGE('',*,*,#235,.T.);
#165=ORIENTED_EDGE('',*,*,#239,.F.);
#166=ORIENTED_EDGE('',*,*,#240,.F.);
#167=ORIENTED_EDGE('',*,*,#218,.F.);
#168=ORIENTED_EDGE('',*,*,#239,.T.);
#169=ORIENTED_EDGE('',*,*,#240,.T.);
#170=ORIENTED_EDGE('',*,*,#227,.T.);
#171=ORIENTED_EDGE('',*,*,#241,.F.);
#172=ORIENTED_EDGE('',*,*,#225,.T.);
#173=ORIENTED_EDGE('',*,*,#236,.T.);
#174=ORIENTED_EDGE('',*,*,#238,.T.);
#175=ORIENTED_EDGE('',*,*,#232,.T.);
#176=ORIENTED_EDGE('',*,*,#229,.T.);
#177=ORIENTED_EDGE('',*,*,#242,.T.);
#178=ORIENTED_EDGE('',*,*,#228,.T.);
#179=ORIENTED_EDGE('',*,*,#241,.T.);
#180=ORIENTED_EDGE('',*,*,#226,.T.);
#181=ORIENTED_EDGE('',*,*,#242,.F.);
#182=ORIENTED_EDGE('',*,*,#221,.T.);
#183=ORIENTED_EDGE('',*,*,#243,.T.);
#184=ORIENTED_EDGE('',*,*,#220,.T.);
#185=ORIENTED_EDGE('',*,*,#244,.T.);
#186=ORIENTED_EDGE('',*,*,#222,.T.);
#187=ORIENTED_EDGE('',*,*,#243,.F.);
#188=ORIENTED_EDGE('',*,*,#219,.T.);
#189=ORIENTED_EDGE('',*,*,#231,.T.);
#190=ORIENTED_EDGE('',*,*,#237,.T.);
#191=ORIENTED_EDGE('',*,*,#234,.T.);
#192=ORIENTED_EDGE('',*,*,#223,.T.);
#193=ORIENTED_EDGE('',*,*,#244,.F.);
#194=VERTEX_POINT('',#410);
#195=VERTEX_POINT('',#413);
#196=VERTEX_POINT('',#415);
#197=VERTEX_POINT('',#418);
#198=VERTEX_POINT('',#420);
#199=VERTEX_POINT('',#421);
#200=VERTEX_POINT('',#438);
#201=VERTEX_POINT('',#440);
#202=VERTEX_POINT('',#457);
#203=VERTEX_POINT('',#459);
#204=VERTEX_POINT('',#461);
#205=VERTEX_POINT('',#463);
#206=VERTEX_POINT('',#480);
#207=VERTEX_POINT('',#482);
#208=VERTEX_POINT('',#499);
#209=VERTEX_POINT('',#501);
#210=VERTEX_POINT('',#508);
#211=VERTEX_POINT('',#513);
#212=VERTEX_POINT('',#520);
#213=VERTEX_POINT('',#522);
#214=VERTEX_POINT('',#532);
#215=VERTEX_POINT('',#534);
#216=EDGE_CURVE('',#194,#194,#245,.T.);
#217=EDGE_CURVE('',#195,#195,#246,.T.);
#218=EDGE_CURVE('',#197,#197,#247,.T.);
#219=EDGE_CURVE('',#198,#199,#31,.T.);
#220=EDGE_CURVE('',#200,#198,#265,.T.);
#221=EDGE_CURVE('',#201,#200,#248,.T.);
#222=EDGE_CURVE('',#202,#201,#266,.T.);
#223=EDGE_CURVE('',#203,#202,#32,.T.);
#224=EDGE_CURVE('',#204,#203,#249,.T.);
#225=EDGE_CURVE('',#205,#204,#33,.T.);
#226=EDGE_CURVE('',#206,#205,#267,.T.);
#227=EDGE_CURVE('',#207,#206,#250,.T.);
#228=EDGE_CURVE('',#208,#207,#268,.T.);
#229=EDGE_CURVE('',#209,#208,#34,.T.);
#230=EDGE_CURVE('',#199,#209,#251,.T.);
#231=EDGE_CURVE('',#199,#210,#269,.T.);
#232=EDGE_CURVE('',#211,#209,#270,.T.);
#233=EDGE_CURVE('',#210,#211,#252,.T.);
#234=EDGE_CURVE('',#212,#203,#271,.T.);
#235=EDGE_CURVE('',#213,#212,#253,.T.);
#236=EDGE_CURVE('',#204,#213,#272,.T.);
#237=EDGE_CURVE('',#210,#212,#35,.T.);
#238=EDGE_CURVE('',#213,#211,#36,.T.);
#239=EDGE_CURVE('',#214,#214,#254,.T.);
#240=EDGE_CURVE('',#215,#215,#255,.T.);
#241=EDGE_CURVE('',#207,#206,#37,.T.);
#242=EDGE_CURVE('',#208,#205,#38,.T.);
#243=EDGE_CURVE('',#200,#201,#39,.T.);
#244=EDGE_CURVE('',#198,#202,#40,.T.);
#245=CIRCLE('',#298,1.74967853951466);
#246=CIRCLE('',#300,1.75000000000001);
#247=CIRCLE('',#303,1.75);
#248=CIRCLE('',#304,1.75);
#249=CIRCLE('',#305,1.75);
#250=CIRCLE('',#306,1.75);
#251=CIRCLE('',#307,1.75);
#252=CIRCLE('',#309,1.24481851445908);
#253=CIRCLE('',#311,1.24481851445908);
#254=CIRCLE('',#314,1.749);
#255=CIRCLE('',#315,1.74967853951466);
#256=CURVE_STYLE('',#260,POSITIVE_LENGTH_MEASURE(0.18),#290);
#257=CURVE_STYLE('',#261,POSITIVE_LENGTH_MEASURE(0.13),#291);
#258=CURVE_STYLE('',#262,POSITIVE_LENGTH_MEASURE(0.13),#291);
#259=CURVE_STYLE('',#263,POSITIVE_LENGTH_MEASURE(0.13),#291);
#260=DRAUGHTING_PRE_DEFINED_CURVE_FONT('continuous');
#261=DRAUGHTING_PRE_DEFINED_CURVE_FONT('continuous');
#262=DRAUGHTING_PRE_DEFINED_CURVE_FONT('continuous');
#263=DRAUGHTING_PRE_DEFINED_CURVE_FONT('continuous');
#264=B_SPLINE_CURVE_WITH_KNOTS('CUTTING PART LINE',3,(#399,#400,#401,#402,
#403,#404,#405),.UNSPECIFIED.,.F.,.F.,(4,3,4),(0.,0.790391479692999,1.),
 .UNSPECIFIED.);
#265=B_SPLINE_CURVE_WITH_KNOTS('',3,(#422,#423,#424,#425,#426,#427,#428,
#429,#430,#431,#432,#433,#434,#435,#436,#437),.UNSPECIFIED.,.F.,.F.,(4,
3,3,3,3,4),(0.,0.300208258378308,0.521920327949512,0.745398502010282,0.942064560714573,
1.),.UNSPECIFIED.);
#266=B_SPLINE_CURVE_WITH_KNOTS('',3,(#441,#442,#443,#444,#445,#446,#447,
#448,#449,#450,#451,#452,#453,#454,#455,#456),.UNSPECIFIED.,.F.,.F.,(4,
3,3,3,3,4),(0.,0.180140213664006,0.359845287703033,0.545872882999779,0.750997243469593,
1.),.UNSPECIFIED.);
#267=B_SPLINE_CURVE_WITH_KNOTS('',3,(#464,#465,#466,#467,#468,#469,#470,
#471,#472,#473,#474,#475,#476,#477,#478,#479),.UNSPECIFIED.,.F.,.F.,(4,
3,3,3,3,4),(0.,0.30020825837831,0.521920327949515,0.745398502010289,0.942064560714577,
1.),.UNSPECIFIED.);
#268=B_SPLINE_CURVE_WITH_KNOTS('',3,(#483,#484,#485,#486,#487,#488,#489,
#490,#491,#492,#493,#494,#495,#496,#497,#498),.UNSPECIFIED.,.F.,.F.,(4,
3,3,3,3,4),(0.,0.180140213664006,0.359845287703032,0.545872882999776,0.750997243469592,
1.),.UNSPECIFIED.);
#269=B_SPLINE_CURVE_WITH_KNOTS('',3,(#504,#505,#506,#507),.UNSPECIFIED.,
 .F.,.F.,(4,4),(0.,1.),.UNSPECIFIED.);
#270=B_SPLINE_CURVE_WITH_KNOTS('',3,(#509,#510,#511,#512),.UNSPECIFIED.,
 .F.,.F.,(4,4),(0.,1.),.UNSPECIFIED.);
#271=B_SPLINE_CURVE_WITH_KNOTS('',3,(#516,#517,#518,#519),.UNSPECIFIED.,
 .F.,.F.,(4,4),(0.,1.),.UNSPECIFIED.);
#272=B_SPLINE_CURVE_WITH_KNOTS('',3,(#523,#524,#525,#526),.UNSPECIFIED.,
 .F.,.F.,(4,4),(0.,1.),.UNSPECIFIED.);
#273=PRESENTATION_LAYER_ASSIGNMENT('1','Layer 1',(#398,#264,#295,#296,#297,
#61,#62));
#274=STYLED_ITEM('',(#281),#398);
#275=STYLED_ITEM('',(#282),#264);
#276=STYLED_ITEM('',(#283),#295);
#277=STYLED_ITEM('',(#284),#296);
#278=STYLED_ITEM('',(#285),#297);
#279=STYLED_ITEM('',(#286),#61);
#280=STYLED_ITEM('',(#287),#62);
#281=PRESENTATION_STYLE_ASSIGNMENT((#288));
#282=PRESENTATION_STYLE_ASSIGNMENT((#256));
#283=PRESENTATION_STYLE_ASSIGNMENT((#257));
#284=PRESENTATION_STYLE_ASSIGNMENT((#258));
#285=PRESENTATION_STYLE_ASSIGNMENT((#259));
#286=PRESENTATION_STYLE_ASSIGNMENT((#51));
#287=PRESENTATION_STYLE_ASSIGNMENT((#52));
#288=POINT_STYLE('',#289,POSITIVE_LENGTH_MEASURE(3.),#290);
#289=PRE_DEFINED_POINT_MARKER_SYMBOL('plus');
#290=COLOUR_RGB('BLUE',0.,0.,0.998992904554818);
#291=COLOUR_RGB('Deep Lemon',1.,0.909788662546731,0.384298466468299);
#292=COLOUR_RGB('LIGHT GREY',0.8,0.8,0.8);
#293=COLOUR_RGB('GREY',0.499992370489052,0.499992370489052,0.499992370489052);
#294=AXIS2_PLACEMENT_3D('',#397,#325,#326);
#295=AXIS2_PLACEMENT_3D('PCS',#406,#327,#328);
#296=AXIS2_PLACEMENT_3D('CIP',#407,#329,#330);
#297=AXIS2_PLACEMENT_3D('MCS',#408,#331,#332);
#298=AXIS2_PLACEMENT_3D('',#409,#333,#334);
#299=AXIS2_PLACEMENT_3D('',#411,#335,#336);
#300=AXIS2_PLACEMENT_3D('',#412,#337,#338);
#301=AXIS2_PLACEMENT_3D('',#414,#339,#340);
#302=AXIS2_PLACEMENT_3D('',#416,#341,#342);
#303=AXIS2_PLACEMENT_3D('',#417,#343,#344);
#304=AXIS2_PLACEMENT_3D('',#439,#346,#347);
#305=AXIS2_PLACEMENT_3D('',#460,#349,#350);
#306=AXIS2_PLACEMENT_3D('',#481,#352,#353);
#307=AXIS2_PLACEMENT_3D('',#502,#355,#356);
#308=AXIS2_PLACEMENT_3D('',#503,#357,#358);
#309=AXIS2_PLACEMENT_3D('',#514,#359,#360);
#310=AXIS2_PLACEMENT_3D('',#515,#361,#362);
#311=AXIS2_PLACEMENT_3D('',#521,#363,#364);
#312=AXIS2_PLACEMENT_3D('',#527,#365,#366);
#313=AXIS2_PLACEMENT_3D('',#530,#369,#370);
#314=AXIS2_PLACEMENT_3D('',#531,#371,#372);
#315=AXIS2_PLACEMENT_3D('',#533,#373,#374);
#316=AXIS2_PLACEMENT_3D('',#535,#375,#376);
#317=AXIS2_PLACEMENT_3D('',#536,#377,#378);
#318=AXIS2_PLACEMENT_3D('',#537,#379,#380);
#319=AXIS2_PLACEMENT_3D('',#539,#382,#383);
#320=AXIS2_PLACEMENT_3D('',#541,#385,#386);
#321=AXIS2_PLACEMENT_3D('',#542,#387,#388);
#322=AXIS2_PLACEMENT_3D('',#544,#390,#391);
#323=AXIS2_PLACEMENT_3D('',#546,#393,#394);
#324=AXIS2_PLACEMENT_3D('',#547,#395,#396);
#325=DIRECTION('',(0.,0.,1.));
#326=DIRECTION('',(1.,0.,0.));
#327=DIRECTION('',(0.,0.,1.));
#328=DIRECTION('',(1.,0.,0.));
#329=DIRECTION('',(0.,0.,1.));
#330=DIRECTION('',(1.,0.,0.));
#331=DIRECTION('',(0.,0.,1.));
#332=DIRECTION('',(1.,0.,0.));
#333=DIRECTION('',(0.,0.,-1.));
#334=DIRECTION('',(-0.604776232761767,-0.796395447178401,0.));
#335=DIRECTION('',(0.,0.,-1.));
#336=DIRECTION('',(-0.604776232761767,-0.796395447178401,0.));
#337=DIRECTION('',(0.,0.,1.));
#338=DIRECTION('',(0.604776232761767,0.796395447178401,0.));
#339=DIRECTION('',(0.,0.,-1.));
#340=DIRECTION('',(-0.604776232761767,-0.796395447178401,3.87267731242995E-15));
#341=DIRECTION('',(0.,0.,1.));
#342=DIRECTION('',(0.604776232761767,0.796395447178401,-2.08366809787788E-17));
#343=DIRECTION('',(0.,0.,1.));
#344=DIRECTION('',(0.604776232761767,0.796395447178401,0.));
#345=DIRECTION('',(0.,0.,1.));
#346=DIRECTION('',(0.,0.,1.));
#347=DIRECTION('',(0.604776232761767,0.796395447178401,0.));
#348=DIRECTION('',(0.,0.,-1.));
#349=DIRECTION('',(0.,0.,1.));
#350=DIRECTION('',(0.604776232761767,0.796395447178401,0.));
#351=DIRECTION('',(0.,0.,1.));
#352=DIRECTION('',(0.,0.,1.));
#353=DIRECTION('',(0.604776232761767,0.796395447178401,0.));
#354=DIRECTION('',(0.,0.,-1.));
#355=DIRECTION('',(0.,0.,1.));
#356=DIRECTION('',(0.604776232761767,0.796395447178401,0.));
#357=DIRECTION('',(0.,0.,1.));
#358=DIRECTION('',(0.604776232761767,0.796395447178401,0.));
#359=DIRECTION('',(0.,0.,1.));
#360=DIRECTION('',(0.604776232761767,0.796395447178401,0.));
#361=DIRECTION('',(0.,0.,-1.));
#362=DIRECTION('',(-0.604776232761767,-0.796395447178401,-9.69748087394067E-17));
#363=DIRECTION('',(0.,0.,1.));
#364=DIRECTION('',(0.604776232761767,0.796395447178401,0.));
#365=DIRECTION('',(0.,0.,-1.));
#366=DIRECTION('',(-0.604776232761767,-0.796395447178401,-9.69748087394067E-17));
#367=DIRECTION('',(-0.0640998389698911,-0.997943490706781,0.));
#368=DIRECTION('',(0.0640998389698911,0.997943490706781,0.));
#369=DIRECTION('',(0.,0.,-1.));
#370=DIRECTION('',(-0.604776232761767,-0.796395447178401,0.));
#371=DIRECTION('',(0.,0.,1.));
#372=DIRECTION('',(0.604776232761767,0.796395447178401,0.));
#373=DIRECTION('',(0.,0.,-1.));
#374=DIRECTION('',(-0.604776232761767,-0.796395447178401,0.));
#375=DIRECTION('',(0.,0.,-1.));
#376=DIRECTION('',(-0.604776232761767,-0.796395447178401,3.87267731242995E-15));
#377=DIRECTION('',(0.,0.,1.));
#378=DIRECTION('',(0.604776232761767,0.796395447178401,0.));
#379=DIRECTION('',(0.,0.,-1.));
#380=DIRECTION('',(-0.604776232761767,-0.796395447178401,0.));
#381=DIRECTION('',(-0.0640998389698911,-0.99794349070678,0.));
#382=DIRECTION('',(0.,0.,1.));
#383=DIRECTION('',(0.604776232761767,0.796395447178401,0.));
#384=DIRECTION('',(-0.0640998389698911,-0.99794349070678,0.));
#385=DIRECTION('',(-0.99794349070678,0.0640998389698911,-8.36636020390145E-17));
#386=DIRECTION('',(0.0640998389698911,0.997943490706781,0.));
#387=DIRECTION('',(-0.0640998389698911,-0.99794349070678,0.));
#388=DIRECTION('',(-0.99794349070678,0.0640998389698904,0.));
#389=DIRECTION('',(-0.0640998389698911,-0.99794349070678,0.));
#390=DIRECTION('',(0.,0.,1.));
#391=DIRECTION('',(0.604776232761767,0.796395447178401,0.));
#392=DIRECTION('',(-0.0640998389698911,-0.99794349070678,0.));
#393=DIRECTION('',(-0.0640998389698911,-0.99794349070678,0.));
#394=DIRECTION('',(-0.99794349070678,0.0640998389698915,0.));
#395=DIRECTION('',(0.99794349070678,-0.0640998389698911,-1.57554305662114E-17));
#396=DIRECTION('',(-0.0640998389698911,-0.997943490706781,0.));
#397=CARTESIAN_POINT('',(0.,0.,0.));
#398=CARTESIAN_POINT('CRP',(-2.22044604925031E-16,1.75000000000001,-54.9484939167044));
#399=CARTESIAN_POINT('',(0.,1.74967853951466,-47.2500000000053));
#400=CARTESIAN_POINT('',(-1.11022302462516E-16,1.74978569300978,-49.816164638905));
#401=CARTESIAN_POINT('',(-3.33066907387547E-16,1.74989284650489,-52.3823292778047));
#402=CARTESIAN_POINT('',(-2.22044604925031E-16,1.75000000000001,-54.9484939167031));
#403=CARTESIAN_POINT('',(-1.11022302462516E-16,1.16666666666667,-55.2989959444678));
#404=CARTESIAN_POINT('',(-5.55111512312578E-17,0.583333333333333,-55.6494979722339));
#405=CARTESIAN_POINT('',(5.18797185819886E-17,-6.17326096793988E-15,-56.));
#406=CARTESIAN_POINT('',(0.,0.,0.));
#407=CARTESIAN_POINT('',(0.,0.,-56.));
#408=CARTESIAN_POINT('',(0.,0.,-29.2));
#409=CARTESIAN_POINT('',(0.,0.,-47.25));
#410=CARTESIAN_POINT('',(-1.05816399567179,-1.39343602289523,-47.25));
#411=CARTESIAN_POINT('',(0.,0.,-47.25));
#412=CARTESIAN_POINT('',(0.,0.,-54.9484939167018));
#413=CARTESIAN_POINT('',(1.0583584073331,1.39369203256221,-54.9484939167018));
#414=CARTESIAN_POINT('',(0.,0.,-54.9484939167018));
#415=CARTESIAN_POINT('',(0.,0.,-56.));
#416=CARTESIAN_POINT('',(0.,0.,-55.5268222625158));
#417=CARTESIAN_POINT('',(0.,0.,-31.));
#418=CARTESIAN_POINT('',(1.05835840733309,1.3936920325622,-31.));
#419=CARTESIAN_POINT('',(0.898122233220311,1.5019575407432,-56.));
#420=CARTESIAN_POINT('',(0.898122233220308,1.5019575407432,-2.));
#421=CARTESIAN_POINT('',(0.898122233220312,1.5019575407432,-0.50518148554092));
#422=CARTESIAN_POINT('',(1.08999987585566,1.3690873860476,-2.2));
#423=CARTESIAN_POINT('',(1.06347582712901,1.39020452591308,-2.2));
#424=CARTESIAN_POINT('',(1.03575783510709,1.41092227740433,-2.1940329673947));
#425=CARTESIAN_POINT('',(1.00998526420009,1.42913602085269,-2.18164374242326));
#426=CARTESIAN_POINT('',(0.990838750023543,1.44266706121341,-2.17243975294127));
#427=CARTESIAN_POINT('',(0.97228543347303,1.45517329652261,-2.15943254340139));
#428=CARTESIAN_POINT('',(0.956212756916832,1.46565929312017,-2.14311983594933));
#429=CARTESIAN_POINT('',(0.940064808274285,1.47619439808113,-2.12673073229036));
#430=CARTESIAN_POINT('',(0.92596873626683,1.48499822006854,-2.10642785298007));
#431=CARTESIAN_POINT('',(0.915965786766398,1.49114274215227,-2.08401059957338));
#432=CARTESIAN_POINT('',(0.907141339545963,1.49656334442767,-2.0642344455994));
#433=CARTESIAN_POINT('',(0.901243649739676,1.50008872399772,-2.04219576301996));
#434=CARTESIAN_POINT('',(0.899090935270265,1.50137786386866,-2.02001347272831));
#435=CARTESIAN_POINT('',(0.898446602562199,1.50176371856325,-2.01337405288057));
#436=CARTESIAN_POINT('',(0.898122233220308,1.5019575407432,-2.00668176207288));
#437=CARTESIAN_POINT('',(0.898122233220308,1.5019575407432,-2.));
#438=CARTESIAN_POINT('',(1.08999987585566,1.3690873860476,-2.2));
#439=CARTESIAN_POINT('',(0.,0.,-2.2));
#440=CARTESIAN_POINT('',(0.90588710555789,-1.49728706398738,-2.2));
#441=CARTESIAN_POINT('',(0.698587351910523,-1.60451728309502,-2.));
#442=CARTESIAN_POINT('',(0.698587351910523,-1.60451728309502,-2.02043766820043));
#443=CARTESIAN_POINT('',(0.701929146388207,-1.60307291392456,-2.04115829478112));
#444=CARTESIAN_POINT('',(0.708217879848377,-1.60028979708772,-2.06040418716392));
#445=CARTESIAN_POINT('',(0.714498145588055,-1.59751042769154,-2.07962416513354));
#446=CARTESIAN_POINT('',(0.723862927013988,-1.59332426381224,-2.09788795599371));
#447=CARTESIAN_POINT('',(0.735332101316745,-1.58801344477088,-2.11391379223014));
#448=CARTESIAN_POINT('',(0.747214067100552,-1.58251148199069,-2.13051642052679));
#449=CARTESIAN_POINT('',(0.76162028532377,-1.57567114690908,-2.14513691753766));
#450=CARTESIAN_POINT('',(0.777267964910464,-1.56791406356469,-2.15705655483161));
#451=CARTESIAN_POINT('',(0.79451818597169,-1.55936254627806,-2.17019692987258));
#452=CARTESIAN_POINT('',(0.813656905510517,-1.5495020280077,-2.18038081955546));
#453=CARTESIAN_POINT('',(0.833204024013655,-1.53891879394835,-2.18740031710524));
#454=CARTESIAN_POINT('',(0.8568805971136,-1.52609978357607,-2.19590272869269));
#455=CARTESIAN_POINT('',(0.881729707079376,-1.51190274878948,-2.2));
#456=CARTESIAN_POINT('',(0.90588710555789,-1.49728706398738,-2.2));
#457=CARTESIAN_POINT('',(0.698587351910523,-1.60451728309502,-2.));
#458=CARTESIAN_POINT('',(0.698587351910526,-1.60451728309502,-56.));
#459=CARTESIAN_POINT('',(0.698587351910527,-1.60451728309502,-0.50518148554092));
#460=CARTESIAN_POINT('',(0.,0.,-0.50518148554092));
#461=CARTESIAN_POINT('',(-0.898122233220312,-1.5019575407432,-0.50518148554092));
#462=CARTESIAN_POINT('',(-0.898122233220308,-1.5019575407432,-56.));
#463=CARTESIAN_POINT('',(-0.898122233220312,-1.5019575407432,-2.));
#464=CARTESIAN_POINT('',(-1.08999987585566,-1.3690873860476,-2.2));
#465=CARTESIAN_POINT('',(-1.06347582712901,-1.39020452591308,-2.2));
#466=CARTESIAN_POINT('',(-1.03575783510709,-1.41092227740433,-2.19403296739469));
#467=CARTESIAN_POINT('',(-1.00998526420009,-1.42913602085269,-2.18164374242326));
#468=CARTESIAN_POINT('',(-0.990838750023544,-1.44266706121341,-2.17243975294127));
#469=CARTESIAN_POINT('',(-0.972285433473031,-1.45517329652261,-2.15943254340138));
#470=CARTESIAN_POINT('',(-0.956212756916833,-1.46565929312016,-2.14311983594933));
#471=CARTESIAN_POINT('',(-0.940064808274286,-1.47619439808113,-2.12673073229036));
#472=CARTESIAN_POINT('',(-0.925968736266832,-1.48499822006854,-2.10642785298007));
#473=CARTESIAN_POINT('',(-0.9159657867664,-1.49114274215227,-2.08401059957338));
#474=CARTESIAN_POINT('',(-0.907141339545965,-1.49656334442766,-2.0642344455994));
#475=CARTESIAN_POINT('',(-0.901243649739679,-1.50008872399771,-2.04219576301996));
#476=CARTESIAN_POINT('',(-0.899090935270268,-1.50137786386866,-2.02001347272831));
#477=CARTESIAN_POINT('',(-0.898446602562202,-1.50176371856325,-2.01337405288057));
#478=CARTESIAN_POINT('',(-0.898122233220312,-1.5019575407432,-2.00668176207288));
#479=CARTESIAN_POINT('',(-0.898122233220312,-1.5019575407432,-2.));
#480=CARTESIAN_POINT('',(-1.08999987585566,-1.3690873860476,-2.2));
#481=CARTESIAN_POINT('',(0.,0.,-2.2));
#482=CARTESIAN_POINT('',(-0.905887105557889,1.49728706398738,-2.2));
#483=CARTESIAN_POINT('',(-0.698587351910526,1.60451728309502,-2.));
#484=CARTESIAN_POINT('',(-0.698587351910526,1.60451728309502,-2.02043766820043));
#485=CARTESIAN_POINT('',(-0.701929146388209,1.60307291392456,-2.04115829478112));
#486=CARTESIAN_POINT('',(-0.708217879848379,1.60028979708772,-2.06040418716392));
#487=CARTESIAN_POINT('',(-0.714498145588058,1.59751042769154,-2.07962416513354));
#488=CARTESIAN_POINT('',(-0.72386292701399,1.59332426381224,-2.09788795599371));
#489=CARTESIAN_POINT('',(-0.735332101316748,1.58801344477088,-2.11391379223013));
#490=CARTESIAN_POINT('',(-0.747214067100554,1.58251148199069,-2.13051642052678));
#491=CARTESIAN_POINT('',(-0.761620285323772,1.57567114690908,-2.14513691753766));
#492=CARTESIAN_POINT('',(-0.777267964910465,1.56791406356469,-2.1570565548316));
#493=CARTESIAN_POINT('',(-0.794518185971691,1.55936254627806,-2.17019692987258));
#494=CARTESIAN_POINT('',(-0.813656905510518,1.5495020280077,-2.18038081955545));
#495=CARTESIAN_POINT('',(-0.833204024013655,1.53891879394835,-2.18740031710524));
#496=CARTESIAN_POINT('',(-0.8568805971136,1.52609978357607,-2.19590272869269));
#497=CARTESIAN_POINT('',(-0.881729707079375,1.51190274878948,-2.2));
#498=CARTESIAN_POINT('',(-0.905887105557889,1.49728706398738,-2.2));
#499=CARTESIAN_POINT('',(-0.698587351910526,1.60451728309502,-2.));
#500=CARTESIAN_POINT('',(-0.698587351910522,1.60451728309502,-56.));
#501=CARTESIAN_POINT('',(-0.698587351910527,1.60451728309502,-0.50518148554092));
#502=CARTESIAN_POINT('',(0.,0.,-0.50518148554092));
#503=CARTESIAN_POINT('',(0.,0.,-56.));
#504=CARTESIAN_POINT('',(0.898122233220313,1.5019575407432,-0.505181485540922));
#505=CARTESIAN_POINT('',(0.885575671132566,1.30662538129587,-0.331096367716317));
#506=CARTESIAN_POINT('',(0.872862873754535,1.10870517438177,-0.159864513239626));
#507=CARTESIAN_POINT('',(0.85948779847226,0.900474240729522,2.98011303257763E-16));
#508=CARTESIAN_POINT('',(0.85948779847226,0.900474240729522,0.));
#509=CARTESIAN_POINT('',(-0.737221786658579,1.00303398308135,2.28948065823617E-15));
#510=CARTESIAN_POINT('',(-0.723877771582344,1.2107813534215,-0.15949326862119));
#511=CARTESIAN_POINT('',(-0.711132035272925,1.40921437273415,-0.33112243526544));
#512=CARTESIAN_POINT('',(-0.698587351910527,1.60451728309502,-0.50518148554092));
#513=CARTESIAN_POINT('',(-0.73722178665858,1.00303398308135,0.));
#514=CARTESIAN_POINT('',(0.,0.,0.));
#515=CARTESIAN_POINT('',(0.,0.,-0.50518148554092));
#516=CARTESIAN_POINT('',(0.73722178665858,-1.00303398308135,2.63148264424867E-15));
#517=CARTESIAN_POINT('',(0.723877771582345,-1.2107813534215,-0.159493268621189));
#518=CARTESIAN_POINT('',(0.711132035272925,-1.40921437273415,-0.33112243526544));
#519=CARTESIAN_POINT('',(0.698587351910527,-1.60451728309502,-0.50518148554092));
#520=CARTESIAN_POINT('',(0.73722178665858,-1.00303398308135,0.));
#521=CARTESIAN_POINT('',(0.,0.,0.));
#522=CARTESIAN_POINT('',(-0.85948779847226,-0.900474240729523,0.));
#523=CARTESIAN_POINT('',(-0.898122233220312,-1.5019575407432,-0.50518148554092));
#524=CARTESIAN_POINT('',(-0.885575671132566,-1.30662538129587,-0.331096367716316));
#525=CARTESIAN_POINT('',(-0.872862873754534,-1.10870517438177,-0.159864513239625));
#526=CARTESIAN_POINT('',(-0.85948779847226,-0.900474240729522,2.29134648480192E-16));
#527=CARTESIAN_POINT('',(0.,0.,-0.50518148554092));
#528=CARTESIAN_POINT('',(0.842438938883723,0.63504770107244,0.));
#529=CARTESIAN_POINT('',(-0.754270646247117,0.737607443424265,0.));
#530=CARTESIAN_POINT('',(-0.991367797478588,0.75283665164666,0.));
#531=CARTESIAN_POINT('',(0.,0.,-31.000001745331));
#532=CARTESIAN_POINT('',(1.05775363110033,1.39289563711502,-31.000001745331));
#533=CARTESIAN_POINT('',(0.,0.,-47.25));
#534=CARTESIAN_POINT('',(-1.05816399567179,-1.39343602289523,-47.25));
#535=CARTESIAN_POINT('',(0.,0.,-54.9484939167018));
#536=CARTESIAN_POINT('',(-1.39289563711502,1.05775363110033,-31.0000008726655));
#537=CARTESIAN_POINT('',(0.,0.,-47.25));
#538=CARTESIAN_POINT('',(-0.773594054312156,3.55690205644361,-2.2));
#539=CARTESIAN_POINT('',(-0.773594054312156,3.55690205644362,-2.2));
#540=CARTESIAN_POINT('',(-0.574005356170801,3.54408208864964,-2.));
#541=CARTESIAN_POINT('',(-0.574005356170801,3.54408208864964,2.));
#542=CARTESIAN_POINT('',(-0.773594054312157,3.55690205644361,-2.));
#543=CARTESIAN_POINT('',(1.22229292710139,3.42870237850384,-2.2));
#544=CARTESIAN_POINT('',(3.11838555944427,3.30691268446105,-2.2));
#545=CARTESIAN_POINT('',(1.02270422896003,3.44152234629782,-2.));
#546=CARTESIAN_POINT('',(1.22229292710139,3.42870237850384,-2.));
#547=CARTESIAN_POINT('',(1.02270422896004,3.44152234629782,-2.));
#548=MECHANICAL_DESIGN_GEOMETRIC_PRESENTATION_REPRESENTATION('',(#274,#275,
#276,#277,#278,#279,#280),#549);
#549=(
GEOMETRIC_REPRESENTATION_CONTEXT(3)
GLOBAL_UNCERTAINTY_ASSIGNED_CONTEXT((#550))
GLOBAL_UNIT_ASSIGNED_CONTEXT((#556,#552,#551))
REPRESENTATION_CONTEXT('CAPP~~210908185045~5968726~MOD~TM01_00~ISO~FR',
'TOP_LEVEL_ASSEMBLY_PART')
);
#550=UNCERTAINTY_MEASURE_WITH_UNIT(LENGTH_MEASURE(0.0508),#556,
'DISTANCE_ACCURACY_VALUE','Maximum Tolerance applied to model');
#551=(
NAMED_UNIT(*)
SI_UNIT($,.STERADIAN.)
SOLID_ANGLE_UNIT()
);
#552=(
CONVERSION_BASED_UNIT('DEGREE',#554)
NAMED_UNIT(#553)
PLANE_ANGLE_UNIT()
);
#553=DIMENSIONAL_EXPONENTS(0.,0.,0.,0.,0.,0.,0.);
#554=PLANE_ANGLE_MEASURE_WITH_UNIT(PLANE_ANGLE_MEASURE(0.0174532925),#555);
#555=(
NAMED_UNIT(*)
PLANE_ANGLE_UNIT()
SI_UNIT($,.RADIAN.)
);
#556=(
LENGTH_UNIT()
NAMED_UNIT(*)
SI_UNIT(.MILLI.,.METRE.)
);
ENDSEC;
END-ISO-10303-21;
