ISO-10303-21;
HEADER;
/* Generated by software containing ST-Developer
 * from STEP Tools, Inc. (www.steptools.com) 
 */
/* OPTION: using custom schema-name function */

FILE_DESCRIPTION(
/* description */ ('A12414.0'),
/* implementation_level */ '2;1');

FILE_NAME(
/* name */ 'CAPP~~210908185027~5968707~MOD~TM01_00~ISO~FR.STP',
/* time_stamp */ '2021-09-08T18:51:26+02:00',
/* author */ ('System'),
/* organization */ ('Dormer Pramet'),
/* preprocessor_version */ 'ST-DEVELOPER v16.7',
/* originating_system */ 'SIEMENS PLM Software NX 12.0',
/* authorisation */ '');

FILE_SCHEMA (('AUTOMOTIVE_DESIGN { 1 0 10303 214 3 1 1 1 }'));
ENDSEC;

DATA;
#10=CONSTRUCTIVE_GEOMETRY_REPRESENTATION_RELATIONSHIP(
'supplemental geometry','',#26,#11);
#11=CONSTRUCTIVE_GEOMETRY_REPRESENTATION('supplemental geometry',(#295,
#296,#297),#549);
#12=GEOMETRICALLY_BOUNDED_WIREFRAME_SHAPE_REPRESENTATION(
'CAPP~~210908185027~5968707~MOD~TM01_00~ISO~FR-None',(#27),#549);
#13=SHAPE_REPRESENTATION_RELATIONSHIP('None',
'relationship between CAPP~~210908185027~5968707~MOD~TM01_00~ISO~FR-No
ne and CAPP~~210908185027~5968707~MOD~TM01_00~ISO~FR-None',#26,#15);
#14=SHAPE_REPRESENTATION_RELATIONSHIP('None',
'relationship between CAPP~~210908185027~5968707~MOD~TM01_00~ISO~FR-No
ne and CAPP~~210908185027~5968707~MOD~TM01_00~ISO~FR-None',#26,#12);
#15=ADVANCED_BREP_SHAPE_REPRESENTATION(
'CAPP~~210908185027~5968707~MOD~TM01_00~ISO~FR-None',(#61,#62),#549);
#16=SHAPE_DEFINITION_REPRESENTATION(#17,#26);
#17=PRODUCT_DEFINITION_SHAPE('','',#18);
#18=PRODUCT_DEFINITION(' ','',#20,#19);
#19=PRODUCT_DEFINITION_CONTEXT('part definition',#25,'design');
#20=PRODUCT_DEFINITION_FORMATION_WITH_SPECIFIED_SOURCE(' ',' ',#22,
 .NOT_KNOWN.);
#21=PRODUCT_RELATED_PRODUCT_CATEGORY('part','',(#22));
#22=PRODUCT('CAPP~~210908185027~5968707~MOD~TM01_00~ISO~FR',
'CAPP~~210908185027~5968707~MOD~TM01_00~ISO~FR',' ',(#23));
#23=PRODUCT_CONTEXT(' ',#25,'mechanical');
#24=APPLICATION_PROTOCOL_DEFINITION('international standard',
'automotive_design',2010,#25);
#25=APPLICATION_CONTEXT(
'core data for automotive mechanical design processes');
#26=SHAPE_REPRESENTATION(
'CAPP~~210908185027~5968707~MOD~TM01_00~ISO~FR-None',(#294),#549);
#27=GEOMETRIC_CURVE_SET('None',(#398,#264));
#28=CYLINDRICAL_SURFACE('',#308,7.);
#29=CYLINDRICAL_SURFACE('',#321,0.4);
#30=CYLINDRICAL_SURFACE('',#323,0.400000000000006);
#31=LINE('',#419,#41);
#32=LINE('',#458,#42);
#33=LINE('',#462,#43);
#34=LINE('',#500,#44);
#35=LINE('',#528,#45);
#36=LINE('',#529,#46);
#37=LINE('',#538,#47);
#38=LINE('',#540,#48);
#39=LINE('',#543,#49);
#40=LINE('',#545,#50);
#41=VECTOR('',#345,1.);
#42=VECTOR('',#348,1.);
#43=VECTOR('',#351,1.);
#44=VECTOR('',#354,1.);
#45=VECTOR('',#367,1.);
#46=VECTOR('',#368,1.);
#47=VECTOR('',#381,1.);
#48=VECTOR('',#384,1.);
#49=VECTOR('',#389,1.);
#50=VECTOR('',#392,1.);
#51=SURFACE_STYLE_USAGE(.BOTH.,#53);
#52=SURFACE_STYLE_USAGE(.BOTH.,#54);
#53=SURFACE_SIDE_STYLE('',(#55));
#54=SURFACE_SIDE_STYLE('',(#56));
#55=SURFACE_STYLE_FILL_AREA(#57);
#56=SURFACE_STYLE_FILL_AREA(#58);
#57=FILL_AREA_STYLE('',(#59));
#58=FILL_AREA_STYLE('',(#60));
#59=FILL_AREA_STYLE_COLOUR('',#292);
#60=FILL_AREA_STYLE_COLOUR('',#293);
#61=MANIFOLD_SOLID_BREP('CUT',#63);
#62=MANIFOLD_SOLID_BREP('NOCUT',#64);
#63=CLOSED_SHELL('',(#81,#82,#83));
#64=CLOSED_SHELL('',(#84,#85,#86,#87,#88,#89,#90,#91,#92,#93,#94,#95,#96));
#65=VERTEX_LOOP('',#196);
#66=CONICAL_SURFACE('',#301,7.,0.000857798632803515);
#67=CONICAL_SURFACE('',#302,3.15,59.);
#68=CONICAL_SURFACE('',#310,7.,44.9999999999999);
#69=CONICAL_SURFACE('',#312,7.,44.9999999999999);
#70=CONICAL_SURFACE('',#316,7.,0.000857798632803515);
#71=FACE_BOUND('',#117,.T.);
#72=FACE_BOUND('',#118,.T.);
#73=FACE_BOUND('',#119,.T.);
#74=FACE_BOUND('',#65,.T.);
#75=FACE_BOUND('',#120,.T.);
#76=FACE_BOUND('',#121,.T.);
#77=FACE_BOUND('',#125,.T.);
#78=FACE_BOUND('',#126,.T.);
#79=FACE_BOUND('',#127,.T.);
#80=FACE_BOUND('',#128,.T.);
#81=ADVANCED_FACE('',(#105),#97,.F.);
#82=ADVANCED_FACE('',(#71,#72),#66,.T.);
#83=ADVANCED_FACE('',(#73,#74),#67,.T.);
#84=ADVANCED_FACE('',(#75,#76),#28,.T.);
#85=ADVANCED_FACE('',(#106),#68,.T.);
#86=ADVANCED_FACE('',(#107),#69,.T.);
#87=ADVANCED_FACE('',(#108),#98,.F.);
#88=ADVANCED_FACE('',(#77,#78),#70,.T.);
#89=ADVANCED_FACE('',(#79,#80),#99,.F.);
#90=ADVANCED_FACE('',(#109),#100,.T.);
#91=ADVANCED_FACE('',(#110),#101,.T.);
#92=ADVANCED_FACE('',(#111),#102,.T.);
#93=ADVANCED_FACE('',(#112),#29,.F.);
#94=ADVANCED_FACE('',(#113),#103,.T.);
#95=ADVANCED_FACE('',(#114),#30,.F.);
#96=ADVANCED_FACE('',(#115),#104,.T.);
#97=PLANE('',#299);
#98=PLANE('',#313);
#99=PLANE('',#317);
#100=PLANE('',#318);
#101=PLANE('',#319);
#102=PLANE('',#320);
#103=PLANE('',#322);
#104=PLANE('',#324);
#105=FACE_OUTER_BOUND('',#116,.T.);
#106=FACE_OUTER_BOUND('',#122,.T.);
#107=FACE_OUTER_BOUND('',#123,.T.);
#108=FACE_OUTER_BOUND('',#124,.T.);
#109=FACE_OUTER_BOUND('',#129,.T.);
#110=FACE_OUTER_BOUND('',#130,.T.);
#111=FACE_OUTER_BOUND('',#131,.T.);
#112=FACE_OUTER_BOUND('',#132,.T.);
#113=FACE_OUTER_BOUND('',#133,.T.);
#114=FACE_OUTER_BOUND('',#134,.T.);
#115=FACE_OUTER_BOUND('',#135,.T.);
#116=EDGE_LOOP('',(#136));
#117=EDGE_LOOP('',(#137));
#118=EDGE_LOOP('',(#138));
#119=EDGE_LOOP('',(#139));
#120=EDGE_LOOP('',(#140));
#121=EDGE_LOOP('',(#141,#142,#143,#144,#145,#146,#147,#148,#149,#150,#151,
#152));
#122=EDGE_LOOP('',(#153,#154,#155,#156));
#123=EDGE_LOOP('',(#157,#158,#159,#160));
#124=EDGE_LOOP('',(#161,#162,#163,#164));
#125=EDGE_LOOP('',(#165));
#126=EDGE_LOOP('',(#166));
#127=EDGE_LOOP('',(#167));
#128=EDGE_LOOP('',(#168));
#129=EDGE_LOOP('',(#169));
#130=EDGE_LOOP('',(#170,#171));
#131=EDGE_LOOP('',(#172,#173,#174,#175,#176,#177));
#132=EDGE_LOOP('',(#178,#179,#180,#181));
#133=EDGE_LOOP('',(#182,#183));
#134=EDGE_LOOP('',(#184,#185,#186,#187));
#135=EDGE_LOOP('',(#188,#189,#190,#191,#192,#193));
#136=ORIENTED_EDGE('',*,*,#216,.F.);
#137=ORIENTED_EDGE('',*,*,#216,.T.);
#138=ORIENTED_EDGE('',*,*,#217,.T.);
#139=ORIENTED_EDGE('',*,*,#217,.F.);
#140=ORIENTED_EDGE('',*,*,#218,.T.);
#141=ORIENTED_EDGE('',*,*,#219,.F.);
#142=ORIENTED_EDGE('',*,*,#220,.F.);
#143=ORIENTED_EDGE('',*,*,#221,.F.);
#144=ORIENTED_EDGE('',*,*,#222,.F.);
#145=ORIENTED_EDGE('',*,*,#223,.F.);
#146=ORIENTED_EDGE('',*,*,#224,.F.);
#147=ORIENTED_EDGE('',*,*,#225,.F.);
#148=ORIENTED_EDGE('',*,*,#226,.F.);
#149=ORIENTED_EDGE('',*,*,#227,.F.);
#150=ORIENTED_EDGE('',*,*,#228,.F.);
#151=ORIENTED_EDGE('',*,*,#229,.F.);
#152=ORIENTED_EDGE('',*,*,#230,.F.);
#153=ORIENTED_EDGE('',*,*,#231,.F.);
#154=ORIENTED_EDGE('',*,*,#230,.T.);
#155=ORIENTED_EDGE('',*,*,#232,.F.);
#156=ORIENTED_EDGE('',*,*,#233,.F.);
#157=ORIENTED_EDGE('',*,*,#234,.F.);
#158=ORIENTED_EDGE('',*,*,#235,.F.);
#159=ORIENTED_EDGE('',*,*,#236,.F.);
#160=ORIENTED_EDGE('',*,*,#224,.T.);
#161=ORIENTED_EDGE('',*,*,#237,.F.);
#162=ORIENTED_EDGE('',*,*,#233,.T.);
#163=ORIENTED_EDGE('',*,*,#238,.F.);
#164=ORIENTED_EDGE('',*,*,#235,.T.);
#165=ORIENTED_EDGE('',*,*,#239,.F.);
#166=ORIENTED_EDGE('',*,*,#240,.F.);
#167=ORIENTED_EDGE('',*,*,#218,.F.);
#168=ORIENTED_EDGE('',*,*,#239,.T.);
#169=ORIENTED_EDGE('',*,*,#240,.T.);
#170=ORIENTED_EDGE('',*,*,#227,.T.);
#171=ORIENTED_EDGE('',*,*,#241,.F.);
#172=ORIENTED_EDGE('',*,*,#225,.T.);
#173=ORIENTED_EDGE('',*,*,#236,.T.);
#174=ORIENTED_EDGE('',*,*,#238,.T.);
#175=ORIENTED_EDGE('',*,*,#232,.T.);
#176=ORIENTED_EDGE('',*,*,#229,.T.);
#177=ORIENTED_EDGE('',*,*,#242,.T.);
#178=ORIENTED_EDGE('',*,*,#228,.T.);
#179=ORIENTED_EDGE('',*,*,#241,.T.);
#180=ORIENTED_EDGE('',*,*,#226,.T.);
#181=ORIENTED_EDGE('',*,*,#242,.F.);
#182=ORIENTED_EDGE('',*,*,#221,.T.);
#183=ORIENTED_EDGE('',*,*,#243,.T.);
#184=ORIENTED_EDGE('',*,*,#220,.T.);
#185=ORIENTED_EDGE('',*,*,#244,.T.);
#186=ORIENTED_EDGE('',*,*,#222,.T.);
#187=ORIENTED_EDGE('',*,*,#243,.F.);
#188=ORIENTED_EDGE('',*,*,#219,.T.);
#189=ORIENTED_EDGE('',*,*,#231,.T.);
#190=ORIENTED_EDGE('',*,*,#237,.T.);
#191=ORIENTED_EDGE('',*,*,#234,.T.);
#192=ORIENTED_EDGE('',*,*,#223,.T.);
#193=ORIENTED_EDGE('',*,*,#244,.F.);
#194=VERTEX_POINT('',#410);
#195=VERTEX_POINT('',#413);
#196=VERTEX_POINT('',#415);
#197=VERTEX_POINT('',#418);
#198=VERTEX_POINT('',#420);
#199=VERTEX_POINT('',#421);
#200=VERTEX_POINT('',#438);
#201=VERTEX_POINT('',#440);
#202=VERTEX_POINT('',#457);
#203=VERTEX_POINT('',#459);
#204=VERTEX_POINT('',#461);
#205=VERTEX_POINT('',#463);
#206=VERTEX_POINT('',#480);
#207=VERTEX_POINT('',#482);
#208=VERTEX_POINT('',#499);
#209=VERTEX_POINT('',#501);
#210=VERTEX_POINT('',#508);
#211=VERTEX_POINT('',#513);
#212=VERTEX_POINT('',#520);
#213=VERTEX_POINT('',#522);
#214=VERTEX_POINT('',#532);
#215=VERTEX_POINT('',#534);
#216=EDGE_CURVE('',#194,#194,#245,.T.);
#217=EDGE_CURVE('',#195,#195,#246,.T.);
#218=EDGE_CURVE('',#197,#197,#247,.T.);
#219=EDGE_CURVE('',#198,#199,#31,.T.);
#220=EDGE_CURVE('',#200,#198,#265,.T.);
#221=EDGE_CURVE('',#201,#200,#248,.T.);
#222=EDGE_CURVE('',#202,#201,#266,.T.);
#223=EDGE_CURVE('',#203,#202,#32,.T.);
#224=EDGE_CURVE('',#204,#203,#249,.T.);
#225=EDGE_CURVE('',#205,#204,#33,.T.);
#226=EDGE_CURVE('',#206,#205,#267,.T.);
#227=EDGE_CURVE('',#207,#206,#250,.T.);
#228=EDGE_CURVE('',#208,#207,#268,.T.);
#229=EDGE_CURVE('',#209,#208,#34,.T.);
#230=EDGE_CURVE('',#199,#209,#251,.T.);
#231=EDGE_CURVE('',#199,#210,#269,.T.);
#232=EDGE_CURVE('',#211,#209,#270,.T.);
#233=EDGE_CURVE('',#210,#211,#252,.T.);
#234=EDGE_CURVE('',#212,#203,#271,.T.);
#235=EDGE_CURVE('',#213,#212,#253,.T.);
#236=EDGE_CURVE('',#204,#213,#272,.T.);
#237=EDGE_CURVE('',#210,#212,#35,.T.);
#238=EDGE_CURVE('',#213,#211,#36,.T.);
#239=EDGE_CURVE('',#214,#214,#254,.T.);
#240=EDGE_CURVE('',#215,#215,#255,.T.);
#241=EDGE_CURVE('',#207,#206,#37,.T.);
#242=EDGE_CURVE('',#208,#205,#38,.T.);
#243=EDGE_CURVE('',#200,#201,#39,.T.);
#244=EDGE_CURVE('',#198,#202,#40,.T.);
#245=CIRCLE('',#298,6.99953897075051);
#246=CIRCLE('',#300,7.);
#247=CIRCLE('',#303,6.99999999999999);
#248=CIRCLE('',#304,7.);
#249=CIRCLE('',#305,7.);
#250=CIRCLE('',#306,7.);
#251=CIRCLE('',#307,7.);
#252=CIRCLE('',#309,4.97927405783631);
#253=CIRCLE('',#311,4.97927405783631);
#254=CIRCLE('',#314,6.99899999999999);
#255=CIRCLE('',#315,6.99953897075051);
#256=CURVE_STYLE('',#260,POSITIVE_LENGTH_MEASURE(0.18),#290);
#257=CURVE_STYLE('',#261,POSITIVE_LENGTH_MEASURE(0.13),#291);
#258=CURVE_STYLE('',#262,POSITIVE_LENGTH_MEASURE(0.13),#291);
#259=CURVE_STYLE('',#263,POSITIVE_LENGTH_MEASURE(0.13),#291);
#260=DRAUGHTING_PRE_DEFINED_CURVE_FONT('continuous');
#261=DRAUGHTING_PRE_DEFINED_CURVE_FONT('continuous');
#262=DRAUGHTING_PRE_DEFINED_CURVE_FONT('continuous');
#263=DRAUGHTING_PRE_DEFINED_CURVE_FONT('continuous');
#264=B_SPLINE_CURVE_WITH_KNOTS('CUTTING PART LINE',3,(#399,#400,#401,#402,
#403,#404,#405),.UNSPECIFIED.,.F.,.F.,(4,3,4),(0.,0.209608520434923,1.),
 .UNSPECIFIED.);
#265=B_SPLINE_CURVE_WITH_KNOTS('',3,(#422,#423,#424,#425,#426,#427,#428,
#429,#430,#431,#432,#433,#434,#435,#436,#437),.UNSPECIFIED.,.F.,.F.,(4,
3,3,3,3,4),(0.,0.298830834913659,0.526272612883027,0.755811436148367,0.953512740608854,
1.),.UNSPECIFIED.);
#266=B_SPLINE_CURVE_WITH_KNOTS('',3,(#441,#442,#443,#444,#445,#446,#447,
#448,#449,#450,#451,#452,#453,#454,#455,#456),.UNSPECIFIED.,.F.,.F.,(4,
3,3,3,3,4),(0.,0.176721581954763,0.352860553685538,0.537276184826456,0.745145577373717,
1.),.UNSPECIFIED.);
#267=B_SPLINE_CURVE_WITH_KNOTS('',3,(#464,#465,#466,#467,#468,#469,#470,
#471,#472,#473,#474,#475,#476,#477,#478,#479),.UNSPECIFIED.,.F.,.F.,(4,
3,3,3,3,4),(0.,0.298830834913658,0.526272612883027,0.755811436148371,0.953512740608859,
1.),.UNSPECIFIED.);
#268=B_SPLINE_CURVE_WITH_KNOTS('',3,(#483,#484,#485,#486,#487,#488,#489,
#490,#491,#492,#493,#494,#495,#496,#497,#498),.UNSPECIFIED.,.F.,.F.,(4,
3,3,3,3,4),(0.,0.176721581954764,0.352860553685539,0.537276184826456,0.745145577373715,
1.),.UNSPECIFIED.);
#269=B_SPLINE_CURVE_WITH_KNOTS('',3,(#504,#505,#506,#507),.UNSPECIFIED.,
 .F.,.F.,(4,4),(0.,1.),.UNSPECIFIED.);
#270=B_SPLINE_CURVE_WITH_KNOTS('',3,(#509,#510,#511,#512),.UNSPECIFIED.,
 .F.,.F.,(4,4),(0.,1.),.UNSPECIFIED.);
#271=B_SPLINE_CURVE_WITH_KNOTS('',3,(#516,#517,#518,#519),.UNSPECIFIED.,
 .F.,.F.,(4,4),(0.,1.),.UNSPECIFIED.);
#272=B_SPLINE_CURVE_WITH_KNOTS('',3,(#523,#524,#525,#526),.UNSPECIFIED.,
 .F.,.F.,(4,4),(0.,1.),.UNSPECIFIED.);
#273=PRESENTATION_LAYER_ASSIGNMENT('1','Layer 1',(#398,#264,#295,#296,#297,
#61,#62));
#274=STYLED_ITEM('',(#281),#398);
#275=STYLED_ITEM('',(#282),#264);
#276=STYLED_ITEM('',(#283),#295);
#277=STYLED_ITEM('',(#284),#296);
#278=STYLED_ITEM('',(#285),#297);
#279=STYLED_ITEM('',(#286),#61);
#280=STYLED_ITEM('',(#287),#62);
#281=PRESENTATION_STYLE_ASSIGNMENT((#288));
#282=PRESENTATION_STYLE_ASSIGNMENT((#256));
#283=PRESENTATION_STYLE_ASSIGNMENT((#257));
#284=PRESENTATION_STYLE_ASSIGNMENT((#258));
#285=PRESENTATION_STYLE_ASSIGNMENT((#259));
#286=PRESENTATION_STYLE_ASSIGNMENT((#51));
#287=PRESENTATION_STYLE_ASSIGNMENT((#52));
#288=POINT_STYLE('',#289,POSITIVE_LENGTH_MEASURE(3.),#290);
#289=PRE_DEFINED_POINT_MARKER_SYMBOL('plus');
#290=COLOUR_RGB('BLUE',0.,0.,0.998992904554818);
#291=COLOUR_RGB('Deep Lemon',1.,0.909788662546731,0.384298466468299);
#292=COLOUR_RGB('LIGHT GREY',0.8,0.8,0.8);
#293=COLOUR_RGB('GREY',0.499992370489052,0.499992370489052,0.499992370489052);
#294=AXIS2_PLACEMENT_3D('',#397,#325,#326);
#295=AXIS2_PLACEMENT_3D('PCS',#406,#327,#328);
#296=AXIS2_PLACEMENT_3D('CIP',#407,#329,#330);
#297=AXIS2_PLACEMENT_3D('MCS',#408,#331,#332);
#298=AXIS2_PLACEMENT_3D('',#409,#333,#334);
#299=AXIS2_PLACEMENT_3D('',#411,#335,#336);
#300=AXIS2_PLACEMENT_3D('',#412,#337,#338);
#301=AXIS2_PLACEMENT_3D('',#414,#339,#340);
#302=AXIS2_PLACEMENT_3D('',#416,#341,#342);
#303=AXIS2_PLACEMENT_3D('',#417,#343,#344);
#304=AXIS2_PLACEMENT_3D('',#439,#346,#347);
#305=AXIS2_PLACEMENT_3D('',#460,#349,#350);
#306=AXIS2_PLACEMENT_3D('',#481,#352,#353);
#307=AXIS2_PLACEMENT_3D('',#502,#355,#356);
#308=AXIS2_PLACEMENT_3D('',#503,#357,#358);
#309=AXIS2_PLACEMENT_3D('',#514,#359,#360);
#310=AXIS2_PLACEMENT_3D('',#515,#361,#362);
#311=AXIS2_PLACEMENT_3D('',#521,#363,#364);
#312=AXIS2_PLACEMENT_3D('',#527,#365,#366);
#313=AXIS2_PLACEMENT_3D('',#530,#369,#370);
#314=AXIS2_PLACEMENT_3D('',#531,#371,#372);
#315=AXIS2_PLACEMENT_3D('',#533,#373,#374);
#316=AXIS2_PLACEMENT_3D('',#535,#375,#376);
#317=AXIS2_PLACEMENT_3D('',#536,#377,#378);
#318=AXIS2_PLACEMENT_3D('',#537,#379,#380);
#319=AXIS2_PLACEMENT_3D('',#539,#382,#383);
#320=AXIS2_PLACEMENT_3D('',#541,#385,#386);
#321=AXIS2_PLACEMENT_3D('',#542,#387,#388);
#322=AXIS2_PLACEMENT_3D('',#544,#390,#391);
#323=AXIS2_PLACEMENT_3D('',#546,#393,#394);
#324=AXIS2_PLACEMENT_3D('',#547,#395,#396);
#325=DIRECTION('',(0.,0.,1.));
#326=DIRECTION('',(1.,0.,0.));
#327=DIRECTION('',(0.,0.,1.));
#328=DIRECTION('',(1.,0.,0.));
#329=DIRECTION('',(0.,0.,1.));
#330=DIRECTION('',(1.,0.,0.));
#331=DIRECTION('',(0.,0.,1.));
#332=DIRECTION('',(1.,0.,0.));
#333=DIRECTION('',(0.,0.,-1.));
#334=DIRECTION('',(-0.916270367703396,-0.400560374061992,0.));
#335=DIRECTION('',(0.,0.,-1.));
#336=DIRECTION('',(-0.916270367703396,-0.400560374061992,0.));
#337=DIRECTION('',(0.,0.,1.));
#338=DIRECTION('',(0.916270367703396,0.400560374061992,0.));
#339=DIRECTION('',(0.,0.,-1.));
#340=DIRECTION('',(-0.916270367703396,-0.400560374061992,1.97830995962665E-15));
#341=DIRECTION('',(0.,0.,1.));
#342=DIRECTION('',(0.916270367703396,0.400560374061992,0.));
#343=DIRECTION('',(0.,0.,1.));
#344=DIRECTION('',(0.916270367703396,0.400560374061992,0.));
#345=DIRECTION('',(0.,0.,1.));
#346=DIRECTION('',(0.,0.,1.));
#347=DIRECTION('',(0.916270367703396,0.400560374061992,0.));
#348=DIRECTION('',(0.,0.,-1.));
#349=DIRECTION('',(0.,0.,1.));
#350=DIRECTION('',(0.916270367703396,0.400560374061992,0.));
#351=DIRECTION('',(0.,0.,1.));
#352=DIRECTION('',(0.,0.,1.));
#353=DIRECTION('',(0.916270367703396,0.400560374061992,0.));
#354=DIRECTION('',(0.,0.,-1.));
#355=DIRECTION('',(0.,0.,1.));
#356=DIRECTION('',(0.916270367703396,0.400560374061992,0.));
#357=DIRECTION('',(0.,0.,1.));
#358=DIRECTION('',(0.916270367703396,0.400560374061992,0.));
#359=DIRECTION('',(0.,0.,1.));
#360=DIRECTION('',(0.916270367703396,0.400560374061992,0.));
#361=DIRECTION('',(0.,0.,-1.));
#362=DIRECTION('',(-0.916270367703396,-0.400560374061992,6.89065928888506E-17));
#363=DIRECTION('',(0.,0.,1.));
#364=DIRECTION('',(0.916270367703396,0.400560374061992,0.));
#365=DIRECTION('',(0.,0.,-1.));
#366=DIRECTION('',(-0.916270367703396,-0.400560374061992,6.89065928888506E-17));
#367=DIRECTION('',(-0.969587422280939,-0.244745236020243,0.));
#368=DIRECTION('',(0.969587422280939,0.244745236020243,0.));
#369=DIRECTION('',(0.,0.,-1.));
#370=DIRECTION('',(-0.916270367703396,-0.400560374061992,0.));
#371=DIRECTION('',(0.,0.,1.));
#372=DIRECTION('',(0.916270367703396,0.400560374061992,0.));
#373=DIRECTION('',(0.,0.,-1.));
#374=DIRECTION('',(-0.916270367703396,-0.400560374061992,0.));
#375=DIRECTION('',(0.,0.,-1.));
#376=DIRECTION('',(-0.916270367703396,-0.400560374061992,1.97830995962665E-15));
#377=DIRECTION('',(0.,0.,1.));
#378=DIRECTION('',(0.916270367703396,0.400560374061992,0.));
#379=DIRECTION('',(0.,0.,-1.));
#380=DIRECTION('',(-0.916270367703396,-0.400560374061992,0.));
#381=DIRECTION('',(-0.969587422280939,-0.244745236020243,0.));
#382=DIRECTION('',(0.,0.,1.));
#383=DIRECTION('',(0.916270367703396,0.400560374061992,0.));
#384=DIRECTION('',(-0.969587422280939,-0.244745236020243,0.));
#385=DIRECTION('',(-0.244745236020243,0.969587422280939,-1.75249076596502E-17));
#386=DIRECTION('',(0.969587422280939,0.244745236020243,0.));
#387=DIRECTION('',(-0.969587422280939,-0.244745236020243,0.));
#388=DIRECTION('',(-0.244745236020242,0.96958742228094,0.));
#389=DIRECTION('',(-0.969587422280939,-0.244745236020243,0.));
#390=DIRECTION('',(0.,0.,1.));
#391=DIRECTION('',(0.916270367703396,0.400560374061992,0.));
#392=DIRECTION('',(-0.969587422280939,-0.244745236020243,0.));
#393=DIRECTION('',(-0.969587422280939,-0.244745236020243,0.));
#394=DIRECTION('',(-0.244745236020243,0.969587422280939,0.));
#395=DIRECTION('',(0.244745236020243,-0.969587422280939,1.75803172345328E-17));
#396=DIRECTION('',(-0.969587422280939,-0.244745236020243,0.));
#397=CARTESIAN_POINT('',(0.,0.,0.));
#398=CARTESIAN_POINT('CRP',(-4.44089209850063E-16,7.,-120.793975666743));
#399=CARTESIAN_POINT('',(0.,0.,-125.));
#400=CARTESIAN_POINT('',(-2.22044604925031E-16,2.33333333333334,-123.597991888936));
#401=CARTESIAN_POINT('',(-4.44089209850063E-16,4.66666666666667,-122.195983777871));
#402=CARTESIAN_POINT('',(0.,7.,-120.793975666775));
#403=CARTESIAN_POINT('',(-8.88178419700125E-16,6.99984632358351,-110.529317111135));
#404=CARTESIAN_POINT('',(-4.44089209850063E-16,6.99969264716701,-100.264658555526));
#405=CARTESIAN_POINT('',(-1.77635683940025E-15,6.99953897075052,-89.9999999999181));
#406=CARTESIAN_POINT('',(0.,0.,0.));
#407=CARTESIAN_POINT('',(0.,0.,-125.));
#408=CARTESIAN_POINT('',(0.,0.,-47.));
#409=CARTESIAN_POINT('',(0.,0.,-90.));
#410=CARTESIAN_POINT('',(-6.41347014648383,-2.80373794838532,-90.));
#411=CARTESIAN_POINT('',(0.,0.,-90.));
#412=CARTESIAN_POINT('',(0.,0.,-120.793975666807));
#413=CARTESIAN_POINT('',(6.41389257392377,2.80392261843395,-120.793975666807));
#414=CARTESIAN_POINT('',(0.,0.,-120.793975666807));
#415=CARTESIAN_POINT('',(0.,0.,-125.));
#416=CARTESIAN_POINT('',(0.,0.,-123.107289050063));
#417=CARTESIAN_POINT('',(0.,0.,-54.));
#418=CARTESIAN_POINT('',(6.41389257392377,2.80392261843394,-54.));
#419=CARTESIAN_POINT('',(6.73441969826699,-1.90986683504205,-125.));
#420=CARTESIAN_POINT('',(6.73441969826698,-1.90986683504204,-6.59999999999999));
#421=CARTESIAN_POINT('',(6.73441969826699,-1.90986683504204,-2.0207259421637));
#422=CARTESIAN_POINT('',(6.59063729276712,-2.35870728900116,-7.));
#423=CARTESIAN_POINT('',(6.61348135078635,-2.29487702850138,-7.));
#424=CARTESIAN_POINT('',(6.63576734684785,-2.22947963607633,-6.98782589768071));
#425=CARTESIAN_POINT('',(6.65533832434264,-2.16944043212437,-6.96315964602042));
#426=CARTESIAN_POINT('',(6.67031141854093,-2.12350646400235,-6.94428832956592));
#427=CARTESIAN_POINT('',(6.68410280170075,-2.07950306414823,-6.91756740538067));
#428=CARTESIAN_POINT('',(6.69563483213599,-2.04168415644714,-6.88399670302924));
#429=CARTESIAN_POINT('',(6.70722846976444,-2.00366321001861,-6.85024665700042));
#430=CARTESIAN_POINT('',(6.71688738695056,-1.9707841143157,-6.80831112774918));
#431=CARTESIAN_POINT('',(6.72350890899328,-1.94792914416514,-6.76191203085082));
#432=CARTESIAN_POINT('',(6.72922730583124,-1.92819141797507,-6.72184141758758));
#433=CARTESIAN_POINT('',(6.7328629363084,-1.91535225790709,-6.67713119152419));
#434=CARTESIAN_POINT('',(6.73400813243908,-1.91131747029222,-6.63229436559318));
#435=CARTESIAN_POINT('',(6.73428218356045,-1.91035192557834,-6.62156469047839));
#436=CARTESIAN_POINT('',(6.73441969826698,-1.90986683504204,-6.61077651653739));
#437=CARTESIAN_POINT('',(6.73441969826698,-1.90986683504204,-6.59999999999999));
#438=CARTESIAN_POINT('',(6.59063729276712,-2.35870728900116,-7.));
#439=CARTESIAN_POINT('',(0.,0.,-7.00000000000001));
#440=CARTESIAN_POINT('',(-4.68162445180924,-5.20407460479016,-7.));
#441=CARTESIAN_POINT('',(-5.0212030461253,-4.87724512092452,-6.59999999999999));
#442=CARTESIAN_POINT('',(-5.0212030461253,-4.87724512092452,-6.64024734751839));
#443=CARTESIAN_POINT('',(-5.01614880299732,-4.88246220544882,-6.68105289409618));
#444=CARTESIAN_POINT('',(-5.00661720302312,-4.89221669413701,-6.71891907339421));
#445=CARTESIAN_POINT('',(-4.99710321613256,-4.90195315787393,-6.7567152812095));
#446=CARTESIAN_POINT('',(-4.98291598553727,-4.91641791704972,-6.79259529054706));
#447=CARTESIAN_POINT('',(-4.96540964254963,-4.93403557766612,-6.82417081884788));
#448=CARTESIAN_POINT('',(-4.94706540636971,-4.95249645938844,-6.85725762338867));
#449=CARTESIAN_POINT('',(-4.92467284657827,-4.97481596770371,-6.88644737395893));
#450=CARTESIAN_POINT('',(-4.89996956665311,-4.99902973044502,-6.9104368183993));
#451=CARTESIAN_POINT('',(-4.87214023926977,-5.02630759526914,-6.93746197882732));
#452=CARTESIAN_POINT('',(-4.84076207475005,-5.05658542700816,-6.9585483357278));
#453=CARTESIAN_POINT('',(-4.80798659503159,-5.08755981802637,-6.97322033962667));
#454=CARTESIAN_POINT('',(-4.76791121316875,-5.12543296461908,-6.99116015817369));
#455=CARTESIAN_POINT('',(-4.72473270069788,-5.16529410155026,-7.));
#456=CARTESIAN_POINT('',(-4.68162445180924,-5.20407460479016,-7.));
#457=CARTESIAN_POINT('',(-5.0212030461253,-4.87724512092452,-6.59999999999999));
#458=CARTESIAN_POINT('',(-5.02120304612529,-4.87724512092452,-125.));
#459=CARTESIAN_POINT('',(-5.02120304612529,-4.87724512092452,-2.0207259421637));
#460=CARTESIAN_POINT('',(0.,0.,-2.0207259421637));
#461=CARTESIAN_POINT('',(-6.73441969826699,1.90986683504204,-2.0207259421637));
#462=CARTESIAN_POINT('',(-6.73441969826699,1.90986683504204,-125.));
#463=CARTESIAN_POINT('',(-6.73441969826699,1.90986683504204,-6.59999999999999));
#464=CARTESIAN_POINT('',(-6.59063729276712,2.35870728900116,-7.00000000000001));
#465=CARTESIAN_POINT('',(-6.61348135078635,2.29487702850138,-7.00000000000001));
#466=CARTESIAN_POINT('',(-6.63576734684785,2.22947963607633,-6.98782589768071));
#467=CARTESIAN_POINT('',(-6.65533832434264,2.16944043212437,-6.96315964602042));
#468=CARTESIAN_POINT('',(-6.67031141854093,2.12350646400235,-6.94428832956592));
#469=CARTESIAN_POINT('',(-6.68410280170074,2.07950306414823,-6.91756740538067));
#470=CARTESIAN_POINT('',(-6.69563483213599,2.04168415644714,-6.88399670302924));
#471=CARTESIAN_POINT('',(-6.70722846976444,2.00366321001861,-6.85024665700041));
#472=CARTESIAN_POINT('',(-6.71688738695056,1.97078411431571,-6.80831112774917));
#473=CARTESIAN_POINT('',(-6.72350890899328,1.94792914416514,-6.76191203085082));
#474=CARTESIAN_POINT('',(-6.72922730583124,1.92819141797507,-6.72184141758758));
#475=CARTESIAN_POINT('',(-6.7328629363084,1.9153522579071,-6.67713119152419));
#476=CARTESIAN_POINT('',(-6.73400813243908,1.91131747029222,-6.63229436559318));
#477=CARTESIAN_POINT('',(-6.73428218356045,1.91035192557834,-6.62156469047838));
#478=CARTESIAN_POINT('',(-6.73441969826699,1.90986683504204,-6.61077651653739));
#479=CARTESIAN_POINT('',(-6.73441969826699,1.90986683504204,-6.59999999999999));
#480=CARTESIAN_POINT('',(-6.59063729276712,2.35870728900116,-7.00000000000001));
#481=CARTESIAN_POINT('',(0.,0.,-7.00000000000001));
#482=CARTESIAN_POINT('',(4.68162445180923,5.20407460479016,-7.00000000000001));
#483=CARTESIAN_POINT('',(5.02120304612529,4.87724512092452,-6.59999999999999));
#484=CARTESIAN_POINT('',(5.02120304612529,4.87724512092452,-6.64024734751839));
#485=CARTESIAN_POINT('',(5.01614880299732,4.88246220544882,-6.68105289409618));
#486=CARTESIAN_POINT('',(5.00661720302312,4.89221669413702,-6.71891907339421));
#487=CARTESIAN_POINT('',(4.99710321613256,4.90195315787394,-6.7567152812095));
#488=CARTESIAN_POINT('',(4.98291598553727,4.91641791704972,-6.79259529054706));
#489=CARTESIAN_POINT('',(4.96540964254963,4.93403557766613,-6.82417081884788));
#490=CARTESIAN_POINT('',(4.94706540636971,4.95249645938844,-6.85725762338867));
#491=CARTESIAN_POINT('',(4.92467284657826,4.97481596770371,-6.88644737395893));
#492=CARTESIAN_POINT('',(4.89996956665311,4.99902973044503,-6.9104368183993));
#493=CARTESIAN_POINT('',(4.87214023926976,5.02630759526914,-6.93746197882732));
#494=CARTESIAN_POINT('',(4.84076207475005,5.05658542700816,-6.95854833572779));
#495=CARTESIAN_POINT('',(4.80798659503159,5.08755981802637,-6.97322033962667));
#496=CARTESIAN_POINT('',(4.76791121316875,5.12543296461908,-6.99116015817369));
#497=CARTESIAN_POINT('',(4.72473270069788,5.16529410155026,-7.00000000000001));
#498=CARTESIAN_POINT('',(4.68162445180923,5.20407460479016,-7.00000000000001));
#499=CARTESIAN_POINT('',(5.02120304612529,4.87724512092452,-6.59999999999999));
#500=CARTESIAN_POINT('',(5.02120304612529,4.87724512092452,-125.));
#501=CARTESIAN_POINT('',(5.02120304612529,4.87724512092452,-2.0207259421637));
#502=CARTESIAN_POINT('',(0.,0.,-2.0207259421637));
#503=CARTESIAN_POINT('',(0.,0.,-125.));
#504=CARTESIAN_POINT('',(6.73441969826699,-1.90986683504204,-2.02072594216369));
#505=CARTESIAN_POINT('',(5.94559990872386,-2.1089823362673,-1.31616030831381));
#506=CARTESIAN_POINT('',(5.14103590588558,-2.31207202394581,-0.623917257363162));
#507=CARTESIAN_POINT('',(4.29053193611052,-2.52675797184008,7.64561100288601E-16));
#508=CARTESIAN_POINT('',(4.29053193611052,-2.52675797184008,0.));
#509=CARTESIAN_POINT('',(2.57731528396882,4.26035398412648,1.57157507986926E-17));
#510=CARTESIAN_POINT('',(3.4265960651038,4.47473117224775,-0.623019944089292));
#511=CARTESIAN_POINT('',(4.23229385348938,4.67810705238812,-1.31608045440095));
#512=CARTESIAN_POINT('',(5.02120304612529,4.87724512092452,-2.02072594216369));
#513=CARTESIAN_POINT('',(2.57731528396882,4.26035398412648,0.));
#514=CARTESIAN_POINT('',(0.,0.,0.));
#515=CARTESIAN_POINT('',(0.,0.,-2.0207259421637));
#516=CARTESIAN_POINT('',(-2.57731528396882,-4.26035398412648,1.4903935241989E-15));
#517=CARTESIAN_POINT('',(-3.4265960651038,-4.47473117224775,-0.623019944089291));
#518=CARTESIAN_POINT('',(-4.23229385348938,-4.67810705238812,-1.31608045440095));
#519=CARTESIAN_POINT('',(-5.02120304612529,-4.87724512092452,-2.0207259421637));
#520=CARTESIAN_POINT('',(-2.57731528396882,-4.26035398412648,0.));
#521=CARTESIAN_POINT('',(0.,0.,0.));
#522=CARTESIAN_POINT('',(-4.29053193611052,2.52675797184008,0.));
#523=CARTESIAN_POINT('',(-6.73441969826699,1.90986683504204,-2.02072594216369));
#524=CARTESIAN_POINT('',(-5.94559990872386,2.1089823362673,-1.31616030831381));
#525=CARTESIAN_POINT('',(-5.14103590588558,2.3120720239458,-0.623917257363161));
#526=CARTESIAN_POINT('',(-4.29053193611052,2.52675797184008,1.28919542167358E-15));
#527=CARTESIAN_POINT('',(0.,0.,-2.0207259421637));
#528=CARTESIAN_POINT('',(0.064236459255168,-3.59356810180332,-2.22044604925031E-16));
#529=CARTESIAN_POINT('',(-1.64898019288653,3.19354385416325,-2.22044604925031E-16));
#530=CARTESIAN_POINT('',(-1.99449987916409,4.56236127186966,-2.22044604925031E-16));
#531=CARTESIAN_POINT('',(0.,0.,-54.000001745331));
#532=CARTESIAN_POINT('',(6.41297630355606,2.80352205805988,-54.000001745331));
#533=CARTESIAN_POINT('',(0.,0.,-90.));
#534=CARTESIAN_POINT('',(-6.41347014648383,-2.80373794838532,-90.));
#535=CARTESIAN_POINT('',(0.,0.,-120.793975666807));
#536=CARTESIAN_POINT('',(-2.80352205805988,6.41297630355606,-54.0000008726655));
#537=CARTESIAN_POINT('',(0.,0.,-90.));
#538=CARTESIAN_POINT('',(12.6197174914542,7.20782425117905,-6.99999999999999));
#539=CARTESIAN_POINT('',(12.6197174914542,7.20782425117905,-7.));
#540=CARTESIAN_POINT('',(12.7176155858623,6.81998928226668,-6.59999999999999));
#541=CARTESIAN_POINT('',(12.7176155858623,6.81998928226668,6.59999999999999));
#542=CARTESIAN_POINT('',(12.6197174914542,7.20782425117905,-6.59999999999999));
#543=CARTESIAN_POINT('',(14.5287303324121,-0.354957642612259,-7.));
#544=CARTESIAN_POINT('',(16.0950998429416,-6.56031714521026,-7.));
#545=CARTESIAN_POINT('',(14.430832238004,0.0328773263001221,-6.59999999999999));
#546=CARTESIAN_POINT('',(14.5287303324121,-0.354957642612259,-6.59999999999999));
#547=CARTESIAN_POINT('',(14.430832238004,0.0328773263001177,-6.59999999999999));
#548=MECHANICAL_DESIGN_GEOMETRIC_PRESENTATION_REPRESENTATION('',(#274,#275,
#276,#277,#278,#279,#280),#549);
#549=(
GEOMETRIC_REPRESENTATION_CONTEXT(3)
GLOBAL_UNCERTAINTY_ASSIGNED_CONTEXT((#550))
GLOBAL_UNIT_ASSIGNED_CONTEXT((#556,#552,#551))
REPRESENTATION_CONTEXT('CAPP~~210908185027~5968707~MOD~TM01_00~ISO~FR',
'TOP_LEVEL_ASSEMBLY_PART')
);
#550=UNCERTAINTY_MEASURE_WITH_UNIT(LENGTH_MEASURE(0.0508),#556,
'DISTANCE_ACCURACY_VALUE','Maximum Tolerance applied to model');
#551=(
NAMED_UNIT(*)
SI_UNIT($,.STERADIAN.)
SOLID_ANGLE_UNIT()
);
#552=(
CONVERSION_BASED_UNIT('DEGREE',#554)
NAMED_UNIT(#553)
PLANE_ANGLE_UNIT()
);
#553=DIMENSIONAL_EXPONENTS(0.,0.,0.,0.,0.,0.,0.);
#554=PLANE_ANGLE_MEASURE_WITH_UNIT(PLANE_ANGLE_MEASURE(0.0174532925),#555);
#555=(
NAMED_UNIT(*)
PLANE_ANGLE_UNIT()
SI_UNIT($,.RADIAN.)
);
#556=(
LENGTH_UNIT()
NAMED_UNIT(*)
SI_UNIT(.MILLI.,.METRE.)
);
ENDSEC;
END-ISO-10303-21;
