ISO-10303-21;
HEADER;
/* Generated by software containing ST-Developer
 * from STEP Tools, Inc. (www.steptools.com) 
 */
/* OPTION: using custom schema-name function */

FILE_DESCRIPTION(
/* description */ ('A12411.0'),
/* implementation_level */ '2;1');

FILE_NAME(
/* name */ 'CAPP~~210908185012~5968694~MOD~TM01_00~ISO~FR.STP',
/* time_stamp */ '2021-09-08T18:51:07+02:00',
/* author */ ('System'),
/* organization */ ('Dormer Pramet'),
/* preprocessor_version */ 'ST-DEVELOPER v16.7',
/* originating_system */ 'SIEMENS PLM Software NX 12.0',
/* authorisation */ '');

FILE_SCHEMA (('AUTOMOTIVE_DESIGN { 1 0 10303 214 3 1 1 1 }'));
ENDSEC;

DATA;
#10=CONSTRUCTIVE_GEOMETRY_REPRESENTATION_RELATIONSHIP(
'supplemental geometry','',#26,#11);
#11=CONSTRUCTIVE_GEOMETRY_REPRESENTATION('supplemental geometry',(#295,
#296,#297),#543);
#12=GEOMETRICALLY_BOUNDED_WIREFRAME_SHAPE_REPRESENTATION(
'CAPP~~210908185012~5968694~MOD~TM01_00~ISO~FR-None',(#27),#543);
#13=SHAPE_REPRESENTATION_RELATIONSHIP('None',
'relationship between CAPP~~210908185012~5968694~MOD~TM01_00~ISO~FR-No
ne and CAPP~~210908185012~5968694~MOD~TM01_00~ISO~FR-None',#26,#15);
#14=SHAPE_REPRESENTATION_RELATIONSHIP('None',
'relationship between CAPP~~210908185012~5968694~MOD~TM01_00~ISO~FR-No
ne and CAPP~~210908185012~5968694~MOD~TM01_00~ISO~FR-None',#26,#12);
#15=ADVANCED_BREP_SHAPE_REPRESENTATION(
'CAPP~~210908185012~5968694~MOD~TM01_00~ISO~FR-None',(#61,#62),#543);
#16=SHAPE_DEFINITION_REPRESENTATION(#17,#26);
#17=PRODUCT_DEFINITION_SHAPE('','',#18);
#18=PRODUCT_DEFINITION(' ','',#20,#19);
#19=PRODUCT_DEFINITION_CONTEXT('part definition',#25,'design');
#20=PRODUCT_DEFINITION_FORMATION_WITH_SPECIFIED_SOURCE(' ',' ',#22,
 .NOT_KNOWN.);
#21=PRODUCT_RELATED_PRODUCT_CATEGORY('part','',(#22));
#22=PRODUCT('CAPP~~210908185012~5968694~MOD~TM01_00~ISO~FR',
'CAPP~~210908185012~5968694~MOD~TM01_00~ISO~FR',' ',(#23));
#23=PRODUCT_CONTEXT(' ',#25,'mechanical');
#24=APPLICATION_PROTOCOL_DEFINITION('international standard',
'automotive_design',2010,#25);
#25=APPLICATION_CONTEXT(
'core data for automotive mechanical design processes');
#26=SHAPE_REPRESENTATION(
'CAPP~~210908185012~5968694~MOD~TM01_00~ISO~FR-None',(#294),#543);
#27=GEOMETRIC_CURVE_SET('None',(#398,#264));
#28=CYLINDRICAL_SURFACE('',#308,5.5);
#29=CYLINDRICAL_SURFACE('',#321,0.4);
#30=CYLINDRICAL_SURFACE('',#323,0.400000000000006);
#31=LINE('',#419,#41);
#32=LINE('',#455,#42);
#33=LINE('',#459,#43);
#34=LINE('',#494,#44);
#35=LINE('',#522,#45);
#36=LINE('',#523,#46);
#37=LINE('',#532,#47);
#38=LINE('',#534,#48);
#39=LINE('',#537,#49);
#40=LINE('',#539,#50);
#41=VECTOR('',#345,1.);
#42=VECTOR('',#348,1.);
#43=VECTOR('',#351,1.);
#44=VECTOR('',#354,1.);
#45=VECTOR('',#367,1.);
#46=VECTOR('',#368,1.);
#47=VECTOR('',#381,1.);
#48=VECTOR('',#384,1.);
#49=VECTOR('',#389,1.);
#50=VECTOR('',#392,1.);
#51=SURFACE_STYLE_USAGE(.BOTH.,#53);
#52=SURFACE_STYLE_USAGE(.BOTH.,#54);
#53=SURFACE_SIDE_STYLE('',(#55));
#54=SURFACE_SIDE_STYLE('',(#56));
#55=SURFACE_STYLE_FILL_AREA(#57);
#56=SURFACE_STYLE_FILL_AREA(#58);
#57=FILL_AREA_STYLE('',(#59));
#58=FILL_AREA_STYLE('',(#60));
#59=FILL_AREA_STYLE_COLOUR('',#292);
#60=FILL_AREA_STYLE_COLOUR('',#293);
#61=MANIFOLD_SOLID_BREP('CUT',#63);
#62=MANIFOLD_SOLID_BREP('NOCUT',#64);
#63=CLOSED_SHELL('',(#81,#82,#83));
#64=CLOSED_SHELL('',(#84,#85,#86,#87,#88,#89,#90,#91,#92,#93,#94,#95,#96));
#65=VERTEX_LOOP('',#196);
#66=CONICAL_SURFACE('',#301,5.5,0.00108730413766937);
#67=CONICAL_SURFACE('',#302,2.475,58.9999999999999);
#68=CONICAL_SURFACE('',#310,5.5,44.9999999999999);
#69=CONICAL_SURFACE('',#312,5.5,44.9999999999999);
#70=CONICAL_SURFACE('',#316,5.5,0.00108730413766937);
#71=FACE_BOUND('',#117,.T.);
#72=FACE_BOUND('',#118,.T.);
#73=FACE_BOUND('',#119,.T.);
#74=FACE_BOUND('',#65,.T.);
#75=FACE_BOUND('',#120,.T.);
#76=FACE_BOUND('',#121,.T.);
#77=FACE_BOUND('',#125,.T.);
#78=FACE_BOUND('',#126,.T.);
#79=FACE_BOUND('',#127,.T.);
#80=FACE_BOUND('',#128,.T.);
#81=ADVANCED_FACE('',(#105),#97,.F.);
#82=ADVANCED_FACE('',(#71,#72),#66,.T.);
#83=ADVANCED_FACE('',(#73,#74),#67,.T.);
#84=ADVANCED_FACE('',(#75,#76),#28,.T.);
#85=ADVANCED_FACE('',(#106),#68,.T.);
#86=ADVANCED_FACE('',(#107),#69,.T.);
#87=ADVANCED_FACE('',(#108),#98,.F.);
#88=ADVANCED_FACE('',(#77,#78),#70,.T.);
#89=ADVANCED_FACE('',(#79,#80),#99,.F.);
#90=ADVANCED_FACE('',(#109),#100,.T.);
#91=ADVANCED_FACE('',(#110),#101,.T.);
#92=ADVANCED_FACE('',(#111),#102,.T.);
#93=ADVANCED_FACE('',(#112),#29,.F.);
#94=ADVANCED_FACE('',(#113),#103,.T.);
#95=ADVANCED_FACE('',(#114),#30,.F.);
#96=ADVANCED_FACE('',(#115),#104,.T.);
#97=PLANE('',#299);
#98=PLANE('',#313);
#99=PLANE('',#317);
#100=PLANE('',#318);
#101=PLANE('',#319);
#102=PLANE('',#320);
#103=PLANE('',#322);
#104=PLANE('',#324);
#105=FACE_OUTER_BOUND('',#116,.T.);
#106=FACE_OUTER_BOUND('',#122,.T.);
#107=FACE_OUTER_BOUND('',#123,.T.);
#108=FACE_OUTER_BOUND('',#124,.T.);
#109=FACE_OUTER_BOUND('',#129,.T.);
#110=FACE_OUTER_BOUND('',#130,.T.);
#111=FACE_OUTER_BOUND('',#131,.T.);
#112=FACE_OUTER_BOUND('',#132,.T.);
#113=FACE_OUTER_BOUND('',#133,.T.);
#114=FACE_OUTER_BOUND('',#134,.T.);
#115=FACE_OUTER_BOUND('',#135,.T.);
#116=EDGE_LOOP('',(#136));
#117=EDGE_LOOP('',(#137));
#118=EDGE_LOOP('',(#138));
#119=EDGE_LOOP('',(#139));
#120=EDGE_LOOP('',(#140));
#121=EDGE_LOOP('',(#141,#142,#143,#144,#145,#146,#147,#148,#149,#150,#151,
#152));
#122=EDGE_LOOP('',(#153,#154,#155,#156));
#123=EDGE_LOOP('',(#157,#158,#159,#160));
#124=EDGE_LOOP('',(#161,#162,#163,#164));
#125=EDGE_LOOP('',(#165));
#126=EDGE_LOOP('',(#166));
#127=EDGE_LOOP('',(#167));
#128=EDGE_LOOP('',(#168));
#129=EDGE_LOOP('',(#169));
#130=EDGE_LOOP('',(#170,#171));
#131=EDGE_LOOP('',(#172,#173,#174,#175,#176,#177));
#132=EDGE_LOOP('',(#178,#179,#180,#181));
#133=EDGE_LOOP('',(#182,#183));
#134=EDGE_LOOP('',(#184,#185,#186,#187));
#135=EDGE_LOOP('',(#188,#189,#190,#191,#192,#193));
#136=ORIENTED_EDGE('',*,*,#216,.F.);
#137=ORIENTED_EDGE('',*,*,#216,.T.);
#138=ORIENTED_EDGE('',*,*,#217,.T.);
#139=ORIENTED_EDGE('',*,*,#217,.F.);
#140=ORIENTED_EDGE('',*,*,#218,.T.);
#141=ORIENTED_EDGE('',*,*,#219,.F.);
#142=ORIENTED_EDGE('',*,*,#220,.F.);
#143=ORIENTED_EDGE('',*,*,#221,.F.);
#144=ORIENTED_EDGE('',*,*,#222,.F.);
#145=ORIENTED_EDGE('',*,*,#223,.F.);
#146=ORIENTED_EDGE('',*,*,#224,.F.);
#147=ORIENTED_EDGE('',*,*,#225,.F.);
#148=ORIENTED_EDGE('',*,*,#226,.F.);
#149=ORIENTED_EDGE('',*,*,#227,.F.);
#150=ORIENTED_EDGE('',*,*,#228,.F.);
#151=ORIENTED_EDGE('',*,*,#229,.F.);
#152=ORIENTED_EDGE('',*,*,#230,.F.);
#153=ORIENTED_EDGE('',*,*,#231,.F.);
#154=ORIENTED_EDGE('',*,*,#230,.T.);
#155=ORIENTED_EDGE('',*,*,#232,.F.);
#156=ORIENTED_EDGE('',*,*,#233,.F.);
#157=ORIENTED_EDGE('',*,*,#234,.F.);
#158=ORIENTED_EDGE('',*,*,#235,.F.);
#159=ORIENTED_EDGE('',*,*,#236,.F.);
#160=ORIENTED_EDGE('',*,*,#224,.T.);
#161=ORIENTED_EDGE('',*,*,#237,.F.);
#162=ORIENTED_EDGE('',*,*,#233,.T.);
#163=ORIENTED_EDGE('',*,*,#238,.F.);
#164=ORIENTED_EDGE('',*,*,#235,.T.);
#165=ORIENTED_EDGE('',*,*,#239,.F.);
#166=ORIENTED_EDGE('',*,*,#240,.F.);
#167=ORIENTED_EDGE('',*,*,#218,.F.);
#168=ORIENTED_EDGE('',*,*,#239,.T.);
#169=ORIENTED_EDGE('',*,*,#240,.T.);
#170=ORIENTED_EDGE('',*,*,#227,.T.);
#171=ORIENTED_EDGE('',*,*,#241,.F.);
#172=ORIENTED_EDGE('',*,*,#225,.T.);
#173=ORIENTED_EDGE('',*,*,#236,.T.);
#174=ORIENTED_EDGE('',*,*,#238,.T.);
#175=ORIENTED_EDGE('',*,*,#232,.T.);
#176=ORIENTED_EDGE('',*,*,#229,.T.);
#177=ORIENTED_EDGE('',*,*,#242,.T.);
#178=ORIENTED_EDGE('',*,*,#228,.T.);
#179=ORIENTED_EDGE('',*,*,#241,.T.);
#180=ORIENTED_EDGE('',*,*,#226,.T.);
#181=ORIENTED_EDGE('',*,*,#242,.F.);
#182=ORIENTED_EDGE('',*,*,#221,.T.);
#183=ORIENTED_EDGE('',*,*,#243,.T.);
#184=ORIENTED_EDGE('',*,*,#220,.T.);
#185=ORIENTED_EDGE('',*,*,#244,.T.);
#186=ORIENTED_EDGE('',*,*,#222,.T.);
#187=ORIENTED_EDGE('',*,*,#243,.F.);
#188=ORIENTED_EDGE('',*,*,#219,.T.);
#189=ORIENTED_EDGE('',*,*,#231,.T.);
#190=ORIENTED_EDGE('',*,*,#237,.T.);
#191=ORIENTED_EDGE('',*,*,#234,.T.);
#192=ORIENTED_EDGE('',*,*,#223,.T.);
#193=ORIENTED_EDGE('',*,*,#244,.F.);
#194=VERTEX_POINT('',#410);
#195=VERTEX_POINT('',#413);
#196=VERTEX_POINT('',#415);
#197=VERTEX_POINT('',#418);
#198=VERTEX_POINT('',#420);
#199=VERTEX_POINT('',#421);
#200=VERTEX_POINT('',#435);
#201=VERTEX_POINT('',#437);
#202=VERTEX_POINT('',#454);
#203=VERTEX_POINT('',#456);
#204=VERTEX_POINT('',#458);
#205=VERTEX_POINT('',#460);
#206=VERTEX_POINT('',#474);
#207=VERTEX_POINT('',#476);
#208=VERTEX_POINT('',#493);
#209=VERTEX_POINT('',#495);
#210=VERTEX_POINT('',#502);
#211=VERTEX_POINT('',#507);
#212=VERTEX_POINT('',#514);
#213=VERTEX_POINT('',#516);
#214=VERTEX_POINT('',#526);
#215=VERTEX_POINT('',#528);
#216=EDGE_CURVE('',#194,#194,#245,.T.);
#217=EDGE_CURVE('',#195,#195,#246,.T.);
#218=EDGE_CURVE('',#197,#197,#247,.T.);
#219=EDGE_CURVE('',#198,#199,#31,.T.);
#220=EDGE_CURVE('',#200,#198,#265,.T.);
#221=EDGE_CURVE('',#201,#200,#248,.T.);
#222=EDGE_CURVE('',#202,#201,#266,.T.);
#223=EDGE_CURVE('',#203,#202,#32,.T.);
#224=EDGE_CURVE('',#204,#203,#249,.T.);
#225=EDGE_CURVE('',#205,#204,#33,.T.);
#226=EDGE_CURVE('',#206,#205,#267,.T.);
#227=EDGE_CURVE('',#207,#206,#250,.T.);
#228=EDGE_CURVE('',#208,#207,#268,.T.);
#229=EDGE_CURVE('',#209,#208,#34,.T.);
#230=EDGE_CURVE('',#199,#209,#251,.T.);
#231=EDGE_CURVE('',#199,#210,#269,.T.);
#232=EDGE_CURVE('',#211,#209,#270,.T.);
#233=EDGE_CURVE('',#210,#211,#252,.T.);
#234=EDGE_CURVE('',#212,#203,#271,.T.);
#235=EDGE_CURVE('',#213,#212,#253,.T.);
#236=EDGE_CURVE('',#204,#213,#272,.T.);
#237=EDGE_CURVE('',#210,#212,#35,.T.);
#238=EDGE_CURVE('',#213,#211,#36,.T.);
#239=EDGE_CURVE('',#214,#214,#254,.T.);
#240=EDGE_CURVE('',#215,#215,#255,.T.);
#241=EDGE_CURVE('',#207,#206,#37,.T.);
#242=EDGE_CURVE('',#208,#205,#38,.T.);
#243=EDGE_CURVE('',#200,#201,#39,.T.);
#244=EDGE_CURVE('',#198,#202,#40,.T.);
#245=CIRCLE('',#298,5.49954084552636);
#246=CIRCLE('',#300,5.5);
#247=CIRCLE('',#303,5.49999999999999);
#248=CIRCLE('',#304,5.5);
#249=CIRCLE('',#305,5.5);
#250=CIRCLE('',#306,5.5);
#251=CIRCLE('',#307,5.5);
#252=CIRCLE('',#309,3.91228675972853);
#253=CIRCLE('',#311,3.91228675972853);
#254=CIRCLE('',#314,5.49899999999999);
#255=CIRCLE('',#315,5.49954084552636);
#256=CURVE_STYLE('',#260,POSITIVE_LENGTH_MEASURE(0.18),#290);
#257=CURVE_STYLE('',#261,POSITIVE_LENGTH_MEASURE(0.13),#291);
#258=CURVE_STYLE('',#262,POSITIVE_LENGTH_MEASURE(0.13),#291);
#259=CURVE_STYLE('',#263,POSITIVE_LENGTH_MEASURE(0.13),#291);
#260=DRAUGHTING_PRE_DEFINED_CURVE_FONT('continuous');
#261=DRAUGHTING_PRE_DEFINED_CURVE_FONT('continuous');
#262=DRAUGHTING_PRE_DEFINED_CURVE_FONT('continuous');
#263=DRAUGHTING_PRE_DEFINED_CURVE_FONT('continuous');
#264=B_SPLINE_CURVE_WITH_KNOTS('CUTTING PART LINE',3,(#399,#400,#401,#402,
#403,#404,#405),.UNSPECIFIED.,.F.,.F.,(4,3,4),(0.,0.209608520421351,1.),
 .UNSPECIFIED.);
#265=B_SPLINE_CURVE_WITH_KNOTS('',3,(#422,#423,#424,#425,#426,#427,#428,
#429,#430,#431,#432,#433,#434),.UNSPECIFIED.,.F.,.F.,(4,3,3,3,4),(0.,0.303652275429231,
0.565404260592495,0.790015294431553,1.),.UNSPECIFIED.);
#266=B_SPLINE_CURVE_WITH_KNOTS('',3,(#438,#439,#440,#441,#442,#443,#444,
#445,#446,#447,#448,#449,#450,#451,#452,#453),.UNSPECIFIED.,.F.,.F.,(4,
3,3,3,3,4),(0.,0.182703045414149,0.364931478353593,0.554093153839261,0.76283508108027,
1.),.UNSPECIFIED.);
#267=B_SPLINE_CURVE_WITH_KNOTS('',3,(#461,#462,#463,#464,#465,#466,#467,
#468,#469,#470,#471,#472,#473),.UNSPECIFIED.,.F.,.F.,(4,3,3,3,4),(0.,0.303652275429229,
0.565404260592492,0.790015294431551,1.),.UNSPECIFIED.);
#268=B_SPLINE_CURVE_WITH_KNOTS('',3,(#477,#478,#479,#480,#481,#482,#483,
#484,#485,#486,#487,#488,#489,#490,#491,#492),.UNSPECIFIED.,.F.,.F.,(4,
3,3,3,3,4),(0.,0.182703045414149,0.364931478353592,0.554093153839262,0.76283508108027,
1.),.UNSPECIFIED.);
#269=B_SPLINE_CURVE_WITH_KNOTS('',3,(#498,#499,#500,#501),.UNSPECIFIED.,
 .F.,.F.,(4,4),(0.,1.),.UNSPECIFIED.);
#270=B_SPLINE_CURVE_WITH_KNOTS('',3,(#503,#504,#505,#506),.UNSPECIFIED.,
 .F.,.F.,(4,4),(0.,1.),.UNSPECIFIED.);
#271=B_SPLINE_CURVE_WITH_KNOTS('',3,(#510,#511,#512,#513),.UNSPECIFIED.,
 .F.,.F.,(4,4),(0.,1.),.UNSPECIFIED.);
#272=B_SPLINE_CURVE_WITH_KNOTS('',3,(#517,#518,#519,#520),.UNSPECIFIED.,
 .F.,.F.,(4,4),(0.,1.),.UNSPECIFIED.);
#273=PRESENTATION_LAYER_ASSIGNMENT('1','Layer 1',(#398,#264,#295,#296,#297,
#61,#62));
#274=STYLED_ITEM('',(#281),#398);
#275=STYLED_ITEM('',(#282),#264);
#276=STYLED_ITEM('',(#283),#295);
#277=STYLED_ITEM('',(#284),#296);
#278=STYLED_ITEM('',(#285),#297);
#279=STYLED_ITEM('',(#286),#61);
#280=STYLED_ITEM('',(#287),#62);
#281=PRESENTATION_STYLE_ASSIGNMENT((#288));
#282=PRESENTATION_STYLE_ASSIGNMENT((#256));
#283=PRESENTATION_STYLE_ASSIGNMENT((#257));
#284=PRESENTATION_STYLE_ASSIGNMENT((#258));
#285=PRESENTATION_STYLE_ASSIGNMENT((#259));
#286=PRESENTATION_STYLE_ASSIGNMENT((#51));
#287=PRESENTATION_STYLE_ASSIGNMENT((#52));
#288=POINT_STYLE('',#289,POSITIVE_LENGTH_MEASURE(3.),#290);
#289=PRE_DEFINED_POINT_MARKER_SYMBOL('plus');
#290=COLOUR_RGB('BLUE',0.,0.,0.998992904554818);
#291=COLOUR_RGB('Deep Lemon',1.,0.909788662546731,0.384298466468299);
#292=COLOUR_RGB('LIGHT GREY',0.8,0.8,0.8);
#293=COLOUR_RGB('GREY',0.499992370489052,0.499992370489052,0.499992370489052);
#294=AXIS2_PLACEMENT_3D('',#397,#325,#326);
#295=AXIS2_PLACEMENT_3D('PCS',#406,#327,#328);
#296=AXIS2_PLACEMENT_3D('CIP',#407,#329,#330);
#297=AXIS2_PLACEMENT_3D('MCS',#408,#331,#332);
#298=AXIS2_PLACEMENT_3D('',#409,#333,#334);
#299=AXIS2_PLACEMENT_3D('',#411,#335,#336);
#300=AXIS2_PLACEMENT_3D('',#412,#337,#338);
#301=AXIS2_PLACEMENT_3D('',#414,#339,#340);
#302=AXIS2_PLACEMENT_3D('',#416,#341,#342);
#303=AXIS2_PLACEMENT_3D('',#417,#343,#344);
#304=AXIS2_PLACEMENT_3D('',#436,#346,#347);
#305=AXIS2_PLACEMENT_3D('',#457,#349,#350);
#306=AXIS2_PLACEMENT_3D('',#475,#352,#353);
#307=AXIS2_PLACEMENT_3D('',#496,#355,#356);
#308=AXIS2_PLACEMENT_3D('',#497,#357,#358);
#309=AXIS2_PLACEMENT_3D('',#508,#359,#360);
#310=AXIS2_PLACEMENT_3D('',#509,#361,#362);
#311=AXIS2_PLACEMENT_3D('',#515,#363,#364);
#312=AXIS2_PLACEMENT_3D('',#521,#365,#366);
#313=AXIS2_PLACEMENT_3D('',#524,#369,#370);
#314=AXIS2_PLACEMENT_3D('',#525,#371,#372);
#315=AXIS2_PLACEMENT_3D('',#527,#373,#374);
#316=AXIS2_PLACEMENT_3D('',#529,#375,#376);
#317=AXIS2_PLACEMENT_3D('',#530,#377,#378);
#318=AXIS2_PLACEMENT_3D('',#531,#379,#380);
#319=AXIS2_PLACEMENT_3D('',#533,#382,#383);
#320=AXIS2_PLACEMENT_3D('',#535,#385,#386);
#321=AXIS2_PLACEMENT_3D('',#536,#387,#388);
#322=AXIS2_PLACEMENT_3D('',#538,#390,#391);
#323=AXIS2_PLACEMENT_3D('',#540,#393,#394);
#324=AXIS2_PLACEMENT_3D('',#541,#395,#396);
#325=DIRECTION('',(0.,0.,1.));
#326=DIRECTION('',(1.,0.,0.));
#327=DIRECTION('',(0.,0.,1.));
#328=DIRECTION('',(1.,0.,0.));
#329=DIRECTION('',(0.,0.,1.));
#330=DIRECTION('',(1.,0.,0.));
#331=DIRECTION('',(0.,0.,1.));
#332=DIRECTION('',(1.,0.,0.));
#333=DIRECTION('',(0.,0.,-1.));
#334=DIRECTION('',(-0.969608451770938,-0.244661910101194,0.));
#335=DIRECTION('',(0.,0.,-1.));
#336=DIRECTION('',(-0.969608451770938,-0.244661910101194,0.));
#337=DIRECTION('',(0.,0.,1.));
#338=DIRECTION('',(0.969608451770938,0.244661910101194,0.));
#339=DIRECTION('',(0.,0.,-1.));
#340=DIRECTION('',(-0.969608451770938,-0.244661910101194,-1.00582319617098E-14));
#341=DIRECTION('',(0.,0.,1.));
#342=DIRECTION('',(0.969608451770938,0.244661910101194,1.66524679606604E-17));
#343=DIRECTION('',(0.,0.,1.));
#344=DIRECTION('',(0.969608451770938,0.244661910101194,0.));
#345=DIRECTION('',(0.,0.,1.));
#346=DIRECTION('',(0.,0.,1.));
#347=DIRECTION('',(0.969608451770938,0.244661910101194,0.));
#348=DIRECTION('',(0.,0.,-1.));
#349=DIRECTION('',(0.,0.,1.));
#350=DIRECTION('',(0.969608451770938,0.244661910101194,0.));
#351=DIRECTION('',(0.,0.,1.));
#352=DIRECTION('',(0.,0.,1.));
#353=DIRECTION('',(0.969608451770938,0.244661910101194,0.));
#354=DIRECTION('',(0.,0.,-1.));
#355=DIRECTION('',(0.,0.,1.));
#356=DIRECTION('',(0.969608451770938,0.244661910101194,0.));
#357=DIRECTION('',(0.,0.,1.));
#358=DIRECTION('',(0.969608451770938,0.244661910101194,0.));
#359=DIRECTION('',(0.,0.,1.));
#360=DIRECTION('',(0.969608451770938,0.244661910101194,0.));
#361=DIRECTION('',(0.,0.,-1.));
#362=DIRECTION('',(-0.969608451770938,-0.244661910101194,-4.1405632444996E-17));
#363=DIRECTION('',(0.,0.,1.));
#364=DIRECTION('',(0.969608451770938,0.244661910101194,0.));
#365=DIRECTION('',(0.,0.,-1.));
#366=DIRECTION('',(-0.969608451770938,-0.244661910101194,-4.1405632444996E-17));
#367=DIRECTION('',(-0.998212181502427,-0.0597698979434058,0.));
#368=DIRECTION('',(0.998212181502427,0.0597698979434058,0.));
#369=DIRECTION('',(0.,0.,-1.));
#370=DIRECTION('',(-0.969608451770938,-0.244661910101194,0.));
#371=DIRECTION('',(0.,0.,1.));
#372=DIRECTION('',(0.969608451770938,0.244661910101194,0.));
#373=DIRECTION('',(0.,0.,-1.));
#374=DIRECTION('',(-0.969608451770938,-0.244661910101194,0.));
#375=DIRECTION('',(0.,0.,-1.));
#376=DIRECTION('',(-0.969608451770938,-0.244661910101194,-1.00582319617098E-14));
#377=DIRECTION('',(0.,0.,1.));
#378=DIRECTION('',(0.969608451770938,0.244661910101194,0.));
#379=DIRECTION('',(0.,0.,-1.));
#380=DIRECTION('',(-0.969608451770938,-0.244661910101194,0.));
#381=DIRECTION('',(-0.998212181502427,-0.0597698979434058,0.));
#382=DIRECTION('',(0.,0.,1.));
#383=DIRECTION('',(0.969608451770938,0.244661910101194,0.));
#384=DIRECTION('',(-0.998212181502427,-0.0597698979434058,0.));
#385=DIRECTION('',(-0.0597698979434058,0.998212181502427,-3.62202856599052E-17));
#386=DIRECTION('',(0.998212181502427,0.0597698979434058,0.));
#387=DIRECTION('',(-0.998212181502427,-0.0597698979434058,0.));
#388=DIRECTION('',(-0.0597698979434066,0.998212181502426,0.));
#389=DIRECTION('',(-0.998212181502427,-0.0597698979434058,0.));
#390=DIRECTION('',(0.,0.,1.));
#391=DIRECTION('',(0.969608451770938,0.244661910101194,0.));
#392=DIRECTION('',(-0.998212181502427,-0.0597698979434058,0.));
#393=DIRECTION('',(-0.998212181502427,-0.0597698979434058,0.));
#394=DIRECTION('',(-0.0597698979434057,0.998212181502427,0.));
#395=DIRECTION('',(0.0597698979434058,-0.998212181502427,2.21673552300833E-17));
#396=DIRECTION('',(-0.998212181502427,-0.0597698979434058,0.));
#397=CARTESIAN_POINT('',(0.,0.,0.));
#398=CARTESIAN_POINT('CRP',(-2.22044604925031E-16,5.50000000000001,-96.695266595475));
#399=CARTESIAN_POINT('',(0.,0.,-100.));
#400=CARTESIAN_POINT('',(-5.55111512312578E-17,1.83333333333334,-98.8984221984495));
#401=CARTESIAN_POINT('',(-1.11022302462516E-16,3.66666666666668,-97.7968443968989));
#402=CARTESIAN_POINT('',(0.,5.50000000000001,-96.6952665954117));
#403=CARTESIAN_POINT('',(-4.44089209850063E-16,5.49984694850879,-88.6301777303515));
#404=CARTESIAN_POINT('',(0.,5.49969389701758,-80.5650888652281));
#405=CARTESIAN_POINT('',(0.,5.49954084552636,-72.5000000001046));
#406=CARTESIAN_POINT('',(0.,0.,0.));
#407=CARTESIAN_POINT('',(0.,0.,-100.));
#408=CARTESIAN_POINT('',(0.,0.,-38.5));
#409=CARTESIAN_POINT('',(0.,0.,-72.5));
#410=CARTESIAN_POINT('',(-5.33240128468185,-1.34552816794601,-72.5));
#411=CARTESIAN_POINT('',(0.,0.,-72.5));
#412=CARTESIAN_POINT('',(0.,0.,-96.6952665953484));
#413=CARTESIAN_POINT('',(5.33284648474016,1.34564050555657,-96.6952665953484));
#414=CARTESIAN_POINT('',(0.,0.,-96.6952665953484));
#415=CARTESIAN_POINT('',(0.,0.,-100.));
#416=CARTESIAN_POINT('',(0.,0.,-98.5128699679068));
#417=CARTESIAN_POINT('',(0.,0.,-44.));
#418=CARTESIAN_POINT('',(5.33284648474015,1.34564050555657,-44.));
#419=CARTESIAN_POINT('',(5.03964574428134,-2.20271894987693,-100.));
#420=CARTESIAN_POINT('',(5.03964574428134,-2.20271894987692,-4.59999999999999));
#421=CARTESIAN_POINT('',(5.03964574428136,-2.20271894987692,-1.58771324027147));
#422=CARTESIAN_POINT('',(4.83830621897767,-2.61549095418087,-5.));
#423=CARTESIAN_POINT('',(4.87060537660906,-2.55574186004392,-5.));
#424=CARTESIAN_POINT('',(4.90239097819892,-2.49409368232001,-4.9871338783419));
#425=CARTESIAN_POINT('',(4.93021504262233,-2.43782272396918,-4.96119952816448));
#426=CARTESIAN_POINT('',(4.9542412049319,-2.38923258422256,-4.93880513972166));
#427=CARTESIAN_POINT('',(4.97615853063103,-2.34298176246861,-4.90573656951352));
#428=CARTESIAN_POINT('',(4.99352829221174,-2.30535793205326,-4.86423349062586));
#429=CARTESIAN_POINT('',(5.00846703477522,-2.27299981854575,-4.82853905646718));
#430=CARTESIAN_POINT('',(5.02054181269403,-2.24600440818163,-4.78533350587207));
#431=CARTESIAN_POINT('',(5.02839669859822,-2.22827885183306,-4.73876729936332));
#432=CARTESIAN_POINT('',(5.03574423524331,-2.21169819408522,-4.69520881704808));
#433=CARTESIAN_POINT('',(5.03964574428134,-2.20271894987692,-4.64718311019537));
#434=CARTESIAN_POINT('',(5.03964574428134,-2.20271894987692,-4.59999999999999));
#435=CARTESIAN_POINT('',(4.83830621897767,-2.61549095418087,-5.));
#436=CARTESIAN_POINT('',(0.,0.,-5.));
#437=CARTESIAN_POINT('',(-4.49164081090592,-3.1741396985332,-5.));
#438=CARTESIAN_POINT('',(-4.74079625456431,-2.7883419576352,-4.59999999999999));
#439=CARTESIAN_POINT('',(-4.74079625456431,-2.7883419576352,-4.64101858029735));
#440=CARTESIAN_POINT('',(-4.73709380872279,-2.79466154390501,-4.68260458370139));
#441=CARTESIAN_POINT('',(-4.73004347930284,-2.80654390379068,-4.72122616197349));
#442=CARTESIAN_POINT('',(-4.72300338445187,-2.81840901471895,-4.75979167546011));
#443=CARTESIAN_POINT('',(-4.71245521560551,-2.83609034041461,-4.79643473301495));
#444=CARTESIAN_POINT('',(-4.6992840458126,-2.85774901920569,-4.82860715198912));
#445=CARTESIAN_POINT('',(-4.68560191565558,-2.8802479214982,-4.86202766290744));
#446=CARTESIAN_POINT('',(-4.66877171501899,-2.90754283865391,-4.89147190986695));
#447=CARTESIAN_POINT('',(-4.65000637280428,-2.93725053968495,-4.91546453938226));
#448=CARTESIAN_POINT('',(-4.62930700074222,-2.97002003302615,-4.94192994349812));
#449=CARTESIAN_POINT('',(-4.60577768184507,-3.00646307952554,-4.96242254603757));
#450=CARTESIAN_POINT('',(-4.58097683670584,-3.04378895811857,-4.97636593803011));
#451=CARTESIAN_POINT('',(-4.55283206404529,-3.08614752942767,-4.99218933419036));
#452=CARTESIAN_POINT('',(-4.52237872472855,-3.13064329280422,-5.));
#453=CARTESIAN_POINT('',(-4.49164081090592,-3.1741396985332,-5.));
#454=CARTESIAN_POINT('',(-4.74079625456431,-2.7883419576352,-4.59999999999999));
#455=CARTESIAN_POINT('',(-4.74079625456431,-2.78834195763521,-100.));
#456=CARTESIAN_POINT('',(-4.74079625456432,-2.7883419576352,-1.58771324027147));
#457=CARTESIAN_POINT('',(0.,0.,-1.58771324027147));
#458=CARTESIAN_POINT('',(-5.03964574428136,2.20271894987692,-1.58771324027147));
#459=CARTESIAN_POINT('',(-5.03964574428135,2.20271894987692,-100.));
#460=CARTESIAN_POINT('',(-5.03964574428134,2.20271894987692,-4.59999999999999));
#461=CARTESIAN_POINT('',(-4.83830621897767,2.61549095418087,-5.));
#462=CARTESIAN_POINT('',(-4.87060537660906,2.55574186004392,-5.));
#463=CARTESIAN_POINT('',(-4.90239097819891,2.49409368232001,-4.98713387834189));
#464=CARTESIAN_POINT('',(-4.93021504262232,2.43782272396918,-4.96119952816448));
#465=CARTESIAN_POINT('',(-4.95424120493189,2.38923258422257,-4.93880513972166));
#466=CARTESIAN_POINT('',(-4.97615853063103,2.34298176246861,-4.90573656951351));
#467=CARTESIAN_POINT('',(-4.99352829221174,2.30535793205326,-4.86423349062585));
#468=CARTESIAN_POINT('',(-5.00846703477522,2.27299981854576,-4.82853905646718));
#469=CARTESIAN_POINT('',(-5.02054181269403,2.24600440818164,-4.78533350587207));
#470=CARTESIAN_POINT('',(-5.02839669859822,2.22827885183306,-4.73876729936332));
#471=CARTESIAN_POINT('',(-5.03574423524331,2.21169819408522,-4.69520881704808));
#472=CARTESIAN_POINT('',(-5.03964574428134,2.20271894987692,-4.64718311019537));
#473=CARTESIAN_POINT('',(-5.03964574428134,2.20271894987692,-4.59999999999999));
#474=CARTESIAN_POINT('',(-4.83830621897767,2.61549095418087,-5.));
#475=CARTESIAN_POINT('',(0.,0.,-5.));
#476=CARTESIAN_POINT('',(4.49164081090592,3.1741396985332,-5.));
#477=CARTESIAN_POINT('',(4.74079625456431,2.7883419576352,-4.59999999999999));
#478=CARTESIAN_POINT('',(4.74079625456431,2.7883419576352,-4.64101858029735));
#479=CARTESIAN_POINT('',(4.73709380872279,2.79466154390502,-4.68260458370138));
#480=CARTESIAN_POINT('',(4.73004347930284,2.80654390379068,-4.72122616197349));
#481=CARTESIAN_POINT('',(4.72300338445186,2.81840901471895,-4.75979167546011));
#482=CARTESIAN_POINT('',(4.71245521560551,2.83609034041461,-4.79643473301495));
#483=CARTESIAN_POINT('',(4.6992840458126,2.85774901920569,-4.82860715198912));
#484=CARTESIAN_POINT('',(4.68560191565558,2.88024792149821,-4.86202766290744));
#485=CARTESIAN_POINT('',(4.66877171501898,2.90754283865391,-4.89147190986695));
#486=CARTESIAN_POINT('',(4.65000637280428,2.93725053968495,-4.91546453938226));
#487=CARTESIAN_POINT('',(4.62930700074222,2.97002003302615,-4.94192994349812));
#488=CARTESIAN_POINT('',(4.60577768184506,3.00646307952554,-4.96242254603757));
#489=CARTESIAN_POINT('',(4.58097683670584,3.04378895811857,-4.97636593803011));
#490=CARTESIAN_POINT('',(4.55283206404529,3.08614752942768,-4.99218933419036));
#491=CARTESIAN_POINT('',(4.52237872472855,3.13064329280422,-5.));
#492=CARTESIAN_POINT('',(4.49164081090592,3.1741396985332,-5.));
#493=CARTESIAN_POINT('',(4.74079625456431,2.7883419576352,-4.59999999999999));
#494=CARTESIAN_POINT('',(4.74079625456432,2.7883419576352,-100.));
#495=CARTESIAN_POINT('',(4.74079625456432,2.7883419576352,-1.58771324027147));
#496=CARTESIAN_POINT('',(0.,0.,-1.58771324027147));
#497=CARTESIAN_POINT('',(0.,0.,-100.));
#498=CARTESIAN_POINT('',(5.03964574428135,-2.20271894987692,-1.58771324027148));
#499=CARTESIAN_POINT('',(4.42659818933068,-2.23942636586809,-1.04067935289976));
#500=CARTESIAN_POINT('',(3.8056270923583,-2.27660821936539,-0.502618964820488));
#501=CARTESIAN_POINT('',(3.1533614471447,-2.3156638948709,-1.07169164179736E-15));
#502=CARTESIAN_POINT('',(3.15336144714469,-2.3156638948709,0.));
#503=CARTESIAN_POINT('',(2.85451195742767,2.67539701264123,-3.17040934269776E-16));
#504=CARTESIAN_POINT('',(3.50591065178811,2.7144007777764,-0.501950915010467));
#505=CARTESIAN_POINT('',(4.12720273309524,2.75160185083572,-1.04019217668555));
#506=CARTESIAN_POINT('',(4.74079625456432,2.7883419576352,-1.58771324027147));
#507=CARTESIAN_POINT('',(2.85451195742767,2.67539701264123,0.));
#508=CARTESIAN_POINT('',(0.,0.,0.));
#509=CARTESIAN_POINT('',(0.,0.,-1.58771324027147));
#510=CARTESIAN_POINT('',(-2.85451195742767,-2.67539701264123,-5.19501700599072E-16));
#511=CARTESIAN_POINT('',(-3.50591065178811,-2.7144007777764,-0.501950915010467));
#512=CARTESIAN_POINT('',(-4.12720273309524,-2.75160185083572,-1.04019217668555));
#513=CARTESIAN_POINT('',(-4.74079625456432,-2.7883419576352,-1.58771324027147));
#514=CARTESIAN_POINT('',(-2.85451195742767,-2.67539701264123,0.));
#515=CARTESIAN_POINT('',(0.,0.,0.));
#516=CARTESIAN_POINT('',(-3.1533614471447,2.3156638948709,0.));
#517=CARTESIAN_POINT('',(-5.03964574428135,2.20271894987692,-1.58771324027148));
#518=CARTESIAN_POINT('',(-4.42659818933069,2.23942636586809,-1.04067935289976));
#519=CARTESIAN_POINT('',(-3.8056270923583,2.27660821936539,-0.502618964820488));
#520=CARTESIAN_POINT('',(-3.1533614471447,2.3156638948709,-1.37510342353813E-15));
#521=CARTESIAN_POINT('',(0.,0.,-1.58771324027147));
#522=CARTESIAN_POINT('',(-0.578018351032104,-2.53908752549564,-1.11022302462516E-16));
#523=CARTESIAN_POINT('',(-0.876867840749133,2.45197338201649,-1.11022302462516E-16));
#524=CARTESIAN_POINT('',(-0.957187551498793,3.79338630798432,-1.11022302462516E-16));
#525=CARTESIAN_POINT('',(0.,0.,-44.000001745331));
#526=CARTESIAN_POINT('',(5.33187687628838,1.34539584364646,-44.000001745331));
#527=CARTESIAN_POINT('',(0.,0.,-72.5));
#528=CARTESIAN_POINT('',(-5.33240128468185,-1.34552816794601,-72.5));
#529=CARTESIAN_POINT('',(0.,0.,-96.6952665953484));
#530=CARTESIAN_POINT('',(-1.34539584364646,5.33187687628838,-44.0000008726655));
#531=CARTESIAN_POINT('',(0.,0.,-72.5));
#532=CARTESIAN_POINT('',(10.8070012924908,3.5522842037345,-4.99999999999999));
#533=CARTESIAN_POINT('',(10.8070012924908,3.5522842037345,-5.));
#534=CARTESIAN_POINT('',(10.8309092516682,3.15299933113353,-4.59999999999999));
#535=CARTESIAN_POINT('',(10.8309092516682,3.15299933113353,4.59999999999999));
#536=CARTESIAN_POINT('',(10.8070012924908,3.5522842037345,-4.59999999999999));
#537=CARTESIAN_POINT('',(11.1536667005626,-2.23734644897957,-5.));
#538=CARTESIAN_POINT('',(11.4166542515136,-6.62948004759025,-5.));
#539=CARTESIAN_POINT('',(11.1297587413852,-1.83806157637859,-4.59999999999999));
#540=CARTESIAN_POINT('',(11.1536667005626,-2.23734644897957,-4.59999999999999));
#541=CARTESIAN_POINT('',(11.1297587413852,-1.8380615763786,-4.59999999999999));
#542=MECHANICAL_DESIGN_GEOMETRIC_PRESENTATION_REPRESENTATION('',(#274,#275,
#276,#277,#278,#279,#280),#543);
#543=(
GEOMETRIC_REPRESENTATION_CONTEXT(3)
GLOBAL_UNCERTAINTY_ASSIGNED_CONTEXT((#544))
GLOBAL_UNIT_ASSIGNED_CONTEXT((#550,#546,#545))
REPRESENTATION_CONTEXT('CAPP~~210908185012~5968694~MOD~TM01_00~ISO~FR',
'TOP_LEVEL_ASSEMBLY_PART')
);
#544=UNCERTAINTY_MEASURE_WITH_UNIT(LENGTH_MEASURE(0.0508),#550,
'DISTANCE_ACCURACY_VALUE','Maximum Tolerance applied to model');
#545=(
NAMED_UNIT(*)
SI_UNIT($,.STERADIAN.)
SOLID_ANGLE_UNIT()
);
#546=(
CONVERSION_BASED_UNIT('DEGREE',#548)
NAMED_UNIT(#547)
PLANE_ANGLE_UNIT()
);
#547=DIMENSIONAL_EXPONENTS(0.,0.,0.,0.,0.,0.,0.);
#548=PLANE_ANGLE_MEASURE_WITH_UNIT(PLANE_ANGLE_MEASURE(0.0174532925),#549);
#549=(
NAMED_UNIT(*)
PLANE_ANGLE_UNIT()
SI_UNIT($,.RADIAN.)
);
#550=(
LENGTH_UNIT()
NAMED_UNIT(*)
SI_UNIT(.MILLI.,.METRE.)
);
ENDSEC;
END-ISO-10303-21;
