  0
SECTION
  2
HEADER
  9
$ACADVER
  1
AC1018
  9
$ACADMAINTVER
 70
   104
  9
$DWGCODEPAGE
  3
ANSI_1250
  9
$LASTSAVEDBY
  1
wq7085
  9
$INSBASE
 10
0.0
 20
0.0
 30
0.0
  9
$EXTMIN
 10
185.2894053333333
 20
118.534924
 30
0.0
  9
$EXTMAX
 10
463.80149
 20
347.6965206666668
 30
0.0
  9
$LIMMIN
 10
-0.5
 20
-0.5
  9
$LIMMAX
 10
5.0
 20
5.0
  9
$ORTHOMODE
 70
     0
  9
$REGENMODE
 70
     1
  9
$FILLMODE
 70
     1
  9
$QTEXTMODE
 70
     0
  9
$MIRRTEXT
 70
     1
  9
$LTSCALE
 40
1.0
  9
$ATTMODE
 70
     1
  9
$TEXTSIZE
 40
0.2
  9
$TRACEWID
 40
0.05
  9
$TEXTSTYLE
  7
Standard
  9
$CLAYER
  8
0
  9
$CELTYPE
  6
ByLayer
  9
$CECOLOR
 62
   256
  9
$CELTSCALE
 40
1.0
  9
$DISPSILH
 70
     0
  9
$DIMSCALE
 40
1.0
  9
$DIMASZ
 40
0.18
  9
$DIMEXO
 40
0.0625
  9
$DIMDLI
 40
0.38
  9
$DIMRND
 40
0.0
  9
$DIMDLE
 40
0.0
  9
$DIMEXE
 40
0.18
  9
$DIMTP
 40
0.0
  9
$DIMTM
 40
0.0
  9
$DIMTXT
 40
0.18
  9
$DIMCEN
 40
0.09
  9
$DIMTSZ
 40
0.0
  9
$DIMTOL
 70
     0
  9
$DIMLIM
 70
     0
  9
$DIMTIH
 70
     1
  9
$DIMTOH
 70
     1
  9
$DIMSE1
 70
     0
  9
$DIMSE2
 70
     0
  9
$DIMTAD
 70
     0
  9
$DIMZIN
 70
     0
  9
$DIMBLK
  1

  9
$DIMASO
 70
     1
  9
$DIMSHO
 70
     1
  9
$DIMPOST
  1

  9
$DIMAPOST
  1

  9
$DIMALT
 70
     0
  9
$DIMALTD
 70
     2
  9
$DIMALTF
 40
25.4
  9
$DIMLFAC
 40
1.0
  9
$DIMTOFL
 70
     0
  9
$DIMTVP
 40
0.0
  9
$DIMTIX
 70
     0
  9
$DIMSOXD
 70
     0
  9
$DIMSAH
 70
     0
  9
$DIMBLK1
  1

  9
$DIMBLK2
  1

  9
$DIMSTYLE
  2
Standard
  9
$DIMCLRD
 70
     0
  9
$DIMCLRE
 70
     0
  9
$DIMCLRT
 70
     0
  9
$DIMTFAC
 40
1.0
  9
$DIMGAP
 40
0.09
  9
$DIMJUST
 70
     0
  9
$DIMSD1
 70
     0
  9
$DIMSD2
 70
     0
  9
$DIMTOLJ
 70
     1
  9
$DIMTZIN
 70
     0
  9
$DIMALTZ
 70
     0
  9
$DIMALTTZ
 70
     0
  9
$DIMUPT
 70
     0
  9
$DIMDEC
 70
     4
  9
$DIMTDEC
 70
     4
  9
$DIMALTU
 70
     2
  9
$DIMALTTD
 70
     2
  9
$DIMTXSTY
  7
Standard
  9
$DIMAUNIT
 70
     0
  9
$DIMADEC
 70
     0
  9
$DIMALTRND
 40
0.0
  9
$DIMAZIN
 70
     0
  9
$DIMDSEP
 70
    46
  9
$DIMATFIT
 70
     3
  9
$DIMFRAC
 70
     0
  9
$DIMLDRBLK
  1

  9
$DIMLUNIT
 70
     2
  9
$DIMLWD
 70
    -2
  9
$DIMLWE
 70
    -2
  9
$DIMTMOVE
 70
     0
  9
$LUNITS
 70
     2
  9
$LUPREC
 70
     4
  9
$SKETCHINC
 40
0.1
  9
$FILLETRAD
 40
0.5
  9
$AUNITS
 70
     0
  9
$AUPREC
 70
     0
  9
$MENU
  1
.
  9
$ELEVATION
 40
0.0
  9
$PELEVATION
 40
0.0
  9
$THICKNESS
 40
0.0
  9
$LIMCHECK
 70
     0
  9
$CHAMFERA
 40
0.0
  9
$CHAMFERB
 40
0.0
  9
$CHAMFERC
 40
0.0
  9
$CHAMFERD
 40
0.0
  9
$SKPOLY
 70
     0
  9
$TDCREATE
 40
2459095.522129630
  9
$TDUCREATE
 40
2459095.438798993
  9
$TDUPDATE
 40
2459095.522523148
  9
$TDUUPDATE
 40
2459095.439189815
  9
$TDINDWG
 40
0.0001620486
  9
$TDUSRTIMER
 40
0.0001620486
  9
$USRTIMER
 70
     1
  9
$ANGBASE
 50
0.0
  9
$ANGDIR
 70
     0
  9
$PDMODE
 70
     0
  9
$PDSIZE
 40
0.0
  9
$PLINEWID
 40
0.0
  9
$SPLFRAME
 70
     0
  9
$SPLINETYPE
 70
     6
  9
$SPLINESEGS
 70
     8
  9
$HANDSEED
  5
38F
  9
$SURFTAB1
 70
     6
  9
$SURFTAB2
 70
     6
  9
$SURFTYPE
 70
     6
  9
$SURFU
 70
     6
  9
$SURFV
 70
     6
  9
$UCSBASE
  2

  9
$UCSNAME
  2

  9
$UCSORG
 10
274.404842
 20
288.907994
 30
0.0
  9
$UCSXDIR
 10
1.0
 20
0.0
 30
0.0
  9
$UCSYDIR
 10
0.0
 20
1.0
 30
0.0
  9
$UCSORTHOREF
  2

  9
$UCSORTHOVIEW
 70
     0
  9
$UCSORGTOP
 10
0.0
 20
0.0
 30
0.0
  9
$UCSORGBOTTOM
 10
0.0
 20
0.0
 30
0.0
  9
$UCSORGLEFT
 10
0.0
 20
0.0
 30
0.0
  9
$UCSORGRIGHT
 10
0.0
 20
0.0
 30
0.0
  9
$UCSORGFRONT
 10
0.0
 20
0.0
 30
0.0
  9
$UCSORGBACK
 10
0.0
 20
0.0
 30
0.0
  9
$PUCSBASE
  2

  9
$PUCSNAME
  2

  9
$PUCSORG
 10
0.0
 20
0.0
 30
0.0
  9
$PUCSXDIR
 10
1.0
 20
0.0
 30
0.0
  9
$PUCSYDIR
 10
0.0
 20
1.0
 30
0.0
  9
$PUCSORTHOREF
  2

  9
$PUCSORTHOVIEW
 70
     0
  9
$PUCSORGTOP
 10
0.0
 20
0.0
 30
0.0
  9
$PUCSORGBOTTOM
 10
0.0
 20
0.0
 30
0.0
  9
$PUCSORGLEFT
 10
0.0
 20
0.0
 30
0.0
  9
$PUCSORGRIGHT
 10
0.0
 20
0.0
 30
0.0
  9
$PUCSORGFRONT
 10
0.0
 20
0.0
 30
0.0
  9
$PUCSORGBACK
 10
0.0
 20
0.0
 30
0.0
  9
$USERI1
 70
     0
  9
$USERI2
 70
     0
  9
$USERI3
 70
     0
  9
$USERI4
 70
     0
  9
$USERI5
 70
     0
  9
$USERR1
 40
0.0
  9
$USERR2
 40
0.0
  9
$USERR3
 40
0.0
  9
$USERR4
 40
0.0
  9
$USERR5
 40
0.0
  9
$WORLDVIEW
 70
     1
  9
$SHADEDGE
 70
     3
  9
$SHADEDIF
 70
    70
  9
$TILEMODE
 70
     1
  9
$MAXACTVP
 70
    64
  9
$PINSBASE
 10
0.0
 20
0.0
 30
0.0
  9
$PLIMCHECK
 70
     0
  9
$PEXTMIN
 10
-0.5
 20
-0.5
 30
-0.5
  9
$PEXTMAX
 10
5.0
 20
5.0
 30
5.0
  9
$PLIMMIN
 10
-0.5
 20
-0.5
  9
$PLIMMAX
 10
5.0
 20
5.0
  9
$UNITMODE
 70
     0
  9
$VISRETAIN
 70
     1
  9
$PLINEGEN
 70
     0
  9
$PSLTSCALE
 70
     1
  9
$TREEDEPTH
 70
  3020
  9
$CMLSTYLE
  2
Standard
  9
$CMLJUST
 70
     0
  9
$CMLSCALE
 40
1.0
  9
$PROXYGRAPHICS
 70
     1
  9
$MEASUREMENT
 70
     1
  9
$CELWEIGHT
370
    13
  9
$ENDCAPS
280
     0
  9
$JOINSTYLE
280
     0
  9
$LWDISPLAY
290
     0
  9
$INSUNITS
 70
     4
  9
$HYPERLINKBASE
  1

  9
$STYLESHEET
  1

  9
$XEDIT
290
     1
  9
$CEPSNTYPE
380
     0
  9
$PSTYLEMODE
290
     1
  9
$FINGERPRINTGUID
  2
{3AC12845-414C-4989-B352-F9E2E9A8B728}
  9
$VERSIONGUID
  2
{3FE1B265-7267-0A46-B717-775E743C35D6}
  9
$EXTNAMES
290
     1
  9
$PSVPSCALE
 40
0.0
  9
$OLESTARTUP
290
     0
  9
$SORTENTS
280
   127
  9
$INDEXCTL
280
     0
  9
$HIDETEXT
280
     1
  9
$XCLIPFRAME
290
     0
  9
$HALOGAP
280
     0
  9
$OBSCOLOR
 70
   257
  9
$OBSLTYPE
280
     0
  9
$INTERSECTIONDISPLAY
280
     0
  9
$INTERSECTIONCOLOR
 70
   257
  9
$DIMASSOC
280
     2
  9
$PROJECTNAME
  1

  0
ENDSEC
  0
SECTION
  2
CLASSES
  0
CLASS
  1
ACDBDICTIONARYWDFLT
  2
AcDbDictionaryWithDefault
  3
ObjectDBX Classes
 90
        0
 91
        1
280
     0
281
     0
  0
CLASS
  1
VISUALSTYLE
  2
AcDbVisualStyle
  3
ObjectDBX Classes
 90
     4095
 91
       24
280
     0
281
     0
  0
CLASS
  1
MATERIAL
  2
AcDbMaterial
  3
ObjectDBX Classes
 90
     1153
 91
        3
280
     0
281
     0
  0
CLASS
  1
SCALE
  2
AcDbScale
  3
ObjectDBX Classes
 90
     1153
 91
       33
280
     0
281
     0
  0
CLASS
  1
TABLESTYLE
  2
AcDbTableStyle
  3
ObjectDBX Classes
 90
     4095
 91
        1
280
     0
281
     0
  0
CLASS
  1
MLEADERSTYLE
  2
AcDbMLeaderStyle
  3
ACDB_MLEADERSTYLE_CLASS
 90
     4095
 91
        1
280
     0
281
     0
  0
CLASS
  1
SUN
  2
AcDbSun
  3
SCENEOE
 90
     1153
 91
        0
280
     0
281
     0
  0
CLASS
  1
DIMASSOC
  2
AcDbDimAssoc
  3
"AcDbDimAssoc|Product Desc:     AcDim ARX App For Dimension|Company:          Autodesk, Inc.|WEB Address:      www.autodesk.com"
 90
        0
 91
        7
280
     0
281
     0
  0
CLASS
  1
DICTIONARYVAR
  2
AcDbDictionaryVar
  3
ObjectDBX Classes
 90
        0
 91
        8
280
     0
281
     0
  0
CLASS
  1
CELLSTYLEMAP
  2
AcDbCellStyleMap
  3
ObjectDBX Classes
 90
     1152
 91
        2
280
     0
281
     0
  0
CLASS
  1
ACDBSECTIONVIEWSTYLE
  2
AcDbSectionViewStyle
  3
ObjectDBX Classes
 90
     1025
 91
        1
280
     0
281
     0
  0
CLASS
  1
ACDBDETAILVIEWSTYLE
  2
AcDbDetailViewStyle
  3
ObjectDBX Classes
 90
     1025
 91
        1
280
     0
281
     0
  0
CLASS
  1
SORTENTSTABLE
  2
AcDbSortentsTable
  3
ObjectDBX Classes
 90
        0
 91
        1
280
     0
281
     0
  0
ENDSEC
  0
SECTION
  2
TABLES
  0
TABLE
  2
VPORT
  5
8
330
0
100
AcDbSymbolTable
 70
    16
  0
VPORT
  5
29
330
8
100
AcDbSymbolTableRecord
100
AcDbViewportTableRecord
  2
*Active
 70
     0
 10
0.0
 20
0.0
 11
1.0
 21
1.0
 12
329.8941257579532
 22
295.0730424721044
 13
0.0
 23
0.0
 14
0.5
 24
0.5
 15
0.5
 25
0.5
 16
0.0
 26
0.0
 36
1.0
 17
0.0
 27
0.0
 37
0.0
 40
201.8744678535268
 41
2.292712066905615
 42
50.0
 43
481.190516
 44
-481.190516
 50
0.0
 51
0.0
 71
     0
 72
   100
 73
     1
 74
     3
 75
     0
 76
     0
 77
     0
 78
     0
281
     0
 65
     1
110
274.404842
120
288.907994
130
0.0
111
1.0
121
0.0
131
0.0
112
0.0
122
1.0
132
0.0
 79
     0
146
0.0
1001
ACAD_NAV_VCDISPLAY
1070
     3
  0
VPORT
  5
293
330
8
100
AcDbSymbolTableRecord
100
AcDbViewportTableRecord
  2
L1
 70
     0
 10
0.0
 20
0.0
 11
1.0
 21
1.0
 12
324.041237
 22
232.998487
 13
0.0
 23
0.0
 14
0.5
 24
0.5
 15
0.5
 25
0.5
 16
0.0
 26
0.0
 36
1.0
 17
0.0
 27
0.0
 37
0.0
 40
207.433333
 41
0.085602
 42
50.0
 43
481.190516
 44
-481.190516
 50
0.0
 51
0.0
 71
     0
 72
   100
 73
     1
 74
     3
 75
     0
 76
     0
 77
     0
 78
     0
281
     0
 65
     1
110
0.0
120
0.0
130
0.0
111
1.0
121
0.0
131
0.0
112
0.0
122
1.0
132
0.0
 79
     0
146
0.0
  0
VPORT
  5
294
330
8
100
AcDbSymbolTableRecord
100
AcDbViewportTableRecord
  2
L2
 70
     0
 10
0.0
 20
0.0
 11
0.5
 21
1.0
 12
0.0
 22
0.0
 13
0.0
 23
0.0
 14
0.5
 24
0.5
 15
0.5
 25
0.5
 16
0.0
 26
-1.0
 36
0.0
 17
0.0
 27
0.0
 37
0.0
 40
1316.18997
 41
0.013491
 42
50.0
 43
678.00864
 44
-678.00864
 50
0.0
 51
0.0
 71
     0
 72
   100
 73
     1
 74
     3
 75
     0
 76
     0
 77
     0
 78
     0
281
     0
 65
     1
110
0.0
120
0.0
130
0.0
111
1.0
121
0.0
131
0.0
112
0.0
122
1.0
132
0.0
 79
     0
146
0.0
  0
VPORT
  5
295
330
8
100
AcDbSymbolTableRecord
100
AcDbViewportTableRecord
  2
L2
 70
     0
 10
0.5
 20
0.0
 11
1.0
 21
1.0
 12
0.0
 22
0.0
 13
0.0
 23
0.0
 14
0.5
 24
0.5
 15
0.5
 25
0.5
 16
1.0
 26
0.0
 36
0.0
 17
0.0
 27
0.0
 37
0.0
 40
1316.18997
 41
0.013491
 42
50.0
 43
666.2177989999999
 44
-666.2177989999999
 50
0.0
 51
0.0
 71
     0
 72
   100
 73
     1
 74
     3
 75
     0
 76
     0
 77
     0
 78
     0
281
     0
 65
     1
110
0.0
120
0.0
130
0.0
111
1.0
121
0.0
131
0.0
112
0.0
122
1.0
132
0.0
 79
     0
146
0.0
  0
VPORT
  5
296
330
8
100
AcDbSymbolTableRecord
100
AcDbViewportTableRecord
  2
L3
 70
     0
 10
0.0
 20
0.5
 11
1.0
 21
1.0
 12
324.041237
 22
232.998487
 13
0.0
 23
0.0
 14
0.5
 24
0.5
 15
0.5
 25
0.5
 16
0.0
 26
0.0
 36
1.0
 17
0.0
 27
0.0
 37
0.0
 40
207.433333
 41
0.085602
 42
50.0
 43
481.190516
 44
-481.190516
 50
0.0
 51
0.0
 71
     0
 72
   100
 73
     1
 74
     3
 75
     0
 76
     0
 77
     0
 78
     0
281
     0
 65
     1
110
0.0
120
0.0
130
0.0
111
1.0
121
0.0
131
0.0
112
0.0
122
1.0
132
0.0
 79
     0
146
0.0
  0
VPORT
  5
297
330
8
100
AcDbSymbolTableRecord
100
AcDbViewportTableRecord
  2
L3
 70
     0
 10
0.0
 20
0.0
 11
1.0
 21
0.5
 12
0.0
 22
0.0
 13
0.0
 23
0.0
 14
0.5
 24
0.5
 15
0.5
 25
0.5
 16
0.0
 26
-1.0
 36
0.0
 17
0.0
 27
0.0
 37
0.0
 40
1316.18997
 41
0.013491
 42
50.0
 43
678.00864
 44
-678.00864
 50
0.0
 51
0.0
 71
     0
 72
   100
 73
     1
 74
     3
 75
     0
 76
     0
 77
     0
 78
     0
281
     0
 65
     1
110
0.0
120
0.0
130
0.0
111
1.0
121
0.0
131
0.0
112
0.0
122
1.0
132
0.0
 79
     0
146
0.0
  0
VPORT
  5
298
330
8
100
AcDbSymbolTableRecord
100
AcDbViewportTableRecord
  2
L4
 70
     0
 10
0.0
 20
0.5
 11
0.5
 21
1.0
 12
324.041237
 22
232.998487
 13
0.0
 23
0.0
 14
0.5
 24
0.5
 15
0.5
 25
0.5
 16
0.0
 26
0.0
 36
1.0
 17
0.0
 27
0.0
 37
0.0
 40
207.433333
 41
0.085602
 42
50.0
 43
481.190516
 44
-481.190516
 50
0.0
 51
0.0
 71
     0
 72
   100
 73
     1
 74
     3
 75
     0
 76
     0
 77
     0
 78
     0
281
     0
 65
     1
110
0.0
120
0.0
130
0.0
111
1.0
121
0.0
131
0.0
112
0.0
122
1.0
132
0.0
 79
     0
146
0.0
  0
VPORT
  5
299
330
8
100
AcDbSymbolTableRecord
100
AcDbViewportTableRecord
  2
L4
 70
     0
 10
0.0
 20
0.0
 11
0.5
 21
0.5
 12
0.0
 22
0.0
 13
0.0
 23
0.0
 14
0.5
 24
0.5
 15
0.5
 25
0.5
 16
0.0
 26
-1.0
 36
0.0
 17
0.0
 27
0.0
 37
0.0
 40
1316.18997
 41
0.013491
 42
50.0
 43
678.00864
 44
-678.00864
 50
0.0
 51
0.0
 71
     0
 72
   100
 73
     1
 74
     3
 75
     0
 76
     0
 77
     0
 78
     0
281
     0
 65
     1
110
0.0
120
0.0
130
0.0
111
1.0
121
0.0
131
0.0
112
0.0
122
1.0
132
0.0
 79
     0
146
0.0
  0
VPORT
  5
29A
330
8
100
AcDbSymbolTableRecord
100
AcDbViewportTableRecord
  2
L4
 70
     0
 10
0.5
 20
0.0
 11
1.0
 21
0.5
 12
0.0
 22
0.0
 13
0.0
 23
0.0
 14
0.5
 24
0.5
 15
0.5
 25
0.5
 16
1.0
 26
0.0
 36
0.0
 17
0.0
 27
0.0
 37
0.0
 40
1316.18997
 41
0.013491
 42
50.0
 43
666.2177989999999
 44
-666.2177989999999
 50
0.0
 51
0.0
 71
     0
 72
   100
 73
     1
 74
     3
 75
     0
 76
     0
 77
     0
 78
     0
281
     0
 65
     1
110
0.0
120
0.0
130
0.0
111
1.0
121
0.0
131
0.0
112
0.0
122
1.0
132
0.0
 79
     0
146
0.0
  0
VPORT
  5
29B
330
8
100
AcDbSymbolTableRecord
100
AcDbViewportTableRecord
  2
L4
 70
     0
 10
0.5
 20
0.5
 11
1.0
 21
1.0
 12
0.0
 22
0.0
 13
0.0
 23
0.0
 14
0.5
 24
0.5
 15
0.5
 25
0.5
 16
0.5773502691896259
 26
-0.5773502691896259
 36
0.5773502691896259
 17
0.0
 27
0.0
 37
0.0
 40
1292.532264
 41
0.013738
 42
50.0
 43
673.245608
 44
-673.245608
 50
0.0
 51
0.0
 71
     0
 72
   100
 73
     1
 74
     3
 75
     0
 76
     0
 77
     0
 78
     0
281
     0
 65
     1
110
0.0
120
0.0
130
0.0
111
1.0
121
0.0
131
0.0
112
0.0
122
1.0
132
0.0
 79
     0
146
0.0
  0
VPORT
  5
29C
330
8
100
AcDbSymbolTableRecord
100
AcDbViewportTableRecord
  2
L6
 70
     0
 10
0.0
 20
0.5
 11
0.333333
 21
1.0
 12
0.0
 22
0.0
 13
0.0
 23
0.0
 14
0.5
 24
0.5
 15
0.5
 25
0.5
 16
0.7188730927569434
 26
-0.5850486126764433
 36
0.3754192287502549
 17
0.0
 27
0.0
 37
0.0
 40
1364.064247
 41
0.013018
 42
50.0
 43
706.2613849999999
 44
-706.2613849999999
 50
0.0
 51
0.0
 71
     0
 72
   100
 73
     1
 74
     3
 75
     0
 76
     0
 77
     0
 78
     0
281
     0
 65
     1
110
0.0
120
0.0
130
0.0
111
1.0
121
0.0
131
0.0
112
0.0
122
1.0
132
0.0
 79
     0
146
0.0
  0
VPORT
  5
29D
330
8
100
AcDbSymbolTableRecord
100
AcDbViewportTableRecord
  2
L6
 70
     0
 10
0.0
 20
0.0
 11
0.333333
 21
0.5
 12
0.0
 22
0.0
 13
0.0
 23
0.0
 14
0.5
 24
0.5
 15
0.5
 25
0.5
 16
-1.0
 26
0.0
 36
0.0
 17
0.0
 27
0.0
 37
0.0
 40
1316.18997
 41
0.013491
 42
50.0
 43
666.2177989999999
 44
-666.2177989999999
 50
0.0
 51
0.0
 71
     0
 72
   100
 73
     1
 74
     3
 75
     0
 76
     0
 77
     0
 78
     0
281
     0
 65
     1
110
0.0
120
0.0
130
0.0
111
1.0
121
0.0
131
0.0
112
0.0
122
1.0
132
0.0
 79
     0
146
0.0
  0
VPORT
  5
29E
330
8
100
AcDbSymbolTableRecord
100
AcDbViewportTableRecord
  2
L6
 70
     0
 10
0.333333
 20
0.5
 11
0.666667
 21
1.0
 12
324.041237
 22
232.998487
 13
0.0
 23
0.0
 14
0.5
 24
0.5
 15
0.5
 25
0.5
 16
0.0
 26
0.0
 36
1.0
 17
0.0
 27
0.0
 37
0.0
 40
207.433333
 41
0.085602
 42
50.0
 43
481.190516
 44
-481.190516
 50
0.0
 51
0.0
 71
     0
 72
   100
 73
     1
 74
     3
 75
     0
 76
     0
 77
     0
 78
     0
281
     0
 65
     1
110
0.0
120
0.0
130
0.0
111
1.0
121
0.0
131
0.0
112
0.0
122
1.0
132
0.0
 79
     0
146
0.0
  0
VPORT
  5
29F
330
8
100
AcDbSymbolTableRecord
100
AcDbViewportTableRecord
  2
L6
 70
     0
 10
0.333333
 20
0.0
 11
0.666667
 21
0.5
 12
0.0
 22
0.0
 13
0.0
 23
0.0
 14
0.5
 24
0.5
 15
0.5
 25
0.5
 16
0.0
 26
-1.0
 36
0.0
 17
0.0
 27
0.0
 37
0.0
 40
1316.18997
 41
0.013491
 42
50.0
 43
678.00864
 44
-678.00864
 50
0.0
 51
0.0
 71
     0
 72
   100
 73
     1
 74
     3
 75
     0
 76
     0
 77
     0
 78
     0
281
     0
 65
     1
110
0.0
120
0.0
130
0.0
111
1.0
121
0.0
131
0.0
112
0.0
122
1.0
132
0.0
 79
     0
146
0.0
  0
VPORT
  5
2A0
330
8
100
AcDbSymbolTableRecord
100
AcDbViewportTableRecord
  2
L6
 70
     0
 10
0.666667
 20
0.5
 11
1.0
 21
1.0
 12
0.0
 22
0.0
 13
0.0
 23
0.0
 14
0.5
 24
0.5
 15
0.5
 25
0.5
 16
0.5773502691896259
 26
-0.5773502691896259
 36
0.5773502691896259
 17
0.0
 27
0.0
 37
0.0
 40
1292.532264
 41
0.013738
 42
50.0
 43
673.245608
 44
-673.245608
 50
0.0
 51
0.0
 71
     0
 72
   100
 73
     1
 74
     3
 75
     0
 76
     0
 77
     0
 78
     0
281
     0
 65
     1
110
0.0
120
0.0
130
0.0
111
1.0
121
0.0
131
0.0
112
0.0
122
1.0
132
0.0
 79
     0
146
0.0
  0
VPORT
  5
2A1
330
8
100
AcDbSymbolTableRecord
100
AcDbViewportTableRecord
  2
L6
 70
     0
 10
0.666667
 20
0.0
 11
1.0
 21
0.5
 12
0.0
 22
0.0
 13
0.0
 23
0.0
 14
0.5
 24
0.5
 15
0.5
 25
0.5
 16
1.0
 26
0.0
 36
0.0
 17
0.0
 27
0.0
 37
0.0
 40
1316.18997
 41
0.013491
 42
50.0
 43
666.2177989999999
 44
-666.2177989999999
 50
0.0
 51
0.0
 71
     0
 72
   100
 73
     1
 74
     3
 75
     0
 76
     0
 77
     0
 78
     0
281
     0
 65
     1
110
0.0
120
0.0
130
0.0
111
1.0
121
0.0
131
0.0
112
0.0
122
1.0
132
0.0
 79
     0
146
0.0
  0
ENDTAB
  0
TABLE
  2
LTYPE
  5
5
330
0
100
AcDbSymbolTable
 70
     7
  0
LTYPE
  5
14
330
5
100
AcDbSymbolTableRecord
100
AcDbLinetypeTableRecord
  2
ByBlock
 70
     0
  3

 72
    65
 73
     0
 40
0.0
  0
LTYPE
  5
15
330
5
100
AcDbSymbolTableRecord
100
AcDbLinetypeTableRecord
  2
ByLayer
 70
     0
  3

 72
    65
 73
     0
 40
0.0
  0
LTYPE
  5
16
330
5
100
AcDbSymbolTableRecord
100
AcDbLinetypeTableRecord
  2
Continuous
 70
     0
  3
Solid line
 72
    65
 73
     0
 40
0.0
  0
LTYPE
  5
6E
330
5
100
AcDbSymbolTableRecord
100
AcDbLinetypeTableRecord
  2
CENTER
 70
     0
  3
____ _ ____ _ ____ _ ____
 72
    65
 73
     4
 40
47.4
 49
22.0
 74
     4
 75
     0
340
0
 46
0.0
 50
0.0
 44
0.0
 45
0.0
 49
-8.5
 74
     4
 75
     0
340
0
 46
0.0
 50
0.0
 44
0.0
 45
0.0
 49
8.5
 74
     4
 75
     0
340
0
 46
0.0
 50
0.0
 44
0.0
 45
0.0
 49
-8.5
 74
     4
 75
     0
340
0
 46
0.0
 50
0.0
 44
0.0
 45
0.0
  0
LTYPE
  5
6F
330
5
100
AcDbSymbolTableRecord
100
AcDbLinetypeTableRecord
  2
DASHDOT
 70
     0
  3
_._._._._._._._._._._._._._._._.
 72
    65
 73
     4
 40
70.0
 49
31.0
 74
     4
 75
     0
340
0
 46
0.0
 50
0.0
 44
0.0
 45
0.0
 49
-13.0
 74
     4
 75
     0
340
0
 46
0.0
 50
0.0
 44
0.0
 45
0.0
 49
13.0
 74
     4
 75
     0
340
0
 46
0.0
 50
0.0
 44
0.0
 45
0.0
 49
-13.0
 74
     4
 75
     0
340
0
 46
0.0
 50
0.0
 44
0.0
 45
0.0
  0
LTYPE
  5
70
330
5
100
AcDbSymbolTableRecord
100
AcDbLinetypeTableRecord
  2
DASHED
 70
     0
  3
__ __ __ __ __ __ __ __ __
 72
    65
 73
     2
 40
25.72
 49
12.86
 74
     4
 75
     0
340
0
 46
0.0
 50
0.0
 44
0.0
 45
0.0
 49
-12.86
 74
     4
 75
     0
340
0
 46
0.0
 50
0.0
 44
0.0
 45
0.0
  0
LTYPE
  5
71
330
5
100
AcDbSymbolTableRecord
100
AcDbLinetypeTableRecord
  2
DOT
 70
     0
  3
.........................
 72
    65
 73
     2
 40
10.0
 49
0.0
 74
     4
 75
     0
340
0
 46
0.0
 50
0.0
 44
0.0
 45
0.0
 49
-10.0
 74
     4
 75
     0
340
0
 46
0.0
 50
0.0
 44
0.0
 45
0.0
  0
LTYPE
  5
72
330
5
100
AcDbSymbolTableRecord
100
AcDbLinetypeTableRecord
  2
PHANTOM
 70
     0
  3
____ _ _ ____ _ _ _____ _ _ ____
 72
    65
 73
     6
 40
50.5
 49
18.0
 74
     4
 75
     0
340
0
 46
0.0
 50
0.0
 44
0.0
 45
0.0
 49
-6.5
 74
     4
 75
     0
340
0
 46
0.0
 50
0.0
 44
0.0
 45
0.0
 49
6.5
 74
     4
 75
     0
340
0
 46
0.0
 50
0.0
 44
0.0
 45
0.0
 49
-6.5
 74
     4
 75
     0
340
0
 46
0.0
 50
0.0
 44
0.0
 45
0.0
 49
6.5
 74
     4
 75
     0
340
0
 46
0.0
 50
0.0
 44
0.0
 45
0.0
 49
-6.5
 74
     4
 75
     0
340
0
 46
0.0
 50
0.0
 44
0.0
 45
0.0
  0
LTYPE
  5
331
330
5
100
AcDbSymbolTableRecord
100
AcDbLinetypeTableRecord
  2
CENTER2
 70
     0
  3
Center (.5x) ___ _ ___ _ ___ _ ___ _ ___ _ ___
 72
    65
 73
     4
 40
1.125
 49
0.75
 74
     0
 49
-0.125
 74
     0
 49
0.125
 74
     0
 49
-0.125
 74
     0
  0
ENDTAB
  0
TABLE
  2
LAYER
  5
2
330
0
100
AcDbSymbolTable
 70
    22
  0
LAYER
  5
10
102
{ACAD_XDICTIONARY
360
33C
102
}
330
2
100
AcDbSymbolTableRecord
100
AcDbLayerTableRecord
  2
0
 70
     0
 62
     7
  6
Continuous
370
    -3
390
F
  0
LAYER
  5
1ED
330
2
100
AcDbSymbolTableRecord
100
AcDbLayerTableRecord
  2
Defpoints
 70
     0
 62
     7
  6
Continuous
290
     0
370
    -3
390
F
  0
LAYER
  5
32E
102
{ACAD_XDICTIONARY
360
33E
102
}
330
2
100
AcDbSymbolTableRecord
100
AcDbLayerTableRecord
  2
1
 70
     0
 62
     4
  6
Continuous
370
    -3
390
F
  0
LAYER
  5
32F
102
{ACAD_XDICTIONARY
360
340
102
}
330
2
100
AcDbSymbolTableRecord
100
AcDbLayerTableRecord
  2
2
 70
     0
 62
     7
  6
Continuous
370
    -3
390
F
  0
LAYER
  5
330
102
{ACAD_XDICTIONARY
360
342
102
}
330
2
100
AcDbSymbolTableRecord
100
AcDbLayerTableRecord
  2
4
 70
     0
 62
     2
  6
CENTER2
370
    -3
390
F
  0
LAYER
  5
332
102
{ACAD_XDICTIONARY
360
344
102
}
330
2
100
AcDbSymbolTableRecord
100
AcDbLayerTableRecord
  2
SK1
 70
     0
 62
     4
  6
Continuous
370
    -3
390
F
  0
LAYER
  5
333
102
{ACAD_XDICTIONARY
360
346
102
}
330
2
100
AcDbSymbolTableRecord
100
AcDbLayerTableRecord
  2
SK2
 70
     0
 62
     7
  6
Continuous
370
    -3
390
F
  0
LAYER
  5
335
102
{ACAD_XDICTIONARY
360
348
102
}
330
2
100
AcDbSymbolTableRecord
100
AcDbLayerTableRecord
  2
SK4
 70
     0
 62
     2
  6
CENTER2
370
    -3
390
F
  0
LAYER
  5
336
102
{ACAD_XDICTIONARY
360
34A
102
}
330
2
100
AcDbSymbolTableRecord
100
AcDbLayerTableRecord
  2
SK6
 70
     0
 62
     5
  6
Continuous
370
    -3
390
F
  0
LAYER
  5
337
102
{ACAD_XDICTIONARY
360
34C
102
}
330
2
100
AcDbSymbolTableRecord
100
AcDbLayerTableRecord
  2
CUT
 70
     0
 62
     1
  6
Continuous
370
    -3
390
F
  0
LAYER
  5
338
102
{ACAD_XDICTIONARY
360
34E
102
}
330
2
100
AcDbSymbolTableRecord
100
AcDbLayerTableRecord
  2
NOCUT
 70
     0
 62
     7
  6
Continuous
370
    -3
390
F
  0
LAYER
  5
339
102
{ACAD_XDICTIONARY
360
350
102
}
330
2
100
AcDbSymbolTableRecord
100
AcDbLayerTableRecord
  2
80
 70
     0
 62
     6
  6
Continuous
370
    -3
390
F
  0
LAYER
  5
33A
102
{ACAD_XDICTIONARY
360
352
102
}
330
2
100
AcDbSymbolTableRecord
100
AcDbLayerTableRecord
  2
81
 70
     0
 62
     3
  6
Continuous
370
    -3
390
F
  0
ENDTAB
  0
TABLE
  2
STYLE
  5
3
330
0
100
AcDbSymbolTable
 70
     3
  0
STYLE
  5
11
330
3
100
AcDbSymbolTableRecord
100
AcDbTextStyleTableRecord
  2
Standard
 70
     0
 40
0.0
 41
1.0
 50
0.0
 71
     0
 42
0.2
  3
txt
  4

  0
STYLE
  5
1E6
330
3
100
AcDbSymbolTableRecord
100
AcDbTextStyleTableRecord
  2
cesky
 70
     0
 40
0.0
 41
1.0
 50
0.0
 71
     0
 42
0.2
  3
simplex.shx
  4

  0
STYLE
  5
1E7
330
3
100
AcDbSymbolTableRecord
100
AcDbTextStyleTableRecord
  2
DWGDirectTextStyle
 70
     0
 40
0.0
 41
1.0
 50
0.0
 71
     0
 42
0.2
  3
simplex
  4

  0
ENDTAB
  0
TABLE
  2
VIEW
  5
6
330
0
100
AcDbSymbolTable
 70
     0
  0
ENDTAB
  0
TABLE
  2
UCS
  5
7
330
0
100
AcDbSymbolTable
 70
     0
  0
ENDTAB
  0
TABLE
  2
APPID
  5
9
330
0
100
AcDbSymbolTable
 70
     7
  0
APPID
  5
12
330
9
100
AcDbSymbolTableRecord
100
AcDbRegAppTableRecord
  2
ACAD
 70
     0
  0
APPID
  5
1E9
330
9
100
AcDbSymbolTableRecord
100
AcDbRegAppTableRecord
  2
ACAD_DSTYLE_DIMBREAK
 70
     0
  0
APPID
  5
2A2
330
9
100
AcDbSymbolTableRecord
100
AcDbRegAppTableRecord
  2
ACAD_DSTYLE_DIM_LINETYPE
 70
     0
  0
APPID
  5
2A3
330
9
100
AcDbSymbolTableRecord
100
AcDbRegAppTableRecord
  2
ACAD_DSTYLE_DIM_EXT1_LINETYPE
 70
     0
  0
APPID
  5
2A4
330
9
100
AcDbSymbolTableRecord
100
AcDbRegAppTableRecord
  2
ACAD_DSTYLE_DIM_EXT2_LINETYPE
 70
     0
  0
APPID
  5
2E4
330
9
100
AcDbSymbolTableRecord
100
AcDbRegAppTableRecord
  2
ACAD_MLEADERVER
 70
     0
  0
APPID
  5
357
330
9
100
AcDbSymbolTableRecord
100
AcDbRegAppTableRecord
  2
ACAD_NAV_VCDISPLAY
 70
     0
  0
ENDTAB
  0
TABLE
  2
DIMSTYLE
  5
A
330
0
100
AcDbSymbolTable
 70
     1
100
AcDbDimStyleTable
 71
     0
  0
DIMSTYLE
105
27
330
A
100
AcDbSymbolTableRecord
100
AcDbDimStyleTableRecord
  2
Standard
 70
     0
340
11
1001
ACAD_DSTYLE_DIMBREAK
1070
   391
1040
6.349999999999999
  0
ENDTAB
  0
TABLE
  2
BLOCK_RECORD
  5
1
330
0
100
AcDbSymbolTable
 70
    16
  0
BLOCK_RECORD
  5
1F
102
{ACAD_XDICTIONARY
360
2F4
102
}
330
1
100
AcDbSymbolTableRecord
100
AcDbBlockTableRecord
  2
*Model_Space
340
22
  0
BLOCK_RECORD
  5
1B
330
1
100
AcDbSymbolTableRecord
100
AcDbBlockTableRecord
  2
*Paper_Space
340
1E
  0
BLOCK_RECORD
  5
23
330
1
100
AcDbSymbolTableRecord
100
AcDbBlockTableRecord
  2
*Paper_Space0
340
26
  0
BLOCK_RECORD
  5
1E0
330
1
100
AcDbSymbolTableRecord
100
AcDbBlockTableRecord
  2
ASSORTED_DRAFT1
340
0
  0
BLOCK_RECORD
  5
1EE
330
1
100
AcDbSymbolTableRecord
100
AcDbBlockTableRecord
  2
*D2
340
0
  0
BLOCK_RECORD
  5
1FA
330
1
100
AcDbSymbolTableRecord
100
AcDbBlockTableRecord
  2
_U0
340
0
  0
BLOCK_RECORD
  5
206
330
1
100
AcDbSymbolTableRecord
100
AcDbBlockTableRecord
  2
*D4
340
0
  0
BLOCK_RECORD
  5
211
330
1
100
AcDbSymbolTableRecord
100
AcDbBlockTableRecord
  2
_U1
340
0
  0
BLOCK_RECORD
  5
21C
330
1
100
AcDbSymbolTableRecord
100
AcDbBlockTableRecord
  2
*D6
340
0
  0
BLOCK_RECORD
  5
228
330
1
100
AcDbSymbolTableRecord
100
AcDbBlockTableRecord
  2
_U2
340
0
  0
BLOCK_RECORD
  5
235
330
1
100
AcDbSymbolTableRecord
100
AcDbBlockTableRecord
  2
*D8
340
0
  0
BLOCK_RECORD
  5
241
330
1
100
AcDbSymbolTableRecord
100
AcDbBlockTableRecord
  2
_U3
340
0
  0
BLOCK_RECORD
  5
24E
330
1
100
AcDbSymbolTableRecord
100
AcDbBlockTableRecord
  2
*D10
340
0
  0
BLOCK_RECORD
  5
25A
330
1
100
AcDbSymbolTableRecord
100
AcDbBlockTableRecord
  2
_U4
340
0
  0
BLOCK_RECORD
  5
266
330
1
100
AcDbSymbolTableRecord
100
AcDbBlockTableRecord
  2
*D12
340
0
  0
BLOCK_RECORD
  5
272
330
1
100
AcDbSymbolTableRecord
100
AcDbBlockTableRecord
  2
_U5
340
0
  0
BLOCK_RECORD
  5
27E
330
1
100
AcDbSymbolTableRecord
100
AcDbBlockTableRecord
  2
*D14
340
0
  0
BLOCK_RECORD
  5
28A
330
1
100
AcDbSymbolTableRecord
100
AcDbBlockTableRecord
  2
_U6
340
0
  0
ENDTAB
  0
ENDSEC
  0
SECTION
  2
BLOCKS
  0
BLOCK
  5
20
330
1F
100
AcDbEntity
  8
0
100
AcDbBlockBegin
  2
*Model_Space
 70
     0
 10
0.0
 20
0.0
 30
0.0
  3
*Model_Space
  1

  0
ENDBLK
  5
21
330
1F
100
AcDbEntity
  8
0
100
AcDbBlockEnd
  0
BLOCK
  5
1C
330
1B
100
AcDbEntity
 67
     1
  8
0
100
AcDbBlockBegin
  2
*Paper_Space
 70
     0
 10
0.0
 20
0.0
 30
0.0
  3
*Paper_Space
  1

  0
ENDBLK
  5
1D
330
1B
100
AcDbEntity
 67
     1
  8
0
100
AcDbBlockEnd
  0
BLOCK
  5
24
330
23
100
AcDbEntity
 67
     1
  8
0
100
AcDbBlockBegin
  2
*Paper_Space0
 70
     0
 10
0.0
 20
0.0
 30
0.0
  3
*Paper_Space0
  1

  0
ENDBLK
  5
25
330
23
100
AcDbEntity
 67
     1
  8
0
100
AcDbBlockEnd
  0
BLOCK
  5
1E3
330
1E0
100
AcDbEntity
  8
0
100
AcDbBlockBegin
  2
ASSORTED_DRAFT1
 70
     0
 10
0.0
 20
0.0
 30
0.0
  3
ASSORTED_DRAFT1
  1

  0
SOLID
  5
1E1
330
1E0
100
AcDbEntity
  8
0
 62
   254
370
    13
100
AcDbTrace
 10
270.185042
 20
164.534924
 30
0.0
 11
265.185046
 21
163.42645
 31
0.0
 12
265.1850379999999
 22
165.643397
 32
0.0
 13
270.185042
 23
164.534924
 33
0.0
  0
ENDBLK
  5
1E4
330
1E0
100
AcDbEntity
  8
0
100
AcDbBlockEnd
  0
BLOCK
  5
1EF
330
1EE
100
AcDbEntity
  8
0
100
AcDbBlockBegin
  2
*D2
 70
     1
 10
0.0
 20
0.0
 30
0.0
  3
*D2
  1

  0
LINE
  5
1F1
330
1EE
100
AcDbEntity
  8
0
 62
   254
370
    -2
100
AcDbLine
 10
444.4048419999999
 20
303.407994
 30
0.0
 11
444.4048419999999
 21
330.17035
 31
0.0
  0
LINE
  5
1F2
330
1EE
100
AcDbEntity
  8
0
 62
   254
370
    -2
100
AcDbLine
 10
274.404842
 20
288.907994
 30
0.0
 11
274.404842
 21
330.17035
 31
0.0
  0
LINE
  5
1F3
330
1EE
100
AcDbEntity
  8
0
 62
   254
370
    -2
100
AcDbLine
 10
440.9048419999999
 20
329.17035
 30
0.0
 11
277.904842
 21
329.17035
 31
0.0
  0
SOLID
  5
1F4
330
1EE
100
AcDbEntity
  8
0
 62
   254
100
AcDbTrace
 10
440.9048419999999
 20
328.587017
 30
0.0
 11
440.9048419999999
 21
329.753684
 31
0.0
 12
444.4048419999999
 22
329.17035
 32
0.0
 13
444.4048419999999
 23
329.17035
 33
0.0
  0
SOLID
  5
1F5
330
1EE
100
AcDbEntity
  8
0
 62
   254
100
AcDbTrace
 10
277.904842
 20
329.753684
 30
0.0
 11
277.904842
 21
328.587017
 31
0.0
 12
274.404842
 22
329.17035
 32
0.0
 13
274.404842
 23
329.17035
 33
0.0
  0
MTEXT
  5
1F6
330
1EE
100
AcDbEntity
  8
0
 62
   254
370
    13
100
AcDbMText
 10
359.404842
 20
334.42035
 30
0.0
 40
3.5
 41
0.0
 71
     5
 72
     1
  1
\A1;170
  7
cesky
 73
     1
 44
1.0
  0
POINT
  5
1F7
330
1EE
100
AcDbEntity
  8
Defpoints
 62
     0
100
AcDbPoint
 10
444.4048419999999
 20
303.407994
 30
0.0
  0
POINT
  5
1F8
330
1EE
100
AcDbEntity
  8
Defpoints
 62
     0
100
AcDbPoint
 10
274.404842
 20
288.907994
 30
0.0
  0
POINT
  5
1F9
330
1EE
100
AcDbEntity
  8
Defpoints
 62
     0
100
AcDbPoint
 10
274.404842
 20
329.17035
 30
0.0
  0
ENDBLK
  5
1F0
330
1EE
100
AcDbEntity
  8
0
100
AcDbBlockEnd
  0
BLOCK
  5
201
330
1FA
100
AcDbEntity
  8
0
100
AcDbBlockBegin
  2
_U0
 70
     0
 10
0.0
 20
0.0
 30
0.0
  3
_U0
  1

  0
ENDBLK
  5
202
330
1FA
100
AcDbEntity
  8
0
100
AcDbBlockEnd
  0
BLOCK
  5
207
330
206
100
AcDbEntity
  8
0
100
AcDbBlockBegin
  2
*D4
 70
     1
 10
0.0
 20
0.0
 30
0.0
  3
*D4
  1

  0
LINE
  5
209
330
206
100
AcDbEntity
  8
0
 62
   254
370
    -2
100
AcDbLine
 10
292.203832
 20
288.907994
 30
0.0
 11
463.80149
 21
288.907994
 31
0.0
  0
LINE
  5
20A
330
206
100
AcDbEntity
  8
0
 62
   254
370
    -2
100
AcDbLine
 10
330.83929
 20
303.407994
 30
0.0
 11
463.80149
 21
303.407994
 31
0.0
  0
LINE
  5
20B
330
206
100
AcDbEntity
  8
0
 62
   254
370
    -2
100
AcDbLine
 10
462.8014900000001
 20
288.907994
 30
0.0
 11
462.8014900000001
 21
303.407994
 31
0.0
  0
SOLID
  5
20C
330
206
100
AcDbEntity
  8
0
 62
   254
100
AcDbTrace
 10
463.384823
 20
299.907994
 30
0.0
 11
462.218157
 21
299.907994
 31
0.0
 12
462.8014900000001
 22
303.407994
 32
0.0
 13
462.8014900000001
 23
303.407994
 33
0.0
  0
MTEXT
  5
20D
330
206
100
AcDbEntity
  8
0
 62
   254
370
    13
100
AcDbMText
 10
457.55149
 20
279.157994
 30
0.0
 40
3.5
 41
0.0
 71
     5
 72
     1
  1
\A1;29
  7
cesky
 11
0.0
 21
1.0
 31
0.0
 73
     1
 44
1.0
  0
POINT
  5
20E
330
206
100
AcDbEntity
  8
Defpoints
 62
     0
100
AcDbPoint
 10
292.203832
 20
288.907994
 30
0.0
  0
POINT
  5
20F
330
206
100
AcDbEntity
  8
Defpoints
 62
     0
100
AcDbPoint
 10
330.83929
 20
303.407994
 30
0.0
  0
POINT
  5
210
330
206
100
AcDbEntity
  8
Defpoints
 62
     0
100
AcDbPoint
 10
462.8014900000001
 20
303.407994
 30
0.0
  0
ENDBLK
  5
208
330
206
100
AcDbEntity
  8
0
100
AcDbBlockEnd
  0
BLOCK
  5
217
330
211
100
AcDbEntity
  8
0
100
AcDbBlockBegin
  2
_U1
 70
     0
 10
0.0
 20
0.0
 30
0.0
  3
_U1
  1

  0
ENDBLK
  5
218
330
211
100
AcDbEntity
  8
0
100
AcDbBlockEnd
  0
BLOCK
  5
21D
330
21C
100
AcDbEntity
  8
0
100
AcDbBlockBegin
  2
*D6
 70
     1
 10
0.0
 20
0.0
 30
0.0
  3
*D6
  1

  0
LINE
  5
21F
330
21C
100
AcDbEntity
  8
0
 62
    95
370
    -2
100
AcDbLine
 10
216.404842
 20
304.907994
 30
0.0
 11
204.535852
 21
304.907994
 31
0.0
  0
LINE
  5
220
330
21C
100
AcDbEntity
  8
0
 62
    95
370
    -2
100
AcDbLine
 10
216.404842
 20
272.907994
 30
0.0
 11
204.535852
 21
272.907994
 31
0.0
  0
LINE
  5
221
330
21C
100
AcDbEntity
  8
0
 62
    95
370
    -2
100
AcDbLine
 10
205.535852
 20
301.407994
 30
0.0
 11
205.535852
 21
276.407994
 31
0.0
  0
SOLID
  5
222
330
21C
100
AcDbEntity
  8
0
 62
    95
100
AcDbTrace
 10
206.119185
 20
301.407994
 30
0.0
 11
204.952518
 21
301.407994
 31
0.0
 12
205.535852
 22
304.907994
 32
0.0
 13
205.535852
 23
304.907994
 33
0.0
  0
SOLID
  5
223
330
21C
100
AcDbEntity
  8
0
 62
    95
100
AcDbTrace
 10
204.952518
 20
276.407994
 30
0.0
 11
206.119185
 21
276.407994
 31
0.0
 12
205.535852
 22
272.907994
 32
0.0
 13
205.535852
 23
272.907994
 33
0.0
  0
MTEXT
  5
224
330
21C
100
AcDbEntity
  8
0
 62
    95
370
    13
100
AcDbMText
 10
200.285852
 20
288.907994
 30
0.0
 40
3.5
 41
0.0
 71
     5
 72
     1
  1
\A1;32
  7
cesky
 11
0.0
 21
1.0
 31
0.0
 73
     1
 44
1.0
  0
POINT
  5
225
330
21C
100
AcDbEntity
  8
Defpoints
 62
     0
100
AcDbPoint
 10
216.404842
 20
304.907994
 30
0.0
  0
POINT
  5
226
330
21C
100
AcDbEntity
  8
Defpoints
 62
     0
100
AcDbPoint
 10
216.404842
 20
272.907994
 30
0.0
  0
POINT
  5
227
330
21C
100
AcDbEntity
  8
Defpoints
 62
     0
100
AcDbPoint
 10
205.535852
 20
272.907994
 30
0.0
  0
ENDBLK
  5
21E
330
21C
100
AcDbEntity
  8
0
100
AcDbBlockEnd
  0
BLOCK
  5
230
330
228
100
AcDbEntity
  8
0
100
AcDbBlockBegin
  2
_U2
 70
     0
 10
0.0
 20
0.0
 30
0.0
  3
_U2
  1

  0
ENDBLK
  5
231
330
228
100
AcDbEntity
  8
0
100
AcDbBlockEnd
  0
BLOCK
  5
236
330
235
100
AcDbEntity
  8
0
100
AcDbBlockBegin
  2
*D8
 70
     1
 10
0.0
 20
0.0
 30
0.0
  3
*D8
  1

  0
LINE
  5
238
330
235
100
AcDbEntity
  8
0
 62
    95
370
    -2
100
AcDbLine
 10
277.154842
 20
309.907994
 30
0.0
 11
189.143489
 21
309.907994
 31
0.0
  0
LINE
  5
239
330
235
100
AcDbEntity
  8
0
 62
    95
370
    -2
100
AcDbLine
 10
277.154842
 20
267.907994
 30
0.0
 11
189.143489
 21
267.907994
 31
0.0
  0
LINE
  5
23A
330
235
100
AcDbEntity
  8
0
 62
    95
370
    -2
100
AcDbLine
 10
190.143489
 20
306.407994
 30
0.0
 11
190.143489
 21
271.407994
 31
0.0
  0
SOLID
  5
23B
330
235
100
AcDbEntity
  8
0
 62
    95
100
AcDbTrace
 10
190.726823
 20
306.407994
 30
0.0
 11
189.560156
 21
306.407994
 31
0.0
 12
190.143489
 22
309.907994
 32
0.0
 13
190.143489
 23
309.907994
 33
0.0
  0
SOLID
  5
23C
330
235
100
AcDbEntity
  8
0
 62
    95
100
AcDbTrace
 10
189.560156
 20
271.407994
 30
0.0
 11
190.726823
 21
271.407994
 31
0.0
 12
190.143489
 22
267.907994
 32
0.0
 13
190.143489
 23
267.907994
 33
0.0
  0
MTEXT
  5
23D
330
235
100
AcDbEntity
  8
0
 62
    95
370
    13
100
AcDbMText
 10
184.893489
 20
288.907994
 30
0.0
 40
3.5
 41
0.0
 71
     5
 72
     1
  1
\A1;42
  7
cesky
 11
0.0
 21
1.0
 31
0.0
 73
     1
 44
1.0
  0
POINT
  5
23E
330
235
100
AcDbEntity
  8
Defpoints
 62
     0
100
AcDbPoint
 10
277.154842
 20
309.907994
 30
0.0
  0
POINT
  5
23F
330
235
100
AcDbEntity
  8
Defpoints
 62
     0
100
AcDbPoint
 10
277.154842
 20
267.907994
 30
0.0
  0
POINT
  5
240
330
235
100
AcDbEntity
  8
Defpoints
 62
     0
100
AcDbPoint
 10
190.143489
 20
267.907994
 30
0.0
  0
ENDBLK
  5
237
330
235
100
AcDbEntity
  8
0
100
AcDbBlockEnd
  0
BLOCK
  5
249
330
241
100
AcDbEntity
  8
0
100
AcDbBlockBegin
  2
_U3
 70
     0
 10
0.0
 20
0.0
 30
0.0
  3
_U3
  1

  0
ENDBLK
  5
24A
330
241
100
AcDbEntity
  8
0
100
AcDbBlockEnd
  0
BLOCK
  5
24F
330
24E
100
AcDbEntity
  8
0
100
AcDbBlockBegin
  2
*D10
 70
     1
 10
0.0
 20
0.0
 30
0.0
  3
*D10
  1

  0
LINE
  5
251
330
24E
100
AcDbEntity
  8
0
 62
   254
370
    -2
100
AcDbLine
 10
444.4048419999999
 20
305.407994
 30
0.0
 11
444.4048419999999
 21
344.155687
 31
0.0
  0
LINE
  5
252
330
24E
100
AcDbEntity
  8
0
 62
   254
370
    -2
100
AcDbLine
 10
214.404842
 20
302.907994
 30
0.0
 11
214.404842
 21
344.155687
 31
0.0
  0
LINE
  5
253
330
24E
100
AcDbEntity
  8
0
 62
   254
370
    -2
100
AcDbLine
 10
440.9048419999999
 20
343.155687
 30
0.0
 11
217.904842
 21
343.155687
 31
0.0
  0
SOLID
  5
254
330
24E
100
AcDbEntity
  8
0
 62
   254
100
AcDbTrace
 10
440.9048419999999
 20
342.572354
 30
0.0
 11
440.9048419999999
 21
343.739021
 31
0.0
 12
444.4048419999999
 22
343.155687
 32
0.0
 13
444.4048419999999
 23
343.155687
 33
0.0
  0
SOLID
  5
255
330
24E
100
AcDbEntity
  8
0
 62
   254
100
AcDbTrace
 10
217.904842
 20
343.739021
 30
0.0
 11
217.904842
 21
342.572354
 31
0.0
 12
214.404842
 22
343.155687
 32
0.0
 13
214.404842
 23
343.155687
 33
0.0
  0
MTEXT
  5
256
330
24E
100
AcDbEntity
  8
0
 62
   254
370
    13
100
AcDbMText
 10
329.404842
 20
348.405687
 30
0.0
 40
3.5
 41
0.0
 71
     5
 72
     1
  1
\A1;230
  7
cesky
 73
     1
 44
1.0
  0
POINT
  5
257
330
24E
100
AcDbEntity
  8
Defpoints
 62
     0
100
AcDbPoint
 10
444.4048419999999
 20
305.407994
 30
0.0
  0
POINT
  5
258
330
24E
100
AcDbEntity
  8
Defpoints
 62
     0
100
AcDbPoint
 10
214.404842
 20
302.907994
 30
0.0
  0
POINT
  5
259
330
24E
100
AcDbEntity
  8
Defpoints
 62
     0
100
AcDbPoint
 10
214.404842
 20
343.155687
 30
0.0
  0
ENDBLK
  5
250
330
24E
100
AcDbEntity
  8
0
100
AcDbBlockEnd
  0
BLOCK
  5
261
330
25A
100
AcDbEntity
  8
0
100
AcDbBlockBegin
  2
_U4
 70
     0
 10
0.0
 20
0.0
 30
0.0
  3
_U4
  1

  0
ENDBLK
  5
262
330
25A
100
AcDbEntity
  8
0
100
AcDbBlockEnd
  0
BLOCK
  5
267
330
266
100
AcDbEntity
  8
0
100
AcDbBlockBegin
  2
*D12
 70
     1
 10
0.0
 20
0.0
 30
0.0
  3
*D12
  1

  0
LINE
  5
269
330
266
100
AcDbEntity
  8
0
 62
   254
370
    -2
100
AcDbLine
 10
274.404842
 20
288.907994
 30
0.0
 11
274.404842
 21
330.17035
 31
0.0
  0
LINE
  5
26A
330
266
100
AcDbEntity
  8
0
 62
   254
370
    -2
100
AcDbLine
 10
214.404842
 20
295.907994
 30
0.0
 11
214.404842
 21
330.17035
 31
0.0
  0
LINE
  5
26B
330
266
100
AcDbEntity
  8
0
 62
   254
370
    -2
100
AcDbLine
 10
270.904842
 20
329.17035
 30
0.0
 11
217.904842
 21
329.17035
 31
0.0
  0
SOLID
  5
26C
330
266
100
AcDbEntity
  8
0
 62
   254
100
AcDbTrace
 10
270.904842
 20
328.587017
 30
0.0
 11
270.904842
 21
329.753684
 31
0.0
 12
274.404842
 22
329.17035
 32
0.0
 13
274.404842
 23
329.17035
 33
0.0
  0
SOLID
  5
26D
330
266
100
AcDbEntity
  8
0
 62
   254
100
AcDbTrace
 10
217.904842
 20
329.753684
 30
0.0
 11
217.904842
 21
328.587017
 31
0.0
 12
214.404842
 22
329.17035
 32
0.0
 13
214.404842
 23
329.17035
 33
0.0
  0
MTEXT
  5
26E
330
266
100
AcDbEntity
  8
0
 62
   254
370
    13
100
AcDbMText
 10
244.404842
 20
334.42035
 30
0.0
 40
3.5
 41
0.0
 71
     5
 72
     1
  1
\A1;60
  7
cesky
 73
     1
 44
1.0
  0
POINT
  5
26F
330
266
100
AcDbEntity
  8
Defpoints
 62
     0
100
AcDbPoint
 10
274.404842
 20
288.907994
 30
0.0
  0
POINT
  5
270
330
266
100
AcDbEntity
  8
Defpoints
 62
     0
100
AcDbPoint
 10
214.404842
 20
295.907994
 30
0.0
  0
POINT
  5
271
330
266
100
AcDbEntity
  8
Defpoints
 62
     0
100
AcDbPoint
 10
214.404842
 20
329.17035
 30
0.0
  0
ENDBLK
  5
268
330
266
100
AcDbEntity
  8
0
100
AcDbBlockEnd
  0
BLOCK
  5
279
330
272
100
AcDbEntity
  8
0
100
AcDbBlockBegin
  2
_U5
 70
     0
 10
0.0
 20
0.0
 30
0.0
  3
_U5
  1

  0
ENDBLK
  5
27A
330
272
100
AcDbEntity
  8
0
100
AcDbBlockEnd
  0
BLOCK
  5
27F
330
27E
100
AcDbEntity
  8
0
100
AcDbBlockBegin
  2
*D14
 70
     1
 10
0.0
 20
0.0
 30
0.0
  3
*D14
  1

  0
LINE
  5
281
330
27E
100
AcDbEntity
  8
0
 62
   254
370
    -2
100
AcDbLine
 10
444.4048419999999
 20
303.407994
 30
0.0
 11
444.4048419999999
 21
315.595905
 31
0.0
  0
LINE
  5
282
330
27E
100
AcDbEntity
  8
0
 62
   254
370
    -2
100
AcDbLine
 10
292.421676
 20
303.76673
 30
0.0
 11
292.421676
 21
315.595905
 31
0.0
  0
LINE
  5
283
330
27E
100
AcDbEntity
  8
0
 62
   254
370
    -2
100
AcDbLine
 10
440.9048419999999
 20
314.595905
 30
0.0
 11
295.921676
 21
314.595905
 31
0.0
  0
SOLID
  5
284
330
27E
100
AcDbEntity
  8
0
 62
   254
100
AcDbTrace
 10
440.9048419999999
 20
314.012571
 30
0.0
 11
440.9048419999999
 21
315.179238
 31
0.0
 12
444.4048419999999
 22
314.595905
 32
0.0
 13
444.4048419999999
 23
314.595905
 33
0.0
  0
SOLID
  5
285
330
27E
100
AcDbEntity
  8
0
 62
   254
100
AcDbTrace
 10
295.921676
 20
315.179238
 30
0.0
 11
295.921676
 21
314.012571
 31
0.0
 12
292.421676
 22
314.595905
 32
0.0
 13
292.421676
 23
314.595905
 33
0.0
  0
MTEXT
  5
286
330
27E
100
AcDbEntity
  8
0
 62
   254
370
    13
100
AcDbMText
 10
368.413259
 20
319.845905
 30
0.0
 40
3.5
 41
0.0
 71
     5
 72
     1
  1
\A1;152
  7
cesky
 73
     1
 44
1.0
  0
POINT
  5
287
330
27E
100
AcDbEntity
  8
Defpoints
 62
     0
100
AcDbPoint
 10
444.4048419999999
 20
303.407994
 30
0.0
  0
POINT
  5
288
330
27E
100
AcDbEntity
  8
Defpoints
 62
     0
100
AcDbPoint
 10
292.421676
 20
303.76673
 30
0.0
  0
POINT
  5
289
330
27E
100
AcDbEntity
  8
Defpoints
 62
     0
100
AcDbPoint
 10
292.421676
 20
314.595905
 30
0.0
  0
ENDBLK
  5
280
330
27E
100
AcDbEntity
  8
0
100
AcDbBlockEnd
  0
BLOCK
  5
291
330
28A
100
AcDbEntity
  8
0
100
AcDbBlockBegin
  2
_U6
 70
     0
 10
0.0
 20
0.0
 30
0.0
  3
_U6
  1

  0
ENDBLK
  5
292
330
28A
100
AcDbEntity
  8
0
100
AcDbBlockEnd
  0
ENDSEC
  0
SECTION
  2
ENTITIES
  0
POINT
  5
73
102
{ACAD_REACTORS
330
33B
102
}
330
1F
100
AcDbEntity
  8
80
100
AcDbPoint
 10
274.404842
 20
288.907994
 30
0.0
  0
POINT
  5
76
330
1F
100
AcDbEntity
  8
4
 60
     1
100
AcDbPoint
 10
292.203832
 20
288.907994
 30
0.0
  0
POINT
  5
78
330
1F
100
AcDbEntity
  8
4
 60
     1
100
AcDbPoint
 10
443.8297539999999
 20
288.907994
 30
0.0
  0
POINT
  5
79
330
1F
100
AcDbEntity
  8
SK4
 60
     1
100
AcDbPoint
 10
216.404842
 20
288.907994
 30
0.0
  0
POINT
  5
7A
330
1F
100
AcDbEntity
  8
SK4
 60
     1
100
AcDbPoint
 10
274.404842
 20
288.907994
 30
0.0
  0
POINT
  5
7B
330
1F
100
AcDbEntity
  8
SK6
 60
     1
100
AcDbPoint
 10
274.404842
 20
288.907994
 30
0.0
  0
POINT
  5
7C
330
1F
100
AcDbEntity
  8
SK6
 60
     1
100
AcDbPoint
 10
292.421676
 20
303.76673
 30
0.0
  0
LINE
  5
7D
330
1F
100
AcDbEntity
  8
1
100
AcDbLine
 10
438.349575
 20
299.075812
 30
0.0
 11
438.375205
 21
299.17177
 31
0.0
  0
LINE
  5
7F
330
1F
100
AcDbEntity
  8
1
100
AcDbLine
 10
437.773071
 20
298.220504
 30
0.0
 11
437.748149
 21
298.127197
 31
0.0
  0
LINE
  5
80
330
1F
100
AcDbEntity
  8
1
100
AcDbLine
 10
437.859474
 20
298.2057240000001
 30
0.0
 11
437.834017
 21
298.110412
 31
0.0
  0
LINE
  5
81
330
1F
100
AcDbEntity
  8
1
100
AcDbLine
 10
440.0391439999999
 20
297.621679
 30
0.0
 11
440.064044
 21
297.714906
 31
0.0
  0
LINE
  5
82
330
1F
100
AcDbEntity
  8
1
100
AcDbLine
 10
439.9492679999999
 20
297.642444
 30
0.0
 11
439.974737
 21
297.737799
 31
0.0
  0
LINE
  5
83
330
1F
100
AcDbEntity
  8
1
100
AcDbLine
 10
439.0062369999999
 20
297.025127
 30
0.0
 11
439.031576
 21
297.12
 31
0.0
  0
LINE
  5
84
330
1F
100
AcDbEntity
  8
1
100
AcDbLine
 10
431.868691
 20
292.893277
 30
0.0
 11
431.8867219999999
 21
292.366281
 31
0.0
  0
LINE
  5
86
330
1F
100
AcDbEntity
  8
1
100
AcDbLine
 10
431.9321599999999
 20
291.038212
 30
0.0
 11
431.9621139999999
 21
290.1627299999999
 31
0.0
  0
LINE
  5
87
330
1F
100
AcDbEntity
  8
1
100
AcDbLine
 10
428.6834849999999
 20
294.238207
 30
0.0
 11
428.1177079999999
 21
294.563997
 31
0.0
  0
LINE
  5
88
330
1F
100
AcDbEntity
  8
1
100
AcDbLine
 10
435.5261769999999
 20
292.570634
 30
0.0
 11
435.515025
 21
292.570148
 31
0.0
  0
LINE
  5
89
330
1F
100
AcDbEntity
  8
1
100
AcDbLine
 10
286.4048419999999
 20
302.665207
 30
0.0
 11
286.4048419999999
 21
284.650793
 31
0.0
  0
LINE
  5
8A
330
1F
100
AcDbEntity
  8
1
100
AcDbLine
 10
442.6143999999999
 20
274.907994
 30
0.0
 11
417.8132879999999
 21
274.907994
 31
0.0
  0
LINE
  5
8B
330
1F
100
AcDbEntity
  8
1
100
AcDbLine
 10
274.904842
 20
267.907994
 30
0.0
 11
274.904842
 21
288.907994
 31
0.0
  0
LINE
  5
8C
330
1F
100
AcDbEntity
  8
1
100
AcDbLine
 10
274.904842
 20
288.907994
 30
0.0
 11
274.904842
 21
309.907994
 31
0.0
  0
LINE
  5
8D
330
1F
100
AcDbEntity
  8
1
100
AcDbLine
 10
436.3251439999999
 20
298.9720549999999
 30
0.0
 11
436.3046989999999
 21
298.895508
 31
0.0
  0
LINE
  5
8E
330
1F
100
AcDbEntity
  8
1
100
AcDbLine
 10
441.61843
 20
297.476258
 30
0.0
 11
441.638875
 21
297.552805
 31
0.0
  0
LINE
  5
8F
330
1F
100
AcDbEntity
  8
1
100
AcDbLine
 10
279.404842
 20
267.907994
 30
0.0
 11
282.304337
 21
270.807488
 31
0.0
  0
LINE
  5
90
330
1F
100
AcDbEntity
  8
1
100
AcDbLine
 10
282.304337
 20
307.008499
 30
0.0
 11
279.404842
 21
309.907994
 31
0.0
  0
LINE
  5
91
330
1F
100
AcDbEntity
  8
SK1
100
AcDbLine
 10
214.404842
 20
274.907994
 30
0.0
 11
216.404842
 21
272.907994
 31
0.0
  0
LINE
  5
92
330
1F
100
AcDbEntity
  8
SK1
100
AcDbLine
 10
216.404842
 20
304.907994
 30
0.0
 11
214.404842
 21
302.907994
 31
0.0
  0
LINE
  5
93
330
1F
100
AcDbEntity
  8
SK1
100
AcDbLine
 10
274.404842
 20
304.907994
 30
0.0
 11
216.404842
 21
304.907994
 31
0.0
  0
LINE
  5
94
330
1F
100
AcDbEntity
  8
1
100
AcDbLine
 10
274.904842
 20
267.907994
 30
0.0
 11
274.404842
 21
268.407994
 31
0.0
  0
LINE
  5
95
330
1F
100
AcDbEntity
  8
1
100
AcDbLine
 10
274.404842
 20
309.407994
 30
0.0
 11
274.904842
 21
309.907994
 31
0.0
  0
LINE
  5
96
330
1F
100
AcDbEntity
  8
1
100
AcDbLine
 10
279.404842
 20
309.907994
 30
0.0
 11
274.904842
 21
309.907994
 31
0.0
  0
LINE
  5
9B
330
1F
100
AcDbEntity
  8
1
100
AcDbLine
 10
442.9229639999999
 20
280.483174
 30
0.0
 11
442.8156129999999
 21
280.484892
 31
0.0
  0
LINE
  5
9C
330
1F
100
AcDbEntity
  8
1
100
AcDbLine
 10
442.7984469999999
 20
280.98523
 30
0.0
 11
443.1338679999999
 21
284.145494
 31
0.0
  0
LINE
  5
9D
330
1F
100
AcDbEntity
  8
1
100
AcDbLine
 10
443.1338679999999
 20
284.145494
 30
0.0
 11
443.1338679999999
 21
288.9121740000001
 31
0.0
  0
LINE
  5
9E
330
1F
100
AcDbEntity
  8
1
100
AcDbLine
 10
443.204138
 20
289.411024
 30
0.0
 11
443.311672
 21
289.409147
 31
0.0
  0
LINE
  5
9F
330
1F
100
AcDbEntity
  8
1
100
AcDbLine
 10
443.441375
 20
293.59974
 30
0.0
 11
437.212301
 21
293.328298
 31
0.0
  0
LINE
  5
A0
330
1F
100
AcDbEntity
  8
1
100
AcDbLine
 10
437.2069259999999
 20
293.308173
 30
0.0
 11
437.212301
 21
293.328298
 31
0.0
  0
LINE
  5
A1
330
1F
100
AcDbEntity
  8
1
100
AcDbLine
 10
443.311672
 20
289.409147
 30
0.0
 11
443.5526799999999
 21
289.735739
 31
0.0
  0
LINE
  5
A2
330
1F
100
AcDbEntity
  8
1
100
AcDbLine
 10
443.5526799999999
 20
289.974349
 30
0.0
 11
443.5526799999999
 21
289.735739
 31
0.0
  0
LINE
  5
A3
330
1F
100
AcDbEntity
  8
1
100
AcDbLine
 10
443.5526799999999
 20
289.974349
 30
0.0
 11
443.5948419999999
 21
289.973614
 31
0.0
  0
LINE
  5
A4
330
1F
100
AcDbEntity
  8
1
100
AcDbLine
 10
443.5948419999999
 20
293.851255
 30
0.0
 11
443.5948419999999
 21
289.973614
 31
0.0
  0
LINE
  5
A5
330
1F
100
AcDbEntity
  8
1
100
AcDbLine
 10
443.441375
 20
293.59974
 30
0.0
 11
443.439473
 21
293.807085
 31
0.0
  0
LINE
  5
A6
330
1F
100
AcDbEntity
  8
1
100
AcDbLine
 10
443.441375
 20
293.59974
 30
0.0
 11
443.398255
 21
293.57797
 31
0.0
  0
LINE
  5
A7
330
1F
100
AcDbEntity
  8
1
100
AcDbLine
 10
442.6143999999999
 20
274.907994
 30
0.0
 11
443.1453219999999
 21
279.910221
 31
0.0
  0
LINE
  5
A8
330
1F
100
AcDbEntity
  8
1
100
AcDbLine
 10
443.1453219999999
 20
279.910221
 30
0.0
 11
443.1032309999999
 21
279.910894
 31
0.0
  0
LINE
  5
A9
330
1F
100
AcDbEntity
  8
1
100
AcDbLine
 10
443.128513
 20
280.1490950000001
 30
0.0
 11
443.1032309999999
 21
279.910894
 31
0.0
  0
LINE
  5
AA
330
1F
100
AcDbEntity
  8
1
100
AcDbLine
 10
443.128513
 20
280.1490950000001
 30
0.0
 11
442.9229639999999
 21
280.483174
 31
0.0
  0
LINE
  5
AB
330
1F
100
AcDbEntity
  8
1
100
AcDbLine
 10
442.395612
 20
284.145494
 30
0.0
 11
443.1338679999999
 21
284.145494
 31
0.0
  0
LINE
  5
AC
330
1F
100
AcDbEntity
  8
SK1
100
AcDbLine
 10
216.404842
 20
304.907994
 30
0.0
 11
216.404842
 21
272.907994
 31
0.0
  0
LINE
  5
AD
330
1F
100
AcDbEntity
  8
SK1
100
AcDbLine
 10
214.404842
 20
302.907994
 30
0.0
 11
214.404842
 21
274.907994
 31
0.0
  0
LINE
  5
AE
330
1F
100
AcDbEntity
  8
1
100
AcDbLine
 10
434.255724
 20
296.011298
 30
0.0
 11
434.2504929999999
 21
295.991713
 31
0.0
  0
LINE
  5
AF
330
1F
100
AcDbEntity
  8
1
100
AcDbLine
 10
434.255724
 20
296.011298
 30
0.0
 11
433.959833
 21
302.824157
 31
0.0
  0
LINE
  5
B0
330
1F
100
AcDbEntity
  8
1
100
AcDbLine
 10
433.955316
 20
302.788127
 30
0.0
 11
434.2504929999999
 21
295.991713
 31
0.0
  0
LINE
  5
B1
330
1F
100
AcDbEntity
  8
80
100
AcDbLine
 10
275.404416
 20
288.907994
 30
0.0
 11
273.405268
 21
288.907994
 31
0.0
  0
LINE
  5
B2
330
1F
100
AcDbEntity
  8
1
100
AcDbLine
 10
438.0251549999999
 20
297.603428
 30
0.0
 11
438.050841
 21
297.699594
 31
0.0
  0
LINE
  5
B3
330
1F
100
AcDbEntity
  8
1
100
AcDbLine
 10
439.590963
 20
297.3679259999999
 30
0.0
 11
439.565241
 21
297.271621
 31
0.0
  0
LINE
  5
B4
330
1F
100
AcDbEntity
  8
1
100
AcDbLine
 10
438.346471
 20
299.057398
 30
0.0
 11
438.372193
 21
299.153703
 31
0.0
  0
LINE
  5
B5
330
1F
100
AcDbEntity
  8
1
100
AcDbLine
 10
439.912241
 20
298.821757
 30
0.0
 11
439.8865559999999
 21
298.725591
 31
0.0
  0
LINE
  5
B6
330
1F
100
AcDbEntity
  8
1
100
AcDbLine
 10
434.398714
 20
302.907994
 30
0.0
 11
420.595534
 21
302.907994
 31
0.0
  0
LINE
  5
B7
330
1F
100
AcDbEntity
  8
1
100
AcDbLine
 10
434.923766
 20
302.929652
 30
0.0
 11
442.893603
 21
303.276951
 31
0.0
  0
LINE
  5
B9
330
1F
100
AcDbEntity
  8
1
100
AcDbLine
 10
434.543354
 20
294.1709649999999
 30
0.0
 11
434.186273
 21
302.125413
 31
0.0
  0
LINE
  5
BA
330
1F
100
AcDbEntity
  8
1
100
AcDbLine
 10
443.319869
 20
293.781315
 30
0.0
 11
435.3500309999999
 21
293.4340160000001
 31
0.0
  0
LINE
  5
BB
330
1F
100
AcDbEntity
  8
1
100
AcDbLine
 10
435.7798739999999
 20
294.704139
 30
0.0
 11
435.466608
 21
301.682559
 31
0.0
  0
LINE
  5
BC
330
1F
100
AcDbEntity
  8
1
100
AcDbLine
 10
442.7717959999999
 20
295.008823
 30
0.0
 11
435.7798739999999
 21
294.704139
 31
0.0
  0
LINE
  5
BD
330
1F
100
AcDbEntity
  8
1
100
AcDbLine
 10
435.466608
 20
301.682559
 30
0.0
 11
442.45853
 21
301.987244
 31
0.0
  0
LINE
  5
BE
330
1F
100
AcDbEntity
  8
1
100
AcDbLine
 10
442.45853
 20
301.987244
 30
0.0
 11
442.7717959999999
 21
295.008823
 31
0.0
  0
LINE
  5
BF
330
1F
100
AcDbEntity
  8
1
100
AcDbLine
 10
444.297436
 20
281.913516
 30
0.0
 11
443.671836
 21
280.872342
 31
0.0
  0
LINE
  5
C0
330
1F
100
AcDbEntity
  8
1
100
AcDbLine
 10
443.3014
 20
281.255939
 30
0.0
 11
443.671836
 21
280.872342
 31
0.0
  0
LINE
  5
C1
330
1F
100
AcDbEntity
  8
1
100
AcDbLine
 10
443.671836
 20
280.872342
 30
0.0
 11
442.9348759999999
 21
280.463838
 31
0.0
  0
LINE
  5
C2
330
1F
100
AcDbEntity
  8
1
100
AcDbLine
 10
443.3348419999999
 20
289.440563
 30
0.0
 11
443.797416
 21
289.16262
 31
0.0
  0
LINE
  5
C3
330
1F
100
AcDbEntity
  8
1
100
AcDbLine
 10
443.4138179999999
 20
288.792185
 30
0.0
 11
443.797416
 21
289.16262
 31
0.0
  0
LINE
  5
C4
330
1F
100
AcDbEntity
  8
1
100
AcDbLine
 10
443.797416
 20
289.16262
 30
0.0
 11
444.4048419999999
 21
288.066795
 31
0.0
  0
LINE
  5
C5
330
1F
100
AcDbEntity
  8
1
100
AcDbLine
 10
443.8874189999999
 20
287.937787
 30
0.0
 11
444.4048419999999
 21
288.066795
 31
0.0
  0
LINE
  5
C6
330
1F
100
AcDbEntity
  8
1
100
AcDbLine
 10
443.7848309999999
 20
282.060503
 30
0.0
 11
444.297436
 21
281.913516
 31
0.0
  0
LINE
  5
C7
330
1F
100
AcDbEntity
  8
1
100
AcDbLine
 10
444.4048419999999
 20
288.066795
 30
0.0
 11
444.297436
 21
281.913516
 31
0.0
  0
LINE
  5
C8
330
1F
100
AcDbEntity
  8
1
100
AcDbLine
 10
442.886388
 20
281.813766
 30
0.0
 11
443.1448989999999
 21
282.244001
 31
0.0
  0
LINE
  5
C9
330
1F
100
AcDbEntity
  8
1
100
AcDbLine
 10
443.7848309999999
 20
282.060503
 30
0.0
 11
443.3014
 21
281.255939
 31
0.0
  0
LINE
  5
CA
330
1F
100
AcDbEntity
  8
1
100
AcDbLine
 10
443.1448989999999
 20
282.244001
 30
0.0
 11
443.241473
 21
287.776734
 31
0.0
  0
LINE
  5
CB
330
1F
100
AcDbEntity
  8
1
100
AcDbLine
 10
443.7848309999999
 20
282.060503
 30
0.0
 11
443.1448989999999
 21
282.244001
 31
0.0
  0
LINE
  5
CC
330
1F
100
AcDbEntity
  8
1
100
AcDbLine
 10
443.8874189999999
 20
287.937787
 30
0.0
 11
443.7848309999999
 21
282.060503
 31
0.0
  0
LINE
  5
CD
330
1F
100
AcDbEntity
  8
1
100
AcDbLine
 10
443.241473
 20
287.776734
 30
0.0
 11
443.1338649999999
 21
287.970864
 31
0.0
  0
LINE
  5
CE
330
1F
100
AcDbEntity
  8
1
100
AcDbLine
 10
443.8874189999999
 20
287.937787
 30
0.0
 11
443.241473
 21
287.776734
 31
0.0
  0
LINE
  5
CF
330
1F
100
AcDbEntity
  8
1
100
AcDbLine
 10
443.4138179999999
 20
288.792185
 30
0.0
 11
443.8874189999999
 21
287.937787
 31
0.0
  0
LINE
  5
D0
330
1F
100
AcDbEntity
  8
1
100
AcDbLine
 10
443.3014
 20
281.255939
 30
0.0
 11
442.8741409999999
 21
281.698379
 31
0.0
  0
LINE
  5
D1
330
1F
100
AcDbEntity
  8
1
100
AcDbLine
 10
443.3014
 20
281.255939
 30
0.0
 11
442.7975589999999
 21
280.976656
 31
0.0
  0
LINE
  5
D2
330
1F
100
AcDbEntity
  8
1
100
AcDbLine
 10
443.4138179999999
 20
288.792185
 30
0.0
 11
443.133869
 21
288.52184
 31
0.0
  0
LINE
  5
D3
330
1F
100
AcDbEntity
  8
1
100
AcDbLine
 10
443.134182
 20
288.960207
 30
0.0
 11
443.4138179999999
 21
288.792185
 31
0.0
  0
LINE
  5
D4
330
1F
100
AcDbEntity
  8
1
100
AcDbLine
 10
439.563513
 20
297.258363
 30
0.0
 11
439.5621359999999
 21
297.253206
 31
0.0
  0
LINE
  5
D5
330
1F
100
AcDbEntity
  8
1
100
AcDbLine
 10
438.4515969999999
 20
297.241417
 30
0.0
 11
438.4263049999999
 21
297.146721
 31
0.0
  0
LINE
  5
D6
330
1F
100
AcDbEntity
  8
1
100
AcDbLine
 10
441.7446149999999
 20
284.145494
 30
0.0
 11
442.0194989999999
 21
284.145494
 31
0.0
  0
LINE
  5
D7
330
1F
100
AcDbEntity
  8
1
100
AcDbLine
 10
443.398255
 20
293.57797
 30
0.0
 11
437.2069259999999
 21
293.308173
 31
0.0
  0
LINE
  5
D8
330
1F
100
AcDbEntity
  8
1
100
AcDbLine
 10
443.318221
 20
292.869919
 30
0.0
 11
435.5257469999999
 21
292.53035
 31
0.0
  0
LINE
  5
D9
330
1F
100
AcDbEntity
  8
1
100
AcDbLine
 10
434.433148
 20
302.714181
 30
0.0
 11
434.4247829999999
 21
302.906788
 31
0.0
  0
LINE
  5
DA
330
1F
100
AcDbEntity
  8
1
100
AcDbLine
 10
279.404842
 20
309.907994
 30
0.0
 11
279.404842
 21
276.968754
 31
0.0
  0
LINE
  5
DB
330
1F
100
AcDbEntity
  8
1
100
AcDbLine
 10
279.404842
 20
267.907994
 30
0.0
 11
279.404842
 21
269.812217
 31
0.0
  0
LINE
  5
DC
330
1F
100
AcDbEntity
  8
1
100
AcDbLine
 10
434.20623
 20
302.318289
 30
0.0
 11
434.184278
 21
302.8237279999999
 31
0.0
  0
LINE
  5
DD
330
1F
100
AcDbEntity
  8
1
100
AcDbLine
 10
443.318221
 20
292.869919
 30
0.0
 11
441.6339849999999
 21
290.063616
 31
0.0
  0
LINE
  5
DE
330
1F
100
AcDbEntity
  8
1
100
AcDbLine
 10
443.700281
 20
302.540002
 30
0.0
 11
444.057361
 21
294.585554
 31
0.0
  0
LINE
  5
DF
330
1F
100
AcDbEntity
  8
81
100
AcDbLine
 10
444.4048419999999
 20
305.407994
 30
0.0
 11
444.4048419999999
 21
301.407994
 31
0.0
  0
LINE
  5
E0
330
1F
100
AcDbEntity
  8
81
100
AcDbLine
 10
442.404842
 20
303.407994
 30
0.0
 11
446.404842
 21
303.407994
 31
0.0
  0
LINE
  5
E1
330
1F
100
AcDbEntity
  8
SK1
100
AcDbLine
 10
216.404842
 20
272.907994
 30
0.0
 11
274.404842
 21
272.907994
 31
0.0
  0
LINE
  5
E2
330
1F
100
AcDbEntity
  8
80
100
AcDbLine
 10
274.404842
 20
287.90842
 30
0.0
 11
274.404842
 21
289.907567
 31
0.0
  0
LINE
  5
E3
330
1F
100
AcDbEntity
  8
1
100
AcDbLine
 10
274.904842
 20
267.907994
 30
0.0
 11
279.404842
 21
267.907994
 31
0.0
  0
LINE
  5
E4
330
1F
100
AcDbEntity
  8
1
100
AcDbLine
 10
274.404842
 20
309.407994
 30
0.0
 11
274.404842
 21
288.907994
 31
0.0
  0
LINE
  5
E5
330
1F
100
AcDbEntity
  8
1
100
AcDbLine
 10
274.404842
 20
288.907994
 30
0.0
 11
274.404842
 21
268.407994
 31
0.0
  0
LINE
  5
111
330
1F
100
AcDbEntity
  8
NOCUT
100
AcDbLine
 10
292.203832
 20
302.907994
 30
0.0
 11
443.2078019999999
 21
302.907994
 31
0.0
  0
LINE
  5
112
330
1F
100
AcDbEntity
  8
NOCUT
100
AcDbLine
 10
274.404842
 20
304.907994
 30
0.0
 11
274.404842
 21
309.407994
 31
0.0
  0
LINE
  5
113
330
1F
100
AcDbEntity
  8
NOCUT
100
AcDbLine
 10
274.404842
 20
309.407994
 30
0.0
 11
274.904842
 21
309.907994
 31
0.0
  0
LINE
  5
114
330
1F
100
AcDbEntity
  8
NOCUT
100
AcDbLine
 10
214.404842
 20
302.907994
 30
0.0
 11
216.404842
 21
304.907994
 31
0.0
  0
LINE
  5
115
330
1F
100
AcDbEntity
  8
NOCUT
100
AcDbLine
 10
279.404842
 20
309.907994
 30
0.0
 11
282.304337
 21
307.008499
 31
0.0
  0
LINE
  5
116
330
1F
100
AcDbEntity
  8
NOCUT
100
AcDbLine
 10
443.2078019999999
 20
302.907994
 30
0.0
 11
443.5948419999999
 21
294.111852
 31
0.0
  0
LINE
  5
117
330
1F
100
AcDbEntity
  8
NOCUT
100
AcDbLine
 10
443.5948419999999
 20
294.111852
 30
0.0
 11
443.5948419999999
 21
288.907994
 31
0.0
  0
LINE
  5
118
330
1F
100
AcDbEntity
  8
NOCUT
100
AcDbLine
 10
443.5948419999999
 20
288.907994
 30
0.0
 11
214.404842
 21
288.907994
 31
0.0
  0
LINE
  5
119
330
1F
100
AcDbEntity
  8
NOCUT
100
AcDbLine
 10
214.404842
 20
302.907994
 30
0.0
 11
214.404842
 21
288.907994
 31
0.0
  0
LINE
  5
11A
330
1F
100
AcDbEntity
  8
NOCUT
100
AcDbLine
 10
279.404842
 20
309.907994
 30
0.0
 11
274.904842
 21
309.907994
 31
0.0
  0
LINE
  5
11B
330
1F
100
AcDbEntity
  8
NOCUT
100
AcDbLine
 10
274.404842
 20
304.907994
 30
0.0
 11
216.404842
 21
304.907994
 31
0.0
  0
ARC
  5
124
330
1F
100
AcDbEntity
  8
1
100
AcDbCircle
 10
439.4028309999999
 20
285.273558
 30
0.0
 40
1.5
100
AcDbArc
 50
75.0
 51
345.0
  0
CIRCLE
  5
125
330
1F
100
AcDbEntity
  8
1
100
AcDbCircle
 10
439.4224789999999
 20
285.253212
 30
0.0
 40
1.099999999999998
  0
ARC
  5
126
330
1F
100
AcDbEntity
  8
1
100
AcDbCircle
 10
292.203832
 20
260.907994
 30
0.0
 40
14.0
100
AcDbArc
 50
102.182683
 51
135.0
  0
ARC
  5
127
330
1F
100
AcDbEntity
  8
1
100
AcDbCircle
 10
292.203832
 20
316.907994
 30
0.0
 40
14.0
100
AcDbArc
 50
225.0
 51
266.235691
  0
ARC
  5
136
330
1F
100
AcDbEntity
  8
NOCUT
100
AcDbCircle
 10
292.203832
 20
316.907994
 30
0.0
 40
14.0
100
AcDbArc
 50
225.0
 51
270.0
  0
ELLIPSE
  5
137
330
1F
100
AcDbEntity
  8
1
100
AcDbEllipse
 10
434.961555
 20
305.131758
 30
0.0
 11
12.17327277562351
 21
-3.251373545175004
 31
0.0
210
0.0
220
0.0
230
0.9999999999999998
 40
0.9977149999999999
 41
4.451140325950081
 42
4.69554982084338
  0
ELLIPSE
  5
138
330
1F
100
AcDbEntity
  8
1
100
AcDbEllipse
 10
438.9820089999999
 20
298.26243
 30
0.0
 11
-2.656865089917826
 21
0.7096251785104137
 31
0.0
210
0.0
220
0.0
230
1.0
 40
0.9977149999999998
 41
3.141668256132597
 42
6.283162710081786
  0
ELLIPSE
  5
139
330
1F
100
AcDbEntity
  8
1
100
AcDbEllipse
 10
442.868598
 20
280.984108
 30
0.0
 11
0.0538770024364387
 21
0.4991611425138248
 31
0.0
210
0.0
220
0.0
230
1.0
 40
0.139171
 41
1.58356817925774
 42
3.154364506041881
  0
ELLIPSE
  5
13A
330
1F
100
AcDbEntity
  8
1
100
AcDbEllipse
 10
443.204138
 20
288.910948
 30
0.0
 11
0.0001758288822686
 21
-0.5000776676664191
 31
0.0
210
0.0
220
0.0
230
0.9999999999999998
 40
0.140519
 41
3.139090475969517
 42
4.709886802763095
  0
ELLIPSE
  5
13B
330
1F
100
AcDbEntity
  8
1
100
AcDbEllipse
 10
317.316517
 20
288.907994
 30
0.0
 11
52.21563221861192
 21
-9.192000970342707
 31
0.0
210
0.0
220
0.0
230
1.0
 40
0.202232
 41
4.258032409685434
 42
4.404337491653853
  0
ELLIPSE
  5
13C
330
1F
100
AcDbEntity
  8
1
100
AcDbEllipse
 10
435.805162
 20
294.747909
 30
0.0
 11
-1.932265519940236
 21
0.5160910389166645
 31
0.0
210
0.0
220
0.0
230
1.0
 40
0.9977149999999999
 41
2.611783922279235
 42
2.742150232711852
  0
ELLIPSE
  5
13D
330
1F
100
AcDbEntity
  8
1
100
AcDbEllipse
 10
443.2864659999999
 20
293.636717
 30
0.0
 11
0.0005967683583329
 21
0.8007697906452523
 31
0.0
210
0.0
220
0.0
230
1.0
 40
0.140033
 41
3.434025391296068
 42
4.639065069863874
  0
ELLIPSE
  5
13E
330
1F
100
AcDbEntity
  8
1
100
AcDbEllipse
 10
444.1003199999999
 20
288.907994
 30
0.0
 11
1.515342771882109
 21
13.99841667294372
 31
0.0
210
0.0
220
0.0
230
0.9999999999999996
 40
0.138944
 41
1.932942856567795
 42
3.156632395651107
  0
ELLIPSE
  5
13F
330
1F
100
AcDbEntity
  8
1
100
AcDbEllipse
 10
443.5948419999999
 20
288.907994
 30
0.0
 11
0.0
 21
13.99999999974102
 31
0.0
210
0.0
220
0.0
230
1.0
 40
0.140541
 41
1.488157826718045
 42
1.917903114513686
  0
ELLIPSE
  5
140
330
1F
100
AcDbEntity
  8
1
100
AcDbEllipse
 10
435.872639
 20
295.000545
 30
0.0
 11
-1.932265519940236
 21
0.5160910389166645
 31
0.0
210
0.0
220
0.0
230
1.0
 40
0.9977149999999999
 41
0.0705650880375484
 42
1.875999251379565
  0
ELLIPSE
  5
141
330
1F
100
AcDbEntity
  8
1
100
AcDbEllipse
 10
435.872639
 20
295.000545
 30
0.0
 11
-1.932265519940236
 21
0.5160910389166645
 31
0.0
210
0.0
220
0.0
230
1.0
 40
0.9977149999999999
 41
1.875999251379564
 42
2.563713393647955
  0
ELLIPSE
  5
142
330
1F
100
AcDbEntity
  8
1
100
AcDbEllipse
 10
435.805162
 20
294.747909
 30
0.0
 11
-1.932265519940236
 21
0.5160910389166645
 31
0.0
210
0.0
220
0.0
230
1.0
 40
0.9977149999999999
 41
5.716445802771686
 42
5.859275107656527
  0
ELLIPSE
  5
143
330
1F
100
AcDbEntity
  8
1
100
AcDbEllipse
 10
435.7999309999999
 20
294.728325
 30
0.0
 11
1.932265519940236
 21
-0.5160910389166668
 31
0.0
210
0.0
220
0.0
230
1.0
 40
0.9977149999999999
 41
2.717682454066721
 42
4.159719185179417
  0
ELLIPSE
  5
144
330
1F
100
AcDbEntity
  8
1
100
AcDbEllipse
 10
434.5769589999999
 20
288.908285
 30
0.0
 11
0.5899475929227686
 21
-13.99970345027023
 31
0.0
210
0.0
220
0.0
230
1.0
 40
0.020196
 41
3.250235198743826
 42
3.271694351388421
  0
ELLIPSE
  5
145
330
1F
100
AcDbEntity
  8
1
100
AcDbEllipse
 10
381.334127
 20
288.912781
 30
0.0
 11
802.6816339146545
 21
-0.9144918441935967
 31
0.0
210
0.0
220
0.0
230
1.0
 40
0.017398
 41
1.505212363157192
 42
1.50883037423863
  0
ELLIPSE
  5
146
330
1F
100
AcDbEntity
  8
1
100
AcDbEllipse
 10
439.119202
 20
298.345691
 30
0.0
 11
-3.139931469902891
 21
0.8386479382395814
 31
0.0
210
0.0
220
0.0
230
1.0
 40
0.9977149999999999
 41
0.0
 42
6.283185307179585
  0
ELLIPSE
  5
147
330
1F
100
AcDbEntity
  8
1
100
AcDbEllipse
 10
434.9020379999999
 20
302.129301
 30
0.0
 11
1.042958969982665
 21
-0.954599675487908
 31
0.0
210
0.0
220
0.0
230
1.0
 40
0.042396
 41
1.038063823877817
 42
1.592874857108522
  0
ELLIPSE
  5
148
330
1F
100
AcDbEntity
  8
1
100
AcDbEllipse
 10
442.9463089999999
 20
302.479843
 30
0.0
 11
0.953974623470185
 21
1.042276062163442
 31
0.0
210
0.0
220
0.0
230
0.9999999999999998
 40
0.022111
 41
1.528370527740526
 42
2.083181561108467
  0
ELLIPSE
  5
149
330
1F
100
AcDbEntity
  8
1
100
AcDbEllipse
 10
443.3067249999999
 20
294.451105
 30
0.0
 11
1.042958970336215
 21
-0.9545996757896016
 31
0.0
210
0.0
220
0.0
230
1.0
 40
0.042396
 41
1.592874856830485
 42
2.147685889878391
  0
ELLIPSE
  5
14A
330
1F
100
AcDbEntity
  8
1
100
AcDbEllipse
 10
438.3426429999999
 20
288.907994
 30
0.0
 11
24.01544731116624
 21
-13.81189852443886
 31
0.0
210
0.0
220
0.0
230
0.9999999999999998
 40
0.09524
 41
4.210453815092816
 42
4.359749928976623
  0
ELLIPSE
  5
14B
330
1F
100
AcDbEntity
  8
1
100
AcDbEllipse
 10
435.0107359999999
 20
288.907994
 30
0.0
 11
0.5899605773903968
 21
-13.99999488046435
 31
0.0
210
0.0
220
0.0
230
0.9999999999999998
 40
0.020196
 41
3.016096007184271
 42
3.127620386015146
  0
ELLIPSE
  5
14C
330
1F
100
AcDbEntity
  8
1
100
AcDbEllipse
 10
434.87846
 20
288.907994
 30
0.0
 11
0.4895584118185756
 21
-13.99982854618273
 31
0.0
210
0.0
220
0.0
230
0.9999999999999998
 40
0.141526
 41
3.123522474647471
 42
3.246416005091426
  0
ELLIPSE
  5
14D
330
1F
100
AcDbEntity
  8
1
100
AcDbEllipse
 10
351.832789
 20
288.907994
 30
0.0
 11
297.8778573065517
 21
13.65296676800296
 31
0.0
210
0.0
220
0.0
230
1.0
 40
0.0104
 41
4.997041230244578
 42
5.018146146401902
  0
ELLIPSE
  5
14E
330
1F
100
AcDbEntity
  8
1
100
AcDbEllipse
 10
438.804366
 20
299.31183
 30
0.0
 11
-0.0965221760105445
 21
0.0257802199447826
 31
0.0
210
0.0
220
0.0
230
1.0
 40
0.9977149999999999
 41
3.446795526499218
 42
4.819329454508599
  0
ELLIPSE
  5
14F
330
1F
100
AcDbEntity
  8
1
100
AcDbEllipse
 10
439.0039469999999
 20
299.320528
 30
0.0
 11
-0.0965221760105445
 21
0.0257802199447826
 31
0.0
210
0.0
220
0.0
230
1.0
 40
0.9977149999999999
 41
0.3052028729093397
 42
1.154138025320153
  0
ELLIPSE
  5
150
330
1F
100
AcDbEntity
  8
1
100
AcDbEllipse
 10
439.28964
 20
299.674901
 30
0.0
 11
-0.5371411886095508
 21
0.143465663084962
 31
0.0
210
0.0
220
0.0
230
1.0
 40
0.9977149999999999
 41
1.154138025320343
 42
2.074261598490127
  0
ELLIPSE
  5
151
330
1F
100
AcDbEntity
  8
1
100
AcDbEllipse
 10
439.3993749999999
 20
299.233059
 30
0.0
 11
-0.0965221760105445
 21
0.0257802199447826
 31
0.0
210
0.0
220
0.0
230
1.0
 40
0.9977149999999999
 41
2.074261598489868
 42
2.923196750900885
  0
ELLIPSE
  5
152
330
1F
100
AcDbEntity
  8
1
100
AcDbEllipse
 10
439.576688
 20
299.1409930000001
 30
0.0
 11
-0.0965221760105447
 21
0.0257802199447827
 31
0.0
210
0.0
220
0.0
230
1.0
 40
0.9977149999999999
 41
4.692255476481343
 42
6.064789404490723
  0
ELLIPSE
  5
153
330
1F
100
AcDbEntity
  8
1
100
AcDbEllipse
 10
439.4504249999999
 20
298.703839
 30
0.0
 11
-0.5371411886095508
 21
0.1434656630849621
 31
0.0
210
0.0
220
0.0
230
1.0
 40
0.9977149999999999
 41
3.772131903311801
 42
4.692255476481657
  0
ELLIPSE
  5
154
330
1F
100
AcDbEntity
  8
1
100
AcDbEllipse
 10
439.875544
 20
298.86797
 30
0.0
 11
-0.0965221760105445
 21
0.0257802199447826
 31
0.0
210
0.0
220
0.0
230
1.0
 40
0.9977149999999999
 41
2.399597975302687
 42
3.772131903311898
  0
ELLIPSE
  5
155
330
1F
100
AcDbEntity
  8
1
100
AcDbEllipse
 10
439.983078
 20
298.699811
 30
0.0
 11
-0.0965221760105445
 21
0.0257802199447826
 31
0.0
210
0.0
220
0.0
230
1.0
 40
0.9977149999999999
 41
5.541190628892287
 42
6.39012578130325
  0
ELLIPSE
  5
156
330
1F
100
AcDbEntity
  8
1
100
AcDbEllipse
 10
440.433713
 20
298.62972
 30
0.0
 11
-0.5371411886095508
 21
0.143465663084962
 31
0.0
210
0.0
220
0.0
230
1.0
 40
0.9977149999999999
 41
0.1069404741237071
 42
1.027064047293585
  0
ELLIPSE
  5
157
330
1F
100
AcDbEntity
  8
1
100
AcDbEllipse
 10
440.105283
 20
298.31439
 30
0.0
 11
-0.0965221760105445
 21
0.0257802199447826
 31
0.0
210
0.0
220
0.0
230
1.0
 40
0.9977149999999999
 41
1.027064047293627
 42
1.875999199704101
  0
ELLIPSE
  5
158
330
1F
100
AcDbEntity
  8
1
100
AcDbEllipse
 10
440.1142249999999
 20
298.115195
 30
0.0
 11
-0.0965221760105447
 21
0.0257802199447827
 31
0.0
210
0.0
220
0.0
230
1.0
 40
0.9977149999999999
 41
3.645057925285111
 42
5.017591853294394
  0
ELLIPSE
  5
159
330
1F
100
AcDbEntity
  8
1
100
AcDbEllipse
 10
439.67163
 20
298.00618
 30
0.0
 11
-0.5371411886095508
 21
0.1434656630849621
 31
0.0
210
0.0
220
0.0
230
1.0
 40
0.9977149999999999
 41
2.72493435211523
 42
3.645057925285065
  0
ELLIPSE
  5
15A
330
1F
100
AcDbEntity
  8
1
100
AcDbEllipse
 10
440.027033
 20
297.720649
 30
0.0
 11
-0.0965221760105445
 21
0.0257802199447826
 31
0.0
210
0.0
220
0.0
230
1.0
 40
0.9977149999999999
 41
1.352400424106336
 42
2.724934352115175
  0
ELLIPSE
  5
15B
330
1F
100
AcDbEntity
  8
1
100
AcDbEllipse
 10
439.934987
 20
297.543792
 30
0.0
 11
-0.0965221760105445
 21
0.0257802199447826
 31
0.0
210
0.0
220
0.0
230
1.0
 40
0.9977149999999999
 41
4.493993077696099
 42
5.342928230107042
  0
ELLIPSE
  5
15C
330
1F
100
AcDbEntity
  8
1
100
AcDbEllipse
 10
440.099929
 20
297.119328
 30
0.0
 11
-0.5371411886095508
 21
0.143465663084962
 31
0.0
210
0.0
220
0.0
230
1.0
 40
0.9977149999999999
 41
5.342928230106733
 42
6.263051803276512
  0
ELLIPSE
  5
15D
330
1F
100
AcDbEntity
  8
1
100
AcDbEllipse
 10
439.661763
 20
297.24584
 30
0.0
 11
-0.0965221760105445
 21
0.0257802199447826
 31
0.0
210
0.0
220
0.0
230
1.0
 40
0.9977149999999999
 41
6.26305180327645
 42
7.111986955687526
  0
ELLIPSE
  5
15E
330
1F
100
AcDbEntity
  8
1
100
AcDbEllipse
 10
439.4933919999999
 20
297.138711
 30
0.0
 11
-0.0965221760105447
 21
0.0257802199447827
 31
0.0
210
0.0
220
0.0
230
1.0
 40
0.9977149999999999
 41
2.597860374088805
 42
3.970394302097331
  0
ELLIPSE
  5
15F
330
1F
100
AcDbEntity
  8
1
100
AcDbEllipse
 10
439.177061
 20
297.46685
 30
0.0
 11
-0.5371411886095508
 21
0.1434656630849621
 31
0.0
210
0.0
220
0.0
230
1.0
 40
0.9977149999999999
 41
1.67773680091863
 42
2.597860374088451
  0
ELLIPSE
  5
160
330
1F
100
AcDbEntity
  8
1
100
AcDbEllipse
 10
439.107345
 20
297.017188
 30
0.0
 11
-0.0965221760105445
 21
0.0257802199447826
 31
0.0
210
0.0
220
0.0
230
1.0
 40
0.9977149999999999
 41
0.3052028729096971
 42
1.677736800918516
  0
ELLIPSE
  5
161
330
1F
100
AcDbEntity
  8
1
100
AcDbEllipse
 10
438.907765
 20
297.008491
 30
0.0
 11
-0.0965221760105445
 21
0.0257802199447826
 31
0.0
210
0.0
220
0.0
230
1.0
 40
0.9977149999999999
 41
3.446795526499183
 42
4.295730678910089
  0
ELLIPSE
  5
162
330
1F
100
AcDbEntity
  8
1
100
AcDbEllipse
 10
438.6220719999999
 20
296.654118
 30
0.0
 11
-0.5371411886095508
 21
0.143465663084962
 31
0.0
210
0.0
220
0.0
230
1.0
 40
0.9977149999999999
 41
4.295730678910121
 42
5.215854252079988
  0
ELLIPSE
  5
163
330
1F
100
AcDbEntity
  8
1
100
AcDbEllipse
 10
438.955856
 20
298.164509
 30
0.0
 11
1.739038967946214
 21
-0.4644819350250005
 31
0.0
210
0.0
220
0.0
230
1.0
 40
0.9977149999999999
 41
0.0
 42
6.283185307179585
  0
ELLIPSE
  5
164
330
1F
100
AcDbEntity
  8
1
100
AcDbEllipse
 10
439.141869
 20
298.430556
 30
0.0
 11
2.990426653188629
 21
-0.7987165233357496
 31
0.0
210
0.0
220
0.0
230
1.0
 40
0.9977149999999999
 41
2.26457495629258
 42
6.283185307179585
  0
ELLIPSE
  5
165
330
1F
100
AcDbEntity
  8
1
100
AcDbEllipse
 10
439.141869
 20
298.430556
 30
0.0
 11
2.990426653188629
 21
-0.7987165233357496
 31
0.0
210
0.0
220
0.0
230
1.0
 40
0.9977149999999999
 41
0.0
 42
0.8769727393660321
  0
ELLIPSE
  5
166
330
1F
100
AcDbEntity
  8
1
100
AcDbEllipse
 10
435.2624539999999
 20
294.100563
 30
0.0
 11
0.953974625043504
 21
1.042276063900117
 31
0.0
210
0.0
220
0.0
230
1.0
 40
0.022111
 41
0.973559494903772
 42
1.52837052739898
  0
ELLIPSE
  5
167
330
1F
100
AcDbEntity
  8
1
100
AcDbEllipse
 10
439.122079
 20
298.356463
 30
0.0
 11
3.047894963411015
 21
-0.8140658009693815
 31
0.0
210
0.0
220
0.0
230
0.9999999999999998
 40
0.9977149999999999
 41
0.0
 42
6.283185307179585
  0
ELLIPSE
  5
168
330
1F
100
AcDbEntity
  8
1
100
AcDbEllipse
 10
438.961565
 20
298.185883
 30
0.0
 11
2.656865089917825
 21
-0.7096251785104171
 31
0.0
210
0.0
220
0.0
230
1.0
 40
0.9977149999999998
 41
0.0
 42
6.283185307179585
  0
ELLIPSE
  5
169
330
1F
100
AcDbEntity
  8
1
100
AcDbEllipse
 10
438.512336
 20
297.09596
 30
0.0
 11
-0.0965221760105445
 21
0.0257802199447826
 31
0.0
210
0.0
220
0.0
230
1.0
 40
0.9977149999999999
 41
5.215854252079342
 42
6.064789404490661
  0
ELLIPSE
  5
16A
330
1F
100
AcDbEntity
  8
1
100
AcDbEllipse
 10
438.335023
 20
297.188026
 30
0.0
 11
-0.0965221760105447
 21
0.0257802199447827
 31
0.0
210
0.0
220
0.0
230
1.0
 40
0.9977149999999999
 41
1.550662822891835
 42
2.923196750900999
  0
ELLIPSE
  5
16B
330
1F
100
AcDbEntity
  8
1
100
AcDbEllipse
 10
438.461286
 20
297.625179
 30
0.0
 11
-0.5371411886095508
 21
0.1434656630849621
 31
0.0
210
0.0
220
0.0
230
1.0
 40
0.9977149999999999
 41
0.6305392497219672
 42
1.550662822891863
  0
ELLIPSE
  5
16C
330
1F
100
AcDbEntity
  8
1
100
AcDbEllipse
 10
438.036168
 20
297.461048
 30
0.0
 11
-0.0965221760105445
 21
0.0257802199447826
 31
0.0
210
0.0
220
0.0
230
1.0
 40
0.9977149999999999
 41
5.541190628892287
 42
6.913724556901692
  0
ELLIPSE
  5
16D
330
1F
100
AcDbEntity
  8
1
100
AcDbEllipse
 10
437.928633
 20
297.629208
 30
0.0
 11
-0.0965221760105445
 21
0.0257802199447826
 31
0.0
210
0.0
220
0.0
230
1.0
 40
0.9977149999999999
 41
2.399597975303281
 42
3.248533127713568
  0
ELLIPSE
  5
16E
330
1F
100
AcDbEntity
  8
1
100
AcDbEllipse
 10
437.477999
 20
297.699298
 30
0.0
 11
-0.5371411886095508
 21
0.143465663084962
 31
0.0
210
0.0
220
0.0
230
1.0
 40
0.9977149999999999
 41
3.248533127713475
 42
4.168656700883363
  0
ELLIPSE
  5
16F
330
1F
100
AcDbEntity
  8
1
100
AcDbEllipse
 10
437.806429
 20
298.014629
 30
0.0
 11
-0.0965221760105445
 21
0.0257802199447826
 31
0.0
210
0.0
220
0.0
230
1.0
 40
0.9977149999999999
 41
4.168656700883493
 42
5.017591853294394
  0
ELLIPSE
  5
170
330
1F
100
AcDbEntity
  8
1
100
AcDbEllipse
 10
437.797487
 20
298.2138240000001
 30
0.0
 11
-0.0965221760105447
 21
0.0257802199447827
 31
0.0
210
0.0
220
0.0
230
1.0
 40
0.9977149999999999
 41
0.5034652716953802
 42
1.875999199704351
  0
ELLIPSE
  5
171
330
1F
100
AcDbEntity
  8
1
100
AcDbEllipse
 10
438.240081
 20
298.322838
 30
0.0
 11
-0.5371411886095508
 21
0.1434656630849621
 31
0.0
210
0.0
220
0.0
230
1.0
 40
0.9977149999999999
 41
5.866527005704977
 42
6.786650578874833
  0
ELLIPSE
  5
172
330
1F
100
AcDbEntity
  8
1
100
AcDbEllipse
 10
437.8846779999999
 20
298.608369
 30
0.0
 11
-0.0965221760105445
 21
0.0257802199447826
 31
0.0
210
0.0
220
0.0
230
1.0
 40
0.9977149999999999
 41
4.493993077696099
 42
5.866527005704953
  0
ELLIPSE
  5
173
330
1F
100
AcDbEntity
  8
1
100
AcDbEllipse
 10
437.976724
 20
298.785226
 30
0.0
 11
-0.0965221760105445
 21
0.0257802199447826
 31
0.0
210
0.0
220
0.0
230
1.0
 40
0.9977149999999999
 41
1.35240042410609
 42
2.201335576516621
  0
ELLIPSE
  5
174
330
1F
100
AcDbEntity
  8
1
100
AcDbEllipse
 10
437.8117829999999
 20
299.20969
 30
0.0
 11
-0.5371411886095508
 21
0.143465663084962
 31
0.0
210
0.0
220
0.0
230
1.0
 40
0.9977149999999999
 41
2.201335576516906
 42
3.121459149686758
  0
ELLIPSE
  5
175
330
1F
100
AcDbEntity
  8
1
100
AcDbEllipse
 10
438.2499479999999
 20
299.083178
 30
0.0
 11
-0.0965221760105445
 21
0.0257802199447826
 31
0.0
210
0.0
220
0.0
230
1.0
 40
0.9977149999999999
 41
3.121459149686804
 42
3.970394302097895
  0
ELLIPSE
  5
176
330
1F
100
AcDbEntity
  8
1
100
AcDbEllipse
 10
438.418319
 20
299.190308
 30
0.0
 11
-0.0965221760105447
 21
0.0257802199447827
 31
0.0
210
0.0
220
0.0
230
1.0
 40
0.9977149999999999
 41
5.739453027678097
 42
7.111986955687687
  0
ELLIPSE
  5
177
330
1F
100
AcDbEntity
  8
1
100
AcDbEllipse
 10
438.7346509999999
 20
298.862168
 30
0.0
 11
-0.5371411886095508
 21
0.1434656630849621
 31
0.0
210
0.0
220
0.0
230
1.0
 40
0.9977149999999999
 41
4.819329454508372
 42
5.739453027678253
  0
SPLINE
  5
17D
330
1F
100
AcDbEntity
  8
1
100
AcDbSpline
210
0.0
220
0.0
230
1.0
 70
     8
 71
     3
 72
    16
 73
    12
 74
     0
 42
0.000000001
 43
0.0000000001
 40
0.0
 40
0.0
 40
0.0
 40
0.0
 40
0.0713987641522655
 40
0.0713987641522655
 40
0.381500830449901
 40
0.381500830449901
 40
0.5365518635987186
 40
0.5365518635987186
 40
0.6916028967475342
 40
0.6916028967475342
 40
1.0
 40
1.0
 40
1.0
 40
1.0
 10
431.54475889244
 20
293.1546316122076
 30
0.0
 10
431.6365261934432
 20
293.1277167169337
 30
0.0
 10
431.7286638423481
 20
293.1018533929105
 30
0.0
 10
432.2229367065979
 20
292.9693070608378
 30
0.0
 10
432.6286509502578
 20
292.8822875898466
 30
0.0
 10
433.2431284711872
 20
292.7827741277442
 30
0.0
 10
433.4490275116739
 20
292.75477233293
 30
0.0
 10
433.8624531630822
 20
292.7092711453109
 30
0.0
 10
434.0693445318023
 20
292.6918370758602
 30
0.0
 10
434.6882740457703
 20
292.6555208730448
 30
0.0
 10
435.1007258059522
 20
292.6522155258181
 30
0.0
 10
435.5141028812639
 20
292.6699963981369
 30
0.0
  0
SPLINE
  5
17E
330
1F
100
AcDbEntity
  8
1
100
AcDbSpline
210
0.0
220
0.0
230
1.0
 70
     8
 71
     3
 72
    22
 73
    18
 74
     0
 42
0.000000001
 43
0.0000000001
 40
0.0
 40
0.0
 40
0.0
 40
0.0
 40
0.125
 40
0.125
 40
0.25
 40
0.25
 40
0.375
 40
0.375
 40
0.5
 40
0.5
 40
0.625
 40
0.625
 40
0.75
 40
0.75
 40
0.875
 40
0.875
 40
1.0
 40
1.0
 40
1.0
 40
1.0
 10
438.448939081796
 20
297.2365649805687
 30
0.0
 10
438.4463152837668
 20
297.2314586612006
 30
0.0
 10
438.4432782706098
 20
297.2265896759514
 30
0.0
 10
438.4365080041643
 20
297.2174805175489
 30
0.0
 10
438.4327628288677
 20
297.2132151641489
 30
0.0
 10
438.4245320338337
 20
297.2052804064087
 30
0.0
 10
438.4200405682385
 20
297.2016204359839
 30
0.0
 10
438.4106048629631
 20
297.1951695281296
 30
0.0
 10
438.4056260793669
 20
297.1923415883845
 30
0.0
 10
438.3951248521786
 20
297.1875167873498
 30
0.0
 10
438.3896196067906
 20
297.1855394600183
 30
0.0
 10
438.3784447274626
 20
297.1825902632438
 30
0.0
 10
438.3727293988726
 20
297.1815950778208
 30
0.0
 10
438.3610293747818
 20
297.1806199019767
 30
0.0
 10
438.3551336110652
 20
297.1806547718234
 30
0.0
 10
438.3434983426663
 20
297.1817619669127
 30
0.0
 10
438.3377205104834
 20
297.1828302375108
 30
0.0
 10
438.3319853838086
 20
297.1844466135609
 30
0.0
  0
SPLINE
  5
17F
330
1F
100
AcDbEntity
  8
1
100
AcDbSpline
210
0.0
220
0.0
230
1.0
 70
     8
 71
     3
 72
    20
 73
    16
 74
     0
 42
0.000000001
 43
0.0000000001
 40
0.0
 40
0.0
 40
0.0
 40
0.0
 40
0.125
 40
0.125
 40
0.25
 40
0.25
 40
0.375
 40
0.375
 40
0.5
 40
0.5
 40
0.625
 40
0.625
 40
0.75
 40
0.75
 40
1.0
 40
1.0
 40
1.0
 40
1.0
 10
439.1166950232399
 20
297.0108691474138
 30
0.0
 10
439.1108099381967
 20
297.0118227648236
 30
0.0
 10
439.1051110645851
 20
297.0132936114441
 30
0.0
 10
439.0940661488625
 20
297.0172135307322
 30
0.0
 10
439.0886702036882
 20
297.019694375084
 30
0.0
 10
439.0785220025228
 20
297.025502121376
 30
0.0
 10
439.0737783551891
 20
297.0288091857537
 30
0.0
 10
439.0649198653512
 20
297.0361884147139
 30
0.0
 10
439.0607722441304
 20
297.0403017999286
 30
0.0
 10
439.0532972123418
 20
297.049116750121
 30
0.0
 10
439.0499895283053
 20
297.0537787974777
 30
0.0
 10
439.0441896426349
 20
297.0635841036944
 30
0.0
 10
439.0416878546392
 20
297.068753497168
 30
0.0
 10
439.0355101783398
 20
297.0848348916034
 30
0.0
 10
439.0332461868001
 20
297.0959365905728
 30
0.0
 10
439.032814389172
 20
297.1074119903329
 30
0.0
  0
SPLINE
  5
180
330
1F
100
AcDbEntity
  8
1
100
AcDbSpline
210
0.0
220
0.0
230
1.0
 70
     8
 71
     3
 72
    14
 73
    10
 74
     0
 42
0.000000001
 43
0.0000000001
 40
0.0
 40
0.0
 40
0.0
 40
0.0
 40
0.25
 40
0.25
 40
0.5
 40
0.5
 40
0.75
 40
0.75
 40
1.0
 40
1.0
 40
1.0
 40
1.0
 10
438.4489390817964
 20
297.2365649805696
 30
0.0
 10
438.4522214785926
 20
297.2429530356518
 30
0.0
 10
438.4561615228987
 20
297.2489913032805
 30
0.0
 10
438.4651644664057
 20
297.2600968010959
 30
0.0
 10
438.4701857014218
 20
297.2651308450368
 30
0.0
 10
438.4812809391138
 20
297.2741516255819
 30
0.0
 10
438.4873950426989
 20
297.2781394879203
 30
0.0
 10
438.5001877653738
 20
297.2846536310722
 30
0.0
 10
438.5069232633944
 20
297.2872378706061
 30
0.0
 10
438.5140293725383
 20
297.2890912511776
 30
0.0
  0
SPLINE
  5
181
330
1F
100
AcDbEntity
  8
1
100
AcDbSpline
210
0.0
220
0.0
230
1.0
 70
     8
 71
     3
 72
    14
 73
    10
 74
     0
 42
0.000000001
 43
0.0000000001
 40
0.0
 40
0.0
 40
0.0
 40
0.0
 40
0.25
 40
0.25
 40
0.5
 40
0.5
 40
0.75
 40
0.75
 40
1.0
 40
1.0
 40
1.0
 40
1.0
 10
438.9960804291911
 20
297.1824617454818
 30
0.0
 10
439.0017381483177
 20
297.1777821893564
 30
0.0
 10
439.0068481308516
 20
297.1724884121067
 30
0.0
 10
439.0156901777513
 20
297.1611357537701
 30
0.0
 10
439.0194482506179
 20
297.155073729925
 30
0.0
 10
439.02568231684
 20
297.1421998647753
 30
0.0
 10
439.0281350273887
 20
297.1353847077078
 30
0.0
 10
439.0315455072775
 20
297.1216164877171
 30
0.0
 10
439.032544346479
 20
297.1145886111655
 30
0.0
 10
439.032814389172
 20
297.1074119903329
 30
0.0
  0
SPLINE
  5
182
330
1F
100
AcDbEntity
  8
1
100
AcDbSpline
210
0.0
220
0.0
230
1.0
 70
     8
 71
     3
 72
    21
 73
    17
 74
     0
 42
0.000000001
 43
0.0000000001
 40
0.0
 40
0.0
 40
0.0
 40
0.0
 40
0.2499999999999533
 40
0.2499999999999533
 40
0.312499999999944
 40
0.312499999999944
 40
0.3749999999999348
 40
0.3749999999999348
 40
0.4999999999999224
 40
0.6249999999999099
 40
0.6249999999999099
 40
0.6874999999999528
 40
0.6874999999999528
 40
0.7499999999999955
 40
0.7499999999999955
 40
1.0
 40
1.0
 40
1.0
 40
1.0
 10
438.3319853838086
 20
297.1844466135609
 30
0.0
 10
438.2907324409761
 20
297.1960732562783
 30
0.0
 10
438.2513932984402
 20
297.2123003802391
 30
0.0
 10
438.2046150782623
 20
297.2383283372257
 30
0.0
 10
438.1953622486228
 20
297.2438382057111
 30
0.0
 10
438.1773079730042
 20
297.2553182875453
 30
0.0
 10
438.1684836028846
 20
297.261299744564
 30
0.0
 10
438.1426077416239
 20
297.2799551387506
 30
0.0
 10
438.1096954123028
 20
297.306720465062
 30
0.0
 10
438.0799392444501
 20
297.337242887148
 30
0.0
 10
438.0588452131933
 20
297.3615907819096
 30
0.0
 10
438.0520338315277
 20
297.3699357039517
 30
0.0
 10
438.0389964445213
 20
297.3868919540938
 30
0.0
 10
438.0327479805843
 20
297.3955286456928
 30
0.0
 10
438.0028325416656
 20
297.4394906549999
 30
0.0
 10
437.9830939649337
 20
297.4771210251835
 30
0.0
 10
437.9676625853448
 20
297.5172777833281
 30
0.0
  0
SPLINE
  5
188
330
1F
100
AcDbEntity
  8
1
100
AcDbSpline
210
0.0
220
0.0
230
1.0
 70
    28
 71
     4
 72
    13
 73
     8
 74
     0
 42
0.000000001
 43
0.0000000001
 40
0.0
 40
0.0
 40
0.0
 40
0.0
 40
0.0
 40
0.0126161538436585
 40
0.0126161538436585
 40
0.0126161538436585
 40
1.0
 40
1.0
 40
1.0
 40
1.0
 40
1.0
 10
297.9048419452957
 20
282.0840269970028
 30
0.0
 41
1.001555295592621
 10
297.9048419452957
 20
282.0642181219674
 30
0.0
 41
1.001559224771938
 10
297.9048419452959
 20
282.0443997286314
 30
0.0
 41
1.001561886718862
 10
297.9048419452957
 20
282.0245725296487
 30
0.0
 41
1.00156323924462
 10
297.9048419452957
 20
280.4523590540407
 30
0.0
 41
1.00156323924462
 10
297.9048419452957
 20
278.5913227010542
 30
0.0
 41
0.9932787902553341
 10
297.9048419452957
 20
276.7552339804367
 30
0.0
 41
0.9973732398843692
 10
297.9048419452957
 20
275.2420189970137
 30
0.0
 41
1.000150464163533
  0
SPLINE
  5
189
330
1F
100
AcDbEntity
  8
1
100
AcDbSpline
210
0.0
220
0.0
230
1.0
 70
     8
 71
     3
 72
    75
 73
    71
 74
     0
 42
0.000000001
 43
0.0000000001
 40
0.0
 40
0.0
 40
0.0
 40
0.0
 40
0.0312499999999998
 40
0.0312499999999998
 40
0.0624999999999995
 40
0.0624999999999995
 40
0.0937499999999993
 40
0.0937499999999993
 40
0.1249999999999991
 40
0.1249999999999991
 40
0.1562499999999989
 40
0.1562499999999989
 40
0.1874999999999986
 40
0.1874999999999986
 40
0.2187499999999984
 40
0.2187499999999984
 40
0.2499999999999982
 40
0.2499999999999982
 40
0.2812499999999981
 40
0.2812499999999981
 40
0.3124999999999981
 40
0.3124999999999981
 40
0.343749999999998
 40
0.343749999999998
 40
0.3749999999999979
 40
0.3749999999999979
 40
0.4062499999999978
 40
0.4062499999999978
 40
0.4218749999999978
 40
0.4218749999999978
 40
0.4374999999999978
 40
0.4374999999999978
 40
0.4687499999999975
 40
0.4687499999999975
 40
0.4999999999999972
 40
0.4999999999999972
 40
0.5312499999999968
 40
0.5312499999999968
 40
0.5624999999999965
 40
0.5624999999999965
 40
0.5781249999999965
 40
0.5781249999999965
 40
0.5937499999999965
 40
0.5937499999999965
 40
0.6249999999999968
 40
0.6249999999999968
 40
0.6562499999999972
 40
0.6562499999999972
 40
0.6874999999999975
 40
0.6874999999999975
 40
0.7187499999999978
 40
0.7187499999999978
 40
0.7343749999999978
 40
0.7343749999999978
 40
0.7499999999999977
 40
0.7499999999999977
 40
0.8124999999999975
 40
0.8124999999999975
 40
0.8437499999999975
 40
0.8437499999999975
 40
0.8593749999999975
 40
0.8593749999999975
 40
0.8749999999999975
 40
0.8749999999999975
 40
0.906249999999998
 40
0.906249999999998
 40
0.9374999999999987
 40
0.9374999999999987
 40
0.9687499999999994
 40
1.0
 40
1.0
 40
1.0
 40
1.0
 10
299.7131964658075
 20
281.6324225933018
 30
0.0
 10
300.9441291763725
 20
281.5085664224134
 30
0.0
 10
302.1754195936356
 20
281.3887893871682
 30
0.0
 10
304.6386181375579
 20
281.1563103021193
 30
0.0
 10
305.8705261429837
 20
281.0436069830191
 30
0.0
 10
308.33483571138
 20
280.8240762348364
 30
0.0
 10
309.5672371363172
 20
280.7172474971273
 30
0.0
 10
312.0323870530884
 20
280.5081921649574
 30
0.0
 10
313.2651353942874
 20
280.4059642235883
 30
0.0
 10
315.7308146574811
 20
280.204801897095
 30
0.0
 10
316.9637505922869
 20
280.1058657177081
 30
0.0
 10
319.429512860456
 20
279.9099936941275
 30
0.0
 10
320.6623512380106
 20
279.8130553245887
 30
0.0
 10
323.127734437689
 20
279.6199263971312
 30
0.0
 10
324.3602790543834
 20
279.5237341813531
 30
0.0
 10
326.8248581448326
 20
279.3309453148158
 30
0.0
 10
328.0568923835114
 20
279.234346822641
 30
0.0
 10
330.5202325250307
 20
279.0397437607879
 30
0.0
 10
331.7515381518297
 20
278.9417371471351
 30
0.0
 10
334.2132088913912
 20
278.7435250373181
 30
0.0
 10
335.4435736740231
 20
278.6433173108498
 30
0.0
 10
337.9031656019321
 20
278.4401832318784
 30
0.0
 10
339.1323923498927
 20
278.3372545361957
 30
0.0
 10
341.5895370019671
 20
278.1285007990923
 30
0.0
 10
342.8174544318538
 20
278.0226734616188
 30
0.0
 10
345.2718481992324
 20
277.808357066498
 30
0.0
 10
346.4983239848873
 20
277.6998660424179
 30
0.0
 10
348.3368984272844
 20
277.5356673354544
 30
0.0
 10
348.9495671792926
 20
277.4806946592758
 30
0.0
 10
350.1745227871879
 20
277.370408065489
 30
0.0
 10
350.7868318779324
 20
277.315054070176
 30
0.0
 10
352.6230567328822
 20
277.1493150582455
 30
0.0
 10
353.8462561851986
 20
277.0393650632746
 30
0.0
 10
356.2917852744837
 20
276.8251227332926
 30
0.0
 10
357.5141160554545
 20
276.7208275320659
 30
0.0
 10
359.9587789177144
 20
276.5209337981999
 30
0.0
 10
361.1811109120541
 20
276.4253261983639
 30
0.0
 10
363.6264654071567
 20
276.2444886241161
 30
0.0
 10
364.8494860262666
 20
276.1592455553504
 30
0.0
 10
366.6849359987724
 20
276.0396629190632
 30
0.0
 10
367.2969100647102
 20
276.0011884948864
 30
0.0
 10
368.5211894926068
 20
275.9269321534349
 30
0.0
 10
369.1334897485938
 20
275.8911369996327
 30
0.0
 10
370.9708512289454
 20
275.7875291711409
 30
0.0
 10
372.1963698456138
 20
275.7234850248416
 30
0.0
 10
374.6486130081629
 20
275.6045846179692
 30
0.0
 10
375.8753390111295
 20
275.5497351967794
 30
0.0
 10
378.330072555903
 20
275.4485836037409
 30
0.0
 10
379.5580812941091
 20
275.4022855605625
 30
0.0
 10
382.0155041062469
 20
275.3176403432989
 30
0.0
 10
383.2449190641133
 20
275.2792951400747
 30
0.0
 10
385.0902009867112
 20
275.2272594807676
 30
0.0
 10
385.7055176641957
 20
275.2108267273798
 30
0.0
 10
386.9363701689204
 20
275.1797045101188
 30
0.0
 10
387.5519095378228
 20
275.1650148320878
 30
0.0
 10
390.6302060907653
 20
275.095688862228
 30
0.0
 10
393.0947711833615
 20
275.0534503373889
 30
0.0
 10
396.7950728984543
 20
275.0049713061899
 30
0.0
 10
398.0290805873254
 20
274.9912849523075
 30
0.0
 10
399.8810075984922
 20
274.9738236814404
 30
0.0
 10
400.4984694662078
 20
274.9685150250222
 30
0.0
 10
401.7337047952148
 20
274.9588140191023
 30
0.0
 10
402.351475712852
 20
274.9544184256631
 30
0.0
 10
404.2051844516434
 20
274.9423937737523
 30
0.0
 10
405.4415182224748
 20
274.935916351426
 30
0.0
 10
407.9149034437584
 20
274.9252382996461
 30
0.0
 10
409.1519578782531
 20
274.9210394919045
 30
0.0
 10
411.6264348041232
 20
274.9144364378356
 30
0.0
 10
414.1012126750982
 20
274.9096298554134
 30
0.0
 10
416.5760210964538
 20
274.9079935137005
 30
0.0
 10
417.8132884716722
 20
274.9079935137005
 30
0.0
  0
SPLINE
  5
18A
330
1F
100
AcDbEntity
  8
1
100
AcDbSpline
210
0.0
220
0.0
230
1.0
 70
     8
 71
     3
 72
    58
 73
    54
 74
     0
 42
0.000000001
 43
0.0000000001
 40
0.0
 40
0.0
 40
0.0
 40
0.0
 40
0.0624999999999998
 40
0.0624999999999998
 40
0.1249999999999997
 40
0.1249999999999997
 40
0.1874999999999995
 40
0.1874999999999995
 40
0.2499999999999993
 40
0.2499999999999993
 40
0.2812499999999992
 40
0.2812499999999992
 40
0.3124999999999991
 40
0.3124999999999991
 40
0.3749999999999987
 40
0.3749999999999987
 40
0.4062499999999988
 40
0.4062499999999988
 40
0.4374999999999988
 40
0.4374999999999988
 40
0.4687499999999988
 40
0.4687499999999988
 40
0.4999999999999986
 40
0.4999999999999986
 40
0.5312499999999986
 40
0.5312499999999986
 40
0.5624999999999986
 40
0.5624999999999986
 40
0.5937499999999987
 40
0.5937499999999987
 40
0.6249999999999987
 40
0.6249999999999987
 40
0.687499999999999
 40
0.687499999999999
 40
0.7499999999999992
 40
0.7499999999999992
 40
0.7812499999999992
 40
0.7812499999999992
 40
0.8124999999999992
 40
0.8124999999999992
 40
0.8437499999999992
 40
0.8437499999999992
 40
0.8749999999999992
 40
0.8749999999999992
 40
0.9062499999999992
 40
0.9062499999999992
 40
0.9374999999999992
 40
0.9374999999999992
 40
0.9687499999999994
 40
0.9687499999999994
 40
0.9843749999999996
 40
0.9843749999999996
 40
1.0
 40
1.0
 40
1.0
 40
1.0
 10
297.9048419452959
 20
302.7492522597921
 30
0.0
 10
300.5721016872815
 20
302.7102291629405
 30
0.0
 10
303.23829774833
 20
302.6625444609641
 30
0.0
 10
308.5688282486734
 20
302.5470734691918
 30
0.0
 10
311.2332434498542
 20
302.4792694485932
 30
0.0
 10
316.5600698124663
 20
302.3214742541965
 30
0.0
 10
319.22251082684
 20
302.2314702429666
 30
0.0
 10
324.5460339444496
 20
302.0283215052624
 30
0.0
 10
327.2071180318936
 20
301.915170169571
 30
0.0
 10
331.1982611316884
 20
301.7284572188684
 30
0.0
 10
332.5285624580089
 20
301.6634005085013
 30
0.0
 10
335.1891007700921
 20
301.5278541051265
 30
0.0
 10
336.5193606669472
 20
301.4573633607649
 30
0.0
 10
340.5099546897571
 20
301.2381974765186
 30
0.0
 10
343.1701340004429
 20
301.0817959464734
 30
0.0
 10
347.1606541312094
 20
300.8342138273842
 30
0.0
 10
348.4908690939872
 20
300.7495318480692
 30
0.0
 10
351.1514711076916
 20
300.5763478069658
 30
0.0
 10
352.4818614948947
 20
300.4878697849643
 30
0.0
 10
355.1426858665624
 20
300.3065822014532
 30
0.0
 10
356.473119534233
 20
300.2137685997742
 30
0.0
 10
359.1339581554175
 20
300.0234295323739
 30
0.0
 10
360.4643634139504
 20
299.9259032196326
 30
0.0
 10
363.1251346271032
 20
299.7260116046194
 30
0.0
 10
364.4554512223932
 20
299.6236514403176
 30
0.0
 10
367.1159689753413
 20
299.414219014962
 30
0.0
 10
368.4461671250482
 20
299.3071168187142
 30
0.0
 10
371.1065657873863
 20
299.0887869154159
 30
0.0
 10
372.436769604703
 20
298.9775787797295
 30
0.0
 10
375.097281550217
 20
298.7516452332329
 30
0.0
 10
376.4275750865552
 20
298.6369196259974
 30
0.0
 10
380.4184847478778
 20
298.2880605668157
 30
0.0
 10
383.0792023107682
 20
298.0492956738138
 30
0.0
 10
388.4010156720623
 20
297.5608253420753
 30
0.0
 10
391.0621093384934
 20
297.3111210201707
 30
0.0
 10
395.053951151459
 20
296.9280481959517
 30
0.0
 10
396.3845967869357
 20
296.798923245957
 30
0.0
 10
399.0459146615351
 20
296.5375499905223
 30
0.0
 10
400.3766088128323
 20
296.4053323106849
 30
0.0
 10
403.0378367167036
 20
296.1372245383552
 30
0.0
 10
404.3683499992573
 20
296.0011704833893
 30
0.0
 10
407.0288982612943
 20
295.7229723747354
 30
0.0
 10
408.3589320822181
 20
295.5808170631475
 30
0.0
 10
411.0183843324834
 20
295.2891904676879
 30
0.0
 10
412.3478165476424
 20
295.139700450294
 30
0.0
 10
415.0060415292852
 20
294.8334901753139
 30
0.0
 10
416.3348061540133
 20
294.6767543472067
 30
0.0
 10
418.991946952616
 20
294.3579904004054
 30
0.0
 10
420.3203213153538
 20
294.1959434557137
 30
0.0
 10
422.3130558875746
 20
293.9521626423224
 30
0.0
 10
422.9773321859002
 20
293.8708043597065
 30
0.0
 10
424.3060600844159
 20
293.7087166822518
 30
0.0
 10
424.9705022900355
 20
293.6279870259798
 30
0.0
 10
425.6350688261839
 20
293.5480994902247
 30
0.0
  0
SPLINE
  5
18B
330
1F
100
AcDbEntity
  8
1
100
AcDbSpline
210
0.0
220
0.0
230
1.0
 70
     8
 71
     3
 72
    46
 73
    42
 74
     0
 42
0.000000001
 43
0.0000000001
 40
0.0
 40
0.0
 40
0.0
 40
0.0
 40
0.0625000000000056
 40
0.0625000000000056
 40
0.1250000000000112
 40
0.1250000000000112
 40
0.2500000000000059
 40
0.2500000000000059
 40
0.3750000000000007
 40
0.3750000000000007
 40
0.4374999999999982
 40
0.4374999999999982
 40
0.4687499999999968
 40
0.4687499999999968
 40
0.4999999999999954
 40
0.4999999999999954
 40
0.5624999999999774
 40
0.5624999999999774
 40
0.6249999999999594
 40
0.6249999999999594
 40
0.6874999999999413
 40
0.6874999999999413
 40
0.7187499999999322
 40
0.7187499999999322
 40
0.7499999999999231
 40
0.7499999999999231
 40
0.8124999999999168
 40
0.8124999999999168
 40
0.8281249999999229
 40
0.8281249999999229
 40
0.8437499999999287
 40
0.8437499999999287
 40
0.8749999999999417
 40
0.8749999999999417
 40
0.9062499999999548
 40
0.9062499999999548
 40
0.9218749999999616
 40
0.9218749999999616
 40
0.9374999999999687
 40
0.9374999999999687
 40
1.0
 40
1.0
 40
1.0
 40
1.0
 10
427.8050018864663
 20
295.665245043828
 30
0.0
 10
427.8970888021173
 20
295.69687196629
 30
0.0
 10
427.9889269313749
 20
295.7292954614099
 30
0.0
 10
428.1720579555266
 20
295.7958882014132
 30
0.0
 10
428.2633102420667
 20
295.8300432743698
 30
0.0
 10
428.5357267308685
 20
295.9352201266162
 30
0.0
 10
428.7156756374046
 20
296.0089730587003
 30
0.0
 10
429.0714698022622
 20
296.1654537212779
 30
0.0
 10
429.2473243597744
 20
296.2481611141697
 30
0.0
 10
429.5071319440487
 20
296.3809140086063
 30
0.0
 10
429.5930680617473
 20
296.4266224323966
 30
0.0
 10
429.7208040752017
 20
296.4977398748607
 30
0.0
 10
429.7632149215761
 20
296.5218886628012
 30
0.0
 10
429.847464711183
 20
296.5710309173705
 30
0.0
 10
429.8892912919586
 20
296.5960162828381
 30
0.0
 10
430.0138014670836
 20
296.6723187180591
 30
0.0
 10
430.0955210026535
 20
296.7249744776483
 30
0.0
 10
430.2558780644013
 20
296.834565668082
 30
0.0
 10
430.3345193969961
 20
296.8914958133446
 30
0.0
 10
430.487997478784
 20
297.0106391397572
 30
0.0
 10
430.5628420418953
 20
297.0728414705178
 30
0.0
 10
430.6714268386969
 20
297.1712578499778
 30
0.0
 10
430.7070078260966
 20
297.2049320777909
 30
0.0
 10
430.7762128324732
 20
297.2737271993096
 30
0.0
 10
430.8099021471398
 20
297.3089044810056
 30
0.0
 10
430.9078451352455
 20
297.4171045522902
 30
0.0
 10
430.9690299790443
 20
297.4927476449864
 30
0.0
 10
431.0384576043692
 20
297.5933240423112
 30
0.0
 10
431.0520083837649
 20
297.6137800930393
 30
0.0
 10
431.0782145684833
 20
297.6551821340519
 30
0.0
 10
431.0908511419818
 20
297.6760951117907
 30
0.0
 10
431.1272714111769
 20
297.7395107592887
 30
0.0
 10
431.1495703505718
 20
297.7826880102132
 30
0.0
 10
431.18962860742
 20
297.8711050346837
 30
0.0
 10
431.2073900969261
 20
297.9163438213836
 30
0.0
 10
431.2300654001839
 20
297.9860043288154
 30
0.0
 10
431.2369698239115
 20
298.0095596106842
 30
0.0
 10
431.2492990155173
 20
298.0571810140422
 30
0.0
 10
431.2546774186087
 20
298.0810615882785
 30
0.0
 10
431.2775456306516
 20
298.2008220733508
 30
0.0
 10
431.2829991439136
 20
298.2977717050681
 30
0.0
 10
431.2741578043873
 20
298.3959917860094
 30
0.0
  0
SPLINE
  5
18C
330
1F
100
AcDbEntity
  8
1
100
AcDbSpline
210
0.0
220
0.0
230
1.0
 70
    12
 71
     3
 72
     9
 73
     5
 74
     0
 42
0.000000001
 43
0.0000000001
 40
0.0
 40
0.0
 40
0.0
 40
0.0
 40
0.4331856284973556
 40
1.0
 40
1.0
 40
1.0
 40
1.0
 10
377.7355101441119
 20
298.5244832730327
 30
0.0
 41
1.00434604266103
 10
385.4842053038631
 20
298.4688312540163
 30
0.0
 41
1.002796581172961
 10
403.5332800499953
 20
297.8685560812839
 30
0.0
 41
0.9965925416938723
 10
421.1007279064492
 20
297.5254592104751
 30
0.0
 41
1.004773218580296
 10
431.2741578043873
 20
298.3959917860094
 30
0.0
 41
1.002572628789055
  0
SPLINE
  5
18D
330
1F
100
AcDbEntity
  8
1
100
AcDbSpline
210
0.0
220
0.0
230
1.0
 70
     8
 71
     3
 72
    31
 73
    27
 74
     0
 42
0.000000001
 43
0.0000000001
 40
0.0
 40
0.0
 40
0.0
 40
0.0
 40
0.0624999999999997
 40
0.0624999999999997
 40
0.1249999999999993
 40
0.1249999999999993
 40
0.187499999999999
 40
0.187499999999999
 40
0.2499999999999986
 40
0.2499999999999986
 40
0.3749999999999976
 40
0.3749999999999976
 40
0.437499999999997
 40
0.437499999999997
 40
0.4531249999999973
 40
0.4531249999999973
 40
0.4687499999999975
 40
0.4999999999999978
 40
0.4999999999999978
 40
0.6249999999999983
 40
0.6249999999999983
 40
0.7499999999999988
 40
0.7499999999999988
 40
0.8749999999999992
 40
0.8749999999999992
 40
1.0
 40
1.0
 40
1.0
 40
1.0
 10
292.2038318185192
 20
274.9723444823632
 30
0.0
 10
291.9570953706609
 20
274.9634131262634
 30
0.0
 10
291.7133704515985
 20
274.9485147683313
 30
0.0
 10
291.2312984681959
 20
274.9081791941463
 30
0.0
 10
290.9929524381915
 20
274.8827397920221
 30
0.0
 10
290.5211424624395
 20
274.8224149832662
 30
0.0
 10
290.2876792334967
 20
274.7875279006986
 30
0.0
 10
289.825259876284
 20
274.7091611615411
 30
0.0
 10
289.5963042774592
 20
274.6656801652758
 30
0.0
 10
288.9157894655508
 20
274.5233363025649
 30
0.0
 10
288.4705447673237
 20
274.4126337415655
 30
0.0
 10
287.8144533426747
 20
274.2254875364494
 30
0.0
 10
287.5977286982989
 20
274.1595734128157
 30
0.0
 10
287.3292642863392
 20
274.0729330644009
 30
0.0
 10
287.2756707102448
 20
274.055384714974
 30
0.0
 10
287.1688547359977
 20
274.01990840787
 30
0.0
 10
287.0092070418634
 20
273.9661317263715
 30
0.0
 10
286.8512738894733
 20
273.9106950267374
 30
0.0
 10
286.3285906083574
 20
273.7223229856041
 30
0.0
 10
285.9224336898507
 20
273.5601973475803
 30
0.0
 10
285.1336139543913
 20
273.2151171280098
 30
0.0
 10
284.7509630901681
 20
273.0321508707295
 30
0.0
 10
284.0095923150881
 20
272.6466552449901
 30
0.0
 10
283.6508775493894
 20
272.4441208163824
 30
0.0
 10
282.958449052132
 20
272.0202732988123
 30
0.0
 10
282.6247355844378
 20
271.7989588165705
 30
0.0
 10
282.3043368819207
 20
271.568450067579
 30
0.0
  0
SPLINE
  5
18E
330
1F
100
AcDbEntity
  8
1
100
AcDbSpline
210
0.0
220
0.0
230
1.0
 70
     8
 71
     3
 72
    54
 73
    50
 74
     0
 42
0.000000001
 43
0.0000000001
 40
0.0
 40
0.0
 40
0.0
 40
0.0
 40
0.0625000000000037
 40
0.0625000000000037
 40
0.1250000000000073
 40
0.1250000000000073
 40
0.187500000000011
 40
0.187500000000011
 40
0.2031250000000119
 40
0.2031250000000119
 40
0.2187500000000127
 40
0.2187500000000127
 40
0.2500000000000141
 40
0.2500000000000141
 40
0.3125000000000172
 40
0.3125000000000172
 40
0.3750000000000202
 40
0.3750000000000202
 40
0.4062500000000216
 40
0.4062500000000216
 40
0.4218750000000223
 40
0.4218750000000223
 40
0.437500000000023
 40
0.437500000000023
 40
0.5000000000000251
 40
0.5000000000000251
 40
0.5625000000000272
 40
0.5625000000000272
 40
0.5937500000000281
 40
0.5937500000000281
 40
0.6093750000000289
 40
0.6171875000000288
 40
0.6171875000000288
 40
0.6250000000000286
 40
0.6250000000000286
 40
0.6875000000000239
 40
0.6875000000000239
 40
0.7500000000000191
 40
0.7500000000000191
 40
0.8125000000000143
 40
0.8125000000000143
 40
0.8281250000000131
 40
0.8281250000000131
 40
0.843750000000012
 40
0.8750000000000099
 40
0.8750000000000099
 40
0.9375000000000051
 40
0.9375000000000051
 40
1.0
 40
1.0
 40
1.0
 40
1.0
 10
279.4048419452959
 20
276.9687541451845
 30
0.0
 10
279.2180726792552
 20
276.8153543657504
 30
0.0
 10
279.0413883087766
 20
276.6574300725689
 30
0.0
 10
278.7077511902801
 20
276.3335168010438
 30
0.0
 10
278.5507988473881
 20
276.1675261946494
 30
0.0
 10
278.2567758347171
 20
275.8281699401912
 30
0.0
 10
278.119702528793
 20
275.6548039888439
 30
0.0
 10
277.9612645230861
 20
275.4337556234192
 30
0.0
 10
277.9302237530337
 20
275.3893282650868
 30
0.0
 10
277.869454827388
 20
275.3000422998612
 30
0.0
 10
277.8396983871894
 20
275.2551368470169
 30
0.0
 10
277.7529146646862
 20
275.1205461012257
 30
0.0
 10
277.6982201910199
 20
275.0307743117343
 30
0.0
 10
277.5434928120223
 20
274.7614528552483
 30
0.0
 10
277.4527929222019
 20
274.5819011812883
 30
0.0
 10
277.2961813912854
 20
274.2233587841783
 30
0.0
 10
277.2302681908046
 20
274.0443671941148
 30
0.0
 10
277.1504709300675
 20
273.7766350189006
 30
0.0
 10
277.12705663615
 20
273.6875159675872
 30
0.0
 10
277.0968318299194
 20
273.5540594906552
 30
0.0
 10
277.0875734357221
 20
273.5096109655981
 30
0.0
 10
277.0707151733609
 20
273.4207930236986
 30
0.0
 10
277.0631535442398
 20
273.3766229858234
 30
0.0
 10
277.0296598601947
 20
273.1571166974656
 30
0.0
 10
277.0166060859331
 20
272.9856457260732
 30
0.0
 10
277.017193831138
 20
272.6508397510473
 30
0.0
 10
277.0308373687941
 20
272.487504988107
 30
0.0
 10
277.0713519245984
 20
272.2485456888957
 30
0.0
 10
277.0882045007166
 20
272.1699001194028
 30
0.0
 10
277.1185647445633
 20
272.053438990595
 30
0.0
 10
277.1350158116399
 20
271.9955852665354
 30
0.0
 10
277.1533900863652
 20
271.9382963431199
 30
0.0
 10
277.1660692474848
 20
271.9002292083366
 30
0.0
 10
277.1726282221639
 20
271.8812462256235
 30
0.0
 10
277.2334293967443
 20
271.711436984091
 30
0.0
 10
277.3002099685802
 20
271.5672588104338
 30
0.0
 10
277.4580584739236
 20
271.2913108749646
 30
0.0
 10
277.5491308234609
 20
271.1595438930959
 30
0.0
 10
277.7551513774712
 20
270.9075575527486
 30
0.0
 10
277.8701004475039
 20
270.7873398732135
 30
0.0
 10
278.0288756022869
 20
270.6438619855534
 30
0.0
 10
278.0613052994843
 20
270.6155812535571
 30
0.0
 10
278.1273823846632
 20
270.5599234369617
 30
0.0
 10
278.228378850162
 20
270.4777438850259
 30
0.0
 10
278.3349403489124
 20
270.3993647079014
 30
0.0
 10
278.555332261495
 20
270.2473864291654
 30
0.0
 10
278.711935469587
 20
270.1524317887543
 30
0.0
 10
279.0441176658084
 20
269.9739790779349
 30
0.0
 10
279.2196973717865
 20
269.8904832713798
 30
0.0
 10
279.4048419453108
 20
269.8122174575226
 30
0.0
  0
SPLINE
  5
18F
330
1F
100
AcDbEntity
  8
1
100
AcDbSpline
210
0.0
220
0.0
230
1.0
 70
     9
 71
     3
 72
   125
 73
   121
 74
     0
 42
0.000000001
 43
0.0000000001
 40
0.0
 40
0.0
 40
0.0
 40
0.0
 40
0.0312499999999713
 40
0.0312499999999713
 40
0.046874999999957
 40
0.046874999999957
 40
0.0546874999999498
 40
0.0546874999999498
 40
0.0624999999999427
 40
0.0624999999999427
 40
0.093749999999914
 40
0.093749999999914
 40
0.1015624999999005
 40
0.1015624999999005
 40
0.1093749999998869
 40
0.1093749999998869
 40
0.1249999999998676
 40
0.1249999999998676
 40
0.1562499999998288
 40
0.1562499999998288
 40
0.18749999999979
 40
0.18749999999979
 40
0.2031249999997688
 40
0.2031249999997688
 40
0.2109374999997596
 40
0.2109374999997596
 40
0.2187499999997504
 40
0.2187499999997504
 40
0.2499999999997138
 40
0.2499999999997138
 40
0.2578124999997044
 40
0.2578124999997044
 40
0.265624999999695
 40
0.265624999999695
 40
0.2812499999996763
 40
0.2812499999996763
 40
0.312499999999641
 40
0.312499999999641
 40
0.3203124999996352
 40
0.3203124999996352
 40
0.3281249999996295
 40
0.343749999999618
 40
0.343749999999618
 40
0.374999999999589
 40
0.374999999999589
 40
0.3828124999995818
 40
0.3828124999995818
 40
0.3906249999995746
 40
0.4062499999995599
 40
0.4218749999995454
 40
0.4218749999995454
 40
0.4296874999995381
 40
0.4296874999995381
 40
0.4374999999995309
 40
0.4374999999995309
 40
0.4687499999994919
 40
0.4687499999994919
 40
0.4843749999994774
 40
0.4843749999994774
 40
0.4921874999994755
 40
0.4921874999994755
 40
0.4999999999994733
 40
0.4999999999994733
 40
0.5312499999994756
 40
0.5312499999994756
 40
0.5390624999994786
 40
0.5390624999994786
 40
0.5468749999994815
 40
0.5468749999994815
 40
0.5624999999994974
 40
0.5781249999995133
 40
0.5781249999995133
 40
0.5937499999995292
 40
0.5937499999995292
 40
0.6249999999995611
 40
0.6249999999995611
 40
0.6328124999995742
 40
0.6328124999995742
 40
0.6406249999995874
 40
0.6406249999995874
 40
0.6562499999996135
 40
0.6562499999996135
 40
0.6874999999996603
 40
0.6874999999996603
 40
0.6953124999996693
 40
0.6953124999996693
 40
0.7031249999996784
 40
0.7187499999996962
 40
0.734374999999714
 40
0.734374999999714
 40
0.7421874999997226
 40
0.7421874999997226
 40
0.7499999999997309
 40
0.7499999999997309
 40
0.7812499999997656
 40
0.7812499999997656
 40
0.7968749999997841
 40
0.7968749999997841
 40
0.8124999999998024
 40
0.8124999999998024
 40
0.8437499999998351
 40
0.8437499999998351
 40
0.8593749999998514
 40
0.8593749999998514
 40
0.8671874999998596
 40
0.8671874999998596
 40
0.8749999999998678
 40
0.8749999999998678
 40
0.9062499999999149
 40
0.9062499999999149
 40
0.921874999999934
 40
0.921874999999934
 40
0.9374999999999531
 40
0.9531249999999722
 40
0.9531249999999722
 40
0.960937499999977
 40
0.960937499999977
 40
0.9687499999999815
 40
0.9687499999999815
 40
1.0
 40
1.0
 40
1.0
 40
1.0
 10
439.4246469271758
 20
286.5233679557893
 30
0.0
 10
439.5087618250938
 20
286.5218997247847
 30
0.0
 10
439.5912704400288
 20
286.5120518086833
 30
0.0
 10
439.712723889171
 20
286.4852453810545
 30
0.0
 10
439.7528204512331
 20
286.4742886777354
 30
0.0
 10
439.8123690330819
 20
286.4547506841313
 30
0.0
 10
439.8321753772422
 20
286.447697107216
 30
0.0
 10
439.8712441950765
 20
286.4326646985675
 30
0.0
 10
439.8905086564637
 20
286.4246894688638
 30
0.0
 10
439.9855082970296
 20
286.3825665382009
 30
0.0
 10
440.0573139955035
 20
286.3417431741182
 30
0.0
 10
440.141860450362
 20
286.2819061112153
 30
0.0
 10
440.1585068151306
 20
286.2694942922142
 30
0.0
 10
440.1912647146081
 20
286.2437679378589
 30
0.0
 10
440.2073724665529
 20
286.2304514013241
 30
0.0
 10
440.2543515329624
 20
286.1896020208993
 30
0.0
 10
440.2840710755745
 20
286.1610279253997
 30
0.0
 10
440.3685743880152
 20
286.0714198090676
 30
0.0
 10
440.418746145631
 20
286.0065359963566
 30
0.0
 10
440.5064544515856
 20
285.8663105473835
 30
0.0
 10
440.5425785589616
 20
285.7932210732152
 30
0.0
 10
440.5857621252133
 20
285.6795363783503
 30
0.0
 10
440.5983129326643
 20
285.6409551462247
 30
0.0
 10
440.614338404795
 20
285.5820464887552
 30
0.0
 10
440.6192219583608
 20
285.5621934581151
 30
0.0
 10
440.6279928873553
 20
285.5223465076593
 30
0.0
 10
440.6318708763393
 20
285.5024068817364
 30
0.0
 10
440.6487826112991
 20
285.4026316834205
 30
0.0
 10
440.6544497823861
 20
285.3225686006755
 30
0.0
 10
440.6519375388437
 20
285.222206024171
 30
0.0
 10
440.6509510791815
 20
285.2021190953126
 30
0.0
 10
440.6479989735838
 20
285.161915995533
 30
0.0
 10
440.6460270523741
 20
285.1417519845456
 30
0.0
 10
440.6386624139441
 20
285.0815819311162
 30
0.0
 10
440.6318519594448
 20
285.0420306145563
 30
0.0
 10
440.6059081435977
 20
284.9250003160431
 30
0.0
 10
440.5813138403963
 20
284.8491312365113
 30
0.0
 10
440.5412789213165
 20
284.7569918033179
 30
0.0
 10
440.5327937922917
 20
284.7386809454705
 30
0.0
 10
440.5149048541231
 20
284.7024159547652
 30
0.0
 10
440.4868456323175
 20
284.6488666129962
 30
0.0
 10
440.4551870120535
 20
284.5978003835372
 30
0.0
 10
440.387126514815
 20
284.4989180420808
 30
0.0
 10
440.3354788274751
 20
284.4372967303493
 30
0.0
 10
440.2625470734836
 20
284.3659210000831
 30
0.0
 10
440.2475684086743
 20
284.3519649874867
 30
0.0
 10
440.217093814757
 20
284.3249309651648
 30
0.0
 10
440.1704928050905
 20
284.28559126012
 30
0.0
 10
440.08843187299
 20
284.2259914074043
 30
0.0
 10
440.0180712903475
 20
284.1846751353744
 30
0.0
 10
439.9634697893682
 20
284.1561478038657
 30
0.0
 10
439.9449635399728
 20
284.1470494476677
 30
0.0
 10
439.9073213127988
 20
284.1296966926629
 30
0.0
 10
439.8881606802561
 20
284.1214360897862
 30
0.0
 10
439.7919372341261
 20
284.0827689823926
 30
0.0
 10
439.7127461086693
 20
284.0597592167227
 30
0.0
 10
439.5906428458533
 20
284.0370549107703
 30
0.0
 10
439.5493851400906
 20
284.0314694126023
 30
0.0
 10
439.4866263617005
 20
284.0261934624738
 30
0.0
 10
439.4656182620549
 20
284.0249611145696
 30
0.0
 10
439.4238225624116
 20
284.023559703637
 30
0.0
 10
439.4029772414961
 20
284.0233853599689
 30
0.0
 10
439.2990090533821
 20
284.0251029670642
 30
0.0
 10
439.2166540374343
 20
284.0346860588868
 30
0.0
 10
439.1147425711722
 20
284.0570303986763
 30
0.0
 10
439.0943526388815
 20
284.0620398894255
 30
0.0
 10
439.0540555536206
 20
284.0730203316408
 30
0.0
 10
439.0341391087302
 20
284.0789893300989
 30
0.0
 10
438.9750685963265
 20
284.098298781403
 30
0.0
 10
438.8981142459063
 20
284.1277765884205
 30
0.0
 10
438.8246723683214
 20
284.1645383732179
 30
0.0
 10
438.7529885269562
 20
284.204962349932
 30
0.0
 10
438.7179033490865
 20
284.227112067083
 30
0.0
 10
438.6173906289994
 20
284.2977059957005
 30
0.0
 10
438.5560076140612
 20
284.3505512595111
 30
0.0
 10
438.486024412193
 20
284.4236321924728
 30
0.0
 10
438.4723682696372
 20
284.4386029201981
 30
0.0
 10
438.4457426048633
 20
284.4692616117752
 30
0.0
 10
438.4327469864302
 20
284.4849854043774
 30
0.0
 10
438.3951505386457
 20
284.5327995713595
 30
0.0
 10
438.3718427366833
 20
284.5656257309707
 30
0.0
 10
438.3069950651796
 20
284.6668725561298
 30
0.0
 10
438.2704830884928
 20
284.7380361033558
 30
0.0
 10
438.2333582001297
 20
284.831700395508
 30
0.0
 10
438.2263539246237
 20
284.8507035778084
 30
0.0
 10
438.2133439336548
 20
284.8888155213594
 30
0.0
 10
438.1952789874238
 20
284.9462623117688
 30
0.0
 10
438.1722687520336
 20
285.0433802351314
 30
0.0
 10
438.161340354082
 20
285.1225333613921
 30
0.0
 10
438.1559943745793
 20
285.1824565460327
 30
0.0
 10
438.1546882588627
 20
285.202524138254
 30
0.0
 10
438.1530457709607
 20
285.2428493882861
 30
0.0
 10
438.1527105237378
 20
285.2631614389624
 30
0.0
 10
438.1535094245561
 20
285.3644436004734
 30
0.0
 10
438.161946189268
 20
285.4444014425734
 30
0.0
 10
438.1860771595076
 20
285.5627467733493
 30
0.0
 10
438.1960465346361
 20
285.6019278948847
 30
0.0
 10
438.2199620361959
 20
285.6797311412116
 30
0.0
 10
438.2339903980093
 20
285.7185050894099
 30
0.0
 10
438.2812802075183
 20
285.8314926168628
 30
0.0
 10
438.3198493224854
 20
285.9031114377708
 30
0.0
 10
438.3882878475007
 20
286.0049085767441
 30
0.0
 10
438.4128765363875
 20
286.0378961187375
 30
0.0
 10
438.4525415487921
 20
286.0858882519697
 30
0.0
 10
438.4661538278406
 20
286.1015449919881
 30
0.0
 10
438.4940270800157
 20
286.132046242599
 30
0.0
 10
438.5083068541764
 20
286.1469135994493
 30
0.0
 10
438.5814006414295
 20
286.2193539119212
 30
0.0
 10
438.6452504955681
 20
286.2712921898647
 30
0.0
 10
438.7492762837121
 20
286.3399030790694
 30
0.0
 10
438.7855080366326
 20
286.3612822456479
 30
0.0
 10
438.8592122674855
 20
286.3999284355152
 30
0.0
 10
438.9344526963554
 20
286.4346998013904
 30
0.0
 10
439.0127094873696
 20
286.4618477556915
 30
0.0
 10
439.0725461355468
 20
286.4793126018561
 30
0.0
 10
439.0926827108946
 20
286.4846506562511
 30
0.0
 10
439.1333444906542
 20
286.4943423565328
 30
0.0
 10
439.1539173593188
 20
286.4987043450894
 30
0.0
 10
439.2571459667472
 20
286.5178778135159
 30
0.0
 10
439.3405320292575
 20
286.5248361867939
 30
0.0
 10
439.4246469271756
 20
286.5233679557893
 30
0.0
  0
SPLINE
  5
190
330
1F
100
AcDbEntity
  8
1
100
AcDbSpline
210
0.0
220
0.0
230
1.0
 70
    12
 71
     2
 72
     6
 73
     3
 74
     0
 42
0.000000001
 43
0.0000000001
 40
0.0
 40
0.0
 40
0.0
 40
1.0
 40
1.0
 40
1.0
 10
433.9598325735089
 20
302.8241570991288
 30
0.0
 41
0.500003648014828
 10
434.0720561687264
 20
302.8239430401822
 30
0.0
 41
0.4999963519851721
 10
434.1842783721666
 20
302.8237284363296
 30
0.0
 41
0.500003648014828
  0
SPLINE
  5
192
330
1F
100
AcDbEntity
  8
1
100
AcDbSpline
210
0.0
220
0.0
230
1.0
 70
     8
 71
     3
 72
    12
 73
     8
 74
     0
 42
0.000000001
 43
0.0000000001
 40
0.0
 40
0.0
 40
0.0
 40
0.0
 40
0.2304272992635789
 40
0.2304272992635789
 40
0.4869515328424154
 40
0.4869515328424154
 40
1.0
 40
1.0
 40
1.0
 40
1.0
 10
434.5015743179785
 20
302.7746170508322
 30
0.0
 10
434.4958139707601
 20
302.7764978822431
 30
0.0
 10
434.4906296846251
 20
302.7783945240688
 30
0.0
 10
434.4809104284622
 20
302.7824323296895
 30
0.0
 10
434.4765024934941
 20
302.7845863913218
 30
0.0
 10
434.4657029693482
 20
302.7909990480519
 30
0.0
 10
434.4616520117232
 20
302.7952200813315
 30
0.0
 10
434.4608053510258
 20
302.799378597568
 30
0.0
  0
SPLINE
  5
193
330
1F
100
AcDbEntity
  8
1
100
AcDbSpline
210
0.0
220
0.0
230
1.0
 70
     8
 71
     3
 72
    15
 73
    11
 74
     0
 42
0.000000001
 43
0.0000000001
 40
0.0
 40
0.0
 40
0.0
 40
0.0
 40
0.2500000000000012
 40
0.5000000000000025
 40
0.7500000000000037
 40
0.7500000000000037
 40
0.8750000000000042
 40
0.9375000000000019
 40
0.9375000000000019
 40
1.0
 40
1.0
 40
1.0
 40
1.0
 10
295.853655860431
 20
275.1686032079184
 30
0.0
 10
296.0193031625425
 20
275.1799510677999
 30
0.0
 10
296.353226888144
 20
275.2005831982804
 30
0.0
 10
296.8619747851459
 20
275.2239528465797
 30
0.0
 10
297.2064384598342
 20
275.2337323727441
 30
0.0
 10
297.466823769404
 20
275.2386737738829
 30
0.0
 10
297.5975262834516
 20
275.2405471240031
 30
0.0
 10
297.7290076453298
 20
275.2414923399762
 30
0.0
 10
297.8168368676841
 20
275.2419132884201
 30
0.0
 10
297.860891807647
 20
275.2420189970137
 30
0.0
 10
297.9048419452953
 20
275.2420189970137
 30
0.0
  0
SPLINE
  5
194
330
1F
100
AcDbEntity
  8
1
100
AcDbSpline
210
0.0
220
0.0
230
1.0
 70
     8
 71
     3
 72
    10
 73
     6
 74
     0
 42
0.000000001
 43
0.0000000001
 40
0.0
 40
0.0
 40
0.0
 40
0.0
 40
0.5
 40
0.5
 40
1.0
 40
1.0
 40
1.0
 40
1.0
 10
310.1625235341139
 20
275.582964386777
 30
0.0
 10
308.1200624136284
 20
275.5151475333015
 30
0.0
 10
306.0774544635021
 20
275.452764504452
 30
0.0
 10
301.9916736514346
 20
275.3390663981819
 30
0.0
 10
299.9484987587828
 20
275.2877643297284
 30
0.0
 10
297.9048419452957
 20
275.2420189970137
 30
0.0
  0
SPLINE
  5
195
330
1F
100
AcDbEntity
  8
1
100
AcDbSpline
210
0.0
220
0.0
230
1.0
 70
     8
 71
     3
 72
    52
 73
    48
 74
     0
 42
0.000000001
 43
0.0000000001
 40
0.0
 40
0.0
 40
0.0
 40
0.0
 40
0.0312499999999994
 40
0.0312499999999994
 40
0.0624999999999988
 40
0.0937499999999981
 40
0.0937499999999981
 40
0.1249999999999975
 40
0.1249999999999975
 40
0.1874999999999989
 40
0.1874999999999989
 40
0.2187499999999997
 40
0.2187499999999997
 40
0.2500000000000004
 40
0.2812500000000012
 40
0.2812500000000012
 40
0.3125000000000019
 40
0.3125000000000019
 40
0.3750000000000011
 40
0.3750000000000011
 40
0.4062500000000023
 40
0.4062500000000023
 40
0.4375000000000032
 40
0.4687500000000043
 40
0.4687500000000043
 40
0.5000000000000055
 40
0.5000000000000055
 40
0.5625000000000055
 40
0.5625000000000055
 40
0.5937500000000068
 40
0.5937500000000068
 40
0.6250000000000079
 40
0.6250000000000079
 40
0.6875000000000063
 40
0.6875000000000063
 40
0.7500000000000045
 40
0.7500000000000045
 40
0.8125000000000026
 40
0.8125000000000026
 40
0.8750000000000007
 40
0.8750000000000007
 40
0.9062500000000007
 40
0.9062500000000007
 40
0.9375000000000003
 40
0.9687500000000003
 40
0.9687500000000003
 40
1.0
 40
1.0
 40
1.0
 40
1.0
 10
442.0194990005
 20
284.1454935137062
 30
0.0
 10
442.0198513733138
 20
284.1212235730538
 30
0.0
 10
442.0203578355689
 20
284.0974574481771
 30
0.0
 10
442.0216715909162
 20
284.0512531892589
 30
0.0
 10
442.0232862178168
 20
284.0063216129633
 30
0.0
 10
442.0254987049057
 20
283.9639189772229
 30
0.0
 10
442.0280108709005
 20
283.9227839792234
 30
0.0
 10
442.0294188662081
 20
283.9028302051755
 30
0.0
 10
442.0340694054393
 20
283.8452074652481
 30
0.0
 10
442.0377415838983
 20
283.8096717694277
 30
0.0
 10
442.0441043005448
 20
283.7606709075737
 30
0.0
 10
442.0463707783736
 20
283.7450421491978
 30
0.0
 10
442.0511642764295
 20
283.7153981768594
 30
0.0
 10
442.0562226994568
 20
283.6873263943748
 30
0.0
 10
442.0618077594398
 20
283.6623799242191
 30
0.0
 10
442.0676568827491
 20
283.6390005305093
 30
0.0
 10
442.0707169568021
 20
283.6280863122544
 30
0.0
 10
442.0802415660861
 20
283.5978828799666
 30
0.0
 10
442.087062851615
 20
283.5810614654862
 30
0.0
 10
442.0979996895027
 20
283.5607837200371
 30
0.0
 10
442.1017688099633
 20
283.55484602091
 30
0.0
 10
442.1095038516673
 20
283.5446932555982
 30
0.0
 10
442.1174398269855
 20
283.5362488893291
 30
0.0
 10
442.1257748690976
 20
283.5311975109916
 30
0.0
 10
442.1343098183771
 20
283.5278458045303
 30
0.0
 10
442.1386831655312
 20
283.5270201615825
 30
0.0
 10
442.1520625731001
 20
283.5271178218283
 30
0.0
 10
442.161302757575
 20
283.5305975859761
 30
0.0
 10
442.1756407816819
 20
283.5409059668111
 30
0.0
 10
442.1805041641924
 20
283.5451965958945
 30
0.0
 10
442.1903733957234
 20
283.5554751071952
 30
0.0
 10
442.1953663826936
 20
283.5614481790175
 30
0.0
 10
442.2105190833727
 20
283.5818492180132
 30
0.0
 10
442.2208539589337
 20
283.5987553806235
 30
0.0
 10
442.2419832185162
 20
283.6392281799918
 30
0.0
 10
442.2526869509161
 20
283.6626201290972
 30
0.0
 10
442.2743705884811
 20
283.7156690198782
 30
0.0
 10
442.2853789773594
 20
283.7454206716893
 30
0.0
 10
442.3074363533932
 20
283.8106052891056
 30
0.0
 10
442.3185056790204
 20
283.8460736781037
 30
0.0
 10
442.3351712332268
 20
283.9036335080659
 30
0.0
 10
442.3407248597026
 20
283.9235086267588
 30
0.0
 10
442.3517911005736
 20
283.9644938050852
 30
0.0
 10
442.3628279367307
 20
284.0067537543391
 30
0.0
 10
442.3738059501238
 20
284.0515638235818
 30
0.0
 10
442.3847542819275
 20
284.0976606670121
 30
0.0
 10
442.3902063620217
 20
284.1213241184023
 30
0.0
 10
442.3956117639023
 20
284.1454935136938
 30
0.0
  0
SPLINE
  5
196
330
1F
100
AcDbEntity
  8
1
100
AcDbSpline
210
0.0
220
0.0
230
1.0
 70
     8
 71
     3
 72
   120
 73
   116
 74
     0
 42
0.000000001
 43
0.0000000001
 40
0.0
 40
0.0
 40
0.0
 40
0.0
 40
0.0156249999999978
 40
0.0156249999999978
 40
0.0312499999999957
 40
0.0312499999999957
 40
0.0468749999999935
 40
0.0468749999999935
 40
0.0624999999999914
 40
0.0624999999999914
 40
0.0937499999999876
 40
0.0937499999999876
 40
0.1093749999999858
 40
0.1093749999999858
 40
0.1249999999999841
 40
0.1249999999999841
 40
0.1406249999999823
 40
0.1406249999999823
 40
0.1562499999999806
 40
0.1562499999999806
 40
0.1718749999999789
 40
0.1718749999999789
 40
0.1874999999999771
 40
0.2031249999999754
 40
0.2031249999999754
 40
0.2187499999999736
 40
0.2187499999999736
 40
0.2343749999999719
 40
0.2343749999999719
 40
0.2499999999999701
 40
0.2499999999999701
 40
0.2656249999999684
 40
0.2656249999999684
 40
0.2734374999999677
 40
0.2734374999999677
 40
0.2812499999999669
 40
0.2812499999999669
 40
0.3124999999999644
 40
0.3437499999999618
 40
0.3437499999999618
 40
0.3515624999999613
 40
0.3515624999999613
 40
0.3593749999999608
 40
0.3749999999999608
 40
0.3749999999999608
 40
0.3906249999999609
 40
0.3906249999999609
 40
0.406249999999961
 40
0.421874999999961
 40
0.421874999999961
 40
0.4374999999999611
 40
0.4374999999999611
 40
0.4531249999999611
 40
0.4531249999999611
 40
0.4687499999999612
 40
0.4687499999999612
 40
0.4843749999999613
 40
0.4843749999999613
 40
0.4999999999999615
 40
0.4999999999999615
 40
0.5312499999999636
 40
0.5312499999999636
 40
0.5468749999999649
 40
0.5468749999999649
 40
0.5624999999999659
 40
0.5624999999999659
 40
0.5781249999999672
 40
0.5781249999999672
 40
0.5937499999999682
 40
0.5937499999999682
 40
0.6093749999999695
 40
0.6093749999999695
 40
0.6249999999999706
 40
0.6406249999999718
 40
0.6406249999999718
 40
0.6562499999999729
 40
0.6562499999999729
 40
0.6718749999999742
 40
0.6718749999999742
 40
0.6874999999999753
 40
0.6874999999999753
 40
0.7031249999999765
 40
0.7031249999999765
 40
0.7187499999999777
 40
0.7187499999999777
 40
0.7499999999999795
 40
0.7499999999999795
 40
0.7656249999999809
 40
0.7656249999999809
 40
0.7812499999999822
 40
0.7812499999999822
 40
0.7968749999999833
 40
0.7968749999999833
 40
0.8124999999999847
 40
0.8124999999999847
 40
0.8281249999999859
 40
0.8281249999999859
 40
0.8437499999999872
 40
0.8593749999999884
 40
0.8593749999999884
 40
0.8749999999999896
 40
0.8749999999999896
 40
0.8906249999999909
 40
0.8906249999999909
 40
0.9062499999999925
 40
0.9062499999999925
 40
0.9218749999999936
 40
0.9218749999999936
 40
0.9374999999999948
 40
0.9374999999999948
 40
0.953124999999996
 40
0.953124999999996
 40
0.9687499999999975
 40
0.9687499999999975
 40
1.0
 40
1.0
 40
1.0
 40
1.0
 10
442.3956117639023
 20
284.1454935136938
 30
0.0
 10
442.3993235148696
 20
284.1773065021154
 30
0.0
 10
442.4028717657823
 20
284.2100462172746
 30
0.0
 10
442.4096403683288
 20
284.2773841976129
 30
0.0
 10
442.4128658768869
 20
284.3120489705053
 30
0.0
 10
442.4189413574205
 20
284.3827595707538
 30
0.0
 10
442.4217955851108
 20
284.4188379660671
 30
0.0
 10
442.4271380284152
 20
284.4924369552434
 30
0.0
 10
442.4296292824272
 20
284.530008824224
 30
0.0
 10
442.4365264424958
 20
284.6445664657735
 30
0.0
 10
442.4403332915106
 20
284.7229194009995
 30
0.0
 10
442.4448582241973
 20
284.8434166949319
 30
0.0
 10
442.4461635145539
 20
284.8839719737724
 30
0.0
 10
442.448358949819
 20
284.9654705439136
 30
0.0
 10
442.4492513326481
 20
285.0064718919868
 30
0.0
 10
442.4506248038291
 20
285.0889794812118
 30
0.0
 10
442.4511054736848
 20
285.1305353175632
 30
0.0
 10
442.4516473307568
 20
285.2135144035921
 30
0.0
 10
442.4517102216131
 20
285.2550094292345
 30
0.0
 10
442.4514214934636
 20
285.338010404518
 30
0.0
 10
442.4510686848597
 20
285.3795931483644
 30
0.0
 10
442.4499498056028
 20
285.462370080775
 30
0.0
 10
442.4484207394975
 20
285.5446682504116
 30
0.0
 10
442.4460784742026
 20
285.6260172684566
 30
0.0
 10
442.4433270052359
 20
285.7068886712738
 30
0.0
 10
442.4417530854486
 20
285.7468906399672
 30
0.0
 10
442.4382183723741
 20
285.8259148722703
 30
0.0
 10
442.436256886855
 20
285.864957452576
 30
0.0
 10
442.431945019363
 20
285.94210199719
 30
0.0
 10
442.4295934388521
 20
285.9802049299306
 30
0.0
 10
442.4245377043588
 20
286.0548881377358
 30
0.0
 10
442.4218296340233
 20
286.0915436590845
 30
0.0
 10
442.4174979621067
 20
286.145500627879
 30
0.0
 10
442.4160091016381
 20
286.1633150716754
 30
0.0
 10
442.4129410563535
 20
286.1986000697193
 30
0.0
 10
442.4113625528873
 20
286.2160604139667
 30
0.0
 10
442.4032905602349
 20
286.3020122876691
 30
0.0
 10
442.3891644821966
 20
286.4317302297993
 30
0.0
 10
442.3726958143261
 20
286.5463484952897
 30
0.0
 10
442.3616517541436
 20
286.6131432557679
 30
0.0
 10
442.3594019089965
 20
286.6262770945473
 30
0.0
 10
442.3548460933328
 20
286.6519368417892
 30
0.0
 10
442.3479274114441
 20
286.6895234723501
 30
0.0
 10
442.3407557867366
 20
286.7244216703218
 30
0.0
 10
442.3309690700452
 20
286.7685659403765
 30
0.0
 10
442.3259536271041
 20
286.7894807925818
 30
0.0
 10
442.3157501330829
 20
286.8286861574028
 30
0.0
 10
442.3053791778521
 20
286.8652631630352
 30
0.0
 10
442.2946752510559
 20
286.8966140695961
 30
0.0
 10
442.2838033261054
 20
286.9253281894485
 30
0.0
 10
442.2783052876851
 20
286.9383063964154
 30
0.0
 10
442.2672132957607
 20
286.9614621271286
 30
0.0
 10
442.2616150120044
 20
286.9716511737298
 30
0.0
 10
442.250313409156
 20
286.9892394180317
 30
0.0
 10
442.2446033061752
 20
286.9966407083333
 30
0.0
 10
442.2331621756123
 20
287.0085295864633
 30
0.0
 10
442.2274217804576
 20
287.0130352713129
 30
0.0
 10
442.2159013449391
 20
287.0191701873343
 30
0.0
 10
442.2101128606017
 20
287.0207992452138
 30
0.0
 10
442.1927461761296
 20
287.0213095377764
 30
0.0
 10
442.1812227600761
 20
287.0158526935787
 30
0.0
 10
442.1640195526893
 20
286.9989338813538
 30
0.0
 10
442.1583091775598
 20
286.9918377406765
 30
0.0
 10
442.1470016564481
 20
286.974822802789
 30
0.0
 10
442.1413949102301
 20
286.9648952782723
 30
0.0
 10
442.1302758811336
 20
286.9421869891736
 30
0.0
 10
442.1247540229893
 20
286.9293778184313
 30
0.0
 10
442.1138818978
 20
286.9010596366788
 30
0.0
 10
442.1085256119941
 20
286.8855440234731
 30
0.0
 10
442.0979725063928
 20
286.8518012413904
 30
0.0
 10
442.0927706827978
 20
286.8335547727611
 30
0.0
 10
442.0825505350536
 20
286.7943943657817
 30
0.0
 10
442.0725525730297
 20
286.7527216151017
 30
0.0
 10
442.0629963921988
 20
286.7060534659968
 30
0.0
 10
442.0536631696372
 20
286.6568642376686
 30
0.0
 10
442.0491152862498
 20
286.6310394623726
 30
0.0
 10
442.0403136169525
 20
286.5772627957629
 30
0.0
 10
442.0360513376131
 20
286.5492672739849
 30
0.0
 10
442.0278049896467
 20
286.4910530626834
 30
0.0
 10
442.0238146932122
 20
286.4607778995517
 30
0.0
 10
442.0161718137545
 20
286.3984256600704
 30
0.0
 10
442.0125136071226
 20
286.3663162234532
 30
0.0
 10
442.0055231730736
 20
286.3002335008633
 30
0.0
 10
442.0021863985231
 20
286.2662093403746
 30
0.0
 10
441.9927033366161
 20
286.161654581013
 30
0.0
 10
441.9871132662449
 20
286.0890381153566
 30
0.0
 10
441.9798275064113
 20
285.9757379479529
 30
0.0
 10
441.9775907317863
 20
285.9373514381121
 30
0.0
 10
441.9735172972921
 20
285.8596803074653
 30
0.0
 10
441.9716773503385
 20
285.8203453306307
 30
0.0
 10
441.9683920772197
 20
285.7406738123403
 30
0.0
 10
441.9669462117192
 20
285.7002928707591
 30
0.0
 10
441.9644726890706
 20
285.6191569965938
 30
0.0
 10
441.963441574212
 20
285.5783301833305
 30
0.0
 10
441.9617895164424
 20
285.4961602155821
 30
0.0
 10
441.9611679543792
 20
285.4547372576518
 30
0.0
 10
441.9603436915568
 20
285.3717939802994
 30
0.0
 10
441.9599370652398
 20
285.2888270841568
 30
0.0
 10
441.9603590360412
 20
285.2058133279787
 30
0.0
 10
441.961198302615
 20
285.1227759722801
 30
0.0
 10
441.9618245284618
 20
285.0814627969146
 30
0.0
 10
441.9634839522148
 20
284.9993275364733
 30
0.0
 10
441.9645172964451
 20
284.9584913182378
 30
0.0
 10
441.9669921210553
 20
284.8772826960623
 30
0.0
 10
441.9684345343783
 20
284.8369152588907
 30
0.0
 10
441.971704685501
 20
284.7572699099793
 30
0.0
 10
441.9735346047353
 20
284.7179120536296
 30
0.0
 10
441.9775831228137
 20
284.6401235730918
 30
0.0
 10
441.9798065913278
 20
284.6016221569585
 30
0.0
 10
441.9846157239998
 20
284.526028096996
 30
0.0
 10
441.9872015194235
 20
284.4889142179667
 30
0.0
 10
441.99273305229
 20
284.4160432770542
 30
0.0
 10
441.9956813347027
 20
284.380257866794
 30
0.0
 10
442.0050541485133
 20
284.2751351858291
 30
0.0
 10
442.0119534713938
 20
284.2085689358602
 30
0.0
 10
442.0194990004986
 20
284.1454935137062
 30
0.0
  0
SPLINE
  5
197
330
1F
100
AcDbEntity
  8
1
100
AcDbSpline
210
0.0
220
0.0
230
1.0
 70
     8
 71
     3
 72
    14
 73
    10
 74
     0
 42
0.000000001
 43
0.0000000001
 40
0.0
 40
0.0
 40
0.0
 40
0.0
 40
0.25
 40
0.25
 40
0.5
 40
0.5
 40
0.75
 40
0.75
 40
1.0
 40
1.0
 40
1.0
 40
1.0
 10
296.1365224298765
 20
302.7897343884097
 30
0.0
 10
295.8056742657624
 20
302.804041370796
 30
0.0
 10
295.4760903554178
 20
302.8175525357179
 30
0.0
 10
294.8186316218474
 20
302.8422077905793
 30
0.0
 10
294.4907534455675
 20
302.8533519035417
 30
0.0
 10
293.8360305785304
 20
302.8727530069499
 30
0.0
 10
293.5091832780996
 20
302.8810121990435
 30
0.0
 10
292.8560903017145
 20
302.8943494174011
 30
0.0
 10
292.5298437275458
 20
302.8994312257433
 30
0.0
 10
292.2038318185373
 20
302.902842010699
 30
0.0
  0
SPLINE
  5
198
330
1F
100
AcDbEntity
  8
1
100
AcDbSpline
210
0.0
220
0.0
230
1.0
 70
     8
 71
     3
 72
    60
 73
    56
 74
     0
 42
0.000000001
 43
0.0000000001
 40
0.0
 40
0.0
 40
0.0
 40
0.0
 40
0.0625000000000535
 40
0.0625000000000535
 40
0.125000000000107
 40
0.125000000000107
 40
0.1562500000001124
 40
0.1562500000001124
 40
0.1875000000001179
 40
0.1875000000001179
 40
0.250000000000169
 40
0.250000000000169
 40
0.2812500000001752
 40
0.2812500000001752
 40
0.2968750000001776
 40
0.2968750000001776
 40
0.3125000000001796
 40
0.3125000000001796
 40
0.3750000000001927
 40
0.3750000000001927
 40
0.390625000000196
 40
0.390625000000196
 40
0.4062500000001992
 40
0.4062500000001992
 40
0.4375000000002269
 40
0.4375000000002269
 40
0.4531250000002337
 40
0.4531250000002337
 40
0.4687500000002406
 40
0.4687500000002406
 40
0.5000000000002479
 40
0.5312500000002557
 40
0.5312500000002557
 40
0.5468750000002622
 40
0.5468750000002622
 40
0.562500000000269
 40
0.5937500000002823
 40
0.5937500000002823
 40
0.6093750000002882
 40
0.6093750000002882
 40
0.6250000000002939
 40
0.6250000000002939
 40
0.6875000000002654
 40
0.6875000000002654
 40
0.7500000000002367
 40
0.7500000000002367
 40
0.812500000000208
 40
0.812500000000208
 40
0.8437500000001735
 40
0.8437500000001735
 40
0.8750000000001389
 40
0.8750000000001389
 40
0.9375000000000696
 40
0.9375000000000696
 40
1.0
 40
1.0
 40
1.0
 40
1.0
 10
434.8798419452958
 20
291.0931083963297
 30
0.0
 10
434.9184883067053
 20
291.093818356055
 30
0.0
 10
434.9566232116643
 20
291.095112808283
 30
0.0
 10
435.0318387543659
 20
291.0988680661901
 30
0.0
 10
435.0689201505101
 20
291.1013283801429
 30
0.0
 10
435.1236721135994
 20
291.105934688474
 30
0.0
 10
435.1417771026747
 20
291.1076232502189
 30
0.0
 10
435.1776722587097
 20
291.1113210776087
 30
0.0
 10
435.1955016621373
 20
291.1133351820383
 30
0.0
 10
435.2482012162433
 20
291.1198573573234
 30
0.0
 10
435.2819532056603
 20
291.1247966763167
 30
0.0
 10
435.3301692792668
 20
291.1331477128773
 30
0.0
 10
435.3458369120615
 20
291.1360891154574
 30
0.0
 10
435.3686572437241
 20
291.1407539850327
 30
0.0
 10
435.3761502239846
 20
291.1423511487933
 30
0.0
 10
435.3908920043915
 20
291.1456337790194
 30
0.0
 10
435.3981550198108
 20
291.1473229420215
 30
0.0
 10
435.4334948088836
 20
291.1559228949088
 30
0.0
 10
435.4588814333068
 20
291.1633272972167
 30
0.0
 10
435.4860908387848
 20
291.1732991355065
 30
0.0
 10
435.4913033406714
 20
291.1753297668945
 30
0.0
 10
435.5012308308472
 20
291.1794672785228
 30
0.0
 10
435.5059286813469
 20
291.1815681349787
 30
0.0
 10
435.5190358232566
 20
291.1878980916625
 30
0.0
 10
435.5265252370756
 20
291.1921800228423
 30
0.0
 10
435.5357291247983
 20
291.1986918402566
 30
0.0
 10
435.5384578923017
 20
291.2008773251235
 30
0.0
 10
435.5431988776868
 20
291.2052782000127
 30
0.0
 10
435.5452179353053
 20
291.2075040069157
 30
0.0
 10
435.5500709822057
 20
291.214143050564
 30
0.0
 10
435.5533479193797
 20
291.2228594319912
 30
0.0
 10
435.550328494087
 20
291.2313002775546
 30
0.0
 10
435.5456536108612
 20
291.2375277949656
 30
0.0
 10
435.5436916617368
 20
291.2395819267076
 30
0.0
 10
435.5390528254964
 20
291.2435835450025
 30
0.0
 10
435.5310014940861
 20
291.2494543557433
 30
0.0
 10
435.5198406214322
 20
291.2549565527098
 30
0.0
 10
435.5067490911813
 20
291.2602406272155
 30
0.0
 10
435.5020549770155
 20
291.2619669981142
 30
0.0
 10
435.4921879661469
 20
291.2653038392944
 30
0.0
 10
435.4870000014126
 20
291.2669209088171
 30
0.0
 10
435.45988154307
 20
291.2747739300447
 30
0.0
 10
435.4344650431884
 20
291.2803234105536
 30
0.0
 10
435.3776040652299
 20
291.2903734860089
 30
0.0
 10
435.3470104328316
 20
291.2947239810762
 30
0.0
 10
435.2826205289236
 20
291.3024926043058
 30
0.0
 10
435.2487876301674
 20
291.305909369617
 30
0.0
 10
435.1959228508747
 20
291.3105108574009
 30
0.0
 10
435.1780643452813
 20
291.3119457616338
 30
0.0
 10
435.1420977426529
 20
291.3146326739981
 30
0.0
 10
435.1239593998448
 20
291.3158872275742
 30
0.0
 10
435.0691144928151
 20
291.3194189669541
 30
0.0
 10
435.0319806021587
 20
291.3214663790459
 30
0.0
 10
434.9566793786074
 20
291.3250641203733
 30
0.0
 10
434.9185112748033
 20
291.3266137169418
 30
0.0
 10
434.8798419452958
 20
291.3279413835176
 30
0.0
  0
SPLINE
  5
199
330
1F
100
AcDbEntity
  8
1
100
AcDbSpline
210
0.0
220
0.0
230
1.0
 70
    24
 71
     3
 72
     8
 73
     4
 74
     0
 42
0.000000001
 43
0.0000000001
 40
0.0
 40
0.0
 40
0.0
 40
0.0
 40
1.0
 40
1.0
 40
1.0
 40
1.0
 10
434.8798419452958
 20
291.0931083963297
 30
0.0
 10
434.8798419452958
 20
291.1450702826625
 30
0.0
 10
434.8798419452958
 20
291.2236483859647
 30
0.0
 10
434.8798419452958
 20
291.3279413835176
 30
0.0
  0
SPLINE
  5
19A
330
1F
100
AcDbEntity
  8
1
100
AcDbSpline
210
0.0
220
0.0
230
1.0
 70
     8
 71
     3
 72
    36
 73
    32
 74
     0
 42
0.000000001
 43
0.0000000001
 40
0.0
 40
0.0
 40
0.0
 40
0.0
 40
0.1250000000000001
 40
0.1250000000000001
 40
0.2500000000000002
 40
0.2500000000000002
 40
0.3125000000000002
 40
0.3125000000000002
 40
0.3750000000000002
 40
0.3750000000000002
 40
0.5000000000000002
 40
0.5000000000000002
 40
0.5625000000000002
 40
0.5625000000000002
 40
0.6250000000000004
 40
0.6250000000000004
 40
0.6875000000000004
 40
0.6875000000000004
 40
0.7500000000000004
 40
0.7500000000000004
 40
0.8125000000000003
 40
0.8125000000000003
 40
0.8750000000000003
 40
0.8750000000000003
 40
0.9062500000000003
 40
0.9062500000000003
 40
0.9375000000000003
 40
0.9375000000000003
 40
0.9687500000000001
 40
0.9687500000000001
 40
1.0
 40
1.0
 40
1.0
 40
1.0
 10
429.0595428902874
 20
293.949565679433
 30
0.0
 10
429.3067731354948
 20
293.7786580075599
 30
0.0
 10
429.5550915047194
 20
293.6165851147158
 30
0.0
 10
430.0536121610561
 20
293.3088805685814
 30
0.0
 10
430.3038162325266
 20
293.1632536267918
 30
0.0
 10
430.6801916004953
 20
292.956445703792
 30
0.0
 10
430.805931819765
 20
292.8893987749403
 30
0.0
 10
431.0567146950331
 20
292.7595769497953
 30
0.0
 10
431.1818505489985
 20
292.6967475474357
 30
0.0
 10
431.5563759621673
 20
292.5142458626705
 30
0.0
 10
431.8048924164473
 20
292.400557767198
 30
0.0
 10
432.1752923768063
 20
292.2410428331836
 30
0.0
 10
432.2983609782971
 20
292.1897081897652
 30
0.0
 10
432.5435714316151
 20
292.0905584506373
 30
0.0
 10
432.6658096904989
 20
292.0427471109758
 30
0.0
 10
432.9095673323862
 20
291.9505286303025
 30
0.0
 10
433.0310804966151
 20
291.9061216550086
 30
0.0
 10
433.2732669943323
 20
291.8205866020393
 30
0.0
 10
433.3939444751757
 20
291.7794597232228
 30
0.0
 10
433.6341974995276
 20
291.7003362006154
 30
0.0
 10
433.7537827939984
 20
291.6623424579129
 30
0.0
 10
433.9912411873463
 20
291.5892562845244
 30
0.0
 10
434.1091419710656
 20
291.5541720488862
 30
0.0
 10
434.2836193492597
 20
291.5033795371535
 30
0.0
 10
434.3413654084371
 20
291.4867548977781
 30
0.0
 10
434.4553652016964
 20
291.4540835367338
 30
0.0
 10
434.5116586609867
 20
291.4380285660828
 30
0.0
 10
434.6221191686017
 20
291.406303473299
 30
0.0
 10
434.6763015368273
 20
291.3906368419106
 30
0.0
 10
434.7812521275838
 20
291.3593784792736
 30
0.0
 10
434.8320639669169
 20
291.3437963595587
 30
0.0
 10
434.8798419452958
 20
291.3279413835178
 30
0.0
  0
SPLINE
  5
19B
330
1F
100
AcDbEntity
  8
1
100
AcDbSpline
210
0.0
220
0.0
230
1.0
 70
     8
 71
     3
 72
    14
 73
    10
 74
     0
 42
0.000000001
 43
0.0000000001
 40
0.0
 40
0.0
 40
0.0
 40
0.0
 40
0.25
 40
0.25
 40
0.5
 40
0.5
 40
0.75
 40
0.75
 40
1.0
 40
1.0
 40
1.0
 40
1.0
 10
292.2038318185192
 20
274.9723444823632
 30
0.0
 10
292.5076681019169
 20
274.9833427360327
 30
0.0
 10
292.8114463848414
 20
274.9957525399385
 30
0.0
 10
293.4189482727303
 20
275.0233777242758
 30
0.0
 10
293.722672210629
 20
275.0385961971801
 30
0.0
 10
294.3303917896921
 20
275.0716793975722
 30
0.0
 10
294.6343893149475
 20
275.0895459901077
 30
0.0
 10
295.2432159820389
 20
275.1275398130513
 30
0.0
 10
295.5480479060189
 20
275.1476671817884
 30
0.0
 10
295.8536558604312
 20
275.1686032079184
 30
0.0
  0
SPLINE
  5
19C
330
1F
100
AcDbEntity
  8
1
100
AcDbSpline
210
0.0
220
0.0
230
1.0
 70
     8
 71
     3
 72
     8
 73
     4
 74
     0
 42
0.000000001
 43
0.0000000001
 40
0.0
 40
0.0
 40
0.0
 40
0.0
 40
1.0
 40
1.0
 40
1.0
 40
1.0
 10
292.729576821032
 20
283.4538733163795
 30
0.0
 10
292.5554465470046
 20
283.5025742278304
 30
0.0
 10
292.3802285860626
 20
283.548882247013
 30
0.0
 10
292.2038318185192
 20
283.5925402182927
 30
0.0
  0
SPLINE
  5
19D
330
1F
100
AcDbEntity
  8
1
100
AcDbSpline
210
0.0
220
0.0
230
1.0
 70
     8
 71
     3
 72
    36
 73
    32
 74
     0
 42
0.000000001
 43
0.0000000001
 40
0.0
 40
0.0
 40
0.0
 40
0.0
 40
0.1249999999998948
 40
0.1249999999998948
 40
0.1874999999998506
 40
0.1874999999998506
 40
0.2187499999998305
 40
0.2187499999998305
 40
0.2499999999998104
 40
0.2499999999998104
 40
0.37499999999973
 40
0.37499999999973
 40
0.4062499999997406
 40
0.4062499999997406
 40
0.4374999999997512
 40
0.4374999999997512
 40
0.4999999999997723
 40
0.4999999999997723
 40
0.6249999999997637
 40
0.6249999999997637
 40
0.6562499999997918
 40
0.6562499999997918
 40
0.6874999999998198
 40
0.749999999999816
 40
0.812499999999812
 40
0.812499999999812
 40
0.8437499999998435
 40
0.8437499999998435
 40
0.8749999999998747
 40
0.8749999999998747
 40
1.0
 40
1.0
 40
1.0
 40
1.0
 10
443.7002807888953
 20
302.54000174282
 30
0.0
 10
443.6980001096332
 20
302.5908069180392
 30
0.0
 10
443.6905810570234
 20
302.6405049446736
 30
0.0
 10
443.6722236768534
 20
302.7134944183414
 30
0.0
 10
443.6648897136598
 20
302.7375624860362
 30
0.0
 10
443.6520404286738
 20
302.773266331731
 30
0.0
 10
443.6474351670648
 20
302.7851325094855
 30
0.0
 10
443.6376688264894
 20
302.8085581754093
 30
0.0
 10
443.6325143667967
 20
302.8201072548843
 30
0.0
 10
443.6054163050871
 20
302.8770524059178
 30
0.0
 10
443.5795347412533
 20
302.9200714772459
 30
0.0
 10
443.5420074502183
 20
302.9707214223686
 30
0.0
 10
443.5342407909601
 20
302.9806937473558
 30
0.0
 10
443.5181771434328
 20
303.0003182844803
 30
0.0
 10
443.5098647848936
 20
303.0099853830344
 30
0.0
 10
443.484386125061
 20
303.0382068217926
 30
0.0
 10
443.4666088052676
 20
303.0560764461079
 30
0.0
 10
443.4109677095333
 20
303.1069294892156
 30
0.0
 10
443.3708178219902
 20
303.1371845569706
 30
0.0
 10
443.3166789355225
 20
303.1702874570242
 30
0.0
 10
443.3056378149441
 20
303.1766755948948
 30
0.0
 10
443.2833936493921
 20
303.1888349116527
 30
0.0
 10
443.2497002330411
 20
303.2062017163156
 30
0.0
 10
443.1919365104477
 20
303.2308596786267
 30
0.0
 10
443.1440210615291
 20
303.2460422390567
 30
0.0
 10
443.1074297292696
 20
303.2556837267137
 30
0.0
 10
443.095123289841
 20
303.2586061055586
 30
0.0
 10
443.0702865049863
 20
303.263853970562
 30
0.0
 10
443.0577399073893
 20
303.2661805749053
 30
0.0
 10
442.9950287114011
 20
303.276192313592
 30
0.0
 10
442.9445010750756
 20
303.2791690266224
 30
0.0
 10
442.8936032139828
 20
303.2769510691187
 30
0.0
  0
SPLINE
  5
19E
330
1F
100
AcDbEntity
  8
1
100
AcDbSpline
210
0.0
220
0.0
230
1.0
 70
     8
 71
     3
 72
    36
 73
    32
 74
     0
 42
0.000000001
 43
0.0000000001
 40
0.0
 40
0.0
 40
0.0
 40
0.0
 40
0.1249999999998669
 40
0.1249999999998669
 40
0.1874999999998008
 40
0.1874999999998008
 40
0.2187499999997993
 40
0.2187499999997993
 40
0.2499999999997978
 40
0.2499999999997978
 40
0.3749999999999157
 40
0.3749999999999157
 40
0.4062499999999327
 40
0.4062499999999327
 40
0.4374999999999498
 40
0.4374999999999498
 40
0.4999999999999327
 40
0.4999999999999327
 40
0.6249999999998989
 40
0.6249999999998989
 40
0.6562499999999102
 40
0.6562499999999102
 40
0.6874999999999214
 40
0.7499999999999439
 40
0.812499999999966
 40
0.812499999999966
 40
0.8437499999999708
 40
0.8437499999999708
 40
0.8749999999999753
 40
0.8749999999999753
 40
1.0
 40
1.0
 40
1.0
 40
1.0
 10
434.9237657281858
 20
302.929652371768
 30
0.0
 10
434.8728622597091
 20
302.9274341699133
 30
0.0
 10
434.8230740005408
 20
302.9200865091524
 30
0.0
 10
434.7499605181154
 20
302.901848757831
 30
0.0
 10
434.7258530199193
 20
302.8945567785113
 30
0.0
 10
434.6900929280208
 20
302.8817736759772
 30
0.0
 10
434.6782084387832
 20
302.8771910732489
 30
0.0
 10
434.6547473930484
 20
302.8674708014544
 30
0.0
 10
434.643181258365
 20
302.8623397266767
 30
0.0
 10
434.5861539329871
 20
302.8353603025189
 30
0.0
 10
434.5430789556076
 20
302.8095790794383
 30
0.0
 10
434.4923712359128
 20
302.7721839012333
 30
0.0
 10
434.4823879671058
 20
302.7644440020307
 30
0.0
 10
434.4627427830767
 20
302.7484345598361
 30
0.0
 10
434.4530659694093
 20
302.7401496940005
 30
0.0
 10
434.4248175519017
 20
302.714753695303
 30
0.0
 10
434.4069327208115
 20
302.6970319730329
 30
0.0
 10
434.3560421645766
 20
302.6415590996109
 30
0.0
 10
434.325772816828
 20
302.6015232523425
 30
0.0
 10
434.2926659402841
 20
302.5475293628753
 30
0.0
 10
434.2862777121161
 20
302.5365173990862
 30
0.0
 10
434.274119624724
 20
302.5143311639887
 30
0.0
 10
434.2567567694159
 20
302.4807242963384
 30
0.0
 10
434.2321157369283
 20
302.4231031161692
 30
0.0
 10
434.216957688521
 20
302.3752998934967
 30
0.0
 10
434.2073387981286
 20
302.3387920365254
 30
0.0
 10
434.2044246552283
 20
302.3265133062433
 30
0.0
 10
434.1991947029358
 20
302.3017317022158
 30
0.0
 10
434.1968777916786
 20
302.2892126097657
 30
0.0
 10
434.1869177133049
 20
302.2266370467399
 30
0.0
 10
434.1839927322241
 20
302.1762128857838
 30
0.0
 10
434.1862731602528
 20
302.1254133071211
 30
0.0
  0
SPLINE
  5
19F
330
1F
100
AcDbEntity
  8
1
100
AcDbSpline
210
0.0
220
0.0
230
1.0
 70
     8
 71
     3
 72
    36
 73
    32
 74
     0
 42
0.000000001
 43
0.0000000001
 40
0.0
 40
0.0
 40
0.0
 40
0.0
 40
0.1250000000000702
 40
0.1250000000000702
 40
0.1875000000001127
 40
0.1875000000001127
 40
0.2187500000001339
 40
0.2187500000001339
 40
0.2500000000001551
 40
0.2500000000001551
 40
0.37500000000024
 40
0.37500000000024
 40
0.406250000000251
 40
0.406250000000251
 40
0.4375000000002621
 40
0.4375000000002621
 40
0.5000000000002841
 40
0.5000000000002841
 40
0.6250000000003281
 40
0.6250000000003281
 40
0.6562500000003105
 40
0.6562500000003105
 40
0.687500000000293
 40
0.750000000000195
 40
0.8125000000000969
 40
0.8125000000000969
 40
0.843750000000081
 40
0.843750000000081
 40
0.875000000000065
 40
0.875000000000065
 40
1.0
 40
1.0
 40
1.0
 40
1.0
 10
434.543353799737
 20
294.1709653677264
 30
0.0
 10
434.545634478999
 20
294.1201601925072
 30
0.0
 10
434.5530535316087
 20
294.0704621658728
 30
0.0
 10
434.5714109117787
 20
293.997472692205
 30
0.0
 10
434.5787448749723
 20
293.9734046245102
 30
0.0
 10
434.5915941599583
 20
293.9377007788154
 30
0.0
 10
434.5961994215675
 20
293.9258346010608
 30
0.0
 10
434.6059657621428
 20
293.9024089351372
 30
0.0
 10
434.6111202218356
 20
293.890859855662
 30
0.0
 10
434.6382182835451
 20
293.8339147046287
 30
0.0
 10
434.664099847379
 20
293.7908956333005
 30
0.0
 10
434.7016271384139
 20
293.7402456881778
 30
0.0
 10
434.7093937976722
 20
293.7302733631905
 30
0.0
 10
434.7254574451993
 20
293.7106488260661
 30
0.0
 10
434.7337698037387
 20
293.7009817275122
 30
0.0
 10
434.7592484635713
 20
293.6727602887538
 30
0.0
 10
434.7770257833647
 20
293.6548906644386
 30
0.0
 10
434.8326668790991
 20
293.6040376213308
 30
0.0
 10
434.8728167666421
 20
293.5737825535758
 30
0.0
 10
434.9269556531096
 20
293.5406796535222
 30
0.0
 10
434.937996773688
 20
293.5342915156515
 30
0.0
 10
434.9602409392401
 20
293.5221321988937
 30
0.0
 10
434.9939343555911
 20
293.5047653942307
 30
0.0
 10
435.0516980781845
 20
293.4801074319199
 30
0.0
 10
435.0996135271032
 20
293.4649248714896
 30
0.0
 10
435.1362048593626
 20
293.4552833838327
 30
0.0
 10
435.1485112987912
 20
293.4523610049879
 30
0.0
 10
435.173348083646
 20
293.4471131399844
 30
0.0
 10
435.1858946812432
 20
293.4447865356411
 30
0.0
 10
435.2486058772313
 20
293.4347747969544
 30
0.0
 10
435.2991335135569
 20
293.431798083924
 30
0.0
 10
435.3500313746494
 20
293.4340160414278
 30
0.0
  0
SPLINE
  5
1A0
330
1F
100
AcDbEntity
  8
1
100
AcDbSpline
210
0.0
220
0.0
230
1.0
 70
     8
 71
     3
 72
    36
 73
    32
 74
     0
 42
0.000000001
 43
0.0000000001
 40
0.0
 40
0.0
 40
0.0
 40
0.0
 40
0.1249999999997747
 40
0.1249999999997747
 40
0.1874999999996618
 40
0.1874999999996618
 40
0.2187499999996372
 40
0.2187499999996372
 40
0.2499999999996125
 40
0.2499999999996125
 40
0.3749999999996381
 40
0.3749999999996381
 40
0.4062499999996305
 40
0.4062499999996305
 40
0.4374999999996227
 40
0.4374999999996227
 40
0.4999999999996593
 40
0.4999999999996593
 40
0.6249999999997793
 40
0.6249999999997793
 40
0.6562499999997914
 40
0.6562499999997914
 40
0.6874999999998037
 40
0.7499999999998299
 40
0.8124999999998561
 40
0.8124999999998561
 40
0.843749999999879
 40
0.843749999999879
 40
0.8749999999999019
 40
0.8749999999999019
 40
1.0
 40
1.0
 40
1.0
 40
1.0
 10
443.3198688604464
 20
293.7813147387784
 30
0.0
 10
443.3707723289233
 20
293.7835329406331
 30
0.0
 10
443.4205605880912
 20
293.790880601394
 30
0.0
 10
443.4936740705167
 20
293.8091183527154
 30
0.0
 10
443.5177815687127
 20
293.8164103320352
 30
0.0
 10
443.5535416606113
 20
293.8291934345693
 30
0.0
 10
443.565426149849
 20
293.8337760372975
 30
0.0
 10
443.5888871955837
 20
293.8434963090919
 30
0.0
 10
443.6004533302673
 20
293.8486273838697
 30
0.0
 10
443.6574806556452
 20
293.8756068080275
 30
0.0
 10
443.7005556330246
 20
293.9013880311082
 30
0.0
 10
443.7512633527193
 20
293.9387832093131
 30
0.0
 10
443.7612466215264
 20
293.9465231085157
 30
0.0
 10
443.7808918055556
 20
293.9625325507103
 30
0.0
 10
443.790568619223
 20
293.970817416546
 30
0.0
 10
443.8188170367304
 20
293.9962134152434
 30
0.0
 10
443.8367018678206
 20
294.0139351375134
 30
0.0
 10
443.8875924240557
 20
294.0694080109355
 30
0.0
 10
443.9178617718043
 20
294.1094438582039
 30
0.0
 10
443.9509686483481
 20
294.1634377476711
 30
0.0
 10
443.9573568765163
 20
294.1744497114602
 30
0.0
 10
443.9695149639081
 20
294.1966359465578
 30
0.0
 10
443.9868778192163
 20
294.2302428142081
 30
0.0
 10
444.0115188517039
 20
294.2878639943773
 30
0.0
 10
444.0266769001113
 20
294.3356672170497
 30
0.0
 10
444.0362957905038
 20
294.372175074021
 30
0.0
 10
444.0392099334039
 20
294.3844538043031
 30
0.0
 10
444.0444398856966
 20
294.4092354083306
 30
0.0
 10
444.0467567969537
 20
294.4217545007806
 30
0.0
 10
444.0567168753275
 20
294.4843300638065
 30
0.0
 10
444.0596418564082
 20
294.5347542247627
 30
0.0
 10
444.0573614283795
 20
294.5855538034253
 30
0.0
  0
SPLINE
  5
1A1
330
1F
100
AcDbEntity
  8
1
100
AcDbSpline
210
0.0
220
0.0
230
1.0
 70
     8
 71
     3
 72
    14
 73
    10
 74
     0
 42
0.000000001
 43
0.0000000001
 40
0.0
 40
0.0
 40
0.0
 40
0.0
 40
0.2500000000000001
 40
0.2500000000000001
 40
0.5000000000000001
 40
0.5000000000000001
 40
0.75
 40
0.75
 40
1.0
 40
1.0
 40
1.0
 40
1.0
 10
428.7996441129377
 20
291.94524397204
 30
0.0
 10
428.5449625200907
 20
292.0645010258399
 30
0.0
 10
428.2874104543979
 20
292.1883067976778
 30
0.0
 10
427.7676921715269
 20
292.4432301938655
 30
0.0
 10
427.5055183504476
 20
292.5743598677988
 30
0.0
 10
426.9772682412162
 20
292.8428032917109
 30
0.0
 10
426.711188160551
 20
292.9801230515264
 30
0.0
 10
426.175609742788
 20
293.2601793388907
 30
0.0
 10
425.9061093403079
 20
293.4029191393645
 30
0.0
 10
425.6350688261839
 20
293.5480994902248
 30
0.0
  0
SPLINE
  5
1A2
330
1F
100
AcDbEntity
  8
1
100
AcDbSpline
210
0.0
220
0.0
230
1.0
 70
     8
 71
     3
 72
     8
 73
     4
 74
     0
 42
0.000000001
 43
0.0000000001
 40
0.0
 40
0.0
 40
0.0
 40
0.0
 40
1.0
 40
1.0
 40
1.0
 40
1.0
 10
428.6598497654135
 20
294.1865262601077
 30
0.0
 10
428.6185662030186
 20
294.2119934447855
 30
0.0
 10
428.5772019391719
 20
294.2374900663926
 30
0.0
 10
428.5357585250396
 20
294.2630155591204
 30
0.0
  0
SPLINE
  5
1A3
330
1F
100
AcDbEntity
  8
1
100
AcDbSpline
210
0.0
220
0.0
230
1.0
 70
     8
 71
     3
 72
    51
 73
    47
 74
     0
 42
0.000000001
 43
0.0000000001
 40
0.0
 40
0.0
 40
0.0
 40
0.0
 40
0.1250000000000186
 40
0.1250000000000186
 40
0.2500000000000372
 40
0.2500000000000372
 40
0.3750000000000558
 40
0.3750000000000558
 40
0.437500000000065
 40
0.437500000000065
 40
0.5000000000000743
 40
0.5000000000000743
 40
0.5625000000000835
 40
0.5625000000000835
 40
0.5937500000000881
 40
0.5937500000000881
 40
0.6250000000000928
 40
0.6250000000000928
 40
0.687500000000102
 40
0.687500000000102
 40
0.7500000000001111
 40
0.7500000000001111
 40
0.7656250000001092
 40
0.7656250000001092
 40
0.7812500000001072
 40
0.7812500000001072
 40
0.8125000000001067
 40
0.8125000000001067
 40
0.8281250000001064
 40
0.8281250000001064
 40
0.8437500000001058
 40
0.8437500000001058
 40
0.8750000000001051
 40
0.8750000000001051
 40
0.8906250000000964
 40
0.8906250000000964
 40
0.9062500000000877
 40
0.9218750000000792
 40
0.9218750000000792
 40
0.9375000000000703
 40
0.9375000000000703
 40
0.9687500000000531
 40
0.9687500000000531
 40
0.9843750000000264
 40
0.9843750000000264
 40
1.0
 40
1.0
 40
1.0
 40
1.0
 10
428.5357585250421
 20
294.2630155591195
 30
0.0
 10
428.4687338696581
 20
294.3042968432369
 30
0.0
 10
428.4033080251178
 20
294.3474158771205
 30
0.0
 10
428.2758374190834
 20
294.437629789313
 30
0.0
 10
428.2137886234513
 20
294.4847201548985
 30
0.0
 10
428.0934751928015
 20
294.5834154312789
 30
0.0
 10
428.0352000719992
 20
294.6350087889193
 30
0.0
 10
427.9512422348553
 20
294.7165335415093
 30
0.0
 10
427.9238360643201
 20
294.744401937202
 30
0.0
 10
427.8703692255698
 20
294.8017417225533
 30
0.0
 10
427.8442558113988
 20
294.8312753963632
 30
0.0
 10
427.7939853318334
 20
294.8918643083283
 30
0.0
 10
427.7698154772052
 20
294.9229198758607
 30
0.0
 10
427.7353514582154
 20
294.9708975581777
 30
0.0
 10
427.7241635051869
 20
294.9871236462524
 30
0.0
 10
427.7024727458667
 20
295.0201049281559
 30
0.0
 10
427.6919557766885
 20
295.0368854114353
 30
0.0
 10
427.6617964580767
 20
295.0878063674776
 30
0.0
 10
427.6434649408816
 20
295.1225835982077
 30
0.0
 10
427.6117069053328
 20
295.1943744474089
 30
0.0
 10
427.598225380948
 20
295.2313650967799
 30
0.0
 10
427.5862054781058
 20
295.2797461294822
 30
0.0
 10
427.5840498711618
 20
295.2895323034242
 30
0.0
 10
427.5803183922711
 20
295.3093594304456
 30
0.0
 10
427.5787385824838
 20
295.319438814994
 30
0.0
 10
427.5750732509165
 20
295.3497561938
 30
0.0
 10
427.5740335687784
 20
295.3700922944583
 30
0.0
 10
427.5752179407728
 20
295.4008257863889
 30
0.0
 10
427.5760773441912
 20
295.4111396233873
 30
0.0
 10
427.5788551417168
 20
295.4317181339616
 30
0.0
 10
427.5807586090502
 20
295.4418878557332
 30
0.0
 10
427.5881363076755
 20
295.472006281154
 30
0.0
 10
427.5952668614074
 20
295.4915669930195
 30
0.0
 10
427.6099383049559
 20
295.5199612886581
 30
0.0
 10
427.6154631386176
 20
295.5291835818177
 30
0.0
 10
427.6275085922547
 20
295.5467301152697
 30
0.0
 10
427.6406149494345
 20
295.5635099473121
 30
0.0
 10
427.6557576573185
 20
295.5788151558651
 30
0.0
 10
427.6718817308963
 20
295.5934083885257
 30
0.0
 10
427.6803645150626
 20
295.6002791002296
 30
0.0
 10
427.706543191896
 20
295.6194605709558
 30
0.0
 10
427.7251217618634
 20
295.6304976643585
 30
0.0
 10
427.7542992747174
 20
295.6450157273694
 30
0.0
 10
427.7642688848393
 20
295.649521634593
 30
0.0
 10
427.7844538303241
 20
295.6578604281233
 30
0.0
 10
427.7946727461913
 20
295.6616975374732
 30
0.0
 10
427.805001886466
 20
295.665245043829
 30
0.0
  0
SPLINE
  5
1A4
330
1F
100
AcDbEntity
  8
1
100
AcDbSpline
210
0.0
220
0.0
230
1.0
 70
     8
 71
     3
 72
     8
 73
     4
 74
     0
 42
0.000000001
 43
0.0000000001
 40
0.0
 40
0.0
 40
0.0
 40
0.0
 40
1.0
 40
1.0
 40
1.0
 40
1.0
 10
435.5238212618163
 20
292.7337167865721
 30
0.0
 10
435.5201491110943
 20
292.7342742958594
 30
0.0
 10
435.5164796090837
 20
292.7348422840194
 30
0.0
 10
435.5128128246761
 20
292.735420709239
 30
0.0
  0
SPLINE
  5
1A5
330
1F
100
AcDbEntity
  8
1
100
AcDbSpline
210
0.0
220
0.0
230
1.0
 70
     8
 71
     3
 72
     8
 73
     4
 74
     0
 42
0.000000001
 43
0.0000000001
 40
0.0
 40
0.0
 40
0.0
 40
0.0
 40
1.0
 40
1.0
 40
1.0
 40
1.0
 10
435.5145524169006
 20
292.5298596080228
 30
0.0
 10
435.5182828836659
 20
292.5300235556492
 30
0.0
 10
435.5220144220601
 20
292.5301868573515
 30
0.0
 10
435.5257470339316
 20
292.5303495120158
 30
0.0
  0
SPLINE
  5
1A6
330
1F
100
AcDbEntity
  8
1
100
AcDbSpline
210
0.0
220
0.0
230
1.0
 70
     8
 71
     3
 72
    17
 73
    13
 74
     0
 42
0.000000001
 43
0.0000000001
 40
0.0
 40
0.0
 40
0.0
 40
0.0
 40
0.2499999999999748
 40
0.2499999999999748
 40
0.3124999999999735
 40
0.3124999999999735
 40
0.3749999999999722
 40
0.4999999999999697
 40
0.4999999999999697
 40
0.7499999999999849
 40
0.7499999999999849
 40
1.0
 40
1.0
 40
1.0
 40
1.0
 10
431.4985327138319
 20
292.9907262418072
 30
0.0
 10
431.8238067295166
 20
292.8998928624345
 30
0.0
 10
432.1529497508401
 20
292.8217876936272
 30
0.0
 10
432.5692671963433
 20
292.7403039194992
 30
0.0
 10
432.6527148848501
 20
292.7248287515241
 30
0.0
 10
432.8196465758168
 20
292.6955768521374
 30
0.0
 10
433.070244501763
 20
292.6542182076298
 30
0.0
 10
433.3214399457559
 20
292.6203764702454
 30
0.0
 10
433.8246216055501
 20
292.5626527450418
 30
0.0
 10
434.1611291104311
 20
292.5374341448858
 30
0.0
 10
434.836250444735
 20
292.5135737348332
 30
0.0
 10
435.1748642042076
 20
292.5149308927481
 30
0.0
 10
435.5145524169006
 20
292.5298596080227
 30
0.0
  0
SPLINE
  5
1A7
330
1F
100
AcDbEntity
  8
1
100
AcDbSpline
210
0.0
220
0.0
230
1.0
 70
     8
 71
     3
 72
    10
 73
     6
 74
     0
 42
0.000000001
 43
0.0000000001
 40
0.0
 40
0.0
 40
0.0
 40
0.0
 40
0.2049294372393988
 40
0.2049294372393988
 40
1.0
 40
1.0
 40
1.0
 40
1.0
 10
291.2841707340163
 20
302.9382312612339
 30
0.0
 10
291.3460904605465
 20
302.934154394358
 30
0.0
 10
291.4081873962651
 20
302.9304005295029
 30
0.0
 10
291.7120885555988
 20
302.913704403669
 30
0.0
 10
291.9564402575712
 20
302.9054302579098
 30
0.0
 10
292.2038318185373
 20
302.902842010699
 30
0.0
  0
SPLINE
  5
1A8
330
1F
100
AcDbEntity
  8
1
100
AcDbSpline
210
0.0
220
0.0
230
1.0
 70
     8
 71
     3
 72
    28
 73
    24
 74
     0
 42
0.000000001
 43
0.0000000001
 40
0.0
 40
0.0
 40
0.0
 40
0.0
 40
0.0249609861115699
 40
0.0249609861115699
 40
0.1224648875004129
 40
0.1224648875004129
 40
0.2199687888892556
 40
0.2199687888892556
 40
0.3174726902780986
 40
0.3174726902780986
 40
0.4149765916669417
 40
0.4149765916669417
 40
0.5124804930557846
 40
0.5124804930557846
 40
0.6099843944446276
 40
0.6099843944446276
 40
0.7074882958334707
 40
0.7074882958334707
 40
0.8049921972223136
 40
0.8049921972223136
 40
0.9024960986111565
 40
0.9024960986111565
 40
1.0
 40
1.0
 40
1.0
 40
1.0
 10
346.0319096811966
 20
277.7409548213773
 30
0.0
 10
345.7339866261249
 20
277.7150481361136
 30
0.0
 10
345.436026346173
 20
277.6894739944693
 30
0.0
 10
343.9739874067101
 20
277.5655427428254
 30
0.0
 10
342.8094129636487
 20
277.4716673101761
 30
0.0
 10
340.4794738669336
 20
277.2917227702639
 30
0.0
 10
339.3141094837957
 20
277.2056544505486
 30
0.0
 10
336.9828337491701
 20
277.039913184642
 30
0.0
 10
335.8169225723385
 20
276.9602412461982
 30
0.0
 10
333.4847614141076
 20
276.8062281760729
 30
0.0
 10
332.3185115305057
 20
276.7318882009355
 30
0.0
 10
329.9858420270552
 20
276.5877881730605
 30
0.0
 10
328.8194224423926
 20
276.5180293895808
 30
0.0
 10
326.4865415668291
 20
276.3826180353362
 30
0.0
 10
325.3200598317835
 20
276.3169657183831
 30
0.0
 10
322.9872379058314
 20
276.189536464821
 30
0.0
 10
321.8209278399663
 20
276.1277625375298
 30
0.0
 10
319.4885592962673
 20
276.0080513556103
 30
0.0
 10
318.3225007662187
 20
275.9501155932488
 30
0.0
 10
315.9906495173182
 20
275.8381905836363
 30
0.0
 10
314.8248567117379
 20
275.7842028380152
 30
0.0
 10
312.4935176933661
 20
275.6803903217043
 30
0.0
 10
311.3279713642561
 20
275.6305670176319
 30
0.0
 10
310.1625235341139
 20
275.582964386777
 30
0.0
  0
SPLINE
  5
1A9
330
1F
100
AcDbEntity
  8
1
100
AcDbSpline
210
0.0
220
0.0
230
1.0
 70
     8
 71
     3
 72
    24
 73
    20
 74
     0
 42
0.000000001
 43
0.0000000001
 40
0.0
 40
0.0
 40
0.0
 40
0.0
 40
0.1127777163824514
 40
0.1127777163824514
 40
0.2255554327649027
 40
0.2255554327649027
 40
0.3383331491473541
 40
0.3383331491473541
 40
0.4511108655298055
 40
0.4511108655298055
 40
0.5638885819122568
 40
0.5638885819122568
 40
0.6766662982947082
 40
0.6766662982947082
 40
0.7894440146771596
 40
0.7894440146771596
 40
0.9022217310596108
 40
0.9022217310596108
 40
1.0
 40
1.0
 40
1.0
 40
1.0
 10
310.1625235341139
 20
275.582964386777
 30
0.0
 10
311.3290145993378
 20
275.6739932921806
 30
0.0
 10
312.4956736315734
 20
275.7666523061957
 30
0.0
 10
314.8294203192783
 20
275.9544645822102
 30
0.0
 10
315.9965083461399
 20
276.0496147733004
 30
0.0
 10
318.3311813320921
 20
276.2415245520734
 30
0.0
 10
319.4987666923287
 20
276.3382797917804
 30
0.0
 10
321.8344659446379
 20
276.5325107910365
 30
0.0
 10
323.0025745442878
 20
276.6299806141162
 30
0.0
 10
325.3392067283552
 20
276.824888004374
 30
0.0
 10
326.507743825774
 20
276.9223207082189
 30
0.0
 10
328.845199228396
 20
277.1167313007808
 30
0.0
 10
330.0141177271927
 20
277.2137038042142
 30
0.0
 10
332.352211732029
 20
277.4072628931754
 30
0.0
 10
333.5213872036698
 20
277.5038459257859
 30
0.0
 10
335.8598042124449
 20
277.6973275070792
 30
0.0
 10
337.0290477424852
 20
277.7942254113022
 30
0.0
 10
339.2118395057246
 20
277.9767366428202
 30
0.0
 10
340.2254109815511
 20
278.0621381186292
 30
0.0
 10
341.2388019386337
 20
278.1488645333679
 30
0.0
  0
SPLINE
  5
1AA
330
1F
100
AcDbEntity
  8
1
100
AcDbSpline
210
0.0
220
0.0
230
1.0
 70
     8
 71
     3
 72
    14
 73
    10
 74
     0
 42
0.000000001
 43
0.0000000001
 40
0.0
 40
0.0
 40
0.0
 40
0.0
 40
0.1250000000000014
 40
0.1250000000000014
 40
0.2500000000000029
 40
0.2500000000000029
 40
0.5
 40
0.5
 40
1.0
 40
1.0
 40
1.0
 40
1.0
 10
297.9048419452957
 20
302.7492522597921
 30
0.0
 10
297.8294827106312
 20
302.7492522597921
 30
0.0
 10
297.7537812579775
 20
302.7494863756877
 30
0.0
 10
297.6032145629075
 20
302.7504145047574
 30
0.0
 10
297.5282037025063
 20
302.7511078333444
 30
0.0
 10
297.3039753228832
 20
302.7538510046433
 30
0.0
 10
297.1555610539187
 20
302.7565659287015
 30
0.0
 10
296.7134624592516
 20
302.7671029905998
 30
0.0
 10
296.4229083632164
 20
302.7773501017537
 30
0.0
 10
296.1365224298764
 20
302.7897343884097
 30
0.0
  0
SPLINE
  5
1AB
330
1F
100
AcDbEntity
  8
1
100
AcDbSpline
210
0.0
220
0.0
230
1.0
 70
     8
 71
     3
 72
     8
 73
     4
 74
     0
 42
0.000000001
 43
0.0000000001
 40
0.0
 40
0.0
 40
0.0
 40
0.0
 40
1.0
 40
1.0
 40
1.0
 40
1.0
 10
429.0595428902877
 20
293.9495656794329
 30
0.0
 10
428.9253710586206
 20
294.0259463296475
 30
0.0
 10
428.7921538977291
 20
294.1049099078395
 30
0.0
 10
428.6598497654136
 20
294.1865262601079
 30
0.0
  0
SPLINE
  5
1AC
330
1F
100
AcDbEntity
  8
1
100
AcDbSpline
210
0.0
220
0.0
230
1.0
 70
     8
 71
     3
 72
    14
 73
    10
 74
     0
 42
0.000000001
 43
0.0000000001
 40
0.0
 40
0.0
 40
0.0
 40
0.0
 40
0.25
 40
0.25
 40
0.5
 40
0.5
 40
0.75
 40
0.75
 40
1.0
 40
1.0
 40
1.0
 40
1.0
 10
279.4048419453051
 20
269.812217457533
 30
0.0
 10
279.6327495075046
 20
269.9119867893581
 30
0.0
 10
279.8654415498275
 20
270.0275735318282
 30
0.0
 10
280.338195401154
 20
270.2830437911437
 30
0.0
 10
280.5782656729954
 20
270.4229647663041
 30
0.0
 10
281.0639147129532
 20
270.721892431063
 30
0.0
 10
281.3094958810235
 20
270.880914557061
 30
0.0
 10
281.8044585211437
 20
271.2140813192864
 30
0.0
 10
282.0538387071382
 20
271.3882307956518
 30
0.0
 10
282.3043368819207
 20
271.5684500675789
 30
0.0
  0
SPLINE
  5
1AD
330
1F
100
AcDbEntity
  8
1
100
AcDbSpline
210
0.0
220
0.0
230
1.0
 70
     8
 71
     3
 72
    16
 73
    12
 74
     0
 42
0.000000001
 43
0.0000000001
 40
0.0
 40
0.0
 40
0.0
 40
0.0
 40
0.2500000000000002
 40
0.2500000000000002
 40
0.5000000000000005
 40
0.5000000000000005
 40
0.7500000000000007
 40
0.7500000000000007
 40
0.8750000000000003
 40
0.8750000000000003
 40
1.0
 40
1.0
 40
1.0
 40
1.0
 10
282.3043368819074
 20
280.4388331991498
 30
0.0
 10
282.0467773678076
 20
280.1807436611419
 30
0.0
 10
281.7928951846845
 20
279.9158979659986
 30
0.0
 10
281.2928755585692
 20
279.371415930686
 30
0.0
 10
281.0467361930765
 20
279.0917854074785
 30
0.0
 10
280.5626929450832
 20
278.5160894066769
 30
0.0
 10
280.324785194415
 20
278.220035163179
 30
0.0
 10
279.9746071050251
 20
277.7619327780368
 30
0.0
 10
279.858996776505
 20
277.6068893782223
 30
0.0
 10
279.6301230763565
 20
277.2917375289739
 30
0.0
 10
279.5168593432641
 20
277.1316301271434
 30
0.0
 10
279.4048419452959
 20
276.9687541451846
 30
0.0
  0
SPLINE
  5
1AE
330
1F
100
AcDbEntity
  8
1
100
AcDbSpline
210
0.0
220
0.0
230
1.0
 70
     8
 71
     3
 72
    39
 73
    35
 74
     0
 42
0.000000001
 43
0.0000000001
 40
0.0
 40
0.0
 40
0.0
 40
0.0
 40
0.1249999999999983
 40
0.1249999999999983
 40
0.2499999999999966
 40
0.2499999999999966
 40
0.3124999999999959
 40
0.3124999999999959
 40
0.3437499999999958
 40
0.3437499999999958
 40
0.3749999999999956
 40
0.3749999999999956
 40
0.4999999999999954
 40
0.4999999999999954
 40
0.5624999999999954
 40
0.5624999999999954
 40
0.6249999999999954
 40
0.6249999999999954
 40
0.6562499999999952
 40
0.6562499999999952
 40
0.6718749999999952
 40
0.6718749999999952
 40
0.6874999999999952
 40
0.7499999999999956
 40
0.7499999999999956
 40
0.812499999999996
 40
0.812499999999996
 40
0.8749999999999971
 40
0.8749999999999971
 40
0.9374999999999982
 40
0.9374999999999982
 40
0.9687499999999992
 40
0.9687499999999992
 40
1.0
 40
1.0
 40
1.0
 40
1.0
 10
282.3043368819074
 20
280.4388331991498
 30
0.0
 10
282.6130064956146
 20
280.7481380146882
 30
0.0
 10
282.9361309480145
 20
281.0404011741368
 30
0.0
 10
283.6124041849451
 20
281.5903038425685
 30
0.0
 10
283.9655402268786
 20
281.8479586853761
 30
0.0
 10
284.5195930046896
 20
282.2068861945207
 30
0.0
 10
284.7083469396026
 20
282.3219225177988
 30
0.0
 10
284.9979398924631
 20
282.4872147365916
 30
0.0
 10
285.0955488847317
 20
282.5411005567348
 30
0.0
 10
285.2929958745479
 20
282.6463738662867
 30
0.0
 10
285.3929360055618
 20
282.6978073005359
 30
0.0
 10
285.8954451170062
 20
282.9470823975883
 30
0.0
 10
286.3083584192233
 20
283.1224663342812
 30
0.0
 10
286.9451958789593
 20
283.3470771031714
 30
0.0
 10
287.1603941377626
 20
283.4155140617889
 30
0.0
 10
287.596918538693
 20
283.5388048454583
 30
0.0
 10
287.8182442782111
 20
283.5936604536004
 30
0.0
 10
288.1551074362836
 20
283.6650231636496
 30
0.0
 10
288.2682082624214
 20
283.6869883890107
 30
0.0
 10
288.4391206874627
 20
283.7170884248672
 30
0.0
 10
288.4963295178918
 20
283.7266513342041
 30
0.0
 10
288.6110554036902
 20
283.744787555521
 30
0.0
 10
288.8980491704874
 20
283.7875611379457
 30
0.0
 10
289.1859293291629
 20
283.817467629333
 30
0.0
 10
289.6476109708397
 20
283.8484446666208
 30
0.0
 10
289.8789886929445
 20
283.8554963162259
 30
0.0
 10
290.34273918454
 20
283.8521226232209
 30
0.0
 10
290.5751121949209
 20
283.8416970686636
 30
0.0
 10
291.0407507591838
 20
283.8025720056547
 30
0.0
 10
291.2740165909819
 20
283.7738721251683
 30
0.0
 10
291.6244839159218
 20
283.7163802407649
 30
0.0
 10
291.7409789577618
 20
283.6948751181604
 30
0.0
 10
291.9730432328334
 20
283.6472117187835
 30
0.0
 10
292.0886535629029
 20
283.6210466872361
 30
0.0
 10
292.2038318185191
 20
283.5925402182925
 30
0.0
  0
SPLINE
  5
1AF
330
1F
100
AcDbEntity
  8
1
100
AcDbSpline
210
0.0
220
0.0
230
1.0
 70
     8
 71
     3
 72
    30
 73
    26
 74
     0
 42
0.000000001
 43
0.0000000001
 40
0.0
 40
0.0
 40
0.0
 40
0.0
 40
0.1250000000000443
 40
0.1250000000000443
 40
0.1875000000000664
 40
0.1875000000000664
 40
0.2500000000000886
 40
0.2500000000000886
 40
0.3750000000000959
 40
0.3750000000000959
 40
0.4375000000001191
 40
0.4375000000001191
 40
0.4687500000001307
 40
0.4687500000001307
 40
0.5000000000001423
 40
0.5000000000001423
 40
0.6250000000001068
 40
0.6250000000001068
 40
0.7500000000000712
 40
0.7500000000000712
 40
0.8125000000000534
 40
0.8125000000000534
 40
0.8750000000000355
 40
0.8750000000000355
 40
1.0
 40
1.0
 40
1.0
 40
1.0
 10
437.2069261654013
 20
293.3081732232988
 30
0.0
 10
437.1516646629466
 20
293.2532522936665
 30
0.0
 10
437.0935886895217
 20
293.2016419086369
 30
0.0
 10
437.00220036011
 20
293.1290745421276
 30
0.0
 10
436.9712634145973
 20
293.1058897315397
 30
0.0
 10
436.9086408115512
 20
293.0615716355299
 30
0.0
 10
436.8769197168908
 20
293.040410367721
 30
0.0
 10
436.7804749444316
 20
292.9797869432483
 30
0.0
 10
436.7144811120553
 20
292.9431689938428
 30
0.0
 10
436.6125681944519
 20
292.8937278632594
 30
0.0
 10
436.5781076559716
 20
292.8781658910039
 30
0.0
 10
436.5256055733649
 20
292.8562125435917
 30
0.0
 10
436.5079694200391
 20
292.8491266380907
 30
0.0
 10
436.4724100036556
 20
292.8354241397246
 30
0.0
 10
436.4544612046
 20
292.8287988256873
 30
0.0
 10
436.3643481658166
 20
292.7970027182547
 30
0.0
 10
436.2910579064427
 20
292.775770538748
 30
0.0
 10
436.1414059532238
 20
292.7419636713429
 30
0.0
 10
436.0650366407897
 20
292.729387741164
 30
0.0
 10
435.9475557812772
 20
292.7177120905652
 30
0.0
 10
435.9084665769568
 20
292.7150834269744
 30
0.0
 10
435.8307134059751
 20
292.7123041107792
 30
0.0
 10
435.7920027722562
 20
292.7121486225431
 30
0.0
 10
435.6763360674638
 20
292.715287536221
 30
0.0
 10
435.5998484211631
 20
292.7221742735808
 30
0.0
 10
435.5238212618163
 20
292.7337167865722
 30
0.0
  0
SPLINE
  5
1B0
330
1F
100
AcDbEntity
  8
1
100
AcDbSpline
210
0.0
220
0.0
230
1.0
 70
     8
 71
     3
 72
    14
 73
    10
 74
     0
 42
0.000000001
 43
0.0000000001
 40
0.0
 40
0.0
 40
0.0
 40
0.0
 40
0.25000000000003
 40
0.25000000000003
 40
0.3750000000000299
 40
0.3750000000000299
 40
0.5000000000000299
 40
0.5000000000000299
 40
1.0
 40
1.0
 40
1.0
 40
1.0
 10
431.4985327138319
 20
292.9907262418072
 30
0.0
 10
431.2872820398578
 20
293.0497183890017
 30
0.0
 10
431.0776648842816
 20
293.1140842310822
 30
0.0
 10
430.7656987008747
 20
293.2186964082784
 30
0.0
 10
430.6621056413306
 20
293.2549169648752
 30
0.0
 10
430.4558033874666
 20
293.3300338348525
 30
0.0
 10
430.3532949819348
 20
293.3688566060537
 30
0.0
 10
429.8439470830876
 20
293.5692381885449
 30
0.0
 10
429.4466628302155
 20
293.7495553798701
 30
0.0
 10
429.0595428902877
 20
293.9495656794329
 30
0.0
  0
SPLINE
  5
1B1
330
1F
100
AcDbEntity
  8
1
100
AcDbSpline
210
0.0
220
0.0
230
1.0
 70
     8
 71
     3
 72
    28
 73
    24
 74
     0
 42
0.000000001
 43
0.0000000001
 40
0.0
 40
0.0
 40
0.0
 40
0.0
 40
0.1250000000000003
 40
0.1250000000000003
 40
0.2500000000000006
 40
0.2500000000000006
 40
0.2812499999999927
 40
0.2812499999999927
 40
0.3124999999999848
 40
0.3749999999999798
 40
0.3749999999999798
 40
0.499999999999959
 40
0.499999999999959
 40
0.5312499999999593
 40
0.5312499999999593
 40
0.5624999999999596
 40
0.5624999999999596
 40
0.6249999999999605
 40
0.6249999999999605
 40
0.7499999999999736
 40
0.8749999999999868
 40
0.8749999999999868
 40
1.0
 40
1.0
 40
1.0
 40
1.0
 10
428.8137898836261
 20
291.5317950014526
 30
0.0
 10
429.0663795447115
 20
291.3744999938337
 30
0.0
 10
429.3244349780422
 20
291.227097919227
 30
0.0
 10
429.8513316004726
 20
290.9521180817355
 30
0.0
 10
430.1201723794688
 20
290.8245391893771
 30
0.0
 10
430.4629708795699
 20
290.6776346858577
 30
0.0
 10
430.5319063195416
 20
290.6488678288969
 30
0.0
 10
430.6702101092326
 20
290.5926975217671
 30
0.0
 10
430.8783361038852
 20
290.5104754825925
 30
0.0
 10
431.0884613978878
 20
290.4343296243132
 30
0.0
 10
431.5113574544281
 20
290.290105141696
 30
0.0
 10
431.7968115422702
 20
290.20470073652
 30
0.0
 10
432.1580238937673
 20
290.1114253301498
 30
0.0
 10
432.2304864073735
 20
290.0934451200793
 30
0.0
 10
432.3758525285276
 20
290.0588391882656
 30
0.0
 10
432.4487254935144
 20
290.0422219127477
 30
0.0
 10
432.6673935141898
 20
289.9945346376758
 30
0.0
 10
432.8134306161323
 20
289.9655816607826
 30
0.0
 10
433.2523060421083
 20
289.8871270162505
 30
0.0
 10
433.8395085135649
 20
289.8049071251282
 30
0.0
 10
434.4307223612431
 20
289.7668934737032
 30
0.0
 10
435.0239511322391
 20
289.7511043291498
 30
0.0
 10
435.3215728729812
 20
289.7543208649187
 30
0.0
 10
435.6202267604516
 20
289.7689202105127
 30
0.0
  0
SPLINE
  5
1B2
330
1F
100
AcDbEntity
  8
1
100
AcDbSpline
210
0.0
220
0.0
230
1.0
 70
     8
 71
     3
 72
    39
 73
    35
 74
     0
 42
0.000000001
 43
0.0000000001
 40
0.0
 40
0.0
 40
0.0
 40
0.0
 40
0.015625000000003
 40
0.015625000000003
 40
0.031250000000006
 40
0.031250000000006
 40
0.0625000000000042
 40
0.0625000000000042
 40
0.0937500000000023
 40
0.0937500000000023
 40
0.1250000000000005
 40
0.1250000000000005
 40
0.1875000000000057
 40
0.1875000000000057
 40
0.2500000000000109
 40
0.2500000000000109
 40
0.312500000000016
 40
0.312500000000016
 40
0.3750000000000212
 40
0.3750000000000212
 40
0.4375000000000265
 40
0.4375000000000265
 40
0.4687500000000292
 40
0.4687500000000292
 40
0.5000000000000319
 40
0.6250000000000238
 40
0.6250000000000238
 40
0.7500000000000157
 40
0.7500000000000157
 40
0.8125000000000117
 40
0.8125000000000117
 40
0.8750000000000078
 40
0.8750000000000078
 40
1.0
 40
1.0
 40
1.0
 40
1.0
 10
434.8798419452958
 20
291.093108396329
 30
0.0
 10
434.8535734536539
 20
291.0868113398475
 30
0.0
 10
434.8264868863195
 20
291.0808778904801
 30
0.0
 10
434.7711840618925
 20
291.0695931915232
 30
0.0
 10
434.7429639528755
 20
291.0642430912757
 30
0.0
 10
434.6570729814541
 20
291.0489348869481
 30
0.0
 10
434.5982022126266
 20
291.0397097724178
 30
0.0
 10
434.4786137682241
 20
291.022838834255
 30
0.0
 10
434.4178740424165
 20
291.0151995884417
 30
0.0
 10
434.2952050896084
 20
291.0013225541784
 30
0.0
 10
434.2332686196611
 20
290.9950868072301
 30
0.0
 10
434.046246860144
 20
290.9783302448227
 30
0.0
 10
433.9199816810698
 20
290.9697507001293
 30
0.0
 10
433.6658286304478
 20
290.9573922993437
 30
0.0
 10
433.5379120058195
 20
290.9536212490428
 30
0.0
 10
433.2810613091281
 20
290.9507736924127
 30
0.0
 10
433.1521175344356
 20
290.9516997847331
 30
0.0
 10
432.8935040563631
 20
290.9582472270167
 30
0.0
 10
432.7638304178839
 20
290.9638696267012
 30
0.0
 10
432.5039013206714
 20
290.9798730181526
 30
0.0
 10
432.3736440480221
 20
290.9902544919456
 30
0.0
 10
432.1778757503741
 20
291.0094750808948
 30
0.0
 10
432.1125110301728
 20
291.0164959278127
 30
0.0
 10
431.9819770133196
 20
291.03173180367
 30
0.0
 10
431.6560370960817
 20
291.0728141908102
 30
0.0
 10
431.3321479513696
 20
291.1288573812918
 30
0.0
 10
430.8168288857181
 20
291.2379945684693
 30
0.0
 10
430.5606188307446
 20
291.3022972379037
 30
0.0
 10
430.1786858576728
 20
291.4137826729915
 30
0.0
 10
430.0517720813096
 20
291.4534516910666
 30
0.0
 10
429.7987751825123
 20
291.5379031700213
 30
0.0
 10
429.6727011390794
 20
291.582677900626
 30
0.0
 10
429.2959825891491
 20
291.7246452920303
 30
0.0
 10
429.0467839811419
 20
291.8295184018128
 30
0.0
 10
428.7996441129378
 20
291.9452439720402
 30
0.0
  0
SPLINE
  5
1B3
330
1F
100
AcDbEntity
  8
1
100
AcDbSpline
210
0.0
220
0.0
230
1.0
 70
     8
 71
     3
 72
    22
 73
    18
 74
     0
 42
0.000000001
 43
0.0000000001
 40
0.0
 40
0.0
 40
0.0
 40
0.0
 40
0.1250000000000131
 40
0.1250000000000131
 40
0.2500000000000262
 40
0.2500000000000262
 40
0.3750000000000393
 40
0.3750000000000393
 40
0.5000000000000524
 40
0.5000000000000524
 40
0.7500000000000268
 40
0.7500000000000268
 40
0.8750000000000135
 40
0.8750000000000135
 40
0.9375000000000067
 40
0.9375000000000067
 40
1.0
 40
1.0
 40
1.0
 40
1.0
 10
435.5128128246956
 20
292.7354207092355
 30
0.0
 10
435.457122305733
 20
292.7442057364091
 30
0.0
 10
435.402527487217
 20
292.7553257340365
 30
0.0
 10
435.2951045796071
 20
292.7819459258208
 30
0.0
 10
435.2422776894969
 20
292.7974477174427
 30
0.0
 10
435.1380946653622
 20
292.8327382773531
 30
0.0
 10
435.0867396550547
 20
292.852527567182
 30
0.0
 10
434.9852950322329
 20
292.8964595072105
 30
0.0
 10
434.9351679879865
 20
292.9206221511582
 30
0.0
 10
434.7867025282526
 20
292.9998529384473
 30
0.0
 10
434.6925199359817
 20
293.0603792736871
 30
0.0
 10
434.5577847980742
 20
293.163087877574
 30
0.0
 10
434.5139714423601
 20
293.1993247070757
 30
0.0
 10
434.4498804509953
 20
293.2568825914716
 30
0.0
 10
434.4287614041713
 20
293.2766333712095
 30
0.0
 10
434.3874230011139
 20
293.3168980983193
 30
0.0
 10
434.3671631670188
 20
293.3374462910184
 30
0.0
 10
434.3473119317251
 20
293.3584099468967
 30
0.0
  0
SPLINE
  5
1B4
330
1F
100
AcDbEntity
  8
1
100
AcDbSpline
210
0.0
220
0.0
230
1.0
 70
     8
 71
     3
 72
    10
 73
     6
 74
     0
 42
0.000000001
 43
0.0000000001
 40
0.0
 40
0.0
 40
0.0
 40
0.0
 40
0.5
 40
0.5
 40
1.0
 40
1.0
 40
1.0
 40
1.0
 10
431.2741578043874
 20
298.3959917860094
 30
0.0
 10
431.2291201470676
 20
299.1286467901014
 30
0.0
 10
431.1895236927353
 20
299.861610841916
 30
0.0
 10
431.1180312823625
 20
301.3279004479276
 30
0.0
 10
431.0861555747457
 20
302.0612132654161
 30
0.0
 10
431.057114146642
 20
302.7946491161836
 30
0.0
  0
SPLINE
  5
1B5
330
1F
100
AcDbEntity
  8
1
100
AcDbSpline
210
0.0
220
0.0
230
1.0
 70
     8
 71
     3
 72
    52
 73
    48
 74
     0
 42
0.000000001
 43
0.0000000001
 40
0.0
 40
0.0
 40
0.0
 40
0.0
 40
0.0492513788593489
 40
0.0492513788593489
 40
0.0985027577186979
 40
0.0985027577186979
 40
0.1231284471483719
 40
0.1231284471483719
 40
0.1477541365780459
 40
0.1477541365780459
 40
0.1970055154373938
 40
0.1970055154373938
 40
0.2462568942967418
 40
0.2462568942967418
 40
0.2955082731560898
 40
0.2955082731560898
 40
0.3447596520154377
 40
0.3447596520154377
 40
0.3693853414451122
 40
0.3693853414451122
 40
0.3940110308747867
 40
0.3940110308747867
 40
0.4432624097341362
 40
0.4432624097341362
 40
0.4925137885934856
 40
0.4925137885934856
 40
0.541765167452835
 40
0.541765167452835
 40
0.5910165463121846
 40
0.5910165463121846
 40
0.6895193040308834
 40
0.6895193040308834
 40
0.7387706828902325
 40
0.7387706828902325
 40
0.7633963723199071
 40
0.7633963723199071
 40
0.7880220617495817
 40
0.7880220617495817
 40
0.8372734406089314
 40
0.8372734406089314
 40
0.8865248194682807
 40
0.8865248194682807
 40
0.9357761983276308
 40
0.9357761983276308
 40
0.9850275771869801
 40
0.9850275771869801
 40
1.0
 40
1.0
 40
1.0
 40
1.0
 10
431.0571141466418
 20
302.7946491161623
 30
0.0
 10
429.7026848357762
 20
302.8286237975071
 30
0.0
 10
428.3458258199638
 20
302.8532617339278
 30
0.0
 10
425.6269805708972
 20
302.8882226662939
 30
0.0
 10
424.2649959491269
 20
302.8985617491257
 30
0.0
 10
422.2182634198865
 20
302.9063772805682
 30
0.0
 10
421.5353961645046
 20
302.9076960993232
 30
0.0
 10
420.1684617138458
 20
302.9082008314131
 30
0.0
 10
419.4845993681348
 20
302.9073869091961
 30
0.0
 10
417.4319687420877
 20
302.9023320583856
 30
0.0
 10
416.0621141982213
 20
302.8955085679454
 30
0.0
 10
413.3199661910131
 20
302.8773687621185
 30
0.0
 10
411.9476741900386
 20
302.866051453615
 30
0.0
 10
409.2012215220216
 20
302.8403793056297
 30
0.0
 10
407.8270512716391
 20
302.826021478963
 30
0.0
 10
405.0775533394145
 20
302.7948252309495
 30
0.0
 10
403.7023547107376
 20
302.7779855271538
 30
0.0
 10
401.639302308232
 20
302.7506794622937
 30
0.0
 10
400.9515785860942
 20
302.7412259469962
 30
0.0
 10
399.5761073680646
 20
302.7215463960131
 30
0.0
 10
398.8883557416925
 20
302.7113265878226
 30
0.0
 10
396.8250773267786
 20
302.6794980417288
 30
0.0
 10
395.4495274910255
 20
302.6567237821697
 30
0.0
 10
392.6984889003552
 20
302.6078106180758
 30
0.0
 10
391.3229978892637
 20
302.5816704955703
 30
0.0
 10
388.5722260550437
 20
302.5256688641908
 30
0.0
 10
387.1969404214445
 20
302.4958065556351
 30
0.0
 10
384.4466591180829
 20
302.4319314923513
 30
0.0
 10
383.0716632366865
 20
302.3979187722215
 30
0.0
 10
378.9472195079903
 20
302.2889216983071
 30
0.0
 10
376.1982714690524
 20
302.2070468342096
 30
0.0
 10
372.0767527108634
 20
302.0666465022773
 30
0.0
 10
370.7032178272025
 20
302.0169017719581
 30
0.0
 10
368.643464167899
 20
301.9371554190669
 30
0.0
 10
367.9569714023362
 20
301.909716073863
 30
0.0
 10
366.584190007836
 20
301.8529677227886
 30
0.0
 10
365.8979035868293
 20
301.8236498960018
 30
0.0
 10
363.8393271968965
 20
301.7328412673667
 30
0.0
 10
362.4673259755933
 20
301.6684911065188
 30
0.0
 10
359.7241740503708
 20
301.5322297336756
 30
0.0
 10
358.3529894026889
 20
301.4603102517528
 30
0.0
 10
355.6111676423574
 20
301.3092871042442
 30
0.0
 10
354.2405311294957
 20
301.2301776961447
 30
0.0
 10
351.4994962446002
 20
301.0656897540513
 30
0.0
 10
350.1290868811489
 20
300.9803546284869
 30
0.0
 10
348.3420056862403
 20
300.8658815011045
 30
0.0
 10
347.9253825287973
 20
300.8389602337405
 30
0.0
 10
347.5087551883654
 20
300.8118116747012
 30
0.0
  0
SPLINE
  5
1B6
330
1F
100
AcDbEntity
  8
1
100
AcDbSpline
210
0.0
220
0.0
230
1.0
 70
     8
 71
     3
 72
    21
 73
    17
 74
     0
 42
0.000000001
 43
0.0000000001
 40
0.0
 40
0.0
 40
0.0
 40
0.0
 40
0.2500000000000392
 40
0.2500000000000392
 40
0.3125000000000089
 40
0.3125000000000089
 40
0.3749999999999786
 40
0.3749999999999786
 40
0.499999999999919
 40
0.6249999999998594
 40
0.6249999999998594
 40
0.6874999999999052
 40
0.6874999999999052
 40
0.7499999999999512
 40
0.7499999999999512
 40
1.0
 40
1.0
 40
1.0
 40
1.0
 10
438.5140293725383
 20
297.2890912511776
 30
0.0
 10
438.555260553211
 20
297.2998449657144
 30
0.0
 10
438.5971894206561
 20
297.3057546802721
 30
0.0
 10
438.6505622758733
 20
297.3069329411266
 30
0.0
 10
438.6612854868855
 20
297.3068541014082
 30
0.0
 10
438.682833727482
 20
297.3060464352757
 30
0.0
 10
438.6936846525266
 20
297.3053128383935
 30
0.0
 10
438.7259086813708
 20
297.3021548510029
 30
0.0
 10
438.7682881991652
 20
297.2953997916542
 30
0.0
 10
438.8095214368636
 20
297.2836675420203
 30
0.0
 10
438.8400092848203
 20
297.2729700819144
 30
0.0
 10
438.8501347175711
 20
297.2690715410108
 30
0.0
 10
438.8700473359764
 20
297.2607066190093
 30
0.0
 10
438.8798167408967
 20
297.2562508382546
 30
0.0
 10
438.9277636700795
 20
297.2326498862713
 30
0.0
 10
438.9632770231666
 20
297.2095937709782
 30
0.0
 10
438.9960804291911
 20
297.1824617454818
 30
0.0
  0
SPLINE
  5
1B7
330
1F
100
AcDbEntity
  8
1
100
AcDbSpline
210
0.0
220
0.0
230
1.0
 70
     8
 71
     3
 72
     8
 73
     4
 74
     0
 42
0.000000001
 43
0.0000000001
 40
0.0
 40
0.0
 40
0.0
 40
0.0
 40
1.0
 40
1.0
 40
1.0
 40
1.0
 10
437.9676625853448
 20
297.5172777833281
 30
0.0
 10
437.9661475652117
 20
297.5212202887096
 30
0.0
 10
437.9648983733789
 20
297.5252150632515
 30
0.0
 10
437.9639048644396
 20
297.5292600466735
 30
0.0
  0
SPLINE
  5
1B8
330
1F
100
AcDbEntity
  8
1
100
AcDbSpline
210
0.0
220
0.0
230
1.0
 70
     8
 71
     3
 72
    21
 73
    17
 74
     0
 42
0.000000001
 43
0.0000000001
 40
0.0
 40
0.0
 40
0.0
 40
0.0
 40
0.2500000000001275
 40
0.2500000000001275
 40
0.3125000000000886
 40
0.3125000000000886
 40
0.3750000000000497
 40
0.3750000000000497
 40
0.4999999999999762
 40
0.6249999999999027
 40
0.6249999999999027
 40
0.6874999999998649
 40
0.6874999999998649
 40
0.749999999999827
 40
0.749999999999827
 40
1.0
 40
1.0
 40
1.0
 40
1.0
 10
439.5873091467411
 20
297.15901259573
 30
0.0
 10
439.5563699045648
 20
297.1291111187786
 30
0.0
 10
439.5224613612406
 20
297.103186823533
 30
0.0
 10
439.47636673453
 20
297.0757512198047
 30
0.0
 10
439.466939060281
 20
297.0705064538612
 30
0.0
 10
439.4479181471911
 20
297.0606399903721
 30
0.0
 10
439.4383036569093
 20
297.0560041075898
 30
0.0
 10
439.4091537391548
 20
297.0429722390052
 30
0.0
 10
439.3694719585119
 20
297.0279261750352
 30
0.0
 10
439.3281706879986
 20
297.0175078707009
 30
0.0
 10
439.2965671785303
 20
297.0114875861407
 30
0.0
 10
439.2859479029211
 20
297.0097867636219
 30
0.0
 10
439.2647783749636
 20
297.0070266972773
 30
0.0
 10
439.2541949259518
 20
297.0059607548122
 30
0.0
 10
439.2012843464001
 20
297.0021733069188
 30
0.0
 10
439.1589766856898
 20
297.0040178395514
 30
0.0
 10
439.1166950232399
 20
297.0108691474138
 30
0.0
  0
SPLINE
  5
1B9
330
1F
100
AcDbEntity
  8
1
100
AcDbSpline
210
0.0
220
0.0
230
1.0
 70
     8
 71
     3
 72
     8
 73
     4
 74
     0
 42
0.000000001
 43
0.0000000001
 40
0.0
 40
0.0
 40
0.0
 40
0.0
 40
1.0
 40
1.0
 40
1.0
 40
1.0
 10
438.0530813955219
 20
297.710195434169
 30
0.0
 10
438.0525194536415
 20
297.7066101026876
 30
0.0
 10
438.0517657283505
 20
297.7030622403291
 30
0.0
 10
438.0508351248673
 20
297.6995805516945
 30
0.0
  0
SPLINE
  5
1BA
330
1F
100
AcDbEntity
  8
1
100
AcDbSpline
210
0.0
220
0.0
230
1.0
 70
     8
 71
     3
 72
    21
 73
    17
 74
     0
 42
0.000000001
 43
0.0000000001
 40
0.0
 40
0.0
 40
0.0
 40
0.0
 40
0.2500000000001288
 40
0.2500000000001288
 40
0.3125000000001219
 40
0.3125000000001219
 40
0.3750000000001149
 40
0.3750000000001149
 40
0.500000000000092
 40
0.625000000000069
 40
0.625000000000069
 40
0.6875000000000576
 40
0.6875000000000576
 40
0.7500000000000459
 40
0.7500000000000459
 40
1.0
 40
1.0
 40
1.0
 40
1.0
 10
437.9041068548795
 20
298.1800464248527
 30
0.0
 10
437.9336247763581
 20
298.1502443371407
 30
0.0
 10
437.9593828878379
 20
298.1173281616227
 30
0.0
 10
437.9868185937643
 20
298.0721101740054
 30
0.0
 10
437.9920644700193
 20
298.0628603741992
 30
0.0
 10
438.002058677142
 20
298.0439330484162
 30
0.0
 10
438.0068158943589
 20
298.0342306360201
 30
0.0
 10
438.0201183048371
 20
298.0049037777991
 30
0.0
 10
438.0354209685639
 20
297.96497078617
 30
0.0
 10
438.0459647239511
 20
297.9234112133088
 30
0.0
 10
438.0520568353211
 20
297.8916219585672
 30
0.0
 10
438.0537887950994
 20
297.8808831676159
 30
0.0
 10
438.0566064717023
 20
297.8593981188213
 30
0.0
 10
438.0576922552052
 20
297.8486730385703
 30
0.0
 10
438.0615594482891
 20
297.7951297010883
 30
0.0
 10
438.05972057258
 20
297.7525550648497
 30
0.0
 10
438.0530813955219
 20
297.710195434169
 30
0.0
  0
SPLINE
  5
1BB
330
1F
100
AcDbEntity
  8
1
100
AcDbSpline
210
0.0
220
0.0
230
1.0
 70
     8
 71
     3
 72
    14
 73
    10
 74
     0
 42
0.000000001
 43
0.0000000001
 40
0.0
 40
0.0
 40
0.0
 40
0.0
 40
0.25
 40
0.25
 40
0.5
 40
0.5
 40
0.75
 40
0.75
 40
1.0
 40
1.0
 40
1.0
 40
1.0
 10
437.8272173004427
 20
298.2087987028902
 30
0.0
 10
437.8342819202495
 20
298.2092716013257
 30
0.0
 10
437.8413732873152
 20
298.2090014579001
 30
0.0
 10
437.8552806828404
 20
298.2070002679353
 30
0.0
 10
437.8620488022368
 20
298.2052878043733
 30
0.0
 10
437.8752123265688
 20
298.2004219306634
 30
0.0
 10
437.8816277941856
 20
298.1972350353428
 30
0.0
 10
437.893492431292
 20
298.1896251213532
 30
0.0
 10
437.8990191990873
 20
298.1851830590251
 30
0.0
 10
437.9041068548795
 20
298.1800464248527
 30
0.0
  0
SPLINE
  5
1BC
330
1F
100
AcDbEntity
  8
1
100
AcDbSpline
210
0.0
220
0.0
230
1.0
 70
     8
 71
     3
 72
    22
 73
    18
 74
     0
 42
0.000000001
 43
0.0000000001
 40
0.0
 40
0.0
 40
0.0
 40
0.0
 40
0.125
 40
0.125
 40
0.25
 40
0.25
 40
0.375
 40
0.375
 40
0.5
 40
0.5
 40
0.625
 40
0.625
 40
0.75
 40
0.75
 40
0.875
 40
0.875
 40
1.0
 40
1.0
 40
1.0
 40
1.0
 10
437.8272173004427
 20
298.2087987028902
 30
0.0
 10
437.8215699581878
 20
298.2084206755667
 30
0.0
 10
437.815920876779
 20
298.2085185669144
 30
0.0
 10
437.8048159102414
 20
298.2096339283669
 30
0.0
 10
437.7993325783941
 20
298.2106486464303
 30
0.0
 10
437.7885092495236
 20
298.2136183485977
 30
0.0
 10
437.7831740966562
 20
298.2155832934198
 30
0.0
 10
437.7730220777767
 20
298.220347285409
 30
0.0
 10
437.7681566135511
 20
298.2231568819034
 30
0.0
 10
437.7588670566025
 20
298.2296680717476
 30
0.0
 10
437.7544677923136
 20
298.233365223883
 30
0.0
 10
437.7464467372649
 20
298.2414160463002
 30
0.0
 10
437.742782473794
 20
298.2457968890881
 30
0.0
 10
437.7361881687057
 20
298.2553095823537
 30
0.0
 10
437.7333143288037
 20
298.2603734324116
 30
0.0
 10
437.7285300432602
 20
298.2708986903414
 30
0.0
 10
437.7265971326711
 20
298.2763909914662
 30
0.0
 10
437.7251535057391
 20
298.2821274738276
 30
0.0
  0
SPLINE
  5
1BD
330
1F
100
AcDbEntity
  8
1
100
AcDbSpline
210
0.0
220
0.0
230
1.0
 70
     8
 71
     3
 72
    21
 73
    17
 74
     0
 42
0.000000001
 43
0.0000000001
 40
0.0
 40
0.0
 40
0.0
 40
0.0
 40
0.2500000000001096
 40
0.2500000000001096
 40
0.3125000000000934
 40
0.3125000000000934
 40
0.3750000000000773
 40
0.3750000000000773
 40
0.5000000000001305
 40
0.6250000000001837
 40
0.6250000000001837
 40
0.6875000000001532
 40
0.6875000000001532
 40
0.7500000000001225
 40
0.7500000000001225
 40
1.0
 40
1.0
 40
1.0
 40
1.0
 10
439.5915101664948
 20
297.3698955901314
 30
0.0
 10
439.6033948910279
 20
297.4110915366539
 30
0.0
 10
439.6197024336569
 20
297.4504290556357
 30
0.0
 10
439.6457577751847
 20
297.4972688076567
 30
0.0
 10
439.6512560838767
 20
297.506518574494
 30
0.0
 10
439.6628463996706
 20
297.5247748032152
 30
0.0
 10
439.6689555549441
 20
297.5338013481162
 30
0.0
 10
439.6879142194797
 20
297.5601079045622
 30
0.0
 10
439.715015699411
 20
297.5933774519532
 30
0.0
 10
439.7456805849018
 20
297.6231133966423
 30
0.0
 10
439.770039455249
 20
297.6440681260639
 30
0.0
 10
439.7784174614372
 20
297.6508510388431
 30
0.0
 10
439.7954760802591
 20
297.6638344640917
 30
0.0
 10
439.8041386948571
 20
297.6700248548264
 30
0.0
 10
439.8481000585321
 20
297.6995231580004
 30
0.0
 10
439.8853153147951
 20
297.718529396349
 30
0.0
 10
439.9245866825053
 20
297.7331170751192
 30
0.0
  0
SPLINE
  5
1BE
330
1F
100
AcDbEntity
  8
1
100
AcDbSpline
210
0.0
220
0.0
230
1.0
 70
     8
 71
     3
 72
    14
 73
    10
 74
     0
 42
0.000000001
 43
0.0000000001
 40
0.0
 40
0.0
 40
0.0
 40
0.0
 40
0.2499999999999998
 40
0.2499999999999998
 40
0.5
 40
0.5
 40
0.75
 40
0.75
 40
1.0
 40
1.0
 40
1.0
 40
1.0
 10
439.9245866825053
 20
297.7331170751192
 30
0.0
 10
439.9313598865557
 20
297.7356330385473
 30
0.0
 10
439.9383777258992
 20
297.7373638376717
 30
0.0
 10
439.9523704689236
 20
297.7392462904095
 30
0.0
 10
439.9593620759191
 20
297.7394190202473
 30
0.0
 10
439.9733402877442
 20
297.7382758857898
 30
0.0
 10
439.9803163553663
 20
297.7369384925308
 30
0.0
 10
439.9936414380926
 20
297.7329020160797
 30
0.0
 10
440.0000739889057
 20
297.7302003742762
 30
0.0
 10
440.006269612853
 20
297.7267931813776
 30
0.0
  0
SPLINE
  5
1BF
330
1F
100
AcDbEntity
  8
1
100
AcDbSpline
210
0.0
220
0.0
230
1.0
 70
     8
 71
     3
 72
    20
 73
    16
 74
     0
 42
0.000000001
 43
0.0000000001
 40
0.0
 40
0.0
 40
0.0
 40
0.0
 40
0.1250000000000683
 40
0.1250000000000683
 40
0.2500000000001366
 40
0.2500000000001366
 40
0.3750000000002048
 40
0.3750000000002048
 40
0.5000000000002732
 40
0.5000000000002732
 40
0.6250000000003415
 40
0.6250000000003415
 40
0.7500000000004097
 40
0.7500000000004097
 40
1.0
 40
1.0
 40
1.0
 40
1.0
 10
440.1295097065666
 20
297.7502848200824
 30
0.0
 10
440.1257821105478
 20
297.7456856755687
 30
0.0
 10
440.1217091263872
 20
297.7415094079147
 30
0.0
 10
440.1129104920271
 20
297.7339573661396
 30
0.0
 10
440.1081330665056
 20
297.7305546060446
 30
0.0
 10
440.0981846342149
 20
297.7247351410863
 30
0.0
 10
440.0930332485093
 20
297.7223148792277
 30
0.0
 10
440.0823954395403
 20
297.7184051541234
 30
0.0
 10
440.0768574085542
 20
297.7169082493133
 30
0.0
 10
440.0656951800199
 20
297.7149217871375
 30
0.0
 10
440.0601122778521
 20
297.7144287521963
 30
0.0
 10
440.0489449714498
 20
297.7143912135083
 30
0.0
 10
440.0433327890477
 20
297.7148518609019
 30
0.0
 10
440.02667882037
 20
297.7176708007487
 30
0.0
 10
440.0161762361519
 20
297.7213451785871
 30
0.0
 10
440.006269612853
 20
297.7267931813776
 30
0.0
  0
SPLINE
  5
1C0
330
1F
100
AcDbEntity
  8
1
100
AcDbSpline
210
0.0
220
0.0
230
1.0
 70
     8
 71
     3
 72
    14
 73
    10
 74
     0
 42
0.000000001
 43
0.0000000001
 40
0.0
 40
0.0
 40
0.0
 40
0.0
 40
0.6053509703119221
 40
0.6053509703119221
 40
0.7566887128899112
 40
0.7566887128899112
 40
0.9080264554679001
 40
0.9080264554679001
 40
1.0
 40
1.0
 40
1.0
 40
1.0
 10
437.7251535057391
 20
298.2821274738276
 30
0.0
 10
437.7147691759086
 20
298.3233912682226
 30
0.0
 10
437.709285998507
 20
298.3653462320963
 30
0.0
 10
437.7085582108285
 20
298.4186441384372
 30
0.0
 10
437.7087252556334
 20
298.4293695665615
 30
0.0
 10
437.7096785397018
 20
298.4506662807808
 30
0.0
 10
437.7104631247836
 20
298.4612629817694
 30
0.0
 10
437.7122106290343
 20
298.478218102635
 30
0.0
 10
437.7129826101615
 20
298.4846085688056
 30
0.0
 10
437.7138657680518
 20
298.4909803713275
 30
0.0
  0
SPLINE
  5
1C1
330
1F
100
AcDbEntity
  8
1
100
AcDbSpline
210
0.0
220
0.0
230
1.0
 70
     8
 71
     3
 72
    12
 73
     8
 74
     0
 42
0.000000001
 43
0.0000000001
 40
0.0
 40
0.0
 40
0.0
 40
0.0
 40
0.0713656557970028
 40
0.0713656557970028
 40
0.2570925246376022
 40
0.2570925246376022
 40
1.0
 40
1.0
 40
1.0
 40
1.0
 10
440.2147070781738
 20
297.8974216153111
 30
0.0
 10
440.2132258400441
 20
297.8935929273992
 30
0.0
 10
440.2117040088468
 20
297.8897862719214
 30
0.0
 10
440.2060848767907
 20
297.8761747859138
 30
0.0
 10
440.2017576993586
 20
297.8665012305231
 30
0.0
 10
440.1788068809016
 20
297.8189171358368
 30
0.0
 10
440.156289898376
 20
297.7833264832926
 30
0.0
 10
440.1295097065666
 20
297.7502848200824
 30
0.0
  0
SPLINE
  5
1C2
330
1F
100
AcDbEntity
  8
1
100
AcDbSpline
210
0.0
220
0.0
230
1.0
 70
     8
 71
     3
 72
    14
 73
    10
 74
     0
 42
0.000000001
 43
0.0000000001
 40
0.0
 40
0.0
 40
0.0
 40
0.0
 40
0.25
 40
0.25
 40
0.5
 40
0.5
 40
0.75
 40
0.75
 40
1.0
 40
1.0
 40
1.0
 40
1.0
 10
438.3593933629202
 20
299.2313154101214
 30
0.0
 10
438.3632205581576
 20
299.2255672819248
 30
0.0
 10
438.3664161842295
 20
299.2194255677122
 30
0.0
 10
438.3714081028098
 20
299.2066445380166
 30
0.0
 10
438.3731971043693
 20
299.2000555140022
 30
0.0
 10
438.3753461528916
 20
299.1864727837427
 30
0.0
 10
438.3756869302736
 20
299.1794449218262
 30
0.0
 10
438.37483060056
 20
299.1655888127632
 30
0.0
 10
438.3736545362319
 20
299.1586854266054
 30
0.0
 10
438.3716651311776
 20
299.1518059374813
 30
0.0
  0
SPLINE
  5
1C3
330
1F
100
AcDbEntity
  8
1
100
AcDbSpline
210
0.0
220
0.0
230
1.0
 70
     8
 71
     3
 72
    10
 73
     6
 74
     0
 42
0.000000001
 43
0.0000000001
 40
0.0
 40
0.0
 40
0.0
 40
0.0
 40
0.518671428517817
 40
0.518671428517817
 40
1.0
 40
1.0
 40
1.0
 40
1.0
 10
438.3593933629198
 20
299.2313154101227
 30
0.0
 10
438.3563340735735
 20
299.2359102076865
 30
0.0
 10
438.3536868144598
 20
299.2407438729709
 30
0.0
 10
438.3494411814607
 20
299.2503489742128
 30
0.0
 10
438.3477676180834
 20
299.2551185677777
 30
0.0
 10
438.3464742159238
 20
299.2600380387645
 30
0.0
  0
SPLINE
  5
1C4
330
1F
100
AcDbEntity
  8
1
100
AcDbSpline
210
0.0
220
0.0
230
1.0
 70
     8
 71
     3
 72
    14
 73
    10
 74
     0
 42
0.000000001
 43
0.0000000001
 40
0.0
 40
0.0
 40
0.0
 40
0.0
 40
0.1451158453587465
 40
0.1451158453587465
 40
0.4300772302391643
 40
0.4300772302391643
 40
0.7150386151195822
 40
0.7150386151195822
 40
1.0
 40
1.0
 40
1.0
 40
1.0
 10
439.9122478606474
 20
298.8217753554808
 30
0.0
 10
439.9131798494336
 20
298.8252621310965
 30
0.0
 10
439.9143006158637
 20
298.8286713431822
 30
0.0
 10
439.9181336034962
 20
298.8384550066936
 30
0.0
 10
439.9213285929032
 20
298.8445459047614
 30
0.0
 10
439.9289908825447
 20
298.8559730784498
 30
0.0
 10
439.9334715861938
 20
298.8612894575911
 30
0.0
 10
439.9432998014612
 20
298.8706975488033
 30
0.0
 10
439.9486894397138
 20
298.874859703936
 30
0.0
 10
439.954570367955
 20
298.8784628788454
 30
0.0
  0
SPLINE
  5
1C5
330
1F
100
AcDbEntity
  8
1
100
AcDbSpline
210
0.0
220
0.0
230
1.0
 70
     8
 71
     3
 72
     8
 73
     4
 74
     0
 42
0.000000001
 43
0.0000000001
 40
0.0
 40
0.0
 40
0.0
 40
0.0
 40
1.0
 40
1.0
 40
1.0
 40
1.0
 10
439.9715955073445
 20
298.8917355035965
 30
0.0
 10
439.9664633064648
 20
298.8866943455555
 30
0.0
 10
439.9607866192616
 20
298.8822715022156
 30
0.0
 10
439.954570367955
 20
298.8784628788454
 30
0.0
  0
LINE
  5
1DE
330
1F
100
AcDbEntity
  8
4
100
AcDbLine
 10
269.203832
 20
288.907994
 30
0.0
 11
448.6297539999999
 21
288.907994
 31
0.0
  0
LINE
  5
1DF
330
1F
100
AcDbEntity
  8
SK4
100
AcDbLine
 10
210.904842
 20
288.907994
 30
0.0
 11
277.404842
 21
288.907994
 31
0.0
  0
MTEXT
  5
1E5
330
1F
100
AcDbEntity
  8
SK6
100
AcDbMText
 10
299.563793
 20
249.353545
 30
0.0
 40
3.5
 41
0.0
 71
     7
 72
     5
  1
\W0.7147;805D-29-145-S32
  7
cesky
 73
     2
 44
0.8433729999999998
  0
MTEXT
  5
2F6
330
1F
100
AcDbEntity
  8
2
100
AcDbMText
 10
356.327842
 20
329.044517
 30
0.0
 40
3.5
 41
0.0
 71
     7
 72
     5
  1
\W0.7809;170
  7
cesky
 73
     2
 44
0.8433729999999998
  0
LINE
  5
2F7
330
1F
100
AcDbEntity
  8
2
100
AcDbLine
 10
444.4048419999999
 20
303.407994
 30
0.0
 11
444.4048419999999
 21
330.17035
 31
0.0
  0
LINE
  5
2F8
330
1F
100
AcDbEntity
  8
2
100
AcDbLine
 10
274.404842
 20
289.907567
 30
0.0
 11
274.404842
 21
330.17035
 31
0.0
  0
LINE
  5
2F9
330
1F
100
AcDbEntity
  8
2
100
AcDbLine
 10
444.4048419999999
 20
329.17035
 30
0.0
 11
274.404842
 21
329.17035
 31
0.0
  0
SOLID
  5
2FA
330
1F
100
AcDbEntity
  8
2
100
AcDbTrace
 10
444.4048419999999
 20
329.17035
 30
0.0
 11
440.904844
 21
328.553206
 31
0.0
 12
440.90484
 22
329.7874950000001
 32
0.0
 13
440.90484
 23
329.7874950000001
 33
0.0
  0
SOLID
  5
2FB
330
1F
100
AcDbEntity
  8
2
100
AcDbTrace
 10
274.404842
 20
329.17035
 30
0.0
 11
277.90484
 21
329.7874950000001
 31
0.0
 12
277.904844
 22
328.553206
 32
0.0
 13
277.904844
 23
328.553206
 33
0.0
  0
MTEXT
  5
2FC
330
1F
100
AcDbEntity
  8
2
100
AcDbMText
 10
462.614073
 20
287.082514
 30
0.0
 40
3.5
 41
0.0
 71
     7
 72
     5
  1
\W0.7259;29
  7
cesky
 11
0.0000000000000001
 21
1.0
 31
0.0
 73
     2
 44
0.8433729999999998
  0
MTEXT
  5
2FD
330
1F
100
AcDbEntity
  8
2
100
AcDbMText
 10
462.614073
 20
280.345014
 30
0.0
 40
3.5
 41
0.0
 71
     7
 72
     5
  1
\W3.0115;\H2.63;%%c\H3.50;
  7
cesky
 11
0.0000000000000001
 21
1.0
 31
0.0
 73
     2
 44
0.8433729999999998
  0
LINE
  5
2FE
330
1F
100
AcDbEntity
  8
2
100
AcDbLine
 10
446.404842
 20
303.407994
 30
0.0
 11
463.80149
 21
303.407994
 31
0.0
  0
LINE
  5
2FF
330
1F
100
AcDbEntity
  8
2
100
AcDbLine
 10
462.8014900000001
 20
303.407994
 30
0.0
 11
462.8014900000001
 21
280.187514
 31
0.0
  0
SOLID
  5
300
330
1F
100
AcDbEntity
  8
2
100
AcDbTrace
 10
462.8014900000001
 20
303.407994
 30
0.0
 11
463.418634
 21
299.9079959999999
 31
0.0
 12
462.184346
 22
299.907991
 32
0.0
 13
462.184346
 23
299.907991
 33
0.0
  0
MTEXT
  5
301
330
1F
100
AcDbEntity
  8
2
100
AcDbMText
 10
326.327842
 20
343.029854
 30
0.0
 40
3.5
 41
0.0
 71
     7
 72
     5
  1
\W0.7231;230
  7
cesky
 73
     2
 44
0.8433729999999998
  0
LINE
  5
302
330
1F
100
AcDbEntity
  8
2
100
AcDbLine
 10
444.4048419999999
 20
305.407994
 30
0.0
 11
444.4048419999999
 21
344.155687
 31
0.0
  0
LINE
  5
303
330
1F
100
AcDbEntity
  8
2
100
AcDbLine
 10
214.404842
 20
302.907994
 30
0.0
 11
214.404842
 21
344.155687
 31
0.0
  0
LINE
  5
304
330
1F
100
AcDbEntity
  8
2
100
AcDbLine
 10
444.4048419999999
 20
343.155687
 30
0.0
 11
214.404842
 21
343.155687
 31
0.0
  0
SOLID
  5
305
330
1F
100
AcDbEntity
  8
2
100
AcDbTrace
 10
444.4048419999999
 20
343.155687
 30
0.0
 11
440.904844
 21
342.538543
 31
0.0
 12
440.90484
 22
343.772832
 32
0.0
 13
440.90484
 23
343.772832
 33
0.0
  0
SOLID
  5
306
330
1F
100
AcDbEntity
  8
2
100
AcDbTrace
 10
214.404842
 20
343.155687
 30
0.0
 11
217.90484
 21
343.772832
 31
0.0
 12
217.904844
 22
342.538543
 32
0.0
 13
217.904844
 23
342.538543
 33
0.0
  0
MTEXT
  5
307
330
1F
100
AcDbEntity
  8
2
100
AcDbMText
 10
242.590342
 20
329.044517
 30
0.0
 40
3.5
 41
0.0
 71
     7
 72
     5
  1
\W0.7045;60
  7
cesky
 73
     2
 44
0.8433729999999998
  0
LINE
  5
308
330
1F
100
AcDbEntity
  8
2
100
AcDbLine
 10
274.404842
 20
288.907994
 30
0.0
 11
274.404842
 21
330.17035
 31
0.0
  0
LINE
  5
309
330
1F
100
AcDbEntity
  8
2
100
AcDbLine
 10
214.404842
 20
302.907994
 30
0.0
 11
214.404842
 21
330.17035
 31
0.0
  0
LINE
  5
30A
330
1F
100
AcDbEntity
  8
2
100
AcDbLine
 10
274.404842
 20
329.17035
 30
0.0
 11
214.404842
 21
329.17035
 31
0.0
  0
SOLID
  5
30B
330
1F
100
AcDbEntity
  8
2
100
AcDbTrace
 10
274.404842
 20
329.17035
 30
0.0
 11
270.904844
 21
328.553206
 31
0.0
 12
270.90484
 22
329.7874950000001
 32
0.0
 13
270.90484
 23
329.7874950000001
 33
0.0
  0
SOLID
  5
30C
330
1F
100
AcDbEntity
  8
2
100
AcDbTrace
 10
214.404842
 20
329.17035
 30
0.0
 11
217.90484
 21
329.7874950000001
 31
0.0
 12
217.904844
 22
328.553206
 32
0.0
 13
217.904844
 23
328.553206
 33
0.0
  0
MTEXT
  5
30D
330
1F
100
AcDbEntity
  8
2
100
AcDbMText
 10
365.336259
 20
314.470071
 30
0.0
 40
3.5
 41
0.0
 71
     7
 72
     5
  1
\W0.7809;152
  7
cesky
 73
     2
 44
0.8433729999999998
  0
LINE
  5
30E
330
1F
100
AcDbEntity
  8
2
100
AcDbLine
 10
444.4048419999999
 20
305.407994
 30
0.0
 11
444.4048419999999
 21
315.595905
 31
0.0
  0
LINE
  5
30F
330
1F
100
AcDbEntity
  8
2
100
AcDbLine
 10
292.421676
 20
303.76673
 30
0.0
 11
292.421676
 21
315.595905
 31
0.0
  0
LINE
  5
310
330
1F
100
AcDbEntity
  8
2
100
AcDbLine
 10
444.4048419999999
 20
314.595905
 30
0.0
 11
292.421676
 21
314.595905
 31
0.0
  0
SOLID
  5
311
330
1F
100
AcDbEntity
  8
2
100
AcDbTrace
 10
444.4048419999999
 20
314.595905
 30
0.0
 11
440.904844
 21
313.97876
 31
0.0
 12
440.90484
 22
315.213049
 32
0.0
 13
440.90484
 23
315.213049
 33
0.0
  0
SOLID
  5
312
330
1F
100
AcDbEntity
  8
2
100
AcDbTrace
 10
292.421676
 20
314.595905
 30
0.0
 11
295.921673
 21
315.213049
 31
0.0
 12
295.921678
 22
313.97876
 32
0.0
 13
295.921678
 23
313.97876
 33
0.0
  0
MTEXT
  5
313
330
1F
100
AcDbEntity
  8
SK2
100
AcDbMText
 10
205.348435
 20
290.434244
 30
0.0
 40
3.5
 41
0.0
 71
     7
 72
     5
  1
\W0.7045;32
  7
cesky
 11
0.0000000000000001
 21
1.0
 31
0.0
 73
     2
 44
0.8433729999999998
  0
MTEXT
  5
314
330
1F
100
AcDbEntity
  8
SK2
100
AcDbMText
 10
205.348435
 20
283.696744
 30
0.0
 40
3.5
 41
0.0
 71
     7
 72
     5
  1
\W3.0115;\H2.63;%%c\H3.50;
  7
cesky
 11
0.0000000000000001
 21
1.0
 31
0.0
 73
     2
 44
0.8433729999999998
  0
LINE
  5
315
330
1F
100
AcDbEntity
  8
SK2
100
AcDbLine
 10
216.404842
 20
304.907994
 30
0.0
 11
204.535852
 21
304.907994
 31
0.0
  0
LINE
  5
316
330
1F
100
AcDbEntity
  8
SK2
100
AcDbLine
 10
216.404842
 20
272.907994
 30
0.0
 11
204.535852
 21
272.907994
 31
0.0
  0
LINE
  5
317
330
1F
100
AcDbEntity
  8
SK2
100
AcDbLine
 10
205.535852
 20
304.907994
 30
0.0
 11
205.535852
 21
272.907994
 31
0.0
  0
SOLID
  5
318
330
1F
100
AcDbEntity
  8
SK2
100
AcDbTrace
 10
205.535852
 20
304.907994
 30
0.0
 11
206.152996
 21
301.407996
 31
0.0
 12
204.918707
 22
301.407991
 32
0.0
 13
204.918707
 23
301.407991
 33
0.0
  0
SOLID
  5
319
330
1F
100
AcDbEntity
  8
SK2
100
AcDbTrace
 10
205.535852
 20
272.907994
 30
0.0
 11
204.918707
 21
276.407991
 31
0.0
 12
206.152996
 22
276.407996
 32
0.0
 13
206.152996
 23
276.407996
 33
0.0
  0
MTEXT
  5
31A
330
1F
100
AcDbEntity
  8
SK2
100
AcDbMText
 10
189.956072
 20
290.434244
 30
0.0
 40
3.5
 41
0.0
 71
     7
 72
     5
  1
\W0.7045;42
  7
cesky
 11
0.0000000000000001
 21
1.0
 31
0.0
 73
     2
 44
0.8433729999999998
  0
MTEXT
  5
31B
330
1F
100
AcDbEntity
  8
SK2
100
AcDbMText
 10
189.956072
 20
283.696744
 30
0.0
 40
3.5
 41
0.0
 71
     7
 72
     5
  1
\W3.0115;\H2.63;%%c\H3.50;
  7
cesky
 11
0.0000000000000001
 21
1.0
 31
0.0
 73
     2
 44
0.8433729999999998
  0
LINE
  5
31C
330
1F
100
AcDbEntity
  8
SK2
100
AcDbLine
 10
274.904842
 20
309.907994
 30
0.0
 11
189.143489
 21
309.907994
 31
0.0
  0
LINE
  5
31D
330
1F
100
AcDbEntity
  8
SK2
100
AcDbLine
 10
274.904842
 20
267.907994
 30
0.0
 11
189.143489
 21
267.907994
 31
0.0
  0
LINE
  5
31E
330
1F
100
AcDbEntity
  8
SK2
100
AcDbLine
 10
190.143489
 20
309.907994
 30
0.0
 11
190.143489
 21
267.907994
 31
0.0
  0
SOLID
  5
31F
330
1F
100
AcDbEntity
  8
SK2
100
AcDbTrace
 10
190.143489
 20
309.907994
 30
0.0
 11
190.760634
 21
306.407996
 31
0.0
 12
189.526345
 22
306.407991
 32
0.0
 13
189.526345
 23
306.407991
 33
0.0
  0
SOLID
  5
320
330
1F
100
AcDbEntity
  8
SK2
100
AcDbTrace
 10
190.143489
 20
267.907994
 30
0.0
 11
189.526345
 21
271.4079910000001
 31
0.0
 12
190.760634
 22
271.407996
 32
0.0
 13
190.760634
 23
271.407996
 33
0.0
  0
LINE
  5
321
330
1F
100
AcDbEntity
  8
CUT
100
AcDbLine
 10
444.2974360653503
 20
295.9031859130247
 30
0.0
 11
444.4048419452957
 21
289.7551154040705
 31
0.0
  0
LINE
  5
322
330
1F
100
AcDbEntity
  8
CUT
100
AcDbLine
 10
443.981163214816
 20
296.4295023054686
 30
0.0
 11
444.2974360653503
 21
295.9031859130247
 31
0.0
  0
LINE
  5
325
330
1F
100
AcDbEntity
  8
CUT
100
AcDbLine
 10
434.9237657281858
 20
303.0389373251474
 30
0.0
 11
442.8936032139828
 21
303.4041365154391
 31
0.0
  0
LINE
  5
326
330
1F
100
AcDbEntity
  8
CUT
100
AcDbLine
 10
443.7002807888953
 20
302.6692898708586
 30
0.0
 11
443.981163214816
 21
296.4295023054686
 31
0.0
  0
LINE
  5
327
330
1F
100
AcDbEntity
  8
CUT
100
AcDbLine
 10
444.4048419999999
 20
289.755115
 30
0.0
 11
444.4048419999999
 21
288.907994
 31
0.0
  0
LINE
  5
328
330
1F
100
AcDbEntity
  8
CUT
100
AcDbLine
 10
444.4048419999999
 20
288.907994
 30
0.0
 11
434.186273
 21
288.907994
 31
0.0
  0
LINE
  5
329
330
1F
100
AcDbEntity
  8
CUT
100
AcDbLine
 10
434.186273
 20
288.907994
 30
0.0
 11
434.186273
 21
302.232832
 31
0.0
  0
ARC
  5
32A
330
1F
100
AcDbEntity
  8
CUT
100
AcDbCircle
 10
442.9213021358854
 20
302.6237226790123
 30
0.0
 40
0.7809052351989175
100
AcDbArc
 50
7.499287090563261
 51
92.03272333665022
  0
ARC
  5
32B
330
1F
100
AcDbEntity
  8
CUT
100
AcDbCircle
 10
442.9794452499511
 20
302.6368684313819
 30
0.0
 40
0.7215642895422558
100
AcDbArc
 50
2.57528996125477
 51
7.066936671118991
  0
ARC
  5
32C
330
1F
100
AcDbEntity
  8
CUT
100
AcDbCircle
 10
434.9682473845753
 20
302.258169449619
 30
0.0
 40
0.7823846081485507
100
AcDbArc
 50
96.02551198516296
 51
181.8558445014862
  0
ARC
  5
32D
330
1F
100
AcDbEntity
  8
CUT
100
AcDbCircle
 10
434.9569127114712
 20
302.3145003932336
 30
0.0
 40
0.7251948640341812
100
AcDbArc
 50
92.61977056872412
 51
95.60211361299568
  0
ENDSEC
  0
SECTION
  2
OBJECTS
  0
DICTIONARY
  5
C
330
0
100
AcDbDictionary
281
     1
  3
ACAD_CIP_PREVIOUS_PRODUCT_INFO
350
2F3
  3
ACAD_COLOR
350
2EE
  3
ACAD_DETAILVIEWSTYLE
350
2EA
  3
ACAD_GROUP
350
D
  3
ACAD_LAYOUT
350
1A
  3
ACAD_MATERIAL
350
43
  3
ACAD_MLEADERSTYLE
350
6B
  3
ACAD_MLINESTYLE
350
17
  3
ACAD_PLOTSETTINGS
350
19
  3
ACAD_PLOTSTYLENAME
350
E
  3
ACAD_SCALELIST
350
47
  3
ACAD_SECTIONVIEWSTYLE
350
2EB
  3
ACAD_TABLESTYLE
350
69
  3
ACAD_VISUALSTYLE
350
2A
  3
ACDB_RECOMPOSE_DATA
350
359
  3
AcDbVariableDictionary
350
2A7
  0
DICTIONARY
  5
33C
330
10
100
AcDbDictionary
280
     1
281
     1
  3
ADSK_XREC_LAYER_RECONCILED
360
33D
  0
DICTIONARY
  5
33E
330
32E
100
AcDbDictionary
280
     1
281
     1
  3
ADSK_XREC_LAYER_RECONCILED
360
33F
  0
DICTIONARY
  5
340
330
32F
100
AcDbDictionary
280
     1
281
     1
  3
ADSK_XREC_LAYER_RECONCILED
360
341
  0
DICTIONARY
  5
342
330
330
100
AcDbDictionary
280
     1
281
     1
  3
ADSK_XREC_LAYER_RECONCILED
360
343
  0
DICTIONARY
  5
344
330
332
100
AcDbDictionary
280
     1
281
     1
  3
ADSK_XREC_LAYER_RECONCILED
360
345
  0
DICTIONARY
  5
346
330
333
100
AcDbDictionary
280
     1
281
     1
  3
ADSK_XREC_LAYER_RECONCILED
360
347
  0
DICTIONARY
  5
348
330
335
100
AcDbDictionary
280
     1
281
     1
  3
ADSK_XREC_LAYER_RECONCILED
360
349
  0
DICTIONARY
  5
34A
330
336
100
AcDbDictionary
280
     1
281
     1
  3
ADSK_XREC_LAYER_RECONCILED
360
34B
  0
DICTIONARY
  5
34C
330
337
100
AcDbDictionary
280
     1
281
     1
  3
ADSK_XREC_LAYER_RECONCILED
360
34D
  0
DICTIONARY
  5
34E
330
338
100
AcDbDictionary
280
     1
281
     1
  3
ADSK_XREC_LAYER_RECONCILED
360
34F
  0
DICTIONARY
  5
350
330
339
100
AcDbDictionary
280
     1
281
     1
  3
ADSK_XREC_LAYER_RECONCILED
360
351
  0
DICTIONARY
  5
352
330
33A
100
AcDbDictionary
280
     1
281
     1
  3
ADSK_XREC_LAYER_RECONCILED
360
353
  0
DICTIONARY
  5
2F4
330
1F
100
AcDbDictionary
280
     1
281
     1
  3
ACAD_SORTENTS
360
2F5
  0
XRECORD
  5
2F3
102
{ACAD_REACTORS
330
C
102
}
330
C
100
AcDbXrecord
280
     1
300
ACD
300
2019
300
87084ACD_2019_0F
  0
DICTIONARY
  5
2EE
102
{ACAD_REACTORS
330
C
102
}
330
C
100
AcDbDictionary
281
     1
  0
DICTIONARY
  5
2EA
102
{ACAD_REACTORS
330
C
102
}
330
C
100
AcDbDictionary
281
     1
  3
Metric50
350
2F0
  0
DICTIONARY
  5
D
102
{ACAD_REACTORS
330
C
102
}
330
C
100
AcDbDictionary
281
     1
  3
NULOVY_BOD
350
33B
  0
DICTIONARY
  5
1A
102
{ACAD_REACTORS
330
C
102
}
330
C
100
AcDbDictionary
281
     1
  3
Layout1
350
1E
  3
Layout2
350
26
  3
Model
350
22
  0
DICTIONARY
  5
43
102
{ACAD_REACTORS
330
C
102
}
330
C
100
AcDbDictionary
281
     1
  3
ByBlock
350
45
  3
ByLayer
350
44
  3
Global
350
46
  0
DICTIONARY
  5
6B
102
{ACAD_REACTORS
330
C
102
}
330
C
100
AcDbDictionary
281
     1
  3
Standard
350
6C
  0
DICTIONARY
  5
17
102
{ACAD_REACTORS
330
C
102
}
330
C
100
AcDbDictionary
281
     1
  3
Standard
350
18
  0
DICTIONARY
  5
19
102
{ACAD_REACTORS
330
C
102
}
330
C
100
AcDbDictionary
281
     1
  0
ACDBDICTIONARYWDFLT
  5
E
102
{ACAD_REACTORS
330
C
102
}
330
C
100
AcDbDictionary
281
     1
  3
Normal
350
F
100
AcDbDictionaryWithDefault
340
F
  0
DICTIONARY
  5
47
102
{ACAD_REACTORS
330
C
102
}
330
C
100
AcDbDictionary
281
     1
  3
A0
350
48
  3
A1
350
49
  3
A2
350
4A
  3
A3
350
4B
  3
A4
350
4C
  3
A5
350
4D
  3
A6
350
4E
  3
A7
350
4F
  3
A8
350
50
  3
A9
350
51
  3
B0
350
52
  3
B1
350
53
  3
B2
350
54
  3
B3
350
55
  3
B4
350
56
  3
B5
350
57
  3
B6
350
58
  3
B7
350
59
  3
B8
350
5A
  3
B9
350
5B
  3
C0
350
5C
  3
C1
350
5D
  3
C2
350
5E
  3
C3
350
5F
  3
C4
350
60
  3
C5
350
61
  3
C6
350
62
  3
C7
350
63
  3
C8
350
64
  3
C9
350
65
  3
D0
350
66
  3
D1
350
67
  3
D2
350
68
  0
DICTIONARY
  5
2EB
102
{ACAD_REACTORS
330
C
102
}
330
C
100
AcDbDictionary
281
     1
  3
Metric50
350
2EF
  0
DICTIONARY
  5
69
102
{ACAD_REACTORS
330
C
102
}
330
C
100
AcDbDictionary
281
     1
  3
Standard
350
6A
  0
DICTIONARY
  5
2A
102
{ACAD_REACTORS
330
C
102
}
330
C
100
AcDbDictionary
281
     1
  3
2dWireframe
350
2F
  3
Basic
350
32
  3
Brighten
350
36
  3
ColorChange
350
3A
  3
Conceptual
350
34
  3
Dim
350
35
  3
EdgeColorOff
350
3D
  3
Facepattern
350
39
  3
Flat
350
2B
  3
FlatWithEdges
350
2C
  3
Gouraud
350
2D
  3
GouraudWithEdges
350
2E
  3
Hidden
350
31
  3
JitterOff
350
3B
  3
Linepattern
350
38
  3
OverhangOff
350
3C
  3
Realistic
350
33
  3
Shaded
350
42
  3
Shaded with edges
350
41
  3
Shades of Gray
350
3E
  3
Sketchy
350
3F
  3
Thicken
350
37
  3
Wireframe
350
30
  3
X-Ray
350
40
  0
XRECORD
  5
359
102
{ACAD_REACTORS
330
C
102
}
330
C
100
AcDbXrecord
280
     1
 90
        1
330
6A
  0
DICTIONARY
  5
2A7
102
{ACAD_REACTORS
330
C
102
}
330
C
100
AcDbDictionary
281
     1
  3
CANNOSCALE
350
2A8
  3
CMLEADERSTYLE
350
2E9
  3
CTABLESTYLE
350
2E8
  3
CVIEWDETAILSTYLE
350
354
  3
CVIEWSECTIONSTYLE
350
355
  3
MSLTSCALE
350
2A9
  3
XCLIPFRAME
350
356
  0
XRECORD
  5
33D
102
{ACAD_REACTORS
330
33C
102
}
330
33C
100
AcDbXrecord
280
     1
290
     1
  0
XRECORD
  5
33F
102
{ACAD_REACTORS
330
33E
102
}
330
33E
100
AcDbXrecord
280
     1
290
     1
  0
XRECORD
  5
341
102
{ACAD_REACTORS
330
340
102
}
330
340
100
AcDbXrecord
280
     1
290
     1
  0
XRECORD
  5
343
102
{ACAD_REACTORS
330
342
102
}
330
342
100
AcDbXrecord
280
     1
290
     1
  0
XRECORD
  5
345
102
{ACAD_REACTORS
330
344
102
}
330
344
100
AcDbXrecord
280
     1
290
     1
  0
XRECORD
  5
347
102
{ACAD_REACTORS
330
346
102
}
330
346
100
AcDbXrecord
280
     1
290
     1
  0
XRECORD
  5
349
102
{ACAD_REACTORS
330
348
102
}
330
348
100
AcDbXrecord
280
     1
290
     1
  0
XRECORD
  5
34B
102
{ACAD_REACTORS
330
34A
102
}
330
34A
100
AcDbXrecord
280
     1
290
     1
  0
XRECORD
  5
34D
102
{ACAD_REACTORS
330
34C
102
}
330
34C
100
AcDbXrecord
280
     1
290
     1
  0
XRECORD
  5
34F
102
{ACAD_REACTORS
330
34E
102
}
330
34E
100
AcDbXrecord
280
     1
290
     1
  0
XRECORD
  5
351
102
{ACAD_REACTORS
330
350
102
}
330
350
100
AcDbXrecord
280
     1
290
     1
  0
XRECORD
  5
353
102
{ACAD_REACTORS
330
352
102
}
330
352
100
AcDbXrecord
280
     1
290
     1
  0
SORTENTSTABLE
  5
2F5
102
{ACAD_REACTORS
330
2F4
102
}
330
2F4
100
AcDbSortentsTable
330
1F
331
2F6
  5
219
331
2F7
  5
232
331
2F8
  5
2F6
331
2F9
  5
2F7
331
2FA
  5
2F8
331
2FB
  5
2F9
331
2FC
  5
2FA
331
2FD
  5
2FB
331
2FE
  5
2FC
331
2FF
  5
2FD
331
300
  5
2FE
331
301
  5
30F
331
302
  5
310
331
303
  5
311
331
304
  5
312
331
305
  5
313
331
306
  5
314
331
307
  5
315
331
308
  5
316
331
309
  5
317
331
30A
  5
318
331
30B
  5
319
331
30C
  5
31A
331
30D
  5
31B
331
30E
  5
31C
331
30F
  5
31D
331
310
  5
31E
331
311
  5
31F
331
312
  5
320
331
313
  5
301
331
314
  5
302
331
315
  5
303
331
316
  5
304
331
317
  5
305
331
318
  5
306
331
319
  5
307
331
31A
  5
308
331
31B
  5
309
331
31C
  5
30A
331
31D
  5
30B
331
31E
  5
30C
331
31F
  5
30D
331
320
  5
30E
331
325
  5
329
331
326
  5
32A
331
327
  5
32B
331
328
  5
32C
331
329
  5
32D
331
32A
  5
325
331
32B
  5
326
331
32C
  5
327
331
32D
  5
328
  0
ACDBDETAILVIEWSTYLE
  5
2F0
102
{ACAD_XDICTIONARY
360
38D
102
}
102
{ACAD_REACTORS
330
2EA
102
}
330
2EA
100
AcDbModelDocViewStyle
 70
     0
  3
Metric50
290
     0
100
AcDbDetailViewStyle
 70
     0
 71
     0
 90
        3
 71
     1
340
11
 62
   256
 40
5.0
340
0
 62
   256
 40
5.0
300

 40
0.0
280
     1
 71
     2
340
16
 90
       25
 62
   256
 71
     3
340
11
 62
   256
 40
5.0
 90
        0
 40
15.0
 90
        1
300
%<\AcVar ViewDetailId>% (%<\AcVar ViewScale \f "%sn">%)
 71
     4
340
16
 90
       25
 62
   256
340
16
 90
       25
 62
   256
280
     0
  0
GROUP
  5
33B
102
{ACAD_REACTORS
330
D
102
}
330
D
100
AcDbGroup
300

 70
     0
 71
     1
340
73
  0
LAYOUT
  5
1E
102
{ACAD_REACTORS
330
1A
102
}
330
1A
100
AcDbPlotSettings
  1

  2
none_device
  4

  6

 40
0.0
 41
0.0
 42
0.0
 43
0.0
 44
0.0
 45
0.0
 46
0.0
 47
0.0
 48
0.0
 49
0.0
140
0.0
141
0.0
142
1.0
143
1.0
 70
   688
 72
     0
 73
     0
 74
     5
  7

 75
    16
147
1.0
 76
     0
 77
     2
 78
   300
148
0.0
149
0.0
100
AcDbLayout
  1
Layout1
 70
     1
 71
     1
 10
-0.5
 20
-0.5
 11
5.0
 21
5.0
 12
0.0
 22
0.0
 32
0.0
 14
-0.5
 24
-0.5
 34
-0.5
 15
5.0
 25
5.0
 35
5.0
146
0.0
 13
0.0
 23
0.0
 33
0.0
 16
1.0
 26
0.0
 36
0.0
 17
0.0
 27
1.0
 37
0.0
 76
     0
330
1B
  0
LAYOUT
  5
26
102
{ACAD_REACTORS
330
1A
102
}
330
1A
100
AcDbPlotSettings
  1

  2
none_device
  4

  6

 40
0.0
 41
0.0
 42
0.0
 43
0.0
 44
0.0
 45
0.0
 46
0.0
 47
0.0
 48
0.0
 49
0.0
140
0.0
141
0.0
142
1.0
143
1.0
 70
   688
 72
     0
 73
     0
 74
     5
  7

 75
    16
147
1.0
 76
     0
 77
     2
 78
   300
148
0.0
149
0.0
100
AcDbLayout
  1
Layout2
 70
     1
 71
     2
 10
0.0
 20
0.0
 11
0.0
 21
0.0
 12
0.0
 22
0.0
 32
0.0
 14
0.0
 24
0.0
 34
0.0
 15
0.0
 25
0.0
 35
0.0
146
0.0
 13
0.0
 23
0.0
 33
0.0
 16
1.0
 26
0.0
 36
0.0
 17
0.0
 27
1.0
 37
0.0
 76
     0
330
23
  0
LAYOUT
  5
22
102
{ACAD_REACTORS
330
1A
102
}
330
1A
100
AcDbPlotSettings
  1

  2
none_device
  4
Letter_(8.50_x_11.00_Inches)
  6

 40
6.349999999999999
 41
6.349999999999999
 42
6.350005
 43
6.350005
 44
215.9
 45
279.4
 46
0.0
 47
0.0
 48
0.0
 49
0.0
140
0.0
141
0.0
142
1.0
143
1.0
 70
  1712
 72
     0
 73
     0
 74
     0
  7

 75
     0
147
1.0
 76
     0
 77
     2
 78
   300
148
0.0
149
0.0
100
AcDbLayout
  1
Model
 70
     1
 71
     0
 10
-0.5
 20
-0.5
 11
5.0
 21
5.0
 12
0.0
 22
0.0
 32
0.0
 14
-0.5
 24
-0.5
 34
-0.5
 15
5.0
 25
5.0
 35
5.0
146
0.0
 13
0.0
 23
0.0
 33
0.0
 16
1.0
 26
0.0
 36
0.0
 17
0.0
 27
1.0
 37
0.0
 76
     0
330
1F
331
29
  0
MATERIAL
  5
45
102
{ACAD_XDICTIONARY
360
2DD
102
}
102
{ACAD_REACTORS
330
43
102
}
330
43
100
AcDbMaterial
  1
ByBlock
  0
MATERIAL
  5
44
102
{ACAD_XDICTIONARY
360
2DB
102
}
102
{ACAD_REACTORS
330
43
102
}
330
43
100
AcDbMaterial
  1
ByLayer
  0
MATERIAL
  5
46
102
{ACAD_XDICTIONARY
360
2DF
102
}
102
{ACAD_REACTORS
330
43
102
}
330
43
100
AcDbMaterial
  1
Global
  0
MLEADERSTYLE
  5
6C
102
{ACAD_REACTORS
330
6B
102
}
330
6B
100
AcDbMLeaderStyle
170
     2
171
     1
172
     0
 90
        2
 40
0.0
 41
0.0
173
     1
 91
-1056964608
340
14
 92
       -2
290
     1
 42
0.09
291
     1
 43
0.36
  3
Standard
 44
0.18
300

342
11
174
     1
178
     6
175
     1
176
     0
 93
-1056964608
 45
0.18
292
     0
297
     0
 46
0.18
 94
-1056964608
 47
1.0
 49
1.0
140
1.0
293
     1
141
0.0
294
     1
177
     0
142
1.0
295
     0
296
     0
143
0.125
1001
ACAD_MLEADERVER
1070
     2
  0
MLINESTYLE
  5
18
102
{ACAD_REACTORS
330
17
102
}
330
17
100
AcDbMlineStyle
  2
STANDARD
 70
     0
  3

 62
   256
 51
90.0
 52
90.0
 71
     2
 49
0.5
 62
   256
  6
BYLAYER
 49
-0.5
 62
   256
  6
BYLAYER
  0
ACDBPLACEHOLDER
  5
F
102
{ACAD_REACTORS
330
E
102
}
330
E
  0
SCALE
  5
48
102
{ACAD_REACTORS
330
47
102
}
330
47
100
AcDbScale
 70
     0
300
1:1
140
1.0
141
1.0
290
     1
  0
SCALE
  5
49
102
{ACAD_REACTORS
330
47
102
}
330
47
100
AcDbScale
 70
     0
300
1:2
140
1.0
141
2.0
290
     0
  0
SCALE
  5
4A
102
{ACAD_REACTORS
330
47
102
}
330
47
100
AcDbScale
 70
     0
300
1:4
140
1.0
141
4.0
290
     0
  0
SCALE
  5
4B
102
{ACAD_REACTORS
330
47
102
}
330
47
100
AcDbScale
 70
     0
300
1:5
140
1.0
141
5.0
290
     0
  0
SCALE
  5
4C
102
{ACAD_REACTORS
330
47
102
}
330
47
100
AcDbScale
 70
     0
300
1:8
140
1.0
141
8.0
290
     0
  0
SCALE
  5
4D
102
{ACAD_REACTORS
330
47
102
}
330
47
100
AcDbScale
 70
     0
300
1:10
140
1.0
141
10.0
290
     0
  0
SCALE
  5
4E
102
{ACAD_REACTORS
330
47
102
}
330
47
100
AcDbScale
 70
     0
300
1:16
140
1.0
141
16.0
290
     0
  0
SCALE
  5
4F
102
{ACAD_REACTORS
330
47
102
}
330
47
100
AcDbScale
 70
     0
300
1:20
140
1.0
141
20.0
290
     0
  0
SCALE
  5
50
102
{ACAD_REACTORS
330
47
102
}
330
47
100
AcDbScale
 70
     0
300
1:30
140
1.0
141
30.0
290
     0
  0
SCALE
  5
51
102
{ACAD_REACTORS
330
47
102
}
330
47
100
AcDbScale
 70
     0
300
1:40
140
1.0
141
40.0
290
     0
  0
SCALE
  5
52
102
{ACAD_REACTORS
330
47
102
}
330
47
100
AcDbScale
 70
     0
300
1:50
140
1.0
141
50.0
290
     0
  0
SCALE
  5
53
102
{ACAD_REACTORS
330
47
102
}
330
47
100
AcDbScale
 70
     0
300
1:100
140
1.0
141
100.0
290
     0
  0
SCALE
  5
54
102
{ACAD_REACTORS
330
47
102
}
330
47
100
AcDbScale
 70
     0
300
2:1
140
2.0
141
1.0
290
     0
  0
SCALE
  5
55
102
{ACAD_REACTORS
330
47
102
}
330
47
100
AcDbScale
 70
     0
300
4:1
140
4.0
141
1.0
290
     0
  0
SCALE
  5
56
102
{ACAD_REACTORS
330
47
102
}
330
47
100
AcDbScale
 70
     0
300
8:1
140
8.0
141
1.0
290
     0
  0
SCALE
  5
57
102
{ACAD_REACTORS
330
47
102
}
330
47
100
AcDbScale
 70
     0
300
10:1
140
10.0
141
1.0
290
     0
  0
SCALE
  5
58
102
{ACAD_REACTORS
330
47
102
}
330
47
100
AcDbScale
 70
     0
300
100:1
140
100.0
141
1.0
290
     0
  0
SCALE
  5
59
102
{ACAD_REACTORS
330
47
102
}
330
47
100
AcDbScale
 70
     0
300
1/128" = 1'-0"
140
0.007812
141
12.0
290
     0
  0
SCALE
  5
5A
102
{ACAD_REACTORS
330
47
102
}
330
47
100
AcDbScale
 70
     0
300
1/64" = 1'-0"
140
0.015625
141
12.0
290
     0
  0
SCALE
  5
5B
102
{ACAD_REACTORS
330
47
102
}
330
47
100
AcDbScale
 70
     0
300
1/32" = 1'-0"
140
0.03125
141
12.0
290
     0
  0
SCALE
  5
5C
102
{ACAD_REACTORS
330
47
102
}
330
47
100
AcDbScale
 70
     0
300
1/16" = 1'-0"
140
0.0625
141
12.0
290
     0
  0
SCALE
  5
5D
102
{ACAD_REACTORS
330
47
102
}
330
47
100
AcDbScale
 70
     0
300
3/32" = 1'-0"
140
0.09375
141
12.0
290
     0
  0
SCALE
  5
5E
102
{ACAD_REACTORS
330
47
102
}
330
47
100
AcDbScale
 70
     0
300
1/8" = 1'-0"
140
0.125
141
12.0
290
     0
  0
SCALE
  5
5F
102
{ACAD_REACTORS
330
47
102
}
330
47
100
AcDbScale
 70
     0
300
3/16" = 1'-0"
140
0.1875
141
12.0
290
     0
  0
SCALE
  5
60
102
{ACAD_REACTORS
330
47
102
}
330
47
100
AcDbScale
 70
     0
300
1/4" = 1'-0"
140
0.25
141
12.0
290
     0
  0
SCALE
  5
61
102
{ACAD_REACTORS
330
47
102
}
330
47
100
AcDbScale
 70
     0
300
3/8" = 1'-0"
140
0.375
141
12.0
290
     0
  0
SCALE
  5
62
102
{ACAD_REACTORS
330
47
102
}
330
47
100
AcDbScale
 70
     0
300
1/2" = 1'-0"
140
0.5
141
12.0
290
     0
  0
SCALE
  5
63
102
{ACAD_REACTORS
330
47
102
}
330
47
100
AcDbScale
 70
     0
300
3/4" = 1'-0"
140
0.75
141
12.0
290
     0
  0
SCALE
  5
64
102
{ACAD_REACTORS
330
47
102
}
330
47
100
AcDbScale
 70
     0
300
1" = 1'-0"
140
1.0
141
12.0
290
     0
  0
SCALE
  5
65
102
{ACAD_REACTORS
330
47
102
}
330
47
100
AcDbScale
 70
     0
300
1-1/2" = 1'-0"
140
1.5
141
12.0
290
     0
  0
SCALE
  5
66
102
{ACAD_REACTORS
330
47
102
}
330
47
100
AcDbScale
 70
     0
300
3" = 1'-0"
140
3.0
141
12.0
290
     0
  0
SCALE
  5
67
102
{ACAD_REACTORS
330
47
102
}
330
47
100
AcDbScale
 70
     0
300
6" = 1'-0"
140
6.0
141
12.0
290
     0
  0
SCALE
  5
68
102
{ACAD_REACTORS
330
47
102
}
330
47
100
AcDbScale
 70
     0
300
1'-0" = 1'-0"
140
12.0
141
12.0
290
     0
  0
ACDBSECTIONVIEWSTYLE
  5
2EF
102
{ACAD_XDICTIONARY
360
38B
102
}
102
{ACAD_REACTORS
330
2EB
102
}
330
2EB
100
AcDbModelDocViewStyle
 70
     0
  3
Metric50
290
     0
100
AcDbSectionViewStyle
 70
     0
 71
     0
 90
      102
 71
     1
340
11
 62
   256
 40
5.0
340
0
340
0
 62
   256
 40
5.0
300
I, O, Q, S, X, Z
 40
10.0
 90
        0
 40
2.5
 90
        0
 71
     2
340
16
 90
       25
 62
   256
340
16
 90
       50
 62
   256
 40
5.0
 40
2.5
 40
5.0
 71
     3
340
11
 62
   256
 40
5.0
 90
        0
 40
15.0
 90
        1
300
%<\AcVar ViewSectionStartId>%-%<\AcVar ViewSectionEndId>% (%<\AcVar ViewScale \f "%sn">%)
 71
     4
 62
   256
 62
   257
300
ANSI31
 40
1.0
 90
        0
290
     0
290
     0
 90
        6
 40
0.0
 40
1.570796326794896
 40
0.2617993877991494
 40
1.308996938995747
 40
-0.2617993877991494
 40
1.832595714594046
  0
TABLESTYLE
  5
6A
102
{ACAD_XDICTIONARY
360
2E1
102
}
102
{ACAD_REACTORS
330
69
102
}
330
69
100
AcDbTableStyle
  3
Standard
 70
     0
 71
     0
 40
0.06
 41
0.06
280
     0
281
     0
  7
Standard
140
0.18
170
     2
 62
     0
 63
     7
283
     0
274
    -2
284
     1
 64
     0
275
    -2
285
     1
 65
     0
276
    -2
286
     1
 66
     0
277
    -2
287
     1
 67
     0
278
    -2
288
     1
 68
     0
279
    -2
289
     1
 69
     0
  7
Standard
140
0.25
170
     5
 62
     0
 63
     7
283
     0
274
    -2
284
     1
 64
     0
275
    -2
285
     1
 65
     0
276
    -2
286
     1
 66
     0
277
    -2
287
     1
 67
     0
278
    -2
288
     1
 68
     0
279
    -2
289
     1
 69
     0
  7
Standard
140
0.18
170
     5
 62
     0
 63
     7
283
     0
274
    -2
284
     1
 64
     0
275
    -2
285
     1
 65
     0
276
    -2
286
     1
 66
     0
277
    -2
287
     1
 67
     0
278
    -2
288
     1
 68
     0
279
    -2
289
     1
 69
     0
  0
VISUALSTYLE
  5
2F
102
{ACAD_XDICTIONARY
360
362
102
}
102
{ACAD_REACTORS
330
2A
102
}
330
2A
100
AcDbVisualStyle
  2

 70
     4
 71
     0
 72
     2
 73
     0
 90
        0
 40
-0.6
 41
-30.0
 62
     5
 63
     7
421
 16777215
 74
     1
 91
        4
 64
     7
 65
   257
 75
     1
175
     1
 42
1.0
 92
        0
 66
   257
 43
1.0
 76
     1
 77
     6
 78
     2
 67
     7
 79
     5
170
     0
171
     0
290
     0
174
     0
 93
        1
 44
0.0
173
     0
291
     0
 45
0.0
1001
ACAD
1000
AcDbSavedByObjectVersion
1070
     0
  0
VISUALSTYLE
  5
32
102
{ACAD_XDICTIONARY
360
368
102
}
102
{ACAD_REACTORS
330
2A
102
}
330
2A
100
AcDbVisualStyle
  2

 70
     7
 71
     1
 72
     0
 73
     1
 90
        0
 40
-0.6
 41
-30.0
 62
     5
 63
     7
421
 16777215
 74
     0
 91
        4
 64
     7
 65
   257
 75
     1
175
     1
 42
1.0
 92
        8
 66
     7
 43
1.0
 76
     1
 77
     6
 78
     2
 67
     7
 79
     5
170
     0
171
     0
290
     0
174
     0
 93
        1
 44
0.0
173
     0
291
     1
 45
0.0
1001
ACAD
1000
AcDbSavedByObjectVersion
1070
     0
  0
VISUALSTYLE
  5
36
102
{ACAD_XDICTIONARY
360
370
102
}
102
{ACAD_REACTORS
330
2A
102
}
330
2A
100
AcDbVisualStyle
  2

 70
    12
 71
     2
 72
     2
 73
     0
 90
        0
 40
-0.6
 41
-30.0
 62
     5
 63
     7
421
 16777215
 74
     1
 91
        4
 64
     7
 65
   257
 75
     1
175
     1
 42
1.0
 92
        8
 66
     7
 43
1.0
 76
     1
 77
     6
 78
     2
 67
     7
 79
     5
170
     0
171
     0
290
     0
174
     0
 93
        1
 44
50.0
173
     0
291
     1
 45
0.0
1001
ACAD
1000
AcDbSavedByObjectVersion
1070
     0
  0
VISUALSTYLE
  5
3A
102
{ACAD_XDICTIONARY
360
378
102
}
102
{ACAD_REACTORS
330
2A
102
}
330
2A
100
AcDbVisualStyle
  2

 70
    16
 71
     2
 72
     2
 73
     3
 90
        0
 40
-0.6
 41
-30.0
 62
     5
 63
     8
421
  8421504
 74
     1
 91
        4
 64
     7
 65
   257
 75
     1
175
     1
 42
1.0
 92
        8
 66
     8
424
  8421504
 43
1.0
 76
     1
 77
     6
 78
     2
 67
     7
 79
     5
170
     0
171
     0
290
     0
174
     0
 93
        1
 44
0.0
173
     0
291
     1
 45
0.0
1001
ACAD
1000
AcDbSavedByObjectVersion
1070
     0
  0
VISUALSTYLE
  5
34
102
{ACAD_XDICTIONARY
360
36C
102
}
102
{ACAD_REACTORS
330
2A
102
}
330
2A
100
AcDbVisualStyle
  2

 70
     9
 71
     3
 72
     2
 73
     0
 90
        0
 40
-0.6
 41
-30.0
 62
     5
 63
     7
421
 16777215
 74
     2
 91
        2
 64
     7
 65
   257
 75
     1
175
     1
 42
179.0
 92
        8
 66
     7
 43
1.0
 76
     1
 77
     6
 78
     2
 67
     7
 79
     3
170
     0
171
     0
290
     0
174
     0
 93
        1
 44
0.0
173
     0
291
     0
 45
0.0
1001
ACAD
1000
AcDbSavedByObjectVersion
1070
     0
  0
VISUALSTYLE
  5
35
102
{ACAD_XDICTIONARY
360
36E
102
}
102
{ACAD_REACTORS
330
2A
102
}
330
2A
100
AcDbVisualStyle
  2

 70
    11
 71
     2
 72
     2
 73
     0
 90
        0
 40
-0.6
 41
-30.0
 62
     5
 63
     7
421
 16777215
 74
     1
 91
        4
 64
     7
 65
   257
 75
     1
175
     1
 42
1.0
 92
        8
 66
     7
 43
1.0
 76
     1
 77
     6
 78
     2
 67
     7
 79
     5
170
     0
171
     0
290
     0
174
     0
 93
        1
 44
-50.0
173
     0
291
     1
 45
0.0
1001
ACAD
1000
AcDbSavedByObjectVersion
1070
     0
  0
VISUALSTYLE
  5
3D
102
{ACAD_XDICTIONARY
360
37E
102
}
102
{ACAD_REACTORS
330
2A
102
}
330
2A
100
AcDbVisualStyle
  2

 70
    22
 71
     2
 72
     2
 73
     0
 90
        0
 40
-0.6
 41
-30.0
 62
     5
 63
     7
421
 16777215
 74
     1
 91
        4
 64
     7
 65
   257
 75
     1
175
     1
 42
1.0
 92
        8
 66
     7
 43
1.0
 76
     1
 77
     6
 78
     2
 67
     7
 79
     5
170
     0
171
     0
290
     0
174
     0
 93
        1
 44
0.0
173
     0
291
     1
 45
0.0
1001
ACAD
1000
AcDbSavedByObjectVersion
1070
     0
  0
VISUALSTYLE
  5
39
102
{ACAD_XDICTIONARY
360
376
102
}
102
{ACAD_REACTORS
330
2A
102
}
330
2A
100
AcDbVisualStyle
  2

 70
    15
 71
     2
 72
     2
 73
     0
 90
        0
 40
-0.6
 41
-30.0
 62
     5
 63
     7
421
 16777215
 74
     1
 91
        4
 64
     7
 65
   257
 75
     1
175
     1
 42
1.0
 92
        8
 66
     7
 43
1.0
 76
     1
 77
     6
 78
     2
 67
     7
 79
     5
170
     0
171
     0
290
     0
174
     0
 93
        1
 44
0.0
173
     0
291
     1
 45
0.0
1001
ACAD
1000
AcDbSavedByObjectVersion
1070
     0
  0
VISUALSTYLE
  5
2B
102
{ACAD_XDICTIONARY
360
35A
102
}
102
{ACAD_REACTORS
330
2A
102
}
330
2A
100
AcDbVisualStyle
  2

 70
     0
 71
     2
 72
     1
 73
     1
 90
        2
 40
-0.6
 41
30.0
 62
     5
 63
     7
421
 16777215
 74
     0
 91
        0
 64
     7
 65
   257
 75
     1
175
     1
 42
1.0
 92
        8
 66
     7
 43
1.0
 76
     1
 77
     6
 78
     2
 67
     7
 79
     5
170
     0
171
     0
290
     0
174
     0
 93
       13
 44
0.0
173
     0
291
     1
 45
0.0
1001
ACAD
1000
AcDbSavedByObjectVersion
1070
     0
  0
VISUALSTYLE
  5
2C
102
{ACAD_XDICTIONARY
360
35C
102
}
102
{ACAD_REACTORS
330
2A
102
}
330
2A
100
AcDbVisualStyle
  2

 70
     1
 71
     2
 72
     1
 73
     1
 90
        2
 40
-0.6
 41
30.0
 62
     5
 63
     7
421
 16777215
 74
     1
 91
        0
 64
     7
 65
   257
 75
     1
175
     1
 42
1.0
 92
        0
 66
   257
 43
1.0
 76
     1
 77
     6
 78
     2
 67
     7
 79
     5
170
     0
171
     0
290
     0
174
     0
 93
       13
 44
0.0
173
     0
291
     1
 45
0.0
1001
ACAD
1000
AcDbSavedByObjectVersion
1070
     0
  0
VISUALSTYLE
  5
2D
102
{ACAD_XDICTIONARY
360
35E
102
}
102
{ACAD_REACTORS
330
2A
102
}
330
2A
100
AcDbVisualStyle
  2

 70
     2
 71
     2
 72
     2
 73
     1
 90
        2
 40
-0.6
 41
30.0
 62
     5
 63
     7
421
 16777215
 74
     0
 91
        0
 64
     7
 65
   257
 75
     1
175
     1
 42
1.0
 92
        0
 66
     7
 43
1.0
 76
     1
 77
     6
 78
     2
 67
     7
 79
     5
170
     0
171
     0
290
     0
174
     0
 93
       13
 44
0.0
173
     0
291
     1
 45
0.0
1001
ACAD
1000
AcDbSavedByObjectVersion
1070
     0
  0
VISUALSTYLE
  5
2E
102
{ACAD_XDICTIONARY
360
360
102
}
102
{ACAD_REACTORS
330
2A
102
}
330
2A
100
AcDbVisualStyle
  2

 70
     3
 71
     2
 72
     2
 73
     1
 90
        2
 40
-0.6
 41
30.0
 62
     5
 63
     7
421
 16777215
 74
     1
 91
        0
 64
     7
 65
   257
 75
     1
175
     1
 42
1.0
 92
        0
 66
   257
 43
1.0
 76
     1
 77
     6
 78
     2
 67
     7
 79
     5
170
     0
171
     0
290
     0
174
     0
 93
       13
 44
0.0
173
     0
291
     1
 45
0.0
1001
ACAD
1000
AcDbSavedByObjectVersion
1070
     0
  0
VISUALSTYLE
  5
31
102
{ACAD_XDICTIONARY
360
366
102
}
102
{ACAD_REACTORS
330
2A
102
}
330
2A
100
AcDbVisualStyle
  2

 70
     6
 71
     1
 72
     2
 73
     2
 90
        0
 40
-0.6
 41
-30.0
 62
     5
 63
     7
421
 16777215
 74
     2
 91
        2
 64
     7
 65
   257
 75
     2
175
     1
 42
40.0
 92
        0
 66
   257
 43
1.0
 76
     1
 77
     6
 78
     2
 67
     7
 79
     3
170
     0
171
     0
290
     0
174
     0
 93
        1
 44
0.0
173
     0
291
     0
 45
0.0
1001
ACAD
1000
AcDbSavedByObjectVersion
1070
     0
  0
VISUALSTYLE
  5
3B
102
{ACAD_XDICTIONARY
360
37A
102
}
102
{ACAD_REACTORS
330
2A
102
}
330
2A
100
AcDbVisualStyle
  2

 70
    20
 71
     2
 72
     2
 73
     0
 90
        0
 40
-0.6
 41
-30.0
 62
     5
 63
     7
421
 16777215
 74
     1
 91
        4
 64
     7
 65
   257
 75
     1
175
     1
 42
1.0
 92
       10
 66
     7
 43
1.0
 76
     1
 77
     6
 78
     2
 67
     7
 79
     5
170
     0
171
     0
290
     0
174
     0
 93
        1
 44
0.0
173
     0
291
     1
 45
0.0
1001
ACAD
1000
AcDbSavedByObjectVersion
1070
     0
  0
VISUALSTYLE
  5
38
102
{ACAD_XDICTIONARY
360
374
102
}
102
{ACAD_REACTORS
330
2A
102
}
330
2A
100
AcDbVisualStyle
  2

 70
    14
 71
     2
 72
     2
 73
     0
 90
        0
 40
-0.6
 41
-30.0
 62
     5
 63
     7
421
 16777215
 74
     1
 91
        4
 64
     7
 65
   257
 75
     7
175
     7
 42
1.0
 92
        8
 66
     7
 43
1.0
 76
     1
 77
     6
 78
     2
 67
     7
 79
     5
170
     0
171
     0
290
     0
174
     0
 93
        1
 44
0.0
173
     0
291
     1
 45
0.0
1001
ACAD
1000
AcDbSavedByObjectVersion
1070
     0
  0
VISUALSTYLE
  5
3C
102
{ACAD_XDICTIONARY
360
37C
102
}
102
{ACAD_REACTORS
330
2A
102
}
330
2A
100
AcDbVisualStyle
  2

 70
    21
 71
     2
 72
     2
 73
     0
 90
        0
 40
-0.6
 41
-30.0
 62
     5
 63
     7
421
 16777215
 74
     1
 91
        4
 64
     7
 65
   257
 75
     1
175
     1
 42
1.0
 92
        9
 66
     7
 43
1.0
 76
     1
 77
     6
 78
     2
 67
     7
 79
     5
170
     0
171
     0
290
     0
174
     0
 93
        1
 44
0.0
173
     0
291
     1
 45
0.0
1001
ACAD
1000
AcDbSavedByObjectVersion
1070
     0
  0
VISUALSTYLE
  5
33
102
{ACAD_XDICTIONARY
360
36A
102
}
102
{ACAD_REACTORS
330
2A
102
}
330
2A
100
AcDbVisualStyle
  2

 70
     8
 71
     2
 72
     3
 73
     0
 90
        2
 40
-0.6
 41
30.0
 62
     5
 63
     7
421
 16777215
 74
     0
 91
        0
 64
     7
 65
   257
 75
     1
175
     1
 42
1.0
 92
        8
 66
   257
 43
1.0
 76
     1
 77
     6
 78
     2
 67
     7
 79
     3
170
     0
171
     0
290
     0
174
     0
 93
       13
 44
0.0
173
     0
291
     0
 45
0.0
1001
ACAD
1000
AcDbSavedByObjectVersion
1070
     0
  0
VISUALSTYLE
  5
42
102
{ACAD_XDICTIONARY
360
388
102
}
102
{ACAD_REACTORS
330
2A
102
}
330
2A
100
AcDbVisualStyle
  2

 70
    27
 71
     2
 72
     2
 73
     1
 90
        2
 40
-0.6
 41
30.0
 62
     5
 63
     7
421
 16777215
 74
     0
 91
        4
 64
     7
 65
   257
 75
     1
175
     1
 42
1.0
 92
        8
 66
   257
 43
1.0
 76
     1
 77
     6
 78
     2
 67
     8
425
  7895160
 79
     3
170
     0
171
     0
290
     0
174
     0
 93
        5
 44
0.0
173
     0
291
     0
 45
0.0
1001
ACAD
1000
AcDbSavedByObjectVersion
1070
     0
  0
VISUALSTYLE
  5
41
102
{ACAD_XDICTIONARY
360
386
102
}
102
{ACAD_REACTORS
330
2A
102
}
330
2A
100
AcDbVisualStyle
  2

 70
    26
 71
     2
 72
     2
 73
     1
 90
        2
 40
-0.6
 41
30.0
 62
     5
 63
     7
421
 16777215
 74
     1
 91
       10
 64
     7
 65
   257
 75
     2
175
     1
 42
1.0
 92
        8
 66
   257
 43
1.0
 76
     1
 77
     6
 78
     2
 67
     7
 79
     3
170
     0
171
     0
290
     0
174
     0
 93
        5
 44
0.0
173
     0
291
     0
 45
0.0
1001
ACAD
1000
AcDbSavedByObjectVersion
1070
     0
  0
VISUALSTYLE
  5
3E
102
{ACAD_XDICTIONARY
360
380
102
}
102
{ACAD_REACTORS
330
2A
102
}
330
2A
100
AcDbVisualStyle
  2

 70
    23
 71
     2
 72
     2
 73
     3
 90
        0
 40
-0.6
 41
-30.0
 62
     5
 63
     7
421
 16777215
 74
     2
 91
        2
 64
     7
 65
     7
 75
     1
175
     1
 42
40.0
 92
        8
 66
     7
 43
1.0
 76
     1
 77
     6
 78
     2
 67
     7
 79
     3
170
     0
171
     0
290
     0
174
     0
 93
        1
 44
0.0
173
     0
291
     0
 45
0.0
1001
ACAD
1000
AcDbSavedByObjectVersion
1070
     0
  0
VISUALSTYLE
  5
3F
102
{ACAD_XDICTIONARY
360
382
102
}
102
{ACAD_REACTORS
330
2A
102
}
330
2A
100
AcDbVisualStyle
  2

 70
    24
 71
     1
 72
     2
 73
     2
 90
        0
 40
-0.6
 41
-30.0
 62
     5
 63
     7
421
 16777215
 74
     2
 91
        2
 64
     7
 65
     7
 75
     1
175
     1
 42
40.0
 92
       11
 66
     7
 43
1.0
 76
     1
 77
     6
 78
     2
 67
     7
 79
     6
170
     0
171
     0
290
     0
174
     0
 93
        1
 44
0.0
173
     0
291
     0
 45
0.0
1001
ACAD
1000
AcDbSavedByObjectVersion
1070
     0
  0
VISUALSTYLE
  5
37
102
{ACAD_XDICTIONARY
360
372
102
}
102
{ACAD_REACTORS
330
2A
102
}
330
2A
100
AcDbVisualStyle
  2

 70
    13
 71
     2
 72
     2
 73
     0
 90
        0
 40
-0.6
 41
-30.0
 62
     5
 63
     7
421
 16777215
 74
     1
 91
        4
 64
     7
 65
   257
 75
     1
175
     1
 42
1.0
 92
       12
 66
     7
 43
1.0
 76
     1
 77
     6
 78
     2
 67
     7
 79
     5
170
     0
171
     0
290
     0
174
     0
 93
        1
 44
0.0
173
     0
291
     1
 45
0.0
1001
ACAD
1000
AcDbSavedByObjectVersion
1070
     0
  0
VISUALSTYLE
  5
30
102
{ACAD_XDICTIONARY
360
364
102
}
102
{ACAD_REACTORS
330
2A
102
}
330
2A
100
AcDbVisualStyle
  2

 70
     5
 71
     0
 72
     2
 73
     0
 90
        0
 40
-0.6
 41
-30.0
 62
     5
 63
     7
421
 16777215
 74
     1
 91
        4
 64
     7
 65
   257
 75
     1
175
     1
 42
1.0
 92
        0
 66
   257
 43
1.0
 76
     1
 77
     6
 78
     2
 67
     7
 79
     3
170
     0
171
     0
290
     0
174
     0
 93
        1
 44
0.0
173
     0
291
     0
 45
0.0
1001
ACAD
1000
AcDbSavedByObjectVersion
1070
     0
  0
VISUALSTYLE
  5
40
102
{ACAD_XDICTIONARY
360
384
102
}
102
{ACAD_REACTORS
330
2A
102
}
330
2A
100
AcDbVisualStyle
  2

 70
    25
 71
     2
 72
     2
 73
     1
 90
        1
 40
0.5
 41
-30.0
 62
     5
 63
     7
421
 16777215
 74
     1
 91
        0
 64
     7
 65
   257
 75
     1
175
     1
 42
1.0
 92
        8
 66
     7
 43
1.0
 76
     1
 77
     6
 78
     2
 67
     7
 79
     3
170
     0
171
     0
290
     0
174
     0
 93
       13
 44
0.0
173
     0
291
     0
 45
0.0
1001
ACAD
1000
AcDbSavedByObjectVersion
1070
     0
  0
DICTIONARYVAR
  5
2A8
102
{ACAD_REACTORS
330
2A7
102
}
330
2A7
100
DictionaryVariables
280
     0
  1
1:1
  0
DICTIONARYVAR
  5
2E9
102
{ACAD_REACTORS
330
2A7
102
}
330
2A7
100
DictionaryVariables
280
     0
  1
STANDARD
  0
DICTIONARYVAR
  5
2E8
102
{ACAD_REACTORS
330
2A7
102
}
330
2A7
100
DictionaryVariables
280
     0
  1
STANDARD
  0
DICTIONARYVAR
  5
354
102
{ACAD_REACTORS
330
2A7
102
}
330
2A7
100
DictionaryVariables
280
     0
  1
Metric50
  0
DICTIONARYVAR
  5
355
102
{ACAD_REACTORS
330
2A7
102
}
330
2A7
100
DictionaryVariables
280
     0
  1
Metric50
  0
DICTIONARYVAR
  5
2A9
102
{ACAD_REACTORS
330
2A7
102
}
330
2A7
100
DictionaryVariables
280
     0
  1
1
  0
DICTIONARYVAR
  5
356
102
{ACAD_REACTORS
330
2A7
102
}
330
2A7
100
DictionaryVariables
280
     0
  1
2
  0
DICTIONARY
  5
38D
330
2F0
100
AcDbDictionary
280
     1
281
     1
  3
ACAD_XREC_ROUNDTRIP
360
38E
  0
DICTIONARY
  5
2DD
330
45
100
AcDbDictionary
280
     1
281
     1
  3
ACAD_XREC_ROUNDTRIP
360
2DE
  0
DICTIONARY
  5
2DB
330
44
100
AcDbDictionary
280
     1
281
     1
  3
ACAD_XREC_ROUNDTRIP
360
2DC
  0
DICTIONARY
  5
2DF
330
46
100
AcDbDictionary
280
     1
281
     1
  3
ACAD_XREC_ROUNDTRIP
360
2E0
  0
DICTIONARY
  5
38B
330
2EF
100
AcDbDictionary
280
     1
281
     1
  3
ACAD_XREC_ROUNDTRIP
360
38C
  0
DICTIONARY
  5
2E1
330
6A
100
AcDbDictionary
280
     1
281
     1
  3
ACAD_ROUNDTRIP_2008_TABLESTYLE_CELLSTYLEMAP
360
358
  3
ACAD_XREC_ROUNDTRIP
360
38A
  0
DICTIONARY
  5
362
330
2F
100
AcDbDictionary
280
     1
281
     1
  3
ACAD_XREC_ROUNDTRIP
360
363
  0
DICTIONARY
  5
368
330
32
100
AcDbDictionary
280
     1
281
     1
  3
ACAD_XREC_ROUNDTRIP
360
369
  0
DICTIONARY
  5
370
330
36
100
AcDbDictionary
280
     1
281
     1
  3
ACAD_XREC_ROUNDTRIP
360
371
  0
DICTIONARY
  5
378
330
3A
100
AcDbDictionary
280
     1
281
     1
  3
ACAD_XREC_ROUNDTRIP
360
379
  0
DICTIONARY
  5
36C
330
34
100
AcDbDictionary
280
     1
281
     1
  3
ACAD_XREC_ROUNDTRIP
360
36D
  0
DICTIONARY
  5
36E
330
35
100
AcDbDictionary
280
     1
281
     1
  3
ACAD_XREC_ROUNDTRIP
360
36F
  0
DICTIONARY
  5
37E
330
3D
100
AcDbDictionary
280
     1
281
     1
  3
ACAD_XREC_ROUNDTRIP
360
37F
  0
DICTIONARY
  5
376
330
39
100
AcDbDictionary
280
     1
281
     1
  3
ACAD_XREC_ROUNDTRIP
360
377
  0
DICTIONARY
  5
35A
330
2B
100
AcDbDictionary
280
     1
281
     1
  3
ACAD_XREC_ROUNDTRIP
360
35B
  0
DICTIONARY
  5
35C
330
2C
100
AcDbDictionary
280
     1
281
     1
  3
ACAD_XREC_ROUNDTRIP
360
35D
  0
DICTIONARY
  5
35E
330
2D
100
AcDbDictionary
280
     1
281
     1
  3
ACAD_XREC_ROUNDTRIP
360
35F
  0
DICTIONARY
  5
360
330
2E
100
AcDbDictionary
280
     1
281
     1
  3
ACAD_XREC_ROUNDTRIP
360
361
  0
DICTIONARY
  5
366
330
31
100
AcDbDictionary
280
     1
281
     1
  3
ACAD_XREC_ROUNDTRIP
360
367
  0
DICTIONARY
  5
37A
330
3B
100
AcDbDictionary
280
     1
281
     1
  3
ACAD_XREC_ROUNDTRIP
360
37B
  0
DICTIONARY
  5
374
330
38
100
AcDbDictionary
280
     1
281
     1
  3
ACAD_XREC_ROUNDTRIP
360
375
  0
DICTIONARY
  5
37C
330
3C
100
AcDbDictionary
280
     1
281
     1
  3
ACAD_XREC_ROUNDTRIP
360
37D
  0
DICTIONARY
  5
36A
330
33
100
AcDbDictionary
280
     1
281
     1
  3
ACAD_XREC_ROUNDTRIP
360
36B
  0
DICTIONARY
  5
388
330
42
100
AcDbDictionary
280
     1
281
     1
  3
ACAD_XREC_ROUNDTRIP
360
389
  0
DICTIONARY
  5
386
330
41
100
AcDbDictionary
280
     1
281
     1
  3
ACAD_XREC_ROUNDTRIP
360
387
  0
DICTIONARY
  5
380
330
3E
100
AcDbDictionary
280
     1
281
     1
  3
ACAD_XREC_ROUNDTRIP
360
381
  0
DICTIONARY
  5
382
330
3F
100
AcDbDictionary
280
     1
281
     1
  3
ACAD_XREC_ROUNDTRIP
360
383
  0
DICTIONARY
  5
372
330
37
100
AcDbDictionary
280
     1
281
     1
  3
ACAD_XREC_ROUNDTRIP
360
373
  0
DICTIONARY
  5
364
330
30
100
AcDbDictionary
280
     1
281
     1
  3
ACAD_XREC_ROUNDTRIP
360
365
  0
DICTIONARY
  5
384
330
40
100
AcDbDictionary
280
     1
281
     1
  3
ACAD_XREC_ROUNDTRIP
360
385
  0
XRECORD
  5
38E
102
{ACAD_REACTORS
330
38D
102
}
330
38D
100
AcDbXrecord
280
     1
102
DISPLAYNAME
  1
Metric50
102
FLAGS
 90
        0
  0
XRECORD
  5
2DE
102
{ACAD_REACTORS
330
2DD
102
}
330
2DD
100
AcDbXrecord
280
     1
102
MATERIAL
148
0.0
149
0.0
149
0.0
 93
        0
 94
      127
282
     0
 72
     1
 77
     1
171
     1
175
     1
179
     1
273
     0
  0
XRECORD
  5
2DC
102
{ACAD_REACTORS
330
2DB
102
}
330
2DB
100
AcDbXrecord
280
     1
102
MATERIAL
148
0.0
149
0.0
149
0.0
 93
        0
 94
      127
282
     0
 72
     1
 77
     1
171
     1
175
     1
179
     1
273
     0
  0
XRECORD
  5
2E0
102
{ACAD_REACTORS
330
2DF
102
}
330
2DF
100
AcDbXrecord
280
     1
102
MATERIAL
148
0.0
149
0.0
149
0.0
 93
        0
 94
      127
282
     0
 72
     1
 77
     1
171
     1
175
     1
179
     1
273
     0
  0
XRECORD
  5
38C
102
{ACAD_REACTORS
330
38B
102
}
330
38B
100
AcDbXrecord
280
     1
102
DISPLAYNAME
  1
Metric50
102
FLAGS
 90
        0
  0
CELLSTYLEMAP
  5
358
102
{ACAD_REACTORS
330
2E1
102
}
330
2E1
100
AcDbCellStyleMap
 90
        3
300
CELLSTYLE
  1
TABLEFORMAT_BEGIN
 90
        5
170
     1
 91
        0
 92
    32768
 62
   257
 93
        1
300
CONTENTFORMAT
  1
CONTENTFORMAT_BEGIN
 90
        0
 91
        0
 92
        4
 93
        0
300

 40
0.0
140
1.0
 94
        5
 62
     0
340
11
144
0.25
309
CONTENTFORMAT_END
171
     1
301
MARGIN
  1
CELLMARGIN_BEGIN
 40
0.06
 40
0.06
 40
0.06
 40
0.06
 40
0.18
 40
0.18
309
CELLMARGIN_END
 94
        6
 95
        1
302
GRIDFORMAT
  1
GRIDFORMAT_BEGIN
 90
        0
 91
        1
 62
     0
 92
       -2
340
14
 93
        0
 40
0.045
309
GRIDFORMAT_END
 95
        2
302
GRIDFORMAT
  1
GRIDFORMAT_BEGIN
 90
        0
 91
        1
 62
     0
 92
       -2
340
14
 93
        0
 40
0.045
309
GRIDFORMAT_END
 95
        4
302
GRIDFORMAT
  1
GRIDFORMAT_BEGIN
 90
        0
 91
        1
 62
     0
 92
       -2
340
14
 93
        0
 40
0.045
309
GRIDFORMAT_END
 95
        8
302
GRIDFORMAT
  1
GRIDFORMAT_BEGIN
 90
        0
 91
        1
 62
     0
 92
       -2
340
14
 93
        0
 40
0.045
309
GRIDFORMAT_END
 95
       16
302
GRIDFORMAT
  1
GRIDFORMAT_BEGIN
 90
        0
 91
        1
 62
     0
 92
       -2
340
14
 93
        0
 40
0.045
309
GRIDFORMAT_END
 95
       32
302
GRIDFORMAT
  1
GRIDFORMAT_BEGIN
 90
        0
 91
        1
 62
     0
 92
       -2
340
14
 93
        0
 40
0.045
309
GRIDFORMAT_END
309
TABLEFORMAT_END
  1
CELLSTYLE_BEGIN
 90
        1
 91
        1
300
_TITLE
309
CELLSTYLE_END
300
CELLSTYLE
  1
TABLEFORMAT_BEGIN
 90
        5
170
     1
 91
        0
 92
        0
 62
   257
 93
        1
300
CONTENTFORMAT
  1
CONTENTFORMAT_BEGIN
 90
        0
 91
        0
 92
        4
 93
        0
300

 40
0.0
140
1.0
 94
        5
 62
     0
340
11
144
0.18
309
CONTENTFORMAT_END
171
     1
301
MARGIN
  1
CELLMARGIN_BEGIN
 40
0.06
 40
0.06
 40
0.06
 40
0.06
 40
0.18
 40
0.18
309
CELLMARGIN_END
 94
        6
 95
        1
302
GRIDFORMAT
  1
GRIDFORMAT_BEGIN
 90
        0
 91
        1
 62
     0
 92
       -2
340
14
 93
        0
 40
0.045
309
GRIDFORMAT_END
 95
        2
302
GRIDFORMAT
  1
GRIDFORMAT_BEGIN
 90
        0
 91
        1
 62
     0
 92
       -2
340
14
 93
        0
 40
0.045
309
GRIDFORMAT_END
 95
        4
302
GRIDFORMAT
  1
GRIDFORMAT_BEGIN
 90
        0
 91
        1
 62
     0
 92
       -2
340
14
 93
        0
 40
0.045
309
GRIDFORMAT_END
 95
        8
302
GRIDFORMAT
  1
GRIDFORMAT_BEGIN
 90
        0
 91
        1
 62
     0
 92
       -2
340
14
 93
        0
 40
0.045
309
GRIDFORMAT_END
 95
       16
302
GRIDFORMAT
  1
GRIDFORMAT_BEGIN
 90
        0
 91
        1
 62
     0
 92
       -2
340
14
 93
        0
 40
0.045
309
GRIDFORMAT_END
 95
       32
302
GRIDFORMAT
  1
GRIDFORMAT_BEGIN
 90
        0
 91
        1
 62
     0
 92
       -2
340
14
 93
        0
 40
0.045
309
GRIDFORMAT_END
309
TABLEFORMAT_END
  1
CELLSTYLE_BEGIN
 90
        2
 91
        1
300
_HEADER
309
CELLSTYLE_END
300
CELLSTYLE
  1
TABLEFORMAT_BEGIN
 90
        5
170
     1
 91
        0
 92
        0
 62
   257
 93
        1
300
CONTENTFORMAT
  1
CONTENTFORMAT_BEGIN
 90
        0
 91
        0
 92
        4
 93
        0
300

 40
0.0
140
1.0
 94
        2
 62
     0
340
11
144
0.18
309
CONTENTFORMAT_END
171
     1
301
MARGIN
  1
CELLMARGIN_BEGIN
 40
0.06
 40
0.06
 40
0.06
 40
0.06
 40
0.18
 40
0.18
309
CELLMARGIN_END
 94
        6
 95
        1
302
GRIDFORMAT
  1
GRIDFORMAT_BEGIN
 90
        0
 91
        1
 62
     0
 92
       -2
340
14
 93
        0
 40
0.045
309
GRIDFORMAT_END
 95
        2
302
GRIDFORMAT
  1
GRIDFORMAT_BEGIN
 90
        0
 91
        1
 62
     0
 92
       -2
340
14
 93
        0
 40
0.045
309
GRIDFORMAT_END
 95
        4
302
GRIDFORMAT
  1
GRIDFORMAT_BEGIN
 90
        0
 91
        1
 62
     0
 92
       -2
340
14
 93
        0
 40
0.045
309
GRIDFORMAT_END
 95
        8
302
GRIDFORMAT
  1
GRIDFORMAT_BEGIN
 90
        0
 91
        1
 62
     0
 92
       -2
340
14
 93
        0
 40
0.045
309
GRIDFORMAT_END
 95
       16
302
GRIDFORMAT
  1
GRIDFORMAT_BEGIN
 90
        0
 91
        1
 62
     0
 92
       -2
340
14
 93
        0
 40
0.045
309
GRIDFORMAT_END
 95
       32
302
GRIDFORMAT
  1
GRIDFORMAT_BEGIN
 90
        0
 91
        1
 62
     0
 92
       -2
340
14
 93
        0
 40
0.045
309
GRIDFORMAT_END
309
TABLEFORMAT_END
  1
CELLSTYLE_BEGIN
 90
        3
 91
        2
300
_DATA
309
CELLSTYLE_END
  0
XRECORD
  5
38A
102
{ACAD_REACTORS
330
2E1
102
}
330
2E1
100
AcDbXrecord
280
     1
102
ACAD_ROUNDTRIP_PRE2007_TABLESTYLE
 90
        4
 91
        0
  1

 92
        4
 93
        0
  2

 94
        4
 95
        0
  3

  0
XRECORD
  5
363
102
{ACAD_REACTORS
330
362
102
}
330
362
100
AcDbXrecord
280
     1
102
RTVSPost2010Prop28
280
     1
102
RTVSPost2010PropOp28
 70
     1
102
RTVSPost2010Prop29
280
     1
102
RTVSPost2010PropOp29
 70
     1
102
RTVSPost2010Prop30
280
     0
102
RTVSPost2010PropOp30
 70
     1
102
RTVSPost2010Prop31
280
     0
102
RTVSPost2010PropOp31
 70
     1
102
RTVSPost2010Prop32
280
     0
102
RTVSPost2010PropOp32
 70
     1
102
RTVSPost2010Prop33
280
     0
102
RTVSPost2010PropOp33
 70
     1
102
RTVSPost2010Prop34
280
     0
102
RTVSPost2010PropOp34
 70
     1
102
RTVSPost2010Prop35
280
     0
102
RTVSPost2010PropOp35
 70
     1
102
RTVSPost2010Prop36
280
     0
102
RTVSPost2010PropOp36
 70
     1
102
RTVSPost2010Prop37
 90
       50
102
RTVSPost2010PropOp37
 70
     1
102
RTVSPost2010Prop38
140
0.0
102
RTVSPost2010PropOp38
 70
     1
102
RTVSPost2010Prop39
140
1.0
102
RTVSPost2010PropOp39
 70
     1
102
RTVSPost2010Prop40
 90
        0
102
RTVSPost2010PropOp40
 70
     1
102
RTVSPost2010Prop41ColorIndex
 90
       18
102
RTVSPost2010Prop41ColorRGB
 90
        0
102
RTVSPost2010PropOp41
 70
     1
102
RTVSPost2010Prop42
 90
       50
102
RTVSPost2010PropOp42
 70
     1
102
RTVSPost2010Prop43
 90
        3
102
RTVSPost2010PropOp43
 70
     1
102
RTVSPost2010Prop44ColorIndex
 90
        5
102
RTVSPost2010Prop44ColorRGB
 90
      255
102
RTVSPost2010PropOp44
 70
     1
102
RTVSPost2010Prop45
280
     0
102
RTVSPost2010PropOp45
 70
     1
102
RTVSPost2010Prop46
 90
       50
102
RTVSPost2010PropOp46
 70
     1
102
RTVSPost2010Prop47
 90
       50
102
RTVSPost2010PropOp47
 70
     1
102
RTVSPost2010Prop48
 90
       50
102
RTVSPost2010PropOp48
 70
     1
102
RTVSPost2010Prop49
280
     0
102
RTVSPost2010PropOp49
 70
     1
102
RTVSPost2010Prop50
 90
       50
102
RTVSPost2010PropOp50
 70
     1
102
RTVSPost2010Prop51ColorIndex
 90
      256
102
RTVSPost2010Prop51ColorRGB
 90
-16777216
102
RTVSPost2010PropOp51
 70
     0
102
RTVSPost2010Prop52
140
1.0
102
RTVSPost2010PropOp52
 70
     0
102
RTVSPost2010Prop53
 90
        2
102
RTVSPost2010PropOp53
 70
     1
102
RTVSPost2010Prop54
  1
strokes_ogs.tif
102
RTVSPost2010PropOp54
 70
     1
102
RTVSPost2010Prop55
280
     0
102
RTVSPost2010PropOp55
 70
     1
102
RTVSPost2010Prop56
140
1.0
102
RTVSPost2010PropOp56
 70
     1
102
RTVSPost2010Prop57
140
1.0
102
RTVSPost2010PropOp57
 70
     1
102
RTVSPropertyOp0
 70
     1
102
RTVSPropertyOp1
 70
     1
102
RTVSPropertyOp2
 70
     1
102
RTVSPropertyOp3
 70
     1
102
RTVSPropertyOp4
 70
     1
102
RTVSPropertyOp5
 70
     1
102
RTVSPropertyOp6
 70
     1
102
RTVSPropertyOp7
 70
     1
102
RTVSPropertyOp8
 70
     1
102
RTVSPropertyOp9
 70
     1
102
RTVSPropertyOp10
 70
     1
102
RTVSPropertyOp11
 70
     1
102
RTVSPropertyOp12
 70
     1
102
RTVSPropertyOp13
 70
     1
102
RTVSPropertyOp14
 70
     1
102
RTVSPropertyOp15
 70
     1
102
RTVSPropertyOp16
 70
     1
102
RTVSPropertyOp17
 70
     1
102
RTVSPropertyOp18
 70
     1
102
RTVSPropertyOp19
 70
     1
102
RTVSPropertyOp20
 70
     1
102
RTVSPropertyOp21
 70
     1
102
RTVSPropertyOp22
 70
     1
102
RTVSPropertyOp23
 70
     1
102
RTVSPropertyOp24
 70
     1
102
RTVSPropertyOp25
 70
     1
102
RTVSPropertyOp26
 70
     1
102
RTVSPropertyOp27
 70
     1
102
RTVSPropertyOp28
 70
     1
102
RTVSPropertyOp29
 70
     1
102
RTVSPropertyOp30
 70
     1
102
RTVSPropertyOp31
 70
     1
102
RTVSPropertyOp32
 70
     1
102
RTVSPropertyOp33
 70
     1
102
RTVSPropertyOp34
 70
     1
102
RTVSPropertyOp35
 70
     1
102
RTVSPropertyOp36
 70
     1
102
RTVSPropertyOp37
 70
     1
102
RTVSPropertyOp38
 70
     1
102
RTVSPropertyOp39
 70
     1
102
RTVSPropertyOp40
 70
     1
102
RTVSPropertyOp41
 70
     1
102
RTVSPropertyOp42
 70
     1
102
RTVSPropertyOp43
 70
     1
102
RTVSPropertyOp44
 70
     1
102
RTVSPropertyOp45
 70
     1
102
RTVSPropertyOp46
 70
     1
102
RTVSPropertyOp47
 70
     1
102
RTVSPropertyOp48
 70
     1
102
RTVSPropertyOp49
 70
     1
102
RTVSPropertyOp50
 70
     1
102
RTVSPropertyOp51
 70
     0
102
RTVSPropertyOp52
 70
     0
102
RTVSPropertyOp53
 70
     1
102
RTVSPropertyOp54
 70
     1
102
RTVSPropertyOp55
 70
     1
102
RTVSPropertyOp56
 70
     1
102
RTVSPropertyOp57
 70
     1
102
RTVSPropertyOp58
 70
     1
102
RTVSPropertyOp59
 70
     1
102
RTVSPropertyOp60
 70
     1
102
RTVSPropertyOp61
 70
     1
102
RTVSPropertyOp62
 70
     1
  0
XRECORD
  5
369
102
{ACAD_REACTORS
330
368
102
}
330
368
100
AcDbXrecord
280
     1
102
RTVSPost2010Prop28
280
     0
102
RTVSPost2010PropOp28
 70
     1
102
RTVSPost2010Prop29
280
     1
102
RTVSPost2010PropOp29
 70
     1
102
RTVSPost2010Prop30
280
     1
102
RTVSPost2010PropOp30
 70
     1
102
RTVSPost2010Prop31
280
     0
102
RTVSPost2010PropOp31
 70
     1
102
RTVSPost2010Prop32
280
     0
102
RTVSPost2010PropOp32
 70
     1
102
RTVSPost2010Prop33
280
     0
102
RTVSPost2010PropOp33
 70
     1
102
RTVSPost2010Prop34
280
     0
102
RTVSPost2010PropOp34
 70
     1
102
RTVSPost2010Prop35
280
     0
102
RTVSPost2010PropOp35
 70
     1
102
RTVSPost2010Prop36
280
     0
102
RTVSPost2010PropOp36
 70
     1
102
RTVSPost2010Prop37
 90
       50
102
RTVSPost2010PropOp37
 70
     1
102
RTVSPost2010Prop38
140
0.0
102
RTVSPost2010PropOp38
 70
     1
102
RTVSPost2010Prop39
140
1.0
102
RTVSPost2010PropOp39
 70
     1
102
RTVSPost2010Prop40
 90
        0
102
RTVSPost2010PropOp40
 70
     1
102
RTVSPost2010Prop41ColorIndex
 90
       18
102
RTVSPost2010Prop41ColorRGB
 90
        0
102
RTVSPost2010PropOp41
 70
     1
102
RTVSPost2010Prop42
 90
       50
102
RTVSPost2010PropOp42
 70
     1
102
RTVSPost2010Prop43
 90
        3
102
RTVSPost2010PropOp43
 70
     1
102
RTVSPost2010Prop44ColorIndex
 90
        5
102
RTVSPost2010Prop44ColorRGB
 90
      255
102
RTVSPost2010PropOp44
 70
     1
102
RTVSPost2010Prop45
280
     0
102
RTVSPost2010PropOp45
 70
     1
102
RTVSPost2010Prop46
 90
       50
102
RTVSPost2010PropOp46
 70
     1
102
RTVSPost2010Prop47
 90
       50
102
RTVSPost2010PropOp47
 70
     1
102
RTVSPost2010Prop48
 90
       50
102
RTVSPost2010PropOp48
 70
     1
102
RTVSPost2010Prop49
280
     0
102
RTVSPost2010PropOp49
 70
     1
102
RTVSPost2010Prop50
 90
       50
102
RTVSPost2010PropOp50
 70
     1
102
RTVSPost2010Prop51ColorIndex
 90
      256
102
RTVSPost2010Prop51ColorRGB
 90
-16777216
102
RTVSPost2010PropOp51
 70
     0
102
RTVSPost2010Prop52
140
1.0
102
RTVSPost2010PropOp52
 70
     0
102
RTVSPost2010Prop53
 90
        2
102
RTVSPost2010PropOp53
 70
     1
102
RTVSPost2010Prop54
  1
strokes_ogs.tif
102
RTVSPost2010PropOp54
 70
     1
102
RTVSPost2010Prop55
280
     0
102
RTVSPost2010PropOp55
 70
     1
102
RTVSPost2010Prop56
140
1.0
102
RTVSPost2010PropOp56
 70
     1
102
RTVSPost2010Prop57
140
1.0
102
RTVSPost2010PropOp57
 70
     1
102
RTVSPropertyOp0
 70
     1
102
RTVSPropertyOp1
 70
     1
102
RTVSPropertyOp2
 70
     1
102
RTVSPropertyOp3
 70
     1
102
RTVSPropertyOp4
 70
     1
102
RTVSPropertyOp5
 70
     1
102
RTVSPropertyOp6
 70
     1
102
RTVSPropertyOp7
 70
     1
102
RTVSPropertyOp8
 70
     1
102
RTVSPropertyOp9
 70
     1
102
RTVSPropertyOp10
 70
     1
102
RTVSPropertyOp11
 70
     1
102
RTVSPropertyOp12
 70
     1
102
RTVSPropertyOp13
 70
     1
102
RTVSPropertyOp14
 70
     1
102
RTVSPropertyOp15
 70
     1
102
RTVSPropertyOp16
 70
     1
102
RTVSPropertyOp17
 70
     1
102
RTVSPropertyOp18
 70
     1
102
RTVSPropertyOp19
 70
     1
102
RTVSPropertyOp20
 70
     1
102
RTVSPropertyOp21
 70
     1
102
RTVSPropertyOp22
 70
     1
102
RTVSPropertyOp23
 70
     1
102
RTVSPropertyOp24
 70
     1
102
RTVSPropertyOp25
 70
     1
102
RTVSPropertyOp26
 70
     1
102
RTVSPropertyOp27
 70
     1
102
RTVSPropertyOp28
 70
     1
102
RTVSPropertyOp29
 70
     1
102
RTVSPropertyOp30
 70
     1
102
RTVSPropertyOp31
 70
     1
102
RTVSPropertyOp32
 70
     1
102
RTVSPropertyOp33
 70
     1
102
RTVSPropertyOp34
 70
     1
102
RTVSPropertyOp35
 70
     1
102
RTVSPropertyOp36
 70
     1
102
RTVSPropertyOp37
 70
     1
102
RTVSPropertyOp38
 70
     1
102
RTVSPropertyOp39
 70
     1
102
RTVSPropertyOp40
 70
     1
102
RTVSPropertyOp41
 70
     1
102
RTVSPropertyOp42
 70
     1
102
RTVSPropertyOp43
 70
     1
102
RTVSPropertyOp44
 70
     1
102
RTVSPropertyOp45
 70
     1
102
RTVSPropertyOp46
 70
     1
102
RTVSPropertyOp47
 70
     1
102
RTVSPropertyOp48
 70
     1
102
RTVSPropertyOp49
 70
     1
102
RTVSPropertyOp50
 70
     1
102
RTVSPropertyOp51
 70
     0
102
RTVSPropertyOp52
 70
     0
102
RTVSPropertyOp53
 70
     1
102
RTVSPropertyOp54
 70
     1
102
RTVSPropertyOp55
 70
     1
102
RTVSPropertyOp56
 70
     1
102
RTVSPropertyOp57
 70
     1
102
RTVSPropertyOp58
 70
     1
102
RTVSPropertyOp59
 70
     1
102
RTVSPropertyOp60
 70
     1
102
RTVSPropertyOp61
 70
     1
102
RTVSPropertyOp62
 70
     1
  0
XRECORD
  5
371
102
{ACAD_REACTORS
330
370
102
}
330
370
100
AcDbXrecord
280
     1
102
RTVSPost2010Prop28
280
     0
102
RTVSPost2010PropOp28
 70
     1
102
RTVSPost2010Prop29
280
     1
102
RTVSPost2010PropOp29
 70
     1
102
RTVSPost2010Prop30
280
     1
102
RTVSPost2010PropOp30
 70
     1
102
RTVSPost2010Prop31
280
     0
102
RTVSPost2010PropOp31
 70
     1
102
RTVSPost2010Prop32
280
     0
102
RTVSPost2010PropOp32
 70
     1
102
RTVSPost2010Prop33
280
     0
102
RTVSPost2010PropOp33
 70
     1
102
RTVSPost2010Prop34
280
     0
102
RTVSPost2010PropOp34
 70
     1
102
RTVSPost2010Prop35
280
     0
102
RTVSPost2010PropOp35
 70
     1
102
RTVSPost2010Prop36
280
     0
102
RTVSPost2010PropOp36
 70
     1
102
RTVSPost2010Prop37
 90
       50
102
RTVSPost2010PropOp37
 70
     1
102
RTVSPost2010Prop38
140
0.0
102
RTVSPost2010PropOp38
 70
     1
102
RTVSPost2010Prop39
140
1.0
102
RTVSPost2010PropOp39
 70
     1
102
RTVSPost2010Prop40
 90
        0
102
RTVSPost2010PropOp40
 70
     1
102
RTVSPost2010Prop41ColorIndex
 90
       18
102
RTVSPost2010Prop41ColorRGB
 90
        0
102
RTVSPost2010PropOp41
 70
     1
102
RTVSPost2010Prop42
 90
       50
102
RTVSPost2010PropOp42
 70
     1
102
RTVSPost2010Prop43
 90
        3
102
RTVSPost2010PropOp43
 70
     1
102
RTVSPost2010Prop44ColorIndex
 90
        5
102
RTVSPost2010Prop44ColorRGB
 90
      255
102
RTVSPost2010PropOp44
 70
     1
102
RTVSPost2010Prop45
280
     0
102
RTVSPost2010PropOp45
 70
     1
102
RTVSPost2010Prop46
 90
       50
102
RTVSPost2010PropOp46
 70
     1
102
RTVSPost2010Prop47
 90
       50
102
RTVSPost2010PropOp47
 70
     1
102
RTVSPost2010Prop48
 90
       50
102
RTVSPost2010PropOp48
 70
     1
102
RTVSPost2010Prop49
280
     0
102
RTVSPost2010PropOp49
 70
     1
102
RTVSPost2010Prop50
 90
       50
102
RTVSPost2010PropOp50
 70
     1
102
RTVSPost2010Prop51ColorIndex
 90
      256
102
RTVSPost2010Prop51ColorRGB
 90
-16777216
102
RTVSPost2010PropOp51
 70
     0
102
RTVSPost2010Prop52
140
1.0
102
RTVSPost2010PropOp52
 70
     0
102
RTVSPost2010Prop53
 90
        2
102
RTVSPost2010PropOp53
 70
     1
102
RTVSPost2010Prop54
  1
strokes_ogs.tif
102
RTVSPost2010PropOp54
 70
     1
102
RTVSPost2010Prop55
280
     0
102
RTVSPost2010PropOp55
 70
     1
102
RTVSPost2010Prop56
140
1.0
102
RTVSPost2010PropOp56
 70
     1
102
RTVSPost2010Prop57
140
1.0
102
RTVSPost2010PropOp57
 70
     1
102
RTVSPropertyOp0
 70
     1
102
RTVSPropertyOp1
 70
     1
102
RTVSPropertyOp2
 70
     1
102
RTVSPropertyOp3
 70
     1
102
RTVSPropertyOp4
 70
     1
102
RTVSPropertyOp5
 70
     1
102
RTVSPropertyOp6
 70
     1
102
RTVSPropertyOp7
 70
     1
102
RTVSPropertyOp8
 70
     1
102
RTVSPropertyOp9
 70
     1
102
RTVSPropertyOp10
 70
     1
102
RTVSPropertyOp11
 70
     1
102
RTVSPropertyOp12
 70
     1
102
RTVSPropertyOp13
 70
     1
102
RTVSPropertyOp14
 70
     1
102
RTVSPropertyOp15
 70
     1
102
RTVSPropertyOp16
 70
     1
102
RTVSPropertyOp17
 70
     1
102
RTVSPropertyOp18
 70
     1
102
RTVSPropertyOp19
 70
     1
102
RTVSPropertyOp20
 70
     1
102
RTVSPropertyOp21
 70
     1
102
RTVSPropertyOp22
 70
     1
102
RTVSPropertyOp23
 70
     1
102
RTVSPropertyOp24
 70
     1
102
RTVSPropertyOp25
 70
     1
102
RTVSPropertyOp26
 70
     1
102
RTVSPropertyOp27
 70
     1
102
RTVSPropertyOp28
 70
     1
102
RTVSPropertyOp29
 70
     1
102
RTVSPropertyOp30
 70
     1
102
RTVSPropertyOp31
 70
     1
102
RTVSPropertyOp32
 70
     1
102
RTVSPropertyOp33
 70
     1
102
RTVSPropertyOp34
 70
     1
102
RTVSPropertyOp35
 70
     1
102
RTVSPropertyOp36
 70
     1
102
RTVSPropertyOp37
 70
     1
102
RTVSPropertyOp38
 70
     1
102
RTVSPropertyOp39
 70
     1
102
RTVSPropertyOp40
 70
     1
102
RTVSPropertyOp41
 70
     1
102
RTVSPropertyOp42
 70
     1
102
RTVSPropertyOp43
 70
     1
102
RTVSPropertyOp44
 70
     1
102
RTVSPropertyOp45
 70
     1
102
RTVSPropertyOp46
 70
     1
102
RTVSPropertyOp47
 70
     1
102
RTVSPropertyOp48
 70
     1
102
RTVSPropertyOp49
 70
     1
102
RTVSPropertyOp50
 70
     1
102
RTVSPropertyOp51
 70
     0
102
RTVSPropertyOp52
 70
     0
102
RTVSPropertyOp53
 70
     1
102
RTVSPropertyOp54
 70
     1
102
RTVSPropertyOp55
 70
     1
102
RTVSPropertyOp56
 70
     1
102
RTVSPropertyOp57
 70
     1
102
RTVSPropertyOp58
 70
     1
102
RTVSPropertyOp59
 70
     1
102
RTVSPropertyOp60
 70
     1
102
RTVSPropertyOp61
 70
     1
102
RTVSPropertyOp62
 70
     1
  0
XRECORD
  5
379
102
{ACAD_REACTORS
330
378
102
}
330
378
100
AcDbXrecord
280
     1
102
RTVSPost2010Prop28
280
     0
102
RTVSPost2010PropOp28
 70
     1
102
RTVSPost2010Prop29
280
     1
102
RTVSPost2010PropOp29
 70
     1
102
RTVSPost2010Prop30
280
     1
102
RTVSPost2010PropOp30
 70
     1
102
RTVSPost2010Prop31
280
     0
102
RTVSPost2010PropOp31
 70
     1
102
RTVSPost2010Prop32
280
     0
102
RTVSPost2010PropOp32
 70
     1
102
RTVSPost2010Prop33
280
     0
102
RTVSPost2010PropOp33
 70
     1
102
RTVSPost2010Prop34
280
     0
102
RTVSPost2010PropOp34
 70
     1
102
RTVSPost2010Prop35
280
     0
102
RTVSPost2010PropOp35
 70
     1
102
RTVSPost2010Prop36
280
     0
102
RTVSPost2010PropOp36
 70
     1
102
RTVSPost2010Prop37
 90
       50
102
RTVSPost2010PropOp37
 70
     1
102
RTVSPost2010Prop38
140
0.0
102
RTVSPost2010PropOp38
 70
     1
102
RTVSPost2010Prop39
140
1.0
102
RTVSPost2010PropOp39
 70
     1
102
RTVSPost2010Prop40
 90
        0
102
RTVSPost2010PropOp40
 70
     1
102
RTVSPost2010Prop41ColorIndex
 90
       18
102
RTVSPost2010Prop41ColorRGB
 90
        0
102
RTVSPost2010PropOp41
 70
     1
102
RTVSPost2010Prop42
 90
       50
102
RTVSPost2010PropOp42
 70
     1
102
RTVSPost2010Prop43
 90
        3
102
RTVSPost2010PropOp43
 70
     1
102
RTVSPost2010Prop44ColorIndex
 90
        5
102
RTVSPost2010Prop44ColorRGB
 90
      255
102
RTVSPost2010PropOp44
 70
     1
102
RTVSPost2010Prop45
280
     0
102
RTVSPost2010PropOp45
 70
     1
102
RTVSPost2010Prop46
 90
       50
102
RTVSPost2010PropOp46
 70
     1
102
RTVSPost2010Prop47
 90
       50
102
RTVSPost2010PropOp47
 70
     1
102
RTVSPost2010Prop48
 90
       50
102
RTVSPost2010PropOp48
 70
     1
102
RTVSPost2010Prop49
280
     0
102
RTVSPost2010PropOp49
 70
     1
102
RTVSPost2010Prop50
 90
       50
102
RTVSPost2010PropOp50
 70
     1
102
RTVSPost2010Prop51ColorIndex
 90
      256
102
RTVSPost2010Prop51ColorRGB
 90
-16777216
102
RTVSPost2010PropOp51
 70
     0
102
RTVSPost2010Prop52
140
1.0
102
RTVSPost2010PropOp52
 70
     0
102
RTVSPost2010Prop53
 90
        2
102
RTVSPost2010PropOp53
 70
     1
102
RTVSPost2010Prop54
  1
strokes_ogs.tif
102
RTVSPost2010PropOp54
 70
     1
102
RTVSPost2010Prop55
280
     0
102
RTVSPost2010PropOp55
 70
     1
102
RTVSPost2010Prop56
140
1.0
102
RTVSPost2010PropOp56
 70
     1
102
RTVSPost2010Prop57
140
1.0
102
RTVSPost2010PropOp57
 70
     1
102
RTVSPropertyOp0
 70
     1
102
RTVSPropertyOp1
 70
     1
102
RTVSPropertyOp2
 70
     1
102
RTVSPropertyOp3
 70
     1
102
RTVSPropertyOp4
 70
     1
102
RTVSPropertyOp5
 70
     1
102
RTVSPropertyOp6
 70
     1
102
RTVSPropertyOp7
 70
     1
102
RTVSPropertyOp8
 70
     1
102
RTVSPropertyOp9
 70
     1
102
RTVSPropertyOp10
 70
     1
102
RTVSPropertyOp11
 70
     1
102
RTVSPropertyOp12
 70
     1
102
RTVSPropertyOp13
 70
     1
102
RTVSPropertyOp14
 70
     1
102
RTVSPropertyOp15
 70
     1
102
RTVSPropertyOp16
 70
     1
102
RTVSPropertyOp17
 70
     1
102
RTVSPropertyOp18
 70
     1
102
RTVSPropertyOp19
 70
     1
102
RTVSPropertyOp20
 70
     1
102
RTVSPropertyOp21
 70
     1
102
RTVSPropertyOp22
 70
     1
102
RTVSPropertyOp23
 70
     1
102
RTVSPropertyOp24
 70
     1
102
RTVSPropertyOp25
 70
     1
102
RTVSPropertyOp26
 70
     1
102
RTVSPropertyOp27
 70
     1
102
RTVSPropertyOp28
 70
     1
102
RTVSPropertyOp29
 70
     1
102
RTVSPropertyOp30
 70
     1
102
RTVSPropertyOp31
 70
     1
102
RTVSPropertyOp32
 70
     1
102
RTVSPropertyOp33
 70
     1
102
RTVSPropertyOp34
 70
     1
102
RTVSPropertyOp35
 70
     1
102
RTVSPropertyOp36
 70
     1
102
RTVSPropertyOp37
 70
     1
102
RTVSPropertyOp38
 70
     1
102
RTVSPropertyOp39
 70
     1
102
RTVSPropertyOp40
 70
     1
102
RTVSPropertyOp41
 70
     1
102
RTVSPropertyOp42
 70
     1
102
RTVSPropertyOp43
 70
     1
102
RTVSPropertyOp44
 70
     1
102
RTVSPropertyOp45
 70
     1
102
RTVSPropertyOp46
 70
     1
102
RTVSPropertyOp47
 70
     1
102
RTVSPropertyOp48
 70
     1
102
RTVSPropertyOp49
 70
     1
102
RTVSPropertyOp50
 70
     1
102
RTVSPropertyOp51
 70
     0
102
RTVSPropertyOp52
 70
     0
102
RTVSPropertyOp53
 70
     1
102
RTVSPropertyOp54
 70
     1
102
RTVSPropertyOp55
 70
     1
102
RTVSPropertyOp56
 70
     1
102
RTVSPropertyOp57
 70
     1
102
RTVSPropertyOp58
 70
     1
102
RTVSPropertyOp59
 70
     1
102
RTVSPropertyOp60
 70
     1
102
RTVSPropertyOp61
 70
     1
102
RTVSPropertyOp62
 70
     1
  0
XRECORD
  5
36D
102
{ACAD_REACTORS
330
36C
102
}
330
36C
100
AcDbXrecord
280
     1
102
RTVSPost2010Prop28
280
     0
102
RTVSPost2010PropOp28
 70
     1
102
RTVSPost2010Prop29
280
     1
102
RTVSPost2010PropOp29
 70
     1
102
RTVSPost2010Prop30
280
     1
102
RTVSPost2010PropOp30
 70
     1
102
RTVSPost2010Prop31
280
     0
102
RTVSPost2010PropOp31
 70
     1
102
RTVSPost2010Prop32
280
     0
102
RTVSPost2010PropOp32
 70
     1
102
RTVSPost2010Prop33
280
     0
102
RTVSPost2010PropOp33
 70
     1
102
RTVSPost2010Prop34
280
     0
102
RTVSPost2010PropOp34
 70
     1
102
RTVSPost2010Prop35
280
     0
102
RTVSPost2010PropOp35
 70
     1
102
RTVSPost2010Prop36
280
     0
102
RTVSPost2010PropOp36
 70
     1
102
RTVSPost2010Prop37
 90
       50
102
RTVSPost2010PropOp37
 70
     1
102
RTVSPost2010Prop38
140
0.0
102
RTVSPost2010PropOp38
 70
     1
102
RTVSPost2010Prop39
140
1.0
102
RTVSPost2010PropOp39
 70
     1
102
RTVSPost2010Prop40
 90
        0
102
RTVSPost2010PropOp40
 70
     1
102
RTVSPost2010Prop41ColorIndex
 90
       18
102
RTVSPost2010Prop41ColorRGB
 90
        0
102
RTVSPost2010PropOp41
 70
     1
102
RTVSPost2010Prop42
 90
       50
102
RTVSPost2010PropOp42
 70
     1
102
RTVSPost2010Prop43
 90
        3
102
RTVSPost2010PropOp43
 70
     1
102
RTVSPost2010Prop44ColorIndex
 90
        5
102
RTVSPost2010Prop44ColorRGB
 90
      255
102
RTVSPost2010PropOp44
 70
     1
102
RTVSPost2010Prop45
280
     0
102
RTVSPost2010PropOp45
 70
     1
102
RTVSPost2010Prop46
 90
       50
102
RTVSPost2010PropOp46
 70
     1
102
RTVSPost2010Prop47
 90
       50
102
RTVSPost2010PropOp47
 70
     1
102
RTVSPost2010Prop48
 90
       50
102
RTVSPost2010PropOp48
 70
     1
102
RTVSPost2010Prop49
280
     0
102
RTVSPost2010PropOp49
 70
     1
102
RTVSPost2010Prop50
 90
       50
102
RTVSPost2010PropOp50
 70
     1
102
RTVSPost2010Prop51ColorIndex
 90
      256
102
RTVSPost2010Prop51ColorRGB
 90
-16777216
102
RTVSPost2010PropOp51
 70
     0
102
RTVSPost2010Prop52
140
1.0
102
RTVSPost2010PropOp52
 70
     0
102
RTVSPost2010Prop53
 90
        2
102
RTVSPost2010PropOp53
 70
     1
102
RTVSPost2010Prop54
  1
strokes_ogs.tif
102
RTVSPost2010PropOp54
 70
     1
102
RTVSPost2010Prop55
280
     0
102
RTVSPost2010PropOp55
 70
     1
102
RTVSPost2010Prop56
140
1.0
102
RTVSPost2010PropOp56
 70
     1
102
RTVSPost2010Prop57
140
1.0
102
RTVSPost2010PropOp57
 70
     1
102
RTVSPropertyOp0
 70
     1
102
RTVSPropertyOp1
 70
     1
102
RTVSPropertyOp2
 70
     1
102
RTVSPropertyOp3
 70
     1
102
RTVSPropertyOp4
 70
     1
102
RTVSPropertyOp5
 70
     1
102
RTVSPropertyOp6
 70
     1
102
RTVSPropertyOp7
 70
     1
102
RTVSPropertyOp8
 70
     1
102
RTVSPropertyOp9
 70
     1
102
RTVSPropertyOp10
 70
     1
102
RTVSPropertyOp11
 70
     1
102
RTVSPropertyOp12
 70
     1
102
RTVSPropertyOp13
 70
     1
102
RTVSPropertyOp14
 70
     1
102
RTVSPropertyOp15
 70
     1
102
RTVSPropertyOp16
 70
     1
102
RTVSPropertyOp17
 70
     1
102
RTVSPropertyOp18
 70
     1
102
RTVSPropertyOp19
 70
     1
102
RTVSPropertyOp20
 70
     1
102
RTVSPropertyOp21
 70
     1
102
RTVSPropertyOp22
 70
     1
102
RTVSPropertyOp23
 70
     1
102
RTVSPropertyOp24
 70
     1
102
RTVSPropertyOp25
 70
     1
102
RTVSPropertyOp26
 70
     1
102
RTVSPropertyOp27
 70
     1
102
RTVSPropertyOp28
 70
     1
102
RTVSPropertyOp29
 70
     1
102
RTVSPropertyOp30
 70
     1
102
RTVSPropertyOp31
 70
     1
102
RTVSPropertyOp32
 70
     1
102
RTVSPropertyOp33
 70
     1
102
RTVSPropertyOp34
 70
     1
102
RTVSPropertyOp35
 70
     1
102
RTVSPropertyOp36
 70
     1
102
RTVSPropertyOp37
 70
     1
102
RTVSPropertyOp38
 70
     1
102
RTVSPropertyOp39
 70
     1
102
RTVSPropertyOp40
 70
     1
102
RTVSPropertyOp41
 70
     1
102
RTVSPropertyOp42
 70
     1
102
RTVSPropertyOp43
 70
     1
102
RTVSPropertyOp44
 70
     1
102
RTVSPropertyOp45
 70
     1
102
RTVSPropertyOp46
 70
     1
102
RTVSPropertyOp47
 70
     1
102
RTVSPropertyOp48
 70
     1
102
RTVSPropertyOp49
 70
     1
102
RTVSPropertyOp50
 70
     1
102
RTVSPropertyOp51
 70
     0
102
RTVSPropertyOp52
 70
     0
102
RTVSPropertyOp53
 70
     1
102
RTVSPropertyOp54
 70
     1
102
RTVSPropertyOp55
 70
     1
102
RTVSPropertyOp56
 70
     1
102
RTVSPropertyOp57
 70
     1
102
RTVSPropertyOp58
 70
     1
102
RTVSPropertyOp59
 70
     1
102
RTVSPropertyOp60
 70
     1
102
RTVSPropertyOp61
 70
     1
102
RTVSPropertyOp62
 70
     1
  0
XRECORD
  5
36F
102
{ACAD_REACTORS
330
36E
102
}
330
36E
100
AcDbXrecord
280
     1
102
RTVSPost2010Prop28
280
     0
102
RTVSPost2010PropOp28
 70
     1
102
RTVSPost2010Prop29
280
     1
102
RTVSPost2010PropOp29
 70
     1
102
RTVSPost2010Prop30
280
     1
102
RTVSPost2010PropOp30
 70
     1
102
RTVSPost2010Prop31
280
     0
102
RTVSPost2010PropOp31
 70
     1
102
RTVSPost2010Prop32
280
     0
102
RTVSPost2010PropOp32
 70
     1
102
RTVSPost2010Prop33
280
     0
102
RTVSPost2010PropOp33
 70
     1
102
RTVSPost2010Prop34
280
     0
102
RTVSPost2010PropOp34
 70
     1
102
RTVSPost2010Prop35
280
     0
102
RTVSPost2010PropOp35
 70
     1
102
RTVSPost2010Prop36
280
     0
102
RTVSPost2010PropOp36
 70
     1
102
RTVSPost2010Prop37
 90
       50
102
RTVSPost2010PropOp37
 70
     1
102
RTVSPost2010Prop38
140
0.0
102
RTVSPost2010PropOp38
 70
     1
102
RTVSPost2010Prop39
140
1.0
102
RTVSPost2010PropOp39
 70
     1
102
RTVSPost2010Prop40
 90
        0
102
RTVSPost2010PropOp40
 70
     1
102
RTVSPost2010Prop41ColorIndex
 90
       18
102
RTVSPost2010Prop41ColorRGB
 90
        0
102
RTVSPost2010PropOp41
 70
     1
102
RTVSPost2010Prop42
 90
       50
102
RTVSPost2010PropOp42
 70
     1
102
RTVSPost2010Prop43
 90
        3
102
RTVSPost2010PropOp43
 70
     1
102
RTVSPost2010Prop44ColorIndex
 90
        5
102
RTVSPost2010Prop44ColorRGB
 90
      255
102
RTVSPost2010PropOp44
 70
     1
102
RTVSPost2010Prop45
280
     0
102
RTVSPost2010PropOp45
 70
     1
102
RTVSPost2010Prop46
 90
       50
102
RTVSPost2010PropOp46
 70
     1
102
RTVSPost2010Prop47
 90
       50
102
RTVSPost2010PropOp47
 70
     1
102
RTVSPost2010Prop48
 90
       50
102
RTVSPost2010PropOp48
 70
     1
102
RTVSPost2010Prop49
280
     0
102
RTVSPost2010PropOp49
 70
     1
102
RTVSPost2010Prop50
 90
       50
102
RTVSPost2010PropOp50
 70
     1
102
RTVSPost2010Prop51ColorIndex
 90
      256
102
RTVSPost2010Prop51ColorRGB
 90
-16777216
102
RTVSPost2010PropOp51
 70
     0
102
RTVSPost2010Prop52
140
1.0
102
RTVSPost2010PropOp52
 70
     0
102
RTVSPost2010Prop53
 90
        2
102
RTVSPost2010PropOp53
 70
     1
102
RTVSPost2010Prop54
  1
strokes_ogs.tif
102
RTVSPost2010PropOp54
 70
     1
102
RTVSPost2010Prop55
280
     0
102
RTVSPost2010PropOp55
 70
     1
102
RTVSPost2010Prop56
140
1.0
102
RTVSPost2010PropOp56
 70
     1
102
RTVSPost2010Prop57
140
1.0
102
RTVSPost2010PropOp57
 70
     1
102
RTVSPropertyOp0
 70
     1
102
RTVSPropertyOp1
 70
     1
102
RTVSPropertyOp2
 70
     1
102
RTVSPropertyOp3
 70
     1
102
RTVSPropertyOp4
 70
     1
102
RTVSPropertyOp5
 70
     1
102
RTVSPropertyOp6
 70
     1
102
RTVSPropertyOp7
 70
     1
102
RTVSPropertyOp8
 70
     1
102
RTVSPropertyOp9
 70
     1
102
RTVSPropertyOp10
 70
     1
102
RTVSPropertyOp11
 70
     1
102
RTVSPropertyOp12
 70
     1
102
RTVSPropertyOp13
 70
     1
102
RTVSPropertyOp14
 70
     1
102
RTVSPropertyOp15
 70
     1
102
RTVSPropertyOp16
 70
     1
102
RTVSPropertyOp17
 70
     1
102
RTVSPropertyOp18
 70
     1
102
RTVSPropertyOp19
 70
     1
102
RTVSPropertyOp20
 70
     1
102
RTVSPropertyOp21
 70
     1
102
RTVSPropertyOp22
 70
     1
102
RTVSPropertyOp23
 70
     1
102
RTVSPropertyOp24
 70
     1
102
RTVSPropertyOp25
 70
     1
102
RTVSPropertyOp26
 70
     1
102
RTVSPropertyOp27
 70
     1
102
RTVSPropertyOp28
 70
     1
102
RTVSPropertyOp29
 70
     1
102
RTVSPropertyOp30
 70
     1
102
RTVSPropertyOp31
 70
     1
102
RTVSPropertyOp32
 70
     1
102
RTVSPropertyOp33
 70
     1
102
RTVSPropertyOp34
 70
     1
102
RTVSPropertyOp35
 70
     1
102
RTVSPropertyOp36
 70
     1
102
RTVSPropertyOp37
 70
     1
102
RTVSPropertyOp38
 70
     1
102
RTVSPropertyOp39
 70
     1
102
RTVSPropertyOp40
 70
     1
102
RTVSPropertyOp41
 70
     1
102
RTVSPropertyOp42
 70
     1
102
RTVSPropertyOp43
 70
     1
102
RTVSPropertyOp44
 70
     1
102
RTVSPropertyOp45
 70
     1
102
RTVSPropertyOp46
 70
     1
102
RTVSPropertyOp47
 70
     1
102
RTVSPropertyOp48
 70
     1
102
RTVSPropertyOp49
 70
     1
102
RTVSPropertyOp50
 70
     1
102
RTVSPropertyOp51
 70
     0
102
RTVSPropertyOp52
 70
     0
102
RTVSPropertyOp53
 70
     1
102
RTVSPropertyOp54
 70
     1
102
RTVSPropertyOp55
 70
     1
102
RTVSPropertyOp56
 70
     1
102
RTVSPropertyOp57
 70
     1
102
RTVSPropertyOp58
 70
     1
102
RTVSPropertyOp59
 70
     1
102
RTVSPropertyOp60
 70
     1
102
RTVSPropertyOp61
 70
     1
102
RTVSPropertyOp62
 70
     1
  0
XRECORD
  5
37F
102
{ACAD_REACTORS
330
37E
102
}
330
37E
100
AcDbXrecord
280
     1
102
RTVSPost2010Prop28
280
     0
102
RTVSPost2010PropOp28
 70
     0
102
RTVSPost2010Prop29
280
     1
102
RTVSPost2010PropOp29
 70
     0
102
RTVSPost2010Prop30
280
     1
102
RTVSPost2010PropOp30
 70
     0
102
RTVSPost2010Prop31
280
     0
102
RTVSPost2010PropOp31
 70
     0
102
RTVSPost2010Prop32
280
     0
102
RTVSPost2010PropOp32
 70
     0
102
RTVSPost2010Prop33
280
     0
102
RTVSPost2010PropOp33
 70
     0
102
RTVSPost2010Prop34
280
     0
102
RTVSPost2010PropOp34
 70
     0
102
RTVSPost2010Prop35
280
     0
102
RTVSPost2010PropOp35
 70
     0
102
RTVSPost2010Prop36
280
     0
102
RTVSPost2010PropOp36
 70
     0
102
RTVSPost2010Prop37
 90
       50
102
RTVSPost2010PropOp37
 70
     0
102
RTVSPost2010Prop38
140
0.0
102
RTVSPost2010PropOp38
 70
     0
102
RTVSPost2010Prop39
140
1.0
102
RTVSPost2010PropOp39
 70
     0
102
RTVSPost2010Prop40
 90
        0
102
RTVSPost2010PropOp40
 70
     0
102
RTVSPost2010Prop41ColorIndex
 90
       18
102
RTVSPost2010Prop41ColorRGB
 90
        0
102
RTVSPost2010PropOp41
 70
     0
102
RTVSPost2010Prop42
 90
       50
102
RTVSPost2010PropOp42
 70
     0
102
RTVSPost2010Prop43
 90
        3
102
RTVSPost2010PropOp43
 70
     0
102
RTVSPost2010Prop44ColorIndex
 90
        5
102
RTVSPost2010Prop44ColorRGB
 90
      255
102
RTVSPost2010PropOp44
 70
     0
102
RTVSPost2010Prop45
280
     0
102
RTVSPost2010PropOp45
 70
     0
102
RTVSPost2010Prop46
 90
       50
102
RTVSPost2010PropOp46
 70
     0
102
RTVSPost2010Prop47
 90
       50
102
RTVSPost2010PropOp47
 70
     0
102
RTVSPost2010Prop48
 90
       50
102
RTVSPost2010PropOp48
 70
     0
102
RTVSPost2010Prop49
280
     0
102
RTVSPost2010PropOp49
 70
     0
102
RTVSPost2010Prop50
 90
       50
102
RTVSPost2010PropOp50
 70
     0
102
RTVSPost2010Prop51ColorIndex
 90
      256
102
RTVSPost2010Prop51ColorRGB
 90
-16777216
102
RTVSPost2010PropOp51
 70
     0
102
RTVSPost2010Prop52
140
1.0
102
RTVSPost2010PropOp52
 70
     0
102
RTVSPost2010Prop53
 90
        2
102
RTVSPost2010PropOp53
 70
     0
102
RTVSPost2010Prop54
  1
strokes_ogs.tif
102
RTVSPost2010PropOp54
 70
     0
102
RTVSPost2010Prop55
280
     0
102
RTVSPost2010PropOp55
 70
     0
102
RTVSPost2010Prop56
140
1.0
102
RTVSPost2010PropOp56
 70
     0
102
RTVSPost2010Prop57
140
1.0
102
RTVSPost2010PropOp57
 70
     0
102
RTVSPropertyOp0
 70
     0
102
RTVSPropertyOp1
 70
     0
102
RTVSPropertyOp2
 70
     0
102
RTVSPropertyOp3
 70
     0
102
RTVSPropertyOp4
 70
     0
102
RTVSPropertyOp5
 70
     0
102
RTVSPropertyOp6
 70
     0
102
RTVSPropertyOp7
 70
     0
102
RTVSPropertyOp8
 70
     0
102
RTVSPropertyOp9
 70
     0
102
RTVSPropertyOp10
 70
     0
102
RTVSPropertyOp11
 70
     0
102
RTVSPropertyOp12
 70
     0
102
RTVSPropertyOp13
 70
     0
102
RTVSPropertyOp14
 70
     2
102
RTVSPropertyOp15
 70
     0
102
RTVSPropertyOp16
 70
     0
102
RTVSPropertyOp17
 70
     0
102
RTVSPropertyOp18
 70
     0
102
RTVSPropertyOp19
 70
     0
102
RTVSPropertyOp20
 70
     0
102
RTVSPropertyOp21
 70
     0
102
RTVSPropertyOp22
 70
     0
102
RTVSPropertyOp23
 70
     0
102
RTVSPropertyOp24
 70
     0
102
RTVSPropertyOp25
 70
     0
102
RTVSPropertyOp26
 70
     0
102
RTVSPropertyOp27
 70
     0
102
RTVSPropertyOp28
 70
     0
102
RTVSPropertyOp29
 70
     0
102
RTVSPropertyOp30
 70
     0
102
RTVSPropertyOp31
 70
     0
102
RTVSPropertyOp32
 70
     0
102
RTVSPropertyOp33
 70
     0
102
RTVSPropertyOp34
 70
     0
102
RTVSPropertyOp35
 70
     0
102
RTVSPropertyOp36
 70
     0
102
RTVSPropertyOp37
 70
     0
102
RTVSPropertyOp38
 70
     0
102
RTVSPropertyOp39
 70
     0
102
RTVSPropertyOp40
 70
     0
102
RTVSPropertyOp41
 70
     0
102
RTVSPropertyOp42
 70
     0
102
RTVSPropertyOp43
 70
     0
102
RTVSPropertyOp44
 70
     0
102
RTVSPropertyOp45
 70
     0
102
RTVSPropertyOp46
 70
     0
102
RTVSPropertyOp47
 70
     0
102
RTVSPropertyOp48
 70
     0
102
RTVSPropertyOp49
 70
     0
102
RTVSPropertyOp50
 70
     0
102
RTVSPropertyOp51
 70
     0
102
RTVSPropertyOp52
 70
     0
102
RTVSPropertyOp53
 70
     0
102
RTVSPropertyOp54
 70
     0
102
RTVSPropertyOp55
 70
     0
102
RTVSPropertyOp56
 70
     0
102
RTVSPropertyOp57
 70
     0
102
RTVSPropertyOp58
 70
     1
102
RTVSPropertyOp59
 70
     1
102
RTVSPropertyOp60
 70
     1
102
RTVSPropertyOp61
 70
     1
102
RTVSPropertyOp62
 70
     1
  0
XRECORD
  5
377
102
{ACAD_REACTORS
330
376
102
}
330
376
100
AcDbXrecord
280
     1
102
RTVSPost2010Prop28
280
     0
102
RTVSPost2010PropOp28
 70
     1
102
RTVSPost2010Prop29
280
     1
102
RTVSPost2010PropOp29
 70
     1
102
RTVSPost2010Prop30
280
     1
102
RTVSPost2010PropOp30
 70
     1
102
RTVSPost2010Prop31
280
     0
102
RTVSPost2010PropOp31
 70
     1
102
RTVSPost2010Prop32
280
     0
102
RTVSPost2010PropOp32
 70
     1
102
RTVSPost2010Prop33
280
     0
102
RTVSPost2010PropOp33
 70
     1
102
RTVSPost2010Prop34
280
     0
102
RTVSPost2010PropOp34
 70
     1
102
RTVSPost2010Prop35
280
     0
102
RTVSPost2010PropOp35
 70
     1
102
RTVSPost2010Prop36
280
     0
102
RTVSPost2010PropOp36
 70
     1
102
RTVSPost2010Prop37
 90
       50
102
RTVSPost2010PropOp37
 70
     1
102
RTVSPost2010Prop38
140
0.0
102
RTVSPost2010PropOp38
 70
     1
102
RTVSPost2010Prop39
140
1.0
102
RTVSPost2010PropOp39
 70
     1
102
RTVSPost2010Prop40
 90
        0
102
RTVSPost2010PropOp40
 70
     1
102
RTVSPost2010Prop41ColorIndex
 90
       18
102
RTVSPost2010Prop41ColorRGB
 90
        0
102
RTVSPost2010PropOp41
 70
     1
102
RTVSPost2010Prop42
 90
       50
102
RTVSPost2010PropOp42
 70
     1
102
RTVSPost2010Prop43
 90
        3
102
RTVSPost2010PropOp43
 70
     1
102
RTVSPost2010Prop44ColorIndex
 90
        5
102
RTVSPost2010Prop44ColorRGB
 90
      255
102
RTVSPost2010PropOp44
 70
     1
102
RTVSPost2010Prop45
280
     0
102
RTVSPost2010PropOp45
 70
     1
102
RTVSPost2010Prop46
 90
       50
102
RTVSPost2010PropOp46
 70
     1
102
RTVSPost2010Prop47
 90
       50
102
RTVSPost2010PropOp47
 70
     1
102
RTVSPost2010Prop48
 90
       50
102
RTVSPost2010PropOp48
 70
     1
102
RTVSPost2010Prop49
280
     0
102
RTVSPost2010PropOp49
 70
     1
102
RTVSPost2010Prop50
 90
       50
102
RTVSPost2010PropOp50
 70
     1
102
RTVSPost2010Prop51ColorIndex
 90
      256
102
RTVSPost2010Prop51ColorRGB
 90
-16777216
102
RTVSPost2010PropOp51
 70
     0
102
RTVSPost2010Prop52
140
1.0
102
RTVSPost2010PropOp52
 70
     0
102
RTVSPost2010Prop53
 90
        2
102
RTVSPost2010PropOp53
 70
     1
102
RTVSPost2010Prop54
  1
strokes_ogs.tif
102
RTVSPost2010PropOp54
 70
     1
102
RTVSPost2010Prop55
280
     0
102
RTVSPost2010PropOp55
 70
     1
102
RTVSPost2010Prop56
140
1.0
102
RTVSPost2010PropOp56
 70
     1
102
RTVSPost2010Prop57
140
1.0
102
RTVSPost2010PropOp57
 70
     1
102
RTVSPropertyOp0
 70
     1
102
RTVSPropertyOp1
 70
     1
102
RTVSPropertyOp2
 70
     1
102
RTVSPropertyOp3
 70
     1
102
RTVSPropertyOp4
 70
     1
102
RTVSPropertyOp5
 70
     1
102
RTVSPropertyOp6
 70
     1
102
RTVSPropertyOp7
 70
     1
102
RTVSPropertyOp8
 70
     1
102
RTVSPropertyOp9
 70
     1
102
RTVSPropertyOp10
 70
     1
102
RTVSPropertyOp11
 70
     1
102
RTVSPropertyOp12
 70
     1
102
RTVSPropertyOp13
 70
     1
102
RTVSPropertyOp14
 70
     1
102
RTVSPropertyOp15
 70
     1
102
RTVSPropertyOp16
 70
     1
102
RTVSPropertyOp17
 70
     1
102
RTVSPropertyOp18
 70
     1
102
RTVSPropertyOp19
 70
     1
102
RTVSPropertyOp20
 70
     1
102
RTVSPropertyOp21
 70
     1
102
RTVSPropertyOp22
 70
     1
102
RTVSPropertyOp23
 70
     1
102
RTVSPropertyOp24
 70
     1
102
RTVSPropertyOp25
 70
     1
102
RTVSPropertyOp26
 70
     1
102
RTVSPropertyOp27
 70
     1
102
RTVSPropertyOp28
 70
     1
102
RTVSPropertyOp29
 70
     1
102
RTVSPropertyOp30
 70
     1
102
RTVSPropertyOp31
 70
     1
102
RTVSPropertyOp32
 70
     1
102
RTVSPropertyOp33
 70
     1
102
RTVSPropertyOp34
 70
     1
102
RTVSPropertyOp35
 70
     1
102
RTVSPropertyOp36
 70
     1
102
RTVSPropertyOp37
 70
     1
102
RTVSPropertyOp38
 70
     1
102
RTVSPropertyOp39
 70
     1
102
RTVSPropertyOp40
 70
     1
102
RTVSPropertyOp41
 70
     1
102
RTVSPropertyOp42
 70
     1
102
RTVSPropertyOp43
 70
     1
102
RTVSPropertyOp44
 70
     1
102
RTVSPropertyOp45
 70
     1
102
RTVSPropertyOp46
 70
     1
102
RTVSPropertyOp47
 70
     1
102
RTVSPropertyOp48
 70
     1
102
RTVSPropertyOp49
 70
     1
102
RTVSPropertyOp50
 70
     1
102
RTVSPropertyOp51
 70
     0
102
RTVSPropertyOp52
 70
     0
102
RTVSPropertyOp53
 70
     1
102
RTVSPropertyOp54
 70
     1
102
RTVSPropertyOp55
 70
     1
102
RTVSPropertyOp56
 70
     1
102
RTVSPropertyOp57
 70
     1
102
RTVSPropertyOp58
 70
     1
102
RTVSPropertyOp59
 70
     1
102
RTVSPropertyOp60
 70
     1
102
RTVSPropertyOp61
 70
     1
102
RTVSPropertyOp62
 70
     1
  0
XRECORD
  5
35B
102
{ACAD_REACTORS
330
35A
102
}
330
35A
100
AcDbXrecord
280
     1
102
RTVSPost2010Prop28
280
     0
102
RTVSPost2010PropOp28
 70
     1
102
RTVSPost2010Prop29
280
     1
102
RTVSPost2010PropOp29
 70
     1
102
RTVSPost2010Prop30
280
     1
102
RTVSPost2010PropOp30
 70
     1
102
RTVSPost2010Prop31
280
     0
102
RTVSPost2010PropOp31
 70
     1
102
RTVSPost2010Prop32
280
     0
102
RTVSPost2010PropOp32
 70
     1
102
RTVSPost2010Prop33
280
     0
102
RTVSPost2010PropOp33
 70
     1
102
RTVSPost2010Prop34
280
     0
102
RTVSPost2010PropOp34
 70
     1
102
RTVSPost2010Prop35
280
     0
102
RTVSPost2010PropOp35
 70
     1
102
RTVSPost2010Prop36
280
     0
102
RTVSPost2010PropOp36
 70
     1
102
RTVSPost2010Prop37
 90
       50
102
RTVSPost2010PropOp37
 70
     1
102
RTVSPost2010Prop38
140
0.0
102
RTVSPost2010PropOp38
 70
     1
102
RTVSPost2010Prop39
140
1.0
102
RTVSPost2010PropOp39
 70
     1
102
RTVSPost2010Prop40
 90
        0
102
RTVSPost2010PropOp40
 70
     1
102
RTVSPost2010Prop41ColorIndex
 90
       18
102
RTVSPost2010Prop41ColorRGB
 90
        0
102
RTVSPost2010PropOp41
 70
     1
102
RTVSPost2010Prop42
 90
       50
102
RTVSPost2010PropOp42
 70
     1
102
RTVSPost2010Prop43
 90
        3
102
RTVSPost2010PropOp43
 70
     1
102
RTVSPost2010Prop44ColorIndex
 90
        5
102
RTVSPost2010Prop44ColorRGB
 90
      255
102
RTVSPost2010PropOp44
 70
     1
102
RTVSPost2010Prop45
280
     0
102
RTVSPost2010PropOp45
 70
     1
102
RTVSPost2010Prop46
 90
       50
102
RTVSPost2010PropOp46
 70
     1
102
RTVSPost2010Prop47
 90
       50
102
RTVSPost2010PropOp47
 70
     1
102
RTVSPost2010Prop48
 90
       50
102
RTVSPost2010PropOp48
 70
     1
102
RTVSPost2010Prop49
280
     0
102
RTVSPost2010PropOp49
 70
     1
102
RTVSPost2010Prop50
 90
       50
102
RTVSPost2010PropOp50
 70
     1
102
RTVSPost2010Prop51ColorIndex
 90
      256
102
RTVSPost2010Prop51ColorRGB
 90
-16777216
102
RTVSPost2010PropOp51
 70
     0
102
RTVSPost2010Prop52
140
1.0
102
RTVSPost2010PropOp52
 70
     0
102
RTVSPost2010Prop53
 90
        2
102
RTVSPost2010PropOp53
 70
     1
102
RTVSPost2010Prop54
  1
strokes_ogs.tif
102
RTVSPost2010PropOp54
 70
     1
102
RTVSPost2010Prop55
280
     0
102
RTVSPost2010PropOp55
 70
     1
102
RTVSPost2010Prop56
140
1.0
102
RTVSPost2010PropOp56
 70
     1
102
RTVSPost2010Prop57
140
1.0
102
RTVSPost2010PropOp57
 70
     1
102
RTVSPropertyOp0
 70
     1
102
RTVSPropertyOp1
 70
     1
102
RTVSPropertyOp2
 70
     1
102
RTVSPropertyOp3
 70
     1
102
RTVSPropertyOp4
 70
     1
102
RTVSPropertyOp5
 70
     1
102
RTVSPropertyOp6
 70
     1
102
RTVSPropertyOp7
 70
     1
102
RTVSPropertyOp8
 70
     1
102
RTVSPropertyOp9
 70
     1
102
RTVSPropertyOp10
 70
     1
102
RTVSPropertyOp11
 70
     1
102
RTVSPropertyOp12
 70
     1
102
RTVSPropertyOp13
 70
     1
102
RTVSPropertyOp14
 70
     1
102
RTVSPropertyOp15
 70
     1
102
RTVSPropertyOp16
 70
     1
102
RTVSPropertyOp17
 70
     1
102
RTVSPropertyOp18
 70
     1
102
RTVSPropertyOp19
 70
     1
102
RTVSPropertyOp20
 70
     1
102
RTVSPropertyOp21
 70
     1
102
RTVSPropertyOp22
 70
     1
102
RTVSPropertyOp23
 70
     1
102
RTVSPropertyOp24
 70
     1
102
RTVSPropertyOp25
 70
     1
102
RTVSPropertyOp26
 70
     1
102
RTVSPropertyOp27
 70
     1
102
RTVSPropertyOp28
 70
     1
102
RTVSPropertyOp29
 70
     1
102
RTVSPropertyOp30
 70
     1
102
RTVSPropertyOp31
 70
     1
102
RTVSPropertyOp32
 70
     1
102
RTVSPropertyOp33
 70
     1
102
RTVSPropertyOp34
 70
     1
102
RTVSPropertyOp35
 70
     1
102
RTVSPropertyOp36
 70
     1
102
RTVSPropertyOp37
 70
     1
102
RTVSPropertyOp38
 70
     1
102
RTVSPropertyOp39
 70
     1
102
RTVSPropertyOp40
 70
     1
102
RTVSPropertyOp41
 70
     1
102
RTVSPropertyOp42
 70
     1
102
RTVSPropertyOp43
 70
     1
102
RTVSPropertyOp44
 70
     1
102
RTVSPropertyOp45
 70
     1
102
RTVSPropertyOp46
 70
     1
102
RTVSPropertyOp47
 70
     1
102
RTVSPropertyOp48
 70
     1
102
RTVSPropertyOp49
 70
     1
102
RTVSPropertyOp50
 70
     1
102
RTVSPropertyOp51
 70
     0
102
RTVSPropertyOp52
 70
     0
102
RTVSPropertyOp53
 70
     1
102
RTVSPropertyOp54
 70
     1
102
RTVSPropertyOp55
 70
     1
102
RTVSPropertyOp56
 70
     1
102
RTVSPropertyOp57
 70
     1
102
RTVSPropertyOp58
 70
     1
102
RTVSPropertyOp59
 70
     1
102
RTVSPropertyOp60
 70
     1
102
RTVSPropertyOp61
 70
     1
102
RTVSPropertyOp62
 70
     1
  0
XRECORD
  5
35D
102
{ACAD_REACTORS
330
35C
102
}
330
35C
100
AcDbXrecord
280
     1
102
RTVSPost2010Prop28
280
     0
102
RTVSPost2010PropOp28
 70
     1
102
RTVSPost2010Prop29
280
     1
102
RTVSPost2010PropOp29
 70
     1
102
RTVSPost2010Prop30
280
     1
102
RTVSPost2010PropOp30
 70
     1
102
RTVSPost2010Prop31
280
     0
102
RTVSPost2010PropOp31
 70
     1
102
RTVSPost2010Prop32
280
     0
102
RTVSPost2010PropOp32
 70
     1
102
RTVSPost2010Prop33
280
     0
102
RTVSPost2010PropOp33
 70
     1
102
RTVSPost2010Prop34
280
     0
102
RTVSPost2010PropOp34
 70
     1
102
RTVSPost2010Prop35
280
     0
102
RTVSPost2010PropOp35
 70
     1
102
RTVSPost2010Prop36
280
     0
102
RTVSPost2010PropOp36
 70
     1
102
RTVSPost2010Prop37
 90
       50
102
RTVSPost2010PropOp37
 70
     1
102
RTVSPost2010Prop38
140
0.0
102
RTVSPost2010PropOp38
 70
     1
102
RTVSPost2010Prop39
140
1.0
102
RTVSPost2010PropOp39
 70
     1
102
RTVSPost2010Prop40
 90
        0
102
RTVSPost2010PropOp40
 70
     1
102
RTVSPost2010Prop41ColorIndex
 90
       18
102
RTVSPost2010Prop41ColorRGB
 90
        0
102
RTVSPost2010PropOp41
 70
     1
102
RTVSPost2010Prop42
 90
       50
102
RTVSPost2010PropOp42
 70
     1
102
RTVSPost2010Prop43
 90
        3
102
RTVSPost2010PropOp43
 70
     1
102
RTVSPost2010Prop44ColorIndex
 90
        5
102
RTVSPost2010Prop44ColorRGB
 90
      255
102
RTVSPost2010PropOp44
 70
     1
102
RTVSPost2010Prop45
280
     0
102
RTVSPost2010PropOp45
 70
     1
102
RTVSPost2010Prop46
 90
       50
102
RTVSPost2010PropOp46
 70
     1
102
RTVSPost2010Prop47
 90
       50
102
RTVSPost2010PropOp47
 70
     1
102
RTVSPost2010Prop48
 90
       50
102
RTVSPost2010PropOp48
 70
     1
102
RTVSPost2010Prop49
280
     0
102
RTVSPost2010PropOp49
 70
     1
102
RTVSPost2010Prop50
 90
       50
102
RTVSPost2010PropOp50
 70
     1
102
RTVSPost2010Prop51ColorIndex
 90
      256
102
RTVSPost2010Prop51ColorRGB
 90
-16777216
102
RTVSPost2010PropOp51
 70
     0
102
RTVSPost2010Prop52
140
1.0
102
RTVSPost2010PropOp52
 70
     0
102
RTVSPost2010Prop53
 90
        2
102
RTVSPost2010PropOp53
 70
     1
102
RTVSPost2010Prop54
  1
strokes_ogs.tif
102
RTVSPost2010PropOp54
 70
     1
102
RTVSPost2010Prop55
280
     0
102
RTVSPost2010PropOp55
 70
     1
102
RTVSPost2010Prop56
140
1.0
102
RTVSPost2010PropOp56
 70
     1
102
RTVSPost2010Prop57
140
1.0
102
RTVSPost2010PropOp57
 70
     1
102
RTVSPropertyOp0
 70
     1
102
RTVSPropertyOp1
 70
     1
102
RTVSPropertyOp2
 70
     1
102
RTVSPropertyOp3
 70
     1
102
RTVSPropertyOp4
 70
     1
102
RTVSPropertyOp5
 70
     1
102
RTVSPropertyOp6
 70
     1
102
RTVSPropertyOp7
 70
     1
102
RTVSPropertyOp8
 70
     1
102
RTVSPropertyOp9
 70
     1
102
RTVSPropertyOp10
 70
     1
102
RTVSPropertyOp11
 70
     1
102
RTVSPropertyOp12
 70
     1
102
RTVSPropertyOp13
 70
     1
102
RTVSPropertyOp14
 70
     1
102
RTVSPropertyOp15
 70
     1
102
RTVSPropertyOp16
 70
     1
102
RTVSPropertyOp17
 70
     1
102
RTVSPropertyOp18
 70
     1
102
RTVSPropertyOp19
 70
     1
102
RTVSPropertyOp20
 70
     1
102
RTVSPropertyOp21
 70
     1
102
RTVSPropertyOp22
 70
     1
102
RTVSPropertyOp23
 70
     1
102
RTVSPropertyOp24
 70
     1
102
RTVSPropertyOp25
 70
     1
102
RTVSPropertyOp26
 70
     1
102
RTVSPropertyOp27
 70
     1
102
RTVSPropertyOp28
 70
     1
102
RTVSPropertyOp29
 70
     1
102
RTVSPropertyOp30
 70
     1
102
RTVSPropertyOp31
 70
     1
102
RTVSPropertyOp32
 70
     1
102
RTVSPropertyOp33
 70
     1
102
RTVSPropertyOp34
 70
     1
102
RTVSPropertyOp35
 70
     1
102
RTVSPropertyOp36
 70
     1
102
RTVSPropertyOp37
 70
     1
102
RTVSPropertyOp38
 70
     1
102
RTVSPropertyOp39
 70
     1
102
RTVSPropertyOp40
 70
     1
102
RTVSPropertyOp41
 70
     1
102
RTVSPropertyOp42
 70
     1
102
RTVSPropertyOp43
 70
     1
102
RTVSPropertyOp44
 70
     1
102
RTVSPropertyOp45
 70
     1
102
RTVSPropertyOp46
 70
     1
102
RTVSPropertyOp47
 70
     1
102
RTVSPropertyOp48
 70
     1
102
RTVSPropertyOp49
 70
     1
102
RTVSPropertyOp50
 70
     1
102
RTVSPropertyOp51
 70
     0
102
RTVSPropertyOp52
 70
     0
102
RTVSPropertyOp53
 70
     1
102
RTVSPropertyOp54
 70
     1
102
RTVSPropertyOp55
 70
     1
102
RTVSPropertyOp56
 70
     1
102
RTVSPropertyOp57
 70
     1
102
RTVSPropertyOp58
 70
     1
102
RTVSPropertyOp59
 70
     1
102
RTVSPropertyOp60
 70
     1
102
RTVSPropertyOp61
 70
     1
102
RTVSPropertyOp62
 70
     1
  0
XRECORD
  5
35F
102
{ACAD_REACTORS
330
35E
102
}
330
35E
100
AcDbXrecord
280
     1
102
RTVSPost2010Prop28
280
     0
102
RTVSPost2010PropOp28
 70
     1
102
RTVSPost2010Prop29
280
     1
102
RTVSPost2010PropOp29
 70
     1
102
RTVSPost2010Prop30
280
     1
102
RTVSPost2010PropOp30
 70
     1
102
RTVSPost2010Prop31
280
     0
102
RTVSPost2010PropOp31
 70
     1
102
RTVSPost2010Prop32
280
     0
102
RTVSPost2010PropOp32
 70
     1
102
RTVSPost2010Prop33
280
     0
102
RTVSPost2010PropOp33
 70
     1
102
RTVSPost2010Prop34
280
     0
102
RTVSPost2010PropOp34
 70
     1
102
RTVSPost2010Prop35
280
     0
102
RTVSPost2010PropOp35
 70
     1
102
RTVSPost2010Prop36
280
     0
102
RTVSPost2010PropOp36
 70
     1
102
RTVSPost2010Prop37
 90
       50
102
RTVSPost2010PropOp37
 70
     1
102
RTVSPost2010Prop38
140
0.0
102
RTVSPost2010PropOp38
 70
     1
102
RTVSPost2010Prop39
140
1.0
102
RTVSPost2010PropOp39
 70
     1
102
RTVSPost2010Prop40
 90
        0
102
RTVSPost2010PropOp40
 70
     1
102
RTVSPost2010Prop41ColorIndex
 90
       18
102
RTVSPost2010Prop41ColorRGB
 90
        0
102
RTVSPost2010PropOp41
 70
     1
102
RTVSPost2010Prop42
 90
       50
102
RTVSPost2010PropOp42
 70
     1
102
RTVSPost2010Prop43
 90
        3
102
RTVSPost2010PropOp43
 70
     1
102
RTVSPost2010Prop44ColorIndex
 90
        5
102
RTVSPost2010Prop44ColorRGB
 90
      255
102
RTVSPost2010PropOp44
 70
     1
102
RTVSPost2010Prop45
280
     0
102
RTVSPost2010PropOp45
 70
     1
102
RTVSPost2010Prop46
 90
       50
102
RTVSPost2010PropOp46
 70
     1
102
RTVSPost2010Prop47
 90
       50
102
RTVSPost2010PropOp47
 70
     1
102
RTVSPost2010Prop48
 90
       50
102
RTVSPost2010PropOp48
 70
     1
102
RTVSPost2010Prop49
280
     0
102
RTVSPost2010PropOp49
 70
     1
102
RTVSPost2010Prop50
 90
       50
102
RTVSPost2010PropOp50
 70
     1
102
RTVSPost2010Prop51ColorIndex
 90
      256
102
RTVSPost2010Prop51ColorRGB
 90
-16777216
102
RTVSPost2010PropOp51
 70
     0
102
RTVSPost2010Prop52
140
1.0
102
RTVSPost2010PropOp52
 70
     0
102
RTVSPost2010Prop53
 90
        2
102
RTVSPost2010PropOp53
 70
     1
102
RTVSPost2010Prop54
  1
strokes_ogs.tif
102
RTVSPost2010PropOp54
 70
     1
102
RTVSPost2010Prop55
280
     0
102
RTVSPost2010PropOp55
 70
     1
102
RTVSPost2010Prop56
140
1.0
102
RTVSPost2010PropOp56
 70
     1
102
RTVSPost2010Prop57
140
1.0
102
RTVSPost2010PropOp57
 70
     1
102
RTVSPropertyOp0
 70
     1
102
RTVSPropertyOp1
 70
     1
102
RTVSPropertyOp2
 70
     1
102
RTVSPropertyOp3
 70
     1
102
RTVSPropertyOp4
 70
     1
102
RTVSPropertyOp5
 70
     1
102
RTVSPropertyOp6
 70
     1
102
RTVSPropertyOp7
 70
     1
102
RTVSPropertyOp8
 70
     1
102
RTVSPropertyOp9
 70
     1
102
RTVSPropertyOp10
 70
     1
102
RTVSPropertyOp11
 70
     1
102
RTVSPropertyOp12
 70
     1
102
RTVSPropertyOp13
 70
     1
102
RTVSPropertyOp14
 70
     1
102
RTVSPropertyOp15
 70
     1
102
RTVSPropertyOp16
 70
     1
102
RTVSPropertyOp17
 70
     1
102
RTVSPropertyOp18
 70
     1
102
RTVSPropertyOp19
 70
     1
102
RTVSPropertyOp20
 70
     1
102
RTVSPropertyOp21
 70
     1
102
RTVSPropertyOp22
 70
     1
102
RTVSPropertyOp23
 70
     1
102
RTVSPropertyOp24
 70
     1
102
RTVSPropertyOp25
 70
     1
102
RTVSPropertyOp26
 70
     1
102
RTVSPropertyOp27
 70
     1
102
RTVSPropertyOp28
 70
     1
102
RTVSPropertyOp29
 70
     1
102
RTVSPropertyOp30
 70
     1
102
RTVSPropertyOp31
 70
     1
102
RTVSPropertyOp32
 70
     1
102
RTVSPropertyOp33
 70
     1
102
RTVSPropertyOp34
 70
     1
102
RTVSPropertyOp35
 70
     1
102
RTVSPropertyOp36
 70
     1
102
RTVSPropertyOp37
 70
     1
102
RTVSPropertyOp38
 70
     1
102
RTVSPropertyOp39
 70
     1
102
RTVSPropertyOp40
 70
     1
102
RTVSPropertyOp41
 70
     1
102
RTVSPropertyOp42
 70
     1
102
RTVSPropertyOp43
 70
     1
102
RTVSPropertyOp44
 70
     1
102
RTVSPropertyOp45
 70
     1
102
RTVSPropertyOp46
 70
     1
102
RTVSPropertyOp47
 70
     1
102
RTVSPropertyOp48
 70
     1
102
RTVSPropertyOp49
 70
     1
102
RTVSPropertyOp50
 70
     1
102
RTVSPropertyOp51
 70
     0
102
RTVSPropertyOp52
 70
     0
102
RTVSPropertyOp53
 70
     1
102
RTVSPropertyOp54
 70
     1
102
RTVSPropertyOp55
 70
     1
102
RTVSPropertyOp56
 70
     1
102
RTVSPropertyOp57
 70
     1
102
RTVSPropertyOp58
 70
     1
102
RTVSPropertyOp59
 70
     1
102
RTVSPropertyOp60
 70
     1
102
RTVSPropertyOp61
 70
     1
102
RTVSPropertyOp62
 70
     1
  0
XRECORD
  5
361
102
{ACAD_REACTORS
330
360
102
}
330
360
100
AcDbXrecord
280
     1
102
RTVSPost2010Prop28
280
     0
102
RTVSPost2010PropOp28
 70
     1
102
RTVSPost2010Prop29
280
     1
102
RTVSPost2010PropOp29
 70
     1
102
RTVSPost2010Prop30
280
     1
102
RTVSPost2010PropOp30
 70
     1
102
RTVSPost2010Prop31
280
     0
102
RTVSPost2010PropOp31
 70
     1
102
RTVSPost2010Prop32
280
     0
102
RTVSPost2010PropOp32
 70
     1
102
RTVSPost2010Prop33
280
     0
102
RTVSPost2010PropOp33
 70
     1
102
RTVSPost2010Prop34
280
     0
102
RTVSPost2010PropOp34
 70
     1
102
RTVSPost2010Prop35
280
     0
102
RTVSPost2010PropOp35
 70
     1
102
RTVSPost2010Prop36
280
     0
102
RTVSPost2010PropOp36
 70
     1
102
RTVSPost2010Prop37
 90
       50
102
RTVSPost2010PropOp37
 70
     1
102
RTVSPost2010Prop38
140
0.0
102
RTVSPost2010PropOp38
 70
     1
102
RTVSPost2010Prop39
140
1.0
102
RTVSPost2010PropOp39
 70
     1
102
RTVSPost2010Prop40
 90
        0
102
RTVSPost2010PropOp40
 70
     1
102
RTVSPost2010Prop41ColorIndex
 90
       18
102
RTVSPost2010Prop41ColorRGB
 90
        0
102
RTVSPost2010PropOp41
 70
     1
102
RTVSPost2010Prop42
 90
       50
102
RTVSPost2010PropOp42
 70
     1
102
RTVSPost2010Prop43
 90
        3
102
RTVSPost2010PropOp43
 70
     1
102
RTVSPost2010Prop44ColorIndex
 90
        5
102
RTVSPost2010Prop44ColorRGB
 90
      255
102
RTVSPost2010PropOp44
 70
     1
102
RTVSPost2010Prop45
280
     0
102
RTVSPost2010PropOp45
 70
     1
102
RTVSPost2010Prop46
 90
       50
102
RTVSPost2010PropOp46
 70
     1
102
RTVSPost2010Prop47
 90
       50
102
RTVSPost2010PropOp47
 70
     1
102
RTVSPost2010Prop48
 90
       50
102
RTVSPost2010PropOp48
 70
     1
102
RTVSPost2010Prop49
280
     0
102
RTVSPost2010PropOp49
 70
     1
102
RTVSPost2010Prop50
 90
       50
102
RTVSPost2010PropOp50
 70
     1
102
RTVSPost2010Prop51ColorIndex
 90
      256
102
RTVSPost2010Prop51ColorRGB
 90
-16777216
102
RTVSPost2010PropOp51
 70
     0
102
RTVSPost2010Prop52
140
1.0
102
RTVSPost2010PropOp52
 70
     0
102
RTVSPost2010Prop53
 90
        2
102
RTVSPost2010PropOp53
 70
     1
102
RTVSPost2010Prop54
  1
strokes_ogs.tif
102
RTVSPost2010PropOp54
 70
     1
102
RTVSPost2010Prop55
280
     0
102
RTVSPost2010PropOp55
 70
     1
102
RTVSPost2010Prop56
140
1.0
102
RTVSPost2010PropOp56
 70
     1
102
RTVSPost2010Prop57
140
1.0
102
RTVSPost2010PropOp57
 70
     1
102
RTVSPropertyOp0
 70
     1
102
RTVSPropertyOp1
 70
     1
102
RTVSPropertyOp2
 70
     1
102
RTVSPropertyOp3
 70
     1
102
RTVSPropertyOp4
 70
     1
102
RTVSPropertyOp5
 70
     1
102
RTVSPropertyOp6
 70
     1
102
RTVSPropertyOp7
 70
     1
102
RTVSPropertyOp8
 70
     1
102
RTVSPropertyOp9
 70
     1
102
RTVSPropertyOp10
 70
     1
102
RTVSPropertyOp11
 70
     1
102
RTVSPropertyOp12
 70
     1
102
RTVSPropertyOp13
 70
     1
102
RTVSPropertyOp14
 70
     1
102
RTVSPropertyOp15
 70
     1
102
RTVSPropertyOp16
 70
     1
102
RTVSPropertyOp17
 70
     1
102
RTVSPropertyOp18
 70
     1
102
RTVSPropertyOp19
 70
     1
102
RTVSPropertyOp20
 70
     1
102
RTVSPropertyOp21
 70
     1
102
RTVSPropertyOp22
 70
     1
102
RTVSPropertyOp23
 70
     1
102
RTVSPropertyOp24
 70
     1
102
RTVSPropertyOp25
 70
     1
102
RTVSPropertyOp26
 70
     1
102
RTVSPropertyOp27
 70
     1
102
RTVSPropertyOp28
 70
     1
102
RTVSPropertyOp29
 70
     1
102
RTVSPropertyOp30
 70
     1
102
RTVSPropertyOp31
 70
     1
102
RTVSPropertyOp32
 70
     1
102
RTVSPropertyOp33
 70
     1
102
RTVSPropertyOp34
 70
     1
102
RTVSPropertyOp35
 70
     1
102
RTVSPropertyOp36
 70
     1
102
RTVSPropertyOp37
 70
     1
102
RTVSPropertyOp38
 70
     1
102
RTVSPropertyOp39
 70
     1
102
RTVSPropertyOp40
 70
     1
102
RTVSPropertyOp41
 70
     1
102
RTVSPropertyOp42
 70
     1
102
RTVSPropertyOp43
 70
     1
102
RTVSPropertyOp44
 70
     1
102
RTVSPropertyOp45
 70
     1
102
RTVSPropertyOp46
 70
     1
102
RTVSPropertyOp47
 70
     1
102
RTVSPropertyOp48
 70
     1
102
RTVSPropertyOp49
 70
     1
102
RTVSPropertyOp50
 70
     1
102
RTVSPropertyOp51
 70
     0
102
RTVSPropertyOp52
 70
     0
102
RTVSPropertyOp53
 70
     1
102
RTVSPropertyOp54
 70
     1
102
RTVSPropertyOp55
 70
     1
102
RTVSPropertyOp56
 70
     1
102
RTVSPropertyOp57
 70
     1
102
RTVSPropertyOp58
 70
     1
102
RTVSPropertyOp59
 70
     1
102
RTVSPropertyOp60
 70
     1
102
RTVSPropertyOp61
 70
     1
102
RTVSPropertyOp62
 70
     1
  0
XRECORD
  5
367
102
{ACAD_REACTORS
330
366
102
}
330
366
100
AcDbXrecord
280
     1
102
RTVSPost2010Prop28
280
     0
102
RTVSPost2010PropOp28
 70
     1
102
RTVSPost2010Prop29
280
     1
102
RTVSPost2010PropOp29
 70
     1
102
RTVSPost2010Prop30
280
     1
102
RTVSPost2010PropOp30
 70
     1
102
RTVSPost2010Prop31
280
     0
102
RTVSPost2010PropOp31
 70
     1
102
RTVSPost2010Prop32
280
     0
102
RTVSPost2010PropOp32
 70
     1
102
RTVSPost2010Prop33
280
     0
102
RTVSPost2010PropOp33
 70
     1
102
RTVSPost2010Prop34
280
     0
102
RTVSPost2010PropOp34
 70
     1
102
RTVSPost2010Prop35
280
     0
102
RTVSPost2010PropOp35
 70
     1
102
RTVSPost2010Prop36
280
     0
102
RTVSPost2010PropOp36
 70
     1
102
RTVSPost2010Prop37
 90
       50
102
RTVSPost2010PropOp37
 70
     1
102
RTVSPost2010Prop38
140
0.0
102
RTVSPost2010PropOp38
 70
     1
102
RTVSPost2010Prop39
140
1.0
102
RTVSPost2010PropOp39
 70
     1
102
RTVSPost2010Prop40
 90
        0
102
RTVSPost2010PropOp40
 70
     1
102
RTVSPost2010Prop41ColorIndex
 90
       18
102
RTVSPost2010Prop41ColorRGB
 90
        0
102
RTVSPost2010PropOp41
 70
     1
102
RTVSPost2010Prop42
 90
       50
102
RTVSPost2010PropOp42
 70
     1
102
RTVSPost2010Prop43
 90
        3
102
RTVSPost2010PropOp43
 70
     1
102
RTVSPost2010Prop44ColorIndex
 90
        5
102
RTVSPost2010Prop44ColorRGB
 90
      255
102
RTVSPost2010PropOp44
 70
     1
102
RTVSPost2010Prop45
280
     0
102
RTVSPost2010PropOp45
 70
     1
102
RTVSPost2010Prop46
 90
       50
102
RTVSPost2010PropOp46
 70
     1
102
RTVSPost2010Prop47
 90
       50
102
RTVSPost2010PropOp47
 70
     1
102
RTVSPost2010Prop48
 90
       50
102
RTVSPost2010PropOp48
 70
     1
102
RTVSPost2010Prop49
280
     0
102
RTVSPost2010PropOp49
 70
     1
102
RTVSPost2010Prop50
 90
       50
102
RTVSPost2010PropOp50
 70
     1
102
RTVSPost2010Prop51ColorIndex
 90
      256
102
RTVSPost2010Prop51ColorRGB
 90
-16777216
102
RTVSPost2010PropOp51
 70
     0
102
RTVSPost2010Prop52
140
1.0
102
RTVSPost2010PropOp52
 70
     0
102
RTVSPost2010Prop53
 90
        2
102
RTVSPost2010PropOp53
 70
     1
102
RTVSPost2010Prop54
  1
strokes_ogs.tif
102
RTVSPost2010PropOp54
 70
     1
102
RTVSPost2010Prop55
280
     0
102
RTVSPost2010PropOp55
 70
     1
102
RTVSPost2010Prop56
140
1.0
102
RTVSPost2010PropOp56
 70
     1
102
RTVSPost2010Prop57
140
1.0
102
RTVSPost2010PropOp57
 70
     1
102
RTVSPropertyOp0
 70
     1
102
RTVSPropertyOp1
 70
     1
102
RTVSPropertyOp2
 70
     1
102
RTVSPropertyOp3
 70
     1
102
RTVSPropertyOp4
 70
     1
102
RTVSPropertyOp5
 70
     1
102
RTVSPropertyOp6
 70
     1
102
RTVSPropertyOp7
 70
     1
102
RTVSPropertyOp8
 70
     1
102
RTVSPropertyOp9
 70
     1
102
RTVSPropertyOp10
 70
     1
102
RTVSPropertyOp11
 70
     1
102
RTVSPropertyOp12
 70
     1
102
RTVSPropertyOp13
 70
     1
102
RTVSPropertyOp14
 70
     1
102
RTVSPropertyOp15
 70
     1
102
RTVSPropertyOp16
 70
     1
102
RTVSPropertyOp17
 70
     1
102
RTVSPropertyOp18
 70
     1
102
RTVSPropertyOp19
 70
     1
102
RTVSPropertyOp20
 70
     1
102
RTVSPropertyOp21
 70
     1
102
RTVSPropertyOp22
 70
     1
102
RTVSPropertyOp23
 70
     1
102
RTVSPropertyOp24
 70
     1
102
RTVSPropertyOp25
 70
     1
102
RTVSPropertyOp26
 70
     1
102
RTVSPropertyOp27
 70
     1
102
RTVSPropertyOp28
 70
     1
102
RTVSPropertyOp29
 70
     1
102
RTVSPropertyOp30
 70
     1
102
RTVSPropertyOp31
 70
     1
102
RTVSPropertyOp32
 70
     1
102
RTVSPropertyOp33
 70
     1
102
RTVSPropertyOp34
 70
     1
102
RTVSPropertyOp35
 70
     1
102
RTVSPropertyOp36
 70
     1
102
RTVSPropertyOp37
 70
     1
102
RTVSPropertyOp38
 70
     1
102
RTVSPropertyOp39
 70
     1
102
RTVSPropertyOp40
 70
     1
102
RTVSPropertyOp41
 70
     1
102
RTVSPropertyOp42
 70
     1
102
RTVSPropertyOp43
 70
     1
102
RTVSPropertyOp44
 70
     1
102
RTVSPropertyOp45
 70
     1
102
RTVSPropertyOp46
 70
     1
102
RTVSPropertyOp47
 70
     1
102
RTVSPropertyOp48
 70
     1
102
RTVSPropertyOp49
 70
     1
102
RTVSPropertyOp50
 70
     1
102
RTVSPropertyOp51
 70
     0
102
RTVSPropertyOp52
 70
     0
102
RTVSPropertyOp53
 70
     1
102
RTVSPropertyOp54
 70
     1
102
RTVSPropertyOp55
 70
     1
102
RTVSPropertyOp56
 70
     1
102
RTVSPropertyOp57
 70
     1
102
RTVSPropertyOp58
 70
     1
102
RTVSPropertyOp59
 70
     1
102
RTVSPropertyOp60
 70
     1
102
RTVSPropertyOp61
 70
     1
102
RTVSPropertyOp62
 70
     1
  0
XRECORD
  5
37B
102
{ACAD_REACTORS
330
37A
102
}
330
37A
100
AcDbXrecord
280
     1
102
RTVSPost2010Prop28
280
     0
102
RTVSPost2010PropOp28
 70
     0
102
RTVSPost2010Prop29
280
     1
102
RTVSPost2010PropOp29
 70
     0
102
RTVSPost2010Prop30
280
     1
102
RTVSPost2010PropOp30
 70
     0
102
RTVSPost2010Prop31
280
     0
102
RTVSPost2010PropOp31
 70
     0
102
RTVSPost2010Prop32
280
     0
102
RTVSPost2010PropOp32
 70
     0
102
RTVSPost2010Prop33
280
     0
102
RTVSPost2010PropOp33
 70
     0
102
RTVSPost2010Prop34
280
     0
102
RTVSPost2010PropOp34
 70
     0
102
RTVSPost2010Prop35
280
     0
102
RTVSPost2010PropOp35
 70
     0
102
RTVSPost2010Prop36
280
     0
102
RTVSPost2010PropOp36
 70
     0
102
RTVSPost2010Prop37
 90
       50
102
RTVSPost2010PropOp37
 70
     0
102
RTVSPost2010Prop38
140
0.0
102
RTVSPost2010PropOp38
 70
     0
102
RTVSPost2010Prop39
140
1.0
102
RTVSPost2010PropOp39
 70
     0
102
RTVSPost2010Prop40
 90
        0
102
RTVSPost2010PropOp40
 70
     0
102
RTVSPost2010Prop41ColorIndex
 90
       18
102
RTVSPost2010Prop41ColorRGB
 90
        0
102
RTVSPost2010PropOp41
 70
     0
102
RTVSPost2010Prop42
 90
       50
102
RTVSPost2010PropOp42
 70
     0
102
RTVSPost2010Prop43
 90
        3
102
RTVSPost2010PropOp43
 70
     0
102
RTVSPost2010Prop44ColorIndex
 90
        5
102
RTVSPost2010Prop44ColorRGB
 90
      255
102
RTVSPost2010PropOp44
 70
     0
102
RTVSPost2010Prop45
280
     0
102
RTVSPost2010PropOp45
 70
     0
102
RTVSPost2010Prop46
 90
       50
102
RTVSPost2010PropOp46
 70
     0
102
RTVSPost2010Prop47
 90
       50
102
RTVSPost2010PropOp47
 70
     0
102
RTVSPost2010Prop48
 90
       50
102
RTVSPost2010PropOp48
 70
     0
102
RTVSPost2010Prop49
280
     0
102
RTVSPost2010PropOp49
 70
     0
102
RTVSPost2010Prop50
 90
       50
102
RTVSPost2010PropOp50
 70
     0
102
RTVSPost2010Prop51ColorIndex
 90
      256
102
RTVSPost2010Prop51ColorRGB
 90
-16777216
102
RTVSPost2010PropOp51
 70
     0
102
RTVSPost2010Prop52
140
1.0
102
RTVSPost2010PropOp52
 70
     0
102
RTVSPost2010Prop53
 90
        2
102
RTVSPost2010PropOp53
 70
     0
102
RTVSPost2010Prop54
  1
strokes_ogs.tif
102
RTVSPost2010PropOp54
 70
     0
102
RTVSPost2010Prop55
280
     0
102
RTVSPost2010PropOp55
 70
     0
102
RTVSPost2010Prop56
140
1.0
102
RTVSPost2010PropOp56
 70
     0
102
RTVSPost2010Prop57
140
1.0
102
RTVSPost2010PropOp57
 70
     0
102
RTVSPropertyOp0
 70
     0
102
RTVSPropertyOp1
 70
     0
102
RTVSPropertyOp2
 70
     0
102
RTVSPropertyOp3
 70
     0
102
RTVSPropertyOp4
 70
     0
102
RTVSPropertyOp5
 70
     0
102
RTVSPropertyOp6
 70
     0
102
RTVSPropertyOp7
 70
     0
102
RTVSPropertyOp8
 70
     0
102
RTVSPropertyOp9
 70
     0
102
RTVSPropertyOp10
 70
     0
102
RTVSPropertyOp11
 70
     0
102
RTVSPropertyOp12
 70
     0
102
RTVSPropertyOp13
 70
     0
102
RTVSPropertyOp14
 70
     2
102
RTVSPropertyOp15
 70
     0
102
RTVSPropertyOp16
 70
     0
102
RTVSPropertyOp17
 70
     0
102
RTVSPropertyOp18
 70
     0
102
RTVSPropertyOp19
 70
     0
102
RTVSPropertyOp20
 70
     0
102
RTVSPropertyOp21
 70
     0
102
RTVSPropertyOp22
 70
     0
102
RTVSPropertyOp23
 70
     0
102
RTVSPropertyOp24
 70
     0
102
RTVSPropertyOp25
 70
     0
102
RTVSPropertyOp26
 70
     0
102
RTVSPropertyOp27
 70
     0
102
RTVSPropertyOp28
 70
     0
102
RTVSPropertyOp29
 70
     0
102
RTVSPropertyOp30
 70
     0
102
RTVSPropertyOp31
 70
     0
102
RTVSPropertyOp32
 70
     0
102
RTVSPropertyOp33
 70
     0
102
RTVSPropertyOp34
 70
     0
102
RTVSPropertyOp35
 70
     0
102
RTVSPropertyOp36
 70
     0
102
RTVSPropertyOp37
 70
     0
102
RTVSPropertyOp38
 70
     0
102
RTVSPropertyOp39
 70
     0
102
RTVSPropertyOp40
 70
     0
102
RTVSPropertyOp41
 70
     0
102
RTVSPropertyOp42
 70
     0
102
RTVSPropertyOp43
 70
     0
102
RTVSPropertyOp44
 70
     0
102
RTVSPropertyOp45
 70
     0
102
RTVSPropertyOp46
 70
     0
102
RTVSPropertyOp47
 70
     0
102
RTVSPropertyOp48
 70
     0
102
RTVSPropertyOp49
 70
     0
102
RTVSPropertyOp50
 70
     0
102
RTVSPropertyOp51
 70
     0
102
RTVSPropertyOp52
 70
     0
102
RTVSPropertyOp53
 70
     0
102
RTVSPropertyOp54
 70
     0
102
RTVSPropertyOp55
 70
     0
102
RTVSPropertyOp56
 70
     0
102
RTVSPropertyOp57
 70
     0
102
RTVSPropertyOp58
 70
     1
102
RTVSPropertyOp59
 70
     1
102
RTVSPropertyOp60
 70
     1
102
RTVSPropertyOp61
 70
     1
102
RTVSPropertyOp62
 70
     1
  0
XRECORD
  5
375
102
{ACAD_REACTORS
330
374
102
}
330
374
100
AcDbXrecord
280
     1
102
RTVSPost2010Prop28
280
     0
102
RTVSPost2010PropOp28
 70
     1
102
RTVSPost2010Prop29
280
     1
102
RTVSPost2010PropOp29
 70
     1
102
RTVSPost2010Prop30
280
     1
102
RTVSPost2010PropOp30
 70
     1
102
RTVSPost2010Prop31
280
     0
102
RTVSPost2010PropOp31
 70
     1
102
RTVSPost2010Prop32
280
     0
102
RTVSPost2010PropOp32
 70
     1
102
RTVSPost2010Prop33
280
     0
102
RTVSPost2010PropOp33
 70
     1
102
RTVSPost2010Prop34
280
     0
102
RTVSPost2010PropOp34
 70
     1
102
RTVSPost2010Prop35
280
     0
102
RTVSPost2010PropOp35
 70
     1
102
RTVSPost2010Prop36
280
     0
102
RTVSPost2010PropOp36
 70
     1
102
RTVSPost2010Prop37
 90
       50
102
RTVSPost2010PropOp37
 70
     1
102
RTVSPost2010Prop38
140
0.0
102
RTVSPost2010PropOp38
 70
     1
102
RTVSPost2010Prop39
140
1.0
102
RTVSPost2010PropOp39
 70
     1
102
RTVSPost2010Prop40
 90
        0
102
RTVSPost2010PropOp40
 70
     1
102
RTVSPost2010Prop41ColorIndex
 90
       18
102
RTVSPost2010Prop41ColorRGB
 90
        0
102
RTVSPost2010PropOp41
 70
     1
102
RTVSPost2010Prop42
 90
       50
102
RTVSPost2010PropOp42
 70
     1
102
RTVSPost2010Prop43
 90
        3
102
RTVSPost2010PropOp43
 70
     1
102
RTVSPost2010Prop44ColorIndex
 90
        5
102
RTVSPost2010Prop44ColorRGB
 90
      255
102
RTVSPost2010PropOp44
 70
     1
102
RTVSPost2010Prop45
280
     0
102
RTVSPost2010PropOp45
 70
     1
102
RTVSPost2010Prop46
 90
       50
102
RTVSPost2010PropOp46
 70
     1
102
RTVSPost2010Prop47
 90
       50
102
RTVSPost2010PropOp47
 70
     1
102
RTVSPost2010Prop48
 90
       50
102
RTVSPost2010PropOp48
 70
     1
102
RTVSPost2010Prop49
280
     0
102
RTVSPost2010PropOp49
 70
     1
102
RTVSPost2010Prop50
 90
       50
102
RTVSPost2010PropOp50
 70
     1
102
RTVSPost2010Prop51ColorIndex
 90
      256
102
RTVSPost2010Prop51ColorRGB
 90
-16777216
102
RTVSPost2010PropOp51
 70
     0
102
RTVSPost2010Prop52
140
1.0
102
RTVSPost2010PropOp52
 70
     0
102
RTVSPost2010Prop53
 90
        2
102
RTVSPost2010PropOp53
 70
     1
102
RTVSPost2010Prop54
  1
strokes_ogs.tif
102
RTVSPost2010PropOp54
 70
     1
102
RTVSPost2010Prop55
280
     0
102
RTVSPost2010PropOp55
 70
     1
102
RTVSPost2010Prop56
140
1.0
102
RTVSPost2010PropOp56
 70
     1
102
RTVSPost2010Prop57
140
1.0
102
RTVSPost2010PropOp57
 70
     1
102
RTVSPropertyOp0
 70
     1
102
RTVSPropertyOp1
 70
     1
102
RTVSPropertyOp2
 70
     1
102
RTVSPropertyOp3
 70
     1
102
RTVSPropertyOp4
 70
     1
102
RTVSPropertyOp5
 70
     1
102
RTVSPropertyOp6
 70
     1
102
RTVSPropertyOp7
 70
     1
102
RTVSPropertyOp8
 70
     1
102
RTVSPropertyOp9
 70
     1
102
RTVSPropertyOp10
 70
     1
102
RTVSPropertyOp11
 70
     1
102
RTVSPropertyOp12
 70
     1
102
RTVSPropertyOp13
 70
     1
102
RTVSPropertyOp14
 70
     1
102
RTVSPropertyOp15
 70
     1
102
RTVSPropertyOp16
 70
     1
102
RTVSPropertyOp17
 70
     1
102
RTVSPropertyOp18
 70
     1
102
RTVSPropertyOp19
 70
     1
102
RTVSPropertyOp20
 70
     1
102
RTVSPropertyOp21
 70
     1
102
RTVSPropertyOp22
 70
     1
102
RTVSPropertyOp23
 70
     1
102
RTVSPropertyOp24
 70
     1
102
RTVSPropertyOp25
 70
     1
102
RTVSPropertyOp26
 70
     1
102
RTVSPropertyOp27
 70
     1
102
RTVSPropertyOp28
 70
     1
102
RTVSPropertyOp29
 70
     1
102
RTVSPropertyOp30
 70
     1
102
RTVSPropertyOp31
 70
     1
102
RTVSPropertyOp32
 70
     1
102
RTVSPropertyOp33
 70
     1
102
RTVSPropertyOp34
 70
     1
102
RTVSPropertyOp35
 70
     1
102
RTVSPropertyOp36
 70
     1
102
RTVSPropertyOp37
 70
     1
102
RTVSPropertyOp38
 70
     1
102
RTVSPropertyOp39
 70
     1
102
RTVSPropertyOp40
 70
     1
102
RTVSPropertyOp41
 70
     1
102
RTVSPropertyOp42
 70
     1
102
RTVSPropertyOp43
 70
     1
102
RTVSPropertyOp44
 70
     1
102
RTVSPropertyOp45
 70
     1
102
RTVSPropertyOp46
 70
     1
102
RTVSPropertyOp47
 70
     1
102
RTVSPropertyOp48
 70
     1
102
RTVSPropertyOp49
 70
     1
102
RTVSPropertyOp50
 70
     1
102
RTVSPropertyOp51
 70
     0
102
RTVSPropertyOp52
 70
     0
102
RTVSPropertyOp53
 70
     1
102
RTVSPropertyOp54
 70
     1
102
RTVSPropertyOp55
 70
     1
102
RTVSPropertyOp56
 70
     1
102
RTVSPropertyOp57
 70
     1
102
RTVSPropertyOp58
 70
     1
102
RTVSPropertyOp59
 70
     1
102
RTVSPropertyOp60
 70
     1
102
RTVSPropertyOp61
 70
     1
102
RTVSPropertyOp62
 70
     1
  0
XRECORD
  5
37D
102
{ACAD_REACTORS
330
37C
102
}
330
37C
100
AcDbXrecord
280
     1
102
RTVSPost2010Prop28
280
     0
102
RTVSPost2010PropOp28
 70
     0
102
RTVSPost2010Prop29
280
     1
102
RTVSPost2010PropOp29
 70
     0
102
RTVSPost2010Prop30
280
     1
102
RTVSPost2010PropOp30
 70
     0
102
RTVSPost2010Prop31
280
     0
102
RTVSPost2010PropOp31
 70
     0
102
RTVSPost2010Prop32
280
     0
102
RTVSPost2010PropOp32
 70
     0
102
RTVSPost2010Prop33
280
     0
102
RTVSPost2010PropOp33
 70
     0
102
RTVSPost2010Prop34
280
     0
102
RTVSPost2010PropOp34
 70
     0
102
RTVSPost2010Prop35
280
     0
102
RTVSPost2010PropOp35
 70
     0
102
RTVSPost2010Prop36
280
     0
102
RTVSPost2010PropOp36
 70
     0
102
RTVSPost2010Prop37
 90
       50
102
RTVSPost2010PropOp37
 70
     0
102
RTVSPost2010Prop38
140
0.0
102
RTVSPost2010PropOp38
 70
     0
102
RTVSPost2010Prop39
140
1.0
102
RTVSPost2010PropOp39
 70
     0
102
RTVSPost2010Prop40
 90
        0
102
RTVSPost2010PropOp40
 70
     0
102
RTVSPost2010Prop41ColorIndex
 90
       18
102
RTVSPost2010Prop41ColorRGB
 90
        0
102
RTVSPost2010PropOp41
 70
     0
102
RTVSPost2010Prop42
 90
       50
102
RTVSPost2010PropOp42
 70
     0
102
RTVSPost2010Prop43
 90
        3
102
RTVSPost2010PropOp43
 70
     0
102
RTVSPost2010Prop44ColorIndex
 90
        5
102
RTVSPost2010Prop44ColorRGB
 90
      255
102
RTVSPost2010PropOp44
 70
     0
102
RTVSPost2010Prop45
280
     0
102
RTVSPost2010PropOp45
 70
     0
102
RTVSPost2010Prop46
 90
       50
102
RTVSPost2010PropOp46
 70
     0
102
RTVSPost2010Prop47
 90
       50
102
RTVSPost2010PropOp47
 70
     0
102
RTVSPost2010Prop48
 90
       50
102
RTVSPost2010PropOp48
 70
     0
102
RTVSPost2010Prop49
280
     0
102
RTVSPost2010PropOp49
 70
     0
102
RTVSPost2010Prop50
 90
       50
102
RTVSPost2010PropOp50
 70
     0
102
RTVSPost2010Prop51ColorIndex
 90
      256
102
RTVSPost2010Prop51ColorRGB
 90
-16777216
102
RTVSPost2010PropOp51
 70
     0
102
RTVSPost2010Prop52
140
1.0
102
RTVSPost2010PropOp52
 70
     0
102
RTVSPost2010Prop53
 90
        2
102
RTVSPost2010PropOp53
 70
     0
102
RTVSPost2010Prop54
  1
strokes_ogs.tif
102
RTVSPost2010PropOp54
 70
     0
102
RTVSPost2010Prop55
280
     0
102
RTVSPost2010PropOp55
 70
     0
102
RTVSPost2010Prop56
140
1.0
102
RTVSPost2010PropOp56
 70
     0
102
RTVSPost2010Prop57
140
1.0
102
RTVSPost2010PropOp57
 70
     0
102
RTVSPropertyOp0
 70
     0
102
RTVSPropertyOp1
 70
     0
102
RTVSPropertyOp2
 70
     0
102
RTVSPropertyOp3
 70
     0
102
RTVSPropertyOp4
 70
     0
102
RTVSPropertyOp5
 70
     0
102
RTVSPropertyOp6
 70
     0
102
RTVSPropertyOp7
 70
     0
102
RTVSPropertyOp8
 70
     0
102
RTVSPropertyOp9
 70
     0
102
RTVSPropertyOp10
 70
     0
102
RTVSPropertyOp11
 70
     0
102
RTVSPropertyOp12
 70
     0
102
RTVSPropertyOp13
 70
     0
102
RTVSPropertyOp14
 70
     2
102
RTVSPropertyOp15
 70
     0
102
RTVSPropertyOp16
 70
     0
102
RTVSPropertyOp17
 70
     0
102
RTVSPropertyOp18
 70
     0
102
RTVSPropertyOp19
 70
     0
102
RTVSPropertyOp20
 70
     0
102
RTVSPropertyOp21
 70
     0
102
RTVSPropertyOp22
 70
     0
102
RTVSPropertyOp23
 70
     0
102
RTVSPropertyOp24
 70
     0
102
RTVSPropertyOp25
 70
     0
102
RTVSPropertyOp26
 70
     0
102
RTVSPropertyOp27
 70
     0
102
RTVSPropertyOp28
 70
     0
102
RTVSPropertyOp29
 70
     0
102
RTVSPropertyOp30
 70
     0
102
RTVSPropertyOp31
 70
     0
102
RTVSPropertyOp32
 70
     0
102
RTVSPropertyOp33
 70
     0
102
RTVSPropertyOp34
 70
     0
102
RTVSPropertyOp35
 70
     0
102
RTVSPropertyOp36
 70
     0
102
RTVSPropertyOp37
 70
     0
102
RTVSPropertyOp38
 70
     0
102
RTVSPropertyOp39
 70
     0
102
RTVSPropertyOp40
 70
     0
102
RTVSPropertyOp41
 70
     0
102
RTVSPropertyOp42
 70
     0
102
RTVSPropertyOp43
 70
     0
102
RTVSPropertyOp44
 70
     0
102
RTVSPropertyOp45
 70
     0
102
RTVSPropertyOp46
 70
     0
102
RTVSPropertyOp47
 70
     0
102
RTVSPropertyOp48
 70
     0
102
RTVSPropertyOp49
 70
     0
102
RTVSPropertyOp50
 70
     0
102
RTVSPropertyOp51
 70
     0
102
RTVSPropertyOp52
 70
     0
102
RTVSPropertyOp53
 70
     0
102
RTVSPropertyOp54
 70
     0
102
RTVSPropertyOp55
 70
     0
102
RTVSPropertyOp56
 70
     0
102
RTVSPropertyOp57
 70
     0
102
RTVSPropertyOp58
 70
     1
102
RTVSPropertyOp59
 70
     1
102
RTVSPropertyOp60
 70
     1
102
RTVSPropertyOp61
 70
     1
102
RTVSPropertyOp62
 70
     1
  0
XRECORD
  5
36B
102
{ACAD_REACTORS
330
36A
102
}
330
36A
100
AcDbXrecord
280
     1
102
RTVSPost2010Prop28
280
     0
102
RTVSPost2010PropOp28
 70
     1
102
RTVSPost2010Prop29
280
     1
102
RTVSPost2010PropOp29
 70
     1
102
RTVSPost2010Prop30
280
     1
102
RTVSPost2010PropOp30
 70
     1
102
RTVSPost2010Prop31
280
     0
102
RTVSPost2010PropOp31
 70
     1
102
RTVSPost2010Prop32
280
     0
102
RTVSPost2010PropOp32
 70
     1
102
RTVSPost2010Prop33
280
     0
102
RTVSPost2010PropOp33
 70
     1
102
RTVSPost2010Prop34
280
     0
102
RTVSPost2010PropOp34
 70
     1
102
RTVSPost2010Prop35
280
     0
102
RTVSPost2010PropOp35
 70
     1
102
RTVSPost2010Prop36
280
     0
102
RTVSPost2010PropOp36
 70
     1
102
RTVSPost2010Prop37
 90
       50
102
RTVSPost2010PropOp37
 70
     1
102
RTVSPost2010Prop38
140
0.0
102
RTVSPost2010PropOp38
 70
     1
102
RTVSPost2010Prop39
140
1.0
102
RTVSPost2010PropOp39
 70
     1
102
RTVSPost2010Prop40
 90
        0
102
RTVSPost2010PropOp40
 70
     1
102
RTVSPost2010Prop41ColorIndex
 90
       18
102
RTVSPost2010Prop41ColorRGB
 90
        0
102
RTVSPost2010PropOp41
 70
     1
102
RTVSPost2010Prop42
 90
       50
102
RTVSPost2010PropOp42
 70
     1
102
RTVSPost2010Prop43
 90
        3
102
RTVSPost2010PropOp43
 70
     1
102
RTVSPost2010Prop44ColorIndex
 90
        5
102
RTVSPost2010Prop44ColorRGB
 90
      255
102
RTVSPost2010PropOp44
 70
     1
102
RTVSPost2010Prop45
280
     0
102
RTVSPost2010PropOp45
 70
     1
102
RTVSPost2010Prop46
 90
       50
102
RTVSPost2010PropOp46
 70
     1
102
RTVSPost2010Prop47
 90
       50
102
RTVSPost2010PropOp47
 70
     1
102
RTVSPost2010Prop48
 90
       50
102
RTVSPost2010PropOp48
 70
     1
102
RTVSPost2010Prop49
280
     0
102
RTVSPost2010PropOp49
 70
     1
102
RTVSPost2010Prop50
 90
       50
102
RTVSPost2010PropOp50
 70
     1
102
RTVSPost2010Prop51ColorIndex
 90
      256
102
RTVSPost2010Prop51ColorRGB
 90
-16777216
102
RTVSPost2010PropOp51
 70
     0
102
RTVSPost2010Prop52
140
1.0
102
RTVSPost2010PropOp52
 70
     0
102
RTVSPost2010Prop53
 90
        2
102
RTVSPost2010PropOp53
 70
     1
102
RTVSPost2010Prop54
  1
strokes_ogs.tif
102
RTVSPost2010PropOp54
 70
     1
102
RTVSPost2010Prop55
280
     0
102
RTVSPost2010PropOp55
 70
     1
102
RTVSPost2010Prop56
140
1.0
102
RTVSPost2010PropOp56
 70
     1
102
RTVSPost2010Prop57
140
1.0
102
RTVSPost2010PropOp57
 70
     1
102
RTVSPropertyOp0
 70
     1
102
RTVSPropertyOp1
 70
     1
102
RTVSPropertyOp2
 70
     1
102
RTVSPropertyOp3
 70
     1
102
RTVSPropertyOp4
 70
     1
102
RTVSPropertyOp5
 70
     1
102
RTVSPropertyOp6
 70
     1
102
RTVSPropertyOp7
 70
     1
102
RTVSPropertyOp8
 70
     1
102
RTVSPropertyOp9
 70
     1
102
RTVSPropertyOp10
 70
     1
102
RTVSPropertyOp11
 70
     1
102
RTVSPropertyOp12
 70
     1
102
RTVSPropertyOp13
 70
     1
102
RTVSPropertyOp14
 70
     1
102
RTVSPropertyOp15
 70
     1
102
RTVSPropertyOp16
 70
     1
102
RTVSPropertyOp17
 70
     1
102
RTVSPropertyOp18
 70
     1
102
RTVSPropertyOp19
 70
     1
102
RTVSPropertyOp20
 70
     1
102
RTVSPropertyOp21
 70
     1
102
RTVSPropertyOp22
 70
     1
102
RTVSPropertyOp23
 70
     1
102
RTVSPropertyOp24
 70
     1
102
RTVSPropertyOp25
 70
     1
102
RTVSPropertyOp26
 70
     1
102
RTVSPropertyOp27
 70
     1
102
RTVSPropertyOp28
 70
     1
102
RTVSPropertyOp29
 70
     1
102
RTVSPropertyOp30
 70
     1
102
RTVSPropertyOp31
 70
     1
102
RTVSPropertyOp32
 70
     1
102
RTVSPropertyOp33
 70
     1
102
RTVSPropertyOp34
 70
     1
102
RTVSPropertyOp35
 70
     1
102
RTVSPropertyOp36
 70
     1
102
RTVSPropertyOp37
 70
     1
102
RTVSPropertyOp38
 70
     1
102
RTVSPropertyOp39
 70
     1
102
RTVSPropertyOp40
 70
     1
102
RTVSPropertyOp41
 70
     1
102
RTVSPropertyOp42
 70
     1
102
RTVSPropertyOp43
 70
     1
102
RTVSPropertyOp44
 70
     1
102
RTVSPropertyOp45
 70
     1
102
RTVSPropertyOp46
 70
     1
102
RTVSPropertyOp47
 70
     1
102
RTVSPropertyOp48
 70
     1
102
RTVSPropertyOp49
 70
     1
102
RTVSPropertyOp50
 70
     1
102
RTVSPropertyOp51
 70
     0
102
RTVSPropertyOp52
 70
     0
102
RTVSPropertyOp53
 70
     1
102
RTVSPropertyOp54
 70
     1
102
RTVSPropertyOp55
 70
     1
102
RTVSPropertyOp56
 70
     1
102
RTVSPropertyOp57
 70
     1
102
RTVSPropertyOp58
 70
     1
102
RTVSPropertyOp59
 70
     1
102
RTVSPropertyOp60
 70
     1
102
RTVSPropertyOp61
 70
     1
102
RTVSPropertyOp62
 70
     1
  0
XRECORD
  5
389
102
{ACAD_REACTORS
330
388
102
}
330
388
100
AcDbXrecord
280
     1
102
RTVSPost2010Prop28
280
     0
102
RTVSPost2010PropOp28
 70
     1
102
RTVSPost2010Prop29
280
     1
102
RTVSPost2010PropOp29
 70
     1
102
RTVSPost2010Prop30
280
     1
102
RTVSPost2010PropOp30
 70
     1
102
RTVSPost2010Prop31
280
     0
102
RTVSPost2010PropOp31
 70
     1
102
RTVSPost2010Prop32
280
     0
102
RTVSPost2010PropOp32
 70
     1
102
RTVSPost2010Prop33
280
     0
102
RTVSPost2010PropOp33
 70
     1
102
RTVSPost2010Prop34
280
     0
102
RTVSPost2010PropOp34
 70
     1
102
RTVSPost2010Prop35
280
     0
102
RTVSPost2010PropOp35
 70
     1
102
RTVSPost2010Prop36
280
     0
102
RTVSPost2010PropOp36
 70
     1
102
RTVSPost2010Prop37
 90
       50
102
RTVSPost2010PropOp37
 70
     1
102
RTVSPost2010Prop38
140
0.0
102
RTVSPost2010PropOp38
 70
     1
102
RTVSPost2010Prop39
140
1.0
102
RTVSPost2010PropOp39
 70
     1
102
RTVSPost2010Prop40
 90
        0
102
RTVSPost2010PropOp40
 70
     1
102
RTVSPost2010Prop41ColorIndex
 90
       18
102
RTVSPost2010Prop41ColorRGB
 90
        0
102
RTVSPost2010PropOp41
 70
     1
102
RTVSPost2010Prop42
 90
       50
102
RTVSPost2010PropOp42
 70
     1
102
RTVSPost2010Prop43
 90
        3
102
RTVSPost2010PropOp43
 70
     1
102
RTVSPost2010Prop44ColorIndex
 90
        5
102
RTVSPost2010Prop44ColorRGB
 90
      255
102
RTVSPost2010PropOp44
 70
     1
102
RTVSPost2010Prop45
280
     0
102
RTVSPost2010PropOp45
 70
     1
102
RTVSPost2010Prop46
 90
       50
102
RTVSPost2010PropOp46
 70
     1
102
RTVSPost2010Prop47
 90
       50
102
RTVSPost2010PropOp47
 70
     1
102
RTVSPost2010Prop48
 90
       50
102
RTVSPost2010PropOp48
 70
     1
102
RTVSPost2010Prop49
280
     0
102
RTVSPost2010PropOp49
 70
     1
102
RTVSPost2010Prop50
 90
       50
102
RTVSPost2010PropOp50
 70
     1
102
RTVSPost2010Prop51ColorIndex
 90
      256
102
RTVSPost2010Prop51ColorRGB
 90
-16777216
102
RTVSPost2010PropOp51
 70
     0
102
RTVSPost2010Prop52
140
1.0
102
RTVSPost2010PropOp52
 70
     0
102
RTVSPost2010Prop53
 90
        2
102
RTVSPost2010PropOp53
 70
     1
102
RTVSPost2010Prop54
  1
strokes_ogs.tif
102
RTVSPost2010PropOp54
 70
     1
102
RTVSPost2010Prop55
280
     0
102
RTVSPost2010PropOp55
 70
     1
102
RTVSPost2010Prop56
140
1.0
102
RTVSPost2010PropOp56
 70
     1
102
RTVSPost2010Prop57
140
1.0
102
RTVSPost2010PropOp57
 70
     1
102
RTVSPropertyOp0
 70
     1
102
RTVSPropertyOp1
 70
     1
102
RTVSPropertyOp2
 70
     1
102
RTVSPropertyOp3
 70
     1
102
RTVSPropertyOp4
 70
     1
102
RTVSPropertyOp5
 70
     1
102
RTVSPropertyOp6
 70
     1
102
RTVSPropertyOp7
 70
     1
102
RTVSPropertyOp8
 70
     1
102
RTVSPropertyOp9
 70
     1
102
RTVSPropertyOp10
 70
     1
102
RTVSPropertyOp11
 70
     1
102
RTVSPropertyOp12
 70
     1
102
RTVSPropertyOp13
 70
     1
102
RTVSPropertyOp14
 70
     1
102
RTVSPropertyOp15
 70
     1
102
RTVSPropertyOp16
 70
     1
102
RTVSPropertyOp17
 70
     1
102
RTVSPropertyOp18
 70
     1
102
RTVSPropertyOp19
 70
     1
102
RTVSPropertyOp20
 70
     1
102
RTVSPropertyOp21
 70
     1
102
RTVSPropertyOp22
 70
     1
102
RTVSPropertyOp23
 70
     1
102
RTVSPropertyOp24
 70
     1
102
RTVSPropertyOp25
 70
     1
102
RTVSPropertyOp26
 70
     1
102
RTVSPropertyOp27
 70
     1
102
RTVSPropertyOp28
 70
     1
102
RTVSPropertyOp29
 70
     1
102
RTVSPropertyOp30
 70
     1
102
RTVSPropertyOp31
 70
     1
102
RTVSPropertyOp32
 70
     1
102
RTVSPropertyOp33
 70
     1
102
RTVSPropertyOp34
 70
     1
102
RTVSPropertyOp35
 70
     1
102
RTVSPropertyOp36
 70
     1
102
RTVSPropertyOp37
 70
     1
102
RTVSPropertyOp38
 70
     1
102
RTVSPropertyOp39
 70
     1
102
RTVSPropertyOp40
 70
     1
102
RTVSPropertyOp41
 70
     1
102
RTVSPropertyOp42
 70
     1
102
RTVSPropertyOp43
 70
     1
102
RTVSPropertyOp44
 70
     1
102
RTVSPropertyOp45
 70
     1
102
RTVSPropertyOp46
 70
     1
102
RTVSPropertyOp47
 70
     1
102
RTVSPropertyOp48
 70
     1
102
RTVSPropertyOp49
 70
     1
102
RTVSPropertyOp50
 70
     1
102
RTVSPropertyOp51
 70
     0
102
RTVSPropertyOp52
 70
     0
102
RTVSPropertyOp53
 70
     1
102
RTVSPropertyOp54
 70
     1
102
RTVSPropertyOp55
 70
     1
102
RTVSPropertyOp56
 70
     1
102
RTVSPropertyOp57
 70
     1
102
RTVSPropertyOp58
 70
     1
102
RTVSPropertyOp59
 70
     1
102
RTVSPropertyOp60
 70
     1
102
RTVSPropertyOp61
 70
     1
102
RTVSPropertyOp62
 70
     1
  0
XRECORD
  5
387
102
{ACAD_REACTORS
330
386
102
}
330
386
100
AcDbXrecord
280
     1
102
RTVSPost2010Prop28
280
     0
102
RTVSPost2010PropOp28
 70
     1
102
RTVSPost2010Prop29
280
     1
102
RTVSPost2010PropOp29
 70
     1
102
RTVSPost2010Prop30
280
     1
102
RTVSPost2010PropOp30
 70
     1
102
RTVSPost2010Prop31
280
     0
102
RTVSPost2010PropOp31
 70
     1
102
RTVSPost2010Prop32
280
     0
102
RTVSPost2010PropOp32
 70
     1
102
RTVSPost2010Prop33
280
     0
102
RTVSPost2010PropOp33
 70
     1
102
RTVSPost2010Prop34
280
     0
102
RTVSPost2010PropOp34
 70
     1
102
RTVSPost2010Prop35
280
     0
102
RTVSPost2010PropOp35
 70
     1
102
RTVSPost2010Prop36
280
     0
102
RTVSPost2010PropOp36
 70
     1
102
RTVSPost2010Prop37
 90
       50
102
RTVSPost2010PropOp37
 70
     1
102
RTVSPost2010Prop38
140
0.0
102
RTVSPost2010PropOp38
 70
     1
102
RTVSPost2010Prop39
140
1.0
102
RTVSPost2010PropOp39
 70
     1
102
RTVSPost2010Prop40
 90
        0
102
RTVSPost2010PropOp40
 70
     1
102
RTVSPost2010Prop41ColorIndex
 90
       18
102
RTVSPost2010Prop41ColorRGB
 90
        0
102
RTVSPost2010PropOp41
 70
     1
102
RTVSPost2010Prop42
 90
       50
102
RTVSPost2010PropOp42
 70
     1
102
RTVSPost2010Prop43
 90
        3
102
RTVSPost2010PropOp43
 70
     1
102
RTVSPost2010Prop44ColorIndex
 90
        5
102
RTVSPost2010Prop44ColorRGB
 90
      255
102
RTVSPost2010PropOp44
 70
     1
102
RTVSPost2010Prop45
280
     0
102
RTVSPost2010PropOp45
 70
     1
102
RTVSPost2010Prop46
 90
       50
102
RTVSPost2010PropOp46
 70
     1
102
RTVSPost2010Prop47
 90
       50
102
RTVSPost2010PropOp47
 70
     1
102
RTVSPost2010Prop48
 90
       50
102
RTVSPost2010PropOp48
 70
     1
102
RTVSPost2010Prop49
280
     0
102
RTVSPost2010PropOp49
 70
     1
102
RTVSPost2010Prop50
 90
       50
102
RTVSPost2010PropOp50
 70
     1
102
RTVSPost2010Prop51ColorIndex
 90
      256
102
RTVSPost2010Prop51ColorRGB
 90
-16777216
102
RTVSPost2010PropOp51
 70
     0
102
RTVSPost2010Prop52
140
1.0
102
RTVSPost2010PropOp52
 70
     0
102
RTVSPost2010Prop53
 90
        2
102
RTVSPost2010PropOp53
 70
     1
102
RTVSPost2010Prop54
  1
strokes_ogs.tif
102
RTVSPost2010PropOp54
 70
     1
102
RTVSPost2010Prop55
280
     0
102
RTVSPost2010PropOp55
 70
     1
102
RTVSPost2010Prop56
140
1.0
102
RTVSPost2010PropOp56
 70
     1
102
RTVSPost2010Prop57
140
1.0
102
RTVSPost2010PropOp57
 70
     1
102
RTVSPropertyOp0
 70
     1
102
RTVSPropertyOp1
 70
     1
102
RTVSPropertyOp2
 70
     1
102
RTVSPropertyOp3
 70
     1
102
RTVSPropertyOp4
 70
     1
102
RTVSPropertyOp5
 70
     1
102
RTVSPropertyOp6
 70
     1
102
RTVSPropertyOp7
 70
     1
102
RTVSPropertyOp8
 70
     1
102
RTVSPropertyOp9
 70
     1
102
RTVSPropertyOp10
 70
     1
102
RTVSPropertyOp11
 70
     1
102
RTVSPropertyOp12
 70
     1
102
RTVSPropertyOp13
 70
     1
102
RTVSPropertyOp14
 70
     1
102
RTVSPropertyOp15
 70
     1
102
RTVSPropertyOp16
 70
     1
102
RTVSPropertyOp17
 70
     1
102
RTVSPropertyOp18
 70
     1
102
RTVSPropertyOp19
 70
     1
102
RTVSPropertyOp20
 70
     1
102
RTVSPropertyOp21
 70
     1
102
RTVSPropertyOp22
 70
     1
102
RTVSPropertyOp23
 70
     1
102
RTVSPropertyOp24
 70
     1
102
RTVSPropertyOp25
 70
     1
102
RTVSPropertyOp26
 70
     1
102
RTVSPropertyOp27
 70
     1
102
RTVSPropertyOp28
 70
     1
102
RTVSPropertyOp29
 70
     1
102
RTVSPropertyOp30
 70
     1
102
RTVSPropertyOp31
 70
     1
102
RTVSPropertyOp32
 70
     1
102
RTVSPropertyOp33
 70
     1
102
RTVSPropertyOp34
 70
     1
102
RTVSPropertyOp35
 70
     1
102
RTVSPropertyOp36
 70
     1
102
RTVSPropertyOp37
 70
     1
102
RTVSPropertyOp38
 70
     1
102
RTVSPropertyOp39
 70
     1
102
RTVSPropertyOp40
 70
     1
102
RTVSPropertyOp41
 70
     1
102
RTVSPropertyOp42
 70
     1
102
RTVSPropertyOp43
 70
     1
102
RTVSPropertyOp44
 70
     1
102
RTVSPropertyOp45
 70
     1
102
RTVSPropertyOp46
 70
     1
102
RTVSPropertyOp47
 70
     1
102
RTVSPropertyOp48
 70
     1
102
RTVSPropertyOp49
 70
     1
102
RTVSPropertyOp50
 70
     1
102
RTVSPropertyOp51
 70
     0
102
RTVSPropertyOp52
 70
     0
102
RTVSPropertyOp53
 70
     1
102
RTVSPropertyOp54
 70
     1
102
RTVSPropertyOp55
 70
     1
102
RTVSPropertyOp56
 70
     1
102
RTVSPropertyOp57
 70
     1
102
RTVSPropertyOp58
 70
     1
102
RTVSPropertyOp59
 70
     1
102
RTVSPropertyOp60
 70
     1
102
RTVSPropertyOp61
 70
     1
102
RTVSPropertyOp62
 70
     1
  0
XRECORD
  5
381
102
{ACAD_REACTORS
330
380
102
}
330
380
100
AcDbXrecord
280
     1
102
RTVSPost2010Prop28
280
     0
102
RTVSPost2010PropOp28
 70
     1
102
RTVSPost2010Prop29
280
     1
102
RTVSPost2010PropOp29
 70
     1
102
RTVSPost2010Prop30
280
     1
102
RTVSPost2010PropOp30
 70
     1
102
RTVSPost2010Prop31
280
     0
102
RTVSPost2010PropOp31
 70
     1
102
RTVSPost2010Prop32
280
     0
102
RTVSPost2010PropOp32
 70
     1
102
RTVSPost2010Prop33
280
     0
102
RTVSPost2010PropOp33
 70
     1
102
RTVSPost2010Prop34
280
     0
102
RTVSPost2010PropOp34
 70
     1
102
RTVSPost2010Prop35
280
     0
102
RTVSPost2010PropOp35
 70
     1
102
RTVSPost2010Prop36
280
     0
102
RTVSPost2010PropOp36
 70
     1
102
RTVSPost2010Prop37
 90
       50
102
RTVSPost2010PropOp37
 70
     1
102
RTVSPost2010Prop38
140
0.0
102
RTVSPost2010PropOp38
 70
     1
102
RTVSPost2010Prop39
140
1.0
102
RTVSPost2010PropOp39
 70
     1
102
RTVSPost2010Prop40
 90
        0
102
RTVSPost2010PropOp40
 70
     1
102
RTVSPost2010Prop41ColorIndex
 90
       18
102
RTVSPost2010Prop41ColorRGB
 90
        0
102
RTVSPost2010PropOp41
 70
     1
102
RTVSPost2010Prop42
 90
       50
102
RTVSPost2010PropOp42
 70
     1
102
RTVSPost2010Prop43
 90
        3
102
RTVSPost2010PropOp43
 70
     1
102
RTVSPost2010Prop44ColorIndex
 90
        5
102
RTVSPost2010Prop44ColorRGB
 90
      255
102
RTVSPost2010PropOp44
 70
     1
102
RTVSPost2010Prop45
280
     0
102
RTVSPost2010PropOp45
 70
     1
102
RTVSPost2010Prop46
 90
       50
102
RTVSPost2010PropOp46
 70
     1
102
RTVSPost2010Prop47
 90
       50
102
RTVSPost2010PropOp47
 70
     1
102
RTVSPost2010Prop48
 90
       50
102
RTVSPost2010PropOp48
 70
     1
102
RTVSPost2010Prop49
280
     0
102
RTVSPost2010PropOp49
 70
     1
102
RTVSPost2010Prop50
 90
       50
102
RTVSPost2010PropOp50
 70
     1
102
RTVSPost2010Prop51ColorIndex
 90
      256
102
RTVSPost2010Prop51ColorRGB
 90
-16777216
102
RTVSPost2010PropOp51
 70
     0
102
RTVSPost2010Prop52
140
1.0
102
RTVSPost2010PropOp52
 70
     0
102
RTVSPost2010Prop53
 90
        2
102
RTVSPost2010PropOp53
 70
     1
102
RTVSPost2010Prop54
  1
strokes_ogs.tif
102
RTVSPost2010PropOp54
 70
     1
102
RTVSPost2010Prop55
280
     0
102
RTVSPost2010PropOp55
 70
     1
102
RTVSPost2010Prop56
140
1.0
102
RTVSPost2010PropOp56
 70
     1
102
RTVSPost2010Prop57
140
1.0
102
RTVSPost2010PropOp57
 70
     1
102
RTVSPropertyOp0
 70
     1
102
RTVSPropertyOp1
 70
     1
102
RTVSPropertyOp2
 70
     1
102
RTVSPropertyOp3
 70
     1
102
RTVSPropertyOp4
 70
     1
102
RTVSPropertyOp5
 70
     1
102
RTVSPropertyOp6
 70
     1
102
RTVSPropertyOp7
 70
     1
102
RTVSPropertyOp8
 70
     1
102
RTVSPropertyOp9
 70
     1
102
RTVSPropertyOp10
 70
     1
102
RTVSPropertyOp11
 70
     1
102
RTVSPropertyOp12
 70
     1
102
RTVSPropertyOp13
 70
     1
102
RTVSPropertyOp14
 70
     1
102
RTVSPropertyOp15
 70
     1
102
RTVSPropertyOp16
 70
     1
102
RTVSPropertyOp17
 70
     1
102
RTVSPropertyOp18
 70
     1
102
RTVSPropertyOp19
 70
     1
102
RTVSPropertyOp20
 70
     1
102
RTVSPropertyOp21
 70
     1
102
RTVSPropertyOp22
 70
     1
102
RTVSPropertyOp23
 70
     1
102
RTVSPropertyOp24
 70
     1
102
RTVSPropertyOp25
 70
     1
102
RTVSPropertyOp26
 70
     1
102
RTVSPropertyOp27
 70
     1
102
RTVSPropertyOp28
 70
     1
102
RTVSPropertyOp29
 70
     1
102
RTVSPropertyOp30
 70
     1
102
RTVSPropertyOp31
 70
     1
102
RTVSPropertyOp32
 70
     1
102
RTVSPropertyOp33
 70
     1
102
RTVSPropertyOp34
 70
     1
102
RTVSPropertyOp35
 70
     1
102
RTVSPropertyOp36
 70
     1
102
RTVSPropertyOp37
 70
     1
102
RTVSPropertyOp38
 70
     1
102
RTVSPropertyOp39
 70
     1
102
RTVSPropertyOp40
 70
     1
102
RTVSPropertyOp41
 70
     1
102
RTVSPropertyOp42
 70
     1
102
RTVSPropertyOp43
 70
     1
102
RTVSPropertyOp44
 70
     1
102
RTVSPropertyOp45
 70
     1
102
RTVSPropertyOp46
 70
     1
102
RTVSPropertyOp47
 70
     1
102
RTVSPropertyOp48
 70
     1
102
RTVSPropertyOp49
 70
     1
102
RTVSPropertyOp50
 70
     1
102
RTVSPropertyOp51
 70
     0
102
RTVSPropertyOp52
 70
     0
102
RTVSPropertyOp53
 70
     1
102
RTVSPropertyOp54
 70
     1
102
RTVSPropertyOp55
 70
     1
102
RTVSPropertyOp56
 70
     1
102
RTVSPropertyOp57
 70
     1
102
RTVSPropertyOp58
 70
     1
102
RTVSPropertyOp59
 70
     1
102
RTVSPropertyOp60
 70
     1
102
RTVSPropertyOp61
 70
     1
102
RTVSPropertyOp62
 70
     1
  0
XRECORD
  5
383
102
{ACAD_REACTORS
330
382
102
}
330
382
100
AcDbXrecord
280
     1
102
RTVSPost2010Prop28
280
     0
102
RTVSPost2010PropOp28
 70
     1
102
RTVSPost2010Prop29
280
     1
102
RTVSPost2010PropOp29
 70
     1
102
RTVSPost2010Prop30
280
     1
102
RTVSPost2010PropOp30
 70
     1
102
RTVSPost2010Prop31
280
     0
102
RTVSPost2010PropOp31
 70
     1
102
RTVSPost2010Prop32
280
     0
102
RTVSPost2010PropOp32
 70
     1
102
RTVSPost2010Prop33
280
     0
102
RTVSPost2010PropOp33
 70
     1
102
RTVSPost2010Prop34
280
     0
102
RTVSPost2010PropOp34
 70
     1
102
RTVSPost2010Prop35
280
     0
102
RTVSPost2010PropOp35
 70
     1
102
RTVSPost2010Prop36
280
     0
102
RTVSPost2010PropOp36
 70
     1
102
RTVSPost2010Prop37
 90
       50
102
RTVSPost2010PropOp37
 70
     1
102
RTVSPost2010Prop38
140
0.0
102
RTVSPost2010PropOp38
 70
     1
102
RTVSPost2010Prop39
140
1.0
102
RTVSPost2010PropOp39
 70
     1
102
RTVSPost2010Prop40
 90
        0
102
RTVSPost2010PropOp40
 70
     1
102
RTVSPost2010Prop41ColorIndex
 90
       18
102
RTVSPost2010Prop41ColorRGB
 90
        0
102
RTVSPost2010PropOp41
 70
     1
102
RTVSPost2010Prop42
 90
       50
102
RTVSPost2010PropOp42
 70
     1
102
RTVSPost2010Prop43
 90
        3
102
RTVSPost2010PropOp43
 70
     1
102
RTVSPost2010Prop44ColorIndex
 90
        5
102
RTVSPost2010Prop44ColorRGB
 90
      255
102
RTVSPost2010PropOp44
 70
     1
102
RTVSPost2010Prop45
280
     0
102
RTVSPost2010PropOp45
 70
     1
102
RTVSPost2010Prop46
 90
       50
102
RTVSPost2010PropOp46
 70
     1
102
RTVSPost2010Prop47
 90
       50
102
RTVSPost2010PropOp47
 70
     1
102
RTVSPost2010Prop48
 90
       50
102
RTVSPost2010PropOp48
 70
     1
102
RTVSPost2010Prop49
280
     0
102
RTVSPost2010PropOp49
 70
     1
102
RTVSPost2010Prop50
 90
       50
102
RTVSPost2010PropOp50
 70
     1
102
RTVSPost2010Prop51ColorIndex
 90
      256
102
RTVSPost2010Prop51ColorRGB
 90
-16777216
102
RTVSPost2010PropOp51
 70
     0
102
RTVSPost2010Prop52
140
1.0
102
RTVSPost2010PropOp52
 70
     0
102
RTVSPost2010Prop53
 90
        2
102
RTVSPost2010PropOp53
 70
     1
102
RTVSPost2010Prop54
  1
strokes_ogs.tif
102
RTVSPost2010PropOp54
 70
     1
102
RTVSPost2010Prop55
280
     0
102
RTVSPost2010PropOp55
 70
     1
102
RTVSPost2010Prop56
140
1.0
102
RTVSPost2010PropOp56
 70
     1
102
RTVSPost2010Prop57
140
1.0
102
RTVSPost2010PropOp57
 70
     1
102
RTVSPropertyOp0
 70
     1
102
RTVSPropertyOp1
 70
     1
102
RTVSPropertyOp2
 70
     1
102
RTVSPropertyOp3
 70
     1
102
RTVSPropertyOp4
 70
     1
102
RTVSPropertyOp5
 70
     1
102
RTVSPropertyOp6
 70
     1
102
RTVSPropertyOp7
 70
     1
102
RTVSPropertyOp8
 70
     1
102
RTVSPropertyOp9
 70
     1
102
RTVSPropertyOp10
 70
     1
102
RTVSPropertyOp11
 70
     1
102
RTVSPropertyOp12
 70
     1
102
RTVSPropertyOp13
 70
     1
102
RTVSPropertyOp14
 70
     1
102
RTVSPropertyOp15
 70
     1
102
RTVSPropertyOp16
 70
     1
102
RTVSPropertyOp17
 70
     1
102
RTVSPropertyOp18
 70
     1
102
RTVSPropertyOp19
 70
     1
102
RTVSPropertyOp20
 70
     1
102
RTVSPropertyOp21
 70
     1
102
RTVSPropertyOp22
 70
     1
102
RTVSPropertyOp23
 70
     1
102
RTVSPropertyOp24
 70
     1
102
RTVSPropertyOp25
 70
     1
102
RTVSPropertyOp26
 70
     1
102
RTVSPropertyOp27
 70
     1
102
RTVSPropertyOp28
 70
     1
102
RTVSPropertyOp29
 70
     1
102
RTVSPropertyOp30
 70
     1
102
RTVSPropertyOp31
 70
     1
102
RTVSPropertyOp32
 70
     1
102
RTVSPropertyOp33
 70
     1
102
RTVSPropertyOp34
 70
     1
102
RTVSPropertyOp35
 70
     1
102
RTVSPropertyOp36
 70
     1
102
RTVSPropertyOp37
 70
     1
102
RTVSPropertyOp38
 70
     1
102
RTVSPropertyOp39
 70
     1
102
RTVSPropertyOp40
 70
     1
102
RTVSPropertyOp41
 70
     1
102
RTVSPropertyOp42
 70
     1
102
RTVSPropertyOp43
 70
     1
102
RTVSPropertyOp44
 70
     1
102
RTVSPropertyOp45
 70
     1
102
RTVSPropertyOp46
 70
     1
102
RTVSPropertyOp47
 70
     1
102
RTVSPropertyOp48
 70
     1
102
RTVSPropertyOp49
 70
     1
102
RTVSPropertyOp50
 70
     1
102
RTVSPropertyOp51
 70
     0
102
RTVSPropertyOp52
 70
     0
102
RTVSPropertyOp53
 70
     1
102
RTVSPropertyOp54
 70
     1
102
RTVSPropertyOp55
 70
     1
102
RTVSPropertyOp56
 70
     1
102
RTVSPropertyOp57
 70
     1
102
RTVSPropertyOp58
 70
     1
102
RTVSPropertyOp59
 70
     1
102
RTVSPropertyOp60
 70
     1
102
RTVSPropertyOp61
 70
     1
102
RTVSPropertyOp62
 70
     1
  0
XRECORD
  5
373
102
{ACAD_REACTORS
330
372
102
}
330
372
100
AcDbXrecord
280
     1
102
RTVSPost2010Prop28
280
     0
102
RTVSPost2010PropOp28
 70
     1
102
RTVSPost2010Prop29
280
     1
102
RTVSPost2010PropOp29
 70
     1
102
RTVSPost2010Prop30
280
     1
102
RTVSPost2010PropOp30
 70
     1
102
RTVSPost2010Prop31
280
     0
102
RTVSPost2010PropOp31
 70
     1
102
RTVSPost2010Prop32
280
     0
102
RTVSPost2010PropOp32
 70
     1
102
RTVSPost2010Prop33
280
     0
102
RTVSPost2010PropOp33
 70
     1
102
RTVSPost2010Prop34
280
     0
102
RTVSPost2010PropOp34
 70
     1
102
RTVSPost2010Prop35
280
     0
102
RTVSPost2010PropOp35
 70
     1
102
RTVSPost2010Prop36
280
     0
102
RTVSPost2010PropOp36
 70
     1
102
RTVSPost2010Prop37
 90
       50
102
RTVSPost2010PropOp37
 70
     1
102
RTVSPost2010Prop38
140
0.0
102
RTVSPost2010PropOp38
 70
     1
102
RTVSPost2010Prop39
140
1.0
102
RTVSPost2010PropOp39
 70
     1
102
RTVSPost2010Prop40
 90
        0
102
RTVSPost2010PropOp40
 70
     1
102
RTVSPost2010Prop41ColorIndex
 90
       18
102
RTVSPost2010Prop41ColorRGB
 90
        0
102
RTVSPost2010PropOp41
 70
     1
102
RTVSPost2010Prop42
 90
       50
102
RTVSPost2010PropOp42
 70
     1
102
RTVSPost2010Prop43
 90
        3
102
RTVSPost2010PropOp43
 70
     1
102
RTVSPost2010Prop44ColorIndex
 90
        5
102
RTVSPost2010Prop44ColorRGB
 90
      255
102
RTVSPost2010PropOp44
 70
     1
102
RTVSPost2010Prop45
280
     0
102
RTVSPost2010PropOp45
 70
     1
102
RTVSPost2010Prop46
 90
       50
102
RTVSPost2010PropOp46
 70
     1
102
RTVSPost2010Prop47
 90
       50
102
RTVSPost2010PropOp47
 70
     1
102
RTVSPost2010Prop48
 90
       50
102
RTVSPost2010PropOp48
 70
     1
102
RTVSPost2010Prop49
280
     0
102
RTVSPost2010PropOp49
 70
     1
102
RTVSPost2010Prop50
 90
       50
102
RTVSPost2010PropOp50
 70
     1
102
RTVSPost2010Prop51ColorIndex
 90
      256
102
RTVSPost2010Prop51ColorRGB
 90
-16777216
102
RTVSPost2010PropOp51
 70
     0
102
RTVSPost2010Prop52
140
1.0
102
RTVSPost2010PropOp52
 70
     0
102
RTVSPost2010Prop53
 90
        2
102
RTVSPost2010PropOp53
 70
     1
102
RTVSPost2010Prop54
  1
strokes_ogs.tif
102
RTVSPost2010PropOp54
 70
     1
102
RTVSPost2010Prop55
280
     0
102
RTVSPost2010PropOp55
 70
     1
102
RTVSPost2010Prop56
140
1.0
102
RTVSPost2010PropOp56
 70
     1
102
RTVSPost2010Prop57
140
1.0
102
RTVSPost2010PropOp57
 70
     1
102
RTVSPropertyOp0
 70
     1
102
RTVSPropertyOp1
 70
     1
102
RTVSPropertyOp2
 70
     1
102
RTVSPropertyOp3
 70
     1
102
RTVSPropertyOp4
 70
     1
102
RTVSPropertyOp5
 70
     1
102
RTVSPropertyOp6
 70
     1
102
RTVSPropertyOp7
 70
     1
102
RTVSPropertyOp8
 70
     1
102
RTVSPropertyOp9
 70
     1
102
RTVSPropertyOp10
 70
     1
102
RTVSPropertyOp11
 70
     1
102
RTVSPropertyOp12
 70
     1
102
RTVSPropertyOp13
 70
     1
102
RTVSPropertyOp14
 70
     1
102
RTVSPropertyOp15
 70
     1
102
RTVSPropertyOp16
 70
     1
102
RTVSPropertyOp17
 70
     1
102
RTVSPropertyOp18
 70
     1
102
RTVSPropertyOp19
 70
     1
102
RTVSPropertyOp20
 70
     1
102
RTVSPropertyOp21
 70
     1
102
RTVSPropertyOp22
 70
     1
102
RTVSPropertyOp23
 70
     1
102
RTVSPropertyOp24
 70
     1
102
RTVSPropertyOp25
 70
     1
102
RTVSPropertyOp26
 70
     1
102
RTVSPropertyOp27
 70
     1
102
RTVSPropertyOp28
 70
     1
102
RTVSPropertyOp29
 70
     1
102
RTVSPropertyOp30
 70
     1
102
RTVSPropertyOp31
 70
     1
102
RTVSPropertyOp32
 70
     1
102
RTVSPropertyOp33
 70
     1
102
RTVSPropertyOp34
 70
     1
102
RTVSPropertyOp35
 70
     1
102
RTVSPropertyOp36
 70
     1
102
RTVSPropertyOp37
 70
     1
102
RTVSPropertyOp38
 70
     1
102
RTVSPropertyOp39
 70
     1
102
RTVSPropertyOp40
 70
     1
102
RTVSPropertyOp41
 70
     1
102
RTVSPropertyOp42
 70
     1
102
RTVSPropertyOp43
 70
     1
102
RTVSPropertyOp44
 70
     1
102
RTVSPropertyOp45
 70
     1
102
RTVSPropertyOp46
 70
     1
102
RTVSPropertyOp47
 70
     1
102
RTVSPropertyOp48
 70
     1
102
RTVSPropertyOp49
 70
     1
102
RTVSPropertyOp50
 70
     1
102
RTVSPropertyOp51
 70
     0
102
RTVSPropertyOp52
 70
     0
102
RTVSPropertyOp53
 70
     1
102
RTVSPropertyOp54
 70
     1
102
RTVSPropertyOp55
 70
     1
102
RTVSPropertyOp56
 70
     1
102
RTVSPropertyOp57
 70
     1
102
RTVSPropertyOp58
 70
     1
102
RTVSPropertyOp59
 70
     1
102
RTVSPropertyOp60
 70
     1
102
RTVSPropertyOp61
 70
     1
102
RTVSPropertyOp62
 70
     1
  0
XRECORD
  5
365
102
{ACAD_REACTORS
330
364
102
}
330
364
100
AcDbXrecord
280
     1
102
RTVSPost2010Prop28
280
     0
102
RTVSPost2010PropOp28
 70
     1
102
RTVSPost2010Prop29
280
     1
102
RTVSPost2010PropOp29
 70
     1
102
RTVSPost2010Prop30
280
     1
102
RTVSPost2010PropOp30
 70
     1
102
RTVSPost2010Prop31
280
     0
102
RTVSPost2010PropOp31
 70
     1
102
RTVSPost2010Prop32
280
     0
102
RTVSPost2010PropOp32
 70
     1
102
RTVSPost2010Prop33
280
     0
102
RTVSPost2010PropOp33
 70
     1
102
RTVSPost2010Prop34
280
     0
102
RTVSPost2010PropOp34
 70
     1
102
RTVSPost2010Prop35
280
     0
102
RTVSPost2010PropOp35
 70
     1
102
RTVSPost2010Prop36
280
     0
102
RTVSPost2010PropOp36
 70
     1
102
RTVSPost2010Prop37
 90
       50
102
RTVSPost2010PropOp37
 70
     1
102
RTVSPost2010Prop38
140
0.0
102
RTVSPost2010PropOp38
 70
     1
102
RTVSPost2010Prop39
140
1.0
102
RTVSPost2010PropOp39
 70
     1
102
RTVSPost2010Prop40
 90
        0
102
RTVSPost2010PropOp40
 70
     1
102
RTVSPost2010Prop41ColorIndex
 90
       18
102
RTVSPost2010Prop41ColorRGB
 90
        0
102
RTVSPost2010PropOp41
 70
     1
102
RTVSPost2010Prop42
 90
       50
102
RTVSPost2010PropOp42
 70
     1
102
RTVSPost2010Prop43
 90
        3
102
RTVSPost2010PropOp43
 70
     1
102
RTVSPost2010Prop44ColorIndex
 90
        5
102
RTVSPost2010Prop44ColorRGB
 90
      255
102
RTVSPost2010PropOp44
 70
     1
102
RTVSPost2010Prop45
280
     0
102
RTVSPost2010PropOp45
 70
     1
102
RTVSPost2010Prop46
 90
       50
102
RTVSPost2010PropOp46
 70
     1
102
RTVSPost2010Prop47
 90
       50
102
RTVSPost2010PropOp47
 70
     1
102
RTVSPost2010Prop48
 90
       50
102
RTVSPost2010PropOp48
 70
     1
102
RTVSPost2010Prop49
280
     0
102
RTVSPost2010PropOp49
 70
     1
102
RTVSPost2010Prop50
 90
       50
102
RTVSPost2010PropOp50
 70
     1
102
RTVSPost2010Prop51ColorIndex
 90
      256
102
RTVSPost2010Prop51ColorRGB
 90
-16777216
102
RTVSPost2010PropOp51
 70
     0
102
RTVSPost2010Prop52
140
1.0
102
RTVSPost2010PropOp52
 70
     0
102
RTVSPost2010Prop53
 90
        2
102
RTVSPost2010PropOp53
 70
     1
102
RTVSPost2010Prop54
  1
strokes_ogs.tif
102
RTVSPost2010PropOp54
 70
     1
102
RTVSPost2010Prop55
280
     0
102
RTVSPost2010PropOp55
 70
     1
102
RTVSPost2010Prop56
140
1.0
102
RTVSPost2010PropOp56
 70
     1
102
RTVSPost2010Prop57
140
1.0
102
RTVSPost2010PropOp57
 70
     1
102
RTVSPropertyOp0
 70
     1
102
RTVSPropertyOp1
 70
     1
102
RTVSPropertyOp2
 70
     1
102
RTVSPropertyOp3
 70
     1
102
RTVSPropertyOp4
 70
     1
102
RTVSPropertyOp5
 70
     1
102
RTVSPropertyOp6
 70
     1
102
RTVSPropertyOp7
 70
     1
102
RTVSPropertyOp8
 70
     1
102
RTVSPropertyOp9
 70
     1
102
RTVSPropertyOp10
 70
     1
102
RTVSPropertyOp11
 70
     1
102
RTVSPropertyOp12
 70
     1
102
RTVSPropertyOp13
 70
     1
102
RTVSPropertyOp14
 70
     1
102
RTVSPropertyOp15
 70
     1
102
RTVSPropertyOp16
 70
     1
102
RTVSPropertyOp17
 70
     1
102
RTVSPropertyOp18
 70
     1
102
RTVSPropertyOp19
 70
     1
102
RTVSPropertyOp20
 70
     1
102
RTVSPropertyOp21
 70
     1
102
RTVSPropertyOp22
 70
     1
102
RTVSPropertyOp23
 70
     1
102
RTVSPropertyOp24
 70
     1
102
RTVSPropertyOp25
 70
     1
102
RTVSPropertyOp26
 70
     1
102
RTVSPropertyOp27
 70
     1
102
RTVSPropertyOp28
 70
     1
102
RTVSPropertyOp29
 70
     1
102
RTVSPropertyOp30
 70
     1
102
RTVSPropertyOp31
 70
     1
102
RTVSPropertyOp32
 70
     1
102
RTVSPropertyOp33
 70
     1
102
RTVSPropertyOp34
 70
     1
102
RTVSPropertyOp35
 70
     1
102
RTVSPropertyOp36
 70
     1
102
RTVSPropertyOp37
 70
     1
102
RTVSPropertyOp38
 70
     1
102
RTVSPropertyOp39
 70
     1
102
RTVSPropertyOp40
 70
     1
102
RTVSPropertyOp41
 70
     1
102
RTVSPropertyOp42
 70
     1
102
RTVSPropertyOp43
 70
     1
102
RTVSPropertyOp44
 70
     1
102
RTVSPropertyOp45
 70
     1
102
RTVSPropertyOp46
 70
     1
102
RTVSPropertyOp47
 70
     1
102
RTVSPropertyOp48
 70
     1
102
RTVSPropertyOp49
 70
     1
102
RTVSPropertyOp50
 70
     1
102
RTVSPropertyOp51
 70
     0
102
RTVSPropertyOp52
 70
     0
102
RTVSPropertyOp53
 70
     1
102
RTVSPropertyOp54
 70
     1
102
RTVSPropertyOp55
 70
     1
102
RTVSPropertyOp56
 70
     1
102
RTVSPropertyOp57
 70
     1
102
RTVSPropertyOp58
 70
     1
102
RTVSPropertyOp59
 70
     1
102
RTVSPropertyOp60
 70
     1
102
RTVSPropertyOp61
 70
     1
102
RTVSPropertyOp62
 70
     1
  0
XRECORD
  5
385
102
{ACAD_REACTORS
330
384
102
}
330
384
100
AcDbXrecord
280
     1
102
RTVSPost2010Prop28
280
     0
102
RTVSPost2010PropOp28
 70
     1
102
RTVSPost2010Prop29
280
     1
102
RTVSPost2010PropOp29
 70
     1
102
RTVSPost2010Prop30
280
     1
102
RTVSPost2010PropOp30
 70
     1
102
RTVSPost2010Prop31
280
     0
102
RTVSPost2010PropOp31
 70
     1
102
RTVSPost2010Prop32
280
     0
102
RTVSPost2010PropOp32
 70
     1
102
RTVSPost2010Prop33
280
     0
102
RTVSPost2010PropOp33
 70
     1
102
RTVSPost2010Prop34
280
     0
102
RTVSPost2010PropOp34
 70
     1
102
RTVSPost2010Prop35
280
     0
102
RTVSPost2010PropOp35
 70
     1
102
RTVSPost2010Prop36
280
     0
102
RTVSPost2010PropOp36
 70
     1
102
RTVSPost2010Prop37
 90
       50
102
RTVSPost2010PropOp37
 70
     1
102
RTVSPost2010Prop38
140
0.0
102
RTVSPost2010PropOp38
 70
     1
102
RTVSPost2010Prop39
140
1.0
102
RTVSPost2010PropOp39
 70
     1
102
RTVSPost2010Prop40
 90
        0
102
RTVSPost2010PropOp40
 70
     1
102
RTVSPost2010Prop41ColorIndex
 90
       18
102
RTVSPost2010Prop41ColorRGB
 90
        0
102
RTVSPost2010PropOp41
 70
     1
102
RTVSPost2010Prop42
 90
       50
102
RTVSPost2010PropOp42
 70
     1
102
RTVSPost2010Prop43
 90
        3
102
RTVSPost2010PropOp43
 70
     1
102
RTVSPost2010Prop44ColorIndex
 90
        5
102
RTVSPost2010Prop44ColorRGB
 90
      255
102
RTVSPost2010PropOp44
 70
     1
102
RTVSPost2010Prop45
280
     0
102
RTVSPost2010PropOp45
 70
     1
102
RTVSPost2010Prop46
 90
       50
102
RTVSPost2010PropOp46
 70
     1
102
RTVSPost2010Prop47
 90
       50
102
RTVSPost2010PropOp47
 70
     1
102
RTVSPost2010Prop48
 90
       50
102
RTVSPost2010PropOp48
 70
     1
102
RTVSPost2010Prop49
280
     0
102
RTVSPost2010PropOp49
 70
     1
102
RTVSPost2010Prop50
 90
       50
102
RTVSPost2010PropOp50
 70
     1
102
RTVSPost2010Prop51ColorIndex
 90
      256
102
RTVSPost2010Prop51ColorRGB
 90
-16777216
102
RTVSPost2010PropOp51
 70
     0
102
RTVSPost2010Prop52
140
1.0
102
RTVSPost2010PropOp52
 70
     0
102
RTVSPost2010Prop53
 90
        2
102
RTVSPost2010PropOp53
 70
     1
102
RTVSPost2010Prop54
  1
strokes_ogs.tif
102
RTVSPost2010PropOp54
 70
     1
102
RTVSPost2010Prop55
280
     0
102
RTVSPost2010PropOp55
 70
     1
102
RTVSPost2010Prop56
140
1.0
102
RTVSPost2010PropOp56
 70
     1
102
RTVSPost2010Prop57
140
1.0
102
RTVSPost2010PropOp57
 70
     1
102
RTVSPropertyOp0
 70
     1
102
RTVSPropertyOp1
 70
     1
102
RTVSPropertyOp2
 70
     1
102
RTVSPropertyOp3
 70
     1
102
RTVSPropertyOp4
 70
     1
102
RTVSPropertyOp5
 70
     1
102
RTVSPropertyOp6
 70
     1
102
RTVSPropertyOp7
 70
     1
102
RTVSPropertyOp8
 70
     1
102
RTVSPropertyOp9
 70
     1
102
RTVSPropertyOp10
 70
     1
102
RTVSPropertyOp11
 70
     1
102
RTVSPropertyOp12
 70
     1
102
RTVSPropertyOp13
 70
     1
102
RTVSPropertyOp14
 70
     1
102
RTVSPropertyOp15
 70
     1
102
RTVSPropertyOp16
 70
     1
102
RTVSPropertyOp17
 70
     1
102
RTVSPropertyOp18
 70
     1
102
RTVSPropertyOp19
 70
     1
102
RTVSPropertyOp20
 70
     1
102
RTVSPropertyOp21
 70
     1
102
RTVSPropertyOp22
 70
     1
102
RTVSPropertyOp23
 70
     1
102
RTVSPropertyOp24
 70
     1
102
RTVSPropertyOp25
 70
     1
102
RTVSPropertyOp26
 70
     1
102
RTVSPropertyOp27
 70
     1
102
RTVSPropertyOp28
 70
     1
102
RTVSPropertyOp29
 70
     1
102
RTVSPropertyOp30
 70
     1
102
RTVSPropertyOp31
 70
     1
102
RTVSPropertyOp32
 70
     1
102
RTVSPropertyOp33
 70
     1
102
RTVSPropertyOp34
 70
     1
102
RTVSPropertyOp35
 70
     1
102
RTVSPropertyOp36
 70
     1
102
RTVSPropertyOp37
 70
     1
102
RTVSPropertyOp38
 70
     1
102
RTVSPropertyOp39
 70
     1
102
RTVSPropertyOp40
 70
     1
102
RTVSPropertyOp41
 70
     1
102
RTVSPropertyOp42
 70
     1
102
RTVSPropertyOp43
 70
     1
102
RTVSPropertyOp44
 70
     1
102
RTVSPropertyOp45
 70
     1
102
RTVSPropertyOp46
 70
     1
102
RTVSPropertyOp47
 70
     1
102
RTVSPropertyOp48
 70
     1
102
RTVSPropertyOp49
 70
     1
102
RTVSPropertyOp50
 70
     1
102
RTVSPropertyOp51
 70
     0
102
RTVSPropertyOp52
 70
     0
102
RTVSPropertyOp53
 70
     1
102
RTVSPropertyOp54
 70
     1
102
RTVSPropertyOp55
 70
     1
102
RTVSPropertyOp56
 70
     1
102
RTVSPropertyOp57
 70
     1
102
RTVSPropertyOp58
 70
     1
102
RTVSPropertyOp59
 70
     1
102
RTVSPropertyOp60
 70
     1
102
RTVSPropertyOp61
 70
     1
102
RTVSPropertyOp62
 70
     1
  0
ENDSEC
  0
EOF
