  0
SECTION
  2
HEADER
  9
$ACADVER
  1
AC1018
  9
$ACADMAINTVER
 70
   104
  9
$DWGCODEPAGE
  3
ANSI_1250
  9
$LASTSAVEDBY
  1
wq7085
  9
$INSBASE
 10
0.0
 20
0.0
 30
0.0
  9
$EXTMIN
 10
185.2894053333333
 20
118.534924
 30
0.0
  9
$EXTMAX
 10
458.1454929999999
 20
347.6965206666668
 30
0.0
  9
$LIMMIN
 10
-0.5
 20
-0.5
  9
$LIMMAX
 10
5.0
 20
5.0
  9
$ORTHOMODE
 70
     0
  9
$REGENMODE
 70
     1
  9
$FILLMODE
 70
     1
  9
$QTEXTMODE
 70
     0
  9
$MIRRTEXT
 70
     1
  9
$LTSCALE
 40
1.0
  9
$ATTMODE
 70
     1
  9
$TEXTSIZE
 40
0.2
  9
$TRACEWID
 40
0.05
  9
$TEXTSTYLE
  7
Standard
  9
$CLAYER
  8
0
  9
$CELTYPE
  6
ByLayer
  9
$CECOLOR
 62
   256
  9
$CELTSCALE
 40
1.0
  9
$DISPSILH
 70
     0
  9
$DIMSCALE
 40
1.0
  9
$DIMASZ
 40
0.18
  9
$DIMEXO
 40
0.0625
  9
$DIMDLI
 40
0.38
  9
$DIMRND
 40
0.0
  9
$DIMDLE
 40
0.0
  9
$DIMEXE
 40
0.18
  9
$DIMTP
 40
0.0
  9
$DIMTM
 40
0.0
  9
$DIMTXT
 40
0.18
  9
$DIMCEN
 40
0.09
  9
$DIMTSZ
 40
0.0
  9
$DIMTOL
 70
     0
  9
$DIMLIM
 70
     0
  9
$DIMTIH
 70
     1
  9
$DIMTOH
 70
     1
  9
$DIMSE1
 70
     0
  9
$DIMSE2
 70
     0
  9
$DIMTAD
 70
     0
  9
$DIMZIN
 70
     0
  9
$DIMBLK
  1

  9
$DIMASO
 70
     1
  9
$DIMSHO
 70
     1
  9
$DIMPOST
  1

  9
$DIMAPOST
  1

  9
$DIMALT
 70
     0
  9
$DIMALTD
 70
     2
  9
$DIMALTF
 40
25.4
  9
$DIMLFAC
 40
1.0
  9
$DIMTOFL
 70
     0
  9
$DIMTVP
 40
0.0
  9
$DIMTIX
 70
     0
  9
$DIMSOXD
 70
     0
  9
$DIMSAH
 70
     0
  9
$DIMBLK1
  1

  9
$DIMBLK2
  1

  9
$DIMSTYLE
  2
Standard
  9
$DIMCLRD
 70
     0
  9
$DIMCLRE
 70
     0
  9
$DIMCLRT
 70
     0
  9
$DIMTFAC
 40
1.0
  9
$DIMGAP
 40
0.09
  9
$DIMJUST
 70
     0
  9
$DIMSD1
 70
     0
  9
$DIMSD2
 70
     0
  9
$DIMTOLJ
 70
     1
  9
$DIMTZIN
 70
     0
  9
$DIMALTZ
 70
     0
  9
$DIMALTTZ
 70
     0
  9
$DIMUPT
 70
     0
  9
$DIMDEC
 70
     4
  9
$DIMTDEC
 70
     4
  9
$DIMALTU
 70
     2
  9
$DIMALTTD
 70
     2
  9
$DIMTXSTY
  7
Standard
  9
$DIMAUNIT
 70
     0
  9
$DIMADEC
 70
     0
  9
$DIMALTRND
 40
0.0
  9
$DIMAZIN
 70
     0
  9
$DIMDSEP
 70
    46
  9
$DIMATFIT
 70
     3
  9
$DIMFRAC
 70
     0
  9
$DIMLDRBLK
  1

  9
$DIMLUNIT
 70
     2
  9
$DIMLWD
 70
    -2
  9
$DIMLWE
 70
    -2
  9
$DIMTMOVE
 70
     0
  9
$LUNITS
 70
     2
  9
$LUPREC
 70
     4
  9
$SKETCHINC
 40
0.1
  9
$FILLETRAD
 40
0.5
  9
$AUNITS
 70
     0
  9
$AUPREC
 70
     0
  9
$MENU
  1
.
  9
$ELEVATION
 40
0.0
  9
$PELEVATION
 40
0.0
  9
$THICKNESS
 40
0.0
  9
$LIMCHECK
 70
     0
  9
$CHAMFERA
 40
0.0
  9
$CHAMFERB
 40
0.0
  9
$CHAMFERC
 40
0.0
  9
$CHAMFERD
 40
0.0
  9
$SKPOLY
 70
     0
  9
$TDCREATE
 40
2459095.513784723
  9
$TDUCREATE
 40
2459095.430461482
  9
$TDUPDATE
 40
2459095.514201389
  9
$TDUUPDATE
 40
2459095.430868056
  9
$TDINDWG
 40
0.0001967708
  9
$TDUSRTIMER
 40
0.0001967708
  9
$USRTIMER
 70
     1
  9
$ANGBASE
 50
0.0
  9
$ANGDIR
 70
     0
  9
$PDMODE
 70
     0
  9
$PDSIZE
 40
0.0
  9
$PLINEWID
 40
0.0
  9
$SPLFRAME
 70
     0
  9
$SPLINETYPE
 70
     6
  9
$SPLINESEGS
 70
     8
  9
$HANDSEED
  5
394
  9
$SURFTAB1
 70
     6
  9
$SURFTAB2
 70
     6
  9
$SURFTYPE
 70
     6
  9
$SURFU
 70
     6
  9
$SURFV
 70
     6
  9
$UCSBASE
  2

  9
$UCSNAME
  2

  9
$UCSORG
 10
274.404842
 20
288.907994
 30
0.0
  9
$UCSXDIR
 10
1.0
 20
0.0
 30
0.0
  9
$UCSYDIR
 10
0.0
 20
1.0
 30
0.0
  9
$UCSORTHOREF
  2

  9
$UCSORTHOVIEW
 70
     0
  9
$UCSORGTOP
 10
0.0
 20
0.0
 30
0.0
  9
$UCSORGBOTTOM
 10
0.0
 20
0.0
 30
0.0
  9
$UCSORGLEFT
 10
0.0
 20
0.0
 30
0.0
  9
$UCSORGRIGHT
 10
0.0
 20
0.0
 30
0.0
  9
$UCSORGFRONT
 10
0.0
 20
0.0
 30
0.0
  9
$UCSORGBACK
 10
0.0
 20
0.0
 30
0.0
  9
$PUCSBASE
  2

  9
$PUCSNAME
  2

  9
$PUCSORG
 10
0.0
 20
0.0
 30
0.0
  9
$PUCSXDIR
 10
1.0
 20
0.0
 30
0.0
  9
$PUCSYDIR
 10
0.0
 20
1.0
 30
0.0
  9
$PUCSORTHOREF
  2

  9
$PUCSORTHOVIEW
 70
     0
  9
$PUCSORGTOP
 10
0.0
 20
0.0
 30
0.0
  9
$PUCSORGBOTTOM
 10
0.0
 20
0.0
 30
0.0
  9
$PUCSORGLEFT
 10
0.0
 20
0.0
 30
0.0
  9
$PUCSORGRIGHT
 10
0.0
 20
0.0
 30
0.0
  9
$PUCSORGFRONT
 10
0.0
 20
0.0
 30
0.0
  9
$PUCSORGBACK
 10
0.0
 20
0.0
 30
0.0
  9
$USERI1
 70
     0
  9
$USERI2
 70
     0
  9
$USERI3
 70
     0
  9
$USERI4
 70
     0
  9
$USERI5
 70
     0
  9
$USERR1
 40
0.0
  9
$USERR2
 40
0.0
  9
$USERR3
 40
0.0
  9
$USERR4
 40
0.0
  9
$USERR5
 40
0.0
  9
$WORLDVIEW
 70
     1
  9
$SHADEDGE
 70
     3
  9
$SHADEDIF
 70
    70
  9
$TILEMODE
 70
     1
  9
$MAXACTVP
 70
    64
  9
$PINSBASE
 10
0.0
 20
0.0
 30
0.0
  9
$PLIMCHECK
 70
     0
  9
$PEXTMIN
 10
-0.5
 20
-0.5
 30
-0.5
  9
$PEXTMAX
 10
5.0
 20
5.0
 30
5.0
  9
$PLIMMIN
 10
-0.5
 20
-0.5
  9
$PLIMMAX
 10
5.0
 20
5.0
  9
$UNITMODE
 70
     0
  9
$VISRETAIN
 70
     1
  9
$PLINEGEN
 70
     0
  9
$PSLTSCALE
 70
     1
  9
$TREEDEPTH
 70
  3020
  9
$CMLSTYLE
  2
Standard
  9
$CMLJUST
 70
     0
  9
$CMLSCALE
 40
1.0
  9
$PROXYGRAPHICS
 70
     1
  9
$MEASUREMENT
 70
     1
  9
$CELWEIGHT
370
    13
  9
$ENDCAPS
280
     0
  9
$JOINSTYLE
280
     0
  9
$LWDISPLAY
290
     0
  9
$INSUNITS
 70
     4
  9
$HYPERLINKBASE
  1

  9
$STYLESHEET
  1

  9
$XEDIT
290
     1
  9
$CEPSNTYPE
380
     0
  9
$PSTYLEMODE
290
     1
  9
$FINGERPRINTGUID
  2
{1B4740FB-D374-4B74-87FE-1F14665201C9}
  9
$VERSIONGUID
  2
{0DF9C7CF-375E-1A4A-B3CD-5FB5EC5D276F}
  9
$EXTNAMES
290
     1
  9
$PSVPSCALE
 40
0.0
  9
$OLESTARTUP
290
     0
  9
$SORTENTS
280
   127
  9
$INDEXCTL
280
     0
  9
$HIDETEXT
280
     1
  9
$XCLIPFRAME
290
     0
  9
$HALOGAP
280
     0
  9
$OBSCOLOR
 70
   257
  9
$OBSLTYPE
280
     0
  9
$INTERSECTIONDISPLAY
280
     0
  9
$INTERSECTIONCOLOR
 70
   257
  9
$DIMASSOC
280
     2
  9
$PROJECTNAME
  1

  0
ENDSEC
  0
SECTION
  2
CLASSES
  0
CLASS
  1
ACDBDICTIONARYWDFLT
  2
AcDbDictionaryWithDefault
  3
ObjectDBX Classes
 90
        0
 91
        1
280
     0
281
     0
  0
CLASS
  1
VISUALSTYLE
  2
AcDbVisualStyle
  3
ObjectDBX Classes
 90
     4095
 91
       24
280
     0
281
     0
  0
CLASS
  1
MATERIAL
  2
AcDbMaterial
  3
ObjectDBX Classes
 90
     1153
 91
        3
280
     0
281
     0
  0
CLASS
  1
SCALE
  2
AcDbScale
  3
ObjectDBX Classes
 90
     1153
 91
       33
280
     0
281
     0
  0
CLASS
  1
TABLESTYLE
  2
AcDbTableStyle
  3
ObjectDBX Classes
 90
     4095
 91
        1
280
     0
281
     0
  0
CLASS
  1
MLEADERSTYLE
  2
AcDbMLeaderStyle
  3
ACDB_MLEADERSTYLE_CLASS
 90
     4095
 91
        1
280
     0
281
     0
  0
CLASS
  1
SUN
  2
AcDbSun
  3
SCENEOE
 90
     1153
 91
        0
280
     0
281
     0
  0
CLASS
  1
DIMASSOC
  2
AcDbDimAssoc
  3
"AcDbDimAssoc|Product Desc:     AcDim ARX App For Dimension|Company:          Autodesk, Inc.|WEB Address:      www.autodesk.com"
 90
        0
 91
        7
280
     0
281
     0
  0
CLASS
  1
DICTIONARYVAR
  2
AcDbDictionaryVar
  3
ObjectDBX Classes
 90
        0
 91
        8
280
     0
281
     0
  0
CLASS
  1
CELLSTYLEMAP
  2
AcDbCellStyleMap
  3
ObjectDBX Classes
 90
     1152
 91
        2
280
     0
281
     0
  0
CLASS
  1
ACDBSECTIONVIEWSTYLE
  2
AcDbSectionViewStyle
  3
ObjectDBX Classes
 90
     1025
 91
        1
280
     0
281
     0
  0
CLASS
  1
ACDBDETAILVIEWSTYLE
  2
AcDbDetailViewStyle
  3
ObjectDBX Classes
 90
     1025
 91
        1
280
     0
281
     0
  0
CLASS
  1
SORTENTSTABLE
  2
AcDbSortentsTable
  3
ObjectDBX Classes
 90
        0
 91
        1
280
     0
281
     0
  0
ENDSEC
  0
SECTION
  2
TABLES
  0
TABLE
  2
VPORT
  5
8
330
0
100
AcDbSymbolTable
 70
    16
  0
VPORT
  5
29
330
8
100
AcDbSymbolTableRecord
100
AcDbViewportTableRecord
  2
*Active
 70
     0
 10
0.0
 20
0.0
 11
1.0
 21
1.0
 12
331.5757894552223
 22
294.6107752860262
 13
0.0
 23
0.0
 14
0.5
 24
0.5
 15
0.5
 25
0.5
 16
0.0
 26
0.0
 36
1.0
 17
0.0
 27
0.0
 37
0.0
 40
201.8744674536058
 41
2.292712066905615
 42
50.0
 43
475.140169
 44
-475.140169
 50
0.0
 51
0.0
 71
     0
 72
   100
 73
     1
 74
     3
 75
     0
 76
     0
 77
     0
 78
     0
281
     0
 65
     1
110
274.404842
120
288.907994
130
0.0
111
1.0
121
0.0
131
0.0
112
0.0
122
1.0
132
0.0
 79
     0
146
0.0
1001
ACAD_NAV_VCDISPLAY
1070
     3
  0
VPORT
  5
298
330
8
100
AcDbSymbolTableRecord
100
AcDbViewportTableRecord
  2
L1
 70
     0
 10
0.0
 20
0.0
 11
1.0
 21
1.0
 12
321.213249
 22
232.967181
 13
0.0
 23
0.0
 14
0.5
 24
0.5
 15
0.5
 25
0.5
 16
0.0
 26
0.0
 36
1.0
 17
0.0
 27
0.0
 37
0.0
 40
207.433333
 41
0.085602
 42
50.0
 43
475.140169
 44
-475.140169
 50
0.0
 51
0.0
 71
     0
 72
   100
 73
     1
 74
     3
 75
     0
 76
     0
 77
     0
 78
     0
281
     0
 65
     1
110
0.0
120
0.0
130
0.0
111
1.0
121
0.0
131
0.0
112
0.0
122
1.0
132
0.0
 79
     0
146
0.0
  0
VPORT
  5
299
330
8
100
AcDbSymbolTableRecord
100
AcDbViewportTableRecord
  2
L2
 70
     0
 10
0.0
 20
0.0
 11
0.5
 21
1.0
 12
0.0
 22
0.0
 13
0.0
 23
0.0
 14
0.5
 24
0.5
 15
0.5
 25
0.5
 16
0.0
 26
-1.0
 36
0.0
 17
0.0
 27
0.0
 37
0.0
 40
1316.18997
 41
0.013491
 42
50.0
 43
678.00864
 44
-678.00864
 50
0.0
 51
0.0
 71
     0
 72
   100
 73
     1
 74
     3
 75
     0
 76
     0
 77
     0
 78
     0
281
     0
 65
     1
110
0.0
120
0.0
130
0.0
111
1.0
121
0.0
131
0.0
112
0.0
122
1.0
132
0.0
 79
     0
146
0.0
  0
VPORT
  5
29A
330
8
100
AcDbSymbolTableRecord
100
AcDbViewportTableRecord
  2
L2
 70
     0
 10
0.5
 20
0.0
 11
1.0
 21
1.0
 12
0.0
 22
0.0
 13
0.0
 23
0.0
 14
0.5
 24
0.5
 15
0.5
 25
0.5
 16
1.0
 26
0.0
 36
0.0
 17
0.0
 27
0.0
 37
0.0
 40
1316.18997
 41
0.013491
 42
50.0
 43
666.2177989999999
 44
-666.2177989999999
 50
0.0
 51
0.0
 71
     0
 72
   100
 73
     1
 74
     3
 75
     0
 76
     0
 77
     0
 78
     0
281
     0
 65
     1
110
0.0
120
0.0
130
0.0
111
1.0
121
0.0
131
0.0
112
0.0
122
1.0
132
0.0
 79
     0
146
0.0
  0
VPORT
  5
29B
330
8
100
AcDbSymbolTableRecord
100
AcDbViewportTableRecord
  2
L3
 70
     0
 10
0.0
 20
0.5
 11
1.0
 21
1.0
 12
321.213249
 22
232.967181
 13
0.0
 23
0.0
 14
0.5
 24
0.5
 15
0.5
 25
0.5
 16
0.0
 26
0.0
 36
1.0
 17
0.0
 27
0.0
 37
0.0
 40
207.433333
 41
0.085602
 42
50.0
 43
475.140169
 44
-475.140169
 50
0.0
 51
0.0
 71
     0
 72
   100
 73
     1
 74
     3
 75
     0
 76
     0
 77
     0
 78
     0
281
     0
 65
     1
110
0.0
120
0.0
130
0.0
111
1.0
121
0.0
131
0.0
112
0.0
122
1.0
132
0.0
 79
     0
146
0.0
  0
VPORT
  5
29C
330
8
100
AcDbSymbolTableRecord
100
AcDbViewportTableRecord
  2
L3
 70
     0
 10
0.0
 20
0.0
 11
1.0
 21
0.5
 12
0.0
 22
0.0
 13
0.0
 23
0.0
 14
0.5
 24
0.5
 15
0.5
 25
0.5
 16
0.0
 26
-1.0
 36
0.0
 17
0.0
 27
0.0
 37
0.0
 40
1316.18997
 41
0.013491
 42
50.0
 43
678.00864
 44
-678.00864
 50
0.0
 51
0.0
 71
     0
 72
   100
 73
     1
 74
     3
 75
     0
 76
     0
 77
     0
 78
     0
281
     0
 65
     1
110
0.0
120
0.0
130
0.0
111
1.0
121
0.0
131
0.0
112
0.0
122
1.0
132
0.0
 79
     0
146
0.0
  0
VPORT
  5
29D
330
8
100
AcDbSymbolTableRecord
100
AcDbViewportTableRecord
  2
L4
 70
     0
 10
0.0
 20
0.5
 11
0.5
 21
1.0
 12
321.213249
 22
232.967181
 13
0.0
 23
0.0
 14
0.5
 24
0.5
 15
0.5
 25
0.5
 16
0.0
 26
0.0
 36
1.0
 17
0.0
 27
0.0
 37
0.0
 40
207.433333
 41
0.085602
 42
50.0
 43
475.140169
 44
-475.140169
 50
0.0
 51
0.0
 71
     0
 72
   100
 73
     1
 74
     3
 75
     0
 76
     0
 77
     0
 78
     0
281
     0
 65
     1
110
0.0
120
0.0
130
0.0
111
1.0
121
0.0
131
0.0
112
0.0
122
1.0
132
0.0
 79
     0
146
0.0
  0
VPORT
  5
29E
330
8
100
AcDbSymbolTableRecord
100
AcDbViewportTableRecord
  2
L4
 70
     0
 10
0.0
 20
0.0
 11
0.5
 21
0.5
 12
0.0
 22
0.0
 13
0.0
 23
0.0
 14
0.5
 24
0.5
 15
0.5
 25
0.5
 16
0.0
 26
-1.0
 36
0.0
 17
0.0
 27
0.0
 37
0.0
 40
1316.18997
 41
0.013491
 42
50.0
 43
678.00864
 44
-678.00864
 50
0.0
 51
0.0
 71
     0
 72
   100
 73
     1
 74
     3
 75
     0
 76
     0
 77
     0
 78
     0
281
     0
 65
     1
110
0.0
120
0.0
130
0.0
111
1.0
121
0.0
131
0.0
112
0.0
122
1.0
132
0.0
 79
     0
146
0.0
  0
VPORT
  5
29F
330
8
100
AcDbSymbolTableRecord
100
AcDbViewportTableRecord
  2
L4
 70
     0
 10
0.5
 20
0.0
 11
1.0
 21
0.5
 12
0.0
 22
0.0
 13
0.0
 23
0.0
 14
0.5
 24
0.5
 15
0.5
 25
0.5
 16
1.0
 26
0.0
 36
0.0
 17
0.0
 27
0.0
 37
0.0
 40
1316.18997
 41
0.013491
 42
50.0
 43
666.2177989999999
 44
-666.2177989999999
 50
0.0
 51
0.0
 71
     0
 72
   100
 73
     1
 74
     3
 75
     0
 76
     0
 77
     0
 78
     0
281
     0
 65
     1
110
0.0
120
0.0
130
0.0
111
1.0
121
0.0
131
0.0
112
0.0
122
1.0
132
0.0
 79
     0
146
0.0
  0
VPORT
  5
2A0
330
8
100
AcDbSymbolTableRecord
100
AcDbViewportTableRecord
  2
L4
 70
     0
 10
0.5
 20
0.5
 11
1.0
 21
1.0
 12
0.0
 22
0.0
 13
0.0
 23
0.0
 14
0.5
 24
0.5
 15
0.5
 25
0.5
 16
0.5773502691896259
 26
-0.5773502691896259
 36
0.5773502691896259
 17
0.0
 27
0.0
 37
0.0
 40
1292.532264
 41
0.013738
 42
50.0
 43
673.245608
 44
-673.245608
 50
0.0
 51
0.0
 71
     0
 72
   100
 73
     1
 74
     3
 75
     0
 76
     0
 77
     0
 78
     0
281
     0
 65
     1
110
0.0
120
0.0
130
0.0
111
1.0
121
0.0
131
0.0
112
0.0
122
1.0
132
0.0
 79
     0
146
0.0
  0
VPORT
  5
2A1
330
8
100
AcDbSymbolTableRecord
100
AcDbViewportTableRecord
  2
L6
 70
     0
 10
0.0
 20
0.5
 11
0.333333
 21
1.0
 12
0.0
 22
0.0
 13
0.0
 23
0.0
 14
0.5
 24
0.5
 15
0.5
 25
0.5
 16
0.7188730927569434
 26
-0.5850486126764433
 36
0.3754192287502549
 17
0.0
 27
0.0
 37
0.0
 40
1364.064247
 41
0.013018
 42
50.0
 43
706.2613849999999
 44
-706.2613849999999
 50
0.0
 51
0.0
 71
     0
 72
   100
 73
     1
 74
     3
 75
     0
 76
     0
 77
     0
 78
     0
281
     0
 65
     1
110
0.0
120
0.0
130
0.0
111
1.0
121
0.0
131
0.0
112
0.0
122
1.0
132
0.0
 79
     0
146
0.0
  0
VPORT
  5
2A2
330
8
100
AcDbSymbolTableRecord
100
AcDbViewportTableRecord
  2
L6
 70
     0
 10
0.0
 20
0.0
 11
0.333333
 21
0.5
 12
0.0
 22
0.0
 13
0.0
 23
0.0
 14
0.5
 24
0.5
 15
0.5
 25
0.5
 16
-1.0
 26
0.0
 36
0.0
 17
0.0
 27
0.0
 37
0.0
 40
1316.18997
 41
0.013491
 42
50.0
 43
666.2177989999999
 44
-666.2177989999999
 50
0.0
 51
0.0
 71
     0
 72
   100
 73
     1
 74
     3
 75
     0
 76
     0
 77
     0
 78
     0
281
     0
 65
     1
110
0.0
120
0.0
130
0.0
111
1.0
121
0.0
131
0.0
112
0.0
122
1.0
132
0.0
 79
     0
146
0.0
  0
VPORT
  5
2A3
330
8
100
AcDbSymbolTableRecord
100
AcDbViewportTableRecord
  2
L6
 70
     0
 10
0.333333
 20
0.5
 11
0.666667
 21
1.0
 12
321.213249
 22
232.967181
 13
0.0
 23
0.0
 14
0.5
 24
0.5
 15
0.5
 25
0.5
 16
0.0
 26
0.0
 36
1.0
 17
0.0
 27
0.0
 37
0.0
 40
207.433333
 41
0.085602
 42
50.0
 43
475.140169
 44
-475.140169
 50
0.0
 51
0.0
 71
     0
 72
   100
 73
     1
 74
     3
 75
     0
 76
     0
 77
     0
 78
     0
281
     0
 65
     1
110
0.0
120
0.0
130
0.0
111
1.0
121
0.0
131
0.0
112
0.0
122
1.0
132
0.0
 79
     0
146
0.0
  0
VPORT
  5
2A4
330
8
100
AcDbSymbolTableRecord
100
AcDbViewportTableRecord
  2
L6
 70
     0
 10
0.333333
 20
0.0
 11
0.666667
 21
0.5
 12
0.0
 22
0.0
 13
0.0
 23
0.0
 14
0.5
 24
0.5
 15
0.5
 25
0.5
 16
0.0
 26
-1.0
 36
0.0
 17
0.0
 27
0.0
 37
0.0
 40
1316.18997
 41
0.013491
 42
50.0
 43
678.00864
 44
-678.00864
 50
0.0
 51
0.0
 71
     0
 72
   100
 73
     1
 74
     3
 75
     0
 76
     0
 77
     0
 78
     0
281
     0
 65
     1
110
0.0
120
0.0
130
0.0
111
1.0
121
0.0
131
0.0
112
0.0
122
1.0
132
0.0
 79
     0
146
0.0
  0
VPORT
  5
2A5
330
8
100
AcDbSymbolTableRecord
100
AcDbViewportTableRecord
  2
L6
 70
     0
 10
0.666667
 20
0.5
 11
1.0
 21
1.0
 12
0.0
 22
0.0
 13
0.0
 23
0.0
 14
0.5
 24
0.5
 15
0.5
 25
0.5
 16
0.5773502691896259
 26
-0.5773502691896259
 36
0.5773502691896259
 17
0.0
 27
0.0
 37
0.0
 40
1292.532264
 41
0.013738
 42
50.0
 43
673.245608
 44
-673.245608
 50
0.0
 51
0.0
 71
     0
 72
   100
 73
     1
 74
     3
 75
     0
 76
     0
 77
     0
 78
     0
281
     0
 65
     1
110
0.0
120
0.0
130
0.0
111
1.0
121
0.0
131
0.0
112
0.0
122
1.0
132
0.0
 79
     0
146
0.0
  0
VPORT
  5
2A6
330
8
100
AcDbSymbolTableRecord
100
AcDbViewportTableRecord
  2
L6
 70
     0
 10
0.666667
 20
0.0
 11
1.0
 21
0.5
 12
0.0
 22
0.0
 13
0.0
 23
0.0
 14
0.5
 24
0.5
 15
0.5
 25
0.5
 16
1.0
 26
0.0
 36
0.0
 17
0.0
 27
0.0
 37
0.0
 40
1316.18997
 41
0.013491
 42
50.0
 43
666.2177989999999
 44
-666.2177989999999
 50
0.0
 51
0.0
 71
     0
 72
   100
 73
     1
 74
     3
 75
     0
 76
     0
 77
     0
 78
     0
281
     0
 65
     1
110
0.0
120
0.0
130
0.0
111
1.0
121
0.0
131
0.0
112
0.0
122
1.0
132
0.0
 79
     0
146
0.0
  0
ENDTAB
  0
TABLE
  2
LTYPE
  5
5
330
0
100
AcDbSymbolTable
 70
     7
  0
LTYPE
  5
14
330
5
100
AcDbSymbolTableRecord
100
AcDbLinetypeTableRecord
  2
ByBlock
 70
     0
  3

 72
    65
 73
     0
 40
0.0
  0
LTYPE
  5
15
330
5
100
AcDbSymbolTableRecord
100
AcDbLinetypeTableRecord
  2
ByLayer
 70
     0
  3

 72
    65
 73
     0
 40
0.0
  0
LTYPE
  5
16
330
5
100
AcDbSymbolTableRecord
100
AcDbLinetypeTableRecord
  2
Continuous
 70
     0
  3
Solid line
 72
    65
 73
     0
 40
0.0
  0
LTYPE
  5
6E
330
5
100
AcDbSymbolTableRecord
100
AcDbLinetypeTableRecord
  2
CENTER
 70
     0
  3
____ _ ____ _ ____ _ ____
 72
    65
 73
     4
 40
47.4
 49
22.0
 74
     4
 75
     0
340
0
 46
0.0
 50
0.0
 44
0.0
 45
0.0
 49
-8.5
 74
     4
 75
     0
340
0
 46
0.0
 50
0.0
 44
0.0
 45
0.0
 49
8.5
 74
     4
 75
     0
340
0
 46
0.0
 50
0.0
 44
0.0
 45
0.0
 49
-8.5
 74
     4
 75
     0
340
0
 46
0.0
 50
0.0
 44
0.0
 45
0.0
  0
LTYPE
  5
6F
330
5
100
AcDbSymbolTableRecord
100
AcDbLinetypeTableRecord
  2
DASHDOT
 70
     0
  3
_._._._._._._._._._._._._._._._.
 72
    65
 73
     4
 40
70.0
 49
31.0
 74
     4
 75
     0
340
0
 46
0.0
 50
0.0
 44
0.0
 45
0.0
 49
-13.0
 74
     4
 75
     0
340
0
 46
0.0
 50
0.0
 44
0.0
 45
0.0
 49
13.0
 74
     4
 75
     0
340
0
 46
0.0
 50
0.0
 44
0.0
 45
0.0
 49
-13.0
 74
     4
 75
     0
340
0
 46
0.0
 50
0.0
 44
0.0
 45
0.0
  0
LTYPE
  5
70
330
5
100
AcDbSymbolTableRecord
100
AcDbLinetypeTableRecord
  2
DASHED
 70
     0
  3
__ __ __ __ __ __ __ __ __
 72
    65
 73
     2
 40
25.72
 49
12.86
 74
     4
 75
     0
340
0
 46
0.0
 50
0.0
 44
0.0
 45
0.0
 49
-12.86
 74
     4
 75
     0
340
0
 46
0.0
 50
0.0
 44
0.0
 45
0.0
  0
LTYPE
  5
71
330
5
100
AcDbSymbolTableRecord
100
AcDbLinetypeTableRecord
  2
DOT
 70
     0
  3
.........................
 72
    65
 73
     2
 40
10.0
 49
0.0
 74
     4
 75
     0
340
0
 46
0.0
 50
0.0
 44
0.0
 45
0.0
 49
-10.0
 74
     4
 75
     0
340
0
 46
0.0
 50
0.0
 44
0.0
 45
0.0
  0
LTYPE
  5
72
330
5
100
AcDbSymbolTableRecord
100
AcDbLinetypeTableRecord
  2
PHANTOM
 70
     0
  3
____ _ _ ____ _ _ _____ _ _ ____
 72
    65
 73
     6
 40
50.5
 49
18.0
 74
     4
 75
     0
340
0
 46
0.0
 50
0.0
 44
0.0
 45
0.0
 49
-6.5
 74
     4
 75
     0
340
0
 46
0.0
 50
0.0
 44
0.0
 45
0.0
 49
6.5
 74
     4
 75
     0
340
0
 46
0.0
 50
0.0
 44
0.0
 45
0.0
 49
-6.5
 74
     4
 75
     0
340
0
 46
0.0
 50
0.0
 44
0.0
 45
0.0
 49
6.5
 74
     4
 75
     0
340
0
 46
0.0
 50
0.0
 44
0.0
 45
0.0
 49
-6.5
 74
     4
 75
     0
340
0
 46
0.0
 50
0.0
 44
0.0
 45
0.0
  0
LTYPE
  5
336
330
5
100
AcDbSymbolTableRecord
100
AcDbLinetypeTableRecord
  2
CENTER2
 70
     0
  3
Center (.5x) ___ _ ___ _ ___ _ ___ _ ___ _ ___
 72
    65
 73
     4
 40
1.125
 49
0.75
 74
     0
 49
-0.125
 74
     0
 49
0.125
 74
     0
 49
-0.125
 74
     0
  0
ENDTAB
  0
TABLE
  2
LAYER
  5
2
330
0
100
AcDbSymbolTable
 70
    22
  0
LAYER
  5
10
102
{ACAD_XDICTIONARY
360
341
102
}
330
2
100
AcDbSymbolTableRecord
100
AcDbLayerTableRecord
  2
0
 70
     0
 62
     7
  6
Continuous
370
    -3
390
F
  0
LAYER
  5
1F2
330
2
100
AcDbSymbolTableRecord
100
AcDbLayerTableRecord
  2
Defpoints
 70
     0
 62
     7
  6
Continuous
290
     0
370
    -3
390
F
  0
LAYER
  5
333
102
{ACAD_XDICTIONARY
360
343
102
}
330
2
100
AcDbSymbolTableRecord
100
AcDbLayerTableRecord
  2
1
 70
     0
 62
     4
  6
Continuous
370
    -3
390
F
  0
LAYER
  5
334
102
{ACAD_XDICTIONARY
360
345
102
}
330
2
100
AcDbSymbolTableRecord
100
AcDbLayerTableRecord
  2
2
 70
     0
 62
     7
  6
Continuous
370
    -3
390
F
  0
LAYER
  5
335
102
{ACAD_XDICTIONARY
360
347
102
}
330
2
100
AcDbSymbolTableRecord
100
AcDbLayerTableRecord
  2
4
 70
     0
 62
     2
  6
CENTER2
370
    -3
390
F
  0
LAYER
  5
337
102
{ACAD_XDICTIONARY
360
349
102
}
330
2
100
AcDbSymbolTableRecord
100
AcDbLayerTableRecord
  2
SK1
 70
     0
 62
     4
  6
Continuous
370
    -3
390
F
  0
LAYER
  5
338
102
{ACAD_XDICTIONARY
360
34B
102
}
330
2
100
AcDbSymbolTableRecord
100
AcDbLayerTableRecord
  2
SK2
 70
     0
 62
     7
  6
Continuous
370
    -3
390
F
  0
LAYER
  5
33A
102
{ACAD_XDICTIONARY
360
34D
102
}
330
2
100
AcDbSymbolTableRecord
100
AcDbLayerTableRecord
  2
SK4
 70
     0
 62
     2
  6
CENTER2
370
    -3
390
F
  0
LAYER
  5
33B
102
{ACAD_XDICTIONARY
360
34F
102
}
330
2
100
AcDbSymbolTableRecord
100
AcDbLayerTableRecord
  2
SK6
 70
     0
 62
     5
  6
Continuous
370
    -3
390
F
  0
LAYER
  5
33C
102
{ACAD_XDICTIONARY
360
351
102
}
330
2
100
AcDbSymbolTableRecord
100
AcDbLayerTableRecord
  2
CUT
 70
     0
 62
     1
  6
Continuous
370
    -3
390
F
  0
LAYER
  5
33D
102
{ACAD_XDICTIONARY
360
353
102
}
330
2
100
AcDbSymbolTableRecord
100
AcDbLayerTableRecord
  2
NOCUT
 70
     0
 62
     7
  6
Continuous
370
    -3
390
F
  0
LAYER
  5
33E
102
{ACAD_XDICTIONARY
360
355
102
}
330
2
100
AcDbSymbolTableRecord
100
AcDbLayerTableRecord
  2
80
 70
     0
 62
     6
  6
Continuous
370
    -3
390
F
  0
LAYER
  5
33F
102
{ACAD_XDICTIONARY
360
357
102
}
330
2
100
AcDbSymbolTableRecord
100
AcDbLayerTableRecord
  2
81
 70
     0
 62
     3
  6
Continuous
370
    -3
390
F
  0
ENDTAB
  0
TABLE
  2
STYLE
  5
3
330
0
100
AcDbSymbolTable
 70
     3
  0
STYLE
  5
11
330
3
100
AcDbSymbolTableRecord
100
AcDbTextStyleTableRecord
  2
Standard
 70
     0
 40
0.0
 41
1.0
 50
0.0
 71
     0
 42
0.2
  3
txt
  4

  0
STYLE
  5
1E6
330
3
100
AcDbSymbolTableRecord
100
AcDbTextStyleTableRecord
  2
cesky
 70
     0
 40
0.0
 41
1.0
 50
0.0
 71
     0
 42
0.2
  3
simplex.shx
  4

  0
STYLE
  5
1E7
330
3
100
AcDbSymbolTableRecord
100
AcDbTextStyleTableRecord
  2
DWGDirectTextStyle
 70
     0
 40
0.0
 41
1.0
 50
0.0
 71
     0
 42
0.2
  3
simplex
  4

  0
ENDTAB
  0
TABLE
  2
VIEW
  5
6
330
0
100
AcDbSymbolTable
 70
     0
  0
ENDTAB
  0
TABLE
  2
UCS
  5
7
330
0
100
AcDbSymbolTable
 70
     0
  0
ENDTAB
  0
TABLE
  2
APPID
  5
9
330
0
100
AcDbSymbolTable
 70
     7
  0
APPID
  5
12
330
9
100
AcDbSymbolTableRecord
100
AcDbRegAppTableRecord
  2
ACAD
 70
     0
  0
APPID
  5
1EE
330
9
100
AcDbSymbolTableRecord
100
AcDbRegAppTableRecord
  2
ACAD_DSTYLE_DIMBREAK
 70
     0
  0
APPID
  5
2A7
330
9
100
AcDbSymbolTableRecord
100
AcDbRegAppTableRecord
  2
ACAD_DSTYLE_DIM_LINETYPE
 70
     0
  0
APPID
  5
2A8
330
9
100
AcDbSymbolTableRecord
100
AcDbRegAppTableRecord
  2
ACAD_DSTYLE_DIM_EXT1_LINETYPE
 70
     0
  0
APPID
  5
2A9
330
9
100
AcDbSymbolTableRecord
100
AcDbRegAppTableRecord
  2
ACAD_DSTYLE_DIM_EXT2_LINETYPE
 70
     0
  0
APPID
  5
2E9
330
9
100
AcDbSymbolTableRecord
100
AcDbRegAppTableRecord
  2
ACAD_MLEADERVER
 70
     0
  0
APPID
  5
35C
330
9
100
AcDbSymbolTableRecord
100
AcDbRegAppTableRecord
  2
ACAD_NAV_VCDISPLAY
 70
     0
  0
ENDTAB
  0
TABLE
  2
DIMSTYLE
  5
A
330
0
100
AcDbSymbolTable
 70
     1
100
AcDbDimStyleTable
 71
     0
  0
DIMSTYLE
105
27
330
A
100
AcDbSymbolTableRecord
100
AcDbDimStyleTableRecord
  2
Standard
 70
     0
340
11
1001
ACAD_DSTYLE_DIMBREAK
1070
   391
1040
6.349999999999999
  0
ENDTAB
  0
TABLE
  2
BLOCK_RECORD
  5
1
330
0
100
AcDbSymbolTable
 70
    16
  0
BLOCK_RECORD
  5
1F
102
{ACAD_XDICTIONARY
360
2F9
102
}
330
1
100
AcDbSymbolTableRecord
100
AcDbBlockTableRecord
  2
*Model_Space
340
22
  0
BLOCK_RECORD
  5
1B
330
1
100
AcDbSymbolTableRecord
100
AcDbBlockTableRecord
  2
*Paper_Space
340
1E
  0
BLOCK_RECORD
  5
23
330
1
100
AcDbSymbolTableRecord
100
AcDbBlockTableRecord
  2
*Paper_Space0
340
26
  0
BLOCK_RECORD
  5
1E9
330
1
100
AcDbSymbolTableRecord
100
AcDbBlockTableRecord
  2
ASSORTED_DRAFT1
340
0
  0
BLOCK_RECORD
  5
1F3
330
1
100
AcDbSymbolTableRecord
100
AcDbBlockTableRecord
  2
*D2
340
0
  0
BLOCK_RECORD
  5
1FF
330
1
100
AcDbSymbolTableRecord
100
AcDbBlockTableRecord
  2
_U0
340
0
  0
BLOCK_RECORD
  5
20B
330
1
100
AcDbSymbolTableRecord
100
AcDbBlockTableRecord
  2
*D4
340
0
  0
BLOCK_RECORD
  5
216
330
1
100
AcDbSymbolTableRecord
100
AcDbBlockTableRecord
  2
_U1
340
0
  0
BLOCK_RECORD
  5
221
330
1
100
AcDbSymbolTableRecord
100
AcDbBlockTableRecord
  2
*D6
340
0
  0
BLOCK_RECORD
  5
22D
330
1
100
AcDbSymbolTableRecord
100
AcDbBlockTableRecord
  2
_U2
340
0
  0
BLOCK_RECORD
  5
23A
330
1
100
AcDbSymbolTableRecord
100
AcDbBlockTableRecord
  2
*D8
340
0
  0
BLOCK_RECORD
  5
246
330
1
100
AcDbSymbolTableRecord
100
AcDbBlockTableRecord
  2
_U3
340
0
  0
BLOCK_RECORD
  5
253
330
1
100
AcDbSymbolTableRecord
100
AcDbBlockTableRecord
  2
*D10
340
0
  0
BLOCK_RECORD
  5
25F
330
1
100
AcDbSymbolTableRecord
100
AcDbBlockTableRecord
  2
_U4
340
0
  0
BLOCK_RECORD
  5
26B
330
1
100
AcDbSymbolTableRecord
100
AcDbBlockTableRecord
  2
*D12
340
0
  0
BLOCK_RECORD
  5
277
330
1
100
AcDbSymbolTableRecord
100
AcDbBlockTableRecord
  2
_U5
340
0
  0
BLOCK_RECORD
  5
283
330
1
100
AcDbSymbolTableRecord
100
AcDbBlockTableRecord
  2
*D14
340
0
  0
BLOCK_RECORD
  5
28F
330
1
100
AcDbSymbolTableRecord
100
AcDbBlockTableRecord
  2
_U6
340
0
  0
ENDTAB
  0
ENDSEC
  0
SECTION
  2
BLOCKS
  0
BLOCK
  5
20
330
1F
100
AcDbEntity
  8
0
100
AcDbBlockBegin
  2
*Model_Space
 70
     0
 10
0.0
 20
0.0
 30
0.0
  3
*Model_Space
  1

  0
ENDBLK
  5
21
330
1F
100
AcDbEntity
  8
0
100
AcDbBlockEnd
  0
BLOCK
  5
1C
330
1B
100
AcDbEntity
 67
     1
  8
0
100
AcDbBlockBegin
  2
*Paper_Space
 70
     0
 10
0.0
 20
0.0
 30
0.0
  3
*Paper_Space
  1

  0
ENDBLK
  5
1D
330
1B
100
AcDbEntity
 67
     1
  8
0
100
AcDbBlockEnd
  0
BLOCK
  5
24
330
23
100
AcDbEntity
 67
     1
  8
0
100
AcDbBlockBegin
  2
*Paper_Space0
 70
     0
 10
0.0
 20
0.0
 30
0.0
  3
*Paper_Space0
  1

  0
ENDBLK
  5
25
330
23
100
AcDbEntity
 67
     1
  8
0
100
AcDbBlockEnd
  0
BLOCK
  5
1EC
330
1E9
100
AcDbEntity
  8
0
100
AcDbBlockBegin
  2
ASSORTED_DRAFT1
 70
     0
 10
0.0
 20
0.0
 30
0.0
  3
ASSORTED_DRAFT1
  1

  0
SOLID
  5
1EA
330
1E9
100
AcDbEntity
  8
0
 62
   254
370
    13
100
AcDbTrace
 10
270.185042
 20
164.534924
 30
0.0
 11
265.185046
 21
163.42645
 31
0.0
 12
265.1850379999999
 22
165.643397
 32
0.0
 13
270.185042
 23
164.534924
 33
0.0
  0
ENDBLK
  5
1ED
330
1E9
100
AcDbEntity
  8
0
100
AcDbBlockEnd
  0
BLOCK
  5
1F4
330
1F3
100
AcDbEntity
  8
0
100
AcDbBlockBegin
  2
*D2
 70
     1
 10
0.0
 20
0.0
 30
0.0
  3
*D2
  1

  0
LINE
  5
1F6
330
1F3
100
AcDbEntity
  8
0
 62
   254
370
    -2
100
AcDbLine
 10
439.4048419999999
 20
302.907994
 30
0.0
 11
439.4048419999999
 21
330.17035
 31
0.0
  0
LINE
  5
1F7
330
1F3
100
AcDbEntity
  8
0
 62
   254
370
    -2
100
AcDbLine
 10
274.404842
 20
288.907994
 30
0.0
 11
274.404842
 21
330.17035
 31
0.0
  0
LINE
  5
1F8
330
1F3
100
AcDbEntity
  8
0
 62
   254
370
    -2
100
AcDbLine
 10
435.9048419999999
 20
329.17035
 30
0.0
 11
277.904842
 21
329.17035
 31
0.0
  0
SOLID
  5
1F9
330
1F3
100
AcDbEntity
  8
0
 62
   254
100
AcDbTrace
 10
435.9048419999999
 20
328.587017
 30
0.0
 11
435.9048419999999
 21
329.753684
 31
0.0
 12
439.4048419999999
 22
329.17035
 32
0.0
 13
439.4048419999999
 23
329.17035
 33
0.0
  0
SOLID
  5
1FA
330
1F3
100
AcDbEntity
  8
0
 62
   254
100
AcDbTrace
 10
277.904842
 20
329.753684
 30
0.0
 11
277.904842
 21
328.587017
 31
0.0
 12
274.404842
 22
329.17035
 32
0.0
 13
274.404842
 23
329.17035
 33
0.0
  0
MTEXT
  5
1FB
330
1F3
100
AcDbEntity
  8
0
 62
   254
370
    13
100
AcDbMText
 10
356.904842
 20
334.42035
 30
0.0
 40
3.5
 41
0.0
 71
     5
 72
     1
  1
\A1;165
  7
cesky
 73
     1
 44
1.0
  0
POINT
  5
1FC
330
1F3
100
AcDbEntity
  8
Defpoints
 62
     0
100
AcDbPoint
 10
439.4048419999999
 20
302.907994
 30
0.0
  0
POINT
  5
1FD
330
1F3
100
AcDbEntity
  8
Defpoints
 62
     0
100
AcDbPoint
 10
274.404842
 20
288.907994
 30
0.0
  0
POINT
  5
1FE
330
1F3
100
AcDbEntity
  8
Defpoints
 62
     0
100
AcDbPoint
 10
274.404842
 20
329.17035
 30
0.0
  0
ENDBLK
  5
1F5
330
1F3
100
AcDbEntity
  8
0
100
AcDbBlockEnd
  0
BLOCK
  5
206
330
1FF
100
AcDbEntity
  8
0
100
AcDbBlockBegin
  2
_U0
 70
     0
 10
0.0
 20
0.0
 30
0.0
  3
_U0
  1

  0
ENDBLK
  5
207
330
1FF
100
AcDbEntity
  8
0
100
AcDbBlockEnd
  0
BLOCK
  5
20C
330
20B
100
AcDbEntity
  8
0
100
AcDbBlockBegin
  2
*D4
 70
     1
 10
0.0
 20
0.0
 30
0.0
  3
*D4
  1

  0
LINE
  5
20E
330
20B
100
AcDbEntity
  8
0
 62
   254
370
    -2
100
AcDbLine
 10
292.703832
 20
288.907994
 30
0.0
 11
458.1454929999999
 21
288.907994
 31
0.0
  0
LINE
  5
20F
330
20B
100
AcDbEntity
  8
0
 62
   254
370
    -2
100
AcDbLine
 10
330.83929
 20
302.907994
 30
0.0
 11
458.1454929999999
 21
302.907994
 31
0.0
  0
LINE
  5
210
330
20B
100
AcDbEntity
  8
0
 62
   254
370
    -2
100
AcDbLine
 10
457.1454929999999
 20
288.907994
 30
0.0
 11
457.1454929999999
 21
302.907994
 31
0.0
  0
SOLID
  5
211
330
20B
100
AcDbEntity
  8
0
 62
   254
100
AcDbTrace
 10
457.7288269999999
 20
299.407994
 30
0.0
 11
456.5621599999999
 21
299.407994
 31
0.0
 12
457.1454929999999
 22
302.907994
 32
0.0
 13
457.1454929999999
 23
302.907994
 33
0.0
  0
MTEXT
  5
212
330
20B
100
AcDbEntity
  8
0
 62
   254
370
    13
100
AcDbMText
 10
451.8954929999999
 20
279.07466
 30
0.0
 40
3.5
 41
0.0
 71
     5
 72
     1
  1
\A1;28
  7
cesky
 11
0.0
 21
1.0
 31
0.0
 73
     1
 44
1.0
  0
POINT
  5
213
330
20B
100
AcDbEntity
  8
Defpoints
 62
     0
100
AcDbPoint
 10
292.703832
 20
288.907994
 30
0.0
  0
POINT
  5
214
330
20B
100
AcDbEntity
  8
Defpoints
 62
     0
100
AcDbPoint
 10
330.83929
 20
302.907994
 30
0.0
  0
POINT
  5
215
330
20B
100
AcDbEntity
  8
Defpoints
 62
     0
100
AcDbPoint
 10
457.1454929999999
 20
302.907994
 30
0.0
  0
ENDBLK
  5
20D
330
20B
100
AcDbEntity
  8
0
100
AcDbBlockEnd
  0
BLOCK
  5
21C
330
216
100
AcDbEntity
  8
0
100
AcDbBlockBegin
  2
_U1
 70
     0
 10
0.0
 20
0.0
 30
0.0
  3
_U1
  1

  0
ENDBLK
  5
21D
330
216
100
AcDbEntity
  8
0
100
AcDbBlockEnd
  0
BLOCK
  5
222
330
221
100
AcDbEntity
  8
0
100
AcDbBlockBegin
  2
*D6
 70
     1
 10
0.0
 20
0.0
 30
0.0
  3
*D6
  1

  0
LINE
  5
224
330
221
100
AcDbEntity
  8
0
 62
    95
370
    -2
100
AcDbLine
 10
216.404842
 20
304.907994
 30
0.0
 11
204.535852
 21
304.907994
 31
0.0
  0
LINE
  5
225
330
221
100
AcDbEntity
  8
0
 62
    95
370
    -2
100
AcDbLine
 10
216.404842
 20
272.907994
 30
0.0
 11
204.535852
 21
272.907994
 31
0.0
  0
LINE
  5
226
330
221
100
AcDbEntity
  8
0
 62
    95
370
    -2
100
AcDbLine
 10
205.535852
 20
301.407994
 30
0.0
 11
205.535852
 21
276.407994
 31
0.0
  0
SOLID
  5
227
330
221
100
AcDbEntity
  8
0
 62
    95
100
AcDbTrace
 10
206.119185
 20
301.407994
 30
0.0
 11
204.952518
 21
301.407994
 31
0.0
 12
205.535852
 22
304.907994
 32
0.0
 13
205.535852
 23
304.907994
 33
0.0
  0
SOLID
  5
228
330
221
100
AcDbEntity
  8
0
 62
    95
100
AcDbTrace
 10
204.952518
 20
276.407994
 30
0.0
 11
206.119185
 21
276.407994
 31
0.0
 12
205.535852
 22
272.907994
 32
0.0
 13
205.535852
 23
272.907994
 33
0.0
  0
MTEXT
  5
229
330
221
100
AcDbEntity
  8
0
 62
    95
370
    13
100
AcDbMText
 10
200.285852
 20
288.907994
 30
0.0
 40
3.5
 41
0.0
 71
     5
 72
     1
  1
\A1;32
  7
cesky
 11
0.0
 21
1.0
 31
0.0
 73
     1
 44
1.0
  0
POINT
  5
22A
330
221
100
AcDbEntity
  8
Defpoints
 62
     0
100
AcDbPoint
 10
216.404842
 20
304.907994
 30
0.0
  0
POINT
  5
22B
330
221
100
AcDbEntity
  8
Defpoints
 62
     0
100
AcDbPoint
 10
216.404842
 20
272.907994
 30
0.0
  0
POINT
  5
22C
330
221
100
AcDbEntity
  8
Defpoints
 62
     0
100
AcDbPoint
 10
205.535852
 20
272.907994
 30
0.0
  0
ENDBLK
  5
223
330
221
100
AcDbEntity
  8
0
100
AcDbBlockEnd
  0
BLOCK
  5
235
330
22D
100
AcDbEntity
  8
0
100
AcDbBlockBegin
  2
_U2
 70
     0
 10
0.0
 20
0.0
 30
0.0
  3
_U2
  1

  0
ENDBLK
  5
236
330
22D
100
AcDbEntity
  8
0
100
AcDbBlockEnd
  0
BLOCK
  5
23B
330
23A
100
AcDbEntity
  8
0
100
AcDbBlockBegin
  2
*D8
 70
     1
 10
0.0
 20
0.0
 30
0.0
  3
*D8
  1

  0
LINE
  5
23D
330
23A
100
AcDbEntity
  8
0
 62
    95
370
    -2
100
AcDbLine
 10
277.154842
 20
309.907994
 30
0.0
 11
189.143489
 21
309.907994
 31
0.0
  0
LINE
  5
23E
330
23A
100
AcDbEntity
  8
0
 62
    95
370
    -2
100
AcDbLine
 10
277.154842
 20
267.907994
 30
0.0
 11
189.143489
 21
267.907994
 31
0.0
  0
LINE
  5
23F
330
23A
100
AcDbEntity
  8
0
 62
    95
370
    -2
100
AcDbLine
 10
190.143489
 20
306.407994
 30
0.0
 11
190.143489
 21
271.407994
 31
0.0
  0
SOLID
  5
240
330
23A
100
AcDbEntity
  8
0
 62
    95
100
AcDbTrace
 10
190.726823
 20
306.407994
 30
0.0
 11
189.560156
 21
306.407994
 31
0.0
 12
190.143489
 22
309.907994
 32
0.0
 13
190.143489
 23
309.907994
 33
0.0
  0
SOLID
  5
241
330
23A
100
AcDbEntity
  8
0
 62
    95
100
AcDbTrace
 10
189.560156
 20
271.407994
 30
0.0
 11
190.726823
 21
271.407994
 31
0.0
 12
190.143489
 22
267.907994
 32
0.0
 13
190.143489
 23
267.907994
 33
0.0
  0
MTEXT
  5
242
330
23A
100
AcDbEntity
  8
0
 62
    95
370
    13
100
AcDbMText
 10
184.893489
 20
288.907994
 30
0.0
 40
3.5
 41
0.0
 71
     5
 72
     1
  1
\A1;42
  7
cesky
 11
0.0
 21
1.0
 31
0.0
 73
     1
 44
1.0
  0
POINT
  5
243
330
23A
100
AcDbEntity
  8
Defpoints
 62
     0
100
AcDbPoint
 10
277.154842
 20
309.907994
 30
0.0
  0
POINT
  5
244
330
23A
100
AcDbEntity
  8
Defpoints
 62
     0
100
AcDbPoint
 10
277.154842
 20
267.907994
 30
0.0
  0
POINT
  5
245
330
23A
100
AcDbEntity
  8
Defpoints
 62
     0
100
AcDbPoint
 10
190.143489
 20
267.907994
 30
0.0
  0
ENDBLK
  5
23C
330
23A
100
AcDbEntity
  8
0
100
AcDbBlockEnd
  0
BLOCK
  5
24E
330
246
100
AcDbEntity
  8
0
100
AcDbBlockBegin
  2
_U3
 70
     0
 10
0.0
 20
0.0
 30
0.0
  3
_U3
  1

  0
ENDBLK
  5
24F
330
246
100
AcDbEntity
  8
0
100
AcDbBlockEnd
  0
BLOCK
  5
254
330
253
100
AcDbEntity
  8
0
100
AcDbBlockBegin
  2
*D10
 70
     1
 10
0.0
 20
0.0
 30
0.0
  3
*D10
  1

  0
LINE
  5
256
330
253
100
AcDbEntity
  8
0
 62
   254
370
    -2
100
AcDbLine
 10
439.4048419999999
 20
304.907994
 30
0.0
 11
439.4048419999999
 21
344.155687
 31
0.0
  0
LINE
  5
257
330
253
100
AcDbEntity
  8
0
 62
   254
370
    -2
100
AcDbLine
 10
214.404842
 20
302.907994
 30
0.0
 11
214.404842
 21
344.155687
 31
0.0
  0
LINE
  5
258
330
253
100
AcDbEntity
  8
0
 62
   254
370
    -2
100
AcDbLine
 10
435.9048419999999
 20
343.155687
 30
0.0
 11
217.904842
 21
343.155687
 31
0.0
  0
SOLID
  5
259
330
253
100
AcDbEntity
  8
0
 62
   254
100
AcDbTrace
 10
435.9048419999999
 20
342.572354
 30
0.0
 11
435.9048419999999
 21
343.739021
 31
0.0
 12
439.4048419999999
 22
343.155687
 32
0.0
 13
439.4048419999999
 23
343.155687
 33
0.0
  0
SOLID
  5
25A
330
253
100
AcDbEntity
  8
0
 62
   254
100
AcDbTrace
 10
217.904842
 20
343.739021
 30
0.0
 11
217.904842
 21
342.572354
 31
0.0
 12
214.404842
 22
343.155687
 32
0.0
 13
214.404842
 23
343.155687
 33
0.0
  0
MTEXT
  5
25B
330
253
100
AcDbEntity
  8
0
 62
   254
370
    13
100
AcDbMText
 10
326.904842
 20
348.405687
 30
0.0
 40
3.5
 41
0.0
 71
     5
 72
     1
  1
\A1;225
  7
cesky
 73
     1
 44
1.0
  0
POINT
  5
25C
330
253
100
AcDbEntity
  8
Defpoints
 62
     0
100
AcDbPoint
 10
439.4048419999999
 20
304.907994
 30
0.0
  0
POINT
  5
25D
330
253
100
AcDbEntity
  8
Defpoints
 62
     0
100
AcDbPoint
 10
214.404842
 20
302.907994
 30
0.0
  0
POINT
  5
25E
330
253
100
AcDbEntity
  8
Defpoints
 62
     0
100
AcDbPoint
 10
214.404842
 20
343.155687
 30
0.0
  0
ENDBLK
  5
255
330
253
100
AcDbEntity
  8
0
100
AcDbBlockEnd
  0
BLOCK
  5
266
330
25F
100
AcDbEntity
  8
0
100
AcDbBlockBegin
  2
_U4
 70
     0
 10
0.0
 20
0.0
 30
0.0
  3
_U4
  1

  0
ENDBLK
  5
267
330
25F
100
AcDbEntity
  8
0
100
AcDbBlockEnd
  0
BLOCK
  5
26C
330
26B
100
AcDbEntity
  8
0
100
AcDbBlockBegin
  2
*D12
 70
     1
 10
0.0
 20
0.0
 30
0.0
  3
*D12
  1

  0
LINE
  5
26E
330
26B
100
AcDbEntity
  8
0
 62
   254
370
    -2
100
AcDbLine
 10
274.404842
 20
288.907994
 30
0.0
 11
274.404842
 21
330.17035
 31
0.0
  0
LINE
  5
26F
330
26B
100
AcDbEntity
  8
0
 62
   254
370
    -2
100
AcDbLine
 10
214.404842
 20
295.907994
 30
0.0
 11
214.404842
 21
330.17035
 31
0.0
  0
LINE
  5
270
330
26B
100
AcDbEntity
  8
0
 62
   254
370
    -2
100
AcDbLine
 10
270.904842
 20
329.17035
 30
0.0
 11
217.904842
 21
329.17035
 31
0.0
  0
SOLID
  5
271
330
26B
100
AcDbEntity
  8
0
 62
   254
100
AcDbTrace
 10
270.904842
 20
328.587017
 30
0.0
 11
270.904842
 21
329.753684
 31
0.0
 12
274.404842
 22
329.17035
 32
0.0
 13
274.404842
 23
329.17035
 33
0.0
  0
SOLID
  5
272
330
26B
100
AcDbEntity
  8
0
 62
   254
100
AcDbTrace
 10
217.904842
 20
329.753684
 30
0.0
 11
217.904842
 21
328.587017
 31
0.0
 12
214.404842
 22
329.17035
 32
0.0
 13
214.404842
 23
329.17035
 33
0.0
  0
MTEXT
  5
273
330
26B
100
AcDbEntity
  8
0
 62
   254
370
    13
100
AcDbMText
 10
244.404842
 20
334.42035
 30
0.0
 40
3.5
 41
0.0
 71
     5
 72
     1
  1
\A1;60
  7
cesky
 73
     1
 44
1.0
  0
POINT
  5
274
330
26B
100
AcDbEntity
  8
Defpoints
 62
     0
100
AcDbPoint
 10
274.404842
 20
288.907994
 30
0.0
  0
POINT
  5
275
330
26B
100
AcDbEntity
  8
Defpoints
 62
     0
100
AcDbPoint
 10
214.404842
 20
295.907994
 30
0.0
  0
POINT
  5
276
330
26B
100
AcDbEntity
  8
Defpoints
 62
     0
100
AcDbPoint
 10
214.404842
 20
329.17035
 30
0.0
  0
ENDBLK
  5
26D
330
26B
100
AcDbEntity
  8
0
100
AcDbBlockEnd
  0
BLOCK
  5
27E
330
277
100
AcDbEntity
  8
0
100
AcDbBlockBegin
  2
_U5
 70
     0
 10
0.0
 20
0.0
 30
0.0
  3
_U5
  1

  0
ENDBLK
  5
27F
330
277
100
AcDbEntity
  8
0
100
AcDbBlockEnd
  0
BLOCK
  5
284
330
283
100
AcDbEntity
  8
0
100
AcDbBlockBegin
  2
*D14
 70
     1
 10
0.0
 20
0.0
 30
0.0
  3
*D14
  1

  0
LINE
  5
286
330
283
100
AcDbEntity
  8
0
 62
   254
370
    -2
100
AcDbLine
 10
439.4048419999999
 20
302.907994
 30
0.0
 11
439.4048419999999
 21
315.595905
 31
0.0
  0
LINE
  5
287
330
283
100
AcDbEntity
  8
0
 62
   254
370
    -2
100
AcDbLine
 10
292.883155
 20
303.257627
 30
0.0
 11
292.883155
 21
315.595905
 31
0.0
  0
LINE
  5
288
330
283
100
AcDbEntity
  8
0
 62
   254
370
    -2
100
AcDbLine
 10
435.9048419999999
 20
314.595905
 30
0.0
 11
296.383155
 21
314.595905
 31
0.0
  0
SOLID
  5
289
330
283
100
AcDbEntity
  8
0
 62
   254
100
AcDbTrace
 10
435.9048419999999
 20
314.012571
 30
0.0
 11
435.9048419999999
 21
315.179238
 31
0.0
 12
439.4048419999999
 22
314.595905
 32
0.0
 13
439.4048419999999
 23
314.595905
 33
0.0
  0
SOLID
  5
28A
330
283
100
AcDbEntity
  8
0
 62
   254
100
AcDbTrace
 10
296.383155
 20
315.179238
 30
0.0
 11
296.383155
 21
314.012571
 31
0.0
 12
292.883155
 22
314.595905
 32
0.0
 13
292.883155
 23
314.595905
 33
0.0
  0
MTEXT
  5
28B
330
283
100
AcDbEntity
  8
0
 62
   254
370
    13
100
AcDbMText
 10
366.143998
 20
319.845905
 30
0.0
 40
3.5
 41
0.0
 71
     5
 72
     1
  1
\A1;146.5
  7
cesky
 73
     1
 44
1.0
  0
POINT
  5
28C
330
283
100
AcDbEntity
  8
Defpoints
 62
     0
100
AcDbPoint
 10
439.4048419999999
 20
302.907994
 30
0.0
  0
POINT
  5
28D
330
283
100
AcDbEntity
  8
Defpoints
 62
     0
100
AcDbPoint
 10
292.883155
 20
303.257627
 30
0.0
  0
POINT
  5
28E
330
283
100
AcDbEntity
  8
Defpoints
 62
     0
100
AcDbPoint
 10
292.883155
 20
314.595905
 30
0.0
  0
ENDBLK
  5
285
330
283
100
AcDbEntity
  8
0
100
AcDbBlockEnd
  0
BLOCK
  5
296
330
28F
100
AcDbEntity
  8
0
100
AcDbBlockBegin
  2
_U6
 70
     0
 10
0.0
 20
0.0
 30
0.0
  3
_U6
  1

  0
ENDBLK
  5
297
330
28F
100
AcDbEntity
  8
0
100
AcDbBlockEnd
  0
ENDSEC
  0
SECTION
  2
ENTITIES
  0
POINT
  5
73
102
{ACAD_REACTORS
330
340
102
}
330
1F
100
AcDbEntity
  8
80
100
AcDbPoint
 10
274.404842
 20
288.907994
 30
0.0
  0
POINT
  5
76
330
1F
100
AcDbEntity
  8
4
 60
     1
100
AcDbPoint
 10
292.703832
 20
288.907994
 30
0.0
  0
POINT
  5
78
330
1F
100
AcDbEntity
  8
4
 60
     1
100
AcDbPoint
 10
438.82652
 20
288.907994
 30
0.0
  0
POINT
  5
79
330
1F
100
AcDbEntity
  8
SK4
 60
     1
100
AcDbPoint
 10
216.404842
 20
288.907994
 30
0.0
  0
POINT
  5
7A
330
1F
100
AcDbEntity
  8
SK4
 60
     1
100
AcDbPoint
 10
274.404842
 20
288.907994
 30
0.0
  0
POINT
  5
7B
330
1F
100
AcDbEntity
  8
SK6
 60
     1
100
AcDbPoint
 10
274.404842
 20
288.907994
 30
0.0
  0
POINT
  5
7C
330
1F
100
AcDbEntity
  8
SK6
 60
     1
100
AcDbPoint
 10
292.883155
 20
303.257627
 30
0.0
  0
LINE
  5
7D
330
1F
100
AcDbEntity
  8
1
100
AcDbLine
 10
429.256069
 20
295.521648
 30
0.0
 11
429.250838
 21
295.504676
 31
0.0
  0
LINE
  5
7F
330
1F
100
AcDbEntity
  8
1
100
AcDbLine
 10
429.256069
 20
295.521648
 30
0.0
 11
428.961258
 21
302.33727
 31
0.0
  0
LINE
  5
80
330
1F
100
AcDbEntity
  8
1
100
AcDbLine
 10
428.956765
 20
302.303232
 30
0.0
 11
429.250838
 21
295.504676
 31
0.0
  0
LINE
  5
81
330
1F
100
AcDbEntity
  8
1
100
AcDbLine
 10
437.717469
 20
275.407994
 30
0.0
 11
412.3530759999999
 21
275.407994
 31
0.0
  0
LINE
  5
82
330
1F
100
AcDbEntity
  8
1
100
AcDbLine
 10
274.904842
 20
267.907994
 30
0.0
 11
274.904842
 21
288.907994
 31
0.0
  0
LINE
  5
83
330
1F
100
AcDbEntity
  8
1
100
AcDbLine
 10
274.904842
 20
288.907994
 30
0.0
 11
274.904842
 21
309.907994
 31
0.0
  0
LINE
  5
84
330
1F
100
AcDbEntity
  8
1
100
AcDbLine
 10
279.404842
 20
267.907994
 30
0.0
 11
282.8043370000001
 21
271.307488
 31
0.0
  0
LINE
  5
85
330
1F
100
AcDbEntity
  8
1
100
AcDbLine
 10
282.8043370000001
 20
306.508499
 30
0.0
 11
279.404842
 21
309.907994
 31
0.0
  0
LINE
  5
86
330
1F
100
AcDbEntity
  8
SK1
100
AcDbLine
 10
214.404842
 20
274.907994
 30
0.0
 11
216.404842
 21
272.907994
 31
0.0
  0
LINE
  5
87
330
1F
100
AcDbEntity
  8
SK1
100
AcDbLine
 10
216.404842
 20
304.907994
 30
0.0
 11
214.404842
 21
302.907994
 31
0.0
  0
LINE
  5
88
330
1F
100
AcDbEntity
  8
SK1
100
AcDbLine
 10
274.404842
 20
304.907994
 30
0.0
 11
216.404842
 21
304.907994
 31
0.0
  0
LINE
  5
89
330
1F
100
AcDbEntity
  8
1
100
AcDbLine
 10
274.904842
 20
267.907994
 30
0.0
 11
274.404842
 21
268.407994
 31
0.0
  0
LINE
  5
8A
330
1F
100
AcDbEntity
  8
1
100
AcDbLine
 10
274.404842
 20
309.407994
 30
0.0
 11
274.904842
 21
309.907994
 31
0.0
  0
LINE
  5
8B
330
1F
100
AcDbEntity
  8
1
100
AcDbLine
 10
279.404842
 20
309.907994
 30
0.0
 11
274.904842
 21
309.907994
 31
0.0
  0
LINE
  5
8C
330
1F
100
AcDbEntity
  8
1
100
AcDbLine
 10
429.54342
 20
293.682084
 30
0.0
 11
429.187556
 21
301.640769
 31
0.0
  0
LINE
  5
8E
330
1F
100
AcDbEntity
  8
1
100
AcDbLine
 10
438.3198759999999
 20
293.292226
 30
0.0
 11
430.3499849999999
 21
292.944742
 31
0.0
  0
LINE
  5
8F
330
1F
100
AcDbEntity
  8
1
100
AcDbLine
 10
430.780023
 20
294.216853
 30
0.0
 11
430.467825
 21
301.198991
 31
0.0
  0
LINE
  5
90
330
1F
100
AcDbEntity
  8
1
100
AcDbLine
 10
437.7719929999999
 20
294.5217
 30
0.0
 11
430.780023
 21
294.216853
 31
0.0
  0
LINE
  5
91
330
1F
100
AcDbEntity
  8
1
100
AcDbLine
 10
430.467825
 20
301.198991
 30
0.0
 11
437.459794
 21
301.503838
 31
0.0
  0
LINE
  5
92
330
1F
100
AcDbEntity
  8
1
100
AcDbLine
 10
437.459794
 20
301.503838
 30
0.0
 11
437.7719929999999
 21
294.5217
 31
0.0
  0
LINE
  5
93
330
1F
100
AcDbEntity
  8
1
100
AcDbLine
 10
431.354677
 20
298.574473
 30
0.0
 11
431.334232
 21
298.508138
 31
0.0
  0
LINE
  5
95
330
1F
100
AcDbEntity
  8
1
100
AcDbLine
 10
436.5902559999999
 20
296.888195
 30
0.0
 11
436.610701
 21
296.95453
 31
0.0
  0
LINE
  5
96
330
1F
100
AcDbEntity
  8
1
100
AcDbLine
 10
432.775174
 20
297.722408
 30
0.0
 11
432.750244
 21
297.641519
 31
0.0
  0
LINE
  5
97
330
1F
100
AcDbEntity
  8
1
100
AcDbLine
 10
432.8596919999999
 20
297.708232
 30
0.0
 11
432.8342389999999
 21
297.625646
 31
0.0
  0
LINE
  5
98
330
1F
100
AcDbEntity
  8
1
100
AcDbLine
 10
435.041526
 20
297.136756
 30
0.0
 11
435.0664169999999
 21
297.217516
 31
0.0
  0
LINE
  5
99
330
1F
100
AcDbEntity
  8
1
100
AcDbLine
 10
434.949397
 20
297.157368
 30
0.0
 11
434.9748690000001
 21
297.2400120000001
 31
0.0
  0
LINE
  5
9A
330
1F
100
AcDbEntity
  8
1
100
AcDbLine
 10
434.0063849999999
 20
296.541627
 30
0.0
 11
434.031738
 21
296.623885
 31
0.0
  0
LINE
  5
9B
330
1F
100
AcDbEntity
  8
1
100
AcDbLine
 10
426.8683719999999
 20
292.413766
 30
0.0
 11
426.895049
 21
291.634074
 31
0.0
  0
LINE
  5
9C
330
1F
100
AcDbEntity
  8
1
100
AcDbLine
 10
426.9194019999999
 20
290.922279
 30
0.0
 11
426.9589159999999
 21
289.76738
 31
0.0
  0
LINE
  5
9D
330
1F
100
AcDbEntity
  8
1
100
AcDbLine
 10
433.3506429999999
 20
298.5968450000001
 30
0.0
 11
433.376243
 21
298.679905
 31
0.0
  0
LINE
  5
9E
330
1F
100
AcDbEntity
  8
1
100
AcDbLine
 10
279.404842
 20
267.907994
 30
0.0
 11
279.404842
 21
270.5749990000001
 31
0.0
  0
LINE
  5
9F
330
1F
100
AcDbEntity
  8
1
100
AcDbLine
 10
429.207476
 20
301.83349
 30
0.0
 11
429.1857019999999
 21
302.336869
 31
0.0
  0
LINE
  5
A0
330
1F
100
AcDbEntity
  8
1
100
AcDbLine
 10
438.3815309999999
 20
292.391348
 30
0.0
 11
436.7505969999999
 21
289.673971
 31
0.0
  0
LINE
  5
A1
330
1F
100
AcDbEntity
  8
1
100
AcDbLine
 10
437.974998
 20
280.502341
 30
0.0
 11
437.867647
 21
280.504059
 31
0.0
  0
LINE
  5
A2
330
1F
100
AcDbEntity
  8
1
100
AcDbLine
 10
437.8504809999999
 20
281.004398
 30
0.0
 11
438.1838679999999
 21
284.145494
 31
0.0
  0
LINE
  5
A3
330
1F
100
AcDbEntity
  8
1
100
AcDbLine
 10
438.1838679999999
 20
284.145494
 30
0.0
 11
438.1838679999999
 21
288.931302
 31
0.0
  0
LINE
  5
A4
330
1F
100
AcDbEntity
  8
1
100
AcDbLine
 10
438.254138
 20
289.430151
 30
0.0
 11
438.361672
 21
289.428274
 31
0.0
  0
LINE
  5
A5
330
1F
100
AcDbEntity
  8
1
100
AcDbLine
 10
438.5009519999999
 20
293.111404
 30
0.0
 11
432.212237
 21
292.837219
 31
0.0
  0
LINE
  5
A6
330
1F
100
AcDbEntity
  8
1
100
AcDbLine
 10
432.2068809999999
 20
292.819843
 30
0.0
 11
432.212237
 21
292.837219
 31
0.0
  0
LINE
  5
A7
330
1F
100
AcDbEntity
  8
1
100
AcDbLine
 10
438.361672
 20
289.428274
 30
0.0
 11
438.6026799999999
 21
289.754866
 31
0.0
  0
LINE
  5
A8
330
1F
100
AcDbEntity
  8
1
100
AcDbLine
 10
438.6026799999999
 20
289.993477
 30
0.0
 11
438.6026799999999
 21
289.754866
 31
0.0
  0
LINE
  5
A9
330
1F
100
AcDbEntity
  8
1
100
AcDbLine
 10
438.6026799999999
 20
289.993477
 30
0.0
 11
438.6448419999999
 21
289.992741
 31
0.0
  0
LINE
  5
AA
330
1F
100
AcDbEntity
  8
1
100
AcDbLine
 10
438.6448419999999
 20
293.392384
 30
0.0
 11
438.6448419999999
 21
289.992741
 31
0.0
  0
LINE
  5
AB
330
1F
100
AcDbEntity
  8
1
100
AcDbLine
 10
438.5009519999999
 20
293.111404
 30
0.0
 11
438.499172
 21
293.335452
 31
0.0
  0
LINE
  5
AC
330
1F
100
AcDbEntity
  8
1
100
AcDbLine
 10
438.5009519999999
 20
293.111404
 30
0.0
 11
438.4579659999999
 21
293.092388
 31
0.0
  0
LINE
  5
AD
330
1F
100
AcDbEntity
  8
1
100
AcDbLine
 10
437.717469
 20
275.407994
 30
0.0
 11
438.197357
 21
279.929388
 31
0.0
  0
LINE
  5
AE
330
1F
100
AcDbEntity
  8
1
100
AcDbLine
 10
438.197357
 20
279.929388
 30
0.0
 11
438.155266
 21
279.930062
 31
0.0
  0
LINE
  5
AF
330
1F
100
AcDbEntity
  8
1
100
AcDbLine
 10
438.180548
 20
280.168262
 30
0.0
 11
438.155266
 21
279.930062
 31
0.0
  0
LINE
  5
B0
330
1F
100
AcDbEntity
  8
1
100
AcDbLine
 10
438.180548
 20
280.168262
 30
0.0
 11
437.974998
 21
280.502341
 31
0.0
  0
LINE
  5
B1
330
1F
100
AcDbEntity
  8
1
100
AcDbLine
 10
437.5973919999999
 20
284.145494
 30
0.0
 11
438.1838679999999
 21
284.145494
 31
0.0
  0
LINE
  5
B2
330
1F
100
AcDbEntity
  8
SK1
100
AcDbLine
 10
216.404842
 20
304.907994
 30
0.0
 11
216.404842
 21
272.907994
 31
0.0
  0
LINE
  5
B3
330
1F
100
AcDbEntity
  8
SK1
100
AcDbLine
 10
214.404842
 20
302.907994
 30
0.0
 11
214.404842
 21
274.907994
 31
0.0
  0
LINE
  5
B4
330
1F
100
AcDbEntity
  8
1
100
AcDbLine
 10
292.703832
 20
275.407994
 30
0.0
 11
292.932955
 21
275.407994
 31
0.0
  0
LINE
  5
B5
330
1F
100
AcDbEntity
  8
1
100
AcDbLine
 10
429.378853
 20
302.407994
 30
0.0
 11
415.164731
 21
302.407994
 31
0.0
  0
LINE
  5
B6
330
1F
100
AcDbEntity
  8
1
100
AcDbLine
 10
438.701629
 20
302.055579
 30
0.0
 11
439.0574919999999
 21
294.096893
 31
0.0
  0
LINE
  5
B7
330
1F
100
AcDbEntity
  8
1
100
AcDbLine
 10
429.9251719999999
 20
302.445437
 30
0.0
 11
437.895064
 21
302.792921
 31
0.0
  0
LINE
  5
B8
330
1F
100
AcDbEntity
  8
1
100
AcDbLine
 10
433.0247049999999
 20
297.114632
 30
0.0
 11
433.050373
 21
297.197912
 31
0.0
  0
LINE
  5
B9
330
1F
100
AcDbEntity
  8
1
100
AcDbLine
 10
434.5663219999999
 20
296.788214
 30
0.0
 11
434.592054
 21
296.871703
 31
0.0
  0
LINE
  5
BA
330
1F
100
AcDbEntity
  8
1
100
AcDbLine
 10
433.346749
 20
298.571074
 30
0.0
 11
433.3724809999999
 21
298.654563
 31
0.0
  0
LINE
  5
BB
330
1F
100
AcDbEntity
  8
1
100
AcDbLine
 10
434.9140339999999
 20
298.327936
 30
0.0
 11
434.888366
 21
298.244656
 31
0.0
  0
LINE
  5
BC
330
1F
100
AcDbEntity
  8
1
100
AcDbLine
 10
439.2974360000001
 20
281.933516
 30
0.0
 11
438.671836
 21
280.892342
 31
0.0
  0
LINE
  5
BD
330
1F
100
AcDbEntity
  8
1
100
AcDbLine
 10
438.3014
 20
281.275939
 30
0.0
 11
438.671836
 21
280.892342
 31
0.0
  0
LINE
  5
BE
330
1F
100
AcDbEntity
  8
1
100
AcDbLine
 10
438.671836
 20
280.892342
 30
0.0
 11
437.9684519999999
 21
280.50245
 31
0.0
  0
LINE
  5
BF
330
1F
100
AcDbEntity
  8
1
100
AcDbLine
 10
438.3699329999999
 20
289.4394779999999
 30
0.0
 11
438.7974159999999
 21
289.18262
 31
0.0
  0
LINE
  5
C0
330
1F
100
AcDbEntity
  8
1
100
AcDbLine
 10
438.4138179999999
 20
288.812185
 30
0.0
 11
438.7974159999999
 21
289.18262
 31
0.0
  0
LINE
  5
C1
330
1F
100
AcDbEntity
  8
1
100
AcDbLine
 10
438.7974159999999
 20
289.18262
 30
0.0
 11
439.4048419999999
 21
288.086795
 31
0.0
  0
LINE
  5
C2
330
1F
100
AcDbEntity
  8
1
100
AcDbLine
 10
438.887419
 20
287.957787
 30
0.0
 11
439.4048419999999
 21
288.086795
 31
0.0
  0
LINE
  5
C3
330
1F
100
AcDbEntity
  8
1
100
AcDbLine
 10
438.7848309999999
 20
282.080503
 30
0.0
 11
439.2974360000001
 21
281.933516
 31
0.0
  0
LINE
  5
C4
330
1F
100
AcDbEntity
  8
1
100
AcDbLine
 10
439.4048419999999
 20
288.086795
 30
0.0
 11
439.2974360000001
 21
281.933516
 31
0.0
  0
LINE
  5
C5
330
1F
100
AcDbEntity
  8
1
100
AcDbLine
 10
437.94969
 20
281.939119
 30
0.0
 11
438.1448989999999
 21
282.264001
 31
0.0
  0
LINE
  5
C6
330
1F
100
AcDbEntity
  8
1
100
AcDbLine
 10
438.7848309999999
 20
282.080503
 30
0.0
 11
438.3014
 21
281.275939
 31
0.0
  0
LINE
  5
C7
330
1F
100
AcDbEntity
  8
1
100
AcDbLine
 10
438.1448989999999
 20
282.264001
 30
0.0
 11
438.1765349999999
 21
284.076403
 31
0.0
  0
LINE
  5
C8
330
1F
100
AcDbEntity
  8
1
100
AcDbLine
 10
438.1838679999999
 20
284.496545
 30
0.0
 11
438.241473
 21
287.796734
 31
0.0
  0
LINE
  5
C9
330
1F
100
AcDbEntity
  8
1
100
AcDbLine
 10
438.7848309999999
 20
282.080503
 30
0.0
 11
438.1448989999999
 21
282.264001
 31
0.0
  0
LINE
  5
CA
330
1F
100
AcDbEntity
  8
1
100
AcDbLine
 10
438.887419
 20
287.957787
 30
0.0
 11
438.7848309999999
 21
282.080503
 31
0.0
  0
LINE
  5
CB
330
1F
100
AcDbEntity
  8
1
100
AcDbLine
 10
438.241473
 20
287.796734
 30
0.0
 11
438.1838639999999
 21
287.900664
 31
0.0
  0
LINE
  5
CC
330
1F
100
AcDbEntity
  8
1
100
AcDbLine
 10
438.887419
 20
287.957787
 30
0.0
 11
438.241473
 21
287.796734
 31
0.0
  0
LINE
  5
CD
330
1F
100
AcDbEntity
  8
1
100
AcDbLine
 10
438.4138179999999
 20
288.812185
 30
0.0
 11
438.887419
 21
287.957787
 31
0.0
  0
LINE
  5
CE
330
1F
100
AcDbEntity
  8
1
100
AcDbLine
 10
438.3014
 20
281.275939
 30
0.0
 11
437.9211009999999
 21
281.66975
 31
0.0
  0
LINE
  5
CF
330
1F
100
AcDbEntity
  8
1
100
AcDbLine
 10
438.3014
 20
281.275939
 30
0.0
 11
437.8529209999999
 21
281.027343
 31
0.0
  0
LINE
  5
D0
330
1F
100
AcDbEntity
  8
1
100
AcDbLine
 10
436.869524
 20
284.145494
 30
0.0
 11
437.1783309999999
 21
284.145494
 31
0.0
  0
LINE
  5
D1
330
1F
100
AcDbEntity
  8
1
100
AcDbLine
 10
438.4579659999999
 20
293.092388
 30
0.0
 11
432.2068809999999
 21
292.819843
 31
0.0
  0
LINE
  5
D2
330
1F
100
AcDbEntity
  8
1
100
AcDbLine
 10
438.3815309999999
 20
292.391348
 30
0.0
 11
430.525525
 21
292.04883
 31
0.0
  0
LINE
  5
D3
330
1F
100
AcDbEntity
  8
1
100
AcDbLine
 10
429.433811
 20
302.229008
 30
0.0
 11
429.426248
 21
302.403856
 31
0.0
  0
LINE
  5
D4
330
1F
100
AcDbEntity
  8
1
100
AcDbLine
 10
279.404842
 20
309.907994
 30
0.0
 11
279.404842
 21
276.950332
 31
0.0
  0
LINE
  5
D5
330
1F
100
AcDbEntity
  8
1
100
AcDbLine
 10
423.6817639999999
 20
293.751452
 30
0.0
 11
422.9901619999999
 21
294.149942
 31
0.0
  0
LINE
  5
D6
330
1F
100
AcDbEntity
  8
1
100
AcDbLine
 10
438.4138179999999
 20
288.812185
 30
0.0
 11
438.183867
 21
288.590123
 31
0.0
  0
LINE
  5
D7
330
1F
100
AcDbEntity
  8
1
100
AcDbLine
 10
438.1839139999999
 20
288.950325
 30
0.0
 11
438.4138179999999
 21
288.812185
 31
0.0
  0
LINE
  5
DC
330
1F
100
AcDbEntity
  8
80
100
AcDbLine
 10
275.404416
 20
288.907994
 30
0.0
 11
273.405268
 21
288.907994
 31
0.0
  0
LINE
  5
DD
330
1F
100
AcDbEntity
  8
SK1
100
AcDbLine
 10
216.404842
 20
272.907994
 30
0.0
 11
274.404842
 21
272.907994
 31
0.0
  0
LINE
  5
DE
330
1F
100
AcDbEntity
  8
81
100
AcDbLine
 10
439.4048419999999
 20
304.907994
 30
0.0
 11
439.4048419999999
 21
300.907994
 31
0.0
  0
LINE
  5
DF
330
1F
100
AcDbEntity
  8
81
100
AcDbLine
 10
437.404842
 20
302.907994
 30
0.0
 11
441.4048419999999
 21
302.907994
 31
0.0
  0
LINE
  5
E0
330
1F
100
AcDbEntity
  8
80
100
AcDbLine
 10
274.404842
 20
287.90842
 30
0.0
 11
274.404842
 21
289.907567
 31
0.0
  0
LINE
  5
E1
330
1F
100
AcDbEntity
  8
1
100
AcDbLine
 10
274.904842
 20
267.907994
 30
0.0
 11
279.404842
 21
267.907994
 31
0.0
  0
LINE
  5
E2
330
1F
100
AcDbEntity
  8
1
100
AcDbLine
 10
274.404842
 20
309.407994
 30
0.0
 11
274.404842
 21
288.907994
 31
0.0
  0
LINE
  5
E3
330
1F
100
AcDbEntity
  8
1
100
AcDbLine
 10
274.404842
 20
288.907994
 30
0.0
 11
274.404842
 21
268.407994
 31
0.0
  0
LINE
  5
E4
330
1F
100
AcDbEntity
  8
1
100
AcDbLine
 10
430.52575
 20
292.081827
 30
0.0
 11
430.5154009999999
 21
292.081376
 31
0.0
  0
LINE
  5
E5
330
1F
100
AcDbEntity
  8
1
100
AcDbLine
 10
286.904842
 20
302.165351
 30
0.0
 11
286.904842
 21
284.897905
 31
0.0
  0
LINE
  5
114
330
1F
100
AcDbEntity
  8
NOCUT
100
AcDbLine
 10
292.703832
 20
302.407994
 30
0.0
 11
438.257498
 21
302.407994
 31
0.0
  0
LINE
  5
115
330
1F
100
AcDbEntity
  8
NOCUT
100
AcDbLine
 10
438.257498
 20
302.407994
 30
0.0
 11
438.6448419999999
 21
293.60946
 31
0.0
  0
LINE
  5
116
330
1F
100
AcDbEntity
  8
NOCUT
100
AcDbLine
 10
438.6448419999999
 20
293.60946
 30
0.0
 11
438.6448419999999
 21
288.907994
 31
0.0
  0
LINE
  5
117
330
1F
100
AcDbEntity
  8
NOCUT
100
AcDbLine
 10
438.6448419999999
 20
288.907994
 30
0.0
 11
214.404842
 21
288.907994
 31
0.0
  0
LINE
  5
118
330
1F
100
AcDbEntity
  8
NOCUT
100
AcDbLine
 10
274.404842
 20
304.907994
 30
0.0
 11
274.404842
 21
309.407994
 31
0.0
  0
LINE
  5
119
330
1F
100
AcDbEntity
  8
NOCUT
100
AcDbLine
 10
274.404842
 20
309.407994
 30
0.0
 11
274.904842
 21
309.907994
 31
0.0
  0
LINE
  5
11A
330
1F
100
AcDbEntity
  8
NOCUT
100
AcDbLine
 10
214.404842
 20
302.907994
 30
0.0
 11
216.404842
 21
304.907994
 31
0.0
  0
LINE
  5
11B
330
1F
100
AcDbEntity
  8
NOCUT
100
AcDbLine
 10
279.404842
 20
309.907994
 30
0.0
 11
282.8043370000001
 21
306.508499
 31
0.0
  0
LINE
  5
11C
330
1F
100
AcDbEntity
  8
NOCUT
100
AcDbLine
 10
274.404842
 20
304.907994
 30
0.0
 11
216.404842
 21
304.907994
 31
0.0
  0
LINE
  5
11D
330
1F
100
AcDbEntity
  8
NOCUT
100
AcDbLine
 10
214.404842
 20
302.907994
 30
0.0
 11
214.404842
 21
288.907994
 31
0.0
  0
LINE
  5
11E
330
1F
100
AcDbEntity
  8
NOCUT
100
AcDbLine
 10
279.404842
 20
309.907994
 30
0.0
 11
274.904842
 21
309.907994
 31
0.0
  0
ARC
  5
127
330
1F
100
AcDbEntity
  8
1
100
AcDbCircle
 10
292.703832
 20
261.407994
 30
0.0
 40
14.0
100
AcDbArc
 50
91.03148500000001
 51
135.0
  0
ARC
  5
128
330
1F
100
AcDbEntity
  8
1
100
AcDbCircle
 10
292.703832
 20
316.407994
 30
0.0
 40
14.0
100
AcDbArc
 50
225.0
 51
263.10424
  0
ARC
  5
129
330
1F
100
AcDbEntity
  8
1
100
AcDbCircle
 10
434.4028309999999
 20
285.293558
 30
0.0
 40
1.5
100
AcDbArc
 50
75.0
 51
345.0
  0
CIRCLE
  5
12A
330
1F
100
AcDbEntity
  8
1
100
AcDbCircle
 10
434.422479
 20
285.273212
 30
0.0
 40
1.099999999999998
  0
ARC
  5
139
330
1F
100
AcDbEntity
  8
NOCUT
100
AcDbCircle
 10
292.703832
 20
316.407994
 30
0.0
 40
14.0
100
AcDbArc
 50
225.0
 51
270.0
  0
ELLIPSE
  5
13A
330
1F
100
AcDbEntity
  8
1
100
AcDbEllipse
 10
430.8727909999999
 20
294.47652
 30
0.0
 11
-1.911281369164167
 21
0.589070053462189
 31
0.0
210
0.0
220
0.0
230
1.0
 40
0.9982459999999999
 41
0.0618257924284778
 42
1.913892621525571
  0
ELLIPSE
  5
13B
330
1F
100
AcDbEntity
  8
1
100
AcDbEllipse
 10
430.8727909999999
 20
294.47652
 30
0.0
 11
-1.911281369164167
 21
0.589070053462189
 31
0.0
210
0.0
220
0.0
230
1.0
 40
0.9982459999999999
 41
1.913893121624747
 42
2.629194719155933
  0
ELLIPSE
  5
13C
330
1F
100
AcDbEntity
  8
1
100
AcDbEllipse
 10
430.8053139999999
 20
294.257586
 30
0.0
 11
-1.911281369164167
 21
0.589070053462189
 31
0.0
210
0.0
220
0.0
230
1.0
 40
0.9982459999999999
 41
5.754285902275963
 42
5.897168805749941
  0
ELLIPSE
  5
13D
330
1F
100
AcDbEntity
  8
1
100
AcDbEllipse
 10
430.800084
 20
294.240615
 30
0.0
 11
1.911281369164172
 21
-0.5890700534621704
 31
0.0
210
0.0
220
0.0
230
1.0
 40
0.9982459999999999
 41
2.755576152160156
 42
4.203048187497556
  0
ELLIPSE
  5
13E
330
1F
100
AcDbEntity
  8
1
100
AcDbEllipse
 10
429.5546299999999
 20
288.908115
 30
0.0
 11
0.5691758827923631
 21
-13.49987387550374
 31
0.0
210
0.0
220
0.0
230
1.0
 40
0.01982
 41
3.243162082141946
 42
3.265418485916943
  0
ELLIPSE
  5
13F
330
1F
100
AcDbEntity
  8
1
100
AcDbEllipse
 10
376.317331
 20
288.908239
 30
0.0
 11
774.1421015303411
 21
-0.7640770243401464
 31
0.0
210
0.0
220
0.0
230
1.0
 40
0.01741
 41
1.502763881228314
 42
1.50764060020026
  0
ELLIPSE
  5
140
330
1F
100
AcDbEntity
  8
1
100
AcDbEllipse
 10
434.1199089999999
 20
297.860346
 30
0.0
 11
-3.105832224891777
 21
0.9572388368760586
 31
0.0
210
0.0
220
0.0
230
0.9999999999999998
 40
0.9982459999999999
 41
0.0
 42
6.283185307179585
  0
ELLIPSE
  5
141
330
1F
100
AcDbEntity
  8
1
100
AcDbEllipse
 10
429.903332
 20
301.653402
 30
0.0
 11
1.042972539805741
 21
-0.954759316388564
 31
0.0
210
0.0
220
0.0
230
1.0
 40
0.037843
 41
1.03390573108685
 42
1.588716763877948
  0
ELLIPSE
  5
142
330
1F
100
AcDbEntity
  8
1
100
AcDbEllipse
 10
437.947658
 20
302.004131
 30
0.0
 11
0.9542290196003415
 21
1.042393247198194
 31
0.0
210
0.0
220
0.0
230
1.0
 40
0.017942
 41
1.532929101189959
 42
2.087740133857611
  0
ELLIPSE
  5
143
330
1F
100
AcDbEntity
  8
1
100
AcDbEllipse
 10
438.306845
 20
293.971116
 30
0.0
 11
1.042972539134867
 21
-0.9547593157805151
 31
0.0
210
0.0
220
0.0
230
1.0
 40
0.037843
 41
1.588716763978256
 42
2.143527797114885
  0
ELLIPSE
  5
144
330
1F
100
AcDbEntity
  8
1
100
AcDbEllipse
 10
433.982689
 20
297.764502
 30
0.0
 11
-2.628011882600731
 21
0.8099713235105102
 31
0.0
210
0.0
220
0.0
230
0.9999999999999998
 40
0.9982459999999999
 41
3.141666558290521
 42
6.283160900740869
  0
ELLIPSE
  5
145
330
1F
100
AcDbEntity
  8
1
100
AcDbEllipse
 10
357.16113
 20
288.907993
 30
0.0
 11
287.6317572717232
 21
13.16536987270918
 31
0.0
210
0.0
220
0.0
230
1.0
 40
0.010385
 41
4.970155953677031
 42
4.992278281108429
  0
ELLIPSE
  5
146
330
1F
100
AcDbEntity
  8
1
100
AcDbEllipse
 10
437.920632
 20
281.003275
 30
0.0
 11
0.0538770024347317
 21
0.4991611425064919
 31
0.0
210
0.0
220
0.0
230
0.9999999999999996
 40
0.139171
 41
1.583568179242756
 42
3.154364506043571
  0
ELLIPSE
  5
147
330
1F
100
AcDbEntity
  8
1
100
AcDbEllipse
 10
438.254138
 20
288.930075
 30
0.0
 11
0.0001758288824976
 21
-0.5000776676690234
 31
0.0
210
0.0
220
0.0
230
1.0
 40
0.140519
 41
3.139090475970143
 42
4.709886802757836
  0
ELLIPSE
  5
148
330
1F
100
AcDbEntity
  8
1
100
AcDbEllipse
 10
314.639435
 20
288.907994
 30
0.0
 11
50.35051420868582
 21
-9.041604659822882
 31
0.0
210
0.0
220
0.0
230
0.9999999999999996
 40
0.199103
 41
4.297667222919455
 42
4.442834371777741
  0
ELLIPSE
  5
149
330
1F
100
AcDbEntity
  8
1
100
AcDbEllipse
 10
430.8053139999999
 20
294.257586
 30
0.0
 11
-1.911281369164167
 21
0.589070053462189
 31
0.0
210
0.0
220
0.0
230
1.0
 40
0.9982459999999999
 41
2.649677620372678
 42
2.78119060016262
  0
ELLIPSE
  5
14A
330
1F
100
AcDbEntity
  8
1
100
AcDbEllipse
 10
438.346159
 20
293.149907
 30
0.0
 11
0.0005990836524334
 21
0.8007706842180986
 31
0.0
210
0.0
220
0.0
230
0.9999999999999998
 40
0.140039
 41
3.467838489298921
 42
4.640602399615094
  0
ELLIPSE
  5
14B
330
1F
100
AcDbEntity
  8
1
100
AcDbEllipse
 10
439.15032
 20
288.907994
 30
0.0
 11
1.461223387174559
 21
13.4984732203514
 31
0.0
210
0.0
220
0.0
230
0.9999999999999998
 40
0.138944
 41
1.946374157578591
 42
3.156632395651066
  0
ELLIPSE
  5
14C
330
1F
100
AcDbEntity
  8
1
100
AcDbEllipse
 10
438.6448419999999
 20
288.907994
 30
0.0
 11
0.0
 21
13.50000000131359
 31
0.0
210
0.0
220
0.0
230
1.0
 40
0.140541
 41
1.514026731702205
 42
1.931334415481494
  0
ELLIPSE
  5
14D
330
1F
100
AcDbEntity
  8
1
100
AcDbEllipse
 10
434.177634
 20
296.981613
 30
0.0
 11
-0.5313079055677
 21
0.1637527479664172
 31
0.0
210
0.0
220
0.0
230
0.9999999999999998
 40
0.9982459999999999
 41
1.715630499012021
 42
2.635754072181851
  0
ELLIPSE
  5
14E
330
1F
100
AcDbEntity
  8
1
100
AcDbEllipse
 10
434.10785
 20
296.531711
 30
0.0
 11
-0.0954739578056767
 21
0.0294257299507041
 31
0.0
210
0.0
220
0.0
230
0.9999999999999998
 40
0.9982459999999999
 41
0.3430965710029897
 42
1.715630499011831
  0
ELLIPSE
  5
14F
330
1F
100
AcDbEntity
  8
1
100
AcDbEllipse
 10
433.9082669999999
 20
296.52301
 30
0.0
 11
-0.0954739578056768
 21
0.0294257299507041
 31
0.0
210
0.0
220
0.0
230
0.9999999999999998
 40
0.9982459999999999
 41
3.484689224592446
 42
4.33362437700321
  0
ELLIPSE
  5
150
330
1F
100
AcDbEntity
  8
1
100
AcDbEllipse
 10
433.62252
 20
296.168447
 30
0.0
 11
-0.5313079055676999
 21
0.1637527479664171
 31
0.0
210
0.0
220
0.0
230
0.9999999999999998
 40
0.9982459999999999
 41
4.333624377003531
 42
5.253747950173386
  0
ELLIPSE
  5
151
330
1F
100
AcDbEntity
  8
1
100
AcDbEllipse
 10
433.9565349999999
 20
297.679644
 30
0.0
 11
1.720153232247756
 21
-0.5301630481159538
 31
0.0
210
0.0
220
0.0
230
1.0
 40
0.9982459999999999
 41
0.0
 42
6.283185307179585
  0
ELLIPSE
  5
152
330
1F
100
AcDbEntity
  8
1
100
AcDbEllipse
 10
433.5128519999999
 20
296.610525
 30
0.0
 11
-0.0954739578056768
 21
0.0294257299507041
 31
0.0
210
0.0
220
0.0
230
0.9999999999999998
 40
0.9982459999999999
 41
5.253747950173998
 42
6.102683102584282
  0
ELLIPSE
  5
153
330
1F
100
AcDbEntity
  8
1
100
AcDbEllipse
 10
433.335553
 20
296.70264
 30
0.0
 11
-0.0954739578056769
 21
0.0294257299507041
 31
0.0
210
0.0
220
0.0
230
1.0
 40
0.9982459999999999
 41
1.588556520985215
 42
2.961090448994399
  0
ELLIPSE
  5
154
330
1F
100
AcDbEntity
  8
1
100
AcDbEllipse
 10
433.461884
 20
297.140026
 30
0.0
 11
-0.5313079055677
 21
0.1637527479664172
 31
0.0
210
0.0
220
0.0
230
0.9999999999999998
 40
0.9982459999999999
 41
0.66843294781537
 42
1.588556520985144
  0
ELLIPSE
  5
155
330
1F
100
AcDbEntity
  8
1
100
AcDbEllipse
 10
433.03674
 20
296.975808
 30
0.0
 11
-0.0954739578056767
 21
0.0294257299507041
 31
0.0
210
0.0
220
0.0
230
0.9999999999999998
 40
0.9982459999999999
 41
5.579084326985828
 42
6.951618254994953
  0
ELLIPSE
  5
156
330
1F
100
AcDbEntity
  8
1
100
AcDbEllipse
 10
432.9292309999999
 20
297.144057
 30
0.0
 11
-0.0954739578056768
 21
0.0294257299507041
 31
0.0
210
0.0
220
0.0
230
0.9999999999999998
 40
0.9982459999999999
 41
2.437491673396145
 42
3.286426825806964
  0
ELLIPSE
  5
157
330
1F
100
AcDbEntity
  8
1
100
AcDbEllipse
 10
432.478607
 20
297.214185
 30
0.0
 11
-0.5313079055676999
 21
0.1637527479664171
 31
0.0
210
0.0
220
0.0
230
0.9999999999999998
 40
0.9982459999999999
 41
3.28642682580687
 42
4.206550398976731
  0
ELLIPSE
  5
158
330
1F
100
AcDbEntity
  8
1
100
AcDbEllipse
 10
432.8070849999999
 20
297.529683
 30
0.0
 11
-0.0954739578056768
 21
0.0294257299507041
 31
0.0
210
0.0
220
0.0
230
0.9999999999999998
 40
0.9982459999999999
 41
4.206550398976978
 42
5.055485551387675
  0
ELLIPSE
  5
159
330
1F
100
AcDbEntity
  8
1
100
AcDbEllipse
 10
432.798174
 20
297.728985
 30
0.0
 11
-0.0954739578056769
 21
0.0294257299507041
 31
0.0
210
0.0
220
0.0
230
1.0
 40
0.9982459999999999
 41
0.5413589697885303
 42
1.913892897797906
  0
ELLIPSE
  5
15A
330
1F
100
AcDbEntity
  8
1
100
AcDbEllipse
 10
433.240785
 20
297.838057
 30
0.0
 11
-0.5313079055677
 21
0.1637527479664172
 31
0.0
210
0.0
220
0.0
230
0.9999999999999998
 40
0.9982459999999999
 41
5.904420703798392
 42
6.824544276968257
  0
ELLIPSE
  5
15B
330
1F
100
AcDbEntity
  8
1
100
AcDbEllipse
 10
432.8854259999999
 20
298.12374
 30
0.0
 11
-0.0954739578056767
 21
0.0294257299507041
 31
0.0
210
0.0
220
0.0
230
0.9999999999999998
 40
0.9982459999999999
 41
4.531886775789382
 42
5.904420703798701
  0
ELLIPSE
  5
15C
330
1F
100
AcDbEntity
  8
1
100
AcDbEllipse
 10
432.977499
 20
298.300691
 30
0.0
 11
-0.0954739578056768
 21
0.0294257299507041
 31
0.0
210
0.0
220
0.0
230
0.9999999999999998
 40
0.9982459999999999
 41
1.390294122199041
 42
2.239229274609914
  0
ELLIPSE
  5
15D
330
1F
100
AcDbEntity
  8
1
100
AcDbEllipse
 10
432.8126219999999
 20
298.725381
 30
0.0
 11
-0.5313079055676999
 21
0.1637527479664171
 31
0.0
210
0.0
220
0.0
230
0.9999999999999998
 40
0.9982459999999999
 41
2.239229274610214
 42
3.159352847780153
  0
ELLIPSE
  5
15E
330
1F
100
AcDbEntity
  8
1
100
AcDbEllipse
 10
433.250769
 20
298.598802
 30
0.0
 11
-0.0954739578056768
 21
0.0294257299507041
 31
0.0
210
0.0
220
0.0
230
0.9999999999999998
 40
0.9982459999999999
 41
3.159352847780091
 42
4.008288000190993
  0
ELLIPSE
  5
15F
330
1F
100
AcDbEntity
  8
1
100
AcDbEllipse
 10
433.4191559999999
 20
298.705989
 30
0.0
 11
-0.0954739578056769
 21
0.0294257299507041
 31
0.0
210
0.0
220
0.0
230
1.0
 40
0.9982459999999999
 41
5.77734672577153
 42
7.149880653781233
  0
ELLIPSE
  5
160
330
1F
100
AcDbEntity
  8
1
100
AcDbEllipse
 10
433.7354369999999
 20
298.377675
 30
0.0
 11
-0.5313079055677
 21
0.1637527479664172
 31
0.0
210
0.0
220
0.0
230
0.9999999999999998
 40
0.9982459999999999
 41
4.857223152601815
 42
5.777346725771669
  0
ELLIPSE
  5
161
330
1F
100
AcDbEntity
  8
1
100
AcDbEllipse
 10
433.8052209999999
 20
298.827576
 30
0.0
 11
-0.0954739578056767
 21
0.0294257299507041
 31
0.0
210
0.0
220
0.0
230
0.9999999999999998
 40
0.9982459999999999
 41
3.484689224592543
 42
4.857223152601938
  0
ELLIPSE
  5
162
330
1F
100
AcDbEntity
  8
1
100
AcDbEllipse
 10
434.004804
 20
298.836278
 30
0.0
 11
-0.0954739578056768
 21
0.0294257299507041
 31
0.0
210
0.0
220
0.0
230
0.9999999999999998
 40
0.9982459999999999
 41
0.3430965710029128
 42
1.192031723413971
  0
ELLIPSE
  5
163
330
1F
100
AcDbEntity
  8
1
100
AcDbEllipse
 10
434.2905499999999
 20
299.19084
 30
0.0
 11
-0.5313079055676999
 21
0.1637527479664171
 31
0.0
210
0.0
220
0.0
230
0.9999999999999998
 40
0.9982459999999999
 41
1.192031723413738
 42
2.112155296583563
  0
ELLIPSE
  5
164
330
1F
100
AcDbEntity
  8
1
100
AcDbEllipse
 10
434.400219
 20
298.748763
 30
0.0
 11
-0.0954739578056768
 21
0.0294257299507041
 31
0.0
210
0.0
220
0.0
230
0.9999999999999998
 40
0.9982459999999999
 41
2.112155296583645
 42
2.961090448994399
  0
ELLIPSE
  5
165
330
1F
100
AcDbEntity
  8
1
100
AcDbEllipse
 10
434.577518
 20
298.656648
 30
0.0
 11
-0.0954739578056769
 21
0.0294257299507041
 31
0.0
210
0.0
220
0.0
230
1.0
 40
0.9982459999999999
 41
4.730149174574721
 42
6.102683102584053
  0
ELLIPSE
  5
166
330
1F
100
AcDbEntity
  8
1
100
AcDbEllipse
 10
434.4511869999999
 20
298.219261
 30
0.0
 11
-0.5313079055677
 21
0.1637527479664172
 31
0.0
210
0.0
220
0.0
230
0.9999999999999998
 40
0.9982459999999999
 41
3.810025601405224
 42
4.730149174575091
  0
ELLIPSE
  5
167
330
1F
100
AcDbEntity
  8
1
100
AcDbEllipse
 10
434.8763309999999
 20
298.38348
 30
0.0
 11
-0.0954739578056767
 21
0.0294257299507041
 31
0.0
210
0.0
220
0.0
230
0.9999999999999998
 40
0.9982459999999999
 41
2.437491673395688
 42
3.810025601405521
  0
ELLIPSE
  5
168
330
1F
100
AcDbEntity
  8
1
100
AcDbEllipse
 10
434.98384
 20
298.21523
 30
0.0
 11
-0.0954739578056768
 21
0.0294257299507041
 31
0.0
210
0.0
220
0.0
230
0.9999999999999998
 40
0.9982459999999999
 41
5.579084326985883
 42
6.428019479396799
  0
ELLIPSE
  5
169
330
1F
100
AcDbEntity
  8
1
100
AcDbEllipse
 10
435.4344639999999
 20
298.145102
 30
0.0
 11
-0.5313079055676999
 21
0.1637527479664171
 31
0.0
210
0.0
220
0.0
230
0.9999999999999998
 40
0.9982459999999999
 41
0.1448341722170879
 42
1.064957745386955
  0
ELLIPSE
  5
16A
330
1F
100
AcDbEntity
  8
1
100
AcDbEllipse
 10
435.1059849999999
 20
297.829604
 30
0.0
 11
-0.0954739578056768
 21
0.0294257299507041
 31
0.0
210
0.0
220
0.0
230
0.9999999999999998
 40
0.9982459999999999
 41
1.064957745386689
 42
1.913892897797929
  0
ELLIPSE
  5
16B
330
1F
100
AcDbEntity
  8
1
100
AcDbEllipse
 10
435.1148969999999
 20
297.630303
 30
0.0
 11
-0.0954739578056769
 21
0.0294257299507041
 31
0.0
210
0.0
220
0.0
230
1.0
 40
0.9982459999999999
 41
3.682951623378323
 42
5.055485551387139
  0
ELLIPSE
  5
16C
330
1F
100
AcDbEntity
  8
1
100
AcDbEllipse
 10
434.672286
 20
297.52123
 30
0.0
 11
-0.5313079055677
 21
0.1637527479664172
 31
0.0
210
0.0
220
0.0
230
0.9999999999999998
 40
0.9982459999999999
 41
2.762828050208616
 42
3.682951623378491
  0
ELLIPSE
  5
16D
330
1F
100
AcDbEntity
  8
1
100
AcDbEllipse
 10
435.0276449999999
 20
297.235547
 30
0.0
 11
-0.0954739578056767
 21
0.0294257299507041
 31
0.0
210
0.0
220
0.0
230
0.9999999999999998
 40
0.9982459999999999
 41
1.390294122199295
 42
2.762828050208594
  0
ELLIPSE
  5
16E
330
1F
100
AcDbEntity
  8
1
100
AcDbEllipse
 10
434.935572
 20
297.058596
 30
0.0
 11
-0.0954739578056768
 21
0.0294257299507041
 31
0.0
210
0.0
220
0.0
230
0.9999999999999998
 40
0.9982459999999999
 41
4.531886775789394
 42
5.380821928200153
  0
ELLIPSE
  5
16F
330
1F
100
AcDbEntity
  8
1
100
AcDbEllipse
 10
435.100449
 20
296.633906
 30
0.0
 11
-0.5313079055676999
 21
0.1637527479664171
 31
0.0
210
0.0
220
0.0
230
0.9999999999999998
 40
0.9982459999999999
 41
5.380821928200063
 42
6.300945501369934
  0
ELLIPSE
  5
170
330
1F
100
AcDbEntity
  8
1
100
AcDbEllipse
 10
434.662302
 20
296.760485
 30
0.0
 11
-0.0954739578056768
 21
0.0294257299507041
 31
0.0
210
0.0
220
0.0
230
0.9999999999999998
 40
0.9982459999999999
 41
0.0177601941903596
 42
0.8666953466012007
  0
ELLIPSE
  5
171
330
1F
100
AcDbEntity
  8
1
100
AcDbEllipse
 10
434.493915
 20
296.653299
 30
0.0
 11
-0.0954739578056769
 21
0.0294257299507041
 31
0.0
210
0.0
220
0.0
230
1.0
 40
0.9982459999999999
 41
2.63575407218195
 42
4.008288000190868
  0
ELLIPSE
  5
172
330
1F
100
AcDbEntity
  8
1
100
AcDbEllipse
 10
432.498654
 20
288.907994
 30
0.0
 11
23.14961787126369
 21
-13.31868306479472
 31
0.0
210
0.0
220
0.0
230
0.9999999999999998
 40
0.095256
 41
4.208638175729461
 42
4.383055274511908
  0
ELLIPSE
  5
173
330
1F
100
AcDbEntity
  8
1
100
AcDbEllipse
 10
434.1425749999999
 20
297.933889
 30
0.0
 11
2.957951010929479
 21
-0.9116608304033752
 31
0.0
210
0.0
220
0.0
230
1.0
 40
0.9982459999999999
 41
2.062823929736282
 42
6.283185307179585
  0
ELLIPSE
  5
174
330
1F
100
AcDbEntity
  8
1
100
AcDbEllipse
 10
434.1425749999999
 20
297.933889
 30
0.0
 11
2.957951010929479
 21
-0.9116608304033752
 31
0.0
210
0.0
220
0.0
230
1.0
 40
0.9982459999999999
 41
0.0
 42
1.078818370954008
  0
ELLIPSE
  5
175
330
1F
100
AcDbEntity
  8
1
100
AcDbEllipse
 10
430.262519
 20
293.620387
 30
0.0
 11
0.9542290199344309
 21
1.042393247596923
 31
0.0
210
0.0
220
0.0
230
1.0
 40
0.017942
 41
0.9781180677772152
 42
1.532929100268805
  0
ELLIPSE
  5
176
330
1F
100
AcDbEntity
  8
1
100
AcDbEllipse
 10
434.122786
 20
297.86968
 30
0.0
 11
3.014795222820601
 21
-0.9291806071761492
 31
0.0
210
0.0
220
0.0
230
0.9999999999999998
 40
0.9982459999999999
 41
0.0
 42
6.283185307179585
  0
ELLIPSE
  5
177
330
1F
100
AcDbEntity
  8
1
100
AcDbEllipse
 10
433.962244
 20
297.698166
 30
0.0
 11
2.628011882600738
 21
-0.8099713235104845
 31
0.0
210
0.0
220
0.0
230
1.0
 40
0.9982459999999999
 41
0.0
 42
6.283185307179585
  0
ELLIPSE
  5
178
330
1F
100
AcDbEntity
  8
1
100
AcDbEllipse
 10
260.547589
 20
288.907993
 30
0.0
 11
50.35051416670624
 21
-9.041604647240813
 31
0.0
210
0.0
220
0.0
230
0.9999999999999998
 40
0.199103
 41
5.440337164714199
 42
5.531270718780536
  0
ELLIPSE
  5
179
330
1F
100
AcDbEntity
  8
1
100
AcDbEllipse
 10
429.988396
 20
288.907994
 30
0.0
 11
0.5691812657112868
 21
-13.499995162592
 31
0.0
210
0.0
220
0.0
230
1.0
 40
0.01982
 41
3.000260312458475
 42
3.115999311078518
  0
ELLIPSE
  5
17A
330
1F
100
AcDbEntity
  8
1
100
AcDbEllipse
 10
429.856074
 20
288.907994
 30
0.0
 11
0.486935962811932
 21
-13.49982490548441
 31
0.0
210
0.0
220
0.0
230
0.9999999999999998
 40
0.141202
 41
3.111741861321459
 42
3.239194406802861
  0
ELLIPSE
  5
17B
330
1F
100
AcDbEntity
  8
1
100
AcDbEllipse
 10
429.963487
 20
304.649662
 30
0.0
 11
12.04107262573429
 21
-3.711141336811674
 31
0.0
210
0.0
220
0.0
230
0.9999999999999998
 40
0.9982459999999997
 41
4.488852205283417
 42
4.697607706097744
  0
SPLINE
  5
182
330
1F
100
AcDbEntity
  8
1
100
AcDbSpline
210
0.0
220
0.0
230
1.0
 70
    12
 71
     2
 72
     6
 73
     3
 74
     0
 42
0.000000001
 43
0.0000000001
 40
0.0
 40
0.0
 40
0.0
 40
1.0
 40
1.0
 40
1.0
 10
428.9612578574454
 20
302.3372701095757
 30
0.0
 41
0.4999968692475267
 10
429.0734808898791
 20
302.3370698437854
 30
0.0
 41
0.5000031307524733
 10
429.1857024248288
 20
302.3368690124053
 30
0.0
 41
0.4999968692475267
  0
SPLINE
  5
183
330
1F
100
AcDbEntity
  8
1
100
AcDbSpline
210
0.0
220
0.0
230
1.0
 70
     8
 71
     3
 72
    36
 73
    32
 74
     0
 42
0.000000001
 43
0.0000000001
 40
0.0
 40
0.0
 40
0.0
 40
0.0
 40
0.1250000000000341
 40
0.1250000000000341
 40
0.1875000000000511
 40
0.1875000000000511
 40
0.2187500000000596
 40
0.2187500000000596
 40
0.2500000000000681
 40
0.2500000000000681
 40
0.3750000000001625
 40
0.3750000000001625
 40
0.4062500000001716
 40
0.4062500000001716
 40
0.4375000000001807
 40
0.4375000000001807
 40
0.5000000000001962
 40
0.5000000000001962
 40
0.6250000000001805
 40
0.6250000000001805
 40
0.6562500000001766
 40
0.6562500000001766
 40
0.6875000000001727
 40
0.7500000000001386
 40
0.8125000000001046
 40
0.8125000000001046
 40
0.8437500000000875
 40
0.8437500000000875
 40
0.8750000000000705
 40
0.8750000000000705
 40
1.0
 40
1.0
 40
1.0
 40
1.0
 10
429.9251718287903
 20
302.4454368806708
 30
0.0
 10
429.8742680125896
 20
302.4432174971447
 30
0.0
 10
429.8244786209604
 20
302.4358659221676
 30
0.0
 10
429.7513623358533
 20
302.417618455305
 30
0.0
 10
429.727253717899
 20
302.4103225914316
 30
0.0
 10
429.6914916640828
 20
302.3975326791346
 30
0.0
 10
429.6796064716715
 20
302.3929476351809
 30
0.0
 10
429.6561439347021
 20
302.3832221852426
 30
0.0
 10
429.6445770129682
 20
302.3780883770594
 30
0.0
 10
429.5875455498622
 20
302.3510945805319
 30
0.0
 10
429.5444666203776
 20
302.3252996233823
 30
0.0
 10
429.4937531701464
 20
302.2878845241693
 30
0.0
 10
429.48376871534
 20
302.2801405017989
 30
0.0
 10
429.4641210783173
 20
302.2641225311192
 30
0.0
 10
429.4544429953086
 20
302.2558332518031
 30
0.0
 10
429.4261906870586
 20
302.230423724252
 30
0.0
 10
429.4083031412456
 20
302.2126925613377
 30
0.0
 10
429.3574040881626
 20
302.1571901366308
 30
0.0
 10
429.3271286091259
 20
302.1171329616278
 30
0.0
 10
429.2940134649473
 20
302.0631103087541
 30
0.0
 10
429.2876235506683
 20
302.0520924787163
 30
0.0
 10
429.2754620663181
 20
302.0298944246573
 30
0.0
 10
429.2580940655983
 20
301.9962696540923
 30
0.0
 10
429.2334442118
 20
301.938617778201
 30
0.0
 10
429.2182788459883
 20
301.8907890899892
 30
0.0
 10
429.2086543675306
 20
301.8542617847
 30
0.0
 10
429.2057383452425
 20
301.8419765133423
 30
0.0
 10
429.2005045999721
 20
301.8171817077589
 30
0.0
 10
429.1981857726435
 20
301.8046559461885
 30
0.0
 10
429.1882161172213
 20
301.7420470481619
 30
0.0
 10
429.1852834196675
 20
301.6915960254506
 30
0.0
 10
429.1875560746241
 20
301.6407693850418
 30
0.0
  0
SPLINE
  5
184
330
1F
100
AcDbEntity
  8
1
100
AcDbSpline
210
0.0
220
0.0
230
1.0
 70
     8
 71
     3
 72
    36
 73
    32
 74
     0
 42
0.000000001
 43
0.0000000001
 40
0.0
 40
0.0
 40
0.0
 40
0.0
 40
0.1250000000000112
 40
0.1250000000000112
 40
0.1875000000000241
 40
0.1875000000000241
 40
0.2187500000000305
 40
0.2187500000000305
 40
0.2500000000000369
 40
0.2500000000000369
 40
0.3750000000001512
 40
0.3750000000001512
 40
0.4062500000001695
 40
0.4062500000001695
 40
0.4375000000001878
 40
0.4375000000001878
 40
0.500000000000223
 40
0.500000000000223
 40
0.6250000000002423
 40
0.6250000000002423
 40
0.656250000000218
 40
0.656250000000218
 40
0.6875000000001937
 40
0.7500000000002078
 40
0.8125000000002218
 40
0.8125000000002218
 40
0.8437500000001961
 40
0.8437500000001961
 40
0.8750000000001703
 40
0.8750000000001703
 40
1.0
 40
1.0
 40
1.0
 40
1.0
 10
429.543419568225
 20
293.6820839843102
 30
0.0
 10
429.5456924735585
 20
293.6312517443635
 30
0.0
 10
429.5531039224943
 20
293.5815272427974
 30
0.0
 10
429.5714501366727
 20
293.5084988864724
 30
0.0
 10
429.5787804181212
 20
293.4844179973338
 30
0.0
 10
429.591624241733
 20
293.4486951316308
 30
0.0
 10
429.5962276883081
 20
293.436822632574
 30
0.0
 10
429.6059904458362
 20
293.4133844874242
 30
0.0
 10
429.6111431391073
 20
293.4018292555702
 30
0.0
 10
429.63823249138
 20
293.3448537689463
 30
0.0
 10
429.6641074765729
 20
293.3018117806724
 30
0.0
 10
429.7016270231735
 20
293.2511348535158
 30
0.0
 10
429.7093921577133
 20
293.2411572161118
 30
0.0
 10
429.7254528048747
 20
293.2215222246834
 30
0.0
 10
429.7337636854908
 20
293.2118499763118
 30
0.0
 10
429.7592380309774
 20
293.1836135035427
 30
0.0
 10
429.7770126192238
 20
293.1657343597933
 30
0.0
 10
429.8326459423954
 20
293.1148542264583
 30
0.0
 10
429.8727912067923
 20
293.084583041346
 30
0.0
 10
429.9269250366116
 20
293.0514625068493
 30
0.0
 10
429.9379651814636
 20
293.0450709659157
 30
0.0
 10
429.960207489998
 20
293.0329051716958
 30
0.0
 10
429.9938982543367
 20
293.0155291154589
 30
0.0
 10
430.0516582131318
 20
292.9908580174581
 30
0.0
 10
430.0995713465916
 20
292.9756673690356
 30
0.0
 10
430.1361612094526
 20
292.9660207452044
 30
0.0
 10
430.1484672036976
 20
292.9630968095616
 30
0.0
 10
430.1733031895598
 20
292.9578461489369
 30
0.0
 10
430.1858494331791
 20
292.9555183051742
 30
0.0
 10
430.2485591073667
 20
292.9455012330747
 30
0.0
 10
430.2990862964195
 20
292.9425229343017
 30
0.0
 10
430.3499845051976
 20
292.9447420733469
 30
0.0
  0
SPLINE
  5
185
330
1F
100
AcDbEntity
  8
1
100
AcDbSpline
210
0.0
220
0.0
230
1.0
 70
     8
 71
     3
 72
    36
 73
    32
 74
     0
 42
0.000000001
 43
0.0000000001
 40
0.0
 40
0.0
 40
0.0
 40
0.0
 40
0.1250000000000005
 40
0.1250000000000005
 40
0.1875000000000008
 40
0.1875000000000008
 40
0.2187500000000009
 40
0.2187500000000009
 40
0.2500000000000011
 40
0.2500000000000011
 40
0.3750000000000628
 40
0.3750000000000628
 40
0.4062500000000648
 40
0.4062500000000648
 40
0.4375000000000667
 40
0.4375000000000667
 40
0.5000000000000706
 40
0.5000000000000706
 40
0.6250000000000334
 40
0.6250000000000334
 40
0.6562500000000152
 40
0.6562500000000152
 40
0.687499999999997
 40
0.7499999999999925
 40
0.8124999999999879
 40
0.8124999999999879
 40
0.8437499999999868
 40
0.8437499999999868
 40
0.8749999999999856
 40
0.8749999999999856
 40
1.0
 40
1.0
 40
1.0
 40
1.0
 10
438.3198764333005
 20
293.2922257822549
 30
0.0
 10
438.3707802495012
 20
293.2944451657812
 30
0.0
 10
438.4205696411302
 20
293.3017967407582
 30
0.0
 10
438.4936859262373
 20
293.3200442076207
 30
0.0
 10
438.5177945441916
 20
293.3273400714942
 30
0.0
 10
438.5535565980081
 20
293.340129983791
 30
0.0
 10
438.5654417904194
 20
293.3447150277448
 30
0.0
 10
438.5889043273888
 20
293.3544404776831
 30
0.0
 10
438.6004712491224
 20
293.3595742858663
 30
0.0
 10
438.6575027122286
 20
293.3865680823938
 30
0.0
 10
438.700581641713
 20
293.4123630395434
 30
0.0
 10
438.7512950919444
 20
293.4497781387565
 30
0.0
 10
438.7612795467508
 20
293.4575221611268
 30
0.0
 10
438.7809271837735
 20
293.4735401318067
 30
0.0
 10
438.7906052667822
 20
293.4818294111226
 30
0.0
 10
438.8188575750322
 20
293.5072389386738
 30
0.0
 10
438.836745120845
 20
293.5249701015881
 30
0.0
 10
438.8876441739282
 20
293.5804725262948
 30
0.0
 10
438.9179196529647
 20
293.6205297012979
 30
0.0
 10
438.9510347971433
 20
293.6745523541716
 30
0.0
 10
438.9574247114224
 20
293.6855701842095
 30
0.0
 10
438.9695861957726
 20
293.7077682382683
 30
0.0
 10
438.9869541964923
 20
293.7413930088335
 30
0.0
 10
439.0116040502909
 20
293.7990448847247
 30
0.0
 10
439.0267694161025
 20
293.8468735729367
 30
0.0
 10
439.03639389456
 20
293.8834008782258
 30
0.0
 10
439.0393099168483
 20
293.8956861495833
 30
0.0
 10
439.0445436621186
 20
293.9204809551669
 30
0.0
 10
439.0468624894474
 20
293.9330067167372
 30
0.0
 10
439.0568321448693
 20
293.9956156147638
 30
0.0
 10
439.0597648424232
 20
294.0460666374751
 30
0.0
 10
439.0574921874666
 20
294.0968932778838
 30
0.0
  0
SPLINE
  5
186
330
1F
100
AcDbEntity
  8
1
100
AcDbSpline
210
0.0
220
0.0
230
1.0
 70
     8
 71
     3
 72
    22
 73
    18
 74
     0
 42
0.000000001
 43
0.0000000001
 40
0.0
 40
0.0
 40
0.0
 40
0.0
 40
0.125
 40
0.125
 40
0.25
 40
0.25
 40
0.375
 40
0.375
 40
0.5
 40
0.5
 40
0.625
 40
0.625
 40
0.75
 40
0.75
 40
0.875
 40
0.875
 40
1.0
 40
1.0
 40
1.0
 40
1.0
 10
433.449462250843
 20
296.7385383431487
 30
0.0
 10
433.4468376914767
 20
296.7334471828777
 30
0.0
 10
433.4437999531593
 20
296.7285934193571
 30
0.0
 10
433.4370283316661
 20
296.7195143091313
 30
0.0
 10
433.4332825227259
 20
296.7152638554502
 30
0.0
 10
433.4250505508518
 20
296.7073586680522
 30
0.0
 10
433.4205585434832
 20
296.7037133562755
 30
0.0
 10
433.4111218856548
 20
296.6972905571844
 30
0.0
 10
433.4061426857848
 20
296.6944761995796
 30
0.0
 10
433.3956407515572
 20
296.6896776287643
 30
0.0
 10
433.3901352183073
 20
296.687712882317
 30
0.0
 10
433.3789599143877
 20
296.6847870269479
 30
0.0
 10
433.3732444456433
 20
296.6838027207542
 30
0.0
 10
433.361544294077
 20
296.6828476866317
 30
0.0
 10
433.3556485451266
 20
296.6828916514544
 30
0.0
 10
433.3440134618085
 20
296.6840147671031
 30
0.0
 10
433.3382357993931
 20
296.6850899307095
 30
0.0
 10
433.3325009247523
 20
296.6867120833885
 30
0.0
  0
SPLINE
  5
187
330
1F
100
AcDbEntity
  8
1
100
AcDbSpline
210
0.0
220
0.0
230
1.0
 70
     8
 71
     3
 72
    20
 73
    16
 74
     0
 42
0.000000001
 43
0.0000000001
 40
0.0
 40
0.0
 40
0.0
 40
0.0
 40
0.1250000000000271
 40
0.1250000000000271
 40
0.2500000000000542
 40
0.2500000000000542
 40
0.3750000000000813
 40
0.3750000000000813
 40
0.5000000000001084
 40
0.5000000000001084
 40
0.6250000000001355
 40
0.6250000000001355
 40
0.7500000000001626
 40
0.7500000000001626
 40
1.0
 40
1.0
 40
1.0
 40
1.0
 10
434.1171841308491
 20
296.5130421497556
 30
0.0
 10
434.111299185138
 20
296.5139913540603
 30
0.0
 10
434.1056005284129
 20
296.5154566452871
 30
0.0
 10
434.0945561930963
 20
296.5193632542837
 30
0.0
 10
434.0891606161683
 20
296.5218362500329
 30
0.0
 10
434.0790132784515
 20
296.5276264662713
 30
0.0
 10
434.0742701233558
 20
296.5309238997587
 30
0.0
 10
434.0654127327603
 20
296.5382821665202
 30
0.0
 10
434.0612657246925
 20
296.542384108407
 30
0.0
 10
434.0537920075421
 20
296.5511749075573
 30
0.0
 10
434.0504850190898
 20
296.5558243513385
 30
0.0
 10
434.0446865968605
 20
296.5656033997041
 30
0.0
 10
434.0421855806246
 20
296.5707590703154
 30
0.0
 10
434.0360103057651
 20
296.5867980552125
 30
0.0
 10
434.0337479727609
 20
296.5978708171732
 30
0.0
 10
434.0333178900888
 20
296.6093165510543
 30
0.0
  0
SPLINE
  5
188
330
1F
100
AcDbEntity
  8
1
100
AcDbSpline
210
0.0
220
0.0
230
1.0
 70
     8
 71
     3
 72
    14
 73
    10
 74
     0
 42
0.000000001
 43
0.0000000001
 40
0.0
 40
0.0
 40
0.0
 40
0.0
 40
0.25
 40
0.25
 40
0.5
 40
0.5
 40
0.75
 40
0.75
 40
1.0
 40
1.0
 40
1.0
 40
1.0
 10
433.4494622508435
 20
296.7385383431496
 30
0.0
 10
433.4527456000799
 20
296.7449074340543
 30
0.0
 10
433.4566865434318
 20
296.7509265719357
 30
0.0
 10
433.4656911378771
 20
296.7619943877468
 30
0.0
 10
433.4707131198737
 20
296.767010013065
 30
0.0
 10
433.4818096931373
 20
296.7759948834813
 30
0.0
 10
433.487924385426
 20
296.7799651968117
 30
0.0
 10
433.5007180658954
 20
296.7864469135619
 30
0.0
 10
433.5074539416078
 20
296.7890160637788
 30
0.0
 10
433.5145603185962
 20
296.7908556513997
 30
0.0
  0
SPLINE
  5
189
330
1F
100
AcDbEntity
  8
1
100
AcDbSpline
210
0.0
220
0.0
230
1.0
 70
     8
 71
     3
 72
    14
 73
    10
 74
     0
 42
0.000000001
 43
0.0000000001
 40
0.0
 40
0.0
 40
0.0
 40
0.0
 40
0.25
 40
0.25
 40
0.5
 40
0.5
 40
0.75
 40
0.75
 40
1.0
 40
1.0
 40
1.0
 40
1.0
 10
433.9965951371192
 20
296.6841693424648
 30
0.0
 10
434.0022521580278
 20
296.6795020859172
 30
0.0
 10
434.007361350588
 20
296.6742223101764
 30
0.0
 10
434.0162017030188
 20
296.6628996760264
 30
0.0
 10
434.0199588709245
 20
296.6568536828049
 30
0.0
 10
434.0261910148637
 20
296.6440137381283
 30
0.0
 10
434.0286427075885
 20
296.6372164773783
 30
0.0
 10
434.0320511307679
 20
296.6234842255931
 30
0.0
 10
434.0330489199152
 20
296.6164746190897
 30
0.0
 10
434.0333178900888
 20
296.6093165510543
 30
0.0
  0
SPLINE
  5
18A
330
1F
100
AcDbEntity
  8
1
100
AcDbSpline
210
0.0
220
0.0
230
1.0
 70
     8
 71
     3
 72
    21
 73
    17
 74
     0
 42
0.000000001
 43
0.0000000001
 40
0.0
 40
0.0
 40
0.0
 40
0.0
 40
0.2500000000000789
 40
0.2500000000000789
 40
0.3125000000000313
 40
0.3125000000000313
 40
0.3749999999999837
 40
0.3749999999999837
 40
0.5000000000000203
 40
0.6250000000000569
 40
0.6250000000000569
 40
0.687500000000075
 40
0.687500000000075
 40
0.7500000000000934
 40
0.7500000000000934
 40
1.0
 40
1.0
 40
1.0
 40
1.0
 10
433.3325009247523
 20
296.6867120833885
 30
0.0
 10
433.2912497948091
 20
296.6983802775757
 30
0.0
 10
433.2519131590933
 20
296.7146423590937
 30
0.0
 10
433.2051389395918
 20
296.7407064122867
 30
0.0
 10
433.1958869560506
 20
296.7462231251232
 30
0.0
 10
433.1778344418103
 20
296.7577159750353
 30
0.0
 10
433.1690109887023
 20
296.7637033746913
 30
0.0
 10
433.1431379854647
 20
296.7823753065894
 30
0.0
 10
433.1102298905913
 20
296.8091594191626
 30
0.0
 10
433.0804782443046
 20
296.8396935252315
 30
0.0
 10
433.059387927674
 20
296.864047666901
 30
0.0
 10
433.0525778186346
 20
296.8723942221745
 30
0.0
 10
433.0395430165158
 20
296.8893528096032
 30
0.0
 10
433.0332958687103
 20
296.8979902123546
 30
0.0
 10
433.0033871267278
 20
296.9419535079617
 30
0.0
 10
432.9836542750991
 20
296.9795777634886
 30
0.0
 10
432.9682289973809
 20
297.0197205576305
 30
0.0
  0
SPLINE
  5
18B
330
1F
100
AcDbEntity
  8
1
100
AcDbSpline
210
0.0
220
0.0
230
1.0
 70
     8
 71
     3
 72
    21
 73
    17
 74
     0
 42
0.000000001
 43
0.0000000001
 40
0.0
 40
0.0
 40
0.0
 40
0.0
 40
0.2500000000002404
 40
0.2500000000002404
 40
0.3125000000002205
 40
0.3125000000002205
 40
0.3750000000002005
 40
0.3750000000002005
 40
0.5000000000001596
 40
0.6250000000001186
 40
0.6250000000001186
 40
0.6875000000000981
 40
0.6875000000000981
 40
0.7500000000000775
 40
0.7500000000000775
 40
1.0
 40
1.0
 40
1.0
 40
1.0
 10
433.5145603185962
 20
296.7908556513997
 30
0.0
 10
433.5557930533602
 20
296.8015293362565
 30
0.0
 10
433.5977227534747
 20
296.8073736507424
 30
0.0
 10
433.6510957296886
 20
296.8084931443848
 30
0.0
 10
433.6618189183028
 20
296.8084037106129
 30
0.0
 10
433.6833670178902
 20
296.8075773334606
 30
0.0
 10
433.6942178235928
 20
296.806835612623
 30
0.0
 10
433.7264413533111
 20
296.8036574828839
 30
0.0
 10
433.7688198302751
 20
296.7968865425643
 30
0.0
 10
433.8100512934182
 20
296.7851602888235
 30
0.0
 10
433.8405375304425
 20
296.7744755142962
 30
0.0
 10
433.8506623770921
 20
296.7705825938212
 30
0.0
 10
433.8705737396617
 20
296.7622315040022
 30
0.0
 10
433.8803424764308
 20
296.757783909735
 30
0.0
 10
433.928285870017
 20
296.7342298315802
 30
0.0
 10
433.9637957793578
 20
296.7112300551165
 30
0.0
 10
433.9965951371192
 20
296.6841693424648
 30
0.0
  0
SPLINE
  5
18C
330
1F
100
AcDbEntity
  8
1
100
AcDbSpline
210
0.0
220
0.0
230
1.0
 70
     8
 71
     3
 72
    18
 73
    14
 74
     0
 42
0.000000001
 43
0.0000000001
 40
0.0
 40
0.0
 40
0.0
 40
0.0
 40
0.0241883411985065
 40
0.0241883411985065
 40
0.1638002144516371
 40
0.1638002144516371
 40
0.4430239609578804
 40
0.4430239609578804
 40
0.5826358342109911
 40
0.5826358342109911
 40
0.7222477074641018
 40
0.7222477074641018
 40
1.0
 40
1.0
 40
1.0
 40
1.0
 10
426.1184352163243
 20
292.8009896360091
 30
0.0
 10
426.1526205942472
 20
292.7895764503252
 30
0.0
 10
426.1868660653794
 20
292.7783097568187
 30
0.0
 10
426.4191795368634
 20
292.7030071257111
 30
0.0
 10
426.6188004073307
 20
292.6438535495857
 30
0.0
 10
427.220515751447
 20
292.4820124971176
 30
0.0
 10
427.6262486605368
 20
292.3946448410253
 30
0.0
 10
428.2417848320366
 20
292.2946190271628
 30
0.0
 10
428.4483758041233
 20
292.2664404630209
 30
0.0
 10
428.8616175949211
 20
292.2208102750815
 30
0.0
 10
429.0684759554813
 20
292.2033117861843
 30
0.0
 10
429.6875775855758
 20
292.1668242499287
 30
0.0
 10
430.1004552028076
 20
292.1634496751572
 30
0.0
 10
430.514404788186
 20
292.1812735713242
 30
0.0
  0
SPLINE
  5
18D
330
1F
100
AcDbEntity
  8
1
100
AcDbSpline
210
0.0
220
0.0
230
1.0
 70
     8
 71
     3
 72
    34
 73
    30
 74
     0
 42
0.000000001
 43
0.0000000001
 40
0.0
 40
0.0
 40
0.0
 40
0.0
 40
0.1249999999999996
 40
0.1249999999999996
 40
0.2499999999999993
 40
0.2499999999999993
 40
0.3749999999999989
 40
0.3749999999999989
 40
0.4374999999999988
 40
0.4374999999999988
 40
0.453124999999999
 40
0.453124999999999
 40
0.468749999999999
 40
0.4999999999999992
 40
0.4999999999999992
 40
0.6249999999999987
 40
0.6249999999999987
 40
0.6874999999999984
 40
0.6874999999999984
 40
0.7499999999999979
 40
0.7499999999999979
 40
0.7656249999999983
 40
0.7656249999999983
 40
0.7812499999999984
 40
0.7812499999999984
 40
0.8124999999999989
 40
0.8749999999999996
 40
0.8749999999999996
 40
1.0
 40
1.0
 40
1.0
 40
1.0
 10
282.8043368819074
 20
280.9496078529583
 30
0.0
 10
283.0776875385642
 20
281.2061731654304
 30
0.0
 10
283.3620934885764
 20
281.4485535739809
 30
0.0
 10
283.9536813252308
 20
281.9045495328028
 30
0.0
 10
284.2608573417164
 20
282.1181739940259
 30
0.0
 10
284.8994424043829
 20
282.5151551407283
 30
0.0
 10
285.2308398379638
 20
282.6985304343642
 30
0.0
 10
285.74798999715
 20
282.9486338975351
 30
0.0
 10
285.9237249434126
 20
283.0278283869247
 30
0.0
 10
286.1478653111301
 20
283.1212401950748
 30
0.0
 10
286.1929382807335
 20
283.1396509644608
 30
0.0
 10
286.2832575904402
 20
283.1757919192852
 30
0.0
 10
286.4190904908658
 20
283.2290225429876
 30
0.0
 10
286.5559889926857
 20
283.2792957373692
 30
0.0
 10
287.0147061660898
 20
283.440215684853
 30
0.0
 10
287.3893075965625
 20
283.547738175986
 30
0.0
 10
287.9632520895121
 20
283.6745261744161
 30
0.0
 10
288.1565773085102
 20
283.7110218560663
 30
0.0
 10
288.5473877612148
 20
283.7717925496133
 30
0.0
 10
288.7448730496948
 20
283.7960685348489
 30
0.0
 10
288.9944322203297
 20
283.8182271935691
 30
0.0
 10
289.0444792402267
 20
283.8222490966331
 30
0.0
 10
289.1448464389453
 20
283.8294573851879
 30
0.0
 10
289.1951920992704
 20
283.8326442735309
 30
0.0
 10
289.3460221578219
 20
283.8408978851028
 30
0.0
 10
289.6474325659403
 20
283.8522235007654
 30
0.0
 10
289.9480294789614
 20
283.8479594370083
 30
0.0
 10
290.5479281257053
 20
283.818390047819
 30
0.0
 10
290.9461490041404
 20
283.770648174673
 30
0.0
 10
291.341919746932
 20
283.6937569811325
 30
0.0
  0
SPLINE
  5
18E
330
1F
100
AcDbEntity
  8
1
100
AcDbSpline
210
0.0
220
0.0
230
1.0
 70
     8
 71
     3
 72
    31
 73
    27
 74
     0
 42
0.000000001
 43
0.0000000001
 40
0.0
 40
0.0
 40
0.0
 40
0.0
 40
0.1250000000000676
 40
0.1250000000000676
 40
0.1562500000000758
 40
0.1562500000000758
 40
0.1875000000000841
 40
0.2500000000001006
 40
0.2500000000001006
 40
0.3750000000000969
 40
0.3750000000000969
 40
0.4375000000000949
 40
0.4375000000000949
 40
0.5000000000000929
 40
0.5000000000000929
 40
0.6250000000000478
 40
0.6250000000000478
 40
0.7500000000000028
 40
0.7500000000000028
 40
0.7812500000000025
 40
0.7812500000000025
 40
0.8125000000000021
 40
0.8125000000000021
 40
0.8750000000000014
 40
0.8750000000000014
 40
1.0
 40
1.0
 40
1.0
 40
1.0
 10
432.2068812223391
 20
292.8198432258712
 30
0.0
 10
432.1516281277394
 20
292.7649970836039
 30
0.0
 10
432.0935757103491
 20
292.7135162037114
 30
0.0
 10
432.0174723244987
 20
292.6532522560084
 30
0.0
 10
432.0020762242265
 20
292.6414079703726
 30
0.0
 10
431.9711348348001
 20
292.6182811854591
 30
0.0
 10
431.9244207123031
 20
292.5843714662097
 30
0.0
 10
431.8767890782788
 20
292.5527286634076
 30
0.0
 10
431.7802520981441
 20
292.4923266127806
 30
0.0
 10
431.7142067099328
 20
292.4558871928498
 30
0.0
 10
431.6122432848966
 20
292.4067398048913
 30
0.0
 10
431.5777704698553
 20
292.3912800814991
 30
0.0
 10
431.5077561299514
 20
292.3622182543502
 30
0.0
 10
431.4721866907811
 20
292.3486061178203
 30
0.0
 10
431.3638513484998
 20
292.3106921374966
 30
0.0
 10
431.290477453257
 20
292.2896425820923
 30
0.0
 10
431.1408361948231
 20
292.2561734732706
 30
0.0
 10
431.0645619308838
 20
292.2437532594267
 30
0.0
 10
430.9669632797537
 20
292.2341299226032
 30
0.0
 10
430.9473214928673
 20
292.232503326635
 30
0.0
 10
430.9082273673037
 20
292.2298825349018
 30
0.0
 10
430.8887233696652
 20
292.2288825922806
 30
0.0
 10
430.8303390930764
 20
292.2267998381807
 30
0.0
 10
430.7915870591878
 20
292.2266335461602
 30
0.0
 10
430.675810553603
 20
292.2297047694275
 30
0.0
 10
430.5992688682013
 20
292.2364990035074
 30
0.0
 10
430.5232089689952
 20
292.2479132400123
 30
0.0
  0
SPLINE
  5
18F
330
1F
100
AcDbEntity
  8
1
100
AcDbSpline
210
0.0
220
0.0
230
1.0
 70
     8
 71
     3
 72
    14
 73
    10
 74
     0
 42
0.000000001
 43
0.0000000001
 40
0.0
 40
0.0
 40
0.0
 40
0.0
 40
0.1250000000000115
 40
0.1250000000000115
 40
0.250000000000023
 40
0.250000000000023
 40
0.5000000000000152
 40
0.5000000000000152
 40
1.0
 40
1.0
 40
1.0
 40
1.0
 10
426.0668575572273
 20
292.640769789428
 30
0.0
 10
425.9684852022152
 20
292.6721196250224
 30
0.0
 10
425.8704745051471
 20
292.7046643056169
 30
0.0
 10
425.6751789070949
 20
292.7721478840867
 30
0.0
 10
425.5778266552312
 20
292.8071124345976
 30
0.0
 10
425.2874446910428
 20
292.9153908198981
 30
0.0
 10
425.0961243872804
 20
292.9920645454777
 30
0.0
 10
424.5289073822215
 20
293.2353743343241
 30
0.0
 10
424.1597377472996
 20
293.4152717961808
 30
0.0
 10
423.7995894814439
 20
293.6127382996663
 30
0.0
  0
SPLINE
  5
190
330
1F
100
AcDbEntity
  8
1
100
AcDbSpline
210
0.0
220
0.0
230
1.0
 70
     8
 71
     3
 72
    28
 73
    24
 74
     0
 42
0.000000001
 43
0.0000000001
 40
0.0
 40
0.0
 40
0.0
 40
0.0
 40
0.1250000000000299
 40
0.1250000000000299
 40
0.2500000000000598
 40
0.2500000000000598
 40
0.2812500000000648
 40
0.2812500000000648
 40
0.3125000000000694
 40
0.3750000000000682
 40
0.3750000000000682
 40
0.5000000000000546
 40
0.5000000000000546
 40
0.5312500000000511
 40
0.5312500000000511
 40
0.5625000000000478
 40
0.5625000000000478
 40
0.6250000000000409
 40
0.6250000000000409
 40
0.7500000000000272
 40
0.8750000000000135
 40
0.8750000000000135
 40
1.0
 40
1.0
 40
1.0
 40
1.0
 10
423.8112676801371
 20
291.1287838940934
 30
0.0
 10
424.064284605035
 20
290.9720421890357
 30
0.0
 10
424.3226858000148
 20
290.8252501843668
 30
0.0
 10
424.8501024876868
 20
290.5515415352576
 30
0.0
 10
425.1191176269641
 20
290.4246238973898
 30
0.0
 10
425.4620204890148
 20
290.2785429975241
 30
0.0
 10
425.5309708454088
 20
290.2499408083802
 30
0.0
 10
425.6693248719972
 20
290.1940856794731
 30
0.0
 10
425.8775114819878
 20
290.1123339036173
 30
0.0
 10
426.0876531726508
 20
290.036647406267
 30
0.0
 10
426.5105227860038
 20
289.8933185172795
 30
0.0
 10
426.7958803903579
 20
289.8084802970989
 30
0.0
 10
427.1568709182758
 20
289.7158468086428
 30
0.0
 10
427.2292839962923
 20
289.697991694943
 30
0.0
 10
427.3745409962874
 20
289.6636287070485
 30
0.0
 10
427.4473989371205
 20
289.6471189474569
 30
0.0
 10
427.6660117728375
 20
289.5997439751383
 30
0.0
 10
427.8120043197191
 20
289.5709834506817
 30
0.0
 10
428.2507231530059
 20
289.4930559833563
 30
0.0
 10
428.8376557981924
 20
289.4114051731775
 30
0.0
 10
429.4284790905622
 20
289.3736619165846
 30
0.0
 10
430.0212558526767
 20
289.3579769241468
 30
0.0
 10
430.3186208711986
 20
289.3611624773775
 30
0.0
 10
430.6169858072765
 20
289.3756378411292
 30
0.0
  0
SPLINE
  5
191
330
1F
100
AcDbEntity
  8
1
100
AcDbSpline
210
0.0
220
0.0
230
1.0
 70
     8
 71
     3
 72
    79
 73
    75
 74
     0
 42
0.000000001
 43
0.0000000001
 40
0.0
 40
0.0
 40
0.0
 40
0.0
 40
0.0625000000000011
 40
0.0625000000000011
 40
0.1250000000000022
 40
0.1250000000000022
 40
0.1875000000000035
 40
0.1875000000000035
 40
0.2187500000000063
 40
0.2187500000000063
 40
0.2500000000000091
 40
0.2500000000000091
 40
0.2812500000000119
 40
0.2812500000000119
 40
0.3125000000000148
 40
0.3125000000000148
 40
0.3437500000000176
 40
0.3437500000000176
 40
0.3593750000000209
 40
0.3593750000000209
 40
0.3750000000000242
 40
0.3750000000000242
 40
0.4062500000000274
 40
0.4062500000000274
 40
0.4375000000000304
 40
0.4375000000000304
 40
0.4531250000000306
 40
0.4531250000000306
 40
0.4609375000000306
 40
0.4609375000000306
 40
0.4687500000000309
 40
0.4687500000000309
 40
0.5000000000000293
 40
0.5000000000000293
 40
0.5156250000000281
 40
0.5156250000000281
 40
0.5234375000000277
 40
0.5234375000000277
 40
0.5312500000000275
 40
0.5312500000000275
 40
0.5625000000000268
 40
0.5625000000000268
 40
0.5781250000000265
 40
0.5781250000000265
 40
0.5859375000000253
 40
0.5859375000000253
 40
0.5937500000000239
 40
0.5937500000000239
 40
0.6250000000000198
 40
0.6250000000000198
 40
0.6562500000000156
 40
0.6562500000000156
 40
0.6640625000000176
 40
0.6640625000000176
 40
0.6718750000000195
 40
0.6875000000000191
 40
0.6875000000000191
 40
0.7187500000000182
 40
0.7187500000000182
 40
0.7500000000000174
 40
0.7500000000000174
 40
0.7812500000000166
 40
0.7812500000000166
 40
0.796875000000016
 40
0.796875000000016
 40
0.8125000000000156
 40
0.8125000000000156
 40
0.8750000000000087
 40
0.8750000000000087
 40
0.9062500000000078
 40
0.9062500000000078
 40
0.9375000000000067
 40
0.9375000000000067
 40
1.0
 40
1.0
 40
1.0
 40
1.0
 10
423.7995894814437
 20
293.6127382996663
 30
0.0
 10
423.9801374516686
 20
293.4774203077647
 30
0.0
 10
424.1598229426434
 20
293.3476465286953
 30
0.0
 10
424.5166759769333
 20
293.0982677690545
 30
0.0
 10
424.6938495338494
 20
292.9786655138048
 30
0.0
 10
425.04448250587
 20
292.7488201855489
 30
0.0
 10
425.2179536070943
 20
292.6385799782408
 30
0.0
 10
425.4739818783892
 20
292.479648458259
 30
0.0
 10
425.5585999190008
 20
292.4277455163727
 30
0.0
 10
425.7261940661607
 20
292.3259650433818
 30
0.0
 10
425.809230136638
 20
292.2760800975846
 30
0.0
 10
425.9734809579648
 20
292.178209130918
 30
0.0
 10
426.0546970899296
 20
292.1302232575836
 30
0.0
 10
426.2149088697965
 20
292.0360320198857
 30
0.0
 10
426.2939067749345
 20
291.9898268746863
 30
0.0
 10
426.4491284333156
 20
291.8990663366267
 30
0.0
 10
426.5253560234751
 20
291.8545112817475
 30
0.0
 10
426.6370195706005
 20
291.7888025790044
 30
0.0
 10
426.6737922106423
 20
291.767086800333
 30
0.0
 10
426.7463052616686
 20
291.724007582645
 30
0.0
 10
426.782029480874
 20
291.7026532778479
 30
0.0
 10
426.8868394724113
 20
291.6394273755251
 30
0.0
 10
426.9537698871192
 20
291.5982826576636
 30
0.0
 10
427.079979796517
 20
291.5178752133899
 30
0.0
 10
427.1392728356308
 20
291.4786117250683
 30
0.0
 10
427.2205162963031
 20
291.4210464580188
 30
0.0
 10
427.2463068247428
 20
291.4020799212947
 30
0.0
 10
427.282717574502
 20
291.3739566530777
 30
0.0
 10
427.2944883966651
 20
291.3646252613085
 30
0.0
 10
427.3171323062522
 20
291.3461295853302
 30
0.0
 10
427.327996665426
 20
291.3369731232298
 30
0.0
 10
427.3798874123577
 20
291.2916521387691
 30
0.0
 10
427.4136562685778
 20
291.2568623613648
 30
0.0
 10
427.4495175751288
 20
291.2070628547099
 30
0.0
 10
427.4589986938958
 20
291.1908623252934
 30
0.0
 10
427.4690546321636
 20
291.1672044784733
 30
0.0
 10
427.4717119417673
 20
291.1594258595445
 30
0.0
 10
427.4755571153157
 20
291.1440929295743
 30
0.0
 10
427.4767306579746
 20
291.1365890733285
 30
0.0
 10
427.4788153171241
 20
291.0999928411724
 30
0.0
 10
427.4684306370871
 20
291.0735327704183
 30
0.0
 10
427.4348906782741
 20
291.0381966474561
 30
0.0
 10
427.4206424345093
 20
291.0271647993631
 30
0.0
 10
427.3947819534338
 20
291.0117610776723
 30
0.0
 10
427.3854143682853
 20
291.006817243192
 30
0.0
 10
427.3652098436395
 20
290.9973157894329
 30
0.0
 10
427.3543471568406
 20
290.9927504356741
 30
0.0
 10
427.2970616992919
 20
290.9711196868143
 30
0.0
 10
427.2414698455405
 20
290.9574401206483
 30
0.0
 10
427.1155286527712
 20
290.9364235360086
 30
0.0
 10
427.0451672569893
 20
290.9290923708182
 30
0.0
 10
426.950134171311
 20
290.9235788298726
 30
0.0
 10
426.9307462585451
 20
290.9226585737538
 30
0.0
 10
426.8914329657861
 20
290.9211837760438
 30
0.0
 10
426.8316857017433
 20
290.9195197302221
 30
0.0
 10
426.7698063301511
 20
290.9194414373291
 30
0.0
 10
426.6436375119033
 20
290.9212786942977
 30
0.0
 10
426.5563313758528
 20
290.9251551395048
 30
0.0
 10
426.3770009200476
 20
290.9377938679547
 30
0.0
 10
426.2849673572086
 20
290.9465594673346
 30
0.0
 10
426.0972923212194
 20
290.9687517525135
 30
0.0
 10
426.0016457281126
 20
290.9821801817606
 30
0.0
 10
425.8560611416698
 20
291.0057319291362
 30
0.0
 10
425.8071784067483
 20
291.014151405822
 30
0.0
 10
425.7087826839073
 20
291.0321204628679
 30
0.0
 10
425.6593055779502
 20
291.0416643747799
 30
0.0
 10
425.4113462452203
 20
291.0920144298436
 30
0.0
 10
425.2105911299905
 20
291.1407923129457
 30
0.0
 10
424.9079631083678
 20
291.2262325209597
 30
0.0
 10
424.8068256525242
 20
291.256764007843
 30
0.0
 10
424.6042646596071
 20
291.3219079428753
 30
0.0
 10
424.5028518970456
 20
291.3565117162205
 30
0.0
 10
424.1987074004943
 20
291.466231586618
 30
0.0
 10
423.9960091947883
 20
291.5473053697614
 30
0.0
 10
423.7938977450396
 20
291.6364679180619
 30
0.0
  0
SPLINE
  5
192
330
1F
100
AcDbEntity
  8
1
100
AcDbSpline
210
0.0
220
0.0
230
1.0
 70
     8
 71
     3
 72
    20
 73
    16
 74
     0
 42
0.000000001
 43
0.0000000001
 40
0.0
 40
0.0
 40
0.0
 40
0.0
 40
0.1250000000000057
 40
0.1250000000000057
 40
0.2500000000000115
 40
0.2500000000000115
 40
0.5000000000000231
 40
0.5000000000000231
 40
0.7500000000000348
 40
0.7500000000000348
 40
0.8750000000000405
 40
0.8750000000000405
 40
0.9375000000000204
 40
0.9375000000000204
 40
1.0
 40
1.0
 40
1.0
 40
1.0
 10
430.5130240530094
 20
292.2494693917304
 30
0.0
 10
430.4577581534133
 20
292.2580639068011
 30
0.0
 10
430.4035552629229
 20
292.2689484276374
 30
0.0
 10
430.2968807747669
 20
292.29502818828
 30
0.0
 10
430.2444101767156
 20
292.3102248395693
 30
0.0
 10
430.0891767469162
 20
292.3621533069119
 30
0.0
 10
429.988561835698
 20
292.4051512677318
 30
0.0
 10
429.7917668192185
 20
292.5090289011169
 30
0.0
 10
429.6981337301004
 20
292.5685852235787
 30
0.0
 10
429.5641834167076
 20
292.6696725034326
 30
0.0
 10
429.5206248767061
 20
292.7053406817866
 30
0.0
 10
429.4569053533026
 20
292.7619920846063
 30
0.0
 10
429.4358935007003
 20
292.7814442737684
 30
0.0
 10
429.394714176928
 20
292.8211501488985
 30
0.0
 10
429.3745279559653
 20
292.8414171088625
 30
0.0
 10
429.3547442471373
 20
292.8620978454663
 30
0.0
  0
SPLINE
  5
193
330
1F
100
AcDbEntity
  8
1
100
AcDbSpline
210
0.0
220
0.0
230
1.0
 70
     8
 71
     3
 72
     8
 73
     4
 74
     0
 42
0.000000001
 43
0.0000000001
 40
0.0
 40
0.0
 40
0.0
 40
0.0
 40
1.0
 40
1.0
 40
1.0
 40
1.0
 10
427.2678941221761
 20
299.1258988123492
 30
0.0
 10
426.5034450536371
 20
300.1412369454488
 30
0.0
 10
425.8146274667134
 20
301.2055768263992
 30
0.0
 10
425.1896186365558
 20
302.3112584944271
 30
0.0
  0
SPLINE
  5
194
330
1F
100
AcDbEntity
  8
1
100
AcDbSpline
210
0.0
220
0.0
230
1.0
 70
     8
 71
     3
 72
    48
 73
    44
 74
     0
 42
0.000000001
 43
0.0000000001
 40
0.0
 40
0.0
 40
0.0
 40
0.0
 40
0.0494584300173246
 40
0.0494584300173246
 40
0.0989168600346493
 40
0.0989168600346493
 40
0.1236460750433116
 40
0.1236460750433116
 40
0.1483752900519739
 40
0.1483752900519739
 40
0.1978337200692996
 40
0.1978337200692996
 40
0.2472921500866253
 40
0.2472921500866253
 40
0.2967505801039511
 40
0.2967505801039511
 40
0.3462090101212768
 40
0.3462090101212768
 40
0.3956674401386024
 40
0.3956674401386024
 40
0.4451258701559281
 40
0.4451258701559281
 40
0.4945843001732538
 40
0.4945843001732538
 40
0.5935011602079053
 40
0.5935011602079053
 40
0.6924180202425568
 40
0.6924180202425568
 40
0.7418764502598824
 40
0.7418764502598824
 40
0.7666056652685453
 40
0.7666056652685453
 40
0.7913348802772081
 40
0.7913348802772081
 40
0.8407933102945337
 40
0.8407933102945337
 40
0.8902517403118594
 40
0.8902517403118594
 40
0.9397101703291852
 40
0.9397101703291852
 40
0.9891686003465107
 40
0.9891686003465107
 40
1.0
 40
1.0
 40
1.0
 40
1.0
 10
425.1896186365558
 20
302.3112584944271
 30
0.0
 10
423.8921888046081
 20
302.339897226729
 30
0.0
 10
422.5928745381853
 20
302.3608885236479
 30
0.0
 10
419.9902044467031
 20
302.3908373555658
 30
0.0
 10
418.6868498987923
 20
302.3998097286882
 30
0.0
 10
416.7288390452297
 20
302.4066005627958
 30
0.0
 10
416.0756292722772
 20
302.4077502862062
 30
0.0
 10
414.7684764376703
 20
302.4081671614042
 30
0.0
 10
414.1145922767676
 20
302.4074346937899
 30
0.0
 10
412.1520642890994
 20
302.4028762035916
 30
0.0
 10
410.8425403837087
 20
302.3967137012356
 30
0.0
 10
408.2215266405483
 20
302.3800456015862
 30
0.0
 10
406.9100381273933
 20
302.3695404172353
 30
0.0
 10
404.285606032239
 20
302.3453055633738
 30
0.0
 10
402.9726636439468
 20
302.3315746169635
 30
0.0
 10
400.345926756781
 20
302.3012338393519
 30
0.0
 10
399.032220780112
 20
302.2846237858806
 30
0.0
 10
396.4046949753074
 20
302.2481435940158
 30
0.0
 10
395.0908945246297
 20
302.2282183575308
 30
0.0
 10
392.4633273216685
 20
302.1848395045108
 30
0.0
 10
391.1495583764465
 20
302.1613885933859
 30
0.0
 10
388.5221327106158
 20
302.1107374616525
 30
0.0
 10
387.2084634428638
 20
302.0835358598219
 30
0.0
 10
383.2678462534955
 20
301.9958793144133
 30
0.0
 10
380.6412881722648
 20
301.929379220248
 30
0.0
 10
375.3895680284917
 20
301.777660449286
 30
0.0
 10
372.7643905760087
 20
301.6924820164573
 30
0.0
 10
368.8278683927732
 20
301.548256254705
 30
0.0
 10
367.5159025144461
 20
301.4974302687314
 30
0.0
 10
365.5483269110732
 20
301.4165566296347
 30
0.0
 10
364.8925312413268
 20
301.3888231513377
 30
0.0
 10
363.5810797364357
 20
301.331692944839
 30
0.0
 10
362.9254224087629
 20
301.3023010365125
 30
0.0
 10
360.9586372655353
 20
301.2116194668174
 30
0.0
 10
359.6476717163422
 20
301.1478159391022
 30
0.0
 10
357.0262523631188
 20
301.0134764719553
 30
0.0
 10
355.7158490598285
 20
300.9429367443826
 30
0.0
 10
353.0954968849404
 20
300.7953701192686
 30
0.0
 10
351.7855485623351
 20
300.7183378294221
 30
0.0
 10
349.165871514897
 20
300.5584996412758
 30
0.0
 10
347.8561303264303
 20
300.4757448593912
 30
0.0
 10
346.2595344749951
 20
300.3719762355847
 30
0.0
 10
345.9726970849843
 20
300.3532168220878
 30
0.0
 10
345.6858590558107
 20
300.3343431463254
 30
0.0
  0
SPLINE
  5
195
330
1F
100
AcDbEntity
  8
1
100
AcDbSpline
210
0.0
220
0.0
230
1.0
 70
    28
 71
     4
 72
    10
 73
     5
 74
     0
 42
0.000000001
 43
0.0000000001
 40
0.0
 40
0.0
 40
0.0
 40
0.0
 40
0.0
 40
1.0
 40
1.0
 40
1.0
 40
1.0
 40
1.0
 10
297.9048419452956
 20
282.0392353807553
 30
0.0
 41
1.001075394477956
 10
297.9048419452959
 20
280.455627295187
 30
0.0
 41
0.9989723561445464
 10
297.9048419452959
 20
278.6110818848112
 30
0.0
 41
0.9914353371755307
 10
297.9048419452957
 20
276.9381290124242
 30
0.0
 41
1.001498006703475
 10
297.9048419452959
 20
275.7097093807691
 30
0.0
 41
1.001498006703475
  0
SPLINE
  5
196
330
1F
100
AcDbEntity
  8
1
100
AcDbSpline
210
0.0
220
0.0
230
1.0
 70
     8
 71
     3
 72
    66
 73
    62
 74
     0
 42
0.000000001
 43
0.0000000001
 40
0.0
 40
0.0
 40
0.0
 40
0.0
 40
0.0312499999999997
 40
0.0624999999999994
 40
0.0937499999999991
 40
0.1249999999999988
 40
0.1249999999999988
 40
0.1874999999999983
 40
0.1874999999999983
 40
0.2499999999999977
 40
0.2499999999999977
 40
0.2812499999999974
 40
0.2812499999999974
 40
0.3124999999999971
 40
0.3124999999999971
 40
0.3437499999999968
 40
0.3437499999999968
 40
0.3749999999999965
 40
0.3749999999999965
 40
0.3906249999999965
 40
0.3906249999999965
 40
0.4062499999999967
 40
0.4062499999999967
 40
0.4218749999999967
 40
0.4218749999999967
 40
0.4374999999999967
 40
0.4374999999999967
 40
0.4687499999999967
 40
0.4687499999999967
 40
0.4999999999999968
 40
0.4999999999999968
 40
0.5312499999999967
 40
0.5312499999999967
 40
0.5624999999999968
 40
0.5624999999999968
 40
0.5781249999999968
 40
0.5781249999999968
 40
0.5937499999999969
 40
0.5937499999999969
 40
0.6249999999999969
 40
0.6249999999999969
 40
0.6562499999999972
 40
0.6562499999999972
 40
0.687499999999997
 40
0.687499999999997
 40
0.7499999999999976
 40
0.7499999999999976
 40
0.812499999999998
 40
0.812499999999998
 40
0.8437499999999984
 40
0.8437499999999984
 40
0.8593749999999985
 40
0.8593749999999985
 40
0.8749999999999989
 40
0.8749999999999989
 40
0.9062499999999992
 40
0.9062499999999992
 40
0.9374999999999994
 40
0.9374999999999994
 40
0.9687499999999998
 40
1.0
 40
1.0
 40
1.0
 40
1.0
 10
299.4957801673905
 20
281.6528586757797
 30
0.0
 10
300.6720940067678
 20
281.5365679946923
 30
0.0
 10
303.0253837399596
 20
281.3115349041874
 30
0.0
 10
306.5570189128144
 20
280.9935493924742
 30
0.0
 10
310.0900101409088
 20
280.6918505760822
 30
0.0
 10
312.4459773507595
 20
280.4993057122591
 30
0.0
 10
315.9801878557643
 20
280.2152016186793
 30
0.0
 10
318.3365541573248
 20
280.0320718706355
 30
0.0
 10
323.0483484424832
 20
279.6693520713075
 30
0.0
 10
325.4037734652198
 20
279.489720778717
 30
0.0
 10
328.9350567710589
 20
279.2170000220019
 30
0.0
 10
330.1118413944808
 20
279.1255603360653
 30
0.0
 10
332.4645992696279
 20
278.9408642270795
 30
0.0
 10
333.6405722223883
 20
278.8476055811189
 30
0.0
 10
335.9915236610688
 20
278.6587444556217
 30
0.0
 10
337.1665017657964
 20
278.5631394967546
 30
0.0
 10
339.5152996811543
 20
278.3693574551199
 30
0.0
 10
340.6891190217605
 20
278.271177818925
 30
0.0
 10
342.4488804564792
 20
278.1220894105344
 30
0.0
 10
343.0353066335737
 20
278.0720932921626
 30
0.0
 10
344.2078249165636
 20
277.97156121984
 30
0.0
 10
344.7939423187197
 20
277.9210229898534
 30
0.0
 10
345.965585779731
 20
277.819518451358
 30
0.0
 10
346.5511354282908
 20
277.7685500978492
 30
0.0
 10
347.7216755387
 20
277.6663045309042
 30
0.0
 10
348.3066581933635
 20
277.6150005872653
 30
0.0
 10
350.0608167837788
 20
277.4610778747498
 30
0.0
 10
351.2292522109997
 20
277.3586567355181
 30
0.0
 10
353.5652026101031
 20
277.1588205570382
 30
0.0
 10
354.7327187396231
 20
277.0614043250297
 30
0.0
 10
357.067772124543
 20
276.8747480942327
 30
0.0
 10
358.235309505424
 20
276.7855010080004
 30
0.0
 10
360.5711770292962
 20
276.6170228076179
 30
0.0
 10
361.7395057802005
 20
276.5377806300993
 30
0.0
 10
363.4930576886459
 20
276.4270217915276
 30
0.0
 10
364.0777509217377
 20
276.3914470446668
 30
0.0
 10
365.2475546538848
 20
276.3230118383169
 30
0.0
 10
365.8326605106533
 20
276.2901387850724
 30
0.0
 10
367.5885561349981
 20
276.1952783598102
 30
0.0
 10
368.7599208600552
 20
276.1370392115658
 30
0.0
 10
371.1040907785382
 20
276.0294279878412
 30
0.0
 10
372.2768971291778
 20
275.9800618459226
 30
0.0
 10
374.6239428040237
 20
275.889341279247
 30
0.0
 10
375.7982595558067
 20
275.8479887946032
 30
0.0
 10
379.3222199260217
 20
275.7348773456168
 30
0.0
 10
381.6732103496087
 20
275.6740617870945
 30
0.0
 10
386.3791300678229
 20
275.575793394706
 30
0.0
 10
388.7340681028546
 20
275.5383390642869
 30
0.0
 10
392.2697819106716
 20
275.4951319846418
 30
0.0
 10
393.4489024541063
 20
275.4828904184204
 30
0.0
 10
395.2184322216273
 20
275.4672101721392
 30
0.0
 10
395.8084168468852
 20
275.4624306371771
 30
0.0
 10
396.988671738053
 20
275.4536761636955
 30
0.0
 10
397.5789450022718
 20
275.449703215441
 30
0.0
 10
399.3501651714996
 20
275.4388393737363
 30
0.0
 10
400.5315040408899
 20
275.4329876882406
 30
0.0
 10
402.8949221170548
 20
275.4233606339197
 30
0.0
 10
404.0769684737187
 20
275.419587131354
 30
0.0
 10
406.4413045826468
 20
275.4136791073983
 30
0.0
 10
408.8059445589707
 20
275.4094116687518
 30
0.0
 10
411.1707465976161
 20
275.4079935137005
 30
0.0
 10
412.3530756125528
 20
275.4079935137005
 30
0.0
  0
SPLINE
  5
197
330
1F
100
AcDbEntity
  8
1
100
AcDbSpline
210
0.0
220
0.0
230
1.0
 70
     8
 71
     3
 72
    52
 73
    48
 74
     0
 42
0.000000001
 43
0.0000000001
 40
0.0
 40
0.0
 40
0.0
 40
0.0
 40
0.0624999999999997
 40
0.0624999999999997
 40
0.1249999999999994
 40
0.1249999999999994
 40
0.1874999999999992
 40
0.1874999999999992
 40
0.2499999999999989
 40
0.2499999999999989
 40
0.3124999999999986
 40
0.3124999999999986
 40
0.3749999999999983
 40
0.3749999999999983
 40
0.4062499999999984
 40
0.4062499999999984
 40
0.4374999999999984
 40
0.4374999999999984
 40
0.4687499999999984
 40
0.4687499999999984
 40
0.4999999999999984
 40
0.4999999999999984
 40
0.5312499999999986
 40
0.5312499999999986
 40
0.5624999999999986
 40
0.5624999999999986
 40
0.5937499999999987
 40
0.5937499999999987
 40
0.6249999999999988
 40
0.6249999999999988
 40
0.6874999999999988
 40
0.6874999999999988
 40
0.749999999999999
 40
0.749999999999999
 40
0.8124999999999989
 40
0.8124999999999989
 40
0.8437499999999991
 40
0.8437499999999991
 40
0.8749999999999992
 40
0.8749999999999992
 40
0.9062499999999996
 40
0.9062499999999996
 40
0.9374999999999996
 40
0.9374999999999996
 40
0.96875
 40
0.96875
 40
1.0
 40
1.0
 40
1.0
 40
1.0
 10
297.9048419452959
 20
302.2373824147682
 30
0.0
 10
300.4587961797304
 20
302.1979978372059
 30
0.0
 10
303.0117805478389
 20
302.1503931273646
 30
0.0
 10
308.1160016017147
 20
302.0361333970866
 30
0.0
 10
310.6673200191383
 20
301.9694607752906
 30
0.0
 10
315.7680508085172
 20
301.8150038737162
 30
0.0
 10
318.3174659049772
 20
301.7272058457181
 30
0.0
 10
323.4149077504939
 20
301.5294481377461
 30
0.0
 10
325.9629360605521
 20
301.4194788480322
 30
0.0
 10
331.0582710696307
 20
301.1777205998571
 30
0.0
 10
333.605591667349
 20
301.0459300871055
 30
0.0
 10
338.7002228322894
 20
300.762438676642
 30
0.0
 10
341.2472795406083
 20
300.6107619446125
 30
0.0
 10
345.0680695478784
 20
300.3708523261437
 30
0.0
 10
346.3417004187471
 20
300.2888269130443
 30
0.0
 10
348.8891258070836
 20
300.1211818135788
 30
0.0
 10
350.1629315328569
 20
300.0356219719269
 30
0.0
 10
352.710600297887
 20
299.8605079386124
 30
0.0
 10
353.9844609709924
 20
299.7709404783454
 30
0.0
 10
356.532155004445
 20
299.5873830594396
 30
0.0
 10
357.8059886214948
 20
299.4933920853318
 30
0.0
 10
360.3536091304361
 20
299.3008236803878
 30
0.0
 10
361.6274136311226
 20
299.2022461402898
 30
0.0
 10
364.174884460007
 20
299.0005923725797
 30
0.0
 10
365.4485520651695
 20
298.8974843137694
 30
0.0
 10
367.9958583931601
 20
298.6872557807433
 30
0.0
 10
369.2695028652905
 20
298.5801680599735
 30
0.0
 10
371.8168709132624
 20
298.3626151871748
 30
0.0
 10
373.0905992217785
 20
298.2521480493915
 30
0.0
 10
376.9119504734906
 20
297.916244297314
 30
0.0
 10
379.4596506031888
 20
297.68636793755
 30
0.0
 10
384.5554635042378
 20
297.2160877195279
 30
0.0
 10
387.1036168005147
 20
296.9756749870273
 30
0.0
 10
392.1999442973664
 20
296.4839731261221
 30
0.0
 10
394.7481324860927
 20
296.2327034539043
 30
0.0
 10
398.5702117489568
 20
295.8458994534504
 30
0.0
 10
399.8442063332041
 20
295.715238470078
 30
0.0
 10
402.3917921866982
 20
295.4487990015562
 30
0.0
 10
403.6653892493497
 20
295.3130107734484
 30
0.0
 10
406.2120937809843
 20
295.0354407199263
 30
0.0
 10
407.4851997365573
 20
294.89364455637
 30
0.0
 10
410.0309881866332
 20
294.6043485963786
 30
0.0
 10
411.3036770052162
 20
294.4568314831525
 30
0.0
 10
413.8488763411336
 20
294.158026918442
 30
0.0
 10
415.1213643929293
 20
294.006725592648
 30
0.0
 10
417.6666750336138
 20
293.7044189394557
 30
0.0
 10
418.939495075724
 20
293.5533896145496
 30
0.0
 10
420.2129232008323
 20
293.4058845105143
 30
0.0
  0
SPLINE
  5
198
330
1F
100
AcDbEntity
  8
1
100
AcDbSpline
210
0.0
220
0.0
230
1.0
 70
     8
 71
     3
 72
    65
 73
    61
 74
     0
 42
0.000000001
 43
0.0000000001
 40
0.0
 40
0.0
 40
0.0
 40
0.0
 40
0.1250000000000262
 40
0.1250000000000262
 40
0.1875000000000335
 40
0.1875000000000335
 40
0.2500000000000409
 40
0.2500000000000409
 40
0.3750000000000667
 40
0.3750000000000667
 40
0.4375000000000798
 40
0.4375000000000798
 40
0.5000000000000926
 40
0.5000000000000926
 40
0.5312500000000992
 40
0.5312500000000992
 40
0.5625000000001057
 40
0.5625000000001057
 40
0.6250000000001189
 40
0.6250000000001189
 40
0.640625000000115
 40
0.640625000000115
 40
0.6562500000001114
 40
0.6562500000001114
 40
0.6875000000001035
 40
0.6875000000001035
 40
0.7187500000000956
 40
0.7187500000000956
 40
0.7500000000000878
 40
0.7500000000000878
 40
0.7656250000000837
 40
0.7656250000000837
 40
0.7734375000000822
 40
0.7734375000000822
 40
0.7812500000000804
 40
0.7812500000000804
 40
0.8125000000000619
 40
0.8125000000000619
 40
0.828125000000055
 40
0.828125000000055
 40
0.83593750000005
 40
0.83593750000005
 40
0.8437500000000451
 40
0.8437500000000451
 40
0.8750000000000321
 40
0.8750000000000321
 40
0.8906250000000257
 40
0.8984375000000229
 40
0.8984375000000229
 40
0.9062500000000202
 40
0.9062500000000202
 40
0.937500000000012
 40
0.937500000000012
 40
0.9531250000000085
 40
0.9531250000000085
 40
0.9609375000000037
 40
0.9609375000000037
 40
0.9687499999999992
 40
0.9687499999999992
 40
1.0
 40
1.0
 40
1.0
 40
1.0
 10
422.8664485604351
 20
295.1429789170992
 30
0.0
 10
423.1396670421928
 20
295.2219057958533
 30
0.0
 10
423.4114661313775
 20
295.3059675875203
 30
0.0
 10
423.8165308369688
 20
295.4415889932263
 30
0.0
 10
423.9510095272623
 20
295.4883589958006
 30
0.0
 10
424.2183240555591
 20
295.5852456436863
 30
0.0
 10
424.3512202088248
 20
295.6353812230278
 30
0.0
 10
424.7473290807408
 20
295.7915234217031
 30
0.0
 10
425.0080045188046
 20
295.9031714355674
 30
0.0
 10
425.3921732067764
 20
296.0858614621628
 30
0.0
 10
425.5190802373986
 20
296.1493132682958
 30
0.0
 10
425.7701346495606
 20
296.2823526896332
 30
0.0
 10
425.8942859296936
 20
296.351931636698
 30
0.0
 10
426.0779431986561
 20
296.4620134247923
 30
0.0
 10
426.1387273825364
 20
296.4996649394826
 30
0.0
 10
426.2588202409229
 20
296.5768053062205
 30
0.0
 10
426.3181888648341
 20
296.6163286337669
 30
0.0
 10
426.4939989571634
 20
296.7381269901436
 30
0.0
 10
426.6081811773909
 20
296.8235790217435
 30
0.0
 10
426.7458413877224
 20
296.9375201786641
 30
0.0
 10
426.7730844764703
 20
296.9606429230315
 30
0.0
 10
426.8268032565264
 20
297.0074810422673
 30
0.0
 10
426.853300222384
 20
297.0312138490406
 30
0.0
 10
426.9316228930899
 20
297.1034235922415
 30
0.0
 10
426.9822856223403
 20
297.1529073055768
 30
0.0
 10
427.0799681839031
 20
297.2550283534597
 30
0.0
 10
427.1269911135116
 20
297.3076630067072
 30
0.0
 10
427.2166562573963
 20
297.4167246567765
 30
0.0
 10
427.2593042511418
 20
297.473146650367
 30
0.0
 10
427.3191900220392
 20
297.5613170422785
 30
0.0
 10
427.3384678429309
 20
297.5912993941482
 30
0.0
 10
427.3662198399493
 20
297.6372812213685
 30
0.0
 10
427.3752760700289
 20
297.6527768181514
 30
0.0
 10
427.3929721623522
 20
297.6841284573904
 30
0.0
 10
427.4016239695321
 20
297.7000088520936
 30
0.0
 10
427.443478635658
 20
297.7798180789619
 30
0.0
 10
427.4726796426778
 20
297.84527330289
 30
0.0
 10
427.5088481484328
 20
297.9463217597236
 30
0.0
 10
427.5196282045438
 20
297.9804836632144
 30
0.0
 10
427.5336879880072
 20
298.0325187781265
 30
0.0
 10
427.5380225011669
 20
298.0499959965688
 30
0.0
 10
427.545949733365
 20
298.0852289215235
 30
0.0
 10
427.5495441793081
 20
298.103006133802
 30
0.0
 10
427.5654177034613
 20
298.1917224586826
 30
0.0
 10
427.5715719502255
 20
298.2628122641089
 30
0.0
 10
427.5705869624915
 20
298.3696292170046
 30
0.0
 10
427.5675387611827
 20
298.4230832835039
 30
0.0
 10
427.5605670775203
 20
298.4766073391414
 30
0.0
 10
427.5550363394373
 20
298.5123057934073
 30
0.0
 10
427.5518221872969
 20
298.5301868669033
 30
0.0
 10
427.5337409421898
 20
298.6186505833871
 30
0.0
 10
427.5127661699706
 20
298.6871700304001
 30
0.0
 10
427.4728209996246
 20
298.7870151947105
 30
0.0
 10
427.4580883857111
 20
298.819806627861
 30
0.0
 10
427.4339948785978
 20
298.8683039131365
 30
0.0
 10
427.4256187674116
 20
298.8843760656451
 30
0.0
 10
427.4083159174131
 20
298.9161286621969
 30
0.0
 10
427.3993834257282
 20
298.9318229686155
 30
0.0
 10
427.3533920330271
 20
299.0094340101936
 30
0.0
 10
427.3123684389354
 20
299.0687835899695
 30
0.0
 10
427.2678941221761
 20
299.1258988123492
 30
0.0
  0
SPLINE
  5
199
330
1F
100
AcDbEntity
  8
1
100
AcDbSpline
210
0.0
220
0.0
230
1.0
 70
    12
 71
     3
 72
     9
 73
     5
 74
     0
 42
0.000000001
 43
0.0000000001
 40
0.0
 40
0.0
 40
0.0
 40
0.0
 40
0.518467055909102
 40
1.0
 40
1.0
 40
1.0
 40
1.0
 10
364.7935154383118
 20
298.955394863745
 30
0.0
 41
1.005393862081894
 10
375.5766979060782
 20
299.2402295534968
 30
0.0
 41
1.005835322215439
 10
396.661093823833
 20
298.4942127845274
 30
0.0
 41
0.9947510357987455
 10
417.1617714741822
 20
298.1331822551484
 30
0.0
 41
1.005097591321382
 10
427.2678941221817
 20
299.1258988123498
 30
0.0
 41
1.002374098970225
  0
SPLINE
  5
19A
330
1F
100
AcDbEntity
  8
1
100
AcDbSpline
210
0.0
220
0.0
230
1.0
 70
     8
 71
     3
 72
    15
 73
    11
 74
     0
 42
0.000000001
 43
0.0000000001
 40
0.0
 40
0.0
 40
0.0
 40
0.0
 40
0.2499999999999996
 40
0.2499999999999996
 40
0.4999999999999994
 40
0.7499999999999992
 40
0.7499999999999992
 40
0.8749999999999996
 40
0.8749999999999996
 40
1.0
 40
1.0
 40
1.0
 40
1.0
 10
286.3194227448757
 20
274.233687226942
 30
0.0
 10
285.9954001598318
 20
274.1119503523381
 30
0.0
 10
285.678900926231
 20
273.9825624545791
 30
0.0
 10
285.0611185394266
 20
273.7093386009292
 30
0.0
 10
284.4585549584184
 20
273.4216643703168
 30
0.0
 10
283.8872745699256
 20
273.1063096277715
 30
0.0
 10
283.4710356018342
 20
272.859712572422
 30
0.0
 10
283.3342287153723
 20
272.7757655459761
 30
0.0
 10
283.0656226217408
 20
272.6050765665664
 30
0.0
 10
282.9337499764589
 20
272.5182955702809
 30
0.0
 10
282.8043368819074
 20
272.4301147065228
 30
0.0
  0
SPLINE
  5
19B
330
1F
100
AcDbEntity
  8
1
100
AcDbSpline
210
0.0
220
0.0
230
1.0
 70
     8
 71
     3
 72
    51
 73
    47
 74
     0
 42
0.000000001
 43
0.0000000001
 40
0.0
 40
0.0
 40
0.0
 40
0.0
 40
0.0625000000000008
 40
0.0625000000000008
 40
0.1250000000000016
 40
0.1250000000000016
 40
0.1875000000000023
 40
0.1875000000000023
 40
0.2187500000000027
 40
0.2187500000000027
 40
0.2343750000000028
 40
0.2343750000000028
 40
0.2500000000000027
 40
0.2500000000000027
 40
0.3125000000000023
 40
0.3750000000000017
 40
0.3750000000000017
 40
0.4375000000000013
 40
0.4375000000000013
 40
0.4531250000000007
 40
0.4531250000000007
 40
0.4687500000000002
 40
0.4999999999999997
 40
0.4999999999999997
 40
0.5624999999999991
 40
0.6249999999999984
 40
0.6249999999999984
 40
0.6406249999999982
 40
0.6406249999999982
 40
0.6562499999999977
 40
0.6562499999999977
 40
0.6874999999999979
 40
0.6874999999999979
 40
0.7499999999999986
 40
0.7499999999999986
 40
0.8124999999999991
 40
0.8124999999999991
 40
0.8437499999999991
 40
0.8437499999999991
 40
0.8593749999999991
 40
0.8593749999999991
 40
0.8749999999999991
 40
0.8749999999999991
 40
0.9374999999999996
 40
0.9374999999999996
 40
1.0
 40
1.0
 40
1.0
 40
1.0
 10
279.4048419452957
 20
276.9503322945673
 30
0.0
 10
279.2534421302171
 20
276.8171298567044
 30
0.0
 10
279.110443446011
 20
276.6804170597351
 30
0.0
 10
278.8408441198714
 20
276.4006732441759
 30
0.0
 10
278.7142441400892
 20
276.2576410524392
 30
0.0
 10
278.4774903840366
 20
275.9657415274485
 30
0.0
 10
278.3673351956917
 20
275.8168739361088
 30
0.0
 10
278.214816650492
 20
275.5894130052903
 30
0.0
 10
278.1660998873024
 20
275.5128979421661
 30
0.0
 10
278.0962932582506
 20
275.3970964269101
 30
0.0
 10
278.0736149134303
 20
275.3583974050404
 30
0.0
 10
278.0295839688285
 20
275.2810677402509
 30
0.0
 10
278.0082076976628
 20
275.2423980453106
 30
0.0
 10
277.9044987618445
 20
275.049042135508
 30
0.0
 10
277.7588247999935
 20
274.7396334307976
 30
0.0
 10
277.6531694158779
 20
274.4308760746097
 30
0.0
 10
277.5678235852774
 20
274.122721659737
 30
0.0
 10
277.5353026705474
 20
273.9689457552219
 30
0.0
 10
277.5079010272437
 20
273.7772272328243
 30
0.0
 10
277.5030861747113
 20
273.7388985246679
 30
0.0
 10
277.4948456560389
 20
273.6627582599564
 30
0.0
 10
277.4845418301086
 20
273.5491485368411
 30
0.0
 10
277.4803415873985
 20
273.437327474512
 30
0.0
 10
277.4799559889377
 20
273.2160394479158
 30
0.0
 10
277.5007792975046
 20
272.9272633225291
 30
0.0
 10
277.5638643157725
 20
272.6507835225944
 30
0.0
 10
277.6167321015833
 20
272.4817739324214
 30
0.0
 10
277.6279790822547
 20
272.4481616267786
 30
0.0
 10
277.6518316085635
 20
272.3813153171961
 30
0.0
 10
277.664447982395
 20
272.348054593203
 30
0.0
 10
277.7042847000881
 20
272.2490154257874
 30
0.0
 10
277.7333525636884
 20
272.1843114126161
 30
0.0
 10
277.8278990578319
 20
271.9939982140202
 30
0.0
 10
277.9007038815986
 20
271.8721820086081
 30
0.0
 10
278.065301243928
 20
271.6379382345351
 30
0.0
 10
278.1570952983066
 20
271.5255120912771
 30
0.0
 10
278.3090000132894
 20
271.3634981744873
 30
0.0
 10
278.362007762343
 20
271.3105989580764
 30
0.0
 10
278.445110486959
 20
271.2328660397129
 30
0.0
 10
278.4734101610413
 20
271.2072244503686
 30
0.0
 10
278.5312154039513
 20
271.1564737701622
 30
0.0
 10
278.5606536192966
 20
271.131424434465
 30
0.0
 10
278.7103215385857
 20
271.0079182087079
 30
0.0
 10
278.8381447931799
 20
270.9145132394359
 30
0.0
 10
279.1096101846875
 20
270.7375489225464
 30
0.0
 10
279.2532530364743
 20
270.653991233649
 30
0.0
 10
279.4048419452952
 20
270.5749994734089
 30
0.0
  0
SPLINE
  5
19C
330
1F
100
AcDbEntity
  8
1
100
AcDbSpline
210
0.0
220
0.0
230
1.0
 70
     9
 71
     3
 72
   127
 73
   123
 74
     0
 42
0.000000001
 43
0.0000000001
 40
0.0
 40
0.0
 40
0.0
 40
0.0
 40
0.0312499999999813
 40
0.0312499999999813
 40
0.0468749999999721
 40
0.0468749999999721
 40
0.0546874999999723
 40
0.0546874999999723
 40
0.0624999999999726
 40
0.0624999999999726
 40
0.093749999999964
 40
0.093749999999964
 40
0.1015624999999618
 40
0.1015624999999618
 40
0.1093749999999597
 40
0.1093749999999597
 40
0.1249999999999633
 40
0.1249999999999633
 40
0.1562499999999634
 40
0.1562499999999634
 40
0.1874999999999634
 40
0.1874999999999634
 40
0.2031249999999653
 40
0.2031249999999653
 40
0.2109374999999676
 40
0.2109374999999676
 40
0.21874999999997
 40
0.21874999999997
 40
0.2499999999999813
 40
0.2499999999999813
 40
0.2578124999999842
 40
0.2578124999999842
 40
0.265624999999987
 40
0.265624999999987
 40
0.2812499999999926
 40
0.2812499999999926
 40
0.3125000000000057
 40
0.3125000000000057
 40
0.3203125000000119
 40
0.3203125000000119
 40
0.3281250000000181
 40
0.3437500000000303
 40
0.3437500000000303
 40
0.3750000000000491
 40
0.3750000000000491
 40
0.3828125000000519
 40
0.3828125000000519
 40
0.3906250000000547
 40
0.4062500000000524
 40
0.42187500000005
 40
0.42187500000005
 40
0.4296875000000487
 40
0.4296875000000487
 40
0.4375000000000475
 40
0.4375000000000475
 40
0.4687500000000611
 40
0.4687500000000611
 40
0.4843750000000677
 40
0.4843750000000677
 40
0.4921875000000712
 40
0.4921875000000712
 40
0.5000000000000745
 40
0.5000000000000745
 40
0.5312500000000774
 40
0.5312500000000774
 40
0.5390625000000782
 40
0.5390625000000782
 40
0.546875000000079
 40
0.546875000000079
 40
0.5625000000000709
 40
0.5781250000000627
 40
0.5781250000000627
 40
0.5859375000000587
 40
0.5859375000000587
 40
0.5937500000000546
 40
0.5937500000000546
 40
0.6250000000000222
 40
0.6250000000000222
 40
0.6328125000000176
 40
0.6328125000000176
 40
0.6406250000000129
 40
0.6406250000000129
 40
0.6562500000000103
 40
0.6562500000000103
 40
0.6875000000000106
 40
0.6875000000000106
 40
0.6953125000000079
 40
0.6953125000000079
 40
0.7031250000000053
 40
0.7187500000000031
 40
0.7343750000000011
 40
0.7343750000000011
 40
0.7421875000000004
 40
0.7421875000000004
 40
0.7499999999999996
 40
0.7499999999999996
 40
0.7812499999999958
 40
0.7812499999999958
 40
0.7968749999999929
 40
0.7968749999999929
 40
0.81249999999999
 40
0.81249999999999
 40
0.8437499999999841
 40
0.8437499999999841
 40
0.8593749999999813
 40
0.8593749999999813
 40
0.8671874999999829
 40
0.8671874999999829
 40
0.8749999999999847
 40
0.8749999999999847
 40
0.9062499999999909
 40
0.9062499999999909
 40
0.9218749999999939
 40
0.9218749999999939
 40
0.9374999999999971
 40
0.9531250000000003
 40
0.9531250000000003
 40
0.9609374999999968
 40
0.9609374999999968
 40
0.9687499999999934
 40
0.9687499999999934
 40
1.0
 40
1.0
 40
1.0
 40
1.0
 10
434.4246469271756
 20
286.5433679557893
 30
0.0
 10
434.5088673741515
 20
286.5418978824191
 30
0.0
 10
434.5914758995003
 20
286.5320273178685
 30
0.0
 10
434.7130711551776
 20
286.5051582482874
 30
0.0
 10
434.7532136223143
 20
286.4941758116103
 30
0.0
 10
434.8128288820261
 20
286.4745916059239
 30
0.0
 10
434.8326571126928
 20
286.4675212202245
 30
0.0
 10
434.8717592496979
 20
286.4524568087218
 30
0.0
 10
434.8910395891094
 20
286.4444647727891
 30
0.0
 10
434.9861147534641
 20
286.4022539742737
 30
0.0
 10
435.0579686713082
 20
286.361348196621
 30
0.0
 10
435.1425589974391
 20
286.3013941915975
 30
0.0
 10
435.1592133055861
 20
286.2889582784327
 30
0.0
 10
435.1919853569641
 20
286.2631823177123
 30
0.0
 10
435.2080915718857
 20
286.2498465729303
 30
0.0
 10
435.2550651785308
 20
286.2089391514319
 30
0.0
 10
435.2847781866553
 20
286.1803262209481
 30
0.0
 10
435.369253071436
 20
286.0906020709421
 30
0.0
 10
435.4194071456503
 20
286.0256206195874
 30
0.0
 10
435.507002848214
 20
285.885290411993
 30
0.0
 10
435.543040652164
 20
285.8122038917822
 30
0.0
 10
435.5861157482317
 20
285.6985037321614
 30
0.0
 10
435.5986302485659
 20
285.6599199326075
 30
0.0
 10
435.6146012966376
 20
285.6010118760922
 30
0.0
 10
435.6194676005767
 20
285.5811548626299
 30
0.0
 10
435.6281965626252
 20
285.5413397420303
 30
0.0
 10
435.6320545846038
 20
285.5214163310488
 30
0.0
 10
435.6488712703903
 20
285.4217238004969
 30
0.0
 10
435.6544773905086
 20
285.3417320068756
 30
0.0
 10
435.6519065856213
 20
285.2414658737399
 30
0.0
 10
435.6509093204488
 20
285.2213985966372
 30
0.0
 10
435.6479374644028
 20
285.1812355346527
 30
0.0
 10
435.6459560954841
 20
285.161089355052
 30
0.0
 10
435.6385727656244
 20
285.1010192681842
 30
0.0
 10
435.631755917555
 20
285.0615315223187
 30
0.0
 10
435.6058084110109
 20
284.9446832604018
 30
0.0
 10
435.5812322084829
 20
284.8689241428578
 30
0.0
 10
435.5412398608233
 20
284.7769067293074
 30
0.0
 10
435.5327617070512
 20
284.7586144058906
 30
0.0
 10
435.5149005663137
 20
284.7224087699057
 30
0.0
 10
435.4868856154022
 20
284.6689428821759
 30
0.0
 10
435.4552773996064
 20
284.6179442124662
 30
0.0
 10
435.3873219735058
 20
284.5191771026555
 30
0.0
 10
435.3357502864401
 20
284.4576062065087
 30
0.0
 10
435.2629065122849
 20
284.3862619780351
 30
0.0
 10
435.2479434384538
 20
284.3723091669218
 30
0.0
 10
435.2174994093855
 20
284.3452795354771
 30
0.0
 10
435.1709422701084
 20
284.3059421954084
 30
0.0
 10
435.0889424558507
 20
284.2463270667503
 30
0.0
 10
435.0186131587632
 20
284.2049814907213
 30
0.0
 10
434.9640262710858
 20
284.1764271836963
 30
0.0
 10
434.9455234124877
 20
284.1673190046142
 30
0.0
 10
434.9078845500299
 20
284.1499452169103
 30
0.0
 10
434.8887160262774
 20
284.1416699028937
 30
0.0
 10
434.7924378757318
 20
284.1029283100606
 30
0.0
 10
434.7131912327688
 20
284.0798678261436
 30
0.0
 10
434.5909840940088
 20
284.0571055321007
 30
0.0
 10
434.5496883079102
 20
284.0515037717123
 30
0.0
 10
434.4868665966086
 20
284.0462092633753
 30
0.0
 10
434.4658233878123
 20
284.044970938576
 30
0.0
 10
434.4239673154696
 20
284.0435616356011
 30
0.0
 10
434.4030927761997
 20
284.0433849083652
 30
0.0
 10
434.2989831883203
 20
284.0450975812487
 30
0.0
 10
434.2165299382353
 20
284.0546986982685
 30
0.0
 10
434.1145133089963
 20
284.0770843306535
 30
0.0
 10
434.0941030810716
 20
284.0821031359359
 30
0.0
 10
434.0537722091225
 20
284.0931023574608
 30
0.0
 10
434.0338405951261
 20
284.0990812252344
 30
0.0
 10
433.9747292967735
 20
284.1184212103406
 30
0.0
 10
433.8977330862143
 20
284.1479421030019
 30
0.0
 10
433.8242705429963
 20
284.1847473778234
 30
0.0
 10
433.7704989812085
 20
284.2150967957992
 30
0.0
 10
433.7527807659304
 20
284.2256816167032
 30
0.0
 10
433.7178576545656
 20
284.2477392879631
 30
0.0
 10
433.700761903484
 20
284.2591420256568
 30
0.0
 10
433.6170584718074
 20
284.3179763415083
 30
0.0
 10
433.5557238659518
 20
284.3708154814121
 30
0.0
 10
433.4857983365761
 20
284.4438763819351
 30
0.0
 10
433.4721535959391
 20
284.4588424861292
 30
0.0
 10
433.4455503459294
 20
284.489490734645
 30
0.0
 10
433.4325721509106
 20
284.5052013060563
 30
0.0
 10
433.3950410320433
 20
284.5529518570442
 30
0.0
 10
433.3717700151676
 20
284.5857346587759
 30
0.0
 10
433.3070146811133
 20
284.6868511681252
 30
0.0
 10
433.2705403009166
 20
284.7579275062421
 30
0.0
 10
433.2334379782634
 20
284.8514902389764
 30
0.0
 10
433.2264415522701
 20
284.8704615826745
 30
0.0
 10
433.2134460756295
 20
284.9085017877253
 30
0.0
 10
433.1953960931891
 20
284.9658446942303
 30
0.0
 10
433.1723809383958
 20
285.0628089214774
 30
0.0
 10
433.1614236181036
 20
285.1418616110423
 30
0.0
 10
433.1560488466767
 20
285.2017186760451
 30
0.0
 10
433.1547319478228
 20
285.2217657641698
 30
0.0
 10
433.1530658845045
 20
285.2620532224894
 30
0.0
 10
433.1527179828031
 20
285.2823483685323
 30
0.0
 10
433.1534478821299
 20
285.3834974864737
 30
0.0
 10
433.1618100908285
 20
285.4633840271609
 30
0.0
 10
433.1858225598565
 20
285.5816696209844
 30
0.0
 10
433.1957512387743
 20
285.6208387447624
 30
0.0
 10
433.2195862009946
 20
285.6986333681328
 30
0.0
 10
433.2335739999883
 20
285.7374088173028
 30
0.0
 10
433.2807458807618
 20
285.8504144129227
 30
0.0
 10
433.3192438920808
 20
285.9220708152329
 30
0.0
 10
433.3875987633958
 20
286.0239521489747
 30
0.0
 10
433.4121633823116
 20
286.0569724394425
 30
0.0
 10
433.4517995810598
 20
286.1050196765163
 30
0.0
 10
433.4654073167338
 20
286.120700035231
 30
0.0
 10
433.4932705083719
 20
286.1512449267966
 30
0.0
 10
433.5075463889012
 20
286.1661343454661
 30
0.0
 10
433.5806264654157
 20
286.2386857530461
 30
0.0
 10
433.6444835925838
 20
286.2907154214166
 30
0.0
 10
433.7485509433761
 20
286.3594595885475
 30
0.0
 10
433.7848056036121
 20
286.3808850662003
 30
0.0
 10
433.8585685016149
 20
286.4196192275433
 30
0.0
 10
433.9338745896868
 20
286.4544714909815
 30
0.0
 10
434.0122106641255
 20
286.4816856067302
 30
0.0
 10
434.0721119888613
 20
286.4991940216032
 30
0.0
 10
434.09227099457
 20
286.504545586882
 30
0.0
 10
434.1329794288774
 20
286.5142621503935
 30
0.0
 10
434.1535766428672
 20
286.5186355295234
 30
0.0
 10
434.2569314301928
 20
286.5378598828672
 30
0.0
 10
434.3404264801998
 20
286.5448380291595
 30
0.0
 10
434.4246469271756
 20
286.5433679557893
 30
0.0
  0
SPLINE
  5
19D
330
1F
100
AcDbEntity
  8
1
100
AcDbSpline
210
0.0
220
0.0
230
1.0
 70
     8
 71
     3
 72
     8
 73
     4
 74
     0
 42
0.000000001
 43
0.0000000001
 40
0.0
 40
0.0
 40
0.0
 40
0.0
 40
1.0
 40
1.0
 40
1.0
 40
1.0
 10
308.6693387837551
 20
275.66165894189
 30
0.0
 10
310.288268631813
 20
275.7944256476357
 30
0.0
 10
311.9082707482243
 20
275.9272289826302
 30
0.0
 10
313.5295140486371
 20
276.0584706213135
 30
0.0
  0
SPLINE
  5
19E
330
1F
100
AcDbEntity
  8
1
100
AcDbSpline
210
0.0
220
0.0
230
1.0
 70
    28
 71
     4
 72
    10
 73
     5
 74
     0
 42
0.000000001
 43
0.0000000001
 40
0.0
 40
0.0
 40
0.0
 40
0.0
 40
0.0
 40
1.0
 40
1.0
 40
1.0
 40
1.0
 40
1.0
 10
297.9048419452959
 20
275.4899749638372
 30
0.0
 41
1.001498006703475
 10
297.9048419452959
 20
275.5449085680702
 30
0.0
 41
1.001498006703475
 10
297.9048419452959
 20
275.5998421723032
 30
0.0
 41
1.001498006703475
 10
297.9048419452959
 20
275.6547757765361
 30
0.0
 41
1.001498006703475
 10
297.9048419452959
 20
275.7097093807691
 30
0.0
 41
1.001498006703475
  0
SPLINE
  5
19F
330
1F
100
AcDbEntity
  8
1
100
AcDbSpline
210
0.0
220
0.0
230
1.0
 70
     8
 71
     3
 72
    10
 73
     6
 74
     0
 42
0.000000001
 43
0.0000000001
 40
0.0
 40
0.0
 40
0.0
 40
0.0
 40
0.5
 40
0.5
 40
1.0
 40
1.0
 40
1.0
 40
1.0
 10
308.669338783755
 20
275.6616589418911
 30
0.0
 10
306.8757951832951
 20
275.6243757389609
 30
0.0
 10
305.0820691997881
 20
275.59147219175
 30
0.0
 10
301.4940075511108
 20
275.5343126909078
 30
0.0
 10
299.6996724065446
 20
275.510064173523
 30
0.0
 10
297.9048419452959
 20
275.4899749638372
 30
0.0
  0
SPLINE
  5
1A0
330
1F
100
AcDbEntity
  8
1
100
AcDbSpline
210
0.0
220
0.0
230
1.0
 70
     8
 71
     3
 72
    10
 73
     6
 74
     0
 42
0.000000001
 43
0.0000000001
 40
0.0
 40
0.0
 40
0.0
 40
0.0
 40
0.5
 40
0.5
 40
1.0
 40
1.0
 40
1.0
 40
1.0
 10
296.0931086295782
 20
275.4567463096746
 30
0.0
 10
296.3849915460719
 20
275.4661166319254
 30
0.0
 10
296.6816417779792
 20
275.4746198135712
 30
0.0
 10
297.2852448037123
 20
275.4865571332017
 30
0.0
 10
297.5921974956222
 20
275.4899749638372
 30
0.0
 10
297.9048419452959
 20
275.4899749638372
 30
0.0
  0
SPLINE
  5
1A1
330
1F
100
AcDbEntity
  8
1
100
AcDbSpline
210
0.0
220
0.0
230
1.0
 70
    12
 71
     3
 72
     8
 73
     4
 74
     0
 42
0.000000001
 43
0.0000000001
 40
0.0
 40
0.0
 40
0.0
 40
0.0
 40
1.0
 40
1.0
 40
1.0
 40
1.0
 10
297.9048419452959
 20
275.7097093807691
 30
0.0
 41
1.001498006703475
 10
303.2267822772751
 20
275.8423546214266
 30
0.0
 41
0.9997923981048483
 10
308.429416801025
 20
275.9437998192841
 30
0.0
 41
0.9995929426361687
 10
313.5295140486371
 20
276.0584706213135
 30
0.0
 41
1.000106116544262
  0
SPLINE
  5
1A2
330
1F
100
AcDbEntity
  8
1
100
AcDbSpline
210
0.0
220
0.0
230
1.0
 70
     8
 71
     3
 72
    20
 73
    16
 74
     0
 42
0.000000001
 43
0.0000000001
 40
0.0
 40
0.0
 40
0.0
 40
0.0
 40
0.1250000000000082
 40
0.1250000000000082
 40
0.2500000000000164
 40
0.2500000000000164
 40
0.5000000000000174
 40
0.5000000000000174
 40
0.6250000000000176
 40
0.6250000000000176
 40
0.6875000000000174
 40
0.6875000000000174
 40
0.7500000000000171
 40
0.7500000000000171
 40
1.0
 40
1.0
 40
1.0
 40
1.0
 10
423.7938977450395
 20
291.6364679180617
 30
0.0
 10
423.6541165597492
 20
291.6981331364371
 30
0.0
 10
423.5126446145566
 20
291.7618742865736
 30
0.0
 10
423.2267662904776
 20
291.8929595136122
 30
0.0
 10
423.0823585243721
 20
291.9603052937554
 30
0.0
 10
422.6452351595581
 20
292.1671311744755
 30
0.0
 10
422.3486443367936
 20
292.3113693135459
 30
0.0
 10
421.8973865349641
 20
292.535549596086
 30
0.0
 10
421.7458981616716
 20
292.6115890158923
 30
0.0
 10
421.5171846381935
 20
292.7274664873099
 30
0.0
 10
421.4407323745836
 20
292.7663794472866
 30
0.0
 10
421.2878130032086
 20
292.8445529163897
 30
0.0
 10
421.2112894860476
 20
292.8838419607071
 30
0.0
 10
420.8283672227075
 20
293.0812528382357
 30
0.0
 10
420.5210592410731
 20
293.242256434993
 30
0.0
 10
420.2129232008187
 20
293.4058845105159
 30
0.0
  0
SPLINE
  5
1A3
330
1F
100
AcDbEntity
  8
1
100
AcDbSpline
210
0.0
220
0.0
230
1.0
 70
     8
 71
     3
 72
     8
 73
     4
 74
     0
 42
0.000000001
 43
0.0000000001
 40
0.0
 40
0.0
 40
0.0
 40
0.0
 40
1.0
 40
1.0
 40
1.0
 40
1.0
 10
423.6579273158198
 20
293.6990830281064
 30
0.0
 10
423.5535054206456
 20
293.7636300611818
 30
0.0
 10
423.4483883540333
 20
293.828464139182
 30
0.0
 10
423.3426154367887
 20
293.8935690260574
 30
0.0
  0
SPLINE
  5
1A4
330
1F
100
AcDbEntity
  8
1
100
AcDbSpline
210
0.0
220
0.0
230
1.0
 70
     8
 71
     3
 72
    36
 73
    32
 74
     0
 42
0.000000001
 43
0.0000000001
 40
0.0
 40
0.0
 40
0.0
 40
0.0
 40
0.1250000000001258
 40
0.1250000000001258
 40
0.1875000000001951
 40
0.1875000000001951
 40
0.2187500000002297
 40
0.2187500000002297
 40
0.2500000000002643
 40
0.2500000000002643
 40
0.3750000000003657
 40
0.3750000000003657
 40
0.4062500000003826
 40
0.4062500000003826
 40
0.4375000000003992
 40
0.4375000000003992
 40
0.5000000000004361
 40
0.5000000000004361
 40
0.6250000000004617
 40
0.6250000000004617
 40
0.6562500000004384
 40
0.6562500000004384
 40
0.6875000000004152
 40
0.7500000000003066
 40
0.8125000000001982
 40
0.8125000000001982
 40
0.8437500000001765
 40
0.8437500000001765
 40
0.875000000000155
 40
0.875000000000155
 40
1.0
 40
1.0
 40
1.0
 40
1.0
 10
438.7016286938658
 20
302.0555786786156
 30
0.0
 10
438.6993557885323
 20
302.1064109185622
 30
0.0
 10
438.6919443395963
 20
302.1561354201284
 30
0.0
 10
438.673598125418
 20
302.2291637764533
 30
0.0
 10
438.6662678439694
 20
302.2532446655919
 30
0.0
 10
438.6534240203578
 20
302.2889675312949
 30
0.0
 10
438.6488205737828
 20
302.3008400303518
 30
0.0
 10
438.6390578162546
 20
302.3242781755015
 30
0.0
 10
438.6339051229835
 20
302.3358334073556
 30
0.0
 10
438.6068157707108
 20
302.3928088939795
 30
0.0
 10
438.5809407855179
 20
302.4358508822533
 30
0.0
 10
438.5434212389172
 20
302.4865278094099
 30
0.0
 10
438.5356561043773
 20
302.4965054468138
 30
0.0
 10
438.5195954572162
 20
302.5161404382422
 30
0.0
 10
438.5112845766
 20
302.525812686614
 30
0.0
 10
438.4858102311133
 20
302.554049159383
 30
0.0
 10
438.4680356428669
 20
302.5719283031323
 30
0.0
 10
438.4124023196952
 20
302.6228084364674
 30
0.0
 10
438.3722570552984
 20
302.6530796215797
 30
0.0
 10
438.3181232254791
 20
302.6862001560764
 30
0.0
 10
438.3070830806271
 20
302.69259169701
 30
0.0
 10
438.2848407720928
 20
302.7047574912299
 30
0.0
 10
438.2511500077541
 20
302.7221335474669
 30
0.0
 10
438.1933900489591
 20
302.7468046454676
 30
0.0
 10
438.1454769154993
 20
302.7619952938901
 30
0.0
 10
438.1088870526381
 20
302.7716419177214
 30
0.0
 10
438.096581058393
 20
302.7745658533642
 30
0.0
 10
438.0717450725308
 20
302.7798165139889
 30
0.0
 10
438.0591988289116
 20
302.7821443577515
 30
0.0
 10
437.9964891547241
 20
302.7921614298511
 30
0.0
 10
437.9459619656713
 20
302.7951397286241
 30
0.0
 10
437.8950637568931
 20
302.792920589579
 30
0.0
  0
SPLINE
  5
1A5
330
1F
100
AcDbEntity
  8
1
100
AcDbSpline
210
0.0
220
0.0
230
1.0
 70
     8
 71
     3
 72
    10
 73
     6
 74
     0
 42
0.000000001
 43
0.0000000001
 40
0.0
 40
0.0
 40
0.0
 40
0.0
 40
0.7930309521488806
 40
0.7930309521488806
 40
1.0
 40
1.0
 40
1.0
 40
1.0
 10
432.9682289973809
 20
297.0197205576305
 30
0.0
 10
432.9660819740791
 20
297.0253079782267
 30
0.0
 10
432.9644692607316
 20
297.0309990939797
 30
0.0
 10
432.9630729549792
 20
297.0382989279744
 30
0.0
 10
432.9628185261938
 20
297.0398204971696
 30
0.0
 10
432.9625989203346
 20
297.0413488697709
 30
0.0
  0
SPLINE
  5
1A6
330
1F
100
AcDbEntity
  8
1
100
AcDbSpline
210
0.0
220
0.0
230
1.0
 70
     8
 71
     3
 72
    21
 73
    17
 74
     0
 42
0.000000001
 43
0.0000000001
 40
0.0
 40
0.0
 40
0.0
 40
0.0
 40
0.2499999999996738
 40
0.2499999999996738
 40
0.3124999999996264
 40
0.3124999999996264
 40
0.374999999999579
 40
0.374999999999579
 40
0.4999999999996309
 40
0.6249999999996826
 40
0.6249999999996826
 40
0.6874999999997085
 40
0.6874999999997085
 40
0.7499999999997345
 40
0.7499999999997345
 40
1.0
 40
1.0
 40
1.0
 40
1.0
 10
434.587821000177
 20
296.6612645164504
 30
0.0
 10
434.5568772178616
 20
296.631382468465
 30
0.0
 10
434.5229647321556
 20
296.6054706759863
 30
0.0
 10
434.4768659251417
 20
296.5780426874782
 30
0.0
 10
434.4674374512688
 20
296.5727990367222
 30
0.0
 10
434.4484150329127
 20
296.5629339696823
 30
0.0
 10
434.4387998348294
 20
296.5582983735115
 30
0.0
 10
434.4096479257222
 20
296.5452661623166
 30
0.0
 10
434.3699638412345
 20
296.5302164453163
 30
0.0
 10
434.328660964718
 20
296.5197881808062
 30
0.0
 10
434.2970565211703
 20
296.513757965566
 30
0.0
 10
434.2864369803492
 20
296.5120534247306
 30
0.0
 10
434.2652670189282
 20
296.5092851924421
 30
0.0
 10
434.2546834006273
 20
296.5082147923637
 30
0.0
 10
434.201772207558
 20
296.5044031937931
 30
0.0
 10
434.1594647922616
 20
296.5062225480478
 30
0.0
 10
434.1171841308491
 20
296.5130421497557
 30
0.0
  0
SPLINE
  5
1A7
330
1F
100
AcDbEntity
  8
1
100
AcDbSpline
210
0.0
220
0.0
230
1.0
 70
     8
 71
     3
 72
     8
 73
     4
 74
     0
 42
0.000000001
 43
0.0000000001
 40
0.0
 40
0.0
 40
0.0
 40
0.0
 40
1.0
 40
1.0
 40
1.0
 40
1.0
 10
433.0536767046315
 20
297.2121841633083
 30
0.0
 10
433.0529155625646
 20
297.207339788476
 30
0.0
 10
433.0518032560076
 20
297.2025649552468
 30
0.0
 10
433.0503767280978
 20
297.1979305872836
 30
0.0
  0
SPLINE
  5
1A8
330
1F
100
AcDbEntity
  8
1
100
AcDbSpline
210
0.0
220
0.0
230
1.0
 70
     8
 71
     3
 72
    21
 73
    17
 74
     0
 42
0.000000001
 43
0.0000000001
 40
0.0
 40
0.0
 40
0.0
 40
0.0
 40
0.249999999999914
 40
0.249999999999914
 40
0.3124999999998924
 40
0.3124999999998924
 40
0.3749999999998709
 40
0.3749999999998709
 40
0.4999999999998938
 40
0.6249999999999166
 40
0.6249999999999166
 40
0.687499999999933
 40
0.687499999999933
 40
0.7499999999999493
 40
0.7499999999999493
 40
1.0
 40
1.0
 40
1.0
 40
1.0
 10
432.9047740371763
 20
297.6822854511116
 30
0.0
 10
432.9342873049146
 20
297.6523817278907
 30
0.0
 10
432.9600403052221
 20
297.6193794692642
 30
0.0
 10
432.9874690282834
 20
297.5740779989323
 30
0.0
 10
432.9927134778919
 20
297.5648127196753
 30
0.0
 10
433.0027047694207
 20
297.5458570304696
 30
0.0
 10
433.0074604938785
 20
297.5361417162591
 30
0.0
 10
433.0207583977411
 20
297.5067807750132
 30
0.0
 10
433.0360548991822
 20
297.4668142153344
 30
0.0
 10
433.0465923508834
 20
297.4252447620046
 30
0.0
 10
433.0526796198426
 20
297.3934569568029
 30
0.0
 10
433.0544099454455
 20
297.3827201422131
 30
0.0
 10
433.057224355763
 20
297.3612419365282
 30
0.0
 10
433.0583085103611
 20
297.3505217031317
 30
0.0
 10
433.0621675788316
 20
297.2970092892388
 30
0.0
 10
433.0603222665334
 20
297.2544805941932
 30
0.0
 10
433.0536767046315
 20
297.2121841633083
 30
0.0
  0
SPLINE
  5
1A9
330
1F
100
AcDbEntity
  8
1
100
AcDbSpline
210
0.0
220
0.0
230
1.0
 70
     8
 71
     3
 72
    14
 73
    10
 74
     0
 42
0.000000001
 43
0.0000000001
 40
0.0
 40
0.0
 40
0.0
 40
0.0
 40
0.25
 40
0.25
 40
0.5
 40
0.5
 40
0.75
 40
0.75
 40
1.0
 40
1.0
 40
1.0
 40
1.0
 10
432.8278891411976
 20
297.7112899898868
 30
0.0
 10
432.8349538089138
 20
297.7117407742237
 30
0.0
 10
432.8420451102132
 20
297.7114481394665
 30
0.0
 10
432.8559521518687
 20
297.7094022873432
 30
0.0
 10
432.8627199861675
 20
297.7076678112304
 30
0.0
 10
432.8758827214452
 20
297.7027586282638
 30
0.0
 10
432.8822976799206
 20
297.6995503624118
 30
0.0
 10
432.8941611133823
 20
297.6919004982901
 30
0.0
 10
432.8996871834943
 20
297.6874396029973
 30
0.0
 10
432.9047740371763
 20
297.6822854511116
 30
0.0
  0
SPLINE
  5
1AA
330
1F
100
AcDbEntity
  8
1
100
AcDbSpline
210
0.0
220
0.0
230
1.0
 70
     8
 71
     3
 72
    22
 73
    18
 74
     0
 42
0.000000001
 43
0.0000000001
 40
0.0
 40
0.0
 40
0.0
 40
0.0
 40
0.125
 40
0.125
 40
0.25
 40
0.25
 40
0.375
 40
0.375
 40
0.5
 40
0.5
 40
0.625
 40
0.625
 40
0.75
 40
0.75
 40
0.875
 40
0.875
 40
1.0
 40
1.0
 40
1.0
 40
1.0
 10
432.8278891411976
 20
297.7112899898868
 30
0.0
 10
432.8222417606446
 20
297.7109296402145
 30
0.0
 10
432.8165927136915
 20
297.7110453999508
 30
0.0
 10
432.8054879559749
 20
297.7121962566549
 30
0.0
 10
432.8000047981668
 20
297.713228687116
 30
0.0
 10
432.7891819606535
 20
297.7162337679305
 30
0.0
 10
432.7838471266105
 20
297.7182163683047
 30
0.0
 10
432.7736958711859
 20
297.7230144436695
 30
0.0
 10
432.7688308533709
 20
297.7258406253946
 30
0.0
 10
432.7595423242335
 20
297.7323840837081
 30
0.0
 10
432.7551436405823
 20
297.7360968400839
 30
0.0
 10
432.7471238446988
 20
297.7441768639022
 30
0.0
 10
432.743460264057
 20
297.7485714496634
 30
0.0
 10
432.7368674371967
 20
297.7581098711693
 30
0.0
 10
432.7339943820978
 20
297.7631854957362
 30
0.0
 10
432.7292117239198
 20
297.773731691346
 30
0.0
 10
432.7272796606971
 20
297.7792332420793
 30
0.0
 10
432.7258369169641
 20
297.7849776957638
 30
0.0
  0
SPLINE
  5
1AB
330
1F
100
AcDbEntity
  8
1
100
AcDbSpline
210
0.0
220
0.0
230
1.0
 70
     8
 71
     3
 72
    21
 73
    17
 74
     0
 42
0.000000001
 43
0.0000000001
 40
0.0
 40
0.0
 40
0.0
 40
0.0
 40
0.2500000000000872
 40
0.2500000000000872
 40
0.3125000000000938
 40
0.3125000000000938
 40
0.3750000000001004
 40
0.3750000000001004
 40
0.5000000000000117
 40
0.6249999999999229
 40
0.6249999999999229
 40
0.6874999999999357
 40
0.6874999999999357
 40
0.7499999999999486
 40
0.7499999999999486
 40
1.0
 40
1.0
 40
1.0
 40
1.0
 10
434.5920536528661
 20
296.8717030361141
 30
0.0
 10
434.6039445850355
 20
296.9128351695243
 30
0.0
 10
434.6202580713445
 20
296.9521250960579
 30
0.0
 10
434.6463205166243
 20
296.998930405733
 30
0.0
 10
434.6518202295477
 20
297.0081745480726
 30
0.0
 10
434.6634133199026
 20
297.0264222215222
 30
0.0
 10
434.6695238485764
 20
297.0354458418208
 30
0.0
 10
434.6884865205433
 20
297.0617479520547
 30
0.0
 10
434.7155931121556
 20
297.0950229114467
 30
0.0
 10
434.7462625365468
 20
297.1247869717716
 30
0.0
 10
434.7706246384383
 20
297.1457712483265
 30
0.0
 10
434.7790036927363
 20
297.152565471622
 30
0.0
 10
434.7960643220206
 20
297.1655741017857
 30
0.0
 10
434.8047278973838
 20
297.1717783504632
 30
0.0
 10
434.8486938501574
 20
297.2013518146022
 30
0.0
 10
434.885912099409
 20
297.2204367991944
 30
0.0
 10
434.9251858039338
 20
297.2351180149824
 30
0.0
  0
SPLINE
  5
1AC
330
1F
100
AcDbEntity
  8
1
100
AcDbSpline
210
0.0
220
0.0
230
1.0
 70
     8
 71
     3
 72
    14
 73
    10
 74
     0
 42
0.000000001
 43
0.0000000001
 40
0.0
 40
0.0
 40
0.0
 40
0.0
 40
0.25
 40
0.25
 40
0.5
 40
0.5
 40
0.75
 40
0.75
 40
1.0
 40
1.0
 40
1.0
 40
1.0
 10
434.9251858039338
 20
297.2351180149824
 30
0.0
 10
434.9319594110189
 20
297.2376501109098
 30
0.0
 10
434.938977535613
 20
297.2393986537643
 30
0.0
 10
434.9529706102649
 20
297.241318178473
 30
0.0
 10
434.9599622668793
 20
297.2415102600863
 30
0.0
 10
434.9739403527436
 20
297.2404072981527
 30
0.0
 10
434.9809162414929
 20
297.2390907171426
 30
0.0
 10
434.9942407582928
 20
297.2350953920241
 30
0.0
 10
435.0006729219463
 20
297.2324143258308
 30
0.0
 10
435.0068680511468
 20
297.2290276963422
 30
0.0
  0
SPLINE
  5
1AD
330
1F
100
AcDbEntity
  8
1
100
AcDbSpline
210
0.0
220
0.0
230
1.0
 70
     8
 71
     3
 72
    20
 73
    16
 74
     0
 42
0.000000001
 43
0.0000000001
 40
0.0
 40
0.0
 40
0.0
 40
0.0
 40
0.1250000000000008
 40
0.1250000000000008
 40
0.2500000000000014
 40
0.2500000000000014
 40
0.3750000000000022
 40
0.3750000000000022
 40
0.5000000000000029
 40
0.5000000000000029
 40
0.6250000000000036
 40
0.6250000000000036
 40
0.7500000000000044
 40
0.7500000000000044
 40
1.0
 40
1.0
 40
1.0
 40
1.0
 10
435.1301121258571
 20
297.2528517209511
 30
0.0
 10
435.1263838198278
 20
297.2482452050629
 30
0.0
 10
435.1223101886863
 20
297.2440603732776
 30
0.0
 10
435.1135103796361
 20
297.2364889084172
 30
0.0
 10
435.1087324221403
 20
297.2330751639914
 30
0.0
 10
435.0987830741159
 20
297.2272319769416
 30
0.0
 10
435.0936313041767
 20
297.2247990337111
 30
0.0
 10
435.0829928667033
 20
297.2208623321042
 30
0.0
 10
435.0774545901447
 20
297.2193509928967
 30
0.0
 10
435.0662920227999
 20
297.217334628866
 30
0.0
 10
435.0607090270068
 20
297.2168262450728
 30
0.0
 10
435.0495416770016
 20
297.2167572051144
 30
0.0
 10
435.0439295453074
 20
297.2172016174385
 30
0.0
 10
435.0272759469257
 20
297.2199710890235
 30
0.0
 10
435.0167738833602
 20
297.2236125738488
 30
0.0
 10
435.0068680511467
 20
297.2290276963422
 30
0.0
  0
SPLINE
  5
1AE
330
1F
100
AcDbEntity
  8
1
100
AcDbSpline
210
0.0
220
0.0
230
1.0
 70
     8
 71
     3
 72
    14
 73
    10
 74
     0
 42
0.000000001
 43
0.0000000001
 40
0.0
 40
0.0
 40
0.0
 40
0.0
 40
0.5417127588856497
 40
0.5417127588856497
 40
0.6771409486070575
 40
0.6771409486070575
 40
0.8125691383284653
 40
0.8125691383284653
 40
1.0
 40
1.0
 40
1.0
 40
1.0
 10
432.7258369169641
 20
297.7849776957638
 30
0.0
 10
432.7154589401806
 20
297.8262988296604
 30
0.0
 10
432.7099822120342
 20
297.8683024567968
 30
0.0
 10
432.7092626054293
 20
297.921650986576
 30
0.0
 10
432.7094312959611
 20
297.9323860374523
 30
0.0
 10
432.7103878466624
 20
297.9537007491891
 30
0.0
 10
432.7111740565536
 20
297.9643058514213
 30
0.0
 10
432.7137691471238
 20
297.9894659077491
 30
0.0
 10
432.715853448999
 20
298.003974097467
 30
0.0
 10
432.7185127461517
 20
298.0183846354631
 30
0.0
  0
SPLINE
  5
1AF
330
1F
100
AcDbEntity
  8
1
100
AcDbSpline
210
0.0
220
0.0
230
1.0
 70
     8
 71
     3
 72
    10
 73
     6
 74
     0
 42
0.000000001
 43
0.0000000001
 40
0.0
 40
0.0
 40
0.0
 40
0.0
 40
0.1135761307446818
 40
0.1135761307446818
 40
1.0
 40
1.0
 40
1.0
 40
1.0
 10
435.2046383277323
 20
297.3744580141305
 30
0.0
 10
435.2024238551976
 20
297.3694931648733
 30
0.0
 10
435.2001396559152
 20
297.3645697452626
 30
0.0
 10
435.1794198808878
 20
297.3215821155277
 30
0.0
 10
435.1568974185993
 20
297.2859463423741
 30
0.0
 10
435.1301121258571
 20
297.252851720951
 30
0.0
  0
SPLINE
  5
1B0
330
1F
100
AcDbEntity
  8
1
100
AcDbSpline
210
0.0
220
0.0
230
1.0
 70
     8
 71
     3
 72
    14
 73
    10
 74
     0
 42
0.000000001
 43
0.0000000001
 40
0.0
 40
0.0
 40
0.0
 40
0.0
 40
0.25
 40
0.25
 40
0.5
 40
0.5
 40
0.75
 40
0.75
 40
1.0
 40
1.0
 40
1.0
 40
1.0
 10
433.3602217577093
 20
298.7343514080832
 30
0.0
 10
433.3640480483747
 20
298.7285778505903
 30
0.0
 10
433.367242709568
 20
298.7224105176803
 30
0.0
 10
433.3722326232746
 20
298.7095790822343
 30
0.0
 10
433.3740205927053
 20
298.7029654478825
 30
0.0
 10
433.3761675165115
 20
298.6893347657132
 30
0.0
 10
433.3765071960108
 20
298.6822834868466
 30
0.0
 10
433.3756487047764
 20
298.6683841000903
 30
0.0
 10
433.3744715650377
 20
298.6614605701795
 30
0.0
 10
433.3724810900261
 20
298.6545626355378
 30
0.0
  0
SPLINE
  5
1B1
330
1F
100
AcDbEntity
  8
1
100
AcDbSpline
210
0.0
220
0.0
230
1.0
 70
     8
 71
     3
 72
    12
 73
     8
 74
     0
 42
0.000000001
 43
0.0000000001
 40
0.0
 40
0.0
 40
0.0
 40
0.0
 40
0.3933323418454839
 40
0.3933323418454839
 40
0.7866646836909676
 40
0.7866646836909676
 40
1.0
 40
1.0
 40
1.0
 40
1.0
 10
433.3602217577086
 20
298.7343514080843
 30
0.0
 10
433.3571631914368
 20
298.7389665326945
 30
0.0
 10
433.3545166919428
 20
298.7438205877347
 30
0.0
 10
433.3501140787905
 20
298.7538245791474
 30
0.0
 10
433.3483424144171
 20
298.7589963660675
 30
0.0
 10
433.3462921552707
 20
298.7672418593433
 30
0.0
 10
433.3457045896706
 20
298.7701926622365
 30
0.0
 10
433.3452557873455
 20
298.7731650207132
 30
0.0
  0
SPLINE
  5
1B2
330
1F
100
AcDbEntity
  8
1
100
AcDbSpline
210
0.0
220
0.0
230
1.0
 70
     8
 71
     3
 72
    14
 73
    10
 74
     0
 42
0.000000001
 43
0.0000000001
 40
0.0
 40
0.0
 40
0.0
 40
0.0
 40
0.1006964116143503
 40
0.1006964116143503
 40
0.4004642744095668
 40
0.4004642744095668
 40
0.7002321372047834
 40
0.7002321372047834
 40
1.0
 40
1.0
 40
1.0
 40
1.0
 10
434.9140307811317
 20
298.3279222655678
 30
0.0
 10
434.9147294296668
 20
298.3301920477552
 30
0.0
 10
434.915507808955
 20
298.3324237170376
 30
0.0
 10
434.9189019421713
 20
298.3411124606432
 30
0.0
 10
434.9220978861878
 20
298.347225863202
 30
0.0
 10
434.9297619723708
 20
298.3586999058427
 30
0.0
 10
434.9342435149136
 20
298.3640406418262
 30
0.0
 10
434.9440732209968
 20
298.3734970465471
 30
0.0
 10
434.9494635222305
 20
298.3776834337627
 30
0.0
 10
434.9553450284131
 20
298.3813109066337
 30
0.0
  0
SPLINE
  5
1B3
330
1F
100
AcDbEntity
  8
1
100
AcDbSpline
210
0.0
220
0.0
230
1.0
 70
     8
 71
     3
 72
     8
 73
     4
 74
     0
 42
0.000000001
 43
0.0000000001
 40
0.0
 40
0.0
 40
0.0
 40
0.0
 40
1.0
 40
1.0
 40
1.0
 40
1.0
 10
434.9741719140586
 20
298.3964853261272
 30
0.0
 10
434.9685755980373
 20
298.3906552364148
 30
0.0
 10
434.9622976748228
 20
298.3855990150619
 30
0.0
 10
434.9553450284131
 20
298.3813109066337
 30
0.0
  0
SPLINE
  5
1B4
330
1F
100
AcDbEntity
  8
1
100
AcDbSpline
210
0.0
220
0.0
230
1.0
 70
     8
 71
     3
 72
    58
 73
    54
 74
     0
 42
0.000000001
 43
0.0000000001
 40
0.0
 40
0.0
 40
0.0
 40
0.0
 40
0.0625000000000026
 40
0.0625000000000026
 40
0.0937500000000039
 40
0.0937500000000039
 40
0.1250000000000052
 40
0.1250000000000052
 40
0.1562500000000066
 40
0.1562500000000066
 40
0.1875000000000079
 40
0.2187500000000092
 40
0.2187500000000092
 40
0.2500000000000105
 40
0.2500000000000105
 40
0.2812500000000118
 40
0.2812500000000118
 40
0.3125000000000131
 40
0.3125000000000131
 40
0.3750000000000136
 40
0.3750000000000136
 40
0.4062500000000148
 40
0.4062500000000148
 40
0.4375000000000158
 40
0.4687500000000167
 40
0.4687500000000167
 40
0.5000000000000178
 40
0.5000000000000178
 40
0.5625000000000167
 40
0.5625000000000167
 40
0.5937500000000151
 40
0.5937500000000151
 40
0.6250000000000135
 40
0.6562500000000119
 40
0.6562500000000119
 40
0.6875000000000103
 40
0.6875000000000103
 40
0.7187500000000088
 40
0.7187500000000088
 40
0.7500000000000071
 40
0.7500000000000071
 40
0.8125000000000047
 40
0.8125000000000047
 40
0.8437500000000039
 40
0.8437500000000039
 40
0.8750000000000031
 40
0.9062500000000024
 40
0.9062500000000024
 40
0.9375000000000015
 40
0.9375000000000015
 40
0.9687500000000007
 40
0.9687500000000007
 40
1.0
 40
1.0
 40
1.0
 40
1.0
 10
437.1783307004075
 20
284.1454935137075
 30
0.0
 10
437.1772312895659
 20
284.0821974218733
 30
0.0
 10
437.1769724556053
 20
284.0216979268356
 30
0.0
 10
437.1778399489496
 20
283.9351265417993
 30
0.0
 10
437.1783396900681
 20
283.9069938064515
 30
0.0
 10
437.1797512549336
 20
283.8525153418587
 30
0.0
 10
437.1806634214442
 20
283.8261198119186
 30
0.0
 10
437.1828992763774
 20
283.7750110620789
 30
0.0
 10
437.1842251833293
 20
283.7502646813444
 30
0.0
 10
437.1872818178143
 20
283.7026281620231
 30
0.0
 10
437.1907361605114
 20
283.656932923601
 30
0.0
 10
437.1949781045988
 20
283.6150821004768
 30
0.0
 10
437.1996147932755
 20
283.5751580923071
 30
0.0
 10
437.2021321358301
 20
283.5561582279439
 30
0.0
 10
437.2075267995175
 20
283.5203446396126
 30
0.0
 10
437.2104078497033
 20
283.5034952323362
 30
0.0
 10
437.2165358573577
 20
283.4719023891255
 30
0.0
 10
437.2197854863976
 20
283.4571484263442
 30
0.0
 10
437.2300704119752
 20
283.4161387908489
 30
0.0
 10
437.237591272613
 20
283.3933032009921
 30
0.0
 10
437.2498602879814
 20
283.3657474734114
 30
0.0
 10
437.2541209431777
 20
283.3576774068177
 30
0.0
 10
437.2629087470932
 20
283.3438962654481
 30
0.0
 10
437.2719759753749
 20
283.3324377559381
 30
0.0
 10
437.2815970537394
 20
283.325582960367
 30
0.0
 10
437.2914959110964
 20
283.3210371199785
 30
0.0
 10
437.2965928969744
 20
283.3199192600583
 30
0.0
 10
437.312243908603
 20
283.3200780699702
 30
0.0
 10
437.3231147893212
 20
283.324835210739
 30
0.0
 10
437.3400737382907
 20
283.3389192733296
 30
0.0
 10
437.3458424781237
 20
283.3447866002348
 30
0.0
 10
437.3575220297237
 20
283.3587740897661
 30
0.0
 10
437.3693600144132
 20
283.3750232682703
 30
0.0
 10
437.3815139022497
 20
283.395782077087
 30
0.0
 10
437.3938271733431
 20
283.4188161388541
 30
0.0
 10
437.4000452063325
 20
283.4314387120666
 30
0.0
 10
437.4125632522013
 20
283.4587994574922
 30
0.0
 10
437.4188694677575
 20
283.4735491073307
 30
0.0
 10
437.4315764702851
 20
283.5051911794984
 30
0.0
 10
437.4379875158236
 20
283.522112711912
 30
0.0
 10
437.4572864981468
 20
283.5759163087305
 30
0.0
 10
437.4702083729203
 20
283.6157227912052
 30
0.0
 10
437.4896751667773
 20
283.6813493408816
 30
0.0
 10
437.4961826141539
 20
283.7042338668981
 30
0.0
 10
437.5091357069268
 20
283.7516741778716
 30
0.0
 10
437.5220487765799
 20
283.8008559146948
 30
0.0
 10
437.5348818186553
 20
283.853519691266
 30
0.0
 10
437.5476743660091
 20
283.9079454133223
 30
0.0
 10
437.5540204372141
 20
283.9359124243411
 30
0.0
 10
437.5666010864295
 20
283.9932930649219
 30
0.0
 10
437.5728376173128
 20
284.0227149992763
 30
0.0
 10
437.5852025875571
 20
284.0830289517
 30
0.0
 10
437.5913416541656
 20
284.1139777445474
 30
0.0
 10
437.5973916327208
 20
284.1454935136939
 30
0.0
  0
SPLINE
  5
1B5
330
1F
100
AcDbEntity
  8
1
100
AcDbSpline
210
0.0
220
0.0
230
1.0
 70
     8
 71
     3
 72
   113
 73
   109
 74
     0
 42
0.000000001
 43
0.0000000001
 40
0.0
 40
0.0
 40
0.0
 40
0.0
 40
0.0156249999999998
 40
0.0156249999999998
 40
0.0312499999999996
 40
0.0312499999999996
 40
0.0624999999999993
 40
0.0624999999999993
 40
0.0781249999999989
 40
0.0781249999999989
 40
0.0937499999999986
 40
0.0937499999999986
 40
0.1093749999999982
 40
0.1093749999999982
 40
0.1249999999999979
 40
0.1406249999999977
 40
0.1406249999999977
 40
0.1562499999999975
 40
0.1562499999999975
 40
0.1718749999999973
 40
0.1718749999999973
 40
0.1874999999999971
 40
0.1874999999999971
 40
0.2187499999999972
 40
0.2187499999999972
 40
0.2343749999999969
 40
0.2343749999999969
 40
0.2499999999999966
 40
0.2499999999999966
 40
0.2656249999999964
 40
0.2656249999999964
 40
0.2812499999999961
 40
0.2812499999999961
 40
0.3124999999999956
 40
0.3124999999999956
 40
0.3281249999999948
 40
0.3281249999999948
 40
0.3437499999999942
 40
0.3437499999999942
 40
0.3749999999999935
 40
0.3749999999999935
 40
0.3906249999999928
 40
0.3906249999999928
 40
0.4062499999999921
 40
0.4062499999999921
 40
0.4218749999999915
 40
0.4218749999999915
 40
0.4374999999999907
 40
0.4531249999999902
 40
0.4531249999999902
 40
0.4687499999999895
 40
0.4687499999999895
 40
0.4843749999999887
 40
0.4843749999999887
 40
0.499999999999988
 40
0.499999999999988
 40
0.5312499999999883
 40
0.5312499999999883
 40
0.5468749999999883
 40
0.5468749999999883
 40
0.5624999999999883
 40
0.5624999999999883
 40
0.5781249999999884
 40
0.5781249999999884
 40
0.5937499999999884
 40
0.6093749999999884
 40
0.6093749999999884
 40
0.6249999999999885
 40
0.6249999999999885
 40
0.6406249999999885
 40
0.6406249999999885
 40
0.6562499999999885
 40
0.6562499999999885
 40
0.6874999999999904
 40
0.6874999999999904
 40
0.7031249999999908
 40
0.7031249999999908
 40
0.7187499999999912
 40
0.7187499999999912
 40
0.7343749999999916
 40
0.7343749999999916
 40
0.749999999999992
 40
0.7656249999999924
 40
0.7656249999999924
 40
0.7812499999999928
 40
0.7812499999999928
 40
0.7968749999999931
 40
0.7968749999999931
 40
0.8124999999999934
 40
0.8124999999999934
 40
0.8437499999999948
 40
0.8437499999999948
 40
0.8593749999999952
 40
0.8593749999999952
 40
0.8749999999999957
 40
0.8749999999999957
 40
0.8906249999999962
 40
0.8906249999999962
 40
0.9062499999999968
 40
0.9218749999999971
 40
0.9218749999999971
 40
0.9374999999999975
 40
0.9374999999999975
 40
0.953124999999998
 40
0.953124999999998
 40
0.9687499999999985
 40
0.9687499999999985
 40
1.0
 40
1.0
 40
1.0
 40
1.0
 10
437.5973916327208
 20
284.1454935136939
 30
0.0
 10
437.600212901366
 20
284.1786521804183
 30
0.0
 10
437.6028735614163
 20
284.2124442699188
 30
0.0
 10
437.6078742737024
 20
284.281292891163
 30
0.0
 10
437.6102161160678
 20
284.3163789530928
 30
0.0
 10
437.6167436838807
 20
284.4233657928108
 30
0.0
 10
437.6204010822273
 20
284.4964309027797
 30
0.0
 10
437.6248504312737
 20
284.6086275560046
 30
0.0
 10
437.6261598119518
 20
284.6464771085613
 30
0.0
 10
437.6284117939245
 20
284.7224811433966
 30
0.0
 10
437.6293574340965
 20
284.7607050148058
 30
0.0
 10
437.6308889424945
 20
284.8375953219812
 30
0.0
 10
437.6314753421835
 20
284.8763189690582
 30
0.0
 10
437.6322819194908
 20
284.9539427606653
 30
0.0
 10
437.6327217628555
 20
285.031576992412
 30
0.0
 10
437.6324350078761
 20
285.1092319088767
 30
0.0
 10
437.6317835290035
 20
285.1868972082591
 30
0.0
 10
437.6312748685343
 20
285.2257061969214
 30
0.0
 10
437.6299009021892
 20
285.3027678975237
 30
0.0
 10
437.6290351548256
 20
285.3410904390882
 30
0.0
 10
437.6269470887469
 20
285.417320019943
 30
0.0
 10
437.6257221443179
 20
285.4552935344232
 30
0.0
 10
437.621527768541
 20
285.5680445811582
 30
0.0
 10
437.6180479662933
 20
285.6415601477738
 30
0.0
 10
437.6118077022585
 20
285.7493673201402
 30
0.0
 10
437.6095608001651
 20
285.7848137782998
 30
0.0
 10
437.6047573932593
 20
285.8544058696155
 30
0.0
 10
437.602198016289
 20
285.8886021366827
 30
0.0
 10
437.5967644360009
 20
285.9557970942972
 30
0.0
 10
437.5938818885617
 20
285.9888798128933
 30
0.0
 10
437.5878520058476
 20
286.0532810785937
 30
0.0
 10
437.5847039363175
 20
286.0846248179198
 30
0.0
 10
437.5748695938584
 20
286.1761448981109
 30
0.0
 10
437.5677948080228
 20
286.2338205346826
 30
0.0
 10
437.5564108937521
 20
286.3153666325016
 30
0.0
 10
437.5524872242475
 20
286.3417181408034
 30
0.0
 10
437.5443778292704
 20
286.3927344065339
 30
0.0
 10
437.5401804443708
 20
286.4174600156929
 30
0.0
 10
437.5272964924581
 20
286.4884340006606
 30
0.0
 10
437.5183133402013
 20
286.5315738868185
 30
0.0
 10
437.5042476979039
 20
286.5900181030113
 30
0.0
 10
437.4994700830206
 20
286.6084069147824
 30
0.0
 10
437.4897816900995
 20
286.642846064925
 30
0.0
 10
437.4848644764188
 20
286.6589235772797
 30
0.0
 10
437.4748839404603
 20
286.6887933166559
 30
0.0
 10
437.4698115910148
 20
286.7026066268078
 30
0.0
 10
437.4595682395177
 20
286.7277999080583
 30
0.0
 10
437.4492325470913
 20
286.7505559241124
 30
0.0
 10
437.4387131995253
 20
286.7684645091882
 30
0.0
 10
437.4281013404029
 20
286.7839313255013
 30
0.0
 10
437.4227537335963
 20
286.7904318564111
 30
0.0
 10
437.4120413441611
 20
286.8008954592335
 30
0.0
 10
437.4066675192494
 20
286.8048726155553
 30
0.0
 10
437.3958845646548
 20
286.810314479488
 30
0.0
 10
437.3904672309286
 20
286.8117789750161
 30
0.0
 10
437.3742211419219
 20
286.8123506668736
 30
0.0
 10
437.363436429492
 20
286.8076687141104
 30
0.0
 10
437.3473285780628
 20
286.7930295032871
 30
0.0
 10
437.3419703322935
 20
286.7868694062211
 30
0.0
 10
437.3313549863896
 20
286.7720804059074
 30
0.0
 10
437.3260880419097
 20
286.7634442041758
 30
0.0
 10
437.3156357269661
 20
286.7436848283443
 30
0.0
 10
437.3104444179904
 20
286.7325471491075
 30
0.0
 10
437.3001712090032
 20
286.7078134329607
 30
0.0
 10
437.2900371531678
 20
286.6806996953025
 30
0.0
 10
437.2801799541311
 20
286.6488507063837
 30
0.0
 10
437.2704622911986
 20
286.6146151460829
 30
0.0
 10
437.2656714486336
 20
286.59629029984
 30
0.0
 10
437.2563004430317
 20
286.5575107224847
 30
0.0
 10
437.2517112797623
 20
286.5370265311955
 30
0.0
 10
437.2427258688003
 20
286.4938666566346
 30
0.0
 10
437.2383244580151
 20
286.4711621202686
 30
0.0
 10
437.2254487342892
 20
286.3999084530345
 30
0.0
 10
437.2173496041754
 20
286.348516561408
 30
0.0
 10
437.2059293941113
 20
286.265582865411
 30
0.0
 10
437.2022449514793
 20
286.2369548349325
 30
0.0
 10
437.1951756646603
 20
286.1781642449017
 30
0.0
 10
437.1917834937317
 20
286.1479508296906
 30
0.0
 10
437.1852842960355
 20
286.0858866150097
 30
0.0
 10
437.1821726168109
 20
286.0539834481997
 30
0.0
 10
437.1762611482852
 20
285.9887714752383
 30
0.0
 10
437.1706709238822
 20
285.9222746106906
 30
0.0
 10
437.1657191281423
 20
285.8532242002285
 30
0.0
 10
437.1610888029803
 20
285.7828879924189
 30
0.0
 10
437.1589375057945
 20
285.7471114273648
 30
0.0
 10
437.1549883256034
 20
285.6748010909465
 30
0.0
 10
437.1531862164686
 20
285.6382052430322
 30
0.0
 10
437.1499269550112
 20
285.5641322008461
 30
0.0
 10
437.1484675903569
 20
285.5265841716422
 30
0.0
 10
437.1446328836458
 20
285.4131949942892
 30
0.0
 10
437.1427973907374
 20
285.3366835780975
 30
0.0
 10
437.1411248835643
 20
285.220539443575
 30
0.0
 10
437.1407500503773
 20
285.1816920237788
 30
0.0
 10
437.1403658692108
 20
285.1040751327849
 30
0.0
 10
437.1403557295056
 20
285.0652537600918
 30
0.0
 10
437.1406991624051
 20
284.9875851737735
 30
0.0
 10
437.1410540050343
 20
284.9486684990207
 30
0.0
 10
437.1421242390958
 20
284.871285995331
 30
0.0
 10
437.1435537485337
 20
284.794306540806
 30
0.0
 10
437.1456967181297
 20
284.718127473782
 30
0.0
 10
437.1481986233725
 20
284.6423510748005
 30
0.0
 10
437.1496239595133
 20
284.6048250383446
 30
0.0
 10
437.1528142201644
 20
284.5306263853138
 30
0.0
 10
437.1545798884841
 20
284.4939311873181
 30
0.0
 10
437.1584522540882
 20
284.4213489369338
 30
0.0
 10
437.1605625836975
 20
284.3854132252777
 30
0.0
 10
437.1673636143772
 20
284.2795373834351
 30
0.0
 10
437.1725338523305
 20
284.2112886354962
 30
0.0
 10
437.1783307004061
 20
284.1454935137074
 30
0.0
  0
SPLINE
  5
1B6
330
1F
100
AcDbEntity
  8
1
100
AcDbSpline
210
0.0
220
0.0
230
1.0
 70
     8
 71
     3
 72
    25
 73
    21
 74
     0
 42
0.000000001
 43
0.0000000001
 40
0.0
 40
0.0
 40
0.0
 40
0.0
 40
0.125
 40
0.125
 40
0.25
 40
0.25
 40
0.375
 40
0.375
 40
0.5
 40
0.5
 40
0.625
 40
0.625
 40
0.75
 40
0.875
 40
0.875
 40
0.9375
 40
0.9375
 40
0.96875
 40
0.96875
 40
1.0
 40
1.0
 40
1.0
 40
1.0
 10
292.7038318185191
 20
275.4082302250158
 30
0.0
 10
292.4127818497223
 20
275.4088301219919
 30
0.0
 10
292.1257085270582
 20
275.4015488778333
 30
0.0
 10
291.5585605982887
 20
275.3731159391109
 30
0.0
 10
291.2784880147792
 20
275.3519602360527
 30
0.0
 10
290.7246399514333
 20
275.2971688754386
 30
0.0
 10
290.4508659126814
 20
275.2635303618607
 30
0.0
 10
289.9091095821422
 20
275.1847749245764
 30
0.0
 10
289.6411283321857
 20
275.1396559361112
 30
0.0
 10
289.1106118617227
 20
275.0386247114819
 30
0.0
 10
288.8480773905381
 20
274.9827109902694
 30
0.0
 10
288.3282419025285
 20
274.8605115934256
 30
0.0
 10
287.8136405807619
 20
274.7279388313113
 30
0.0
 10
287.3093106277003
 20
274.575009692564
 30
0.0
 10
286.9349171067728
 20
274.4526748756221
 30
0.0
 10
286.8107623551519
 20
274.4106220939491
 30
0.0
 10
286.6255018242069
 20
274.3456173568351
 30
0.0
 10
286.5638949718547
 20
274.3236221174583
 30
0.0
 10
286.4412668064913
 20
274.2790822594735
 30
0.0
 10
286.38021439053
 20
274.2565269464109
 30
0.0
 10
286.3194227448757
 20
274.2336872269419
 30
0.0
  0
SPLINE
  5
1B7
330
1F
100
AcDbEntity
  8
1
100
AcDbSpline
210
0.0
220
0.0
230
1.0
 70
     8
 71
     3
 72
    51
 73
    47
 74
     0
 42
0.000000001
 43
0.0000000001
 40
0.0
 40
0.0
 40
0.0
 40
0.0
 40
0.1249999999999764
 40
0.1249999999999764
 40
0.2499999999999529
 40
0.2499999999999529
 40
0.3749999999999293
 40
0.3749999999999293
 40
0.4062499999999165
 40
0.4062499999999165
 40
0.4374999999999036
 40
0.4374999999999036
 40
0.4999999999999025
 40
0.4999999999999025
 40
0.5624999999999015
 40
0.5624999999999015
 40
0.6249999999999005
 40
0.6249999999999005
 40
0.6562499999999
 40
0.6562499999999
 40
0.6874999999998996
 40
0.6874999999998996
 40
0.7031249999998992
 40
0.7031249999998992
 40
0.7187499999998991
 40
0.7187499999998991
 40
0.7499999999999023
 40
0.7499999999999023
 40
0.7812499999999058
 40
0.7812499999999058
 40
0.7968749999999041
 40
0.7968749999999041
 40
0.8124999999999023
 40
0.8281249999999007
 40
0.8281249999999007
 40
0.8437499999998989
 40
0.8437499999998989
 40
0.8749999999999189
 40
0.8749999999999189
 40
0.9062499999999392
 40
0.9062499999999392
 40
0.9374999999999594
 40
0.9374999999999594
 40
0.9687499999999795
 40
0.9687499999999795
 40
1.0
 40
1.0
 40
1.0
 40
1.0
 10
423.3426154367873
 20
293.8935690260579
 30
0.0
 10
423.2823272794252
 20
293.930677330974
 30
0.0
 10
423.2237249415443
 20
293.9695672208442
 30
0.0
 10
423.1101966656973
 20
294.0513103274018
 30
0.0
 10
423.0552644626049
 20
294.0941571313551
 30
0.0
 10
422.9496769521023
 20
294.1845122444353
 30
0.0
 10
422.899004327265
 20
294.2320030243021
 30
0.0
 10
422.8390961553488
 20
294.2951053767558
 30
0.0
 10
422.8272885866158
 20
294.3079152550967
 30
0.0
 10
422.8040533763378
 20
294.3339474105494
 30
0.0
 10
422.7926106013721
 20
294.3471879072634
 30
0.0
 10
422.7590285486628
 20
294.3874486383354
 30
0.0
 10
422.737666743052
 20
294.4149543787106
 30
0.0
 10
422.6974113981518
 20
294.4715485539244
 30
0.0
 10
422.6785118005444
 20
294.5006334696836
 30
0.0
 10
422.6438589526055
 20
294.5607909509953
 30
0.0
 10
422.6280896557137
 20
294.5918542187378
 30
0.0
 10
422.6077266515559
 20
294.6404892028476
 30
0.0
 10
422.6015055458959
 20
294.6570307412208
 30
0.0
 10
422.5905652689746
 20
294.690502063088
 30
0.0
 10
422.5858244227705
 20
294.7074770682586
 30
0.0
 10
422.5800471193581
 20
294.7333697548714
 30
0.0
 10
422.5783445730435
 20
294.7420726088714
 30
0.0
 10
422.5754402496816
 20
294.7596382889436
 30
0.0
 10
422.5742387792534
 20
294.7685121142668
 30
0.0
 10
422.5715071750136
 20
294.7951192219121
 30
0.0
 10
422.5708275745892
 20
294.8129204970285
 30
0.0
 10
422.5722220716281
 20
294.8486614822591
 30
0.0
 10
422.5742916611818
 20
294.8666010724933
 30
0.0
 10
422.5799892799237
 20
294.8936279424279
 30
0.0
 10
422.5823323060848
 20
294.9026656708948
 30
0.0
 10
422.5878625710931
 20
294.9203830895962
 30
0.0
 10
422.5942536522713
 20
294.9378388956112
 30
0.0
 10
422.6024384331679
 20
294.9547456637661
 30
0.0
 10
422.6115622824935
 20
294.9713630145055
 30
0.0
 10
422.6166267986258
 20
294.9795726832992
 30
0.0
 10
422.6330384598533
 20
295.0033723427056
 30
0.0
 10
422.6455225174511
 20
295.018070198959
 30
0.0
 10
422.6732873485387
 20
295.0453374559904
 30
0.0
 10
422.688716142247
 20
295.0579872044066
 30
0.0
 10
422.7209813779547
 20
295.0805820546086
 30
0.0
 10
422.7378914500095
 20
295.0906381994333
 30
0.0
 10
422.7729643138948
 20
295.108747440833
 30
0.0
 10
422.7911911252286
 20
295.1168209255873
 30
0.0
 10
422.8283842560212
 20
295.1311765243785
 30
0.0
 10
422.8472911568661
 20
295.1374447597501
 30
0.0
 10
422.8664485604351
 20
295.1429789170992
 30
0.0
  0
SPLINE
  5
1B8
330
1F
100
AcDbEntity
  8
1
100
AcDbSpline
210
0.0
220
0.0
230
1.0
 70
     8
 71
     3
 72
     8
 73
     4
 74
     0
 42
0.000000001
 43
0.0000000001
 40
0.0
 40
0.0
 40
0.0
 40
0.0
 40
1.0
 40
1.0
 40
1.0
 40
1.0
 10
430.5232089689952
 20
292.2479132400123
 30
0.0
 10
430.5198118211972
 20
292.2484230467412
 30
0.0
 10
430.516416830771
 20
292.2489417737996
 30
0.0
 10
430.5130240530107
 20
292.2494693917305
 30
0.0
  0
SPLINE
  5
1B9
330
1F
100
AcDbEntity
  8
1
100
AcDbSpline
210
0.0
220
0.0
230
1.0
 70
     8
 71
     3
 72
     8
 73
     4
 74
     0
 42
0.000000001
 43
0.0000000001
 40
0.0
 40
0.0
 40
0.0
 40
0.0
 40
1.0
 40
1.0
 40
1.0
 40
1.0
 10
430.5151378434616
 20
292.0483752987146
 30
0.0
 10
430.5185994405133
 20
292.0485272022357
 30
0.0
 10
430.5220618404434
 20
292.048678651382
 30
0.0
 10
430.5255250443748
 20
292.0488296455181
 30
0.0
  0
SPLINE
  5
1BA
330
1F
100
AcDbEntity
  8
1
100
AcDbSpline
210
0.0
220
0.0
230
1.0
 70
     8
 71
     3
 72
    18
 73
    14
 74
     0
 42
0.000000001
 43
0.0000000001
 40
0.0
 40
0.0
 40
0.0
 40
0.0
 40
0.2499999999999866
 40
0.2499999999999866
 40
0.3124999999999833
 40
0.3124999999999833
 40
0.3749999999999799
 40
0.3749999999999799
 40
0.4999999999999912
 40
0.4999999999999912
 40
0.7499999999999956
 40
0.7499999999999956
 40
1.0
 40
1.0
 40
1.0
 40
1.0
 10
426.0668575572273
 20
292.640769789428
 30
0.0
 10
426.4245295173948
 20
292.5267849494127
 30
0.0
 10
426.7869734111872
 20
292.4285674993352
 30
0.0
 10
427.2460131743613
 20
292.3256588794396
 30
0.0
 10
427.3381209498285
 20
292.3060721132878
 30
0.0
 10
427.5229389804378
 20
292.2688996587616
 30
0.0
 10
427.6156715281993
 20
292.2513118725455
 30
0.0
 10
427.8939029822796
 20
292.2017162638425
 30
0.0
 10
428.0797193491316
 20
292.1728145209007
 30
0.0
 10
428.63814387526
 20
292.0984737504902
 30
0.0
 10
429.0117254980729
 20
292.0653750661957
 30
0.0
 10
429.76147689986
 20
292.0320439121017
 30
0.0
 10
430.1376465864693
 20
292.0318100398778
 30
0.0
 10
430.5151378434618
 20
292.0483752987146
 30
0.0
  0
SPLINE
  5
1BB
330
1F
100
AcDbEntity
  8
1
100
AcDbSpline
210
0.0
220
0.0
230
1.0
 70
     8
 71
     3
 72
     8
 73
     4
 74
     0
 42
0.000000001
 43
0.0000000001
 40
0.0
 40
0.0
 40
0.0
 40
0.0
 40
1.0
 40
1.0
 40
1.0
 40
1.0
 10
291.341919746932
 20
283.6937569811325
 30
0.0
 10
291.7965894191809
 20
283.6054227765391
 30
0.0
 10
292.2505445639737
 20
283.4991352789321
 30
0.0
 10
292.7038318185191
 20
283.3760662997922
 30
0.0
  0
SPLINE
  5
1BC
330
1F
100
AcDbEntity
  8
1
100
AcDbSpline
210
0.0
220
0.0
230
1.0
 70
     8
 71
     3
 72
    12
 73
     8
 74
     0
 42
0.000000001
 43
0.0000000001
 40
0.0
 40
0.0
 40
0.0
 40
0.0
 40
0.149569476036739
 40
0.149569476036739
 40
0.5747847380183691
 40
0.5747847380183691
 40
1.0
 40
1.0
 40
1.0
 40
1.0
 10
291.0225418811223
 20
302.5093137456444
 30
0.0
 10
291.1044870620622
 20
302.4994004007135
 30
0.0
 10
291.1866963569315
 20
302.4900451789225
 30
0.0
 10
291.5036598201413
 20
302.4563005610544
 30
0.0
 10
291.7403284650948
 20
302.4359770881857
 30
0.0
 10
292.2184071966945
 20
302.4055512582089
 30
0.0
 10
292.4598166404953
 20
302.3954474667187
 30
0.0
 10
292.7038318185471
 20
302.3910417047337
 30
0.0
  0
SPLINE
  5
1BD
330
1F
100
AcDbEntity
  8
1
100
AcDbSpline
210
0.0
220
0.0
230
1.0
 70
     8
 71
     3
 72
    30
 73
    26
 74
     0
 42
0.000000001
 43
0.0000000001
 40
0.0
 40
0.0
 40
0.0
 40
0.0
 40
0.0371991241613937
 40
0.0371991241613937
 40
0.1247264765103577
 40
0.1247264765103577
 40
0.2122538288593221
 40
0.2122538288593221
 40
0.2997811812082862
 40
0.2997811812082862
 40
0.3873085335572506
 40
0.3873085335572506
 40
0.4748358859062149
 40
0.4748358859062149
 40
0.562363238255179
 40
0.562363238255179
 40
0.6498905906041435
 40
0.6498905906041435
 40
0.7374179429531075
 40
0.7374179429531075
 40
0.8249452953020718
 40
0.8249452953020718
 40
0.9124726476510359
 40
0.9124726476510359
 40
1.0
 40
1.0
 40
1.0
 40
1.0
 10
347.0775768110839
 20
277.7139827570664
 30
0.0
 10
346.6020218091053
 20
277.6736824550077
 30
0.0
 10
346.1263571165791
 20
277.6343372366734
 30
0.0
 10
344.5311532031891
 20
277.5053441872498
 30
0.0
 10
343.4111705058608
 20
277.4196471657186
 30
0.0
 10
341.1704235438727
 20
277.2560710078551
 30
0.0
 10
340.0496597060824
 20
277.1781922393818
 30
0.0
 10
337.8076312732584
 20
277.0288064425056
 30
0.0
 10
336.6863669921263
 20
276.9573001132255
 30
0.0
 10
334.4435860061756
 20
276.8195815575141
 30
0.0
 10
333.3220695196088
 20
276.7533702796626
 30
0.0
 10
331.078992062621
 20
276.6255077144926
 30
0.0
 10
329.9574312288219
 20
276.5638575897509
 30
0.0
 10
327.7144273520125
 20
276.4446949662176
 30
0.0
 10
326.5929843746059
 20
276.3871838308515
 30
0.0
 10
324.3503298253854
 20
276.2761506363436
 30
0.0
 10
323.2290894887851
 20
276.2226289109014
 30
0.0
 10
320.9871854259665
 20
276.1196685048597
 30
0.0
 10
319.8664951396952
 20
276.0702301503814
 30
0.0
 10
317.6256668542019
 20
275.9756936522257
 30
0.0
 10
316.5055288101233
 20
275.9305973760399
 30
0.0
 10
314.2657854900697
 20
275.8451309791065
 30
0.0
 10
313.1461801186349
 20
275.8047627954738
 30
0.0
 10
310.907436410166
 20
275.7292071653712
 30
0.0
 10
309.78829793128
 20
275.6940216510575
 30
0.0
 10
308.6693387837551
 20
275.6616589418909
 30
0.0
  0
SPLINE
  5
1BE
330
1F
100
AcDbEntity
  8
1
100
AcDbSpline
210
0.0
220
0.0
230
1.0
 70
     8
 71
     3
 72
    18
 73
    14
 74
     0
 42
0.000000001
 43
0.0000000001
 40
0.0
 40
0.0
 40
0.0
 40
0.0
 40
0.180001799052312
 40
0.180001799052312
 40
0.3600035981046239
 40
0.3600035981046239
 40
0.540005397156936
 40
0.540005397156936
 40
0.7200071962092479
 40
0.7200071962092479
 40
0.9000089952615592
 40
0.9000089952615592
 40
1.0
 40
1.0
 40
1.0
 40
1.0
 10
313.5295140486371
 20
276.0584706213135
 30
0.0
 10
315.1534859383119
 20
276.1909839010019
 30
0.0
 10
316.7782175903204
 20
276.3263447211859
 30
0.0
 10
320.0295533045959
 20
276.5983772080364
 30
0.0
 10
321.6561590490884
 20
276.7350235301897
 30
0.0
 10
324.911291652551
 20
277.0062870011423
 30
0.0
 10
326.5398539885395
 20
277.140882027208
 30
0.0
 10
329.7983912048561
 20
277.40654664369
 30
0.0
 10
331.4283688613925
 20
277.5376010783938
 30
0.0
 10
334.6891752462627
 20
277.7972223027332
 30
0.0
 10
336.3200016965921
 20
277.925793182203
 30
0.0
 10
338.8567499871446
 20
278.1267692225725
 30
0.0
 10
339.7626717537422
 20
278.1987440636386
 30
0.0
 10
340.6685026324107
 20
278.2714352423782
 30
0.0
  0
SPLINE
  5
1BF
330
1F
100
AcDbEntity
  8
1
100
AcDbSpline
210
0.0
220
0.0
230
1.0
 70
     8
 71
     3
 72
    16
 73
    12
 74
     0
 42
0.000000001
 43
0.0000000001
 40
0.0
 40
0.0
 40
0.0
 40
0.0
 40
0.0624999999999996
 40
0.0624999999999996
 40
0.1249999999999993
 40
0.1249999999999993
 40
0.2499999999999986
 40
0.2499999999999986
 40
0.4999999999999972
 40
0.4999999999999972
 40
1.0
 40
1.0
 40
1.0
 40
1.0
 10
297.9048419452977
 20
302.2373824147682
 30
0.0
 10
297.8670273601533
 20
302.2373824147682
 30
0.0
 10
297.8291591048766
 20
302.2374422744003
 30
0.0
 10
297.7533142876566
 20
302.2376826007743
 30
0.0
 10
297.7153153749665
 20
302.2378633284823
 30
0.0
 10
297.60162746187
 20
302.2385836413347
 30
0.0
 10
297.5261027883056
 20
302.2393016321793
 30
0.0
 10
297.3003178355116
 20
302.2421441879297
 30
0.0
 10
297.1508457261242
 20
302.244959237102
 30
0.0
 10
296.7055153432623
 20
302.2558968143447
 30
0.0
 10
296.4127298329768
 20
302.2665443649268
 30
0.0
 10
296.1240312901005
 20
302.2794584894567
 30
0.0
  0
SPLINE
  5
1C0
330
1F
100
AcDbEntity
  8
1
100
AcDbSpline
210
0.0
220
0.0
230
1.0
 70
     8
 71
     3
 72
     8
 73
     4
 74
     0
 42
0.000000001
 43
0.0000000001
 40
0.0
 40
0.0
 40
0.0
 40
0.0
 40
1.0
 40
1.0
 40
1.0
 40
1.0
 10
423.7995894814439
 20
293.6127382996663
 30
0.0
 10
423.7522677540458
 20
293.6411761459573
 30
0.0
 10
423.7050473675331
 20
293.6699563824793
 30
0.0
 10
423.6579273158323
 20
293.6990830280988
 30
0.0
  0
SPLINE
  5
1C1
330
1F
100
AcDbEntity
  8
1
100
AcDbSpline
210
0.0
220
0.0
230
1.0
 70
     8
 71
     3
 72
    22
 73
    18
 74
     0
 42
0.000000001
 43
0.0000000001
 40
0.0
 40
0.0
 40
0.0
 40
0.0
 40
0.1250000000000002
 40
0.1250000000000002
 40
0.2500000000000003
 40
0.2500000000000003
 40
0.3750000000000005
 40
0.3750000000000005
 40
0.5000000000000007
 40
0.5000000000000007
 40
0.7500000000000004
 40
0.7500000000000004
 40
0.8125000000000001
 40
0.8125000000000001
 40
0.8749999999999998
 40
0.8749999999999998
 40
1.0
 40
1.0
 40
1.0
 40
1.0
 10
279.4048419452957
 20
270.5749994734093
 30
0.0
 10
279.53499409851
 20
270.6155412450409
 30
0.0
 10
279.667259146609
 20
270.6629377544423
 30
0.0
 10
279.9354112044686
 20
270.7691862767063
 30
0.0
 10
280.0713000386819
 20
270.8280456985243
 30
0.0
 10
280.3461968469045
 20
270.9554776944795
 30
0.0
 10
280.4852058821913
 20
271.0240545626075
 30
0.0
 10
280.7658937056754
 20
271.1694978837264
 30
0.0
 10
280.9075731169387
 20
271.2463669007259
 30
0.0
 10
281.3359857502435
 20
271.4876036962609
 30
0.0
 10
281.6260901406467
 20
271.6625420082196
 30
0.0
 10
281.9923362508405
 20
271.8939627450716
 30
0.0
 10
282.0657665801119
 20
271.9408891861748
 30
0.0
 10
282.2129405595083
 20
272.0359227649955
 30
0.0
 10
282.2867025736414
 20
272.0840420922385
 30
0.0
 10
282.5082108620675
 20
272.2299094254826
 30
0.0
 10
282.6561932338907
 20
272.329171020046
 30
0.0
 10
282.8043368819074
 20
272.4301147065228
 30
0.0
  0
SPLINE
  5
1C2
330
1F
100
AcDbEntity
  8
1
100
AcDbSpline
210
0.0
220
0.0
230
1.0
 70
     8
 71
     3
 72
    20
 73
    16
 74
     0
 42
0.000000001
 43
0.0000000001
 40
0.0
 40
0.0
 40
0.0
 40
0.0
 40
0.2499999999999995
 40
0.2499999999999995
 40
0.499999999999999
 40
0.499999999999999
 40
0.6249999999999988
 40
0.6249999999999988
 40
0.7499999999999984
 40
0.7499999999999984
 40
0.8124999999999985
 40
0.8124999999999985
 40
0.8749999999999985
 40
0.8749999999999985
 40
1.0
 40
1.0
 40
1.0
 40
1.0
 10
282.8043368819074
 20
280.9496078529583
 30
0.0
 10
282.4998126397368
 20
280.6637831971724
 30
0.0
 10
282.1998413938793
 20
280.3681630216255
 30
0.0
 10
281.6097939079074
 20
279.7545406495599
 30
0.0
 10
281.319712369751
 20
279.4365576661884
 30
0.0
 10
280.8927253252105
 20
278.9400445949939
 30
0.0
 10
280.7517539386189
 20
278.7712752087759
 30
0.0
 10
280.4726809881521
 20
278.4265927668795
 30
0.0
 10
280.3345788471445
 20
278.2506817714589
 30
0.0
 10
280.12972279277
 20
277.9808804529249
 30
0.0
 10
280.0618030612384
 20
277.8899321236642
 30
0.0
 10
279.9268322384033
 20
277.7060355498803
 30
0.0
 10
279.8599889956889
 20
277.6133710264497
 30
0.0
 10
279.6614441353286
 20
277.3331464422839
 30
0.0
 10
279.5317232420515
 20
277.1433607033185
 30
0.0
 10
279.4048419452957
 20
276.9503322945673
 30
0.0
  0
SPLINE
  5
1C3
330
1F
100
AcDbEntity
  8
1
100
AcDbSpline
210
0.0
220
0.0
230
1.0
 70
     8
 71
     3
 72
    14
 73
    10
 74
     0
 42
0.000000001
 43
0.0000000001
 40
0.0
 40
0.0
 40
0.0
 40
0.0
 40
0.25
 40
0.25
 40
0.5
 40
0.5
 40
0.75
 40
0.75
 40
1.0
 40
1.0
 40
1.0
 40
1.0
 10
296.1240312901004
 20
302.2794584894567
 30
0.0
 10
295.8372241253938
 20
302.2922880084564
 30
0.0
 10
295.5511388748982
 20
302.3044724148143
 30
0.0
 10
294.9799427870447
 20
302.3271179787799
 30
0.0
 10
294.6948305540708
 20
302.3375794207719
 30
0.0
 10
294.125204441256
 20
302.3564877955682
 30
0.0
 10
293.8406895462526
 20
302.3649358364465
 30
0.0
 10
293.2720157793831
 20
302.3796478681328
 30
0.0
 10
292.9878565395542
 20
302.3859135593094
 30
0.0
 10
292.7038318185471
 20
302.3910417047337
 30
0.0
  0
LINE
  5
1E3
330
1F
100
AcDbEntity
  8
4
100
AcDbLine
 10
269.703832
 20
288.907994
 30
0.0
 11
443.62652
 21
288.907994
 31
0.0
  0
LINE
  5
1E4
330
1F
100
AcDbEntity
  8
SK4
100
AcDbLine
 10
210.904842
 20
288.907994
 30
0.0
 11
277.404842
 21
288.907994
 31
0.0
  0
MTEXT
  5
1E5
330
1F
100
AcDbEntity
  8
SK6
100
AcDbMText
 10
299.563793
 20
249.353545
 30
0.0
 40
3.5
 41
0.0
 71
     7
 72
     5
  1
\W0.7147;805D-28-140-S32
  7
cesky
 73
     2
 44
0.8433729999999998
  0
MTEXT
  5
2FB
330
1F
100
AcDbEntity
  8
2
100
AcDbMText
 10
353.827842
 20
329.044517
 30
0.0
 40
3.5
 41
0.0
 71
     7
 72
     5
  1
\W0.7809;165
  7
cesky
 73
     2
 44
0.8433729999999998
  0
LINE
  5
2FC
330
1F
100
AcDbEntity
  8
2
100
AcDbLine
 10
439.4048419999999
 20
302.907994
 30
0.0
 11
439.4048419999999
 21
330.17035
 31
0.0
  0
LINE
  5
2FD
330
1F
100
AcDbEntity
  8
2
100
AcDbLine
 10
274.404842
 20
289.907567
 30
0.0
 11
274.404842
 21
330.17035
 31
0.0
  0
LINE
  5
2FE
330
1F
100
AcDbEntity
  8
2
100
AcDbLine
 10
439.4048419999999
 20
329.17035
 30
0.0
 11
274.404842
 21
329.17035
 31
0.0
  0
SOLID
  5
2FF
330
1F
100
AcDbEntity
  8
2
100
AcDbTrace
 10
439.4048419999999
 20
329.17035
 30
0.0
 11
435.904844
 21
328.553206
 31
0.0
 12
435.90484
 22
329.7874950000001
 32
0.0
 13
435.90484
 23
329.7874950000001
 33
0.0
  0
SOLID
  5
300
330
1F
100
AcDbEntity
  8
2
100
AcDbTrace
 10
274.404842
 20
329.17035
 30
0.0
 11
277.90484
 21
329.7874950000001
 31
0.0
 12
277.904844
 22
328.553206
 32
0.0
 13
277.904844
 23
328.553206
 33
0.0
  0
MTEXT
  5
301
330
1F
100
AcDbEntity
  8
2
100
AcDbMText
 10
456.958076
 20
285.835857
 30
0.0
 40
3.5
 41
0.0
 71
     7
 72
     5
  1
\W0.7045;28
  7
cesky
 11
0.0000000000000001
 21
1.0
 31
0.0
 73
     2
 44
0.8433729999999998
  0
MTEXT
  5
302
330
1F
100
AcDbEntity
  8
2
100
AcDbMText
 10
456.958076
 20
279.098357
 30
0.0
 40
3.5
 41
0.0
 71
     7
 72
     5
  1
\W3.0115;\H2.63;%%c\H3.50;
  7
cesky
 11
0.0000000000000001
 21
1.0
 31
0.0
 73
     2
 44
0.8433729999999998
  0
LINE
  5
303
330
1F
100
AcDbEntity
  8
2
100
AcDbLine
 10
441.4048419999999
 20
302.907994
 30
0.0
 11
458.1454929999999
 21
302.907994
 31
0.0
  0
LINE
  5
304
330
1F
100
AcDbEntity
  8
2
100
AcDbLine
 10
457.1454929999999
 20
302.907994
 30
0.0
 11
457.1454929999999
 21
278.940857
 31
0.0
  0
SOLID
  5
305
330
1F
100
AcDbEntity
  8
2
100
AcDbTrace
 10
457.1454929999999
 20
302.907994
 30
0.0
 11
457.7626379999999
 21
299.407996
 31
0.0
 12
456.528349
 22
299.407991
 32
0.0
 13
456.528349
 23
299.407991
 33
0.0
  0
MTEXT
  5
306
330
1F
100
AcDbEntity
  8
2
100
AcDbMText
 10
323.827842
 20
343.029854
 30
0.0
 40
3.5
 41
0.0
 71
     7
 72
     5
  1
\W0.7231;225
  7
cesky
 73
     2
 44
0.8433729999999998
  0
LINE
  5
307
330
1F
100
AcDbEntity
  8
2
100
AcDbLine
 10
439.4048419999999
 20
304.907994
 30
0.0
 11
439.4048419999999
 21
344.155687
 31
0.0
  0
LINE
  5
308
330
1F
100
AcDbEntity
  8
2
100
AcDbLine
 10
214.404842
 20
302.907994
 30
0.0
 11
214.404842
 21
344.155687
 31
0.0
  0
LINE
  5
309
330
1F
100
AcDbEntity
  8
2
100
AcDbLine
 10
439.4048419999999
 20
343.155687
 30
0.0
 11
214.404842
 21
343.155687
 31
0.0
  0
SOLID
  5
30A
330
1F
100
AcDbEntity
  8
2
100
AcDbTrace
 10
439.4048419999999
 20
343.155687
 30
0.0
 11
435.904844
 21
342.538543
 31
0.0
 12
435.90484
 22
343.772832
 32
0.0
 13
435.90484
 23
343.772832
 33
0.0
  0
SOLID
  5
30B
330
1F
100
AcDbEntity
  8
2
100
AcDbTrace
 10
214.404842
 20
343.155687
 30
0.0
 11
217.90484
 21
343.772832
 31
0.0
 12
217.904844
 22
342.538543
 32
0.0
 13
217.904844
 23
342.538543
 33
0.0
  0
MTEXT
  5
30C
330
1F
100
AcDbEntity
  8
2
100
AcDbMText
 10
242.590342
 20
329.044517
 30
0.0
 40
3.5
 41
0.0
 71
     7
 72
     5
  1
\W0.7045;60
  7
cesky
 73
     2
 44
0.8433729999999998
  0
LINE
  5
30D
330
1F
100
AcDbEntity
  8
2
100
AcDbLine
 10
274.404842
 20
288.907994
 30
0.0
 11
274.404842
 21
330.17035
 31
0.0
  0
LINE
  5
30E
330
1F
100
AcDbEntity
  8
2
100
AcDbLine
 10
214.404842
 20
302.907994
 30
0.0
 11
214.404842
 21
330.17035
 31
0.0
  0
LINE
  5
30F
330
1F
100
AcDbEntity
  8
2
100
AcDbLine
 10
274.404842
 20
329.17035
 30
0.0
 11
214.404842
 21
329.17035
 31
0.0
  0
SOLID
  5
310
330
1F
100
AcDbEntity
  8
2
100
AcDbTrace
 10
274.404842
 20
329.17035
 30
0.0
 11
270.904844
 21
328.553206
 31
0.0
 12
270.90484
 22
329.7874950000001
 32
0.0
 13
270.90484
 23
329.7874950000001
 33
0.0
  0
SOLID
  5
311
330
1F
100
AcDbEntity
  8
2
100
AcDbTrace
 10
214.404842
 20
329.17035
 30
0.0
 11
217.90484
 21
329.7874950000001
 31
0.0
 12
217.904844
 22
328.553206
 32
0.0
 13
217.904844
 23
328.553206
 33
0.0
  0
MTEXT
  5
312
330
1F
100
AcDbEntity
  8
2
100
AcDbMText
 10
360.541998
 20
314.470071
 30
0.0
 40
3.5
 41
0.0
 71
     7
 72
     5
  1
\W0.8654;146,5
  7
cesky
 73
     2
 44
0.8433729999999998
  0
LINE
  5
313
330
1F
100
AcDbEntity
  8
2
100
AcDbLine
 10
439.4048419999999
 20
304.907994
 30
0.0
 11
439.4048419999999
 21
315.595905
 31
0.0
  0
LINE
  5
314
330
1F
100
AcDbEntity
  8
2
100
AcDbLine
 10
292.883155
 20
303.257627
 30
0.0
 11
292.883155
 21
315.595905
 31
0.0
  0
LINE
  5
315
330
1F
100
AcDbEntity
  8
2
100
AcDbLine
 10
439.4048419999999
 20
314.595905
 30
0.0
 11
292.883155
 21
314.595905
 31
0.0
  0
SOLID
  5
316
330
1F
100
AcDbEntity
  8
2
100
AcDbTrace
 10
439.4048419999999
 20
314.595905
 30
0.0
 11
435.904844
 21
313.97876
 31
0.0
 12
435.90484
 22
315.213049
 32
0.0
 13
435.90484
 23
315.213049
 33
0.0
  0
SOLID
  5
317
330
1F
100
AcDbEntity
  8
2
100
AcDbTrace
 10
292.883155
 20
314.595905
 30
0.0
 11
296.383152
 21
315.213049
 31
0.0
 12
296.383157
 22
313.97876
 32
0.0
 13
296.383157
 23
313.97876
 33
0.0
  0
MTEXT
  5
318
330
1F
100
AcDbEntity
  8
SK2
100
AcDbMText
 10
205.348435
 20
290.434244
 30
0.0
 40
3.5
 41
0.0
 71
     7
 72
     5
  1
\W0.7045;32
  7
cesky
 11
0.0000000000000001
 21
1.0
 31
0.0
 73
     2
 44
0.8433729999999998
  0
MTEXT
  5
319
330
1F
100
AcDbEntity
  8
SK2
100
AcDbMText
 10
205.348435
 20
283.696744
 30
0.0
 40
3.5
 41
0.0
 71
     7
 72
     5
  1
\W3.0115;\H2.63;%%c\H3.50;
  7
cesky
 11
0.0000000000000001
 21
1.0
 31
0.0
 73
     2
 44
0.8433729999999998
  0
LINE
  5
31A
330
1F
100
AcDbEntity
  8
SK2
100
AcDbLine
 10
216.404842
 20
304.907994
 30
0.0
 11
204.535852
 21
304.907994
 31
0.0
  0
LINE
  5
31B
330
1F
100
AcDbEntity
  8
SK2
100
AcDbLine
 10
216.404842
 20
272.907994
 30
0.0
 11
204.535852
 21
272.907994
 31
0.0
  0
LINE
  5
31C
330
1F
100
AcDbEntity
  8
SK2
100
AcDbLine
 10
205.535852
 20
304.907994
 30
0.0
 11
205.535852
 21
272.907994
 31
0.0
  0
SOLID
  5
31D
330
1F
100
AcDbEntity
  8
SK2
100
AcDbTrace
 10
205.535852
 20
304.907994
 30
0.0
 11
206.152996
 21
301.407996
 31
0.0
 12
204.918707
 22
301.407991
 32
0.0
 13
204.918707
 23
301.407991
 33
0.0
  0
SOLID
  5
31E
330
1F
100
AcDbEntity
  8
SK2
100
AcDbTrace
 10
205.535852
 20
272.907994
 30
0.0
 11
204.918707
 21
276.407991
 31
0.0
 12
206.152996
 22
276.407996
 32
0.0
 13
206.152996
 23
276.407996
 33
0.0
  0
MTEXT
  5
31F
330
1F
100
AcDbEntity
  8
SK2
100
AcDbMText
 10
189.956072
 20
290.434244
 30
0.0
 40
3.5
 41
0.0
 71
     7
 72
     5
  1
\W0.7045;42
  7
cesky
 11
0.0000000000000001
 21
1.0
 31
0.0
 73
     2
 44
0.8433729999999998
  0
MTEXT
  5
320
330
1F
100
AcDbEntity
  8
SK2
100
AcDbMText
 10
189.956072
 20
283.696744
 30
0.0
 40
3.5
 41
0.0
 71
     7
 72
     5
  1
\W3.0115;\H2.63;%%c\H3.50;
  7
cesky
 11
0.0000000000000001
 21
1.0
 31
0.0
 73
     2
 44
0.8433729999999998
  0
LINE
  5
321
330
1F
100
AcDbEntity
  8
SK2
100
AcDbLine
 10
274.904842
 20
309.907994
 30
0.0
 11
189.143489
 21
309.907994
 31
0.0
  0
LINE
  5
322
330
1F
100
AcDbEntity
  8
SK2
100
AcDbLine
 10
274.904842
 20
267.907994
 30
0.0
 11
189.143489
 21
267.907994
 31
0.0
  0
LINE
  5
323
330
1F
100
AcDbEntity
  8
SK2
100
AcDbLine
 10
190.143489
 20
309.907994
 30
0.0
 11
190.143489
 21
267.907994
 31
0.0
  0
SOLID
  5
324
330
1F
100
AcDbEntity
  8
SK2
100
AcDbTrace
 10
190.143489
 20
309.907994
 30
0.0
 11
190.760634
 21
306.407996
 31
0.0
 12
189.526345
 22
306.407991
 32
0.0
 13
189.526345
 23
306.407991
 33
0.0
  0
SOLID
  5
325
330
1F
100
AcDbEntity
  8
SK2
100
AcDbTrace
 10
190.143489
 20
267.907994
 30
0.0
 11
189.526345
 21
271.4079910000001
 31
0.0
 12
190.760634
 22
271.407996
 32
0.0
 13
190.760634
 23
271.407996
 33
0.0
  0
LINE
  5
326
330
1F
100
AcDbEntity
  8
CUT
100
AcDbLine
 10
439.2974360653503
 20
295.8831879626113
 30
0.0
 11
439.4048419452957
 21
289.7352586122853
 31
0.0
  0
LINE
  5
327
330
1F
100
AcDbEntity
  8
CUT
100
AcDbLine
 10
438.958369314307
 20
296.4474361449545
 30
0.0
 11
439.2974360653503
 21
295.8831879626113
 31
0.0
  0
LINE
  5
32A
330
1F
100
AcDbEntity
  8
CUT
100
AcDbLine
 10
429.9251718287903
 20
302.5400568597496
 30
0.0
 11
437.8950637568931
 21
302.9043062618901
 31
0.0
  0
LINE
  5
32B
330
1F
100
AcDbEntity
  8
CUT
100
AcDbLine
 10
438.7016286938658
 20
302.1695058807888
 30
0.0
 11
438.958369314307
 21
296.4474361449545
 31
0.0
  0
LINE
  5
32C
330
1F
100
AcDbEntity
  8
CUT
100
AcDbLine
 10
439.4048419999999
 20
289.735259
 30
0.0
 11
439.4048419999999
 21
288.907994
 31
0.0
  0
LINE
  5
32D
330
1F
100
AcDbEntity
  8
CUT
100
AcDbLine
 10
439.4048419999999
 20
288.907994
 30
0.0
 11
429.187556
 21
288.907994
 31
0.0
  0
LINE
  5
32E
330
1F
100
AcDbEntity
  8
CUT
100
AcDbLine
 10
429.187556
 20
288.907994
 30
0.0
 11
429.187556
 21
301.734148
 31
0.0
  0
ARC
  5
32F
330
1F
100
AcDbEntity
  8
CUT
100
AcDbCircle
 10
437.9227310101854
 20
302.1239683329167
 30
0.0
 40
0.7808282527542204
100
AcDbArc
 50
7.497429971897618
 51
92.03059858075759
  0
ARC
  5
330
330
1F
100
AcDbEntity
  8
CUT
100
AcDbCircle
 10
437.9810979079073
 20
302.1372024564433
 30
0.0
 40
0.7212545491978304
100
AcDbArc
 50
2.56701219470269
 51
7.06010038352008
  0
ARC
  5
331
330
1F
100
AcDbEntity
  8
CUT
100
AcDbCircle
 10
429.9695030901338
 20
301.7593108347499
 30
0.0
 40
0.7823517831132885
100
AcDbArc
 50
96.01455363898326
 51
181.843139433455
  0
ARC
  5
332
330
1F
100
AcDbEntity
  8
CUT
100
AcDbCircle
 10
429.9582365473067
 20
301.8155059046583
 30
0.0
 40
0.7253050131733027
100
AcDbArc
 50
92.61286711669495
 51
95.59458300712121
  0
ENDSEC
  0
SECTION
  2
OBJECTS
  0
DICTIONARY
  5
C
330
0
100
AcDbDictionary
281
     1
  3
ACAD_CIP_PREVIOUS_PRODUCT_INFO
350
2F8
  3
ACAD_COLOR
350
2F3
  3
ACAD_DETAILVIEWSTYLE
350
2EF
  3
ACAD_GROUP
350
D
  3
ACAD_LAYOUT
350
1A
  3
ACAD_MATERIAL
350
43
  3
ACAD_MLEADERSTYLE
350
6B
  3
ACAD_MLINESTYLE
350
17
  3
ACAD_PLOTSETTINGS
350
19
  3
ACAD_PLOTSTYLENAME
350
E
  3
ACAD_SCALELIST
350
47
  3
ACAD_SECTIONVIEWSTYLE
350
2F0
  3
ACAD_TABLESTYLE
350
69
  3
ACAD_VISUALSTYLE
350
2A
  3
ACDB_RECOMPOSE_DATA
350
35E
  3
AcDbVariableDictionary
350
2AC
  0
DICTIONARY
  5
341
330
10
100
AcDbDictionary
280
     1
281
     1
  3
ADSK_XREC_LAYER_RECONCILED
360
342
  0
DICTIONARY
  5
343
330
333
100
AcDbDictionary
280
     1
281
     1
  3
ADSK_XREC_LAYER_RECONCILED
360
344
  0
DICTIONARY
  5
345
330
334
100
AcDbDictionary
280
     1
281
     1
  3
ADSK_XREC_LAYER_RECONCILED
360
346
  0
DICTIONARY
  5
347
330
335
100
AcDbDictionary
280
     1
281
     1
  3
ADSK_XREC_LAYER_RECONCILED
360
348
  0
DICTIONARY
  5
349
330
337
100
AcDbDictionary
280
     1
281
     1
  3
ADSK_XREC_LAYER_RECONCILED
360
34A
  0
DICTIONARY
  5
34B
330
338
100
AcDbDictionary
280
     1
281
     1
  3
ADSK_XREC_LAYER_RECONCILED
360
34C
  0
DICTIONARY
  5
34D
330
33A
100
AcDbDictionary
280
     1
281
     1
  3
ADSK_XREC_LAYER_RECONCILED
360
34E
  0
DICTIONARY
  5
34F
330
33B
100
AcDbDictionary
280
     1
281
     1
  3
ADSK_XREC_LAYER_RECONCILED
360
350
  0
DICTIONARY
  5
351
330
33C
100
AcDbDictionary
280
     1
281
     1
  3
ADSK_XREC_LAYER_RECONCILED
360
352
  0
DICTIONARY
  5
353
330
33D
100
AcDbDictionary
280
     1
281
     1
  3
ADSK_XREC_LAYER_RECONCILED
360
354
  0
DICTIONARY
  5
355
330
33E
100
AcDbDictionary
280
     1
281
     1
  3
ADSK_XREC_LAYER_RECONCILED
360
356
  0
DICTIONARY
  5
357
330
33F
100
AcDbDictionary
280
     1
281
     1
  3
ADSK_XREC_LAYER_RECONCILED
360
358
  0
DICTIONARY
  5
2F9
330
1F
100
AcDbDictionary
280
     1
281
     1
  3
ACAD_SORTENTS
360
2FA
  0
XRECORD
  5
2F8
102
{ACAD_REACTORS
330
C
102
}
330
C
100
AcDbXrecord
280
     1
300
ACD
300
2019
300
87084ACD_2019_0F
  0
DICTIONARY
  5
2F3
102
{ACAD_REACTORS
330
C
102
}
330
C
100
AcDbDictionary
281
     1
  0
DICTIONARY
  5
2EF
102
{ACAD_REACTORS
330
C
102
}
330
C
100
AcDbDictionary
281
     1
  3
Metric50
350
2F5
  0
DICTIONARY
  5
D
102
{ACAD_REACTORS
330
C
102
}
330
C
100
AcDbDictionary
281
     1
  3
NULOVY_BOD
350
340
  0
DICTIONARY
  5
1A
102
{ACAD_REACTORS
330
C
102
}
330
C
100
AcDbDictionary
281
     1
  3
Layout1
350
1E
  3
Layout2
350
26
  3
Model
350
22
  0
DICTIONARY
  5
43
102
{ACAD_REACTORS
330
C
102
}
330
C
100
AcDbDictionary
281
     1
  3
ByBlock
350
45
  3
ByLayer
350
44
  3
Global
350
46
  0
DICTIONARY
  5
6B
102
{ACAD_REACTORS
330
C
102
}
330
C
100
AcDbDictionary
281
     1
  3
Standard
350
6C
  0
DICTIONARY
  5
17
102
{ACAD_REACTORS
330
C
102
}
330
C
100
AcDbDictionary
281
     1
  3
Standard
350
18
  0
DICTIONARY
  5
19
102
{ACAD_REACTORS
330
C
102
}
330
C
100
AcDbDictionary
281
     1
  0
ACDBDICTIONARYWDFLT
  5
E
102
{ACAD_REACTORS
330
C
102
}
330
C
100
AcDbDictionary
281
     1
  3
Normal
350
F
100
AcDbDictionaryWithDefault
340
F
  0
DICTIONARY
  5
47
102
{ACAD_REACTORS
330
C
102
}
330
C
100
AcDbDictionary
281
     1
  3
A0
350
48
  3
A1
350
49
  3
A2
350
4A
  3
A3
350
4B
  3
A4
350
4C
  3
A5
350
4D
  3
A6
350
4E
  3
A7
350
4F
  3
A8
350
50
  3
A9
350
51
  3
B0
350
52
  3
B1
350
53
  3
B2
350
54
  3
B3
350
55
  3
B4
350
56
  3
B5
350
57
  3
B6
350
58
  3
B7
350
59
  3
B8
350
5A
  3
B9
350
5B
  3
C0
350
5C
  3
C1
350
5D
  3
C2
350
5E
  3
C3
350
5F
  3
C4
350
60
  3
C5
350
61
  3
C6
350
62
  3
C7
350
63
  3
C8
350
64
  3
C9
350
65
  3
D0
350
66
  3
D1
350
67
  3
D2
350
68
  0
DICTIONARY
  5
2F0
102
{ACAD_REACTORS
330
C
102
}
330
C
100
AcDbDictionary
281
     1
  3
Metric50
350
2F4
  0
DICTIONARY
  5
69
102
{ACAD_REACTORS
330
C
102
}
330
C
100
AcDbDictionary
281
     1
  3
Standard
350
6A
  0
DICTIONARY
  5
2A
102
{ACAD_REACTORS
330
C
102
}
330
C
100
AcDbDictionary
281
     1
  3
2dWireframe
350
2F
  3
Basic
350
32
  3
Brighten
350
36
  3
ColorChange
350
3A
  3
Conceptual
350
34
  3
Dim
350
35
  3
EdgeColorOff
350
3D
  3
Facepattern
350
39
  3
Flat
350
2B
  3
FlatWithEdges
350
2C
  3
Gouraud
350
2D
  3
GouraudWithEdges
350
2E
  3
Hidden
350
31
  3
JitterOff
350
3B
  3
Linepattern
350
38
  3
OverhangOff
350
3C
  3
Realistic
350
33
  3
Shaded
350
42
  3
Shaded with edges
350
41
  3
Shades of Gray
350
3E
  3
Sketchy
350
3F
  3
Thicken
350
37
  3
Wireframe
350
30
  3
X-Ray
350
40
  0
XRECORD
  5
35E
102
{ACAD_REACTORS
330
C
102
}
330
C
100
AcDbXrecord
280
     1
 90
        1
330
6A
  0
DICTIONARY
  5
2AC
102
{ACAD_REACTORS
330
C
102
}
330
C
100
AcDbDictionary
281
     1
  3
CANNOSCALE
350
2AD
  3
CMLEADERSTYLE
350
2EE
  3
CTABLESTYLE
350
2ED
  3
CVIEWDETAILSTYLE
350
359
  3
CVIEWSECTIONSTYLE
350
35A
  3
MSLTSCALE
350
2AE
  3
XCLIPFRAME
350
35B
  0
XRECORD
  5
342
102
{ACAD_REACTORS
330
341
102
}
330
341
100
AcDbXrecord
280
     1
290
     1
  0
XRECORD
  5
344
102
{ACAD_REACTORS
330
343
102
}
330
343
100
AcDbXrecord
280
     1
290
     1
  0
XRECORD
  5
346
102
{ACAD_REACTORS
330
345
102
}
330
345
100
AcDbXrecord
280
     1
290
     1
  0
XRECORD
  5
348
102
{ACAD_REACTORS
330
347
102
}
330
347
100
AcDbXrecord
280
     1
290
     1
  0
XRECORD
  5
34A
102
{ACAD_REACTORS
330
349
102
}
330
349
100
AcDbXrecord
280
     1
290
     1
  0
XRECORD
  5
34C
102
{ACAD_REACTORS
330
34B
102
}
330
34B
100
AcDbXrecord
280
     1
290
     1
  0
XRECORD
  5
34E
102
{ACAD_REACTORS
330
34D
102
}
330
34D
100
AcDbXrecord
280
     1
290
     1
  0
XRECORD
  5
350
102
{ACAD_REACTORS
330
34F
102
}
330
34F
100
AcDbXrecord
280
     1
290
     1
  0
XRECORD
  5
352
102
{ACAD_REACTORS
330
351
102
}
330
351
100
AcDbXrecord
280
     1
290
     1
  0
XRECORD
  5
354
102
{ACAD_REACTORS
330
353
102
}
330
353
100
AcDbXrecord
280
     1
290
     1
  0
XRECORD
  5
356
102
{ACAD_REACTORS
330
355
102
}
330
355
100
AcDbXrecord
280
     1
290
     1
  0
XRECORD
  5
358
102
{ACAD_REACTORS
330
357
102
}
330
357
100
AcDbXrecord
280
     1
290
     1
  0
SORTENTSTABLE
  5
2FA
102
{ACAD_REACTORS
330
2F9
102
}
330
2F9
100
AcDbSortentsTable
330
1F
331
2FB
  5
21E
331
2FC
  5
237
331
2FD
  5
2FB
331
2FE
  5
2FC
331
2FF
  5
2FD
331
300
  5
2FE
331
301
  5
2FF
331
302
  5
300
331
303
  5
301
331
304
  5
302
331
305
  5
303
331
306
  5
314
331
307
  5
315
331
308
  5
316
331
309
  5
317
331
30A
  5
318
331
30B
  5
319
331
30C
  5
31A
331
30D
  5
31B
331
30E
  5
31C
331
30F
  5
31D
331
310
  5
31E
331
311
  5
31F
331
312
  5
320
331
313
  5
321
331
314
  5
322
331
315
  5
323
331
316
  5
324
331
317
  5
325
331
318
  5
306
331
319
  5
307
331
31A
  5
308
331
31B
  5
309
331
31C
  5
30A
331
31D
  5
30B
331
31E
  5
30C
331
31F
  5
30D
331
320
  5
30E
331
321
  5
30F
331
322
  5
310
331
323
  5
311
331
324
  5
312
331
325
  5
313
331
32A
  5
32E
331
32B
  5
32F
331
32C
  5
330
331
32D
  5
331
331
32E
  5
332
331
32F
  5
32A
331
330
  5
32B
331
331
  5
32C
331
332
  5
32D
  0
ACDBDETAILVIEWSTYLE
  5
2F5
102
{ACAD_XDICTIONARY
360
392
102
}
102
{ACAD_REACTORS
330
2EF
102
}
330
2EF
100
AcDbModelDocViewStyle
 70
     0
  3
Metric50
290
     0
100
AcDbDetailViewStyle
 70
     0
 71
     0
 90
        3
 71
     1
340
11
 62
   256
 40
5.0
340
0
 62
   256
 40
5.0
300

 40
0.0
280
     1
 71
     2
340
16
 90
       25
 62
   256
 71
     3
340
11
 62
   256
 40
5.0
 90
        0
 40
15.0
 90
        1
300
%<\AcVar ViewDetailId>% (%<\AcVar ViewScale \f "%sn">%)
 71
     4
340
16
 90
       25
 62
   256
340
16
 90
       25
 62
   256
280
     0
  0
GROUP
  5
340
102
{ACAD_REACTORS
330
D
102
}
330
D
100
AcDbGroup
300

 70
     0
 71
     1
340
73
  0
LAYOUT
  5
1E
102
{ACAD_REACTORS
330
1A
102
}
330
1A
100
AcDbPlotSettings
  1

  2
none_device
  4

  6

 40
0.0
 41
0.0
 42
0.0
 43
0.0
 44
0.0
 45
0.0
 46
0.0
 47
0.0
 48
0.0
 49
0.0
140
0.0
141
0.0
142
1.0
143
1.0
 70
   688
 72
     0
 73
     0
 74
     5
  7

 75
    16
147
1.0
 76
     0
 77
     2
 78
   300
148
0.0
149
0.0
100
AcDbLayout
  1
Layout1
 70
     1
 71
     1
 10
-0.5
 20
-0.5
 11
5.0
 21
5.0
 12
0.0
 22
0.0
 32
0.0
 14
-0.5
 24
-0.5
 34
-0.5
 15
5.0
 25
5.0
 35
5.0
146
0.0
 13
0.0
 23
0.0
 33
0.0
 16
1.0
 26
0.0
 36
0.0
 17
0.0
 27
1.0
 37
0.0
 76
     0
330
1B
  0
LAYOUT
  5
26
102
{ACAD_REACTORS
330
1A
102
}
330
1A
100
AcDbPlotSettings
  1

  2
none_device
  4

  6

 40
0.0
 41
0.0
 42
0.0
 43
0.0
 44
0.0
 45
0.0
 46
0.0
 47
0.0
 48
0.0
 49
0.0
140
0.0
141
0.0
142
1.0
143
1.0
 70
   688
 72
     0
 73
     0
 74
     5
  7

 75
    16
147
1.0
 76
     0
 77
     2
 78
   300
148
0.0
149
0.0
100
AcDbLayout
  1
Layout2
 70
     1
 71
     2
 10
0.0
 20
0.0
 11
0.0
 21
0.0
 12
0.0
 22
0.0
 32
0.0
 14
0.0
 24
0.0
 34
0.0
 15
0.0
 25
0.0
 35
0.0
146
0.0
 13
0.0
 23
0.0
 33
0.0
 16
1.0
 26
0.0
 36
0.0
 17
0.0
 27
1.0
 37
0.0
 76
     0
330
23
  0
LAYOUT
  5
22
102
{ACAD_REACTORS
330
1A
102
}
330
1A
100
AcDbPlotSettings
  1

  2
none_device
  4
Letter_(8.50_x_11.00_Inches)
  6

 40
6.349999999999999
 41
6.349999999999999
 42
6.350005
 43
6.350005
 44
215.9
 45
279.4
 46
0.0
 47
0.0
 48
0.0
 49
0.0
140
0.0
141
0.0
142
1.0
143
1.0
 70
  1712
 72
     0
 73
     0
 74
     0
  7

 75
     0
147
1.0
 76
     0
 77
     2
 78
   300
148
0.0
149
0.0
100
AcDbLayout
  1
Model
 70
     1
 71
     0
 10
-0.5
 20
-0.5
 11
5.0
 21
5.0
 12
0.0
 22
0.0
 32
0.0
 14
-0.5
 24
-0.5
 34
-0.5
 15
5.0
 25
5.0
 35
5.0
146
0.0
 13
0.0
 23
0.0
 33
0.0
 16
1.0
 26
0.0
 36
0.0
 17
0.0
 27
1.0
 37
0.0
 76
     0
330
1F
331
29
  0
MATERIAL
  5
45
102
{ACAD_XDICTIONARY
360
2E2
102
}
102
{ACAD_REACTORS
330
43
102
}
330
43
100
AcDbMaterial
  1
ByBlock
  0
MATERIAL
  5
44
102
{ACAD_XDICTIONARY
360
2E0
102
}
102
{ACAD_REACTORS
330
43
102
}
330
43
100
AcDbMaterial
  1
ByLayer
  0
MATERIAL
  5
46
102
{ACAD_XDICTIONARY
360
2E4
102
}
102
{ACAD_REACTORS
330
43
102
}
330
43
100
AcDbMaterial
  1
Global
  0
MLEADERSTYLE
  5
6C
102
{ACAD_REACTORS
330
6B
102
}
330
6B
100
AcDbMLeaderStyle
170
     2
171
     1
172
     0
 90
        2
 40
0.0
 41
0.0
173
     1
 91
-1056964608
340
14
 92
       -2
290
     1
 42
0.09
291
     1
 43
0.36
  3
Standard
 44
0.18
300

342
11
174
     1
178
     6
175
     1
176
     0
 93
-1056964608
 45
0.18
292
     0
297
     0
 46
0.18
 94
-1056964608
 47
1.0
 49
1.0
140
1.0
293
     1
141
0.0
294
     1
177
     0
142
1.0
295
     0
296
     0
143
0.125
1001
ACAD_MLEADERVER
1070
     2
  0
MLINESTYLE
  5
18
102
{ACAD_REACTORS
330
17
102
}
330
17
100
AcDbMlineStyle
  2
STANDARD
 70
     0
  3

 62
   256
 51
90.0
 52
90.0
 71
     2
 49
0.5
 62
   256
  6
BYLAYER
 49
-0.5
 62
   256
  6
BYLAYER
  0
ACDBPLACEHOLDER
  5
F
102
{ACAD_REACTORS
330
E
102
}
330
E
  0
SCALE
  5
48
102
{ACAD_REACTORS
330
47
102
}
330
47
100
AcDbScale
 70
     0
300
1:1
140
1.0
141
1.0
290
     1
  0
SCALE
  5
49
102
{ACAD_REACTORS
330
47
102
}
330
47
100
AcDbScale
 70
     0
300
1:2
140
1.0
141
2.0
290
     0
  0
SCALE
  5
4A
102
{ACAD_REACTORS
330
47
102
}
330
47
100
AcDbScale
 70
     0
300
1:4
140
1.0
141
4.0
290
     0
  0
SCALE
  5
4B
102
{ACAD_REACTORS
330
47
102
}
330
47
100
AcDbScale
 70
     0
300
1:5
140
1.0
141
5.0
290
     0
  0
SCALE
  5
4C
102
{ACAD_REACTORS
330
47
102
}
330
47
100
AcDbScale
 70
     0
300
1:8
140
1.0
141
8.0
290
     0
  0
SCALE
  5
4D
102
{ACAD_REACTORS
330
47
102
}
330
47
100
AcDbScale
 70
     0
300
1:10
140
1.0
141
10.0
290
     0
  0
SCALE
  5
4E
102
{ACAD_REACTORS
330
47
102
}
330
47
100
AcDbScale
 70
     0
300
1:16
140
1.0
141
16.0
290
     0
  0
SCALE
  5
4F
102
{ACAD_REACTORS
330
47
102
}
330
47
100
AcDbScale
 70
     0
300
1:20
140
1.0
141
20.0
290
     0
  0
SCALE
  5
50
102
{ACAD_REACTORS
330
47
102
}
330
47
100
AcDbScale
 70
     0
300
1:30
140
1.0
141
30.0
290
     0
  0
SCALE
  5
51
102
{ACAD_REACTORS
330
47
102
}
330
47
100
AcDbScale
 70
     0
300
1:40
140
1.0
141
40.0
290
     0
  0
SCALE
  5
52
102
{ACAD_REACTORS
330
47
102
}
330
47
100
AcDbScale
 70
     0
300
1:50
140
1.0
141
50.0
290
     0
  0
SCALE
  5
53
102
{ACAD_REACTORS
330
47
102
}
330
47
100
AcDbScale
 70
     0
300
1:100
140
1.0
141
100.0
290
     0
  0
SCALE
  5
54
102
{ACAD_REACTORS
330
47
102
}
330
47
100
AcDbScale
 70
     0
300
2:1
140
2.0
141
1.0
290
     0
  0
SCALE
  5
55
102
{ACAD_REACTORS
330
47
102
}
330
47
100
AcDbScale
 70
     0
300
4:1
140
4.0
141
1.0
290
     0
  0
SCALE
  5
56
102
{ACAD_REACTORS
330
47
102
}
330
47
100
AcDbScale
 70
     0
300
8:1
140
8.0
141
1.0
290
     0
  0
SCALE
  5
57
102
{ACAD_REACTORS
330
47
102
}
330
47
100
AcDbScale
 70
     0
300
10:1
140
10.0
141
1.0
290
     0
  0
SCALE
  5
58
102
{ACAD_REACTORS
330
47
102
}
330
47
100
AcDbScale
 70
     0
300
100:1
140
100.0
141
1.0
290
     0
  0
SCALE
  5
59
102
{ACAD_REACTORS
330
47
102
}
330
47
100
AcDbScale
 70
     0
300
1/128" = 1'-0"
140
0.007812
141
12.0
290
     0
  0
SCALE
  5
5A
102
{ACAD_REACTORS
330
47
102
}
330
47
100
AcDbScale
 70
     0
300
1/64" = 1'-0"
140
0.015625
141
12.0
290
     0
  0
SCALE
  5
5B
102
{ACAD_REACTORS
330
47
102
}
330
47
100
AcDbScale
 70
     0
300
1/32" = 1'-0"
140
0.03125
141
12.0
290
     0
  0
SCALE
  5
5C
102
{ACAD_REACTORS
330
47
102
}
330
47
100
AcDbScale
 70
     0
300
1/16" = 1'-0"
140
0.0625
141
12.0
290
     0
  0
SCALE
  5
5D
102
{ACAD_REACTORS
330
47
102
}
330
47
100
AcDbScale
 70
     0
300
3/32" = 1'-0"
140
0.09375
141
12.0
290
     0
  0
SCALE
  5
5E
102
{ACAD_REACTORS
330
47
102
}
330
47
100
AcDbScale
 70
     0
300
1/8" = 1'-0"
140
0.125
141
12.0
290
     0
  0
SCALE
  5
5F
102
{ACAD_REACTORS
330
47
102
}
330
47
100
AcDbScale
 70
     0
300
3/16" = 1'-0"
140
0.1875
141
12.0
290
     0
  0
SCALE
  5
60
102
{ACAD_REACTORS
330
47
102
}
330
47
100
AcDbScale
 70
     0
300
1/4" = 1'-0"
140
0.25
141
12.0
290
     0
  0
SCALE
  5
61
102
{ACAD_REACTORS
330
47
102
}
330
47
100
AcDbScale
 70
     0
300
3/8" = 1'-0"
140
0.375
141
12.0
290
     0
  0
SCALE
  5
62
102
{ACAD_REACTORS
330
47
102
}
330
47
100
AcDbScale
 70
     0
300
1/2" = 1'-0"
140
0.5
141
12.0
290
     0
  0
SCALE
  5
63
102
{ACAD_REACTORS
330
47
102
}
330
47
100
AcDbScale
 70
     0
300
3/4" = 1'-0"
140
0.75
141
12.0
290
     0
  0
SCALE
  5
64
102
{ACAD_REACTORS
330
47
102
}
330
47
100
AcDbScale
 70
     0
300
1" = 1'-0"
140
1.0
141
12.0
290
     0
  0
SCALE
  5
65
102
{ACAD_REACTORS
330
47
102
}
330
47
100
AcDbScale
 70
     0
300
1-1/2" = 1'-0"
140
1.5
141
12.0
290
     0
  0
SCALE
  5
66
102
{ACAD_REACTORS
330
47
102
}
330
47
100
AcDbScale
 70
     0
300
3" = 1'-0"
140
3.0
141
12.0
290
     0
  0
SCALE
  5
67
102
{ACAD_REACTORS
330
47
102
}
330
47
100
AcDbScale
 70
     0
300
6" = 1'-0"
140
6.0
141
12.0
290
     0
  0
SCALE
  5
68
102
{ACAD_REACTORS
330
47
102
}
330
47
100
AcDbScale
 70
     0
300
1'-0" = 1'-0"
140
12.0
141
12.0
290
     0
  0
ACDBSECTIONVIEWSTYLE
  5
2F4
102
{ACAD_XDICTIONARY
360
390
102
}
102
{ACAD_REACTORS
330
2F0
102
}
330
2F0
100
AcDbModelDocViewStyle
 70
     0
  3
Metric50
290
     0
100
AcDbSectionViewStyle
 70
     0
 71
     0
 90
      102
 71
     1
340
11
 62
   256
 40
5.0
340
0
340
0
 62
   256
 40
5.0
300
I, O, Q, S, X, Z
 40
10.0
 90
        0
 40
2.5
 90
        0
 71
     2
340
16
 90
       25
 62
   256
340
16
 90
       50
 62
   256
 40
5.0
 40
2.5
 40
5.0
 71
     3
340
11
 62
   256
 40
5.0
 90
        0
 40
15.0
 90
        1
300
%<\AcVar ViewSectionStartId>%-%<\AcVar ViewSectionEndId>% (%<\AcVar ViewScale \f "%sn">%)
 71
     4
 62
   256
 62
   257
300
ANSI31
 40
1.0
 90
        0
290
     0
290
     0
 90
        6
 40
0.0
 40
1.570796326794896
 40
0.2617993877991494
 40
1.308996938995747
 40
-0.2617993877991494
 40
1.832595714594046
  0
TABLESTYLE
  5
6A
102
{ACAD_XDICTIONARY
360
2E6
102
}
102
{ACAD_REACTORS
330
69
102
}
330
69
100
AcDbTableStyle
  3
Standard
 70
     0
 71
     0
 40
0.06
 41
0.06
280
     0
281
     0
  7
Standard
140
0.18
170
     2
 62
     0
 63
     7
283
     0
274
    -2
284
     1
 64
     0
275
    -2
285
     1
 65
     0
276
    -2
286
     1
 66
     0
277
    -2
287
     1
 67
     0
278
    -2
288
     1
 68
     0
279
    -2
289
     1
 69
     0
  7
Standard
140
0.25
170
     5
 62
     0
 63
     7
283
     0
274
    -2
284
     1
 64
     0
275
    -2
285
     1
 65
     0
276
    -2
286
     1
 66
     0
277
    -2
287
     1
 67
     0
278
    -2
288
     1
 68
     0
279
    -2
289
     1
 69
     0
  7
Standard
140
0.18
170
     5
 62
     0
 63
     7
283
     0
274
    -2
284
     1
 64
     0
275
    -2
285
     1
 65
     0
276
    -2
286
     1
 66
     0
277
    -2
287
     1
 67
     0
278
    -2
288
     1
 68
     0
279
    -2
289
     1
 69
     0
  0
VISUALSTYLE
  5
2F
102
{ACAD_XDICTIONARY
360
367
102
}
102
{ACAD_REACTORS
330
2A
102
}
330
2A
100
AcDbVisualStyle
  2

 70
     4
 71
     0
 72
     2
 73
     0
 90
        0
 40
-0.6
 41
-30.0
 62
     5
 63
     7
421
 16777215
 74
     1
 91
        4
 64
     7
 65
   257
 75
     1
175
     1
 42
1.0
 92
        0
 66
   257
 43
1.0
 76
     1
 77
     6
 78
     2
 67
     7
 79
     5
170
     0
171
     0
290
     0
174
     0
 93
        1
 44
0.0
173
     0
291
     0
 45
0.0
1001
ACAD
1000
AcDbSavedByObjectVersion
1070
     0
  0
VISUALSTYLE
  5
32
102
{ACAD_XDICTIONARY
360
36D
102
}
102
{ACAD_REACTORS
330
2A
102
}
330
2A
100
AcDbVisualStyle
  2

 70
     7
 71
     1
 72
     0
 73
     1
 90
        0
 40
-0.6
 41
-30.0
 62
     5
 63
     7
421
 16777215
 74
     0
 91
        4
 64
     7
 65
   257
 75
     1
175
     1
 42
1.0
 92
        8
 66
     7
 43
1.0
 76
     1
 77
     6
 78
     2
 67
     7
 79
     5
170
     0
171
     0
290
     0
174
     0
 93
        1
 44
0.0
173
     0
291
     1
 45
0.0
1001
ACAD
1000
AcDbSavedByObjectVersion
1070
     0
  0
VISUALSTYLE
  5
36
102
{ACAD_XDICTIONARY
360
375
102
}
102
{ACAD_REACTORS
330
2A
102
}
330
2A
100
AcDbVisualStyle
  2

 70
    12
 71
     2
 72
     2
 73
     0
 90
        0
 40
-0.6
 41
-30.0
 62
     5
 63
     7
421
 16777215
 74
     1
 91
        4
 64
     7
 65
   257
 75
     1
175
     1
 42
1.0
 92
        8
 66
     7
 43
1.0
 76
     1
 77
     6
 78
     2
 67
     7
 79
     5
170
     0
171
     0
290
     0
174
     0
 93
        1
 44
50.0
173
     0
291
     1
 45
0.0
1001
ACAD
1000
AcDbSavedByObjectVersion
1070
     0
  0
VISUALSTYLE
  5
3A
102
{ACAD_XDICTIONARY
360
37D
102
}
102
{ACAD_REACTORS
330
2A
102
}
330
2A
100
AcDbVisualStyle
  2

 70
    16
 71
     2
 72
     2
 73
     3
 90
        0
 40
-0.6
 41
-30.0
 62
     5
 63
     8
421
  8421504
 74
     1
 91
        4
 64
     7
 65
   257
 75
     1
175
     1
 42
1.0
 92
        8
 66
     8
424
  8421504
 43
1.0
 76
     1
 77
     6
 78
     2
 67
     7
 79
     5
170
     0
171
     0
290
     0
174
     0
 93
        1
 44
0.0
173
     0
291
     1
 45
0.0
1001
ACAD
1000
AcDbSavedByObjectVersion
1070
     0
  0
VISUALSTYLE
  5
34
102
{ACAD_XDICTIONARY
360
371
102
}
102
{ACAD_REACTORS
330
2A
102
}
330
2A
100
AcDbVisualStyle
  2

 70
     9
 71
     3
 72
     2
 73
     0
 90
        0
 40
-0.6
 41
-30.0
 62
     5
 63
     7
421
 16777215
 74
     2
 91
        2
 64
     7
 65
   257
 75
     1
175
     1
 42
179.0
 92
        8
 66
     7
 43
1.0
 76
     1
 77
     6
 78
     2
 67
     7
 79
     3
170
     0
171
     0
290
     0
174
     0
 93
        1
 44
0.0
173
     0
291
     0
 45
0.0
1001
ACAD
1000
AcDbSavedByObjectVersion
1070
     0
  0
VISUALSTYLE
  5
35
102
{ACAD_XDICTIONARY
360
373
102
}
102
{ACAD_REACTORS
330
2A
102
}
330
2A
100
AcDbVisualStyle
  2

 70
    11
 71
     2
 72
     2
 73
     0
 90
        0
 40
-0.6
 41
-30.0
 62
     5
 63
     7
421
 16777215
 74
     1
 91
        4
 64
     7
 65
   257
 75
     1
175
     1
 42
1.0
 92
        8
 66
     7
 43
1.0
 76
     1
 77
     6
 78
     2
 67
     7
 79
     5
170
     0
171
     0
290
     0
174
     0
 93
        1
 44
-50.0
173
     0
291
     1
 45
0.0
1001
ACAD
1000
AcDbSavedByObjectVersion
1070
     0
  0
VISUALSTYLE
  5
3D
102
{ACAD_XDICTIONARY
360
383
102
}
102
{ACAD_REACTORS
330
2A
102
}
330
2A
100
AcDbVisualStyle
  2

 70
    22
 71
     2
 72
     2
 73
     0
 90
        0
 40
-0.6
 41
-30.0
 62
     5
 63
     7
421
 16777215
 74
     1
 91
        4
 64
     7
 65
   257
 75
     1
175
     1
 42
1.0
 92
        8
 66
     7
 43
1.0
 76
     1
 77
     6
 78
     2
 67
     7
 79
     5
170
     0
171
     0
290
     0
174
     0
 93
        1
 44
0.0
173
     0
291
     1
 45
0.0
1001
ACAD
1000
AcDbSavedByObjectVersion
1070
     0
  0
VISUALSTYLE
  5
39
102
{ACAD_XDICTIONARY
360
37B
102
}
102
{ACAD_REACTORS
330
2A
102
}
330
2A
100
AcDbVisualStyle
  2

 70
    15
 71
     2
 72
     2
 73
     0
 90
        0
 40
-0.6
 41
-30.0
 62
     5
 63
     7
421
 16777215
 74
     1
 91
        4
 64
     7
 65
   257
 75
     1
175
     1
 42
1.0
 92
        8
 66
     7
 43
1.0
 76
     1
 77
     6
 78
     2
 67
     7
 79
     5
170
     0
171
     0
290
     0
174
     0
 93
        1
 44
0.0
173
     0
291
     1
 45
0.0
1001
ACAD
1000
AcDbSavedByObjectVersion
1070
     0
  0
VISUALSTYLE
  5
2B
102
{ACAD_XDICTIONARY
360
35F
102
}
102
{ACAD_REACTORS
330
2A
102
}
330
2A
100
AcDbVisualStyle
  2

 70
     0
 71
     2
 72
     1
 73
     1
 90
        2
 40
-0.6
 41
30.0
 62
     5
 63
     7
421
 16777215
 74
     0
 91
        0
 64
     7
 65
   257
 75
     1
175
     1
 42
1.0
 92
        8
 66
     7
 43
1.0
 76
     1
 77
     6
 78
     2
 67
     7
 79
     5
170
     0
171
     0
290
     0
174
     0
 93
       13
 44
0.0
173
     0
291
     1
 45
0.0
1001
ACAD
1000
AcDbSavedByObjectVersion
1070
     0
  0
VISUALSTYLE
  5
2C
102
{ACAD_XDICTIONARY
360
361
102
}
102
{ACAD_REACTORS
330
2A
102
}
330
2A
100
AcDbVisualStyle
  2

 70
     1
 71
     2
 72
     1
 73
     1
 90
        2
 40
-0.6
 41
30.0
 62
     5
 63
     7
421
 16777215
 74
     1
 91
        0
 64
     7
 65
   257
 75
     1
175
     1
 42
1.0
 92
        0
 66
   257
 43
1.0
 76
     1
 77
     6
 78
     2
 67
     7
 79
     5
170
     0
171
     0
290
     0
174
     0
 93
       13
 44
0.0
173
     0
291
     1
 45
0.0
1001
ACAD
1000
AcDbSavedByObjectVersion
1070
     0
  0
VISUALSTYLE
  5
2D
102
{ACAD_XDICTIONARY
360
363
102
}
102
{ACAD_REACTORS
330
2A
102
}
330
2A
100
AcDbVisualStyle
  2

 70
     2
 71
     2
 72
     2
 73
     1
 90
        2
 40
-0.6
 41
30.0
 62
     5
 63
     7
421
 16777215
 74
     0
 91
        0
 64
     7
 65
   257
 75
     1
175
     1
 42
1.0
 92
        0
 66
     7
 43
1.0
 76
     1
 77
     6
 78
     2
 67
     7
 79
     5
170
     0
171
     0
290
     0
174
     0
 93
       13
 44
0.0
173
     0
291
     1
 45
0.0
1001
ACAD
1000
AcDbSavedByObjectVersion
1070
     0
  0
VISUALSTYLE
  5
2E
102
{ACAD_XDICTIONARY
360
365
102
}
102
{ACAD_REACTORS
330
2A
102
}
330
2A
100
AcDbVisualStyle
  2

 70
     3
 71
     2
 72
     2
 73
     1
 90
        2
 40
-0.6
 41
30.0
 62
     5
 63
     7
421
 16777215
 74
     1
 91
        0
 64
     7
 65
   257
 75
     1
175
     1
 42
1.0
 92
        0
 66
   257
 43
1.0
 76
     1
 77
     6
 78
     2
 67
     7
 79
     5
170
     0
171
     0
290
     0
174
     0
 93
       13
 44
0.0
173
     0
291
     1
 45
0.0
1001
ACAD
1000
AcDbSavedByObjectVersion
1070
     0
  0
VISUALSTYLE
  5
31
102
{ACAD_XDICTIONARY
360
36B
102
}
102
{ACAD_REACTORS
330
2A
102
}
330
2A
100
AcDbVisualStyle
  2

 70
     6
 71
     1
 72
     2
 73
     2
 90
        0
 40
-0.6
 41
-30.0
 62
     5
 63
     7
421
 16777215
 74
     2
 91
        2
 64
     7
 65
   257
 75
     2
175
     1
 42
40.0
 92
        0
 66
   257
 43
1.0
 76
     1
 77
     6
 78
     2
 67
     7
 79
     3
170
     0
171
     0
290
     0
174
     0
 93
        1
 44
0.0
173
     0
291
     0
 45
0.0
1001
ACAD
1000
AcDbSavedByObjectVersion
1070
     0
  0
VISUALSTYLE
  5
3B
102
{ACAD_XDICTIONARY
360
37F
102
}
102
{ACAD_REACTORS
330
2A
102
}
330
2A
100
AcDbVisualStyle
  2

 70
    20
 71
     2
 72
     2
 73
     0
 90
        0
 40
-0.6
 41
-30.0
 62
     5
 63
     7
421
 16777215
 74
     1
 91
        4
 64
     7
 65
   257
 75
     1
175
     1
 42
1.0
 92
       10
 66
     7
 43
1.0
 76
     1
 77
     6
 78
     2
 67
     7
 79
     5
170
     0
171
     0
290
     0
174
     0
 93
        1
 44
0.0
173
     0
291
     1
 45
0.0
1001
ACAD
1000
AcDbSavedByObjectVersion
1070
     0
  0
VISUALSTYLE
  5
38
102
{ACAD_XDICTIONARY
360
379
102
}
102
{ACAD_REACTORS
330
2A
102
}
330
2A
100
AcDbVisualStyle
  2

 70
    14
 71
     2
 72
     2
 73
     0
 90
        0
 40
-0.6
 41
-30.0
 62
     5
 63
     7
421
 16777215
 74
     1
 91
        4
 64
     7
 65
   257
 75
     7
175
     7
 42
1.0
 92
        8
 66
     7
 43
1.0
 76
     1
 77
     6
 78
     2
 67
     7
 79
     5
170
     0
171
     0
290
     0
174
     0
 93
        1
 44
0.0
173
     0
291
     1
 45
0.0
1001
ACAD
1000
AcDbSavedByObjectVersion
1070
     0
  0
VISUALSTYLE
  5
3C
102
{ACAD_XDICTIONARY
360
381
102
}
102
{ACAD_REACTORS
330
2A
102
}
330
2A
100
AcDbVisualStyle
  2

 70
    21
 71
     2
 72
     2
 73
     0
 90
        0
 40
-0.6
 41
-30.0
 62
     5
 63
     7
421
 16777215
 74
     1
 91
        4
 64
     7
 65
   257
 75
     1
175
     1
 42
1.0
 92
        9
 66
     7
 43
1.0
 76
     1
 77
     6
 78
     2
 67
     7
 79
     5
170
     0
171
     0
290
     0
174
     0
 93
        1
 44
0.0
173
     0
291
     1
 45
0.0
1001
ACAD
1000
AcDbSavedByObjectVersion
1070
     0
  0
VISUALSTYLE
  5
33
102
{ACAD_XDICTIONARY
360
36F
102
}
102
{ACAD_REACTORS
330
2A
102
}
330
2A
100
AcDbVisualStyle
  2

 70
     8
 71
     2
 72
     3
 73
     0
 90
        2
 40
-0.6
 41
30.0
 62
     5
 63
     7
421
 16777215
 74
     0
 91
        0
 64
     7
 65
   257
 75
     1
175
     1
 42
1.0
 92
        8
 66
   257
 43
1.0
 76
     1
 77
     6
 78
     2
 67
     7
 79
     3
170
     0
171
     0
290
     0
174
     0
 93
       13
 44
0.0
173
     0
291
     0
 45
0.0
1001
ACAD
1000
AcDbSavedByObjectVersion
1070
     0
  0
VISUALSTYLE
  5
42
102
{ACAD_XDICTIONARY
360
38D
102
}
102
{ACAD_REACTORS
330
2A
102
}
330
2A
100
AcDbVisualStyle
  2

 70
    27
 71
     2
 72
     2
 73
     1
 90
        2
 40
-0.6
 41
30.0
 62
     5
 63
     7
421
 16777215
 74
     0
 91
        4
 64
     7
 65
   257
 75
     1
175
     1
 42
1.0
 92
        8
 66
   257
 43
1.0
 76
     1
 77
     6
 78
     2
 67
     8
425
  7895160
 79
     3
170
     0
171
     0
290
     0
174
     0
 93
        5
 44
0.0
173
     0
291
     0
 45
0.0
1001
ACAD
1000
AcDbSavedByObjectVersion
1070
     0
  0
VISUALSTYLE
  5
41
102
{ACAD_XDICTIONARY
360
38B
102
}
102
{ACAD_REACTORS
330
2A
102
}
330
2A
100
AcDbVisualStyle
  2

 70
    26
 71
     2
 72
     2
 73
     1
 90
        2
 40
-0.6
 41
30.0
 62
     5
 63
     7
421
 16777215
 74
     1
 91
       10
 64
     7
 65
   257
 75
     2
175
     1
 42
1.0
 92
        8
 66
   257
 43
1.0
 76
     1
 77
     6
 78
     2
 67
     7
 79
     3
170
     0
171
     0
290
     0
174
     0
 93
        5
 44
0.0
173
     0
291
     0
 45
0.0
1001
ACAD
1000
AcDbSavedByObjectVersion
1070
     0
  0
VISUALSTYLE
  5
3E
102
{ACAD_XDICTIONARY
360
385
102
}
102
{ACAD_REACTORS
330
2A
102
}
330
2A
100
AcDbVisualStyle
  2

 70
    23
 71
     2
 72
     2
 73
     3
 90
        0
 40
-0.6
 41
-30.0
 62
     5
 63
     7
421
 16777215
 74
     2
 91
        2
 64
     7
 65
     7
 75
     1
175
     1
 42
40.0
 92
        8
 66
     7
 43
1.0
 76
     1
 77
     6
 78
     2
 67
     7
 79
     3
170
     0
171
     0
290
     0
174
     0
 93
        1
 44
0.0
173
     0
291
     0
 45
0.0
1001
ACAD
1000
AcDbSavedByObjectVersion
1070
     0
  0
VISUALSTYLE
  5
3F
102
{ACAD_XDICTIONARY
360
387
102
}
102
{ACAD_REACTORS
330
2A
102
}
330
2A
100
AcDbVisualStyle
  2

 70
    24
 71
     1
 72
     2
 73
     2
 90
        0
 40
-0.6
 41
-30.0
 62
     5
 63
     7
421
 16777215
 74
     2
 91
        2
 64
     7
 65
     7
 75
     1
175
     1
 42
40.0
 92
       11
 66
     7
 43
1.0
 76
     1
 77
     6
 78
     2
 67
     7
 79
     6
170
     0
171
     0
290
     0
174
     0
 93
        1
 44
0.0
173
     0
291
     0
 45
0.0
1001
ACAD
1000
AcDbSavedByObjectVersion
1070
     0
  0
VISUALSTYLE
  5
37
102
{ACAD_XDICTIONARY
360
377
102
}
102
{ACAD_REACTORS
330
2A
102
}
330
2A
100
AcDbVisualStyle
  2

 70
    13
 71
     2
 72
     2
 73
     0
 90
        0
 40
-0.6
 41
-30.0
 62
     5
 63
     7
421
 16777215
 74
     1
 91
        4
 64
     7
 65
   257
 75
     1
175
     1
 42
1.0
 92
       12
 66
     7
 43
1.0
 76
     1
 77
     6
 78
     2
 67
     7
 79
     5
170
     0
171
     0
290
     0
174
     0
 93
        1
 44
0.0
173
     0
291
     1
 45
0.0
1001
ACAD
1000
AcDbSavedByObjectVersion
1070
     0
  0
VISUALSTYLE
  5
30
102
{ACAD_XDICTIONARY
360
369
102
}
102
{ACAD_REACTORS
330
2A
102
}
330
2A
100
AcDbVisualStyle
  2

 70
     5
 71
     0
 72
     2
 73
     0
 90
        0
 40
-0.6
 41
-30.0
 62
     5
 63
     7
421
 16777215
 74
     1
 91
        4
 64
     7
 65
   257
 75
     1
175
     1
 42
1.0
 92
        0
 66
   257
 43
1.0
 76
     1
 77
     6
 78
     2
 67
     7
 79
     3
170
     0
171
     0
290
     0
174
     0
 93
        1
 44
0.0
173
     0
291
     0
 45
0.0
1001
ACAD
1000
AcDbSavedByObjectVersion
1070
     0
  0
VISUALSTYLE
  5
40
102
{ACAD_XDICTIONARY
360
389
102
}
102
{ACAD_REACTORS
330
2A
102
}
330
2A
100
AcDbVisualStyle
  2

 70
    25
 71
     2
 72
     2
 73
     1
 90
        1
 40
0.5
 41
-30.0
 62
     5
 63
     7
421
 16777215
 74
     1
 91
        0
 64
     7
 65
   257
 75
     1
175
     1
 42
1.0
 92
        8
 66
     7
 43
1.0
 76
     1
 77
     6
 78
     2
 67
     7
 79
     3
170
     0
171
     0
290
     0
174
     0
 93
       13
 44
0.0
173
     0
291
     0
 45
0.0
1001
ACAD
1000
AcDbSavedByObjectVersion
1070
     0
  0
DICTIONARYVAR
  5
2AD
102
{ACAD_REACTORS
330
2AC
102
}
330
2AC
100
DictionaryVariables
280
     0
  1
1:1
  0
DICTIONARYVAR
  5
2EE
102
{ACAD_REACTORS
330
2AC
102
}
330
2AC
100
DictionaryVariables
280
     0
  1
STANDARD
  0
DICTIONARYVAR
  5
2ED
102
{ACAD_REACTORS
330
2AC
102
}
330
2AC
100
DictionaryVariables
280
     0
  1
STANDARD
  0
DICTIONARYVAR
  5
359
102
{ACAD_REACTORS
330
2AC
102
}
330
2AC
100
DictionaryVariables
280
     0
  1
Metric50
  0
DICTIONARYVAR
  5
35A
102
{ACAD_REACTORS
330
2AC
102
}
330
2AC
100
DictionaryVariables
280
     0
  1
Metric50
  0
DICTIONARYVAR
  5
2AE
102
{ACAD_REACTORS
330
2AC
102
}
330
2AC
100
DictionaryVariables
280
     0
  1
1
  0
DICTIONARYVAR
  5
35B
102
{ACAD_REACTORS
330
2AC
102
}
330
2AC
100
DictionaryVariables
280
     0
  1
2
  0
DICTIONARY
  5
392
330
2F5
100
AcDbDictionary
280
     1
281
     1
  3
ACAD_XREC_ROUNDTRIP
360
393
  0
DICTIONARY
  5
2E2
330
45
100
AcDbDictionary
280
     1
281
     1
  3
ACAD_XREC_ROUNDTRIP
360
2E3
  0
DICTIONARY
  5
2E0
330
44
100
AcDbDictionary
280
     1
281
     1
  3
ACAD_XREC_ROUNDTRIP
360
2E1
  0
DICTIONARY
  5
2E4
330
46
100
AcDbDictionary
280
     1
281
     1
  3
ACAD_XREC_ROUNDTRIP
360
2E5
  0
DICTIONARY
  5
390
330
2F4
100
AcDbDictionary
280
     1
281
     1
  3
ACAD_XREC_ROUNDTRIP
360
391
  0
DICTIONARY
  5
2E6
330
6A
100
AcDbDictionary
280
     1
281
     1
  3
ACAD_ROUNDTRIP_2008_TABLESTYLE_CELLSTYLEMAP
360
35D
  3
ACAD_XREC_ROUNDTRIP
360
38F
  0
DICTIONARY
  5
367
330
2F
100
AcDbDictionary
280
     1
281
     1
  3
ACAD_XREC_ROUNDTRIP
360
368
  0
DICTIONARY
  5
36D
330
32
100
AcDbDictionary
280
     1
281
     1
  3
ACAD_XREC_ROUNDTRIP
360
36E
  0
DICTIONARY
  5
375
330
36
100
AcDbDictionary
280
     1
281
     1
  3
ACAD_XREC_ROUNDTRIP
360
376
  0
DICTIONARY
  5
37D
330
3A
100
AcDbDictionary
280
     1
281
     1
  3
ACAD_XREC_ROUNDTRIP
360
37E
  0
DICTIONARY
  5
371
330
34
100
AcDbDictionary
280
     1
281
     1
  3
ACAD_XREC_ROUNDTRIP
360
372
  0
DICTIONARY
  5
373
330
35
100
AcDbDictionary
280
     1
281
     1
  3
ACAD_XREC_ROUNDTRIP
360
374
  0
DICTIONARY
  5
383
330
3D
100
AcDbDictionary
280
     1
281
     1
  3
ACAD_XREC_ROUNDTRIP
360
384
  0
DICTIONARY
  5
37B
330
39
100
AcDbDictionary
280
     1
281
     1
  3
ACAD_XREC_ROUNDTRIP
360
37C
  0
DICTIONARY
  5
35F
330
2B
100
AcDbDictionary
280
     1
281
     1
  3
ACAD_XREC_ROUNDTRIP
360
360
  0
DICTIONARY
  5
361
330
2C
100
AcDbDictionary
280
     1
281
     1
  3
ACAD_XREC_ROUNDTRIP
360
362
  0
DICTIONARY
  5
363
330
2D
100
AcDbDictionary
280
     1
281
     1
  3
ACAD_XREC_ROUNDTRIP
360
364
  0
DICTIONARY
  5
365
330
2E
100
AcDbDictionary
280
     1
281
     1
  3
ACAD_XREC_ROUNDTRIP
360
366
  0
DICTIONARY
  5
36B
330
31
100
AcDbDictionary
280
     1
281
     1
  3
ACAD_XREC_ROUNDTRIP
360
36C
  0
DICTIONARY
  5
37F
330
3B
100
AcDbDictionary
280
     1
281
     1
  3
ACAD_XREC_ROUNDTRIP
360
380
  0
DICTIONARY
  5
379
330
38
100
AcDbDictionary
280
     1
281
     1
  3
ACAD_XREC_ROUNDTRIP
360
37A
  0
DICTIONARY
  5
381
330
3C
100
AcDbDictionary
280
     1
281
     1
  3
ACAD_XREC_ROUNDTRIP
360
382
  0
DICTIONARY
  5
36F
330
33
100
AcDbDictionary
280
     1
281
     1
  3
ACAD_XREC_ROUNDTRIP
360
370
  0
DICTIONARY
  5
38D
330
42
100
AcDbDictionary
280
     1
281
     1
  3
ACAD_XREC_ROUNDTRIP
360
38E
  0
DICTIONARY
  5
38B
330
41
100
AcDbDictionary
280
     1
281
     1
  3
ACAD_XREC_ROUNDTRIP
360
38C
  0
DICTIONARY
  5
385
330
3E
100
AcDbDictionary
280
     1
281
     1
  3
ACAD_XREC_ROUNDTRIP
360
386
  0
DICTIONARY
  5
387
330
3F
100
AcDbDictionary
280
     1
281
     1
  3
ACAD_XREC_ROUNDTRIP
360
388
  0
DICTIONARY
  5
377
330
37
100
AcDbDictionary
280
     1
281
     1
  3
ACAD_XREC_ROUNDTRIP
360
378
  0
DICTIONARY
  5
369
330
30
100
AcDbDictionary
280
     1
281
     1
  3
ACAD_XREC_ROUNDTRIP
360
36A
  0
DICTIONARY
  5
389
330
40
100
AcDbDictionary
280
     1
281
     1
  3
ACAD_XREC_ROUNDTRIP
360
38A
  0
XRECORD
  5
393
102
{ACAD_REACTORS
330
392
102
}
330
392
100
AcDbXrecord
280
     1
102
DISPLAYNAME
  1
Metric50
102
FLAGS
 90
        0
  0
XRECORD
  5
2E3
102
{ACAD_REACTORS
330
2E2
102
}
330
2E2
100
AcDbXrecord
280
     1
102
MATERIAL
148
0.0
149
0.0
149
0.0
 93
        0
 94
      127
282
     0
 72
     1
 77
     1
171
     1
175
     1
179
     1
273
     0
  0
XRECORD
  5
2E1
102
{ACAD_REACTORS
330
2E0
102
}
330
2E0
100
AcDbXrecord
280
     1
102
MATERIAL
148
0.0
149
0.0
149
0.0
 93
        0
 94
      127
282
     0
 72
     1
 77
     1
171
     1
175
     1
179
     1
273
     0
  0
XRECORD
  5
2E5
102
{ACAD_REACTORS
330
2E4
102
}
330
2E4
100
AcDbXrecord
280
     1
102
MATERIAL
148
0.0
149
0.0
149
0.0
 93
        0
 94
      127
282
     0
 72
     1
 77
     1
171
     1
175
     1
179
     1
273
     0
  0
XRECORD
  5
391
102
{ACAD_REACTORS
330
390
102
}
330
390
100
AcDbXrecord
280
     1
102
DISPLAYNAME
  1
Metric50
102
FLAGS
 90
        0
  0
CELLSTYLEMAP
  5
35D
102
{ACAD_REACTORS
330
2E6
102
}
330
2E6
100
AcDbCellStyleMap
 90
        3
300
CELLSTYLE
  1
TABLEFORMAT_BEGIN
 90
        5
170
     1
 91
        0
 92
    32768
 62
   257
 93
        1
300
CONTENTFORMAT
  1
CONTENTFORMAT_BEGIN
 90
        0
 91
        0
 92
        4
 93
        0
300

 40
0.0
140
1.0
 94
        5
 62
     0
340
11
144
0.25
309
CONTENTFORMAT_END
171
     1
301
MARGIN
  1
CELLMARGIN_BEGIN
 40
0.06
 40
0.06
 40
0.06
 40
0.06
 40
0.18
 40
0.18
309
CELLMARGIN_END
 94
        6
 95
        1
302
GRIDFORMAT
  1
GRIDFORMAT_BEGIN
 90
        0
 91
        1
 62
     0
 92
       -2
340
14
 93
        0
 40
0.045
309
GRIDFORMAT_END
 95
        2
302
GRIDFORMAT
  1
GRIDFORMAT_BEGIN
 90
        0
 91
        1
 62
     0
 92
       -2
340
14
 93
        0
 40
0.045
309
GRIDFORMAT_END
 95
        4
302
GRIDFORMAT
  1
GRIDFORMAT_BEGIN
 90
        0
 91
        1
 62
     0
 92
       -2
340
14
 93
        0
 40
0.045
309
GRIDFORMAT_END
 95
        8
302
GRIDFORMAT
  1
GRIDFORMAT_BEGIN
 90
        0
 91
        1
 62
     0
 92
       -2
340
14
 93
        0
 40
0.045
309
GRIDFORMAT_END
 95
       16
302
GRIDFORMAT
  1
GRIDFORMAT_BEGIN
 90
        0
 91
        1
 62
     0
 92
       -2
340
14
 93
        0
 40
0.045
309
GRIDFORMAT_END
 95
       32
302
GRIDFORMAT
  1
GRIDFORMAT_BEGIN
 90
        0
 91
        1
 62
     0
 92
       -2
340
14
 93
        0
 40
0.045
309
GRIDFORMAT_END
309
TABLEFORMAT_END
  1
CELLSTYLE_BEGIN
 90
        1
 91
        1
300
_TITLE
309
CELLSTYLE_END
300
CELLSTYLE
  1
TABLEFORMAT_BEGIN
 90
        5
170
     1
 91
        0
 92
        0
 62
   257
 93
        1
300
CONTENTFORMAT
  1
CONTENTFORMAT_BEGIN
 90
        0
 91
        0
 92
        4
 93
        0
300

 40
0.0
140
1.0
 94
        5
 62
     0
340
11
144
0.18
309
CONTENTFORMAT_END
171
     1
301
MARGIN
  1
CELLMARGIN_BEGIN
 40
0.06
 40
0.06
 40
0.06
 40
0.06
 40
0.18
 40
0.18
309
CELLMARGIN_END
 94
        6
 95
        1
302
GRIDFORMAT
  1
GRIDFORMAT_BEGIN
 90
        0
 91
        1
 62
     0
 92
       -2
340
14
 93
        0
 40
0.045
309
GRIDFORMAT_END
 95
        2
302
GRIDFORMAT
  1
GRIDFORMAT_BEGIN
 90
        0
 91
        1
 62
     0
 92
       -2
340
14
 93
        0
 40
0.045
309
GRIDFORMAT_END
 95
        4
302
GRIDFORMAT
  1
GRIDFORMAT_BEGIN
 90
        0
 91
        1
 62
     0
 92
       -2
340
14
 93
        0
 40
0.045
309
GRIDFORMAT_END
 95
        8
302
GRIDFORMAT
  1
GRIDFORMAT_BEGIN
 90
        0
 91
        1
 62
     0
 92
       -2
340
14
 93
        0
 40
0.045
309
GRIDFORMAT_END
 95
       16
302
GRIDFORMAT
  1
GRIDFORMAT_BEGIN
 90
        0
 91
        1
 62
     0
 92
       -2
340
14
 93
        0
 40
0.045
309
GRIDFORMAT_END
 95
       32
302
GRIDFORMAT
  1
GRIDFORMAT_BEGIN
 90
        0
 91
        1
 62
     0
 92
       -2
340
14
 93
        0
 40
0.045
309
GRIDFORMAT_END
309
TABLEFORMAT_END
  1
CELLSTYLE_BEGIN
 90
        2
 91
        1
300
_HEADER
309
CELLSTYLE_END
300
CELLSTYLE
  1
TABLEFORMAT_BEGIN
 90
        5
170
     1
 91
        0
 92
        0
 62
   257
 93
        1
300
CONTENTFORMAT
  1
CONTENTFORMAT_BEGIN
 90
        0
 91
        0
 92
        4
 93
        0
300

 40
0.0
140
1.0
 94
        2
 62
     0
340
11
144
0.18
309
CONTENTFORMAT_END
171
     1
301
MARGIN
  1
CELLMARGIN_BEGIN
 40
0.06
 40
0.06
 40
0.06
 40
0.06
 40
0.18
 40
0.18
309
CELLMARGIN_END
 94
        6
 95
        1
302
GRIDFORMAT
  1
GRIDFORMAT_BEGIN
 90
        0
 91
        1
 62
     0
 92
       -2
340
14
 93
        0
 40
0.045
309
GRIDFORMAT_END
 95
        2
302
GRIDFORMAT
  1
GRIDFORMAT_BEGIN
 90
        0
 91
        1
 62
     0
 92
       -2
340
14
 93
        0
 40
0.045
309
GRIDFORMAT_END
 95
        4
302
GRIDFORMAT
  1
GRIDFORMAT_BEGIN
 90
        0
 91
        1
 62
     0
 92
       -2
340
14
 93
        0
 40
0.045
309
GRIDFORMAT_END
 95
        8
302
GRIDFORMAT
  1
GRIDFORMAT_BEGIN
 90
        0
 91
        1
 62
     0
 92
       -2
340
14
 93
        0
 40
0.045
309
GRIDFORMAT_END
 95
       16
302
GRIDFORMAT
  1
GRIDFORMAT_BEGIN
 90
        0
 91
        1
 62
     0
 92
       -2
340
14
 93
        0
 40
0.045
309
GRIDFORMAT_END
 95
       32
302
GRIDFORMAT
  1
GRIDFORMAT_BEGIN
 90
        0
 91
        1
 62
     0
 92
       -2
340
14
 93
        0
 40
0.045
309
GRIDFORMAT_END
309
TABLEFORMAT_END
  1
CELLSTYLE_BEGIN
 90
        3
 91
        2
300
_DATA
309
CELLSTYLE_END
  0
XRECORD
  5
38F
102
{ACAD_REACTORS
330
2E6
102
}
330
2E6
100
AcDbXrecord
280
     1
102
ACAD_ROUNDTRIP_PRE2007_TABLESTYLE
 90
        4
 91
        0
  1

 92
        4
 93
        0
  2

 94
        4
 95
        0
  3

  0
XRECORD
  5
368
102
{ACAD_REACTORS
330
367
102
}
330
367
100
AcDbXrecord
280
     1
102
RTVSPost2010Prop28
280
     1
102
RTVSPost2010PropOp28
 70
     1
102
RTVSPost2010Prop29
280
     1
102
RTVSPost2010PropOp29
 70
     1
102
RTVSPost2010Prop30
280
     0
102
RTVSPost2010PropOp30
 70
     1
102
RTVSPost2010Prop31
280
     0
102
RTVSPost2010PropOp31
 70
     1
102
RTVSPost2010Prop32
280
     0
102
RTVSPost2010PropOp32
 70
     1
102
RTVSPost2010Prop33
280
     0
102
RTVSPost2010PropOp33
 70
     1
102
RTVSPost2010Prop34
280
     0
102
RTVSPost2010PropOp34
 70
     1
102
RTVSPost2010Prop35
280
     0
102
RTVSPost2010PropOp35
 70
     1
102
RTVSPost2010Prop36
280
     0
102
RTVSPost2010PropOp36
 70
     1
102
RTVSPost2010Prop37
 90
       50
102
RTVSPost2010PropOp37
 70
     1
102
RTVSPost2010Prop38
140
0.0
102
RTVSPost2010PropOp38
 70
     1
102
RTVSPost2010Prop39
140
1.0
102
RTVSPost2010PropOp39
 70
     1
102
RTVSPost2010Prop40
 90
        0
102
RTVSPost2010PropOp40
 70
     1
102
RTVSPost2010Prop41ColorIndex
 90
       18
102
RTVSPost2010Prop41ColorRGB
 90
        0
102
RTVSPost2010PropOp41
 70
     1
102
RTVSPost2010Prop42
 90
       50
102
RTVSPost2010PropOp42
 70
     1
102
RTVSPost2010Prop43
 90
        3
102
RTVSPost2010PropOp43
 70
     1
102
RTVSPost2010Prop44ColorIndex
 90
        5
102
RTVSPost2010Prop44ColorRGB
 90
      255
102
RTVSPost2010PropOp44
 70
     1
102
RTVSPost2010Prop45
280
     0
102
RTVSPost2010PropOp45
 70
     1
102
RTVSPost2010Prop46
 90
       50
102
RTVSPost2010PropOp46
 70
     1
102
RTVSPost2010Prop47
 90
       50
102
RTVSPost2010PropOp47
 70
     1
102
RTVSPost2010Prop48
 90
       50
102
RTVSPost2010PropOp48
 70
     1
102
RTVSPost2010Prop49
280
     0
102
RTVSPost2010PropOp49
 70
     1
102
RTVSPost2010Prop50
 90
       50
102
RTVSPost2010PropOp50
 70
     1
102
RTVSPost2010Prop51ColorIndex
 90
      256
102
RTVSPost2010Prop51ColorRGB
 90
-16777216
102
RTVSPost2010PropOp51
 70
     0
102
RTVSPost2010Prop52
140
1.0
102
RTVSPost2010PropOp52
 70
     0
102
RTVSPost2010Prop53
 90
        2
102
RTVSPost2010PropOp53
 70
     1
102
RTVSPost2010Prop54
  1
strokes_ogs.tif
102
RTVSPost2010PropOp54
 70
     1
102
RTVSPost2010Prop55
280
     0
102
RTVSPost2010PropOp55
 70
     1
102
RTVSPost2010Prop56
140
1.0
102
RTVSPost2010PropOp56
 70
     1
102
RTVSPost2010Prop57
140
1.0
102
RTVSPost2010PropOp57
 70
     1
102
RTVSPropertyOp0
 70
     1
102
RTVSPropertyOp1
 70
     1
102
RTVSPropertyOp2
 70
     1
102
RTVSPropertyOp3
 70
     1
102
RTVSPropertyOp4
 70
     1
102
RTVSPropertyOp5
 70
     1
102
RTVSPropertyOp6
 70
     1
102
RTVSPropertyOp7
 70
     1
102
RTVSPropertyOp8
 70
     1
102
RTVSPropertyOp9
 70
     1
102
RTVSPropertyOp10
 70
     1
102
RTVSPropertyOp11
 70
     1
102
RTVSPropertyOp12
 70
     1
102
RTVSPropertyOp13
 70
     1
102
RTVSPropertyOp14
 70
     1
102
RTVSPropertyOp15
 70
     1
102
RTVSPropertyOp16
 70
     1
102
RTVSPropertyOp17
 70
     1
102
RTVSPropertyOp18
 70
     1
102
RTVSPropertyOp19
 70
     1
102
RTVSPropertyOp20
 70
     1
102
RTVSPropertyOp21
 70
     1
102
RTVSPropertyOp22
 70
     1
102
RTVSPropertyOp23
 70
     1
102
RTVSPropertyOp24
 70
     1
102
RTVSPropertyOp25
 70
     1
102
RTVSPropertyOp26
 70
     1
102
RTVSPropertyOp27
 70
     1
102
RTVSPropertyOp28
 70
     1
102
RTVSPropertyOp29
 70
     1
102
RTVSPropertyOp30
 70
     1
102
RTVSPropertyOp31
 70
     1
102
RTVSPropertyOp32
 70
     1
102
RTVSPropertyOp33
 70
     1
102
RTVSPropertyOp34
 70
     1
102
RTVSPropertyOp35
 70
     1
102
RTVSPropertyOp36
 70
     1
102
RTVSPropertyOp37
 70
     1
102
RTVSPropertyOp38
 70
     1
102
RTVSPropertyOp39
 70
     1
102
RTVSPropertyOp40
 70
     1
102
RTVSPropertyOp41
 70
     1
102
RTVSPropertyOp42
 70
     1
102
RTVSPropertyOp43
 70
     1
102
RTVSPropertyOp44
 70
     1
102
RTVSPropertyOp45
 70
     1
102
RTVSPropertyOp46
 70
     1
102
RTVSPropertyOp47
 70
     1
102
RTVSPropertyOp48
 70
     1
102
RTVSPropertyOp49
 70
     1
102
RTVSPropertyOp50
 70
     1
102
RTVSPropertyOp51
 70
     0
102
RTVSPropertyOp52
 70
     0
102
RTVSPropertyOp53
 70
     1
102
RTVSPropertyOp54
 70
     1
102
RTVSPropertyOp55
 70
     1
102
RTVSPropertyOp56
 70
     1
102
RTVSPropertyOp57
 70
     1
102
RTVSPropertyOp58
 70
     1
102
RTVSPropertyOp59
 70
     1
102
RTVSPropertyOp60
 70
     1
102
RTVSPropertyOp61
 70
     1
102
RTVSPropertyOp62
 70
     1
  0
XRECORD
  5
36E
102
{ACAD_REACTORS
330
36D
102
}
330
36D
100
AcDbXrecord
280
     1
102
RTVSPost2010Prop28
280
     0
102
RTVSPost2010PropOp28
 70
     1
102
RTVSPost2010Prop29
280
     1
102
RTVSPost2010PropOp29
 70
     1
102
RTVSPost2010Prop30
280
     1
102
RTVSPost2010PropOp30
 70
     1
102
RTVSPost2010Prop31
280
     0
102
RTVSPost2010PropOp31
 70
     1
102
RTVSPost2010Prop32
280
     0
102
RTVSPost2010PropOp32
 70
     1
102
RTVSPost2010Prop33
280
     0
102
RTVSPost2010PropOp33
 70
     1
102
RTVSPost2010Prop34
280
     0
102
RTVSPost2010PropOp34
 70
     1
102
RTVSPost2010Prop35
280
     0
102
RTVSPost2010PropOp35
 70
     1
102
RTVSPost2010Prop36
280
     0
102
RTVSPost2010PropOp36
 70
     1
102
RTVSPost2010Prop37
 90
       50
102
RTVSPost2010PropOp37
 70
     1
102
RTVSPost2010Prop38
140
0.0
102
RTVSPost2010PropOp38
 70
     1
102
RTVSPost2010Prop39
140
1.0
102
RTVSPost2010PropOp39
 70
     1
102
RTVSPost2010Prop40
 90
        0
102
RTVSPost2010PropOp40
 70
     1
102
RTVSPost2010Prop41ColorIndex
 90
       18
102
RTVSPost2010Prop41ColorRGB
 90
        0
102
RTVSPost2010PropOp41
 70
     1
102
RTVSPost2010Prop42
 90
       50
102
RTVSPost2010PropOp42
 70
     1
102
RTVSPost2010Prop43
 90
        3
102
RTVSPost2010PropOp43
 70
     1
102
RTVSPost2010Prop44ColorIndex
 90
        5
102
RTVSPost2010Prop44ColorRGB
 90
      255
102
RTVSPost2010PropOp44
 70
     1
102
RTVSPost2010Prop45
280
     0
102
RTVSPost2010PropOp45
 70
     1
102
RTVSPost2010Prop46
 90
       50
102
RTVSPost2010PropOp46
 70
     1
102
RTVSPost2010Prop47
 90
       50
102
RTVSPost2010PropOp47
 70
     1
102
RTVSPost2010Prop48
 90
       50
102
RTVSPost2010PropOp48
 70
     1
102
RTVSPost2010Prop49
280
     0
102
RTVSPost2010PropOp49
 70
     1
102
RTVSPost2010Prop50
 90
       50
102
RTVSPost2010PropOp50
 70
     1
102
RTVSPost2010Prop51ColorIndex
 90
      256
102
RTVSPost2010Prop51ColorRGB
 90
-16777216
102
RTVSPost2010PropOp51
 70
     0
102
RTVSPost2010Prop52
140
1.0
102
RTVSPost2010PropOp52
 70
     0
102
RTVSPost2010Prop53
 90
        2
102
RTVSPost2010PropOp53
 70
     1
102
RTVSPost2010Prop54
  1
strokes_ogs.tif
102
RTVSPost2010PropOp54
 70
     1
102
RTVSPost2010Prop55
280
     0
102
RTVSPost2010PropOp55
 70
     1
102
RTVSPost2010Prop56
140
1.0
102
RTVSPost2010PropOp56
 70
     1
102
RTVSPost2010Prop57
140
1.0
102
RTVSPost2010PropOp57
 70
     1
102
RTVSPropertyOp0
 70
     1
102
RTVSPropertyOp1
 70
     1
102
RTVSPropertyOp2
 70
     1
102
RTVSPropertyOp3
 70
     1
102
RTVSPropertyOp4
 70
     1
102
RTVSPropertyOp5
 70
     1
102
RTVSPropertyOp6
 70
     1
102
RTVSPropertyOp7
 70
     1
102
RTVSPropertyOp8
 70
     1
102
RTVSPropertyOp9
 70
     1
102
RTVSPropertyOp10
 70
     1
102
RTVSPropertyOp11
 70
     1
102
RTVSPropertyOp12
 70
     1
102
RTVSPropertyOp13
 70
     1
102
RTVSPropertyOp14
 70
     1
102
RTVSPropertyOp15
 70
     1
102
RTVSPropertyOp16
 70
     1
102
RTVSPropertyOp17
 70
     1
102
RTVSPropertyOp18
 70
     1
102
RTVSPropertyOp19
 70
     1
102
RTVSPropertyOp20
 70
     1
102
RTVSPropertyOp21
 70
     1
102
RTVSPropertyOp22
 70
     1
102
RTVSPropertyOp23
 70
     1
102
RTVSPropertyOp24
 70
     1
102
RTVSPropertyOp25
 70
     1
102
RTVSPropertyOp26
 70
     1
102
RTVSPropertyOp27
 70
     1
102
RTVSPropertyOp28
 70
     1
102
RTVSPropertyOp29
 70
     1
102
RTVSPropertyOp30
 70
     1
102
RTVSPropertyOp31
 70
     1
102
RTVSPropertyOp32
 70
     1
102
RTVSPropertyOp33
 70
     1
102
RTVSPropertyOp34
 70
     1
102
RTVSPropertyOp35
 70
     1
102
RTVSPropertyOp36
 70
     1
102
RTVSPropertyOp37
 70
     1
102
RTVSPropertyOp38
 70
     1
102
RTVSPropertyOp39
 70
     1
102
RTVSPropertyOp40
 70
     1
102
RTVSPropertyOp41
 70
     1
102
RTVSPropertyOp42
 70
     1
102
RTVSPropertyOp43
 70
     1
102
RTVSPropertyOp44
 70
     1
102
RTVSPropertyOp45
 70
     1
102
RTVSPropertyOp46
 70
     1
102
RTVSPropertyOp47
 70
     1
102
RTVSPropertyOp48
 70
     1
102
RTVSPropertyOp49
 70
     1
102
RTVSPropertyOp50
 70
     1
102
RTVSPropertyOp51
 70
     0
102
RTVSPropertyOp52
 70
     0
102
RTVSPropertyOp53
 70
     1
102
RTVSPropertyOp54
 70
     1
102
RTVSPropertyOp55
 70
     1
102
RTVSPropertyOp56
 70
     1
102
RTVSPropertyOp57
 70
     1
102
RTVSPropertyOp58
 70
     1
102
RTVSPropertyOp59
 70
     1
102
RTVSPropertyOp60
 70
     1
102
RTVSPropertyOp61
 70
     1
102
RTVSPropertyOp62
 70
     1
  0
XRECORD
  5
376
102
{ACAD_REACTORS
330
375
102
}
330
375
100
AcDbXrecord
280
     1
102
RTVSPost2010Prop28
280
     0
102
RTVSPost2010PropOp28
 70
     1
102
RTVSPost2010Prop29
280
     1
102
RTVSPost2010PropOp29
 70
     1
102
RTVSPost2010Prop30
280
     1
102
RTVSPost2010PropOp30
 70
     1
102
RTVSPost2010Prop31
280
     0
102
RTVSPost2010PropOp31
 70
     1
102
RTVSPost2010Prop32
280
     0
102
RTVSPost2010PropOp32
 70
     1
102
RTVSPost2010Prop33
280
     0
102
RTVSPost2010PropOp33
 70
     1
102
RTVSPost2010Prop34
280
     0
102
RTVSPost2010PropOp34
 70
     1
102
RTVSPost2010Prop35
280
     0
102
RTVSPost2010PropOp35
 70
     1
102
RTVSPost2010Prop36
280
     0
102
RTVSPost2010PropOp36
 70
     1
102
RTVSPost2010Prop37
 90
       50
102
RTVSPost2010PropOp37
 70
     1
102
RTVSPost2010Prop38
140
0.0
102
RTVSPost2010PropOp38
 70
     1
102
RTVSPost2010Prop39
140
1.0
102
RTVSPost2010PropOp39
 70
     1
102
RTVSPost2010Prop40
 90
        0
102
RTVSPost2010PropOp40
 70
     1
102
RTVSPost2010Prop41ColorIndex
 90
       18
102
RTVSPost2010Prop41ColorRGB
 90
        0
102
RTVSPost2010PropOp41
 70
     1
102
RTVSPost2010Prop42
 90
       50
102
RTVSPost2010PropOp42
 70
     1
102
RTVSPost2010Prop43
 90
        3
102
RTVSPost2010PropOp43
 70
     1
102
RTVSPost2010Prop44ColorIndex
 90
        5
102
RTVSPost2010Prop44ColorRGB
 90
      255
102
RTVSPost2010PropOp44
 70
     1
102
RTVSPost2010Prop45
280
     0
102
RTVSPost2010PropOp45
 70
     1
102
RTVSPost2010Prop46
 90
       50
102
RTVSPost2010PropOp46
 70
     1
102
RTVSPost2010Prop47
 90
       50
102
RTVSPost2010PropOp47
 70
     1
102
RTVSPost2010Prop48
 90
       50
102
RTVSPost2010PropOp48
 70
     1
102
RTVSPost2010Prop49
280
     0
102
RTVSPost2010PropOp49
 70
     1
102
RTVSPost2010Prop50
 90
       50
102
RTVSPost2010PropOp50
 70
     1
102
RTVSPost2010Prop51ColorIndex
 90
      256
102
RTVSPost2010Prop51ColorRGB
 90
-16777216
102
RTVSPost2010PropOp51
 70
     0
102
RTVSPost2010Prop52
140
1.0
102
RTVSPost2010PropOp52
 70
     0
102
RTVSPost2010Prop53
 90
        2
102
RTVSPost2010PropOp53
 70
     1
102
RTVSPost2010Prop54
  1
strokes_ogs.tif
102
RTVSPost2010PropOp54
 70
     1
102
RTVSPost2010Prop55
280
     0
102
RTVSPost2010PropOp55
 70
     1
102
RTVSPost2010Prop56
140
1.0
102
RTVSPost2010PropOp56
 70
     1
102
RTVSPost2010Prop57
140
1.0
102
RTVSPost2010PropOp57
 70
     1
102
RTVSPropertyOp0
 70
     1
102
RTVSPropertyOp1
 70
     1
102
RTVSPropertyOp2
 70
     1
102
RTVSPropertyOp3
 70
     1
102
RTVSPropertyOp4
 70
     1
102
RTVSPropertyOp5
 70
     1
102
RTVSPropertyOp6
 70
     1
102
RTVSPropertyOp7
 70
     1
102
RTVSPropertyOp8
 70
     1
102
RTVSPropertyOp9
 70
     1
102
RTVSPropertyOp10
 70
     1
102
RTVSPropertyOp11
 70
     1
102
RTVSPropertyOp12
 70
     1
102
RTVSPropertyOp13
 70
     1
102
RTVSPropertyOp14
 70
     1
102
RTVSPropertyOp15
 70
     1
102
RTVSPropertyOp16
 70
     1
102
RTVSPropertyOp17
 70
     1
102
RTVSPropertyOp18
 70
     1
102
RTVSPropertyOp19
 70
     1
102
RTVSPropertyOp20
 70
     1
102
RTVSPropertyOp21
 70
     1
102
RTVSPropertyOp22
 70
     1
102
RTVSPropertyOp23
 70
     1
102
RTVSPropertyOp24
 70
     1
102
RTVSPropertyOp25
 70
     1
102
RTVSPropertyOp26
 70
     1
102
RTVSPropertyOp27
 70
     1
102
RTVSPropertyOp28
 70
     1
102
RTVSPropertyOp29
 70
     1
102
RTVSPropertyOp30
 70
     1
102
RTVSPropertyOp31
 70
     1
102
RTVSPropertyOp32
 70
     1
102
RTVSPropertyOp33
 70
     1
102
RTVSPropertyOp34
 70
     1
102
RTVSPropertyOp35
 70
     1
102
RTVSPropertyOp36
 70
     1
102
RTVSPropertyOp37
 70
     1
102
RTVSPropertyOp38
 70
     1
102
RTVSPropertyOp39
 70
     1
102
RTVSPropertyOp40
 70
     1
102
RTVSPropertyOp41
 70
     1
102
RTVSPropertyOp42
 70
     1
102
RTVSPropertyOp43
 70
     1
102
RTVSPropertyOp44
 70
     1
102
RTVSPropertyOp45
 70
     1
102
RTVSPropertyOp46
 70
     1
102
RTVSPropertyOp47
 70
     1
102
RTVSPropertyOp48
 70
     1
102
RTVSPropertyOp49
 70
     1
102
RTVSPropertyOp50
 70
     1
102
RTVSPropertyOp51
 70
     0
102
RTVSPropertyOp52
 70
     0
102
RTVSPropertyOp53
 70
     1
102
RTVSPropertyOp54
 70
     1
102
RTVSPropertyOp55
 70
     1
102
RTVSPropertyOp56
 70
     1
102
RTVSPropertyOp57
 70
     1
102
RTVSPropertyOp58
 70
     1
102
RTVSPropertyOp59
 70
     1
102
RTVSPropertyOp60
 70
     1
102
RTVSPropertyOp61
 70
     1
102
RTVSPropertyOp62
 70
     1
  0
XRECORD
  5
37E
102
{ACAD_REACTORS
330
37D
102
}
330
37D
100
AcDbXrecord
280
     1
102
RTVSPost2010Prop28
280
     0
102
RTVSPost2010PropOp28
 70
     1
102
RTVSPost2010Prop29
280
     1
102
RTVSPost2010PropOp29
 70
     1
102
RTVSPost2010Prop30
280
     1
102
RTVSPost2010PropOp30
 70
     1
102
RTVSPost2010Prop31
280
     0
102
RTVSPost2010PropOp31
 70
     1
102
RTVSPost2010Prop32
280
     0
102
RTVSPost2010PropOp32
 70
     1
102
RTVSPost2010Prop33
280
     0
102
RTVSPost2010PropOp33
 70
     1
102
RTVSPost2010Prop34
280
     0
102
RTVSPost2010PropOp34
 70
     1
102
RTVSPost2010Prop35
280
     0
102
RTVSPost2010PropOp35
 70
     1
102
RTVSPost2010Prop36
280
     0
102
RTVSPost2010PropOp36
 70
     1
102
RTVSPost2010Prop37
 90
       50
102
RTVSPost2010PropOp37
 70
     1
102
RTVSPost2010Prop38
140
0.0
102
RTVSPost2010PropOp38
 70
     1
102
RTVSPost2010Prop39
140
1.0
102
RTVSPost2010PropOp39
 70
     1
102
RTVSPost2010Prop40
 90
        0
102
RTVSPost2010PropOp40
 70
     1
102
RTVSPost2010Prop41ColorIndex
 90
       18
102
RTVSPost2010Prop41ColorRGB
 90
        0
102
RTVSPost2010PropOp41
 70
     1
102
RTVSPost2010Prop42
 90
       50
102
RTVSPost2010PropOp42
 70
     1
102
RTVSPost2010Prop43
 90
        3
102
RTVSPost2010PropOp43
 70
     1
102
RTVSPost2010Prop44ColorIndex
 90
        5
102
RTVSPost2010Prop44ColorRGB
 90
      255
102
RTVSPost2010PropOp44
 70
     1
102
RTVSPost2010Prop45
280
     0
102
RTVSPost2010PropOp45
 70
     1
102
RTVSPost2010Prop46
 90
       50
102
RTVSPost2010PropOp46
 70
     1
102
RTVSPost2010Prop47
 90
       50
102
RTVSPost2010PropOp47
 70
     1
102
RTVSPost2010Prop48
 90
       50
102
RTVSPost2010PropOp48
 70
     1
102
RTVSPost2010Prop49
280
     0
102
RTVSPost2010PropOp49
 70
     1
102
RTVSPost2010Prop50
 90
       50
102
RTVSPost2010PropOp50
 70
     1
102
RTVSPost2010Prop51ColorIndex
 90
      256
102
RTVSPost2010Prop51ColorRGB
 90
-16777216
102
RTVSPost2010PropOp51
 70
     0
102
RTVSPost2010Prop52
140
1.0
102
RTVSPost2010PropOp52
 70
     0
102
RTVSPost2010Prop53
 90
        2
102
RTVSPost2010PropOp53
 70
     1
102
RTVSPost2010Prop54
  1
strokes_ogs.tif
102
RTVSPost2010PropOp54
 70
     1
102
RTVSPost2010Prop55
280
     0
102
RTVSPost2010PropOp55
 70
     1
102
RTVSPost2010Prop56
140
1.0
102
RTVSPost2010PropOp56
 70
     1
102
RTVSPost2010Prop57
140
1.0
102
RTVSPost2010PropOp57
 70
     1
102
RTVSPropertyOp0
 70
     1
102
RTVSPropertyOp1
 70
     1
102
RTVSPropertyOp2
 70
     1
102
RTVSPropertyOp3
 70
     1
102
RTVSPropertyOp4
 70
     1
102
RTVSPropertyOp5
 70
     1
102
RTVSPropertyOp6
 70
     1
102
RTVSPropertyOp7
 70
     1
102
RTVSPropertyOp8
 70
     1
102
RTVSPropertyOp9
 70
     1
102
RTVSPropertyOp10
 70
     1
102
RTVSPropertyOp11
 70
     1
102
RTVSPropertyOp12
 70
     1
102
RTVSPropertyOp13
 70
     1
102
RTVSPropertyOp14
 70
     1
102
RTVSPropertyOp15
 70
     1
102
RTVSPropertyOp16
 70
     1
102
RTVSPropertyOp17
 70
     1
102
RTVSPropertyOp18
 70
     1
102
RTVSPropertyOp19
 70
     1
102
RTVSPropertyOp20
 70
     1
102
RTVSPropertyOp21
 70
     1
102
RTVSPropertyOp22
 70
     1
102
RTVSPropertyOp23
 70
     1
102
RTVSPropertyOp24
 70
     1
102
RTVSPropertyOp25
 70
     1
102
RTVSPropertyOp26
 70
     1
102
RTVSPropertyOp27
 70
     1
102
RTVSPropertyOp28
 70
     1
102
RTVSPropertyOp29
 70
     1
102
RTVSPropertyOp30
 70
     1
102
RTVSPropertyOp31
 70
     1
102
RTVSPropertyOp32
 70
     1
102
RTVSPropertyOp33
 70
     1
102
RTVSPropertyOp34
 70
     1
102
RTVSPropertyOp35
 70
     1
102
RTVSPropertyOp36
 70
     1
102
RTVSPropertyOp37
 70
     1
102
RTVSPropertyOp38
 70
     1
102
RTVSPropertyOp39
 70
     1
102
RTVSPropertyOp40
 70
     1
102
RTVSPropertyOp41
 70
     1
102
RTVSPropertyOp42
 70
     1
102
RTVSPropertyOp43
 70
     1
102
RTVSPropertyOp44
 70
     1
102
RTVSPropertyOp45
 70
     1
102
RTVSPropertyOp46
 70
     1
102
RTVSPropertyOp47
 70
     1
102
RTVSPropertyOp48
 70
     1
102
RTVSPropertyOp49
 70
     1
102
RTVSPropertyOp50
 70
     1
102
RTVSPropertyOp51
 70
     0
102
RTVSPropertyOp52
 70
     0
102
RTVSPropertyOp53
 70
     1
102
RTVSPropertyOp54
 70
     1
102
RTVSPropertyOp55
 70
     1
102
RTVSPropertyOp56
 70
     1
102
RTVSPropertyOp57
 70
     1
102
RTVSPropertyOp58
 70
     1
102
RTVSPropertyOp59
 70
     1
102
RTVSPropertyOp60
 70
     1
102
RTVSPropertyOp61
 70
     1
102
RTVSPropertyOp62
 70
     1
  0
XRECORD
  5
372
102
{ACAD_REACTORS
330
371
102
}
330
371
100
AcDbXrecord
280
     1
102
RTVSPost2010Prop28
280
     0
102
RTVSPost2010PropOp28
 70
     1
102
RTVSPost2010Prop29
280
     1
102
RTVSPost2010PropOp29
 70
     1
102
RTVSPost2010Prop30
280
     1
102
RTVSPost2010PropOp30
 70
     1
102
RTVSPost2010Prop31
280
     0
102
RTVSPost2010PropOp31
 70
     1
102
RTVSPost2010Prop32
280
     0
102
RTVSPost2010PropOp32
 70
     1
102
RTVSPost2010Prop33
280
     0
102
RTVSPost2010PropOp33
 70
     1
102
RTVSPost2010Prop34
280
     0
102
RTVSPost2010PropOp34
 70
     1
102
RTVSPost2010Prop35
280
     0
102
RTVSPost2010PropOp35
 70
     1
102
RTVSPost2010Prop36
280
     0
102
RTVSPost2010PropOp36
 70
     1
102
RTVSPost2010Prop37
 90
       50
102
RTVSPost2010PropOp37
 70
     1
102
RTVSPost2010Prop38
140
0.0
102
RTVSPost2010PropOp38
 70
     1
102
RTVSPost2010Prop39
140
1.0
102
RTVSPost2010PropOp39
 70
     1
102
RTVSPost2010Prop40
 90
        0
102
RTVSPost2010PropOp40
 70
     1
102
RTVSPost2010Prop41ColorIndex
 90
       18
102
RTVSPost2010Prop41ColorRGB
 90
        0
102
RTVSPost2010PropOp41
 70
     1
102
RTVSPost2010Prop42
 90
       50
102
RTVSPost2010PropOp42
 70
     1
102
RTVSPost2010Prop43
 90
        3
102
RTVSPost2010PropOp43
 70
     1
102
RTVSPost2010Prop44ColorIndex
 90
        5
102
RTVSPost2010Prop44ColorRGB
 90
      255
102
RTVSPost2010PropOp44
 70
     1
102
RTVSPost2010Prop45
280
     0
102
RTVSPost2010PropOp45
 70
     1
102
RTVSPost2010Prop46
 90
       50
102
RTVSPost2010PropOp46
 70
     1
102
RTVSPost2010Prop47
 90
       50
102
RTVSPost2010PropOp47
 70
     1
102
RTVSPost2010Prop48
 90
       50
102
RTVSPost2010PropOp48
 70
     1
102
RTVSPost2010Prop49
280
     0
102
RTVSPost2010PropOp49
 70
     1
102
RTVSPost2010Prop50
 90
       50
102
RTVSPost2010PropOp50
 70
     1
102
RTVSPost2010Prop51ColorIndex
 90
      256
102
RTVSPost2010Prop51ColorRGB
 90
-16777216
102
RTVSPost2010PropOp51
 70
     0
102
RTVSPost2010Prop52
140
1.0
102
RTVSPost2010PropOp52
 70
     0
102
RTVSPost2010Prop53
 90
        2
102
RTVSPost2010PropOp53
 70
     1
102
RTVSPost2010Prop54
  1
strokes_ogs.tif
102
RTVSPost2010PropOp54
 70
     1
102
RTVSPost2010Prop55
280
     0
102
RTVSPost2010PropOp55
 70
     1
102
RTVSPost2010Prop56
140
1.0
102
RTVSPost2010PropOp56
 70
     1
102
RTVSPost2010Prop57
140
1.0
102
RTVSPost2010PropOp57
 70
     1
102
RTVSPropertyOp0
 70
     1
102
RTVSPropertyOp1
 70
     1
102
RTVSPropertyOp2
 70
     1
102
RTVSPropertyOp3
 70
     1
102
RTVSPropertyOp4
 70
     1
102
RTVSPropertyOp5
 70
     1
102
RTVSPropertyOp6
 70
     1
102
RTVSPropertyOp7
 70
     1
102
RTVSPropertyOp8
 70
     1
102
RTVSPropertyOp9
 70
     1
102
RTVSPropertyOp10
 70
     1
102
RTVSPropertyOp11
 70
     1
102
RTVSPropertyOp12
 70
     1
102
RTVSPropertyOp13
 70
     1
102
RTVSPropertyOp14
 70
     1
102
RTVSPropertyOp15
 70
     1
102
RTVSPropertyOp16
 70
     1
102
RTVSPropertyOp17
 70
     1
102
RTVSPropertyOp18
 70
     1
102
RTVSPropertyOp19
 70
     1
102
RTVSPropertyOp20
 70
     1
102
RTVSPropertyOp21
 70
     1
102
RTVSPropertyOp22
 70
     1
102
RTVSPropertyOp23
 70
     1
102
RTVSPropertyOp24
 70
     1
102
RTVSPropertyOp25
 70
     1
102
RTVSPropertyOp26
 70
     1
102
RTVSPropertyOp27
 70
     1
102
RTVSPropertyOp28
 70
     1
102
RTVSPropertyOp29
 70
     1
102
RTVSPropertyOp30
 70
     1
102
RTVSPropertyOp31
 70
     1
102
RTVSPropertyOp32
 70
     1
102
RTVSPropertyOp33
 70
     1
102
RTVSPropertyOp34
 70
     1
102
RTVSPropertyOp35
 70
     1
102
RTVSPropertyOp36
 70
     1
102
RTVSPropertyOp37
 70
     1
102
RTVSPropertyOp38
 70
     1
102
RTVSPropertyOp39
 70
     1
102
RTVSPropertyOp40
 70
     1
102
RTVSPropertyOp41
 70
     1
102
RTVSPropertyOp42
 70
     1
102
RTVSPropertyOp43
 70
     1
102
RTVSPropertyOp44
 70
     1
102
RTVSPropertyOp45
 70
     1
102
RTVSPropertyOp46
 70
     1
102
RTVSPropertyOp47
 70
     1
102
RTVSPropertyOp48
 70
     1
102
RTVSPropertyOp49
 70
     1
102
RTVSPropertyOp50
 70
     1
102
RTVSPropertyOp51
 70
     0
102
RTVSPropertyOp52
 70
     0
102
RTVSPropertyOp53
 70
     1
102
RTVSPropertyOp54
 70
     1
102
RTVSPropertyOp55
 70
     1
102
RTVSPropertyOp56
 70
     1
102
RTVSPropertyOp57
 70
     1
102
RTVSPropertyOp58
 70
     1
102
RTVSPropertyOp59
 70
     1
102
RTVSPropertyOp60
 70
     1
102
RTVSPropertyOp61
 70
     1
102
RTVSPropertyOp62
 70
     1
  0
XRECORD
  5
374
102
{ACAD_REACTORS
330
373
102
}
330
373
100
AcDbXrecord
280
     1
102
RTVSPost2010Prop28
280
     0
102
RTVSPost2010PropOp28
 70
     1
102
RTVSPost2010Prop29
280
     1
102
RTVSPost2010PropOp29
 70
     1
102
RTVSPost2010Prop30
280
     1
102
RTVSPost2010PropOp30
 70
     1
102
RTVSPost2010Prop31
280
     0
102
RTVSPost2010PropOp31
 70
     1
102
RTVSPost2010Prop32
280
     0
102
RTVSPost2010PropOp32
 70
     1
102
RTVSPost2010Prop33
280
     0
102
RTVSPost2010PropOp33
 70
     1
102
RTVSPost2010Prop34
280
     0
102
RTVSPost2010PropOp34
 70
     1
102
RTVSPost2010Prop35
280
     0
102
RTVSPost2010PropOp35
 70
     1
102
RTVSPost2010Prop36
280
     0
102
RTVSPost2010PropOp36
 70
     1
102
RTVSPost2010Prop37
 90
       50
102
RTVSPost2010PropOp37
 70
     1
102
RTVSPost2010Prop38
140
0.0
102
RTVSPost2010PropOp38
 70
     1
102
RTVSPost2010Prop39
140
1.0
102
RTVSPost2010PropOp39
 70
     1
102
RTVSPost2010Prop40
 90
        0
102
RTVSPost2010PropOp40
 70
     1
102
RTVSPost2010Prop41ColorIndex
 90
       18
102
RTVSPost2010Prop41ColorRGB
 90
        0
102
RTVSPost2010PropOp41
 70
     1
102
RTVSPost2010Prop42
 90
       50
102
RTVSPost2010PropOp42
 70
     1
102
RTVSPost2010Prop43
 90
        3
102
RTVSPost2010PropOp43
 70
     1
102
RTVSPost2010Prop44ColorIndex
 90
        5
102
RTVSPost2010Prop44ColorRGB
 90
      255
102
RTVSPost2010PropOp44
 70
     1
102
RTVSPost2010Prop45
280
     0
102
RTVSPost2010PropOp45
 70
     1
102
RTVSPost2010Prop46
 90
       50
102
RTVSPost2010PropOp46
 70
     1
102
RTVSPost2010Prop47
 90
       50
102
RTVSPost2010PropOp47
 70
     1
102
RTVSPost2010Prop48
 90
       50
102
RTVSPost2010PropOp48
 70
     1
102
RTVSPost2010Prop49
280
     0
102
RTVSPost2010PropOp49
 70
     1
102
RTVSPost2010Prop50
 90
       50
102
RTVSPost2010PropOp50
 70
     1
102
RTVSPost2010Prop51ColorIndex
 90
      256
102
RTVSPost2010Prop51ColorRGB
 90
-16777216
102
RTVSPost2010PropOp51
 70
     0
102
RTVSPost2010Prop52
140
1.0
102
RTVSPost2010PropOp52
 70
     0
102
RTVSPost2010Prop53
 90
        2
102
RTVSPost2010PropOp53
 70
     1
102
RTVSPost2010Prop54
  1
strokes_ogs.tif
102
RTVSPost2010PropOp54
 70
     1
102
RTVSPost2010Prop55
280
     0
102
RTVSPost2010PropOp55
 70
     1
102
RTVSPost2010Prop56
140
1.0
102
RTVSPost2010PropOp56
 70
     1
102
RTVSPost2010Prop57
140
1.0
102
RTVSPost2010PropOp57
 70
     1
102
RTVSPropertyOp0
 70
     1
102
RTVSPropertyOp1
 70
     1
102
RTVSPropertyOp2
 70
     1
102
RTVSPropertyOp3
 70
     1
102
RTVSPropertyOp4
 70
     1
102
RTVSPropertyOp5
 70
     1
102
RTVSPropertyOp6
 70
     1
102
RTVSPropertyOp7
 70
     1
102
RTVSPropertyOp8
 70
     1
102
RTVSPropertyOp9
 70
     1
102
RTVSPropertyOp10
 70
     1
102
RTVSPropertyOp11
 70
     1
102
RTVSPropertyOp12
 70
     1
102
RTVSPropertyOp13
 70
     1
102
RTVSPropertyOp14
 70
     1
102
RTVSPropertyOp15
 70
     1
102
RTVSPropertyOp16
 70
     1
102
RTVSPropertyOp17
 70
     1
102
RTVSPropertyOp18
 70
     1
102
RTVSPropertyOp19
 70
     1
102
RTVSPropertyOp20
 70
     1
102
RTVSPropertyOp21
 70
     1
102
RTVSPropertyOp22
 70
     1
102
RTVSPropertyOp23
 70
     1
102
RTVSPropertyOp24
 70
     1
102
RTVSPropertyOp25
 70
     1
102
RTVSPropertyOp26
 70
     1
102
RTVSPropertyOp27
 70
     1
102
RTVSPropertyOp28
 70
     1
102
RTVSPropertyOp29
 70
     1
102
RTVSPropertyOp30
 70
     1
102
RTVSPropertyOp31
 70
     1
102
RTVSPropertyOp32
 70
     1
102
RTVSPropertyOp33
 70
     1
102
RTVSPropertyOp34
 70
     1
102
RTVSPropertyOp35
 70
     1
102
RTVSPropertyOp36
 70
     1
102
RTVSPropertyOp37
 70
     1
102
RTVSPropertyOp38
 70
     1
102
RTVSPropertyOp39
 70
     1
102
RTVSPropertyOp40
 70
     1
102
RTVSPropertyOp41
 70
     1
102
RTVSPropertyOp42
 70
     1
102
RTVSPropertyOp43
 70
     1
102
RTVSPropertyOp44
 70
     1
102
RTVSPropertyOp45
 70
     1
102
RTVSPropertyOp46
 70
     1
102
RTVSPropertyOp47
 70
     1
102
RTVSPropertyOp48
 70
     1
102
RTVSPropertyOp49
 70
     1
102
RTVSPropertyOp50
 70
     1
102
RTVSPropertyOp51
 70
     0
102
RTVSPropertyOp52
 70
     0
102
RTVSPropertyOp53
 70
     1
102
RTVSPropertyOp54
 70
     1
102
RTVSPropertyOp55
 70
     1
102
RTVSPropertyOp56
 70
     1
102
RTVSPropertyOp57
 70
     1
102
RTVSPropertyOp58
 70
     1
102
RTVSPropertyOp59
 70
     1
102
RTVSPropertyOp60
 70
     1
102
RTVSPropertyOp61
 70
     1
102
RTVSPropertyOp62
 70
     1
  0
XRECORD
  5
384
102
{ACAD_REACTORS
330
383
102
}
330
383
100
AcDbXrecord
280
     1
102
RTVSPost2010Prop28
280
     0
102
RTVSPost2010PropOp28
 70
     0
102
RTVSPost2010Prop29
280
     1
102
RTVSPost2010PropOp29
 70
     0
102
RTVSPost2010Prop30
280
     1
102
RTVSPost2010PropOp30
 70
     0
102
RTVSPost2010Prop31
280
     0
102
RTVSPost2010PropOp31
 70
     0
102
RTVSPost2010Prop32
280
     0
102
RTVSPost2010PropOp32
 70
     0
102
RTVSPost2010Prop33
280
     0
102
RTVSPost2010PropOp33
 70
     0
102
RTVSPost2010Prop34
280
     0
102
RTVSPost2010PropOp34
 70
     0
102
RTVSPost2010Prop35
280
     0
102
RTVSPost2010PropOp35
 70
     0
102
RTVSPost2010Prop36
280
     0
102
RTVSPost2010PropOp36
 70
     0
102
RTVSPost2010Prop37
 90
       50
102
RTVSPost2010PropOp37
 70
     0
102
RTVSPost2010Prop38
140
0.0
102
RTVSPost2010PropOp38
 70
     0
102
RTVSPost2010Prop39
140
1.0
102
RTVSPost2010PropOp39
 70
     0
102
RTVSPost2010Prop40
 90
        0
102
RTVSPost2010PropOp40
 70
     0
102
RTVSPost2010Prop41ColorIndex
 90
       18
102
RTVSPost2010Prop41ColorRGB
 90
        0
102
RTVSPost2010PropOp41
 70
     0
102
RTVSPost2010Prop42
 90
       50
102
RTVSPost2010PropOp42
 70
     0
102
RTVSPost2010Prop43
 90
        3
102
RTVSPost2010PropOp43
 70
     0
102
RTVSPost2010Prop44ColorIndex
 90
        5
102
RTVSPost2010Prop44ColorRGB
 90
      255
102
RTVSPost2010PropOp44
 70
     0
102
RTVSPost2010Prop45
280
     0
102
RTVSPost2010PropOp45
 70
     0
102
RTVSPost2010Prop46
 90
       50
102
RTVSPost2010PropOp46
 70
     0
102
RTVSPost2010Prop47
 90
       50
102
RTVSPost2010PropOp47
 70
     0
102
RTVSPost2010Prop48
 90
       50
102
RTVSPost2010PropOp48
 70
     0
102
RTVSPost2010Prop49
280
     0
102
RTVSPost2010PropOp49
 70
     0
102
RTVSPost2010Prop50
 90
       50
102
RTVSPost2010PropOp50
 70
     0
102
RTVSPost2010Prop51ColorIndex
 90
      256
102
RTVSPost2010Prop51ColorRGB
 90
-16777216
102
RTVSPost2010PropOp51
 70
     0
102
RTVSPost2010Prop52
140
1.0
102
RTVSPost2010PropOp52
 70
     0
102
RTVSPost2010Prop53
 90
        2
102
RTVSPost2010PropOp53
 70
     0
102
RTVSPost2010Prop54
  1
strokes_ogs.tif
102
RTVSPost2010PropOp54
 70
     0
102
RTVSPost2010Prop55
280
     0
102
RTVSPost2010PropOp55
 70
     0
102
RTVSPost2010Prop56
140
1.0
102
RTVSPost2010PropOp56
 70
     0
102
RTVSPost2010Prop57
140
1.0
102
RTVSPost2010PropOp57
 70
     0
102
RTVSPropertyOp0
 70
     0
102
RTVSPropertyOp1
 70
     0
102
RTVSPropertyOp2
 70
     0
102
RTVSPropertyOp3
 70
     0
102
RTVSPropertyOp4
 70
     0
102
RTVSPropertyOp5
 70
     0
102
RTVSPropertyOp6
 70
     0
102
RTVSPropertyOp7
 70
     0
102
RTVSPropertyOp8
 70
     0
102
RTVSPropertyOp9
 70
     0
102
RTVSPropertyOp10
 70
     0
102
RTVSPropertyOp11
 70
     0
102
RTVSPropertyOp12
 70
     0
102
RTVSPropertyOp13
 70
     0
102
RTVSPropertyOp14
 70
     2
102
RTVSPropertyOp15
 70
     0
102
RTVSPropertyOp16
 70
     0
102
RTVSPropertyOp17
 70
     0
102
RTVSPropertyOp18
 70
     0
102
RTVSPropertyOp19
 70
     0
102
RTVSPropertyOp20
 70
     0
102
RTVSPropertyOp21
 70
     0
102
RTVSPropertyOp22
 70
     0
102
RTVSPropertyOp23
 70
     0
102
RTVSPropertyOp24
 70
     0
102
RTVSPropertyOp25
 70
     0
102
RTVSPropertyOp26
 70
     0
102
RTVSPropertyOp27
 70
     0
102
RTVSPropertyOp28
 70
     0
102
RTVSPropertyOp29
 70
     0
102
RTVSPropertyOp30
 70
     0
102
RTVSPropertyOp31
 70
     0
102
RTVSPropertyOp32
 70
     0
102
RTVSPropertyOp33
 70
     0
102
RTVSPropertyOp34
 70
     0
102
RTVSPropertyOp35
 70
     0
102
RTVSPropertyOp36
 70
     0
102
RTVSPropertyOp37
 70
     0
102
RTVSPropertyOp38
 70
     0
102
RTVSPropertyOp39
 70
     0
102
RTVSPropertyOp40
 70
     0
102
RTVSPropertyOp41
 70
     0
102
RTVSPropertyOp42
 70
     0
102
RTVSPropertyOp43
 70
     0
102
RTVSPropertyOp44
 70
     0
102
RTVSPropertyOp45
 70
     0
102
RTVSPropertyOp46
 70
     0
102
RTVSPropertyOp47
 70
     0
102
RTVSPropertyOp48
 70
     0
102
RTVSPropertyOp49
 70
     0
102
RTVSPropertyOp50
 70
     0
102
RTVSPropertyOp51
 70
     0
102
RTVSPropertyOp52
 70
     0
102
RTVSPropertyOp53
 70
     0
102
RTVSPropertyOp54
 70
     0
102
RTVSPropertyOp55
 70
     0
102
RTVSPropertyOp56
 70
     0
102
RTVSPropertyOp57
 70
     0
102
RTVSPropertyOp58
 70
     1
102
RTVSPropertyOp59
 70
     1
102
RTVSPropertyOp60
 70
     1
102
RTVSPropertyOp61
 70
     1
102
RTVSPropertyOp62
 70
     1
  0
XRECORD
  5
37C
102
{ACAD_REACTORS
330
37B
102
}
330
37B
100
AcDbXrecord
280
     1
102
RTVSPost2010Prop28
280
     0
102
RTVSPost2010PropOp28
 70
     1
102
RTVSPost2010Prop29
280
     1
102
RTVSPost2010PropOp29
 70
     1
102
RTVSPost2010Prop30
280
     1
102
RTVSPost2010PropOp30
 70
     1
102
RTVSPost2010Prop31
280
     0
102
RTVSPost2010PropOp31
 70
     1
102
RTVSPost2010Prop32
280
     0
102
RTVSPost2010PropOp32
 70
     1
102
RTVSPost2010Prop33
280
     0
102
RTVSPost2010PropOp33
 70
     1
102
RTVSPost2010Prop34
280
     0
102
RTVSPost2010PropOp34
 70
     1
102
RTVSPost2010Prop35
280
     0
102
RTVSPost2010PropOp35
 70
     1
102
RTVSPost2010Prop36
280
     0
102
RTVSPost2010PropOp36
 70
     1
102
RTVSPost2010Prop37
 90
       50
102
RTVSPost2010PropOp37
 70
     1
102
RTVSPost2010Prop38
140
0.0
102
RTVSPost2010PropOp38
 70
     1
102
RTVSPost2010Prop39
140
1.0
102
RTVSPost2010PropOp39
 70
     1
102
RTVSPost2010Prop40
 90
        0
102
RTVSPost2010PropOp40
 70
     1
102
RTVSPost2010Prop41ColorIndex
 90
       18
102
RTVSPost2010Prop41ColorRGB
 90
        0
102
RTVSPost2010PropOp41
 70
     1
102
RTVSPost2010Prop42
 90
       50
102
RTVSPost2010PropOp42
 70
     1
102
RTVSPost2010Prop43
 90
        3
102
RTVSPost2010PropOp43
 70
     1
102
RTVSPost2010Prop44ColorIndex
 90
        5
102
RTVSPost2010Prop44ColorRGB
 90
      255
102
RTVSPost2010PropOp44
 70
     1
102
RTVSPost2010Prop45
280
     0
102
RTVSPost2010PropOp45
 70
     1
102
RTVSPost2010Prop46
 90
       50
102
RTVSPost2010PropOp46
 70
     1
102
RTVSPost2010Prop47
 90
       50
102
RTVSPost2010PropOp47
 70
     1
102
RTVSPost2010Prop48
 90
       50
102
RTVSPost2010PropOp48
 70
     1
102
RTVSPost2010Prop49
280
     0
102
RTVSPost2010PropOp49
 70
     1
102
RTVSPost2010Prop50
 90
       50
102
RTVSPost2010PropOp50
 70
     1
102
RTVSPost2010Prop51ColorIndex
 90
      256
102
RTVSPost2010Prop51ColorRGB
 90
-16777216
102
RTVSPost2010PropOp51
 70
     0
102
RTVSPost2010Prop52
140
1.0
102
RTVSPost2010PropOp52
 70
     0
102
RTVSPost2010Prop53
 90
        2
102
RTVSPost2010PropOp53
 70
     1
102
RTVSPost2010Prop54
  1
strokes_ogs.tif
102
RTVSPost2010PropOp54
 70
     1
102
RTVSPost2010Prop55
280
     0
102
RTVSPost2010PropOp55
 70
     1
102
RTVSPost2010Prop56
140
1.0
102
RTVSPost2010PropOp56
 70
     1
102
RTVSPost2010Prop57
140
1.0
102
RTVSPost2010PropOp57
 70
     1
102
RTVSPropertyOp0
 70
     1
102
RTVSPropertyOp1
 70
     1
102
RTVSPropertyOp2
 70
     1
102
RTVSPropertyOp3
 70
     1
102
RTVSPropertyOp4
 70
     1
102
RTVSPropertyOp5
 70
     1
102
RTVSPropertyOp6
 70
     1
102
RTVSPropertyOp7
 70
     1
102
RTVSPropertyOp8
 70
     1
102
RTVSPropertyOp9
 70
     1
102
RTVSPropertyOp10
 70
     1
102
RTVSPropertyOp11
 70
     1
102
RTVSPropertyOp12
 70
     1
102
RTVSPropertyOp13
 70
     1
102
RTVSPropertyOp14
 70
     1
102
RTVSPropertyOp15
 70
     1
102
RTVSPropertyOp16
 70
     1
102
RTVSPropertyOp17
 70
     1
102
RTVSPropertyOp18
 70
     1
102
RTVSPropertyOp19
 70
     1
102
RTVSPropertyOp20
 70
     1
102
RTVSPropertyOp21
 70
     1
102
RTVSPropertyOp22
 70
     1
102
RTVSPropertyOp23
 70
     1
102
RTVSPropertyOp24
 70
     1
102
RTVSPropertyOp25
 70
     1
102
RTVSPropertyOp26
 70
     1
102
RTVSPropertyOp27
 70
     1
102
RTVSPropertyOp28
 70
     1
102
RTVSPropertyOp29
 70
     1
102
RTVSPropertyOp30
 70
     1
102
RTVSPropertyOp31
 70
     1
102
RTVSPropertyOp32
 70
     1
102
RTVSPropertyOp33
 70
     1
102
RTVSPropertyOp34
 70
     1
102
RTVSPropertyOp35
 70
     1
102
RTVSPropertyOp36
 70
     1
102
RTVSPropertyOp37
 70
     1
102
RTVSPropertyOp38
 70
     1
102
RTVSPropertyOp39
 70
     1
102
RTVSPropertyOp40
 70
     1
102
RTVSPropertyOp41
 70
     1
102
RTVSPropertyOp42
 70
     1
102
RTVSPropertyOp43
 70
     1
102
RTVSPropertyOp44
 70
     1
102
RTVSPropertyOp45
 70
     1
102
RTVSPropertyOp46
 70
     1
102
RTVSPropertyOp47
 70
     1
102
RTVSPropertyOp48
 70
     1
102
RTVSPropertyOp49
 70
     1
102
RTVSPropertyOp50
 70
     1
102
RTVSPropertyOp51
 70
     0
102
RTVSPropertyOp52
 70
     0
102
RTVSPropertyOp53
 70
     1
102
RTVSPropertyOp54
 70
     1
102
RTVSPropertyOp55
 70
     1
102
RTVSPropertyOp56
 70
     1
102
RTVSPropertyOp57
 70
     1
102
RTVSPropertyOp58
 70
     1
102
RTVSPropertyOp59
 70
     1
102
RTVSPropertyOp60
 70
     1
102
RTVSPropertyOp61
 70
     1
102
RTVSPropertyOp62
 70
     1
  0
XRECORD
  5
360
102
{ACAD_REACTORS
330
35F
102
}
330
35F
100
AcDbXrecord
280
     1
102
RTVSPost2010Prop28
280
     0
102
RTVSPost2010PropOp28
 70
     1
102
RTVSPost2010Prop29
280
     1
102
RTVSPost2010PropOp29
 70
     1
102
RTVSPost2010Prop30
280
     1
102
RTVSPost2010PropOp30
 70
     1
102
RTVSPost2010Prop31
280
     0
102
RTVSPost2010PropOp31
 70
     1
102
RTVSPost2010Prop32
280
     0
102
RTVSPost2010PropOp32
 70
     1
102
RTVSPost2010Prop33
280
     0
102
RTVSPost2010PropOp33
 70
     1
102
RTVSPost2010Prop34
280
     0
102
RTVSPost2010PropOp34
 70
     1
102
RTVSPost2010Prop35
280
     0
102
RTVSPost2010PropOp35
 70
     1
102
RTVSPost2010Prop36
280
     0
102
RTVSPost2010PropOp36
 70
     1
102
RTVSPost2010Prop37
 90
       50
102
RTVSPost2010PropOp37
 70
     1
102
RTVSPost2010Prop38
140
0.0
102
RTVSPost2010PropOp38
 70
     1
102
RTVSPost2010Prop39
140
1.0
102
RTVSPost2010PropOp39
 70
     1
102
RTVSPost2010Prop40
 90
        0
102
RTVSPost2010PropOp40
 70
     1
102
RTVSPost2010Prop41ColorIndex
 90
       18
102
RTVSPost2010Prop41ColorRGB
 90
        0
102
RTVSPost2010PropOp41
 70
     1
102
RTVSPost2010Prop42
 90
       50
102
RTVSPost2010PropOp42
 70
     1
102
RTVSPost2010Prop43
 90
        3
102
RTVSPost2010PropOp43
 70
     1
102
RTVSPost2010Prop44ColorIndex
 90
        5
102
RTVSPost2010Prop44ColorRGB
 90
      255
102
RTVSPost2010PropOp44
 70
     1
102
RTVSPost2010Prop45
280
     0
102
RTVSPost2010PropOp45
 70
     1
102
RTVSPost2010Prop46
 90
       50
102
RTVSPost2010PropOp46
 70
     1
102
RTVSPost2010Prop47
 90
       50
102
RTVSPost2010PropOp47
 70
     1
102
RTVSPost2010Prop48
 90
       50
102
RTVSPost2010PropOp48
 70
     1
102
RTVSPost2010Prop49
280
     0
102
RTVSPost2010PropOp49
 70
     1
102
RTVSPost2010Prop50
 90
       50
102
RTVSPost2010PropOp50
 70
     1
102
RTVSPost2010Prop51ColorIndex
 90
      256
102
RTVSPost2010Prop51ColorRGB
 90
-16777216
102
RTVSPost2010PropOp51
 70
     0
102
RTVSPost2010Prop52
140
1.0
102
RTVSPost2010PropOp52
 70
     0
102
RTVSPost2010Prop53
 90
        2
102
RTVSPost2010PropOp53
 70
     1
102
RTVSPost2010Prop54
  1
strokes_ogs.tif
102
RTVSPost2010PropOp54
 70
     1
102
RTVSPost2010Prop55
280
     0
102
RTVSPost2010PropOp55
 70
     1
102
RTVSPost2010Prop56
140
1.0
102
RTVSPost2010PropOp56
 70
     1
102
RTVSPost2010Prop57
140
1.0
102
RTVSPost2010PropOp57
 70
     1
102
RTVSPropertyOp0
 70
     1
102
RTVSPropertyOp1
 70
     1
102
RTVSPropertyOp2
 70
     1
102
RTVSPropertyOp3
 70
     1
102
RTVSPropertyOp4
 70
     1
102
RTVSPropertyOp5
 70
     1
102
RTVSPropertyOp6
 70
     1
102
RTVSPropertyOp7
 70
     1
102
RTVSPropertyOp8
 70
     1
102
RTVSPropertyOp9
 70
     1
102
RTVSPropertyOp10
 70
     1
102
RTVSPropertyOp11
 70
     1
102
RTVSPropertyOp12
 70
     1
102
RTVSPropertyOp13
 70
     1
102
RTVSPropertyOp14
 70
     1
102
RTVSPropertyOp15
 70
     1
102
RTVSPropertyOp16
 70
     1
102
RTVSPropertyOp17
 70
     1
102
RTVSPropertyOp18
 70
     1
102
RTVSPropertyOp19
 70
     1
102
RTVSPropertyOp20
 70
     1
102
RTVSPropertyOp21
 70
     1
102
RTVSPropertyOp22
 70
     1
102
RTVSPropertyOp23
 70
     1
102
RTVSPropertyOp24
 70
     1
102
RTVSPropertyOp25
 70
     1
102
RTVSPropertyOp26
 70
     1
102
RTVSPropertyOp27
 70
     1
102
RTVSPropertyOp28
 70
     1
102
RTVSPropertyOp29
 70
     1
102
RTVSPropertyOp30
 70
     1
102
RTVSPropertyOp31
 70
     1
102
RTVSPropertyOp32
 70
     1
102
RTVSPropertyOp33
 70
     1
102
RTVSPropertyOp34
 70
     1
102
RTVSPropertyOp35
 70
     1
102
RTVSPropertyOp36
 70
     1
102
RTVSPropertyOp37
 70
     1
102
RTVSPropertyOp38
 70
     1
102
RTVSPropertyOp39
 70
     1
102
RTVSPropertyOp40
 70
     1
102
RTVSPropertyOp41
 70
     1
102
RTVSPropertyOp42
 70
     1
102
RTVSPropertyOp43
 70
     1
102
RTVSPropertyOp44
 70
     1
102
RTVSPropertyOp45
 70
     1
102
RTVSPropertyOp46
 70
     1
102
RTVSPropertyOp47
 70
     1
102
RTVSPropertyOp48
 70
     1
102
RTVSPropertyOp49
 70
     1
102
RTVSPropertyOp50
 70
     1
102
RTVSPropertyOp51
 70
     0
102
RTVSPropertyOp52
 70
     0
102
RTVSPropertyOp53
 70
     1
102
RTVSPropertyOp54
 70
     1
102
RTVSPropertyOp55
 70
     1
102
RTVSPropertyOp56
 70
     1
102
RTVSPropertyOp57
 70
     1
102
RTVSPropertyOp58
 70
     1
102
RTVSPropertyOp59
 70
     1
102
RTVSPropertyOp60
 70
     1
102
RTVSPropertyOp61
 70
     1
102
RTVSPropertyOp62
 70
     1
  0
XRECORD
  5
362
102
{ACAD_REACTORS
330
361
102
}
330
361
100
AcDbXrecord
280
     1
102
RTVSPost2010Prop28
280
     0
102
RTVSPost2010PropOp28
 70
     1
102
RTVSPost2010Prop29
280
     1
102
RTVSPost2010PropOp29
 70
     1
102
RTVSPost2010Prop30
280
     1
102
RTVSPost2010PropOp30
 70
     1
102
RTVSPost2010Prop31
280
     0
102
RTVSPost2010PropOp31
 70
     1
102
RTVSPost2010Prop32
280
     0
102
RTVSPost2010PropOp32
 70
     1
102
RTVSPost2010Prop33
280
     0
102
RTVSPost2010PropOp33
 70
     1
102
RTVSPost2010Prop34
280
     0
102
RTVSPost2010PropOp34
 70
     1
102
RTVSPost2010Prop35
280
     0
102
RTVSPost2010PropOp35
 70
     1
102
RTVSPost2010Prop36
280
     0
102
RTVSPost2010PropOp36
 70
     1
102
RTVSPost2010Prop37
 90
       50
102
RTVSPost2010PropOp37
 70
     1
102
RTVSPost2010Prop38
140
0.0
102
RTVSPost2010PropOp38
 70
     1
102
RTVSPost2010Prop39
140
1.0
102
RTVSPost2010PropOp39
 70
     1
102
RTVSPost2010Prop40
 90
        0
102
RTVSPost2010PropOp40
 70
     1
102
RTVSPost2010Prop41ColorIndex
 90
       18
102
RTVSPost2010Prop41ColorRGB
 90
        0
102
RTVSPost2010PropOp41
 70
     1
102
RTVSPost2010Prop42
 90
       50
102
RTVSPost2010PropOp42
 70
     1
102
RTVSPost2010Prop43
 90
        3
102
RTVSPost2010PropOp43
 70
     1
102
RTVSPost2010Prop44ColorIndex
 90
        5
102
RTVSPost2010Prop44ColorRGB
 90
      255
102
RTVSPost2010PropOp44
 70
     1
102
RTVSPost2010Prop45
280
     0
102
RTVSPost2010PropOp45
 70
     1
102
RTVSPost2010Prop46
 90
       50
102
RTVSPost2010PropOp46
 70
     1
102
RTVSPost2010Prop47
 90
       50
102
RTVSPost2010PropOp47
 70
     1
102
RTVSPost2010Prop48
 90
       50
102
RTVSPost2010PropOp48
 70
     1
102
RTVSPost2010Prop49
280
     0
102
RTVSPost2010PropOp49
 70
     1
102
RTVSPost2010Prop50
 90
       50
102
RTVSPost2010PropOp50
 70
     1
102
RTVSPost2010Prop51ColorIndex
 90
      256
102
RTVSPost2010Prop51ColorRGB
 90
-16777216
102
RTVSPost2010PropOp51
 70
     0
102
RTVSPost2010Prop52
140
1.0
102
RTVSPost2010PropOp52
 70
     0
102
RTVSPost2010Prop53
 90
        2
102
RTVSPost2010PropOp53
 70
     1
102
RTVSPost2010Prop54
  1
strokes_ogs.tif
102
RTVSPost2010PropOp54
 70
     1
102
RTVSPost2010Prop55
280
     0
102
RTVSPost2010PropOp55
 70
     1
102
RTVSPost2010Prop56
140
1.0
102
RTVSPost2010PropOp56
 70
     1
102
RTVSPost2010Prop57
140
1.0
102
RTVSPost2010PropOp57
 70
     1
102
RTVSPropertyOp0
 70
     1
102
RTVSPropertyOp1
 70
     1
102
RTVSPropertyOp2
 70
     1
102
RTVSPropertyOp3
 70
     1
102
RTVSPropertyOp4
 70
     1
102
RTVSPropertyOp5
 70
     1
102
RTVSPropertyOp6
 70
     1
102
RTVSPropertyOp7
 70
     1
102
RTVSPropertyOp8
 70
     1
102
RTVSPropertyOp9
 70
     1
102
RTVSPropertyOp10
 70
     1
102
RTVSPropertyOp11
 70
     1
102
RTVSPropertyOp12
 70
     1
102
RTVSPropertyOp13
 70
     1
102
RTVSPropertyOp14
 70
     1
102
RTVSPropertyOp15
 70
     1
102
RTVSPropertyOp16
 70
     1
102
RTVSPropertyOp17
 70
     1
102
RTVSPropertyOp18
 70
     1
102
RTVSPropertyOp19
 70
     1
102
RTVSPropertyOp20
 70
     1
102
RTVSPropertyOp21
 70
     1
102
RTVSPropertyOp22
 70
     1
102
RTVSPropertyOp23
 70
     1
102
RTVSPropertyOp24
 70
     1
102
RTVSPropertyOp25
 70
     1
102
RTVSPropertyOp26
 70
     1
102
RTVSPropertyOp27
 70
     1
102
RTVSPropertyOp28
 70
     1
102
RTVSPropertyOp29
 70
     1
102
RTVSPropertyOp30
 70
     1
102
RTVSPropertyOp31
 70
     1
102
RTVSPropertyOp32
 70
     1
102
RTVSPropertyOp33
 70
     1
102
RTVSPropertyOp34
 70
     1
102
RTVSPropertyOp35
 70
     1
102
RTVSPropertyOp36
 70
     1
102
RTVSPropertyOp37
 70
     1
102
RTVSPropertyOp38
 70
     1
102
RTVSPropertyOp39
 70
     1
102
RTVSPropertyOp40
 70
     1
102
RTVSPropertyOp41
 70
     1
102
RTVSPropertyOp42
 70
     1
102
RTVSPropertyOp43
 70
     1
102
RTVSPropertyOp44
 70
     1
102
RTVSPropertyOp45
 70
     1
102
RTVSPropertyOp46
 70
     1
102
RTVSPropertyOp47
 70
     1
102
RTVSPropertyOp48
 70
     1
102
RTVSPropertyOp49
 70
     1
102
RTVSPropertyOp50
 70
     1
102
RTVSPropertyOp51
 70
     0
102
RTVSPropertyOp52
 70
     0
102
RTVSPropertyOp53
 70
     1
102
RTVSPropertyOp54
 70
     1
102
RTVSPropertyOp55
 70
     1
102
RTVSPropertyOp56
 70
     1
102
RTVSPropertyOp57
 70
     1
102
RTVSPropertyOp58
 70
     1
102
RTVSPropertyOp59
 70
     1
102
RTVSPropertyOp60
 70
     1
102
RTVSPropertyOp61
 70
     1
102
RTVSPropertyOp62
 70
     1
  0
XRECORD
  5
364
102
{ACAD_REACTORS
330
363
102
}
330
363
100
AcDbXrecord
280
     1
102
RTVSPost2010Prop28
280
     0
102
RTVSPost2010PropOp28
 70
     1
102
RTVSPost2010Prop29
280
     1
102
RTVSPost2010PropOp29
 70
     1
102
RTVSPost2010Prop30
280
     1
102
RTVSPost2010PropOp30
 70
     1
102
RTVSPost2010Prop31
280
     0
102
RTVSPost2010PropOp31
 70
     1
102
RTVSPost2010Prop32
280
     0
102
RTVSPost2010PropOp32
 70
     1
102
RTVSPost2010Prop33
280
     0
102
RTVSPost2010PropOp33
 70
     1
102
RTVSPost2010Prop34
280
     0
102
RTVSPost2010PropOp34
 70
     1
102
RTVSPost2010Prop35
280
     0
102
RTVSPost2010PropOp35
 70
     1
102
RTVSPost2010Prop36
280
     0
102
RTVSPost2010PropOp36
 70
     1
102
RTVSPost2010Prop37
 90
       50
102
RTVSPost2010PropOp37
 70
     1
102
RTVSPost2010Prop38
140
0.0
102
RTVSPost2010PropOp38
 70
     1
102
RTVSPost2010Prop39
140
1.0
102
RTVSPost2010PropOp39
 70
     1
102
RTVSPost2010Prop40
 90
        0
102
RTVSPost2010PropOp40
 70
     1
102
RTVSPost2010Prop41ColorIndex
 90
       18
102
RTVSPost2010Prop41ColorRGB
 90
        0
102
RTVSPost2010PropOp41
 70
     1
102
RTVSPost2010Prop42
 90
       50
102
RTVSPost2010PropOp42
 70
     1
102
RTVSPost2010Prop43
 90
        3
102
RTVSPost2010PropOp43
 70
     1
102
RTVSPost2010Prop44ColorIndex
 90
        5
102
RTVSPost2010Prop44ColorRGB
 90
      255
102
RTVSPost2010PropOp44
 70
     1
102
RTVSPost2010Prop45
280
     0
102
RTVSPost2010PropOp45
 70
     1
102
RTVSPost2010Prop46
 90
       50
102
RTVSPost2010PropOp46
 70
     1
102
RTVSPost2010Prop47
 90
       50
102
RTVSPost2010PropOp47
 70
     1
102
RTVSPost2010Prop48
 90
       50
102
RTVSPost2010PropOp48
 70
     1
102
RTVSPost2010Prop49
280
     0
102
RTVSPost2010PropOp49
 70
     1
102
RTVSPost2010Prop50
 90
       50
102
RTVSPost2010PropOp50
 70
     1
102
RTVSPost2010Prop51ColorIndex
 90
      256
102
RTVSPost2010Prop51ColorRGB
 90
-16777216
102
RTVSPost2010PropOp51
 70
     0
102
RTVSPost2010Prop52
140
1.0
102
RTVSPost2010PropOp52
 70
     0
102
RTVSPost2010Prop53
 90
        2
102
RTVSPost2010PropOp53
 70
     1
102
RTVSPost2010Prop54
  1
strokes_ogs.tif
102
RTVSPost2010PropOp54
 70
     1
102
RTVSPost2010Prop55
280
     0
102
RTVSPost2010PropOp55
 70
     1
102
RTVSPost2010Prop56
140
1.0
102
RTVSPost2010PropOp56
 70
     1
102
RTVSPost2010Prop57
140
1.0
102
RTVSPost2010PropOp57
 70
     1
102
RTVSPropertyOp0
 70
     1
102
RTVSPropertyOp1
 70
     1
102
RTVSPropertyOp2
 70
     1
102
RTVSPropertyOp3
 70
     1
102
RTVSPropertyOp4
 70
     1
102
RTVSPropertyOp5
 70
     1
102
RTVSPropertyOp6
 70
     1
102
RTVSPropertyOp7
 70
     1
102
RTVSPropertyOp8
 70
     1
102
RTVSPropertyOp9
 70
     1
102
RTVSPropertyOp10
 70
     1
102
RTVSPropertyOp11
 70
     1
102
RTVSPropertyOp12
 70
     1
102
RTVSPropertyOp13
 70
     1
102
RTVSPropertyOp14
 70
     1
102
RTVSPropertyOp15
 70
     1
102
RTVSPropertyOp16
 70
     1
102
RTVSPropertyOp17
 70
     1
102
RTVSPropertyOp18
 70
     1
102
RTVSPropertyOp19
 70
     1
102
RTVSPropertyOp20
 70
     1
102
RTVSPropertyOp21
 70
     1
102
RTVSPropertyOp22
 70
     1
102
RTVSPropertyOp23
 70
     1
102
RTVSPropertyOp24
 70
     1
102
RTVSPropertyOp25
 70
     1
102
RTVSPropertyOp26
 70
     1
102
RTVSPropertyOp27
 70
     1
102
RTVSPropertyOp28
 70
     1
102
RTVSPropertyOp29
 70
     1
102
RTVSPropertyOp30
 70
     1
102
RTVSPropertyOp31
 70
     1
102
RTVSPropertyOp32
 70
     1
102
RTVSPropertyOp33
 70
     1
102
RTVSPropertyOp34
 70
     1
102
RTVSPropertyOp35
 70
     1
102
RTVSPropertyOp36
 70
     1
102
RTVSPropertyOp37
 70
     1
102
RTVSPropertyOp38
 70
     1
102
RTVSPropertyOp39
 70
     1
102
RTVSPropertyOp40
 70
     1
102
RTVSPropertyOp41
 70
     1
102
RTVSPropertyOp42
 70
     1
102
RTVSPropertyOp43
 70
     1
102
RTVSPropertyOp44
 70
     1
102
RTVSPropertyOp45
 70
     1
102
RTVSPropertyOp46
 70
     1
102
RTVSPropertyOp47
 70
     1
102
RTVSPropertyOp48
 70
     1
102
RTVSPropertyOp49
 70
     1
102
RTVSPropertyOp50
 70
     1
102
RTVSPropertyOp51
 70
     0
102
RTVSPropertyOp52
 70
     0
102
RTVSPropertyOp53
 70
     1
102
RTVSPropertyOp54
 70
     1
102
RTVSPropertyOp55
 70
     1
102
RTVSPropertyOp56
 70
     1
102
RTVSPropertyOp57
 70
     1
102
RTVSPropertyOp58
 70
     1
102
RTVSPropertyOp59
 70
     1
102
RTVSPropertyOp60
 70
     1
102
RTVSPropertyOp61
 70
     1
102
RTVSPropertyOp62
 70
     1
  0
XRECORD
  5
366
102
{ACAD_REACTORS
330
365
102
}
330
365
100
AcDbXrecord
280
     1
102
RTVSPost2010Prop28
280
     0
102
RTVSPost2010PropOp28
 70
     1
102
RTVSPost2010Prop29
280
     1
102
RTVSPost2010PropOp29
 70
     1
102
RTVSPost2010Prop30
280
     1
102
RTVSPost2010PropOp30
 70
     1
102
RTVSPost2010Prop31
280
     0
102
RTVSPost2010PropOp31
 70
     1
102
RTVSPost2010Prop32
280
     0
102
RTVSPost2010PropOp32
 70
     1
102
RTVSPost2010Prop33
280
     0
102
RTVSPost2010PropOp33
 70
     1
102
RTVSPost2010Prop34
280
     0
102
RTVSPost2010PropOp34
 70
     1
102
RTVSPost2010Prop35
280
     0
102
RTVSPost2010PropOp35
 70
     1
102
RTVSPost2010Prop36
280
     0
102
RTVSPost2010PropOp36
 70
     1
102
RTVSPost2010Prop37
 90
       50
102
RTVSPost2010PropOp37
 70
     1
102
RTVSPost2010Prop38
140
0.0
102
RTVSPost2010PropOp38
 70
     1
102
RTVSPost2010Prop39
140
1.0
102
RTVSPost2010PropOp39
 70
     1
102
RTVSPost2010Prop40
 90
        0
102
RTVSPost2010PropOp40
 70
     1
102
RTVSPost2010Prop41ColorIndex
 90
       18
102
RTVSPost2010Prop41ColorRGB
 90
        0
102
RTVSPost2010PropOp41
 70
     1
102
RTVSPost2010Prop42
 90
       50
102
RTVSPost2010PropOp42
 70
     1
102
RTVSPost2010Prop43
 90
        3
102
RTVSPost2010PropOp43
 70
     1
102
RTVSPost2010Prop44ColorIndex
 90
        5
102
RTVSPost2010Prop44ColorRGB
 90
      255
102
RTVSPost2010PropOp44
 70
     1
102
RTVSPost2010Prop45
280
     0
102
RTVSPost2010PropOp45
 70
     1
102
RTVSPost2010Prop46
 90
       50
102
RTVSPost2010PropOp46
 70
     1
102
RTVSPost2010Prop47
 90
       50
102
RTVSPost2010PropOp47
 70
     1
102
RTVSPost2010Prop48
 90
       50
102
RTVSPost2010PropOp48
 70
     1
102
RTVSPost2010Prop49
280
     0
102
RTVSPost2010PropOp49
 70
     1
102
RTVSPost2010Prop50
 90
       50
102
RTVSPost2010PropOp50
 70
     1
102
RTVSPost2010Prop51ColorIndex
 90
      256
102
RTVSPost2010Prop51ColorRGB
 90
-16777216
102
RTVSPost2010PropOp51
 70
     0
102
RTVSPost2010Prop52
140
1.0
102
RTVSPost2010PropOp52
 70
     0
102
RTVSPost2010Prop53
 90
        2
102
RTVSPost2010PropOp53
 70
     1
102
RTVSPost2010Prop54
  1
strokes_ogs.tif
102
RTVSPost2010PropOp54
 70
     1
102
RTVSPost2010Prop55
280
     0
102
RTVSPost2010PropOp55
 70
     1
102
RTVSPost2010Prop56
140
1.0
102
RTVSPost2010PropOp56
 70
     1
102
RTVSPost2010Prop57
140
1.0
102
RTVSPost2010PropOp57
 70
     1
102
RTVSPropertyOp0
 70
     1
102
RTVSPropertyOp1
 70
     1
102
RTVSPropertyOp2
 70
     1
102
RTVSPropertyOp3
 70
     1
102
RTVSPropertyOp4
 70
     1
102
RTVSPropertyOp5
 70
     1
102
RTVSPropertyOp6
 70
     1
102
RTVSPropertyOp7
 70
     1
102
RTVSPropertyOp8
 70
     1
102
RTVSPropertyOp9
 70
     1
102
RTVSPropertyOp10
 70
     1
102
RTVSPropertyOp11
 70
     1
102
RTVSPropertyOp12
 70
     1
102
RTVSPropertyOp13
 70
     1
102
RTVSPropertyOp14
 70
     1
102
RTVSPropertyOp15
 70
     1
102
RTVSPropertyOp16
 70
     1
102
RTVSPropertyOp17
 70
     1
102
RTVSPropertyOp18
 70
     1
102
RTVSPropertyOp19
 70
     1
102
RTVSPropertyOp20
 70
     1
102
RTVSPropertyOp21
 70
     1
102
RTVSPropertyOp22
 70
     1
102
RTVSPropertyOp23
 70
     1
102
RTVSPropertyOp24
 70
     1
102
RTVSPropertyOp25
 70
     1
102
RTVSPropertyOp26
 70
     1
102
RTVSPropertyOp27
 70
     1
102
RTVSPropertyOp28
 70
     1
102
RTVSPropertyOp29
 70
     1
102
RTVSPropertyOp30
 70
     1
102
RTVSPropertyOp31
 70
     1
102
RTVSPropertyOp32
 70
     1
102
RTVSPropertyOp33
 70
     1
102
RTVSPropertyOp34
 70
     1
102
RTVSPropertyOp35
 70
     1
102
RTVSPropertyOp36
 70
     1
102
RTVSPropertyOp37
 70
     1
102
RTVSPropertyOp38
 70
     1
102
RTVSPropertyOp39
 70
     1
102
RTVSPropertyOp40
 70
     1
102
RTVSPropertyOp41
 70
     1
102
RTVSPropertyOp42
 70
     1
102
RTVSPropertyOp43
 70
     1
102
RTVSPropertyOp44
 70
     1
102
RTVSPropertyOp45
 70
     1
102
RTVSPropertyOp46
 70
     1
102
RTVSPropertyOp47
 70
     1
102
RTVSPropertyOp48
 70
     1
102
RTVSPropertyOp49
 70
     1
102
RTVSPropertyOp50
 70
     1
102
RTVSPropertyOp51
 70
     0
102
RTVSPropertyOp52
 70
     0
102
RTVSPropertyOp53
 70
     1
102
RTVSPropertyOp54
 70
     1
102
RTVSPropertyOp55
 70
     1
102
RTVSPropertyOp56
 70
     1
102
RTVSPropertyOp57
 70
     1
102
RTVSPropertyOp58
 70
     1
102
RTVSPropertyOp59
 70
     1
102
RTVSPropertyOp60
 70
     1
102
RTVSPropertyOp61
 70
     1
102
RTVSPropertyOp62
 70
     1
  0
XRECORD
  5
36C
102
{ACAD_REACTORS
330
36B
102
}
330
36B
100
AcDbXrecord
280
     1
102
RTVSPost2010Prop28
280
     0
102
RTVSPost2010PropOp28
 70
     1
102
RTVSPost2010Prop29
280
     1
102
RTVSPost2010PropOp29
 70
     1
102
RTVSPost2010Prop30
280
     1
102
RTVSPost2010PropOp30
 70
     1
102
RTVSPost2010Prop31
280
     0
102
RTVSPost2010PropOp31
 70
     1
102
RTVSPost2010Prop32
280
     0
102
RTVSPost2010PropOp32
 70
     1
102
RTVSPost2010Prop33
280
     0
102
RTVSPost2010PropOp33
 70
     1
102
RTVSPost2010Prop34
280
     0
102
RTVSPost2010PropOp34
 70
     1
102
RTVSPost2010Prop35
280
     0
102
RTVSPost2010PropOp35
 70
     1
102
RTVSPost2010Prop36
280
     0
102
RTVSPost2010PropOp36
 70
     1
102
RTVSPost2010Prop37
 90
       50
102
RTVSPost2010PropOp37
 70
     1
102
RTVSPost2010Prop38
140
0.0
102
RTVSPost2010PropOp38
 70
     1
102
RTVSPost2010Prop39
140
1.0
102
RTVSPost2010PropOp39
 70
     1
102
RTVSPost2010Prop40
 90
        0
102
RTVSPost2010PropOp40
 70
     1
102
RTVSPost2010Prop41ColorIndex
 90
       18
102
RTVSPost2010Prop41ColorRGB
 90
        0
102
RTVSPost2010PropOp41
 70
     1
102
RTVSPost2010Prop42
 90
       50
102
RTVSPost2010PropOp42
 70
     1
102
RTVSPost2010Prop43
 90
        3
102
RTVSPost2010PropOp43
 70
     1
102
RTVSPost2010Prop44ColorIndex
 90
        5
102
RTVSPost2010Prop44ColorRGB
 90
      255
102
RTVSPost2010PropOp44
 70
     1
102
RTVSPost2010Prop45
280
     0
102
RTVSPost2010PropOp45
 70
     1
102
RTVSPost2010Prop46
 90
       50
102
RTVSPost2010PropOp46
 70
     1
102
RTVSPost2010Prop47
 90
       50
102
RTVSPost2010PropOp47
 70
     1
102
RTVSPost2010Prop48
 90
       50
102
RTVSPost2010PropOp48
 70
     1
102
RTVSPost2010Prop49
280
     0
102
RTVSPost2010PropOp49
 70
     1
102
RTVSPost2010Prop50
 90
       50
102
RTVSPost2010PropOp50
 70
     1
102
RTVSPost2010Prop51ColorIndex
 90
      256
102
RTVSPost2010Prop51ColorRGB
 90
-16777216
102
RTVSPost2010PropOp51
 70
     0
102
RTVSPost2010Prop52
140
1.0
102
RTVSPost2010PropOp52
 70
     0
102
RTVSPost2010Prop53
 90
        2
102
RTVSPost2010PropOp53
 70
     1
102
RTVSPost2010Prop54
  1
strokes_ogs.tif
102
RTVSPost2010PropOp54
 70
     1
102
RTVSPost2010Prop55
280
     0
102
RTVSPost2010PropOp55
 70
     1
102
RTVSPost2010Prop56
140
1.0
102
RTVSPost2010PropOp56
 70
     1
102
RTVSPost2010Prop57
140
1.0
102
RTVSPost2010PropOp57
 70
     1
102
RTVSPropertyOp0
 70
     1
102
RTVSPropertyOp1
 70
     1
102
RTVSPropertyOp2
 70
     1
102
RTVSPropertyOp3
 70
     1
102
RTVSPropertyOp4
 70
     1
102
RTVSPropertyOp5
 70
     1
102
RTVSPropertyOp6
 70
     1
102
RTVSPropertyOp7
 70
     1
102
RTVSPropertyOp8
 70
     1
102
RTVSPropertyOp9
 70
     1
102
RTVSPropertyOp10
 70
     1
102
RTVSPropertyOp11
 70
     1
102
RTVSPropertyOp12
 70
     1
102
RTVSPropertyOp13
 70
     1
102
RTVSPropertyOp14
 70
     1
102
RTVSPropertyOp15
 70
     1
102
RTVSPropertyOp16
 70
     1
102
RTVSPropertyOp17
 70
     1
102
RTVSPropertyOp18
 70
     1
102
RTVSPropertyOp19
 70
     1
102
RTVSPropertyOp20
 70
     1
102
RTVSPropertyOp21
 70
     1
102
RTVSPropertyOp22
 70
     1
102
RTVSPropertyOp23
 70
     1
102
RTVSPropertyOp24
 70
     1
102
RTVSPropertyOp25
 70
     1
102
RTVSPropertyOp26
 70
     1
102
RTVSPropertyOp27
 70
     1
102
RTVSPropertyOp28
 70
     1
102
RTVSPropertyOp29
 70
     1
102
RTVSPropertyOp30
 70
     1
102
RTVSPropertyOp31
 70
     1
102
RTVSPropertyOp32
 70
     1
102
RTVSPropertyOp33
 70
     1
102
RTVSPropertyOp34
 70
     1
102
RTVSPropertyOp35
 70
     1
102
RTVSPropertyOp36
 70
     1
102
RTVSPropertyOp37
 70
     1
102
RTVSPropertyOp38
 70
     1
102
RTVSPropertyOp39
 70
     1
102
RTVSPropertyOp40
 70
     1
102
RTVSPropertyOp41
 70
     1
102
RTVSPropertyOp42
 70
     1
102
RTVSPropertyOp43
 70
     1
102
RTVSPropertyOp44
 70
     1
102
RTVSPropertyOp45
 70
     1
102
RTVSPropertyOp46
 70
     1
102
RTVSPropertyOp47
 70
     1
102
RTVSPropertyOp48
 70
     1
102
RTVSPropertyOp49
 70
     1
102
RTVSPropertyOp50
 70
     1
102
RTVSPropertyOp51
 70
     0
102
RTVSPropertyOp52
 70
     0
102
RTVSPropertyOp53
 70
     1
102
RTVSPropertyOp54
 70
     1
102
RTVSPropertyOp55
 70
     1
102
RTVSPropertyOp56
 70
     1
102
RTVSPropertyOp57
 70
     1
102
RTVSPropertyOp58
 70
     1
102
RTVSPropertyOp59
 70
     1
102
RTVSPropertyOp60
 70
     1
102
RTVSPropertyOp61
 70
     1
102
RTVSPropertyOp62
 70
     1
  0
XRECORD
  5
380
102
{ACAD_REACTORS
330
37F
102
}
330
37F
100
AcDbXrecord
280
     1
102
RTVSPost2010Prop28
280
     0
102
RTVSPost2010PropOp28
 70
     0
102
RTVSPost2010Prop29
280
     1
102
RTVSPost2010PropOp29
 70
     0
102
RTVSPost2010Prop30
280
     1
102
RTVSPost2010PropOp30
 70
     0
102
RTVSPost2010Prop31
280
     0
102
RTVSPost2010PropOp31
 70
     0
102
RTVSPost2010Prop32
280
     0
102
RTVSPost2010PropOp32
 70
     0
102
RTVSPost2010Prop33
280
     0
102
RTVSPost2010PropOp33
 70
     0
102
RTVSPost2010Prop34
280
     0
102
RTVSPost2010PropOp34
 70
     0
102
RTVSPost2010Prop35
280
     0
102
RTVSPost2010PropOp35
 70
     0
102
RTVSPost2010Prop36
280
     0
102
RTVSPost2010PropOp36
 70
     0
102
RTVSPost2010Prop37
 90
       50
102
RTVSPost2010PropOp37
 70
     0
102
RTVSPost2010Prop38
140
0.0
102
RTVSPost2010PropOp38
 70
     0
102
RTVSPost2010Prop39
140
1.0
102
RTVSPost2010PropOp39
 70
     0
102
RTVSPost2010Prop40
 90
        0
102
RTVSPost2010PropOp40
 70
     0
102
RTVSPost2010Prop41ColorIndex
 90
       18
102
RTVSPost2010Prop41ColorRGB
 90
        0
102
RTVSPost2010PropOp41
 70
     0
102
RTVSPost2010Prop42
 90
       50
102
RTVSPost2010PropOp42
 70
     0
102
RTVSPost2010Prop43
 90
        3
102
RTVSPost2010PropOp43
 70
     0
102
RTVSPost2010Prop44ColorIndex
 90
        5
102
RTVSPost2010Prop44ColorRGB
 90
      255
102
RTVSPost2010PropOp44
 70
     0
102
RTVSPost2010Prop45
280
     0
102
RTVSPost2010PropOp45
 70
     0
102
RTVSPost2010Prop46
 90
       50
102
RTVSPost2010PropOp46
 70
     0
102
RTVSPost2010Prop47
 90
       50
102
RTVSPost2010PropOp47
 70
     0
102
RTVSPost2010Prop48
 90
       50
102
RTVSPost2010PropOp48
 70
     0
102
RTVSPost2010Prop49
280
     0
102
RTVSPost2010PropOp49
 70
     0
102
RTVSPost2010Prop50
 90
       50
102
RTVSPost2010PropOp50
 70
     0
102
RTVSPost2010Prop51ColorIndex
 90
      256
102
RTVSPost2010Prop51ColorRGB
 90
-16777216
102
RTVSPost2010PropOp51
 70
     0
102
RTVSPost2010Prop52
140
1.0
102
RTVSPost2010PropOp52
 70
     0
102
RTVSPost2010Prop53
 90
        2
102
RTVSPost2010PropOp53
 70
     0
102
RTVSPost2010Prop54
  1
strokes_ogs.tif
102
RTVSPost2010PropOp54
 70
     0
102
RTVSPost2010Prop55
280
     0
102
RTVSPost2010PropOp55
 70
     0
102
RTVSPost2010Prop56
140
1.0
102
RTVSPost2010PropOp56
 70
     0
102
RTVSPost2010Prop57
140
1.0
102
RTVSPost2010PropOp57
 70
     0
102
RTVSPropertyOp0
 70
     0
102
RTVSPropertyOp1
 70
     0
102
RTVSPropertyOp2
 70
     0
102
RTVSPropertyOp3
 70
     0
102
RTVSPropertyOp4
 70
     0
102
RTVSPropertyOp5
 70
     0
102
RTVSPropertyOp6
 70
     0
102
RTVSPropertyOp7
 70
     0
102
RTVSPropertyOp8
 70
     0
102
RTVSPropertyOp9
 70
     0
102
RTVSPropertyOp10
 70
     0
102
RTVSPropertyOp11
 70
     0
102
RTVSPropertyOp12
 70
     0
102
RTVSPropertyOp13
 70
     0
102
RTVSPropertyOp14
 70
     2
102
RTVSPropertyOp15
 70
     0
102
RTVSPropertyOp16
 70
     0
102
RTVSPropertyOp17
 70
     0
102
RTVSPropertyOp18
 70
     0
102
RTVSPropertyOp19
 70
     0
102
RTVSPropertyOp20
 70
     0
102
RTVSPropertyOp21
 70
     0
102
RTVSPropertyOp22
 70
     0
102
RTVSPropertyOp23
 70
     0
102
RTVSPropertyOp24
 70
     0
102
RTVSPropertyOp25
 70
     0
102
RTVSPropertyOp26
 70
     0
102
RTVSPropertyOp27
 70
     0
102
RTVSPropertyOp28
 70
     0
102
RTVSPropertyOp29
 70
     0
102
RTVSPropertyOp30
 70
     0
102
RTVSPropertyOp31
 70
     0
102
RTVSPropertyOp32
 70
     0
102
RTVSPropertyOp33
 70
     0
102
RTVSPropertyOp34
 70
     0
102
RTVSPropertyOp35
 70
     0
102
RTVSPropertyOp36
 70
     0
102
RTVSPropertyOp37
 70
     0
102
RTVSPropertyOp38
 70
     0
102
RTVSPropertyOp39
 70
     0
102
RTVSPropertyOp40
 70
     0
102
RTVSPropertyOp41
 70
     0
102
RTVSPropertyOp42
 70
     0
102
RTVSPropertyOp43
 70
     0
102
RTVSPropertyOp44
 70
     0
102
RTVSPropertyOp45
 70
     0
102
RTVSPropertyOp46
 70
     0
102
RTVSPropertyOp47
 70
     0
102
RTVSPropertyOp48
 70
     0
102
RTVSPropertyOp49
 70
     0
102
RTVSPropertyOp50
 70
     0
102
RTVSPropertyOp51
 70
     0
102
RTVSPropertyOp52
 70
     0
102
RTVSPropertyOp53
 70
     0
102
RTVSPropertyOp54
 70
     0
102
RTVSPropertyOp55
 70
     0
102
RTVSPropertyOp56
 70
     0
102
RTVSPropertyOp57
 70
     0
102
RTVSPropertyOp58
 70
     1
102
RTVSPropertyOp59
 70
     1
102
RTVSPropertyOp60
 70
     1
102
RTVSPropertyOp61
 70
     1
102
RTVSPropertyOp62
 70
     1
  0
XRECORD
  5
37A
102
{ACAD_REACTORS
330
379
102
}
330
379
100
AcDbXrecord
280
     1
102
RTVSPost2010Prop28
280
     0
102
RTVSPost2010PropOp28
 70
     1
102
RTVSPost2010Prop29
280
     1
102
RTVSPost2010PropOp29
 70
     1
102
RTVSPost2010Prop30
280
     1
102
RTVSPost2010PropOp30
 70
     1
102
RTVSPost2010Prop31
280
     0
102
RTVSPost2010PropOp31
 70
     1
102
RTVSPost2010Prop32
280
     0
102
RTVSPost2010PropOp32
 70
     1
102
RTVSPost2010Prop33
280
     0
102
RTVSPost2010PropOp33
 70
     1
102
RTVSPost2010Prop34
280
     0
102
RTVSPost2010PropOp34
 70
     1
102
RTVSPost2010Prop35
280
     0
102
RTVSPost2010PropOp35
 70
     1
102
RTVSPost2010Prop36
280
     0
102
RTVSPost2010PropOp36
 70
     1
102
RTVSPost2010Prop37
 90
       50
102
RTVSPost2010PropOp37
 70
     1
102
RTVSPost2010Prop38
140
0.0
102
RTVSPost2010PropOp38
 70
     1
102
RTVSPost2010Prop39
140
1.0
102
RTVSPost2010PropOp39
 70
     1
102
RTVSPost2010Prop40
 90
        0
102
RTVSPost2010PropOp40
 70
     1
102
RTVSPost2010Prop41ColorIndex
 90
       18
102
RTVSPost2010Prop41ColorRGB
 90
        0
102
RTVSPost2010PropOp41
 70
     1
102
RTVSPost2010Prop42
 90
       50
102
RTVSPost2010PropOp42
 70
     1
102
RTVSPost2010Prop43
 90
        3
102
RTVSPost2010PropOp43
 70
     1
102
RTVSPost2010Prop44ColorIndex
 90
        5
102
RTVSPost2010Prop44ColorRGB
 90
      255
102
RTVSPost2010PropOp44
 70
     1
102
RTVSPost2010Prop45
280
     0
102
RTVSPost2010PropOp45
 70
     1
102
RTVSPost2010Prop46
 90
       50
102
RTVSPost2010PropOp46
 70
     1
102
RTVSPost2010Prop47
 90
       50
102
RTVSPost2010PropOp47
 70
     1
102
RTVSPost2010Prop48
 90
       50
102
RTVSPost2010PropOp48
 70
     1
102
RTVSPost2010Prop49
280
     0
102
RTVSPost2010PropOp49
 70
     1
102
RTVSPost2010Prop50
 90
       50
102
RTVSPost2010PropOp50
 70
     1
102
RTVSPost2010Prop51ColorIndex
 90
      256
102
RTVSPost2010Prop51ColorRGB
 90
-16777216
102
RTVSPost2010PropOp51
 70
     0
102
RTVSPost2010Prop52
140
1.0
102
RTVSPost2010PropOp52
 70
     0
102
RTVSPost2010Prop53
 90
        2
102
RTVSPost2010PropOp53
 70
     1
102
RTVSPost2010Prop54
  1
strokes_ogs.tif
102
RTVSPost2010PropOp54
 70
     1
102
RTVSPost2010Prop55
280
     0
102
RTVSPost2010PropOp55
 70
     1
102
RTVSPost2010Prop56
140
1.0
102
RTVSPost2010PropOp56
 70
     1
102
RTVSPost2010Prop57
140
1.0
102
RTVSPost2010PropOp57
 70
     1
102
RTVSPropertyOp0
 70
     1
102
RTVSPropertyOp1
 70
     1
102
RTVSPropertyOp2
 70
     1
102
RTVSPropertyOp3
 70
     1
102
RTVSPropertyOp4
 70
     1
102
RTVSPropertyOp5
 70
     1
102
RTVSPropertyOp6
 70
     1
102
RTVSPropertyOp7
 70
     1
102
RTVSPropertyOp8
 70
     1
102
RTVSPropertyOp9
 70
     1
102
RTVSPropertyOp10
 70
     1
102
RTVSPropertyOp11
 70
     1
102
RTVSPropertyOp12
 70
     1
102
RTVSPropertyOp13
 70
     1
102
RTVSPropertyOp14
 70
     1
102
RTVSPropertyOp15
 70
     1
102
RTVSPropertyOp16
 70
     1
102
RTVSPropertyOp17
 70
     1
102
RTVSPropertyOp18
 70
     1
102
RTVSPropertyOp19
 70
     1
102
RTVSPropertyOp20
 70
     1
102
RTVSPropertyOp21
 70
     1
102
RTVSPropertyOp22
 70
     1
102
RTVSPropertyOp23
 70
     1
102
RTVSPropertyOp24
 70
     1
102
RTVSPropertyOp25
 70
     1
102
RTVSPropertyOp26
 70
     1
102
RTVSPropertyOp27
 70
     1
102
RTVSPropertyOp28
 70
     1
102
RTVSPropertyOp29
 70
     1
102
RTVSPropertyOp30
 70
     1
102
RTVSPropertyOp31
 70
     1
102
RTVSPropertyOp32
 70
     1
102
RTVSPropertyOp33
 70
     1
102
RTVSPropertyOp34
 70
     1
102
RTVSPropertyOp35
 70
     1
102
RTVSPropertyOp36
 70
     1
102
RTVSPropertyOp37
 70
     1
102
RTVSPropertyOp38
 70
     1
102
RTVSPropertyOp39
 70
     1
102
RTVSPropertyOp40
 70
     1
102
RTVSPropertyOp41
 70
     1
102
RTVSPropertyOp42
 70
     1
102
RTVSPropertyOp43
 70
     1
102
RTVSPropertyOp44
 70
     1
102
RTVSPropertyOp45
 70
     1
102
RTVSPropertyOp46
 70
     1
102
RTVSPropertyOp47
 70
     1
102
RTVSPropertyOp48
 70
     1
102
RTVSPropertyOp49
 70
     1
102
RTVSPropertyOp50
 70
     1
102
RTVSPropertyOp51
 70
     0
102
RTVSPropertyOp52
 70
     0
102
RTVSPropertyOp53
 70
     1
102
RTVSPropertyOp54
 70
     1
102
RTVSPropertyOp55
 70
     1
102
RTVSPropertyOp56
 70
     1
102
RTVSPropertyOp57
 70
     1
102
RTVSPropertyOp58
 70
     1
102
RTVSPropertyOp59
 70
     1
102
RTVSPropertyOp60
 70
     1
102
RTVSPropertyOp61
 70
     1
102
RTVSPropertyOp62
 70
     1
  0
XRECORD
  5
382
102
{ACAD_REACTORS
330
381
102
}
330
381
100
AcDbXrecord
280
     1
102
RTVSPost2010Prop28
280
     0
102
RTVSPost2010PropOp28
 70
     0
102
RTVSPost2010Prop29
280
     1
102
RTVSPost2010PropOp29
 70
     0
102
RTVSPost2010Prop30
280
     1
102
RTVSPost2010PropOp30
 70
     0
102
RTVSPost2010Prop31
280
     0
102
RTVSPost2010PropOp31
 70
     0
102
RTVSPost2010Prop32
280
     0
102
RTVSPost2010PropOp32
 70
     0
102
RTVSPost2010Prop33
280
     0
102
RTVSPost2010PropOp33
 70
     0
102
RTVSPost2010Prop34
280
     0
102
RTVSPost2010PropOp34
 70
     0
102
RTVSPost2010Prop35
280
     0
102
RTVSPost2010PropOp35
 70
     0
102
RTVSPost2010Prop36
280
     0
102
RTVSPost2010PropOp36
 70
     0
102
RTVSPost2010Prop37
 90
       50
102
RTVSPost2010PropOp37
 70
     0
102
RTVSPost2010Prop38
140
0.0
102
RTVSPost2010PropOp38
 70
     0
102
RTVSPost2010Prop39
140
1.0
102
RTVSPost2010PropOp39
 70
     0
102
RTVSPost2010Prop40
 90
        0
102
RTVSPost2010PropOp40
 70
     0
102
RTVSPost2010Prop41ColorIndex
 90
       18
102
RTVSPost2010Prop41ColorRGB
 90
        0
102
RTVSPost2010PropOp41
 70
     0
102
RTVSPost2010Prop42
 90
       50
102
RTVSPost2010PropOp42
 70
     0
102
RTVSPost2010Prop43
 90
        3
102
RTVSPost2010PropOp43
 70
     0
102
RTVSPost2010Prop44ColorIndex
 90
        5
102
RTVSPost2010Prop44ColorRGB
 90
      255
102
RTVSPost2010PropOp44
 70
     0
102
RTVSPost2010Prop45
280
     0
102
RTVSPost2010PropOp45
 70
     0
102
RTVSPost2010Prop46
 90
       50
102
RTVSPost2010PropOp46
 70
     0
102
RTVSPost2010Prop47
 90
       50
102
RTVSPost2010PropOp47
 70
     0
102
RTVSPost2010Prop48
 90
       50
102
RTVSPost2010PropOp48
 70
     0
102
RTVSPost2010Prop49
280
     0
102
RTVSPost2010PropOp49
 70
     0
102
RTVSPost2010Prop50
 90
       50
102
RTVSPost2010PropOp50
 70
     0
102
RTVSPost2010Prop51ColorIndex
 90
      256
102
RTVSPost2010Prop51ColorRGB
 90
-16777216
102
RTVSPost2010PropOp51
 70
     0
102
RTVSPost2010Prop52
140
1.0
102
RTVSPost2010PropOp52
 70
     0
102
RTVSPost2010Prop53
 90
        2
102
RTVSPost2010PropOp53
 70
     0
102
RTVSPost2010Prop54
  1
strokes_ogs.tif
102
RTVSPost2010PropOp54
 70
     0
102
RTVSPost2010Prop55
280
     0
102
RTVSPost2010PropOp55
 70
     0
102
RTVSPost2010Prop56
140
1.0
102
RTVSPost2010PropOp56
 70
     0
102
RTVSPost2010Prop57
140
1.0
102
RTVSPost2010PropOp57
 70
     0
102
RTVSPropertyOp0
 70
     0
102
RTVSPropertyOp1
 70
     0
102
RTVSPropertyOp2
 70
     0
102
RTVSPropertyOp3
 70
     0
102
RTVSPropertyOp4
 70
     0
102
RTVSPropertyOp5
 70
     0
102
RTVSPropertyOp6
 70
     0
102
RTVSPropertyOp7
 70
     0
102
RTVSPropertyOp8
 70
     0
102
RTVSPropertyOp9
 70
     0
102
RTVSPropertyOp10
 70
     0
102
RTVSPropertyOp11
 70
     0
102
RTVSPropertyOp12
 70
     0
102
RTVSPropertyOp13
 70
     0
102
RTVSPropertyOp14
 70
     2
102
RTVSPropertyOp15
 70
     0
102
RTVSPropertyOp16
 70
     0
102
RTVSPropertyOp17
 70
     0
102
RTVSPropertyOp18
 70
     0
102
RTVSPropertyOp19
 70
     0
102
RTVSPropertyOp20
 70
     0
102
RTVSPropertyOp21
 70
     0
102
RTVSPropertyOp22
 70
     0
102
RTVSPropertyOp23
 70
     0
102
RTVSPropertyOp24
 70
     0
102
RTVSPropertyOp25
 70
     0
102
RTVSPropertyOp26
 70
     0
102
RTVSPropertyOp27
 70
     0
102
RTVSPropertyOp28
 70
     0
102
RTVSPropertyOp29
 70
     0
102
RTVSPropertyOp30
 70
     0
102
RTVSPropertyOp31
 70
     0
102
RTVSPropertyOp32
 70
     0
102
RTVSPropertyOp33
 70
     0
102
RTVSPropertyOp34
 70
     0
102
RTVSPropertyOp35
 70
     0
102
RTVSPropertyOp36
 70
     0
102
RTVSPropertyOp37
 70
     0
102
RTVSPropertyOp38
 70
     0
102
RTVSPropertyOp39
 70
     0
102
RTVSPropertyOp40
 70
     0
102
RTVSPropertyOp41
 70
     0
102
RTVSPropertyOp42
 70
     0
102
RTVSPropertyOp43
 70
     0
102
RTVSPropertyOp44
 70
     0
102
RTVSPropertyOp45
 70
     0
102
RTVSPropertyOp46
 70
     0
102
RTVSPropertyOp47
 70
     0
102
RTVSPropertyOp48
 70
     0
102
RTVSPropertyOp49
 70
     0
102
RTVSPropertyOp50
 70
     0
102
RTVSPropertyOp51
 70
     0
102
RTVSPropertyOp52
 70
     0
102
RTVSPropertyOp53
 70
     0
102
RTVSPropertyOp54
 70
     0
102
RTVSPropertyOp55
 70
     0
102
RTVSPropertyOp56
 70
     0
102
RTVSPropertyOp57
 70
     0
102
RTVSPropertyOp58
 70
     1
102
RTVSPropertyOp59
 70
     1
102
RTVSPropertyOp60
 70
     1
102
RTVSPropertyOp61
 70
     1
102
RTVSPropertyOp62
 70
     1
  0
XRECORD
  5
370
102
{ACAD_REACTORS
330
36F
102
}
330
36F
100
AcDbXrecord
280
     1
102
RTVSPost2010Prop28
280
     0
102
RTVSPost2010PropOp28
 70
     1
102
RTVSPost2010Prop29
280
     1
102
RTVSPost2010PropOp29
 70
     1
102
RTVSPost2010Prop30
280
     1
102
RTVSPost2010PropOp30
 70
     1
102
RTVSPost2010Prop31
280
     0
102
RTVSPost2010PropOp31
 70
     1
102
RTVSPost2010Prop32
280
     0
102
RTVSPost2010PropOp32
 70
     1
102
RTVSPost2010Prop33
280
     0
102
RTVSPost2010PropOp33
 70
     1
102
RTVSPost2010Prop34
280
     0
102
RTVSPost2010PropOp34
 70
     1
102
RTVSPost2010Prop35
280
     0
102
RTVSPost2010PropOp35
 70
     1
102
RTVSPost2010Prop36
280
     0
102
RTVSPost2010PropOp36
 70
     1
102
RTVSPost2010Prop37
 90
       50
102
RTVSPost2010PropOp37
 70
     1
102
RTVSPost2010Prop38
140
0.0
102
RTVSPost2010PropOp38
 70
     1
102
RTVSPost2010Prop39
140
1.0
102
RTVSPost2010PropOp39
 70
     1
102
RTVSPost2010Prop40
 90
        0
102
RTVSPost2010PropOp40
 70
     1
102
RTVSPost2010Prop41ColorIndex
 90
       18
102
RTVSPost2010Prop41ColorRGB
 90
        0
102
RTVSPost2010PropOp41
 70
     1
102
RTVSPost2010Prop42
 90
       50
102
RTVSPost2010PropOp42
 70
     1
102
RTVSPost2010Prop43
 90
        3
102
RTVSPost2010PropOp43
 70
     1
102
RTVSPost2010Prop44ColorIndex
 90
        5
102
RTVSPost2010Prop44ColorRGB
 90
      255
102
RTVSPost2010PropOp44
 70
     1
102
RTVSPost2010Prop45
280
     0
102
RTVSPost2010PropOp45
 70
     1
102
RTVSPost2010Prop46
 90
       50
102
RTVSPost2010PropOp46
 70
     1
102
RTVSPost2010Prop47
 90
       50
102
RTVSPost2010PropOp47
 70
     1
102
RTVSPost2010Prop48
 90
       50
102
RTVSPost2010PropOp48
 70
     1
102
RTVSPost2010Prop49
280
     0
102
RTVSPost2010PropOp49
 70
     1
102
RTVSPost2010Prop50
 90
       50
102
RTVSPost2010PropOp50
 70
     1
102
RTVSPost2010Prop51ColorIndex
 90
      256
102
RTVSPost2010Prop51ColorRGB
 90
-16777216
102
RTVSPost2010PropOp51
 70
     0
102
RTVSPost2010Prop52
140
1.0
102
RTVSPost2010PropOp52
 70
     0
102
RTVSPost2010Prop53
 90
        2
102
RTVSPost2010PropOp53
 70
     1
102
RTVSPost2010Prop54
  1
strokes_ogs.tif
102
RTVSPost2010PropOp54
 70
     1
102
RTVSPost2010Prop55
280
     0
102
RTVSPost2010PropOp55
 70
     1
102
RTVSPost2010Prop56
140
1.0
102
RTVSPost2010PropOp56
 70
     1
102
RTVSPost2010Prop57
140
1.0
102
RTVSPost2010PropOp57
 70
     1
102
RTVSPropertyOp0
 70
     1
102
RTVSPropertyOp1
 70
     1
102
RTVSPropertyOp2
 70
     1
102
RTVSPropertyOp3
 70
     1
102
RTVSPropertyOp4
 70
     1
102
RTVSPropertyOp5
 70
     1
102
RTVSPropertyOp6
 70
     1
102
RTVSPropertyOp7
 70
     1
102
RTVSPropertyOp8
 70
     1
102
RTVSPropertyOp9
 70
     1
102
RTVSPropertyOp10
 70
     1
102
RTVSPropertyOp11
 70
     1
102
RTVSPropertyOp12
 70
     1
102
RTVSPropertyOp13
 70
     1
102
RTVSPropertyOp14
 70
     1
102
RTVSPropertyOp15
 70
     1
102
RTVSPropertyOp16
 70
     1
102
RTVSPropertyOp17
 70
     1
102
RTVSPropertyOp18
 70
     1
102
RTVSPropertyOp19
 70
     1
102
RTVSPropertyOp20
 70
     1
102
RTVSPropertyOp21
 70
     1
102
RTVSPropertyOp22
 70
     1
102
RTVSPropertyOp23
 70
     1
102
RTVSPropertyOp24
 70
     1
102
RTVSPropertyOp25
 70
     1
102
RTVSPropertyOp26
 70
     1
102
RTVSPropertyOp27
 70
     1
102
RTVSPropertyOp28
 70
     1
102
RTVSPropertyOp29
 70
     1
102
RTVSPropertyOp30
 70
     1
102
RTVSPropertyOp31
 70
     1
102
RTVSPropertyOp32
 70
     1
102
RTVSPropertyOp33
 70
     1
102
RTVSPropertyOp34
 70
     1
102
RTVSPropertyOp35
 70
     1
102
RTVSPropertyOp36
 70
     1
102
RTVSPropertyOp37
 70
     1
102
RTVSPropertyOp38
 70
     1
102
RTVSPropertyOp39
 70
     1
102
RTVSPropertyOp40
 70
     1
102
RTVSPropertyOp41
 70
     1
102
RTVSPropertyOp42
 70
     1
102
RTVSPropertyOp43
 70
     1
102
RTVSPropertyOp44
 70
     1
102
RTVSPropertyOp45
 70
     1
102
RTVSPropertyOp46
 70
     1
102
RTVSPropertyOp47
 70
     1
102
RTVSPropertyOp48
 70
     1
102
RTVSPropertyOp49
 70
     1
102
RTVSPropertyOp50
 70
     1
102
RTVSPropertyOp51
 70
     0
102
RTVSPropertyOp52
 70
     0
102
RTVSPropertyOp53
 70
     1
102
RTVSPropertyOp54
 70
     1
102
RTVSPropertyOp55
 70
     1
102
RTVSPropertyOp56
 70
     1
102
RTVSPropertyOp57
 70
     1
102
RTVSPropertyOp58
 70
     1
102
RTVSPropertyOp59
 70
     1
102
RTVSPropertyOp60
 70
     1
102
RTVSPropertyOp61
 70
     1
102
RTVSPropertyOp62
 70
     1
  0
XRECORD
  5
38E
102
{ACAD_REACTORS
330
38D
102
}
330
38D
100
AcDbXrecord
280
     1
102
RTVSPost2010Prop28
280
     0
102
RTVSPost2010PropOp28
 70
     1
102
RTVSPost2010Prop29
280
     1
102
RTVSPost2010PropOp29
 70
     1
102
RTVSPost2010Prop30
280
     1
102
RTVSPost2010PropOp30
 70
     1
102
RTVSPost2010Prop31
280
     0
102
RTVSPost2010PropOp31
 70
     1
102
RTVSPost2010Prop32
280
     0
102
RTVSPost2010PropOp32
 70
     1
102
RTVSPost2010Prop33
280
     0
102
RTVSPost2010PropOp33
 70
     1
102
RTVSPost2010Prop34
280
     0
102
RTVSPost2010PropOp34
 70
     1
102
RTVSPost2010Prop35
280
     0
102
RTVSPost2010PropOp35
 70
     1
102
RTVSPost2010Prop36
280
     0
102
RTVSPost2010PropOp36
 70
     1
102
RTVSPost2010Prop37
 90
       50
102
RTVSPost2010PropOp37
 70
     1
102
RTVSPost2010Prop38
140
0.0
102
RTVSPost2010PropOp38
 70
     1
102
RTVSPost2010Prop39
140
1.0
102
RTVSPost2010PropOp39
 70
     1
102
RTVSPost2010Prop40
 90
        0
102
RTVSPost2010PropOp40
 70
     1
102
RTVSPost2010Prop41ColorIndex
 90
       18
102
RTVSPost2010Prop41ColorRGB
 90
        0
102
RTVSPost2010PropOp41
 70
     1
102
RTVSPost2010Prop42
 90
       50
102
RTVSPost2010PropOp42
 70
     1
102
RTVSPost2010Prop43
 90
        3
102
RTVSPost2010PropOp43
 70
     1
102
RTVSPost2010Prop44ColorIndex
 90
        5
102
RTVSPost2010Prop44ColorRGB
 90
      255
102
RTVSPost2010PropOp44
 70
     1
102
RTVSPost2010Prop45
280
     0
102
RTVSPost2010PropOp45
 70
     1
102
RTVSPost2010Prop46
 90
       50
102
RTVSPost2010PropOp46
 70
     1
102
RTVSPost2010Prop47
 90
       50
102
RTVSPost2010PropOp47
 70
     1
102
RTVSPost2010Prop48
 90
       50
102
RTVSPost2010PropOp48
 70
     1
102
RTVSPost2010Prop49
280
     0
102
RTVSPost2010PropOp49
 70
     1
102
RTVSPost2010Prop50
 90
       50
102
RTVSPost2010PropOp50
 70
     1
102
RTVSPost2010Prop51ColorIndex
 90
      256
102
RTVSPost2010Prop51ColorRGB
 90
-16777216
102
RTVSPost2010PropOp51
 70
     0
102
RTVSPost2010Prop52
140
1.0
102
RTVSPost2010PropOp52
 70
     0
102
RTVSPost2010Prop53
 90
        2
102
RTVSPost2010PropOp53
 70
     1
102
RTVSPost2010Prop54
  1
strokes_ogs.tif
102
RTVSPost2010PropOp54
 70
     1
102
RTVSPost2010Prop55
280
     0
102
RTVSPost2010PropOp55
 70
     1
102
RTVSPost2010Prop56
140
1.0
102
RTVSPost2010PropOp56
 70
     1
102
RTVSPost2010Prop57
140
1.0
102
RTVSPost2010PropOp57
 70
     1
102
RTVSPropertyOp0
 70
     1
102
RTVSPropertyOp1
 70
     1
102
RTVSPropertyOp2
 70
     1
102
RTVSPropertyOp3
 70
     1
102
RTVSPropertyOp4
 70
     1
102
RTVSPropertyOp5
 70
     1
102
RTVSPropertyOp6
 70
     1
102
RTVSPropertyOp7
 70
     1
102
RTVSPropertyOp8
 70
     1
102
RTVSPropertyOp9
 70
     1
102
RTVSPropertyOp10
 70
     1
102
RTVSPropertyOp11
 70
     1
102
RTVSPropertyOp12
 70
     1
102
RTVSPropertyOp13
 70
     1
102
RTVSPropertyOp14
 70
     1
102
RTVSPropertyOp15
 70
     1
102
RTVSPropertyOp16
 70
     1
102
RTVSPropertyOp17
 70
     1
102
RTVSPropertyOp18
 70
     1
102
RTVSPropertyOp19
 70
     1
102
RTVSPropertyOp20
 70
     1
102
RTVSPropertyOp21
 70
     1
102
RTVSPropertyOp22
 70
     1
102
RTVSPropertyOp23
 70
     1
102
RTVSPropertyOp24
 70
     1
102
RTVSPropertyOp25
 70
     1
102
RTVSPropertyOp26
 70
     1
102
RTVSPropertyOp27
 70
     1
102
RTVSPropertyOp28
 70
     1
102
RTVSPropertyOp29
 70
     1
102
RTVSPropertyOp30
 70
     1
102
RTVSPropertyOp31
 70
     1
102
RTVSPropertyOp32
 70
     1
102
RTVSPropertyOp33
 70
     1
102
RTVSPropertyOp34
 70
     1
102
RTVSPropertyOp35
 70
     1
102
RTVSPropertyOp36
 70
     1
102
RTVSPropertyOp37
 70
     1
102
RTVSPropertyOp38
 70
     1
102
RTVSPropertyOp39
 70
     1
102
RTVSPropertyOp40
 70
     1
102
RTVSPropertyOp41
 70
     1
102
RTVSPropertyOp42
 70
     1
102
RTVSPropertyOp43
 70
     1
102
RTVSPropertyOp44
 70
     1
102
RTVSPropertyOp45
 70
     1
102
RTVSPropertyOp46
 70
     1
102
RTVSPropertyOp47
 70
     1
102
RTVSPropertyOp48
 70
     1
102
RTVSPropertyOp49
 70
     1
102
RTVSPropertyOp50
 70
     1
102
RTVSPropertyOp51
 70
     0
102
RTVSPropertyOp52
 70
     0
102
RTVSPropertyOp53
 70
     1
102
RTVSPropertyOp54
 70
     1
102
RTVSPropertyOp55
 70
     1
102
RTVSPropertyOp56
 70
     1
102
RTVSPropertyOp57
 70
     1
102
RTVSPropertyOp58
 70
     1
102
RTVSPropertyOp59
 70
     1
102
RTVSPropertyOp60
 70
     1
102
RTVSPropertyOp61
 70
     1
102
RTVSPropertyOp62
 70
     1
  0
XRECORD
  5
38C
102
{ACAD_REACTORS
330
38B
102
}
330
38B
100
AcDbXrecord
280
     1
102
RTVSPost2010Prop28
280
     0
102
RTVSPost2010PropOp28
 70
     1
102
RTVSPost2010Prop29
280
     1
102
RTVSPost2010PropOp29
 70
     1
102
RTVSPost2010Prop30
280
     1
102
RTVSPost2010PropOp30
 70
     1
102
RTVSPost2010Prop31
280
     0
102
RTVSPost2010PropOp31
 70
     1
102
RTVSPost2010Prop32
280
     0
102
RTVSPost2010PropOp32
 70
     1
102
RTVSPost2010Prop33
280
     0
102
RTVSPost2010PropOp33
 70
     1
102
RTVSPost2010Prop34
280
     0
102
RTVSPost2010PropOp34
 70
     1
102
RTVSPost2010Prop35
280
     0
102
RTVSPost2010PropOp35
 70
     1
102
RTVSPost2010Prop36
280
     0
102
RTVSPost2010PropOp36
 70
     1
102
RTVSPost2010Prop37
 90
       50
102
RTVSPost2010PropOp37
 70
     1
102
RTVSPost2010Prop38
140
0.0
102
RTVSPost2010PropOp38
 70
     1
102
RTVSPost2010Prop39
140
1.0
102
RTVSPost2010PropOp39
 70
     1
102
RTVSPost2010Prop40
 90
        0
102
RTVSPost2010PropOp40
 70
     1
102
RTVSPost2010Prop41ColorIndex
 90
       18
102
RTVSPost2010Prop41ColorRGB
 90
        0
102
RTVSPost2010PropOp41
 70
     1
102
RTVSPost2010Prop42
 90
       50
102
RTVSPost2010PropOp42
 70
     1
102
RTVSPost2010Prop43
 90
        3
102
RTVSPost2010PropOp43
 70
     1
102
RTVSPost2010Prop44ColorIndex
 90
        5
102
RTVSPost2010Prop44ColorRGB
 90
      255
102
RTVSPost2010PropOp44
 70
     1
102
RTVSPost2010Prop45
280
     0
102
RTVSPost2010PropOp45
 70
     1
102
RTVSPost2010Prop46
 90
       50
102
RTVSPost2010PropOp46
 70
     1
102
RTVSPost2010Prop47
 90
       50
102
RTVSPost2010PropOp47
 70
     1
102
RTVSPost2010Prop48
 90
       50
102
RTVSPost2010PropOp48
 70
     1
102
RTVSPost2010Prop49
280
     0
102
RTVSPost2010PropOp49
 70
     1
102
RTVSPost2010Prop50
 90
       50
102
RTVSPost2010PropOp50
 70
     1
102
RTVSPost2010Prop51ColorIndex
 90
      256
102
RTVSPost2010Prop51ColorRGB
 90
-16777216
102
RTVSPost2010PropOp51
 70
     0
102
RTVSPost2010Prop52
140
1.0
102
RTVSPost2010PropOp52
 70
     0
102
RTVSPost2010Prop53
 90
        2
102
RTVSPost2010PropOp53
 70
     1
102
RTVSPost2010Prop54
  1
strokes_ogs.tif
102
RTVSPost2010PropOp54
 70
     1
102
RTVSPost2010Prop55
280
     0
102
RTVSPost2010PropOp55
 70
     1
102
RTVSPost2010Prop56
140
1.0
102
RTVSPost2010PropOp56
 70
     1
102
RTVSPost2010Prop57
140
1.0
102
RTVSPost2010PropOp57
 70
     1
102
RTVSPropertyOp0
 70
     1
102
RTVSPropertyOp1
 70
     1
102
RTVSPropertyOp2
 70
     1
102
RTVSPropertyOp3
 70
     1
102
RTVSPropertyOp4
 70
     1
102
RTVSPropertyOp5
 70
     1
102
RTVSPropertyOp6
 70
     1
102
RTVSPropertyOp7
 70
     1
102
RTVSPropertyOp8
 70
     1
102
RTVSPropertyOp9
 70
     1
102
RTVSPropertyOp10
 70
     1
102
RTVSPropertyOp11
 70
     1
102
RTVSPropertyOp12
 70
     1
102
RTVSPropertyOp13
 70
     1
102
RTVSPropertyOp14
 70
     1
102
RTVSPropertyOp15
 70
     1
102
RTVSPropertyOp16
 70
     1
102
RTVSPropertyOp17
 70
     1
102
RTVSPropertyOp18
 70
     1
102
RTVSPropertyOp19
 70
     1
102
RTVSPropertyOp20
 70
     1
102
RTVSPropertyOp21
 70
     1
102
RTVSPropertyOp22
 70
     1
102
RTVSPropertyOp23
 70
     1
102
RTVSPropertyOp24
 70
     1
102
RTVSPropertyOp25
 70
     1
102
RTVSPropertyOp26
 70
     1
102
RTVSPropertyOp27
 70
     1
102
RTVSPropertyOp28
 70
     1
102
RTVSPropertyOp29
 70
     1
102
RTVSPropertyOp30
 70
     1
102
RTVSPropertyOp31
 70
     1
102
RTVSPropertyOp32
 70
     1
102
RTVSPropertyOp33
 70
     1
102
RTVSPropertyOp34
 70
     1
102
RTVSPropertyOp35
 70
     1
102
RTVSPropertyOp36
 70
     1
102
RTVSPropertyOp37
 70
     1
102
RTVSPropertyOp38
 70
     1
102
RTVSPropertyOp39
 70
     1
102
RTVSPropertyOp40
 70
     1
102
RTVSPropertyOp41
 70
     1
102
RTVSPropertyOp42
 70
     1
102
RTVSPropertyOp43
 70
     1
102
RTVSPropertyOp44
 70
     1
102
RTVSPropertyOp45
 70
     1
102
RTVSPropertyOp46
 70
     1
102
RTVSPropertyOp47
 70
     1
102
RTVSPropertyOp48
 70
     1
102
RTVSPropertyOp49
 70
     1
102
RTVSPropertyOp50
 70
     1
102
RTVSPropertyOp51
 70
     0
102
RTVSPropertyOp52
 70
     0
102
RTVSPropertyOp53
 70
     1
102
RTVSPropertyOp54
 70
     1
102
RTVSPropertyOp55
 70
     1
102
RTVSPropertyOp56
 70
     1
102
RTVSPropertyOp57
 70
     1
102
RTVSPropertyOp58
 70
     1
102
RTVSPropertyOp59
 70
     1
102
RTVSPropertyOp60
 70
     1
102
RTVSPropertyOp61
 70
     1
102
RTVSPropertyOp62
 70
     1
  0
XRECORD
  5
386
102
{ACAD_REACTORS
330
385
102
}
330
385
100
AcDbXrecord
280
     1
102
RTVSPost2010Prop28
280
     0
102
RTVSPost2010PropOp28
 70
     1
102
RTVSPost2010Prop29
280
     1
102
RTVSPost2010PropOp29
 70
     1
102
RTVSPost2010Prop30
280
     1
102
RTVSPost2010PropOp30
 70
     1
102
RTVSPost2010Prop31
280
     0
102
RTVSPost2010PropOp31
 70
     1
102
RTVSPost2010Prop32
280
     0
102
RTVSPost2010PropOp32
 70
     1
102
RTVSPost2010Prop33
280
     0
102
RTVSPost2010PropOp33
 70
     1
102
RTVSPost2010Prop34
280
     0
102
RTVSPost2010PropOp34
 70
     1
102
RTVSPost2010Prop35
280
     0
102
RTVSPost2010PropOp35
 70
     1
102
RTVSPost2010Prop36
280
     0
102
RTVSPost2010PropOp36
 70
     1
102
RTVSPost2010Prop37
 90
       50
102
RTVSPost2010PropOp37
 70
     1
102
RTVSPost2010Prop38
140
0.0
102
RTVSPost2010PropOp38
 70
     1
102
RTVSPost2010Prop39
140
1.0
102
RTVSPost2010PropOp39
 70
     1
102
RTVSPost2010Prop40
 90
        0
102
RTVSPost2010PropOp40
 70
     1
102
RTVSPost2010Prop41ColorIndex
 90
       18
102
RTVSPost2010Prop41ColorRGB
 90
        0
102
RTVSPost2010PropOp41
 70
     1
102
RTVSPost2010Prop42
 90
       50
102
RTVSPost2010PropOp42
 70
     1
102
RTVSPost2010Prop43
 90
        3
102
RTVSPost2010PropOp43
 70
     1
102
RTVSPost2010Prop44ColorIndex
 90
        5
102
RTVSPost2010Prop44ColorRGB
 90
      255
102
RTVSPost2010PropOp44
 70
     1
102
RTVSPost2010Prop45
280
     0
102
RTVSPost2010PropOp45
 70
     1
102
RTVSPost2010Prop46
 90
       50
102
RTVSPost2010PropOp46
 70
     1
102
RTVSPost2010Prop47
 90
       50
102
RTVSPost2010PropOp47
 70
     1
102
RTVSPost2010Prop48
 90
       50
102
RTVSPost2010PropOp48
 70
     1
102
RTVSPost2010Prop49
280
     0
102
RTVSPost2010PropOp49
 70
     1
102
RTVSPost2010Prop50
 90
       50
102
RTVSPost2010PropOp50
 70
     1
102
RTVSPost2010Prop51ColorIndex
 90
      256
102
RTVSPost2010Prop51ColorRGB
 90
-16777216
102
RTVSPost2010PropOp51
 70
     0
102
RTVSPost2010Prop52
140
1.0
102
RTVSPost2010PropOp52
 70
     0
102
RTVSPost2010Prop53
 90
        2
102
RTVSPost2010PropOp53
 70
     1
102
RTVSPost2010Prop54
  1
strokes_ogs.tif
102
RTVSPost2010PropOp54
 70
     1
102
RTVSPost2010Prop55
280
     0
102
RTVSPost2010PropOp55
 70
     1
102
RTVSPost2010Prop56
140
1.0
102
RTVSPost2010PropOp56
 70
     1
102
RTVSPost2010Prop57
140
1.0
102
RTVSPost2010PropOp57
 70
     1
102
RTVSPropertyOp0
 70
     1
102
RTVSPropertyOp1
 70
     1
102
RTVSPropertyOp2
 70
     1
102
RTVSPropertyOp3
 70
     1
102
RTVSPropertyOp4
 70
     1
102
RTVSPropertyOp5
 70
     1
102
RTVSPropertyOp6
 70
     1
102
RTVSPropertyOp7
 70
     1
102
RTVSPropertyOp8
 70
     1
102
RTVSPropertyOp9
 70
     1
102
RTVSPropertyOp10
 70
     1
102
RTVSPropertyOp11
 70
     1
102
RTVSPropertyOp12
 70
     1
102
RTVSPropertyOp13
 70
     1
102
RTVSPropertyOp14
 70
     1
102
RTVSPropertyOp15
 70
     1
102
RTVSPropertyOp16
 70
     1
102
RTVSPropertyOp17
 70
     1
102
RTVSPropertyOp18
 70
     1
102
RTVSPropertyOp19
 70
     1
102
RTVSPropertyOp20
 70
     1
102
RTVSPropertyOp21
 70
     1
102
RTVSPropertyOp22
 70
     1
102
RTVSPropertyOp23
 70
     1
102
RTVSPropertyOp24
 70
     1
102
RTVSPropertyOp25
 70
     1
102
RTVSPropertyOp26
 70
     1
102
RTVSPropertyOp27
 70
     1
102
RTVSPropertyOp28
 70
     1
102
RTVSPropertyOp29
 70
     1
102
RTVSPropertyOp30
 70
     1
102
RTVSPropertyOp31
 70
     1
102
RTVSPropertyOp32
 70
     1
102
RTVSPropertyOp33
 70
     1
102
RTVSPropertyOp34
 70
     1
102
RTVSPropertyOp35
 70
     1
102
RTVSPropertyOp36
 70
     1
102
RTVSPropertyOp37
 70
     1
102
RTVSPropertyOp38
 70
     1
102
RTVSPropertyOp39
 70
     1
102
RTVSPropertyOp40
 70
     1
102
RTVSPropertyOp41
 70
     1
102
RTVSPropertyOp42
 70
     1
102
RTVSPropertyOp43
 70
     1
102
RTVSPropertyOp44
 70
     1
102
RTVSPropertyOp45
 70
     1
102
RTVSPropertyOp46
 70
     1
102
RTVSPropertyOp47
 70
     1
102
RTVSPropertyOp48
 70
     1
102
RTVSPropertyOp49
 70
     1
102
RTVSPropertyOp50
 70
     1
102
RTVSPropertyOp51
 70
     0
102
RTVSPropertyOp52
 70
     0
102
RTVSPropertyOp53
 70
     1
102
RTVSPropertyOp54
 70
     1
102
RTVSPropertyOp55
 70
     1
102
RTVSPropertyOp56
 70
     1
102
RTVSPropertyOp57
 70
     1
102
RTVSPropertyOp58
 70
     1
102
RTVSPropertyOp59
 70
     1
102
RTVSPropertyOp60
 70
     1
102
RTVSPropertyOp61
 70
     1
102
RTVSPropertyOp62
 70
     1
  0
XRECORD
  5
388
102
{ACAD_REACTORS
330
387
102
}
330
387
100
AcDbXrecord
280
     1
102
RTVSPost2010Prop28
280
     0
102
RTVSPost2010PropOp28
 70
     1
102
RTVSPost2010Prop29
280
     1
102
RTVSPost2010PropOp29
 70
     1
102
RTVSPost2010Prop30
280
     1
102
RTVSPost2010PropOp30
 70
     1
102
RTVSPost2010Prop31
280
     0
102
RTVSPost2010PropOp31
 70
     1
102
RTVSPost2010Prop32
280
     0
102
RTVSPost2010PropOp32
 70
     1
102
RTVSPost2010Prop33
280
     0
102
RTVSPost2010PropOp33
 70
     1
102
RTVSPost2010Prop34
280
     0
102
RTVSPost2010PropOp34
 70
     1
102
RTVSPost2010Prop35
280
     0
102
RTVSPost2010PropOp35
 70
     1
102
RTVSPost2010Prop36
280
     0
102
RTVSPost2010PropOp36
 70
     1
102
RTVSPost2010Prop37
 90
       50
102
RTVSPost2010PropOp37
 70
     1
102
RTVSPost2010Prop38
140
0.0
102
RTVSPost2010PropOp38
 70
     1
102
RTVSPost2010Prop39
140
1.0
102
RTVSPost2010PropOp39
 70
     1
102
RTVSPost2010Prop40
 90
        0
102
RTVSPost2010PropOp40
 70
     1
102
RTVSPost2010Prop41ColorIndex
 90
       18
102
RTVSPost2010Prop41ColorRGB
 90
        0
102
RTVSPost2010PropOp41
 70
     1
102
RTVSPost2010Prop42
 90
       50
102
RTVSPost2010PropOp42
 70
     1
102
RTVSPost2010Prop43
 90
        3
102
RTVSPost2010PropOp43
 70
     1
102
RTVSPost2010Prop44ColorIndex
 90
        5
102
RTVSPost2010Prop44ColorRGB
 90
      255
102
RTVSPost2010PropOp44
 70
     1
102
RTVSPost2010Prop45
280
     0
102
RTVSPost2010PropOp45
 70
     1
102
RTVSPost2010Prop46
 90
       50
102
RTVSPost2010PropOp46
 70
     1
102
RTVSPost2010Prop47
 90
       50
102
RTVSPost2010PropOp47
 70
     1
102
RTVSPost2010Prop48
 90
       50
102
RTVSPost2010PropOp48
 70
     1
102
RTVSPost2010Prop49
280
     0
102
RTVSPost2010PropOp49
 70
     1
102
RTVSPost2010Prop50
 90
       50
102
RTVSPost2010PropOp50
 70
     1
102
RTVSPost2010Prop51ColorIndex
 90
      256
102
RTVSPost2010Prop51ColorRGB
 90
-16777216
102
RTVSPost2010PropOp51
 70
     0
102
RTVSPost2010Prop52
140
1.0
102
RTVSPost2010PropOp52
 70
     0
102
RTVSPost2010Prop53
 90
        2
102
RTVSPost2010PropOp53
 70
     1
102
RTVSPost2010Prop54
  1
strokes_ogs.tif
102
RTVSPost2010PropOp54
 70
     1
102
RTVSPost2010Prop55
280
     0
102
RTVSPost2010PropOp55
 70
     1
102
RTVSPost2010Prop56
140
1.0
102
RTVSPost2010PropOp56
 70
     1
102
RTVSPost2010Prop57
140
1.0
102
RTVSPost2010PropOp57
 70
     1
102
RTVSPropertyOp0
 70
     1
102
RTVSPropertyOp1
 70
     1
102
RTVSPropertyOp2
 70
     1
102
RTVSPropertyOp3
 70
     1
102
RTVSPropertyOp4
 70
     1
102
RTVSPropertyOp5
 70
     1
102
RTVSPropertyOp6
 70
     1
102
RTVSPropertyOp7
 70
     1
102
RTVSPropertyOp8
 70
     1
102
RTVSPropertyOp9
 70
     1
102
RTVSPropertyOp10
 70
     1
102
RTVSPropertyOp11
 70
     1
102
RTVSPropertyOp12
 70
     1
102
RTVSPropertyOp13
 70
     1
102
RTVSPropertyOp14
 70
     1
102
RTVSPropertyOp15
 70
     1
102
RTVSPropertyOp16
 70
     1
102
RTVSPropertyOp17
 70
     1
102
RTVSPropertyOp18
 70
     1
102
RTVSPropertyOp19
 70
     1
102
RTVSPropertyOp20
 70
     1
102
RTVSPropertyOp21
 70
     1
102
RTVSPropertyOp22
 70
     1
102
RTVSPropertyOp23
 70
     1
102
RTVSPropertyOp24
 70
     1
102
RTVSPropertyOp25
 70
     1
102
RTVSPropertyOp26
 70
     1
102
RTVSPropertyOp27
 70
     1
102
RTVSPropertyOp28
 70
     1
102
RTVSPropertyOp29
 70
     1
102
RTVSPropertyOp30
 70
     1
102
RTVSPropertyOp31
 70
     1
102
RTVSPropertyOp32
 70
     1
102
RTVSPropertyOp33
 70
     1
102
RTVSPropertyOp34
 70
     1
102
RTVSPropertyOp35
 70
     1
102
RTVSPropertyOp36
 70
     1
102
RTVSPropertyOp37
 70
     1
102
RTVSPropertyOp38
 70
     1
102
RTVSPropertyOp39
 70
     1
102
RTVSPropertyOp40
 70
     1
102
RTVSPropertyOp41
 70
     1
102
RTVSPropertyOp42
 70
     1
102
RTVSPropertyOp43
 70
     1
102
RTVSPropertyOp44
 70
     1
102
RTVSPropertyOp45
 70
     1
102
RTVSPropertyOp46
 70
     1
102
RTVSPropertyOp47
 70
     1
102
RTVSPropertyOp48
 70
     1
102
RTVSPropertyOp49
 70
     1
102
RTVSPropertyOp50
 70
     1
102
RTVSPropertyOp51
 70
     0
102
RTVSPropertyOp52
 70
     0
102
RTVSPropertyOp53
 70
     1
102
RTVSPropertyOp54
 70
     1
102
RTVSPropertyOp55
 70
     1
102
RTVSPropertyOp56
 70
     1
102
RTVSPropertyOp57
 70
     1
102
RTVSPropertyOp58
 70
     1
102
RTVSPropertyOp59
 70
     1
102
RTVSPropertyOp60
 70
     1
102
RTVSPropertyOp61
 70
     1
102
RTVSPropertyOp62
 70
     1
  0
XRECORD
  5
378
102
{ACAD_REACTORS
330
377
102
}
330
377
100
AcDbXrecord
280
     1
102
RTVSPost2010Prop28
280
     0
102
RTVSPost2010PropOp28
 70
     1
102
RTVSPost2010Prop29
280
     1
102
RTVSPost2010PropOp29
 70
     1
102
RTVSPost2010Prop30
280
     1
102
RTVSPost2010PropOp30
 70
     1
102
RTVSPost2010Prop31
280
     0
102
RTVSPost2010PropOp31
 70
     1
102
RTVSPost2010Prop32
280
     0
102
RTVSPost2010PropOp32
 70
     1
102
RTVSPost2010Prop33
280
     0
102
RTVSPost2010PropOp33
 70
     1
102
RTVSPost2010Prop34
280
     0
102
RTVSPost2010PropOp34
 70
     1
102
RTVSPost2010Prop35
280
     0
102
RTVSPost2010PropOp35
 70
     1
102
RTVSPost2010Prop36
280
     0
102
RTVSPost2010PropOp36
 70
     1
102
RTVSPost2010Prop37
 90
       50
102
RTVSPost2010PropOp37
 70
     1
102
RTVSPost2010Prop38
140
0.0
102
RTVSPost2010PropOp38
 70
     1
102
RTVSPost2010Prop39
140
1.0
102
RTVSPost2010PropOp39
 70
     1
102
RTVSPost2010Prop40
 90
        0
102
RTVSPost2010PropOp40
 70
     1
102
RTVSPost2010Prop41ColorIndex
 90
       18
102
RTVSPost2010Prop41ColorRGB
 90
        0
102
RTVSPost2010PropOp41
 70
     1
102
RTVSPost2010Prop42
 90
       50
102
RTVSPost2010PropOp42
 70
     1
102
RTVSPost2010Prop43
 90
        3
102
RTVSPost2010PropOp43
 70
     1
102
RTVSPost2010Prop44ColorIndex
 90
        5
102
RTVSPost2010Prop44ColorRGB
 90
      255
102
RTVSPost2010PropOp44
 70
     1
102
RTVSPost2010Prop45
280
     0
102
RTVSPost2010PropOp45
 70
     1
102
RTVSPost2010Prop46
 90
       50
102
RTVSPost2010PropOp46
 70
     1
102
RTVSPost2010Prop47
 90
       50
102
RTVSPost2010PropOp47
 70
     1
102
RTVSPost2010Prop48
 90
       50
102
RTVSPost2010PropOp48
 70
     1
102
RTVSPost2010Prop49
280
     0
102
RTVSPost2010PropOp49
 70
     1
102
RTVSPost2010Prop50
 90
       50
102
RTVSPost2010PropOp50
 70
     1
102
RTVSPost2010Prop51ColorIndex
 90
      256
102
RTVSPost2010Prop51ColorRGB
 90
-16777216
102
RTVSPost2010PropOp51
 70
     0
102
RTVSPost2010Prop52
140
1.0
102
RTVSPost2010PropOp52
 70
     0
102
RTVSPost2010Prop53
 90
        2
102
RTVSPost2010PropOp53
 70
     1
102
RTVSPost2010Prop54
  1
strokes_ogs.tif
102
RTVSPost2010PropOp54
 70
     1
102
RTVSPost2010Prop55
280
     0
102
RTVSPost2010PropOp55
 70
     1
102
RTVSPost2010Prop56
140
1.0
102
RTVSPost2010PropOp56
 70
     1
102
RTVSPost2010Prop57
140
1.0
102
RTVSPost2010PropOp57
 70
     1
102
RTVSPropertyOp0
 70
     1
102
RTVSPropertyOp1
 70
     1
102
RTVSPropertyOp2
 70
     1
102
RTVSPropertyOp3
 70
     1
102
RTVSPropertyOp4
 70
     1
102
RTVSPropertyOp5
 70
     1
102
RTVSPropertyOp6
 70
     1
102
RTVSPropertyOp7
 70
     1
102
RTVSPropertyOp8
 70
     1
102
RTVSPropertyOp9
 70
     1
102
RTVSPropertyOp10
 70
     1
102
RTVSPropertyOp11
 70
     1
102
RTVSPropertyOp12
 70
     1
102
RTVSPropertyOp13
 70
     1
102
RTVSPropertyOp14
 70
     1
102
RTVSPropertyOp15
 70
     1
102
RTVSPropertyOp16
 70
     1
102
RTVSPropertyOp17
 70
     1
102
RTVSPropertyOp18
 70
     1
102
RTVSPropertyOp19
 70
     1
102
RTVSPropertyOp20
 70
     1
102
RTVSPropertyOp21
 70
     1
102
RTVSPropertyOp22
 70
     1
102
RTVSPropertyOp23
 70
     1
102
RTVSPropertyOp24
 70
     1
102
RTVSPropertyOp25
 70
     1
102
RTVSPropertyOp26
 70
     1
102
RTVSPropertyOp27
 70
     1
102
RTVSPropertyOp28
 70
     1
102
RTVSPropertyOp29
 70
     1
102
RTVSPropertyOp30
 70
     1
102
RTVSPropertyOp31
 70
     1
102
RTVSPropertyOp32
 70
     1
102
RTVSPropertyOp33
 70
     1
102
RTVSPropertyOp34
 70
     1
102
RTVSPropertyOp35
 70
     1
102
RTVSPropertyOp36
 70
     1
102
RTVSPropertyOp37
 70
     1
102
RTVSPropertyOp38
 70
     1
102
RTVSPropertyOp39
 70
     1
102
RTVSPropertyOp40
 70
     1
102
RTVSPropertyOp41
 70
     1
102
RTVSPropertyOp42
 70
     1
102
RTVSPropertyOp43
 70
     1
102
RTVSPropertyOp44
 70
     1
102
RTVSPropertyOp45
 70
     1
102
RTVSPropertyOp46
 70
     1
102
RTVSPropertyOp47
 70
     1
102
RTVSPropertyOp48
 70
     1
102
RTVSPropertyOp49
 70
     1
102
RTVSPropertyOp50
 70
     1
102
RTVSPropertyOp51
 70
     0
102
RTVSPropertyOp52
 70
     0
102
RTVSPropertyOp53
 70
     1
102
RTVSPropertyOp54
 70
     1
102
RTVSPropertyOp55
 70
     1
102
RTVSPropertyOp56
 70
     1
102
RTVSPropertyOp57
 70
     1
102
RTVSPropertyOp58
 70
     1
102
RTVSPropertyOp59
 70
     1
102
RTVSPropertyOp60
 70
     1
102
RTVSPropertyOp61
 70
     1
102
RTVSPropertyOp62
 70
     1
  0
XRECORD
  5
36A
102
{ACAD_REACTORS
330
369
102
}
330
369
100
AcDbXrecord
280
     1
102
RTVSPost2010Prop28
280
     0
102
RTVSPost2010PropOp28
 70
     1
102
RTVSPost2010Prop29
280
     1
102
RTVSPost2010PropOp29
 70
     1
102
RTVSPost2010Prop30
280
     1
102
RTVSPost2010PropOp30
 70
     1
102
RTVSPost2010Prop31
280
     0
102
RTVSPost2010PropOp31
 70
     1
102
RTVSPost2010Prop32
280
     0
102
RTVSPost2010PropOp32
 70
     1
102
RTVSPost2010Prop33
280
     0
102
RTVSPost2010PropOp33
 70
     1
102
RTVSPost2010Prop34
280
     0
102
RTVSPost2010PropOp34
 70
     1
102
RTVSPost2010Prop35
280
     0
102
RTVSPost2010PropOp35
 70
     1
102
RTVSPost2010Prop36
280
     0
102
RTVSPost2010PropOp36
 70
     1
102
RTVSPost2010Prop37
 90
       50
102
RTVSPost2010PropOp37
 70
     1
102
RTVSPost2010Prop38
140
0.0
102
RTVSPost2010PropOp38
 70
     1
102
RTVSPost2010Prop39
140
1.0
102
RTVSPost2010PropOp39
 70
     1
102
RTVSPost2010Prop40
 90
        0
102
RTVSPost2010PropOp40
 70
     1
102
RTVSPost2010Prop41ColorIndex
 90
       18
102
RTVSPost2010Prop41ColorRGB
 90
        0
102
RTVSPost2010PropOp41
 70
     1
102
RTVSPost2010Prop42
 90
       50
102
RTVSPost2010PropOp42
 70
     1
102
RTVSPost2010Prop43
 90
        3
102
RTVSPost2010PropOp43
 70
     1
102
RTVSPost2010Prop44ColorIndex
 90
        5
102
RTVSPost2010Prop44ColorRGB
 90
      255
102
RTVSPost2010PropOp44
 70
     1
102
RTVSPost2010Prop45
280
     0
102
RTVSPost2010PropOp45
 70
     1
102
RTVSPost2010Prop46
 90
       50
102
RTVSPost2010PropOp46
 70
     1
102
RTVSPost2010Prop47
 90
       50
102
RTVSPost2010PropOp47
 70
     1
102
RTVSPost2010Prop48
 90
       50
102
RTVSPost2010PropOp48
 70
     1
102
RTVSPost2010Prop49
280
     0
102
RTVSPost2010PropOp49
 70
     1
102
RTVSPost2010Prop50
 90
       50
102
RTVSPost2010PropOp50
 70
     1
102
RTVSPost2010Prop51ColorIndex
 90
      256
102
RTVSPost2010Prop51ColorRGB
 90
-16777216
102
RTVSPost2010PropOp51
 70
     0
102
RTVSPost2010Prop52
140
1.0
102
RTVSPost2010PropOp52
 70
     0
102
RTVSPost2010Prop53
 90
        2
102
RTVSPost2010PropOp53
 70
     1
102
RTVSPost2010Prop54
  1
strokes_ogs.tif
102
RTVSPost2010PropOp54
 70
     1
102
RTVSPost2010Prop55
280
     0
102
RTVSPost2010PropOp55
 70
     1
102
RTVSPost2010Prop56
140
1.0
102
RTVSPost2010PropOp56
 70
     1
102
RTVSPost2010Prop57
140
1.0
102
RTVSPost2010PropOp57
 70
     1
102
RTVSPropertyOp0
 70
     1
102
RTVSPropertyOp1
 70
     1
102
RTVSPropertyOp2
 70
     1
102
RTVSPropertyOp3
 70
     1
102
RTVSPropertyOp4
 70
     1
102
RTVSPropertyOp5
 70
     1
102
RTVSPropertyOp6
 70
     1
102
RTVSPropertyOp7
 70
     1
102
RTVSPropertyOp8
 70
     1
102
RTVSPropertyOp9
 70
     1
102
RTVSPropertyOp10
 70
     1
102
RTVSPropertyOp11
 70
     1
102
RTVSPropertyOp12
 70
     1
102
RTVSPropertyOp13
 70
     1
102
RTVSPropertyOp14
 70
     1
102
RTVSPropertyOp15
 70
     1
102
RTVSPropertyOp16
 70
     1
102
RTVSPropertyOp17
 70
     1
102
RTVSPropertyOp18
 70
     1
102
RTVSPropertyOp19
 70
     1
102
RTVSPropertyOp20
 70
     1
102
RTVSPropertyOp21
 70
     1
102
RTVSPropertyOp22
 70
     1
102
RTVSPropertyOp23
 70
     1
102
RTVSPropertyOp24
 70
     1
102
RTVSPropertyOp25
 70
     1
102
RTVSPropertyOp26
 70
     1
102
RTVSPropertyOp27
 70
     1
102
RTVSPropertyOp28
 70
     1
102
RTVSPropertyOp29
 70
     1
102
RTVSPropertyOp30
 70
     1
102
RTVSPropertyOp31
 70
     1
102
RTVSPropertyOp32
 70
     1
102
RTVSPropertyOp33
 70
     1
102
RTVSPropertyOp34
 70
     1
102
RTVSPropertyOp35
 70
     1
102
RTVSPropertyOp36
 70
     1
102
RTVSPropertyOp37
 70
     1
102
RTVSPropertyOp38
 70
     1
102
RTVSPropertyOp39
 70
     1
102
RTVSPropertyOp40
 70
     1
102
RTVSPropertyOp41
 70
     1
102
RTVSPropertyOp42
 70
     1
102
RTVSPropertyOp43
 70
     1
102
RTVSPropertyOp44
 70
     1
102
RTVSPropertyOp45
 70
     1
102
RTVSPropertyOp46
 70
     1
102
RTVSPropertyOp47
 70
     1
102
RTVSPropertyOp48
 70
     1
102
RTVSPropertyOp49
 70
     1
102
RTVSPropertyOp50
 70
     1
102
RTVSPropertyOp51
 70
     0
102
RTVSPropertyOp52
 70
     0
102
RTVSPropertyOp53
 70
     1
102
RTVSPropertyOp54
 70
     1
102
RTVSPropertyOp55
 70
     1
102
RTVSPropertyOp56
 70
     1
102
RTVSPropertyOp57
 70
     1
102
RTVSPropertyOp58
 70
     1
102
RTVSPropertyOp59
 70
     1
102
RTVSPropertyOp60
 70
     1
102
RTVSPropertyOp61
 70
     1
102
RTVSPropertyOp62
 70
     1
  0
XRECORD
  5
38A
102
{ACAD_REACTORS
330
389
102
}
330
389
100
AcDbXrecord
280
     1
102
RTVSPost2010Prop28
280
     0
102
RTVSPost2010PropOp28
 70
     1
102
RTVSPost2010Prop29
280
     1
102
RTVSPost2010PropOp29
 70
     1
102
RTVSPost2010Prop30
280
     1
102
RTVSPost2010PropOp30
 70
     1
102
RTVSPost2010Prop31
280
     0
102
RTVSPost2010PropOp31
 70
     1
102
RTVSPost2010Prop32
280
     0
102
RTVSPost2010PropOp32
 70
     1
102
RTVSPost2010Prop33
280
     0
102
RTVSPost2010PropOp33
 70
     1
102
RTVSPost2010Prop34
280
     0
102
RTVSPost2010PropOp34
 70
     1
102
RTVSPost2010Prop35
280
     0
102
RTVSPost2010PropOp35
 70
     1
102
RTVSPost2010Prop36
280
     0
102
RTVSPost2010PropOp36
 70
     1
102
RTVSPost2010Prop37
 90
       50
102
RTVSPost2010PropOp37
 70
     1
102
RTVSPost2010Prop38
140
0.0
102
RTVSPost2010PropOp38
 70
     1
102
RTVSPost2010Prop39
140
1.0
102
RTVSPost2010PropOp39
 70
     1
102
RTVSPost2010Prop40
 90
        0
102
RTVSPost2010PropOp40
 70
     1
102
RTVSPost2010Prop41ColorIndex
 90
       18
102
RTVSPost2010Prop41ColorRGB
 90
        0
102
RTVSPost2010PropOp41
 70
     1
102
RTVSPost2010Prop42
 90
       50
102
RTVSPost2010PropOp42
 70
     1
102
RTVSPost2010Prop43
 90
        3
102
RTVSPost2010PropOp43
 70
     1
102
RTVSPost2010Prop44ColorIndex
 90
        5
102
RTVSPost2010Prop44ColorRGB
 90
      255
102
RTVSPost2010PropOp44
 70
     1
102
RTVSPost2010Prop45
280
     0
102
RTVSPost2010PropOp45
 70
     1
102
RTVSPost2010Prop46
 90
       50
102
RTVSPost2010PropOp46
 70
     1
102
RTVSPost2010Prop47
 90
       50
102
RTVSPost2010PropOp47
 70
     1
102
RTVSPost2010Prop48
 90
       50
102
RTVSPost2010PropOp48
 70
     1
102
RTVSPost2010Prop49
280
     0
102
RTVSPost2010PropOp49
 70
     1
102
RTVSPost2010Prop50
 90
       50
102
RTVSPost2010PropOp50
 70
     1
102
RTVSPost2010Prop51ColorIndex
 90
      256
102
RTVSPost2010Prop51ColorRGB
 90
-16777216
102
RTVSPost2010PropOp51
 70
     0
102
RTVSPost2010Prop52
140
1.0
102
RTVSPost2010PropOp52
 70
     0
102
RTVSPost2010Prop53
 90
        2
102
RTVSPost2010PropOp53
 70
     1
102
RTVSPost2010Prop54
  1
strokes_ogs.tif
102
RTVSPost2010PropOp54
 70
     1
102
RTVSPost2010Prop55
280
     0
102
RTVSPost2010PropOp55
 70
     1
102
RTVSPost2010Prop56
140
1.0
102
RTVSPost2010PropOp56
 70
     1
102
RTVSPost2010Prop57
140
1.0
102
RTVSPost2010PropOp57
 70
     1
102
RTVSPropertyOp0
 70
     1
102
RTVSPropertyOp1
 70
     1
102
RTVSPropertyOp2
 70
     1
102
RTVSPropertyOp3
 70
     1
102
RTVSPropertyOp4
 70
     1
102
RTVSPropertyOp5
 70
     1
102
RTVSPropertyOp6
 70
     1
102
RTVSPropertyOp7
 70
     1
102
RTVSPropertyOp8
 70
     1
102
RTVSPropertyOp9
 70
     1
102
RTVSPropertyOp10
 70
     1
102
RTVSPropertyOp11
 70
     1
102
RTVSPropertyOp12
 70
     1
102
RTVSPropertyOp13
 70
     1
102
RTVSPropertyOp14
 70
     1
102
RTVSPropertyOp15
 70
     1
102
RTVSPropertyOp16
 70
     1
102
RTVSPropertyOp17
 70
     1
102
RTVSPropertyOp18
 70
     1
102
RTVSPropertyOp19
 70
     1
102
RTVSPropertyOp20
 70
     1
102
RTVSPropertyOp21
 70
     1
102
RTVSPropertyOp22
 70
     1
102
RTVSPropertyOp23
 70
     1
102
RTVSPropertyOp24
 70
     1
102
RTVSPropertyOp25
 70
     1
102
RTVSPropertyOp26
 70
     1
102
RTVSPropertyOp27
 70
     1
102
RTVSPropertyOp28
 70
     1
102
RTVSPropertyOp29
 70
     1
102
RTVSPropertyOp30
 70
     1
102
RTVSPropertyOp31
 70
     1
102
RTVSPropertyOp32
 70
     1
102
RTVSPropertyOp33
 70
     1
102
RTVSPropertyOp34
 70
     1
102
RTVSPropertyOp35
 70
     1
102
RTVSPropertyOp36
 70
     1
102
RTVSPropertyOp37
 70
     1
102
RTVSPropertyOp38
 70
     1
102
RTVSPropertyOp39
 70
     1
102
RTVSPropertyOp40
 70
     1
102
RTVSPropertyOp41
 70
     1
102
RTVSPropertyOp42
 70
     1
102
RTVSPropertyOp43
 70
     1
102
RTVSPropertyOp44
 70
     1
102
RTVSPropertyOp45
 70
     1
102
RTVSPropertyOp46
 70
     1
102
RTVSPropertyOp47
 70
     1
102
RTVSPropertyOp48
 70
     1
102
RTVSPropertyOp49
 70
     1
102
RTVSPropertyOp50
 70
     1
102
RTVSPropertyOp51
 70
     0
102
RTVSPropertyOp52
 70
     0
102
RTVSPropertyOp53
 70
     1
102
RTVSPropertyOp54
 70
     1
102
RTVSPropertyOp55
 70
     1
102
RTVSPropertyOp56
 70
     1
102
RTVSPropertyOp57
 70
     1
102
RTVSPropertyOp58
 70
     1
102
RTVSPropertyOp59
 70
     1
102
RTVSPropertyOp60
 70
     1
102
RTVSPropertyOp61
 70
     1
102
RTVSPropertyOp62
 70
     1
  0
ENDSEC
  0
EOF
