  0
SECTION
  2
HEADER
  9
$ACADVER
  1
AC1018
  9
$ACADMAINTVER
 70
   104
  9
$DWGCODEPAGE
  3
ANSI_1250
  9
$LASTSAVEDBY
  1
wq7085
  9
$INSBASE
 10
0.0
 20
0.0
 30
0.0
  9
$EXTMIN
 10
185.2894053333333
 20
122.034924
 30
0.0
  9
$EXTMAX
 10
435.6672709999999
 20
347.6965206666668
 30
0.0
  9
$LIMMIN
 10
-0.5
 20
-0.5
  9
$LIMMAX
 10
5.0
 20
5.0
  9
$ORTHOMODE
 70
     0
  9
$REGENMODE
 70
     1
  9
$FILLMODE
 70
     1
  9
$QTEXTMODE
 70
     0
  9
$MIRRTEXT
 70
     1
  9
$LTSCALE
 40
1.0
  9
$ATTMODE
 70
     1
  9
$TEXTSIZE
 40
0.2
  9
$TRACEWID
 40
0.05
  9
$TEXTSTYLE
  7
Standard
  9
$CLAYER
  8
0
  9
$CELTYPE
  6
ByLayer
  9
$CECOLOR
 62
   256
  9
$CELTSCALE
 40
1.0
  9
$DISPSILH
 70
     0
  9
$DIMSCALE
 40
1.0
  9
$DIMASZ
 40
0.18
  9
$DIMEXO
 40
0.0625
  9
$DIMDLI
 40
0.38
  9
$DIMRND
 40
0.0
  9
$DIMDLE
 40
0.0
  9
$DIMEXE
 40
0.18
  9
$DIMTP
 40
0.0
  9
$DIMTM
 40
0.0
  9
$DIMTXT
 40
0.18
  9
$DIMCEN
 40
0.09
  9
$DIMTSZ
 40
0.0
  9
$DIMTOL
 70
     0
  9
$DIMLIM
 70
     0
  9
$DIMTIH
 70
     1
  9
$DIMTOH
 70
     1
  9
$DIMSE1
 70
     0
  9
$DIMSE2
 70
     0
  9
$DIMTAD
 70
     0
  9
$DIMZIN
 70
     0
  9
$DIMBLK
  1

  9
$DIMASO
 70
     1
  9
$DIMSHO
 70
     1
  9
$DIMPOST
  1

  9
$DIMAPOST
  1

  9
$DIMALT
 70
     0
  9
$DIMALTD
 70
     2
  9
$DIMALTF
 40
25.4
  9
$DIMLFAC
 40
1.0
  9
$DIMTOFL
 70
     0
  9
$DIMTVP
 40
0.0
  9
$DIMTIX
 70
     0
  9
$DIMSOXD
 70
     0
  9
$DIMSAH
 70
     0
  9
$DIMBLK1
  1

  9
$DIMBLK2
  1

  9
$DIMSTYLE
  2
Standard
  9
$DIMCLRD
 70
     0
  9
$DIMCLRE
 70
     0
  9
$DIMCLRT
 70
     0
  9
$DIMTFAC
 40
1.0
  9
$DIMGAP
 40
0.09
  9
$DIMJUST
 70
     0
  9
$DIMSD1
 70
     0
  9
$DIMSD2
 70
     0
  9
$DIMTOLJ
 70
     1
  9
$DIMTZIN
 70
     0
  9
$DIMALTZ
 70
     0
  9
$DIMALTTZ
 70
     0
  9
$DIMUPT
 70
     0
  9
$DIMDEC
 70
     4
  9
$DIMTDEC
 70
     4
  9
$DIMALTU
 70
     2
  9
$DIMALTTD
 70
     2
  9
$DIMTXSTY
  7
Standard
  9
$DIMAUNIT
 70
     0
  9
$DIMADEC
 70
     0
  9
$DIMALTRND
 40
0.0
  9
$DIMAZIN
 70
     0
  9
$DIMDSEP
 70
    46
  9
$DIMATFIT
 70
     3
  9
$DIMFRAC
 70
     0
  9
$DIMLDRBLK
  1

  9
$DIMLUNIT
 70
     2
  9
$DIMLWD
 70
    -2
  9
$DIMLWE
 70
    -2
  9
$DIMTMOVE
 70
     0
  9
$LUNITS
 70
     2
  9
$LUPREC
 70
     4
  9
$SKETCHINC
 40
0.1
  9
$FILLETRAD
 40
0.5
  9
$AUNITS
 70
     0
  9
$AUPREC
 70
     0
  9
$MENU
  1
.
  9
$ELEVATION
 40
0.0
  9
$PELEVATION
 40
0.0
  9
$THICKNESS
 40
0.0
  9
$LIMCHECK
 70
     0
  9
$CHAMFERA
 40
0.0
  9
$CHAMFERB
 40
0.0
  9
$CHAMFERC
 40
0.0
  9
$CHAMFERD
 40
0.0
  9
$SKPOLY
 70
     0
  9
$TDCREATE
 40
2459095.353287037
  9
$TDUCREATE
 40
2459095.269956007
  9
$TDUPDATE
 40
2459095.354178240
  9
$TDUUPDATE
 40
2459095.270844908
  9
$TDINDWG
 40
0.0007870486
  9
$TDUSRTIMER
 40
0.0007870486
  9
$USRTIMER
 70
     1
  9
$ANGBASE
 50
0.0
  9
$ANGDIR
 70
     0
  9
$PDMODE
 70
     0
  9
$PDSIZE
 40
0.0
  9
$PLINEWID
 40
0.0
  9
$SPLFRAME
 70
     0
  9
$SPLINETYPE
 70
     6
  9
$SPLINESEGS
 70
     8
  9
$HANDSEED
  5
39F
  9
$SURFTAB1
 70
     6
  9
$SURFTAB2
 70
     6
  9
$SURFTYPE
 70
     6
  9
$SURFU
 70
     6
  9
$SURFV
 70
     6
  9
$UCSBASE
  2

  9
$UCSNAME
  2

  9
$UCSORG
 10
274.404842
 20
288.907994
 30
0.0
  9
$UCSXDIR
 10
1.0
 20
0.0
 30
0.0
  9
$UCSYDIR
 10
0.0
 20
1.0
 30
0.0
  9
$UCSORTHOREF
  2

  9
$UCSORTHOVIEW
 70
     0
  9
$UCSORGTOP
 10
0.0
 20
0.0
 30
0.0
  9
$UCSORGBOTTOM
 10
0.0
 20
0.0
 30
0.0
  9
$UCSORGLEFT
 10
0.0
 20
0.0
 30
0.0
  9
$UCSORGRIGHT
 10
0.0
 20
0.0
 30
0.0
  9
$UCSORGFRONT
 10
0.0
 20
0.0
 30
0.0
  9
$UCSORGBACK
 10
0.0
 20
0.0
 30
0.0
  9
$PUCSBASE
  2

  9
$PUCSNAME
  2

  9
$PUCSORG
 10
0.0
 20
0.0
 30
0.0
  9
$PUCSXDIR
 10
1.0
 20
0.0
 30
0.0
  9
$PUCSYDIR
 10
0.0
 20
1.0
 30
0.0
  9
$PUCSORTHOREF
  2

  9
$PUCSORTHOVIEW
 70
     0
  9
$PUCSORGTOP
 10
0.0
 20
0.0
 30
0.0
  9
$PUCSORGBOTTOM
 10
0.0
 20
0.0
 30
0.0
  9
$PUCSORGLEFT
 10
0.0
 20
0.0
 30
0.0
  9
$PUCSORGRIGHT
 10
0.0
 20
0.0
 30
0.0
  9
$PUCSORGFRONT
 10
0.0
 20
0.0
 30
0.0
  9
$PUCSORGBACK
 10
0.0
 20
0.0
 30
0.0
  9
$USERI1
 70
     0
  9
$USERI2
 70
     0
  9
$USERI3
 70
     0
  9
$USERI4
 70
     0
  9
$USERI5
 70
     0
  9
$USERR1
 40
0.0
  9
$USERR2
 40
0.0
  9
$USERR3
 40
0.0
  9
$USERR4
 40
0.0
  9
$USERR5
 40
0.0
  9
$WORLDVIEW
 70
     1
  9
$SHADEDGE
 70
     3
  9
$SHADEDIF
 70
    70
  9
$TILEMODE
 70
     1
  9
$MAXACTVP
 70
    64
  9
$PINSBASE
 10
0.0
 20
0.0
 30
0.0
  9
$PLIMCHECK
 70
     0
  9
$PEXTMIN
 10
-0.5
 20
-0.5
 30
-0.5
  9
$PEXTMAX
 10
5.0
 20
5.0
 30
5.0
  9
$PLIMMIN
 10
-0.5
 20
-0.5
  9
$PLIMMAX
 10
5.0
 20
5.0
  9
$UNITMODE
 70
     0
  9
$VISRETAIN
 70
     1
  9
$PLINEGEN
 70
     0
  9
$PSLTSCALE
 70
     1
  9
$TREEDEPTH
 70
  3020
  9
$CMLSTYLE
  2
Standard
  9
$CMLJUST
 70
     0
  9
$CMLSCALE
 40
1.0
  9
$PROXYGRAPHICS
 70
     1
  9
$MEASUREMENT
 70
     1
  9
$CELWEIGHT
370
    13
  9
$ENDCAPS
280
     0
  9
$JOINSTYLE
280
     0
  9
$LWDISPLAY
290
     0
  9
$INSUNITS
 70
     4
  9
$HYPERLINKBASE
  1

  9
$STYLESHEET
  1

  9
$XEDIT
290
     1
  9
$CEPSNTYPE
380
     0
  9
$PSTYLEMODE
290
     1
  9
$FINGERPRINTGUID
  2
{B3F39294-7C88-48E9-A9D6-B364454675CE}
  9
$VERSIONGUID
  2
{EDBDA5F5-AE53-754F-ADCC-66309AA29FFB}
  9
$EXTNAMES
290
     1
  9
$PSVPSCALE
 40
0.0
  9
$OLESTARTUP
290
     0
  9
$SORTENTS
280
   127
  9
$INDEXCTL
280
     0
  9
$HIDETEXT
280
     1
  9
$XCLIPFRAME
290
     0
  9
$HALOGAP
280
     0
  9
$OBSCOLOR
 70
   257
  9
$OBSLTYPE
280
     0
  9
$INTERSECTIONDISPLAY
280
     0
  9
$INTERSECTIONCOLOR
 70
   257
  9
$DIMASSOC
280
     2
  9
$PROJECTNAME
  1

  0
ENDSEC
  0
SECTION
  2
CLASSES
  0
CLASS
  1
ACDBDICTIONARYWDFLT
  2
AcDbDictionaryWithDefault
  3
ObjectDBX Classes
 90
        0
 91
        1
280
     0
281
     0
  0
CLASS
  1
VISUALSTYLE
  2
AcDbVisualStyle
  3
ObjectDBX Classes
 90
     4095
 91
       24
280
     0
281
     0
  0
CLASS
  1
MATERIAL
  2
AcDbMaterial
  3
ObjectDBX Classes
 90
     1153
 91
        3
280
     0
281
     0
  0
CLASS
  1
SCALE
  2
AcDbScale
  3
ObjectDBX Classes
 90
     1153
 91
       33
280
     0
281
     0
  0
CLASS
  1
TABLESTYLE
  2
AcDbTableStyle
  3
ObjectDBX Classes
 90
     4095
 91
        1
280
     0
281
     0
  0
CLASS
  1
MLEADERSTYLE
  2
AcDbMLeaderStyle
  3
ACDB_MLEADERSTYLE_CLASS
 90
     4095
 91
        1
280
     0
281
     0
  0
CLASS
  1
SUN
  2
AcDbSun
  3
SCENEOE
 90
     1153
 91
        0
280
     0
281
     0
  0
CLASS
  1
DIMASSOC
  2
AcDbDimAssoc
  3
"AcDbDimAssoc|Product Desc:     AcDim ARX App For Dimension|Company:          Autodesk, Inc.|WEB Address:      www.autodesk.com"
 90
        0
 91
        7
280
     0
281
     0
  0
CLASS
  1
DICTIONARYVAR
  2
AcDbDictionaryVar
  3
ObjectDBX Classes
 90
        0
 91
        8
280
     0
281
     0
  0
CLASS
  1
CELLSTYLEMAP
  2
AcDbCellStyleMap
  3
ObjectDBX Classes
 90
     1152
 91
        2
280
     0
281
     0
  0
CLASS
  1
ACDBSECTIONVIEWSTYLE
  2
AcDbSectionViewStyle
  3
ObjectDBX Classes
 90
     1025
 91
        1
280
     0
281
     0
  0
CLASS
  1
ACDBDETAILVIEWSTYLE
  2
AcDbDetailViewStyle
  3
ObjectDBX Classes
 90
     1025
 91
        1
280
     0
281
     0
  0
CLASS
  1
SORTENTSTABLE
  2
AcDbSortentsTable
  3
ObjectDBX Classes
 90
        0
 91
        1
280
     0
281
     0
  0
ENDSEC
  0
SECTION
  2
TABLES
  0
TABLE
  2
VPORT
  5
8
330
0
100
AcDbSymbolTable
 70
    16
  0
VPORT
  5
29
330
8
100
AcDbSymbolTableRecord
100
AcDbViewportTableRecord
  2
*Active
 70
     0
 10
0.0
 20
0.0
 11
1.0
 21
1.0
 12
327.1299660921876
 22
288.7431720963129
 13
0.0
 23
0.0
 14
0.5
 24
0.5
 15
0.5
 25
0.5
 16
0.0
 26
0.0
 36
1.0
 17
0.0
 27
0.0
 37
0.0
 40
204.6620102119408
 41
2.292712066905615
 42
50.0
 43
439.224162
 44
-439.224162
 50
0.0
 51
0.0
 71
     0
 72
   100
 73
     1
 74
     3
 75
     0
 76
     0
 77
     0
 78
     0
281
     0
 65
     1
110
274.404842
120
288.907994
130
0.0
111
1.0
121
0.0
131
0.0
112
0.0
122
1.0
132
0.0
 79
     0
146
0.0
1001
ACAD_NAV_VCDISPLAY
1070
     3
  0
VPORT
  5
2A3
330
8
100
AcDbSymbolTableRecord
100
AcDbViewportTableRecord
  2
L1
 70
     0
 10
0.0
 20
0.0
 11
1.0
 21
1.0
 12
309.974129
 22
234.798884
 13
0.0
 23
0.0
 14
0.5
 24
0.5
 15
0.5
 25
0.5
 16
0.0
 26
0.0
 36
1.0
 17
0.0
 27
0.0
 37
0.0
 40
207.433333
 41
0.085602
 42
50.0
 43
439.224162
 44
-439.224162
 50
0.0
 51
0.0
 71
     0
 72
   100
 73
     1
 74
     3
 75
     0
 76
     0
 77
     0
 78
     0
281
     0
 65
     1
110
0.0
120
0.0
130
0.0
111
1.0
121
0.0
131
0.0
112
0.0
122
1.0
132
0.0
 79
     0
146
0.0
  0
VPORT
  5
2A4
330
8
100
AcDbSymbolTableRecord
100
AcDbViewportTableRecord
  2
L2
 70
     0
 10
0.0
 20
0.0
 11
0.5
 21
1.0
 12
0.0
 22
0.0
 13
0.0
 23
0.0
 14
0.5
 24
0.5
 15
0.5
 25
0.5
 16
0.0
 26
-1.0
 36
0.0
 17
0.0
 27
0.0
 37
0.0
 40
1316.18997
 41
0.013491
 42
50.0
 43
678.00864
 44
-678.00864
 50
0.0
 51
0.0
 71
     0
 72
   100
 73
     1
 74
     3
 75
     0
 76
     0
 77
     0
 78
     0
281
     0
 65
     1
110
0.0
120
0.0
130
0.0
111
1.0
121
0.0
131
0.0
112
0.0
122
1.0
132
0.0
 79
     0
146
0.0
  0
VPORT
  5
2A5
330
8
100
AcDbSymbolTableRecord
100
AcDbViewportTableRecord
  2
L2
 70
     0
 10
0.5
 20
0.0
 11
1.0
 21
1.0
 12
0.0
 22
0.0
 13
0.0
 23
0.0
 14
0.5
 24
0.5
 15
0.5
 25
0.5
 16
1.0
 26
0.0
 36
0.0
 17
0.0
 27
0.0
 37
0.0
 40
1316.18997
 41
0.013491
 42
50.0
 43
666.2177989999999
 44
-666.2177989999999
 50
0.0
 51
0.0
 71
     0
 72
   100
 73
     1
 74
     3
 75
     0
 76
     0
 77
     0
 78
     0
281
     0
 65
     1
110
0.0
120
0.0
130
0.0
111
1.0
121
0.0
131
0.0
112
0.0
122
1.0
132
0.0
 79
     0
146
0.0
  0
VPORT
  5
2A6
330
8
100
AcDbSymbolTableRecord
100
AcDbViewportTableRecord
  2
L3
 70
     0
 10
0.0
 20
0.5
 11
1.0
 21
1.0
 12
309.974129
 22
234.798884
 13
0.0
 23
0.0
 14
0.5
 24
0.5
 15
0.5
 25
0.5
 16
0.0
 26
0.0
 36
1.0
 17
0.0
 27
0.0
 37
0.0
 40
207.433333
 41
0.085602
 42
50.0
 43
439.224162
 44
-439.224162
 50
0.0
 51
0.0
 71
     0
 72
   100
 73
     1
 74
     3
 75
     0
 76
     0
 77
     0
 78
     0
281
     0
 65
     1
110
0.0
120
0.0
130
0.0
111
1.0
121
0.0
131
0.0
112
0.0
122
1.0
132
0.0
 79
     0
146
0.0
  0
VPORT
  5
2A7
330
8
100
AcDbSymbolTableRecord
100
AcDbViewportTableRecord
  2
L3
 70
     0
 10
0.0
 20
0.0
 11
1.0
 21
0.5
 12
0.0
 22
0.0
 13
0.0
 23
0.0
 14
0.5
 24
0.5
 15
0.5
 25
0.5
 16
0.0
 26
-1.0
 36
0.0
 17
0.0
 27
0.0
 37
0.0
 40
1316.18997
 41
0.013491
 42
50.0
 43
678.00864
 44
-678.00864
 50
0.0
 51
0.0
 71
     0
 72
   100
 73
     1
 74
     3
 75
     0
 76
     0
 77
     0
 78
     0
281
     0
 65
     1
110
0.0
120
0.0
130
0.0
111
1.0
121
0.0
131
0.0
112
0.0
122
1.0
132
0.0
 79
     0
146
0.0
  0
VPORT
  5
2A8
330
8
100
AcDbSymbolTableRecord
100
AcDbViewportTableRecord
  2
L4
 70
     0
 10
0.0
 20
0.5
 11
0.5
 21
1.0
 12
309.974129
 22
234.798884
 13
0.0
 23
0.0
 14
0.5
 24
0.5
 15
0.5
 25
0.5
 16
0.0
 26
0.0
 36
1.0
 17
0.0
 27
0.0
 37
0.0
 40
207.433333
 41
0.085602
 42
50.0
 43
439.224162
 44
-439.224162
 50
0.0
 51
0.0
 71
     0
 72
   100
 73
     1
 74
     3
 75
     0
 76
     0
 77
     0
 78
     0
281
     0
 65
     1
110
0.0
120
0.0
130
0.0
111
1.0
121
0.0
131
0.0
112
0.0
122
1.0
132
0.0
 79
     0
146
0.0
  0
VPORT
  5
2A9
330
8
100
AcDbSymbolTableRecord
100
AcDbViewportTableRecord
  2
L4
 70
     0
 10
0.0
 20
0.0
 11
0.5
 21
0.5
 12
0.0
 22
0.0
 13
0.0
 23
0.0
 14
0.5
 24
0.5
 15
0.5
 25
0.5
 16
0.0
 26
-1.0
 36
0.0
 17
0.0
 27
0.0
 37
0.0
 40
1316.18997
 41
0.013491
 42
50.0
 43
678.00864
 44
-678.00864
 50
0.0
 51
0.0
 71
     0
 72
   100
 73
     1
 74
     3
 75
     0
 76
     0
 77
     0
 78
     0
281
     0
 65
     1
110
0.0
120
0.0
130
0.0
111
1.0
121
0.0
131
0.0
112
0.0
122
1.0
132
0.0
 79
     0
146
0.0
  0
VPORT
  5
2AA
330
8
100
AcDbSymbolTableRecord
100
AcDbViewportTableRecord
  2
L4
 70
     0
 10
0.5
 20
0.0
 11
1.0
 21
0.5
 12
0.0
 22
0.0
 13
0.0
 23
0.0
 14
0.5
 24
0.5
 15
0.5
 25
0.5
 16
1.0
 26
0.0
 36
0.0
 17
0.0
 27
0.0
 37
0.0
 40
1316.18997
 41
0.013491
 42
50.0
 43
666.2177989999999
 44
-666.2177989999999
 50
0.0
 51
0.0
 71
     0
 72
   100
 73
     1
 74
     3
 75
     0
 76
     0
 77
     0
 78
     0
281
     0
 65
     1
110
0.0
120
0.0
130
0.0
111
1.0
121
0.0
131
0.0
112
0.0
122
1.0
132
0.0
 79
     0
146
0.0
  0
VPORT
  5
2AB
330
8
100
AcDbSymbolTableRecord
100
AcDbViewportTableRecord
  2
L4
 70
     0
 10
0.5
 20
0.5
 11
1.0
 21
1.0
 12
0.0
 22
0.0
 13
0.0
 23
0.0
 14
0.5
 24
0.5
 15
0.5
 25
0.5
 16
0.5773502691896259
 26
-0.5773502691896259
 36
0.5773502691896259
 17
0.0
 27
0.0
 37
0.0
 40
1292.532264
 41
0.013738
 42
50.0
 43
673.245608
 44
-673.245608
 50
0.0
 51
0.0
 71
     0
 72
   100
 73
     1
 74
     3
 75
     0
 76
     0
 77
     0
 78
     0
281
     0
 65
     1
110
0.0
120
0.0
130
0.0
111
1.0
121
0.0
131
0.0
112
0.0
122
1.0
132
0.0
 79
     0
146
0.0
  0
VPORT
  5
2AC
330
8
100
AcDbSymbolTableRecord
100
AcDbViewportTableRecord
  2
L6
 70
     0
 10
0.0
 20
0.5
 11
0.333333
 21
1.0
 12
0.0
 22
0.0
 13
0.0
 23
0.0
 14
0.5
 24
0.5
 15
0.5
 25
0.5
 16
0.7188730927569434
 26
-0.5850486126764433
 36
0.3754192287502549
 17
0.0
 27
0.0
 37
0.0
 40
1364.064247
 41
0.013018
 42
50.0
 43
706.2613849999999
 44
-706.2613849999999
 50
0.0
 51
0.0
 71
     0
 72
   100
 73
     1
 74
     3
 75
     0
 76
     0
 77
     0
 78
     0
281
     0
 65
     1
110
0.0
120
0.0
130
0.0
111
1.0
121
0.0
131
0.0
112
0.0
122
1.0
132
0.0
 79
     0
146
0.0
  0
VPORT
  5
2AD
330
8
100
AcDbSymbolTableRecord
100
AcDbViewportTableRecord
  2
L6
 70
     0
 10
0.0
 20
0.0
 11
0.333333
 21
0.5
 12
0.0
 22
0.0
 13
0.0
 23
0.0
 14
0.5
 24
0.5
 15
0.5
 25
0.5
 16
-1.0
 26
0.0
 36
0.0
 17
0.0
 27
0.0
 37
0.0
 40
1316.18997
 41
0.013491
 42
50.0
 43
666.2177989999999
 44
-666.2177989999999
 50
0.0
 51
0.0
 71
     0
 72
   100
 73
     1
 74
     3
 75
     0
 76
     0
 77
     0
 78
     0
281
     0
 65
     1
110
0.0
120
0.0
130
0.0
111
1.0
121
0.0
131
0.0
112
0.0
122
1.0
132
0.0
 79
     0
146
0.0
  0
VPORT
  5
2AE
330
8
100
AcDbSymbolTableRecord
100
AcDbViewportTableRecord
  2
L6
 70
     0
 10
0.333333
 20
0.5
 11
0.666667
 21
1.0
 12
309.974129
 22
234.798884
 13
0.0
 23
0.0
 14
0.5
 24
0.5
 15
0.5
 25
0.5
 16
0.0
 26
0.0
 36
1.0
 17
0.0
 27
0.0
 37
0.0
 40
207.433333
 41
0.085602
 42
50.0
 43
439.224162
 44
-439.224162
 50
0.0
 51
0.0
 71
     0
 72
   100
 73
     1
 74
     3
 75
     0
 76
     0
 77
     0
 78
     0
281
     0
 65
     1
110
0.0
120
0.0
130
0.0
111
1.0
121
0.0
131
0.0
112
0.0
122
1.0
132
0.0
 79
     0
146
0.0
  0
VPORT
  5
2AF
330
8
100
AcDbSymbolTableRecord
100
AcDbViewportTableRecord
  2
L6
 70
     0
 10
0.333333
 20
0.0
 11
0.666667
 21
0.5
 12
0.0
 22
0.0
 13
0.0
 23
0.0
 14
0.5
 24
0.5
 15
0.5
 25
0.5
 16
0.0
 26
-1.0
 36
0.0
 17
0.0
 27
0.0
 37
0.0
 40
1316.18997
 41
0.013491
 42
50.0
 43
678.00864
 44
-678.00864
 50
0.0
 51
0.0
 71
     0
 72
   100
 73
     1
 74
     3
 75
     0
 76
     0
 77
     0
 78
     0
281
     0
 65
     1
110
0.0
120
0.0
130
0.0
111
1.0
121
0.0
131
0.0
112
0.0
122
1.0
132
0.0
 79
     0
146
0.0
  0
VPORT
  5
2B0
330
8
100
AcDbSymbolTableRecord
100
AcDbViewportTableRecord
  2
L6
 70
     0
 10
0.666667
 20
0.5
 11
1.0
 21
1.0
 12
0.0
 22
0.0
 13
0.0
 23
0.0
 14
0.5
 24
0.5
 15
0.5
 25
0.5
 16
0.5773502691896259
 26
-0.5773502691896259
 36
0.5773502691896259
 17
0.0
 27
0.0
 37
0.0
 40
1292.532264
 41
0.013738
 42
50.0
 43
673.245608
 44
-673.245608
 50
0.0
 51
0.0
 71
     0
 72
   100
 73
     1
 74
     3
 75
     0
 76
     0
 77
     0
 78
     0
281
     0
 65
     1
110
0.0
120
0.0
130
0.0
111
1.0
121
0.0
131
0.0
112
0.0
122
1.0
132
0.0
 79
     0
146
0.0
  0
VPORT
  5
2B1
330
8
100
AcDbSymbolTableRecord
100
AcDbViewportTableRecord
  2
L6
 70
     0
 10
0.666667
 20
0.0
 11
1.0
 21
0.5
 12
0.0
 22
0.0
 13
0.0
 23
0.0
 14
0.5
 24
0.5
 15
0.5
 25
0.5
 16
1.0
 26
0.0
 36
0.0
 17
0.0
 27
0.0
 37
0.0
 40
1316.18997
 41
0.013491
 42
50.0
 43
666.2177989999999
 44
-666.2177989999999
 50
0.0
 51
0.0
 71
     0
 72
   100
 73
     1
 74
     3
 75
     0
 76
     0
 77
     0
 78
     0
281
     0
 65
     1
110
0.0
120
0.0
130
0.0
111
1.0
121
0.0
131
0.0
112
0.0
122
1.0
132
0.0
 79
     0
146
0.0
  0
ENDTAB
  0
TABLE
  2
LTYPE
  5
5
330
0
100
AcDbSymbolTable
 70
     7
  0
LTYPE
  5
14
330
5
100
AcDbSymbolTableRecord
100
AcDbLinetypeTableRecord
  2
ByBlock
 70
     0
  3

 72
    65
 73
     0
 40
0.0
  0
LTYPE
  5
15
330
5
100
AcDbSymbolTableRecord
100
AcDbLinetypeTableRecord
  2
ByLayer
 70
     0
  3

 72
    65
 73
     0
 40
0.0
  0
LTYPE
  5
16
330
5
100
AcDbSymbolTableRecord
100
AcDbLinetypeTableRecord
  2
Continuous
 70
     0
  3
Solid line
 72
    65
 73
     0
 40
0.0
  0
LTYPE
  5
6E
330
5
100
AcDbSymbolTableRecord
100
AcDbLinetypeTableRecord
  2
CENTER
 70
     0
  3
____ _ ____ _ ____ _ ____
 72
    65
 73
     4
 40
47.4
 49
22.0
 74
     4
 75
     0
340
0
 46
0.0
 50
0.0
 44
0.0
 45
0.0
 49
-8.5
 74
     4
 75
     0
340
0
 46
0.0
 50
0.0
 44
0.0
 45
0.0
 49
8.5
 74
     4
 75
     0
340
0
 46
0.0
 50
0.0
 44
0.0
 45
0.0
 49
-8.5
 74
     4
 75
     0
340
0
 46
0.0
 50
0.0
 44
0.0
 45
0.0
  0
LTYPE
  5
6F
330
5
100
AcDbSymbolTableRecord
100
AcDbLinetypeTableRecord
  2
DASHDOT
 70
     0
  3
_._._._._._._._._._._._._._._._.
 72
    65
 73
     4
 40
70.0
 49
31.0
 74
     4
 75
     0
340
0
 46
0.0
 50
0.0
 44
0.0
 45
0.0
 49
-13.0
 74
     4
 75
     0
340
0
 46
0.0
 50
0.0
 44
0.0
 45
0.0
 49
13.0
 74
     4
 75
     0
340
0
 46
0.0
 50
0.0
 44
0.0
 45
0.0
 49
-13.0
 74
     4
 75
     0
340
0
 46
0.0
 50
0.0
 44
0.0
 45
0.0
  0
LTYPE
  5
70
330
5
100
AcDbSymbolTableRecord
100
AcDbLinetypeTableRecord
  2
DASHED
 70
     0
  3
__ __ __ __ __ __ __ __ __
 72
    65
 73
     2
 40
25.72
 49
12.86
 74
     4
 75
     0
340
0
 46
0.0
 50
0.0
 44
0.0
 45
0.0
 49
-12.86
 74
     4
 75
     0
340
0
 46
0.0
 50
0.0
 44
0.0
 45
0.0
  0
LTYPE
  5
71
330
5
100
AcDbSymbolTableRecord
100
AcDbLinetypeTableRecord
  2
DOT
 70
     0
  3
.........................
 72
    65
 73
     2
 40
10.0
 49
0.0
 74
     4
 75
     0
340
0
 46
0.0
 50
0.0
 44
0.0
 45
0.0
 49
-10.0
 74
     4
 75
     0
340
0
 46
0.0
 50
0.0
 44
0.0
 45
0.0
  0
LTYPE
  5
72
330
5
100
AcDbSymbolTableRecord
100
AcDbLinetypeTableRecord
  2
PHANTOM
 70
     0
  3
____ _ _ ____ _ _ _____ _ _ ____
 72
    65
 73
     6
 40
50.5
 49
18.0
 74
     4
 75
     0
340
0
 46
0.0
 50
0.0
 44
0.0
 45
0.0
 49
-6.5
 74
     4
 75
     0
340
0
 46
0.0
 50
0.0
 44
0.0
 45
0.0
 49
6.5
 74
     4
 75
     0
340
0
 46
0.0
 50
0.0
 44
0.0
 45
0.0
 49
-6.5
 74
     4
 75
     0
340
0
 46
0.0
 50
0.0
 44
0.0
 45
0.0
 49
6.5
 74
     4
 75
     0
340
0
 46
0.0
 50
0.0
 44
0.0
 45
0.0
 49
-6.5
 74
     4
 75
     0
340
0
 46
0.0
 50
0.0
 44
0.0
 45
0.0
  0
LTYPE
  5
341
330
5
100
AcDbSymbolTableRecord
100
AcDbLinetypeTableRecord
  2
CENTER2
 70
     0
  3
Center (.5x) ___ _ ___ _ ___ _ ___ _ ___ _ ___
 72
    65
 73
     4
 40
1.125
 49
0.75
 74
     0
 49
-0.125
 74
     0
 49
0.125
 74
     0
 49
-0.125
 74
     0
  0
ENDTAB
  0
TABLE
  2
LAYER
  5
2
330
0
100
AcDbSymbolTable
 70
    22
  0
LAYER
  5
10
102
{ACAD_XDICTIONARY
360
34C
102
}
330
2
100
AcDbSymbolTableRecord
100
AcDbLayerTableRecord
  2
0
 70
     0
 62
     7
  6
Continuous
370
    -3
390
F
  0
LAYER
  5
1FD
330
2
100
AcDbSymbolTableRecord
100
AcDbLayerTableRecord
  2
Defpoints
 70
     0
 62
     7
  6
Continuous
290
     0
370
    -3
390
F
  0
LAYER
  5
33E
102
{ACAD_XDICTIONARY
360
34E
102
}
330
2
100
AcDbSymbolTableRecord
100
AcDbLayerTableRecord
  2
1
 70
     0
 62
     4
  6
Continuous
370
    -3
390
F
  0
LAYER
  5
33F
102
{ACAD_XDICTIONARY
360
350
102
}
330
2
100
AcDbSymbolTableRecord
100
AcDbLayerTableRecord
  2
2
 70
     0
 62
     7
  6
Continuous
370
    -3
390
F
  0
LAYER
  5
340
102
{ACAD_XDICTIONARY
360
352
102
}
330
2
100
AcDbSymbolTableRecord
100
AcDbLayerTableRecord
  2
4
 70
     0
 62
     2
  6
CENTER2
370
    -3
390
F
  0
LAYER
  5
342
102
{ACAD_XDICTIONARY
360
354
102
}
330
2
100
AcDbSymbolTableRecord
100
AcDbLayerTableRecord
  2
SK1
 70
     0
 62
     4
  6
Continuous
370
    -3
390
F
  0
LAYER
  5
343
102
{ACAD_XDICTIONARY
360
356
102
}
330
2
100
AcDbSymbolTableRecord
100
AcDbLayerTableRecord
  2
SK2
 70
     0
 62
     7
  6
Continuous
370
    -3
390
F
  0
LAYER
  5
345
102
{ACAD_XDICTIONARY
360
358
102
}
330
2
100
AcDbSymbolTableRecord
100
AcDbLayerTableRecord
  2
SK4
 70
     0
 62
     2
  6
CENTER2
370
    -3
390
F
  0
LAYER
  5
346
102
{ACAD_XDICTIONARY
360
35A
102
}
330
2
100
AcDbSymbolTableRecord
100
AcDbLayerTableRecord
  2
SK6
 70
     0
 62
     5
  6
Continuous
370
    -3
390
F
  0
LAYER
  5
347
102
{ACAD_XDICTIONARY
360
35C
102
}
330
2
100
AcDbSymbolTableRecord
100
AcDbLayerTableRecord
  2
CUT
 70
     0
 62
     1
  6
Continuous
370
    -3
390
F
  0
LAYER
  5
348
102
{ACAD_XDICTIONARY
360
35E
102
}
330
2
100
AcDbSymbolTableRecord
100
AcDbLayerTableRecord
  2
NOCUT
 70
     0
 62
     7
  6
Continuous
370
    -3
390
F
  0
LAYER
  5
349
102
{ACAD_XDICTIONARY
360
360
102
}
330
2
100
AcDbSymbolTableRecord
100
AcDbLayerTableRecord
  2
80
 70
     0
 62
     6
  6
Continuous
370
    -3
390
F
  0
LAYER
  5
34A
102
{ACAD_XDICTIONARY
360
362
102
}
330
2
100
AcDbSymbolTableRecord
100
AcDbLayerTableRecord
  2
81
 70
     0
 62
     3
  6
Continuous
370
    -3
390
F
  0
ENDTAB
  0
TABLE
  2
STYLE
  5
3
330
0
100
AcDbSymbolTable
 70
     3
  0
STYLE
  5
11
330
3
100
AcDbSymbolTableRecord
100
AcDbTextStyleTableRecord
  2
Standard
 70
     0
 40
0.0
 41
1.0
 50
0.0
 71
     0
 42
0.2
  3
txt
  4

  0
STYLE
  5
1F1
330
3
100
AcDbSymbolTableRecord
100
AcDbTextStyleTableRecord
  2
cesky
 70
     0
 40
0.0
 41
1.0
 50
0.0
 71
     0
 42
0.2
  3
simplex.shx
  4

  0
STYLE
  5
1F2
330
3
100
AcDbSymbolTableRecord
100
AcDbTextStyleTableRecord
  2
DWGDirectTextStyle
 70
     0
 40
0.0
 41
1.0
 50
0.0
 71
     0
 42
0.2
  3
simplex
  4

  0
ENDTAB
  0
TABLE
  2
VIEW
  5
6
330
0
100
AcDbSymbolTable
 70
     0
  0
ENDTAB
  0
TABLE
  2
UCS
  5
7
330
0
100
AcDbSymbolTable
 70
     0
  0
ENDTAB
  0
TABLE
  2
APPID
  5
9
330
0
100
AcDbSymbolTable
 70
     7
  0
APPID
  5
12
330
9
100
AcDbSymbolTableRecord
100
AcDbRegAppTableRecord
  2
ACAD
 70
     0
  0
APPID
  5
1F9
330
9
100
AcDbSymbolTableRecord
100
AcDbRegAppTableRecord
  2
ACAD_DSTYLE_DIMBREAK
 70
     0
  0
APPID
  5
2B2
330
9
100
AcDbSymbolTableRecord
100
AcDbRegAppTableRecord
  2
ACAD_DSTYLE_DIM_LINETYPE
 70
     0
  0
APPID
  5
2B3
330
9
100
AcDbSymbolTableRecord
100
AcDbRegAppTableRecord
  2
ACAD_DSTYLE_DIM_EXT1_LINETYPE
 70
     0
  0
APPID
  5
2B4
330
9
100
AcDbSymbolTableRecord
100
AcDbRegAppTableRecord
  2
ACAD_DSTYLE_DIM_EXT2_LINETYPE
 70
     0
  0
APPID
  5
2F4
330
9
100
AcDbSymbolTableRecord
100
AcDbRegAppTableRecord
  2
ACAD_MLEADERVER
 70
     0
  0
APPID
  5
367
330
9
100
AcDbSymbolTableRecord
100
AcDbRegAppTableRecord
  2
ACAD_NAV_VCDISPLAY
 70
     0
  0
ENDTAB
  0
TABLE
  2
DIMSTYLE
  5
A
330
0
100
AcDbSymbolTable
 70
     1
100
AcDbDimStyleTable
 71
     0
  0
DIMSTYLE
105
27
330
A
100
AcDbSymbolTableRecord
100
AcDbDimStyleTableRecord
  2
Standard
 70
     0
340
11
1001
ACAD_DSTYLE_DIMBREAK
1070
   391
1040
6.349999999999999
  0
ENDTAB
  0
TABLE
  2
BLOCK_RECORD
  5
1
330
0
100
AcDbSymbolTable
 70
    16
  0
BLOCK_RECORD
  5
1F
102
{ACAD_XDICTIONARY
360
304
102
}
330
1
100
AcDbSymbolTableRecord
100
AcDbBlockTableRecord
  2
*Model_Space
340
22
  0
BLOCK_RECORD
  5
1B
330
1
100
AcDbSymbolTableRecord
100
AcDbBlockTableRecord
  2
*Paper_Space
340
1E
  0
BLOCK_RECORD
  5
23
330
1
100
AcDbSymbolTableRecord
100
AcDbBlockTableRecord
  2
*Paper_Space0
340
26
  0
BLOCK_RECORD
  5
1F4
330
1
100
AcDbSymbolTableRecord
100
AcDbBlockTableRecord
  2
ASSORTED_DRAFT1
340
0
  0
BLOCK_RECORD
  5
1FE
330
1
100
AcDbSymbolTableRecord
100
AcDbBlockTableRecord
  2
*D2
340
0
  0
BLOCK_RECORD
  5
20A
330
1
100
AcDbSymbolTableRecord
100
AcDbBlockTableRecord
  2
_U0
340
0
  0
BLOCK_RECORD
  5
216
330
1
100
AcDbSymbolTableRecord
100
AcDbBlockTableRecord
  2
*D4
340
0
  0
BLOCK_RECORD
  5
221
330
1
100
AcDbSymbolTableRecord
100
AcDbBlockTableRecord
  2
_U1
340
0
  0
BLOCK_RECORD
  5
22C
330
1
100
AcDbSymbolTableRecord
100
AcDbBlockTableRecord
  2
*D6
340
0
  0
BLOCK_RECORD
  5
238
330
1
100
AcDbSymbolTableRecord
100
AcDbBlockTableRecord
  2
_U2
340
0
  0
BLOCK_RECORD
  5
245
330
1
100
AcDbSymbolTableRecord
100
AcDbBlockTableRecord
  2
*D8
340
0
  0
BLOCK_RECORD
  5
251
330
1
100
AcDbSymbolTableRecord
100
AcDbBlockTableRecord
  2
_U3
340
0
  0
BLOCK_RECORD
  5
25E
330
1
100
AcDbSymbolTableRecord
100
AcDbBlockTableRecord
  2
*D10
340
0
  0
BLOCK_RECORD
  5
26A
330
1
100
AcDbSymbolTableRecord
100
AcDbBlockTableRecord
  2
_U4
340
0
  0
BLOCK_RECORD
  5
276
330
1
100
AcDbSymbolTableRecord
100
AcDbBlockTableRecord
  2
*D12
340
0
  0
BLOCK_RECORD
  5
282
330
1
100
AcDbSymbolTableRecord
100
AcDbBlockTableRecord
  2
_U5
340
0
  0
BLOCK_RECORD
  5
28E
330
1
100
AcDbSymbolTableRecord
100
AcDbBlockTableRecord
  2
*D14
340
0
  0
BLOCK_RECORD
  5
29A
330
1
100
AcDbSymbolTableRecord
100
AcDbBlockTableRecord
  2
_U6
340
0
  0
ENDTAB
  0
ENDSEC
  0
SECTION
  2
BLOCKS
  0
BLOCK
  5
20
330
1F
100
AcDbEntity
  8
0
100
AcDbBlockBegin
  2
*Model_Space
 70
     0
 10
0.0
 20
0.0
 30
0.0
  3
*Model_Space
  1

  0
ENDBLK
  5
21
330
1F
100
AcDbEntity
  8
0
100
AcDbBlockEnd
  0
BLOCK
  5
1C
330
1B
100
AcDbEntity
 67
     1
  8
0
100
AcDbBlockBegin
  2
*Paper_Space
 70
     0
 10
0.0
 20
0.0
 30
0.0
  3
*Paper_Space
  1

  0
ENDBLK
  5
1D
330
1B
100
AcDbEntity
 67
     1
  8
0
100
AcDbBlockEnd
  0
BLOCK
  5
24
330
23
100
AcDbEntity
 67
     1
  8
0
100
AcDbBlockBegin
  2
*Paper_Space0
 70
     0
 10
0.0
 20
0.0
 30
0.0
  3
*Paper_Space0
  1

  0
ENDBLK
  5
25
330
23
100
AcDbEntity
 67
     1
  8
0
100
AcDbBlockEnd
  0
BLOCK
  5
1F7
330
1F4
100
AcDbEntity
  8
0
100
AcDbBlockBegin
  2
ASSORTED_DRAFT1
 70
     0
 10
0.0
 20
0.0
 30
0.0
  3
ASSORTED_DRAFT1
  1

  0
SOLID
  5
1F5
330
1F4
100
AcDbEntity
  8
0
 62
   254
370
    13
100
AcDbTrace
 10
270.185042
 20
161.034924
 30
0.0
 11
265.185046
 21
159.92645
 31
0.0
 12
265.1850379999999
 22
162.143397
 32
0.0
 13
270.185042
 23
161.034924
 33
0.0
  0
ENDBLK
  5
1F8
330
1F4
100
AcDbEntity
  8
0
100
AcDbBlockEnd
  0
BLOCK
  5
1FF
330
1FE
100
AcDbEntity
  8
0
100
AcDbBlockBegin
  2
*D2
 70
     1
 10
0.0
 20
0.0
 30
0.0
  3
*D2
  1

  0
LINE
  5
201
330
1FE
100
AcDbEntity
  8
0
 62
   254
370
    -2
100
AcDbLine
 10
419.4048419999999
 20
300.907994
 30
0.0
 11
419.4048419999999
 21
330.17035
 31
0.0
  0
LINE
  5
202
330
1FE
100
AcDbEntity
  8
0
 62
   254
370
    -2
100
AcDbLine
 10
274.404842
 20
288.907994
 30
0.0
 11
274.404842
 21
330.17035
 31
0.0
  0
LINE
  5
203
330
1FE
100
AcDbEntity
  8
0
 62
   254
370
    -2
100
AcDbLine
 10
415.9048419999999
 20
329.17035
 30
0.0
 11
277.904842
 21
329.17035
 31
0.0
  0
SOLID
  5
204
330
1FE
100
AcDbEntity
  8
0
 62
   254
100
AcDbTrace
 10
415.9048419999999
 20
328.587017
 30
0.0
 11
415.9048419999999
 21
329.753684
 31
0.0
 12
419.4048419999999
 22
329.17035
 32
0.0
 13
419.4048419999999
 23
329.17035
 33
0.0
  0
SOLID
  5
205
330
1FE
100
AcDbEntity
  8
0
 62
   254
100
AcDbTrace
 10
277.904842
 20
329.753684
 30
0.0
 11
277.904842
 21
328.587017
 31
0.0
 12
274.404842
 22
329.17035
 32
0.0
 13
274.404842
 23
329.17035
 33
0.0
  0
MTEXT
  5
206
330
1FE
100
AcDbEntity
  8
0
 62
   254
370
    13
100
AcDbMText
 10
346.904842
 20
334.42035
 30
0.0
 40
3.5
 41
0.0
 71
     5
 72
     1
  1
\A1;145
  7
cesky
 73
     1
 44
1.0
  0
POINT
  5
207
330
1FE
100
AcDbEntity
  8
Defpoints
 62
     0
100
AcDbPoint
 10
419.4048419999999
 20
300.907994
 30
0.0
  0
POINT
  5
208
330
1FE
100
AcDbEntity
  8
Defpoints
 62
     0
100
AcDbPoint
 10
274.404842
 20
288.907994
 30
0.0
  0
POINT
  5
209
330
1FE
100
AcDbEntity
  8
Defpoints
 62
     0
100
AcDbPoint
 10
274.404842
 20
329.17035
 30
0.0
  0
ENDBLK
  5
200
330
1FE
100
AcDbEntity
  8
0
100
AcDbBlockEnd
  0
BLOCK
  5
211
330
20A
100
AcDbEntity
  8
0
100
AcDbBlockBegin
  2
_U0
 70
     0
 10
0.0
 20
0.0
 30
0.0
  3
_U0
  1

  0
ENDBLK
  5
212
330
20A
100
AcDbEntity
  8
0
100
AcDbBlockEnd
  0
BLOCK
  5
217
330
216
100
AcDbEntity
  8
0
100
AcDbBlockBegin
  2
*D4
 70
     1
 10
0.0
 20
0.0
 30
0.0
  3
*D4
  1

  0
LINE
  5
219
330
216
100
AcDbEntity
  8
0
 62
   254
370
    -2
100
AcDbLine
 10
292.032259
 20
288.907994
 30
0.0
 11
435.6672709999999
 21
288.907994
 31
0.0
  0
LINE
  5
21A
330
216
100
AcDbEntity
  8
0
 62
   254
370
    -2
100
AcDbLine
 10
330.83929
 20
300.907994
 30
0.0
 11
435.6672709999999
 21
300.907994
 31
0.0
  0
LINE
  5
21B
330
216
100
AcDbEntity
  8
0
 62
   254
370
    -2
100
AcDbLine
 10
434.6672709999999
 20
304.407994
 30
0.0
 11
434.6672709999999
 21
307.907994
 31
0.0
  0
SOLID
  5
21C
330
216
100
AcDbEntity
  8
0
 62
   254
100
AcDbTrace
 10
434.083938
 20
304.407994
 30
0.0
 11
435.250605
 21
304.407994
 31
0.0
 12
434.6672709999999
 22
300.907994
 32
0.0
 13
434.6672709999999
 23
300.907994
 33
0.0
  0
MTEXT
  5
21D
330
216
100
AcDbEntity
  8
0
 62
   254
370
    13
100
AcDbMText
 10
429.4172709999999
 20
275.491327
 30
0.0
 40
3.5
 41
0.0
 71
     5
 72
     1
  1
\A1;24
  7
cesky
 11
0.0
 21
1.0
 31
0.0
 73
     1
 44
1.0
  0
POINT
  5
21E
330
216
100
AcDbEntity
  8
Defpoints
 62
     0
100
AcDbPoint
 10
292.032259
 20
288.907994
 30
0.0
  0
POINT
  5
21F
330
216
100
AcDbEntity
  8
Defpoints
 62
     0
100
AcDbPoint
 10
330.83929
 20
300.907994
 30
0.0
  0
POINT
  5
220
330
216
100
AcDbEntity
  8
Defpoints
 62
     0
100
AcDbPoint
 10
434.6672709999999
 20
300.907994
 30
0.0
  0
ENDBLK
  5
218
330
216
100
AcDbEntity
  8
0
100
AcDbBlockEnd
  0
BLOCK
  5
227
330
221
100
AcDbEntity
  8
0
100
AcDbBlockBegin
  2
_U1
 70
     0
 10
0.0
 20
0.0
 30
0.0
  3
_U1
  1

  0
ENDBLK
  5
228
330
221
100
AcDbEntity
  8
0
100
AcDbBlockEnd
  0
BLOCK
  5
22D
330
22C
100
AcDbEntity
  8
0
100
AcDbBlockBegin
  2
*D6
 70
     1
 10
0.0
 20
0.0
 30
0.0
  3
*D6
  1

  0
LINE
  5
22F
330
22C
100
AcDbEntity
  8
0
 62
    95
370
    -2
100
AcDbLine
 10
220.404842
 20
301.407994
 30
0.0
 11
204.955296
 21
301.407994
 31
0.0
  0
LINE
  5
230
330
22C
100
AcDbEntity
  8
0
 62
    95
370
    -2
100
AcDbLine
 10
220.404842
 20
276.407994
 30
0.0
 11
204.955296
 21
276.407994
 31
0.0
  0
LINE
  5
231
330
22C
100
AcDbEntity
  8
0
 62
    95
370
    -2
100
AcDbLine
 10
205.955296
 20
297.907994
 30
0.0
 11
205.955296
 21
279.907994
 31
0.0
  0
SOLID
  5
232
330
22C
100
AcDbEntity
  8
0
 62
    95
100
AcDbTrace
 10
206.53863
 20
297.907994
 30
0.0
 11
205.371963
 21
297.907994
 31
0.0
 12
205.955296
 22
301.407994
 32
0.0
 13
205.955296
 23
301.407994
 33
0.0
  0
SOLID
  5
233
330
22C
100
AcDbEntity
  8
0
 62
    95
100
AcDbTrace
 10
205.371963
 20
279.907994
 30
0.0
 11
206.53863
 21
279.907994
 31
0.0
 12
205.955296
 22
276.407994
 32
0.0
 13
205.955296
 23
276.407994
 33
0.0
  0
MTEXT
  5
234
330
22C
100
AcDbEntity
  8
0
 62
    95
370
    13
100
AcDbMText
 10
200.705296
 20
288.907994
 30
0.0
 40
3.5
 41
0.0
 71
     5
 72
     1
  1
\A1;25
  7
cesky
 11
0.0
 21
1.0
 31
0.0
 73
     1
 44
1.0
  0
POINT
  5
235
330
22C
100
AcDbEntity
  8
Defpoints
 62
     0
100
AcDbPoint
 10
220.404842
 20
301.407994
 30
0.0
  0
POINT
  5
236
330
22C
100
AcDbEntity
  8
Defpoints
 62
     0
100
AcDbPoint
 10
220.404842
 20
276.407994
 30
0.0
  0
POINT
  5
237
330
22C
100
AcDbEntity
  8
Defpoints
 62
     0
100
AcDbPoint
 10
205.955296
 20
276.407994
 30
0.0
  0
ENDBLK
  5
22E
330
22C
100
AcDbEntity
  8
0
100
AcDbBlockEnd
  0
BLOCK
  5
240
330
238
100
AcDbEntity
  8
0
100
AcDbBlockBegin
  2
_U2
 70
     0
 10
0.0
 20
0.0
 30
0.0
  3
_U2
  1

  0
ENDBLK
  5
241
330
238
100
AcDbEntity
  8
0
100
AcDbBlockEnd
  0
BLOCK
  5
246
330
245
100
AcDbEntity
  8
0
100
AcDbBlockBegin
  2
*D8
 70
     1
 10
0.0
 20
0.0
 30
0.0
  3
*D8
  1

  0
LINE
  5
248
330
245
100
AcDbEntity
  8
0
 62
    95
370
    -2
100
AcDbLine
 10
277.154842
 20
306.407994
 30
0.0
 11
189.143489
 21
306.407994
 31
0.0
  0
LINE
  5
249
330
245
100
AcDbEntity
  8
0
 62
    95
370
    -2
100
AcDbLine
 10
277.154842
 20
271.407994
 30
0.0
 11
189.143489
 21
271.407994
 31
0.0
  0
LINE
  5
24A
330
245
100
AcDbEntity
  8
0
 62
    95
370
    -2
100
AcDbLine
 10
190.143489
 20
302.907994
 30
0.0
 11
190.143489
 21
274.907994
 31
0.0
  0
SOLID
  5
24B
330
245
100
AcDbEntity
  8
0
 62
    95
100
AcDbTrace
 10
190.726823
 20
302.907994
 30
0.0
 11
189.560156
 21
302.907994
 31
0.0
 12
190.143489
 22
306.407994
 32
0.0
 13
190.143489
 23
306.407994
 33
0.0
  0
SOLID
  5
24C
330
245
100
AcDbEntity
  8
0
 62
    95
100
AcDbTrace
 10
189.560156
 20
274.907994
 30
0.0
 11
190.726823
 21
274.907994
 31
0.0
 12
190.143489
 22
271.407994
 32
0.0
 13
190.143489
 23
271.407994
 33
0.0
  0
MTEXT
  5
24D
330
245
100
AcDbEntity
  8
0
 62
    95
370
    13
100
AcDbMText
 10
184.893489
 20
288.907994
 30
0.0
 40
3.5
 41
0.0
 71
     5
 72
     1
  1
\A1;35
  7
cesky
 11
0.0
 21
1.0
 31
0.0
 73
     1
 44
1.0
  0
POINT
  5
24E
330
245
100
AcDbEntity
  8
Defpoints
 62
     0
100
AcDbPoint
 10
277.154842
 20
306.407994
 30
0.0
  0
POINT
  5
24F
330
245
100
AcDbEntity
  8
Defpoints
 62
     0
100
AcDbPoint
 10
277.154842
 20
271.407994
 30
0.0
  0
POINT
  5
250
330
245
100
AcDbEntity
  8
Defpoints
 62
     0
100
AcDbPoint
 10
190.143489
 20
271.407994
 30
0.0
  0
ENDBLK
  5
247
330
245
100
AcDbEntity
  8
0
100
AcDbBlockEnd
  0
BLOCK
  5
259
330
251
100
AcDbEntity
  8
0
100
AcDbBlockBegin
  2
_U3
 70
     0
 10
0.0
 20
0.0
 30
0.0
  3
_U3
  1

  0
ENDBLK
  5
25A
330
251
100
AcDbEntity
  8
0
100
AcDbBlockEnd
  0
BLOCK
  5
25F
330
25E
100
AcDbEntity
  8
0
100
AcDbBlockBegin
  2
*D10
 70
     1
 10
0.0
 20
0.0
 30
0.0
  3
*D10
  1

  0
LINE
  5
261
330
25E
100
AcDbEntity
  8
0
 62
   254
370
    -2
100
AcDbLine
 10
419.4048419999999
 20
302.907994
 30
0.0
 11
419.4048419999999
 21
344.155687
 31
0.0
  0
LINE
  5
262
330
25E
100
AcDbEntity
  8
0
 62
   254
370
    -2
100
AcDbLine
 10
218.404842
 20
299.407994
 30
0.0
 11
218.404842
 21
344.155687
 31
0.0
  0
LINE
  5
263
330
25E
100
AcDbEntity
  8
0
 62
   254
370
    -2
100
AcDbLine
 10
415.9048419999999
 20
343.155687
 30
0.0
 11
221.904842
 21
343.155687
 31
0.0
  0
SOLID
  5
264
330
25E
100
AcDbEntity
  8
0
 62
   254
100
AcDbTrace
 10
415.9048419999999
 20
342.572354
 30
0.0
 11
415.9048419999999
 21
343.739021
 31
0.0
 12
419.4048419999999
 22
343.155687
 32
0.0
 13
419.4048419999999
 23
343.155687
 33
0.0
  0
SOLID
  5
265
330
25E
100
AcDbEntity
  8
0
 62
   254
100
AcDbTrace
 10
221.904842
 20
343.739021
 30
0.0
 11
221.904842
 21
342.572354
 31
0.0
 12
218.404842
 22
343.155687
 32
0.0
 13
218.404842
 23
343.155687
 33
0.0
  0
MTEXT
  5
266
330
25E
100
AcDbEntity
  8
0
 62
   254
370
    13
100
AcDbMText
 10
318.904842
 20
348.405687
 30
0.0
 40
3.5
 41
0.0
 71
     5
 72
     1
  1
\A1;201
  7
cesky
 73
     1
 44
1.0
  0
POINT
  5
267
330
25E
100
AcDbEntity
  8
Defpoints
 62
     0
100
AcDbPoint
 10
419.4048419999999
 20
302.907994
 30
0.0
  0
POINT
  5
268
330
25E
100
AcDbEntity
  8
Defpoints
 62
     0
100
AcDbPoint
 10
218.404842
 20
299.407994
 30
0.0
  0
POINT
  5
269
330
25E
100
AcDbEntity
  8
Defpoints
 62
     0
100
AcDbPoint
 10
218.404842
 20
343.155687
 30
0.0
  0
ENDBLK
  5
260
330
25E
100
AcDbEntity
  8
0
100
AcDbBlockEnd
  0
BLOCK
  5
271
330
26A
100
AcDbEntity
  8
0
100
AcDbBlockBegin
  2
_U4
 70
     0
 10
0.0
 20
0.0
 30
0.0
  3
_U4
  1

  0
ENDBLK
  5
272
330
26A
100
AcDbEntity
  8
0
100
AcDbBlockEnd
  0
BLOCK
  5
277
330
276
100
AcDbEntity
  8
0
100
AcDbBlockBegin
  2
*D12
 70
     1
 10
0.0
 20
0.0
 30
0.0
  3
*D12
  1

  0
LINE
  5
279
330
276
100
AcDbEntity
  8
0
 62
   254
370
    -2
100
AcDbLine
 10
274.404842
 20
288.907994
 30
0.0
 11
274.404842
 21
330.17035
 31
0.0
  0
LINE
  5
27A
330
276
100
AcDbEntity
  8
0
 62
   254
370
    -2
100
AcDbLine
 10
218.404842
 20
294.157994
 30
0.0
 11
218.404842
 21
330.17035
 31
0.0
  0
LINE
  5
27B
330
276
100
AcDbEntity
  8
0
 62
   254
370
    -2
100
AcDbLine
 10
270.904842
 20
329.17035
 30
0.0
 11
221.904842
 21
329.17035
 31
0.0
  0
SOLID
  5
27C
330
276
100
AcDbEntity
  8
0
 62
   254
100
AcDbTrace
 10
270.904842
 20
328.587017
 30
0.0
 11
270.904842
 21
329.753684
 31
0.0
 12
274.404842
 22
329.17035
 32
0.0
 13
274.404842
 23
329.17035
 33
0.0
  0
SOLID
  5
27D
330
276
100
AcDbEntity
  8
0
 62
   254
100
AcDbTrace
 10
221.904842
 20
329.753684
 30
0.0
 11
221.904842
 21
328.587017
 31
0.0
 12
218.404842
 22
329.17035
 32
0.0
 13
218.404842
 23
329.17035
 33
0.0
  0
MTEXT
  5
27E
330
276
100
AcDbEntity
  8
0
 62
   254
370
    13
100
AcDbMText
 10
246.404842
 20
334.42035
 30
0.0
 40
3.5
 41
0.0
 71
     5
 72
     1
  1
\A1;56
  7
cesky
 73
     1
 44
1.0
  0
POINT
  5
27F
330
276
100
AcDbEntity
  8
Defpoints
 62
     0
100
AcDbPoint
 10
274.404842
 20
288.907994
 30
0.0
  0
POINT
  5
280
330
276
100
AcDbEntity
  8
Defpoints
 62
     0
100
AcDbPoint
 10
218.404842
 20
294.157994
 30
0.0
  0
POINT
  5
281
330
276
100
AcDbEntity
  8
Defpoints
 62
     0
100
AcDbPoint
 10
218.404842
 20
329.17035
 30
0.0
  0
ENDBLK
  5
278
330
276
100
AcDbEntity
  8
0
100
AcDbBlockEnd
  0
BLOCK
  5
289
330
282
100
AcDbEntity
  8
0
100
AcDbBlockBegin
  2
_U5
 70
     0
 10
0.0
 20
0.0
 30
0.0
  3
_U5
  1

  0
ENDBLK
  5
28A
330
282
100
AcDbEntity
  8
0
100
AcDbBlockEnd
  0
BLOCK
  5
28F
330
28E
100
AcDbEntity
  8
0
100
AcDbBlockBegin
  2
*D14
 70
     1
 10
0.0
 20
0.0
 30
0.0
  3
*D14
  1

  0
LINE
  5
291
330
28E
100
AcDbEntity
  8
0
 62
   254
370
    -2
100
AcDbLine
 10
419.4048419999999
 20
300.907994
 30
0.0
 11
419.4048419999999
 21
315.595905
 31
0.0
  0
LINE
  5
292
330
28E
100
AcDbEntity
  8
0
 62
   254
370
    -2
100
AcDbLine
 10
292.407044
 20
300.86522
 30
0.0
 11
292.407044
 21
315.595905
 31
0.0
  0
LINE
  5
293
330
28E
100
AcDbEntity
  8
0
 62
   254
370
    -2
100
AcDbLine
 10
415.9048419999999
 20
314.595905
 30
0.0
 11
295.907044
 21
314.595905
 31
0.0
  0
SOLID
  5
294
330
28E
100
AcDbEntity
  8
0
 62
   254
100
AcDbTrace
 10
415.9048419999999
 20
314.012571
 30
0.0
 11
415.9048419999999
 21
315.179238
 31
0.0
 12
419.4048419999999
 22
314.595905
 32
0.0
 13
419.4048419999999
 23
314.595905
 33
0.0
  0
SOLID
  5
295
330
28E
100
AcDbEntity
  8
0
 62
   254
100
AcDbTrace
 10
295.907044
 20
315.179238
 30
0.0
 11
295.907044
 21
314.012571
 31
0.0
 12
292.407044
 22
314.595905
 32
0.0
 13
292.407044
 23
314.595905
 33
0.0
  0
MTEXT
  5
296
330
28E
100
AcDbEntity
  8
0
 62
   254
370
    13
100
AcDbMText
 10
355.905943
 20
319.845905
 30
0.0
 40
3.5
 41
0.0
 71
     5
 72
     1
  1
\A1;127
  7
cesky
 73
     1
 44
1.0
  0
POINT
  5
297
330
28E
100
AcDbEntity
  8
Defpoints
 62
     0
100
AcDbPoint
 10
419.4048419999999
 20
300.907994
 30
0.0
  0
POINT
  5
298
330
28E
100
AcDbEntity
  8
Defpoints
 62
     0
100
AcDbPoint
 10
292.407044
 20
300.86522
 30
0.0
  0
POINT
  5
299
330
28E
100
AcDbEntity
  8
Defpoints
 62
     0
100
AcDbPoint
 10
292.407044
 20
314.595905
 30
0.0
  0
ENDBLK
  5
290
330
28E
100
AcDbEntity
  8
0
100
AcDbBlockEnd
  0
BLOCK
  5
2A1
330
29A
100
AcDbEntity
  8
0
100
AcDbBlockBegin
  2
_U6
 70
     0
 10
0.0
 20
0.0
 30
0.0
  3
_U6
  1

  0
ENDBLK
  5
2A2
330
29A
100
AcDbEntity
  8
0
100
AcDbBlockEnd
  0
ENDSEC
  0
SECTION
  2
ENTITIES
  0
POINT
  5
73
102
{ACAD_REACTORS
330
34B
102
}
330
1F
100
AcDbEntity
  8
80
100
AcDbPoint
 10
274.404842
 20
288.907994
 30
0.0
  0
POINT
  5
76
330
1F
100
AcDbEntity
  8
SK4
 60
     1
100
AcDbPoint
 10
220.404842
 20
288.907994
 30
0.0
  0
POINT
  5
78
330
1F
100
AcDbEntity
  8
SK4
 60
     1
100
AcDbPoint
 10
274.404842
 20
288.907994
 30
0.0
  0
POINT
  5
79
330
1F
100
AcDbEntity
  8
4
 60
     1
100
AcDbPoint
 10
292.032259
 20
288.907994
 30
0.0
  0
POINT
  5
7A
330
1F
100
AcDbEntity
  8
4
 60
     1
100
AcDbPoint
 10
418.985752
 20
288.907994
 30
0.0
  0
POINT
  5
7B
330
1F
100
AcDbEntity
  8
SK6
 60
     1
100
AcDbPoint
 10
274.404842
 20
288.907994
 30
0.0
  0
POINT
  5
7C
330
1F
100
AcDbEntity
  8
SK6
 60
     1
100
AcDbPoint
 10
292.407044
 20
300.86522
 30
0.0
  0
LINE
  5
7D
330
1F
100
AcDbEntity
  8
1
100
AcDbLine
 10
413.94323
 20
295.978132
 30
0.0
 11
413.9680509999999
 21
296.0785
 31
0.0
  0
LINE
  5
7F
330
1F
100
AcDbEntity
  8
1
100
AcDbLine
 10
415.5072679999999
 20
295.74332
 30
0.0
 11
415.482427
 21
295.64287
 31
0.0
  0
LINE
  5
80
330
1F
100
AcDbEntity
  8
1
100
AcDbLine
 10
414.2644109999999
 20
297.431585
 30
0.0
 11
414.289253
 21
297.532034
 31
0.0
  0
LINE
  5
81
330
1F
100
AcDbEntity
  8
1
100
AcDbLine
 10
415.82843
 20
297.19669
 30
0.0
 11
415.803608
 21
297.096323
 31
0.0
  0
LINE
  5
82
330
1F
100
AcDbEntity
  8
1
100
AcDbLine
 10
418.2916989999999
 20
287.716272
 30
0.0
 11
418.2738679999999
 21
287.748441
 31
0.0
  0
LINE
  5
84
330
1F
100
AcDbEntity
  8
1
100
AcDbLine
 10
411.148937
 20
300.295972
 30
0.0
 11
411.14689
 21
300.34299
 31
0.0
  0
LINE
  5
86
330
1F
100
AcDbEntity
  8
1
100
AcDbLine
 10
411.087921
 20
300.407994
 30
0.0
 11
395.727349
 21
300.407994
 31
0.0
  0
LINE
  5
87
330
1F
100
AcDbEntity
  8
1
100
AcDbLine
 10
412.378462
 20
299.043763
 30
0.0
 11
417.3726709999999
 21
299.261318
 31
0.0
  0
LINE
  5
88
330
1F
100
AcDbEntity
  8
1
100
AcDbLine
 10
412.6026809999999
 20
294.060953
 30
0.0
 11
412.378462
 21
299.043763
 31
0.0
  0
LINE
  5
89
330
1F
100
AcDbEntity
  8
1
100
AcDbLine
 10
417.5968899999999
 20
294.278507
 30
0.0
 11
412.6026809999999
 21
294.060953
 31
0.0
  0
LINE
  5
8A
330
1F
100
AcDbEntity
  8
1
100
AcDbLine
 10
417.3726709999999
 20
299.261318
 30
0.0
 11
417.5968899999999
 21
294.278507
 31
0.0
  0
LINE
  5
8B
330
1F
100
AcDbEntity
  8
1
100
AcDbLine
 10
274.404842
 20
305.907994
 30
0.0
 11
274.404842
 21
288.907994
 31
0.0
  0
LINE
  5
8C
330
1F
100
AcDbEntity
  8
1
100
AcDbLine
 10
274.404842
 20
288.907994
 30
0.0
 11
274.404842
 21
271.907994
 31
0.0
  0
LINE
  5
8D
330
1F
100
AcDbEntity
  8
1
100
AcDbLine
 10
415.481593
 20
295.636329
 30
0.0
 11
415.480216
 21
295.630758
 31
0.0
  0
LINE
  5
8E
330
1F
100
AcDbEntity
  8
1
100
AcDbLine
 10
414.36939
 20
295.620242
 30
0.0
 11
414.344958
 21
295.521448
 31
0.0
  0
LINE
  5
8F
330
1F
100
AcDbEntity
  8
1
100
AcDbLine
 10
414.266622
 20
297.4436970000001
 30
0.0
 11
414.2914039999999
 21
297.543902
 31
0.0
  0
LINE
  5
90
330
1F
100
AcDbEntity
  8
1
100
AcDbLine
 10
413.68906
 20
296.59756
 30
0.0
 11
413.6650139999999
 21
296.500331
 31
0.0
  0
LINE
  5
91
330
1F
100
AcDbEntity
  8
1
100
AcDbLine
 10
413.776391
 20
296.582505
 30
0.0
 11
413.7518049999999
 21
296.483086
 31
0.0
  0
LINE
  5
92
330
1F
100
AcDbEntity
  8
1
100
AcDbLine
 10
415.955908
 20
295.994491
 30
0.0
 11
415.9799409999999
 21
296.09167
 31
0.0
  0
LINE
  5
93
330
1F
100
AcDbEntity
  8
1
100
AcDbLine
 10
415.867108
 20
296.015315
 30
0.0
 11
415.891703
 21
296.114768
 31
0.0
  0
LINE
  5
94
330
1F
100
AcDbEntity
  8
1
100
AcDbLine
 10
414.9240899999999
 20
295.3971259999999
 30
0.0
 11
414.9485509999999
 21
295.496034
 31
0.0
  0
LINE
  5
95
330
1F
100
AcDbEntity
  8
1
100
AcDbLine
 10
408.512935
 20
290.488914
 30
0.0
 11
408.5305579999999
 21
289.973826
 31
0.0
  0
LINE
  5
96
330
1F
100
AcDbEntity
  8
1
100
AcDbLine
 10
405.0333229999999
 20
294.196525
 30
0.0
 11
405.03045
 21
294.195653
 31
0.0
  0
LINE
  5
97
330
1F
100
AcDbEntity
  8
1
100
AcDbLine
 10
417.002934
 20
292.030166
 30
0.0
 11
412.106063
 21
291.816852
 31
0.0
  0
LINE
  5
98
330
1F
100
AcDbEntity
  8
1
100
AcDbLine
 10
285.404842
 20
300.34503
 30
0.0
 11
285.404842
 21
285.169203
 31
0.0
  0
LINE
  5
99
330
1F
100
AcDbEntity
  8
1
100
AcDbLine
 10
413.969824
 20
296.087292
 30
0.0
 11
413.968046
 21
296.078486
 31
0.0
  0
LINE
  5
9A
330
1F
100
AcDbEntity
  8
1
100
AcDbLine
 10
411.1302779999999
 20
300.273862
 30
0.0
 11
411.1245629999999
 21
300.405109
 31
0.0
  0
LINE
  5
9B
330
1F
100
AcDbEntity
  8
1
100
AcDbLine
 10
418.810691
 20
300.03347
 30
0.0
 11
419.0977
 21
293.655297
 31
0.0
  0
LINE
  5
9C
330
1F
100
AcDbEntity
  8
1
100
AcDbLine
 10
411.615946
 20
300.487329
 30
0.0
 11
418.0087099999999
 21
300.765806
 31
0.0
  0
LINE
  5
9D
330
1F
100
AcDbEntity
  8
1
100
AcDbLine
 10
411.169892
 20
293.3099509999999
 30
0.0
 11
410.882883
 21
299.688125
 31
0.0
  0
LINE
  5
9E
330
1F
100
AcDbEntity
  8
1
100
AcDbLine
 10
418.364636
 20
292.856092
 30
0.0
 11
411.9718719999999
 21
292.577615
 31
0.0
  0
LINE
  5
9F
330
1F
100
AcDbEntity
  8
1
100
AcDbLine
 10
419.323222
 20
283.317809
 30
0.0
 11
418.715638
 21
282.30662
 31
0.0
  0
LINE
  5
A0
330
1F
100
AcDbEntity
  8
1
100
AcDbLine
 10
418.8011219999999
 20
283.467519
 30
0.0
 11
419.323222
 21
283.317809
 31
0.0
  0
LINE
  5
A1
330
1F
100
AcDbEntity
  8
1
100
AcDbLine
 10
418.8778359999999
 20
287.862412
 30
0.0
 11
419.4048419999999
 21
287.99381
 31
0.0
  0
LINE
  5
A2
330
1F
100
AcDbEntity
  8
1
100
AcDbLine
 10
418.819673
 20
289.049483
 30
0.0
 11
419.4048419999999
 21
287.99381
 31
0.0
  0
LINE
  5
A3
330
1F
100
AcDbEntity
  8
1
100
AcDbLine
 10
418.4289709999999
 20
288.672186
 30
0.0
 11
418.819673
 21
289.049483
 31
0.0
  0
LINE
  5
A4
330
1F
100
AcDbEntity
  8
1
100
AcDbLine
 10
418.441614
 20
289.276644
 30
0.0
 11
418.819673
 21
289.049483
 31
0.0
  0
LINE
  5
A5
330
1F
100
AcDbEntity
  8
1
100
AcDbLine
 10
418.338341
 20
282.6973220000001
 30
0.0
 11
418.715638
 21
282.30662
 31
0.0
  0
LINE
  5
A6
330
1F
100
AcDbEntity
  8
1
100
AcDbLine
 10
418.715638
 20
282.30662
 30
0.0
 11
418.050531
 21
281.937945
 31
0.0
  0
LINE
  5
A7
330
1F
100
AcDbEntity
  8
1
100
AcDbLine
 10
418.8778359999999
 20
287.862412
 30
0.0
 11
418.8011219999999
 21
283.467519
 31
0.0
  0
LINE
  5
A8
330
1F
100
AcDbEntity
  8
1
100
AcDbLine
 10
418.8011219999999
 20
283.467519
 30
0.0
 11
418.2204429999999
 21
283.634026
 31
0.0
  0
LINE
  5
A9
330
1F
100
AcDbEntity
  8
1
100
AcDbLine
 10
418.8011219999999
 20
283.467519
 30
0.0
 11
418.338341
 21
282.6973220000001
 31
0.0
  0
LINE
  5
AA
330
1F
100
AcDbEntity
  8
1
100
AcDbLine
 10
418.117044
 20
283.46194
 30
0.0
 11
418.2204429999999
 21
283.634026
 31
0.0
  0
LINE
  5
AB
330
1F
100
AcDbEntity
  8
1
100
AcDbLine
 10
418.2204429999999
 20
283.634026
 30
0.0
 11
418.2372009999999
 21
284.594056
 31
0.0
  0
LINE
  5
AC
330
1F
100
AcDbEntity
  8
1
100
AcDbLine
 10
418.2738679999999
 20
286.69469
 30
0.0
 11
418.2916989999999
 21
287.716272
 31
0.0
  0
LINE
  5
AD
330
1F
100
AcDbEntity
  8
1
100
AcDbLine
 10
418.27386
 20
288.765386
 30
0.0
 11
418.4289709999999
 21
288.672186
 31
0.0
  0
LINE
  5
AE
330
1F
100
AcDbEntity
  8
1
100
AcDbLine
 10
418.338341
 20
282.6973220000001
 30
0.0
 11
418.065845
 21
282.9795
 31
0.0
  0
LINE
  5
AF
330
1F
100
AcDbEntity
  8
1
100
AcDbLine
 10
418.338341
 20
282.6973220000001
 30
0.0
 11
418.016975
 21
282.519186
 31
0.0
  0
LINE
  5
B0
330
1F
100
AcDbEntity
  8
1
100
AcDbLine
 10
418.4289709999999
 20
288.672186
 30
0.0
 11
418.2738669999999
 21
288.522405
 31
0.0
  0
LINE
  5
B1
330
1F
100
AcDbEntity
  8
1
100
AcDbLine
 10
418.8778359999999
 20
287.862412
 30
0.0
 11
418.2916989999999
 21
287.716272
 31
0.0
  0
LINE
  5
B2
330
1F
100
AcDbEntity
  8
1
100
AcDbLine
 10
418.4289709999999
 20
288.672186
 30
0.0
 11
418.8778359999999
 21
287.862412
 31
0.0
  0
LINE
  5
B3
330
1F
100
AcDbEntity
  8
1
100
AcDbLine
 10
419.4048419999999
 20
287.99381
 30
0.0
 11
419.323222
 21
283.317809
 31
0.0
  0
LINE
  5
B4
330
1F
100
AcDbEntity
  8
1
100
AcDbLine
 10
418.459975
 20
292.048606
 30
0.0
 11
418.4803409999999
 21
292.059652
 31
0.0
  0
LINE
  5
B5
330
1F
100
AcDbEntity
  8
1
100
AcDbLine
 10
418.586647
 20
292.680009
 30
0.0
 11
412.5661609999999
 21
292.417749
 31
0.0
  0
LINE
  5
B6
330
1F
100
AcDbEntity
  8
1
100
AcDbLine
 10
412.5609299999999
 20
292.396598
 30
0.0
 11
412.5661609999999
 21
292.417749
 31
0.0
  0
LINE
  5
B7
330
1F
100
AcDbEntity
  8
1
100
AcDbLine
 10
418.451672
 20
289.276461
 30
0.0
 11
418.69268
 21
289.603053
 31
0.0
  0
LINE
  5
B8
330
1F
100
AcDbEntity
  8
1
100
AcDbLine
 10
418.69268
 20
289.841664
 30
0.0
 11
418.69268
 21
289.603053
 31
0.0
  0
LINE
  5
B9
330
1F
100
AcDbEntity
  8
1
100
AcDbLine
 10
418.69268
 20
289.841664
 30
0.0
 11
418.734842
 21
289.840928
 31
0.0
  0
LINE
  5
BA
330
1F
100
AcDbEntity
  8
1
100
AcDbLine
 10
418.734842
 20
292.984442
 30
0.0
 11
418.734842
 21
289.940943
 31
0.0
  0
LINE
  5
BB
330
1F
100
AcDbEntity
  8
1
100
AcDbLine
 10
418.586647
 20
292.680009
 30
0.0
 11
418.584429
 21
292.903842
 31
0.0
  0
LINE
  5
BC
330
1F
100
AcDbEntity
  8
1
100
AcDbLine
 10
418.586647
 20
292.680009
 30
0.0
 11
418.5447029999999
 21
292.657259
 31
0.0
  0
LINE
  5
BD
330
1F
100
AcDbEntity
  8
1
100
AcDbLine
 10
417.93547
 20
277.407994
 30
0.0
 11
418.3553139999999
 21
281.363668
 31
0.0
  0
LINE
  5
BE
330
1F
100
AcDbEntity
  8
1
100
AcDbLine
 10
418.3553139999999
 20
281.363668
 30
0.0
 11
418.313223
 21
281.364342
 31
0.0
  0
LINE
  5
BF
330
1F
100
AcDbEntity
  8
1
100
AcDbLine
 10
418.338505
 20
281.602542
 30
0.0
 11
418.313223
 21
281.364342
 31
0.0
  0
LINE
  5
C0
330
1F
100
AcDbEntity
  8
1
100
AcDbLine
 10
418.338505
 20
281.602542
 30
0.0
 11
418.132956
 21
281.936621
 31
0.0
  0
LINE
  5
C1
330
1F
100
AcDbEntity
  8
1
100
AcDbLine
 10
417.8735879999999
 20
284.939494
 30
0.0
 11
418.2738679999999
 21
284.939494
 31
0.0
  0
LINE
  5
C2
330
1F
100
AcDbEntity
  8
SK1
100
AcDbLine
 10
220.404842
 20
301.407994
 30
0.0
 11
220.404842
 21
276.407994
 31
0.0
  0
LINE
  5
C3
330
1F
100
AcDbEntity
  8
SK1
100
AcDbLine
 10
218.404842
 20
299.407994
 30
0.0
 11
218.404842
 21
278.407994
 31
0.0
  0
LINE
  5
C4
330
1F
100
AcDbEntity
  8
1
100
AcDbLine
 10
410.9394749999999
 20
293.885492
 30
0.0
 11
410.934245
 21
293.864341
 31
0.0
  0
LINE
  5
C5
330
1F
100
AcDbEntity
  8
1
100
AcDbLine
 10
410.9394749999999
 20
293.885492
 30
0.0
 11
410.659522
 21
300.315497
 31
0.0
  0
LINE
  5
C6
330
1F
100
AcDbEntity
  8
1
100
AcDbLine
 10
410.655197
 20
300.27354
 30
0.0
 11
410.934245
 21
293.864341
 31
0.0
  0
LINE
  5
C7
330
1F
100
AcDbEntity
  8
1
100
AcDbLine
 10
417.93547
 20
277.407994
 30
0.0
 11
394.234818
 21
277.407994
 31
0.0
  0
LINE
  5
C8
330
1F
100
AcDbEntity
  8
1
100
AcDbLine
 10
274.904842
 20
271.407994
 30
0.0
 11
274.904842
 21
288.907994
 31
0.0
  0
LINE
  5
C9
330
1F
100
AcDbEntity
  8
1
100
AcDbLine
 10
274.904842
 20
288.907994
 30
0.0
 11
274.904842
 21
306.407994
 31
0.0
  0
LINE
  5
CA
330
1F
100
AcDbEntity
  8
1
100
AcDbLine
 10
416.914791
 20
296.044342
 30
0.0
 11
416.92944
 21
296.1035779999999
 31
0.0
  0
LINE
  5
CB
330
1F
100
AcDbEntity
  8
1
100
AcDbLine
 10
279.404842
 20
271.407994
 30
0.0
 11
280.71855
 21
272.721702
 31
0.0
  0
LINE
  5
CC
330
1F
100
AcDbEntity
  8
1
100
AcDbLine
 10
280.71855
 20
305.094285
 30
0.0
 11
279.404842
 21
306.407994
 31
0.0
  0
LINE
  5
CD
330
1F
100
AcDbEntity
  8
SK1
100
AcDbLine
 10
218.404842
 20
278.407994
 30
0.0
 11
220.404842
 21
276.407994
 31
0.0
  0
LINE
  5
CE
330
1F
100
AcDbEntity
  8
SK1
100
AcDbLine
 10
220.404842
 20
301.407994
 30
0.0
 11
218.404842
 21
299.407994
 31
0.0
  0
LINE
  5
CF
330
1F
100
AcDbEntity
  8
SK1
100
AcDbLine
 10
274.404842
 20
301.407994
 30
0.0
 11
220.404842
 21
301.407994
 31
0.0
  0
LINE
  5
D0
330
1F
100
AcDbEntity
  8
1
100
AcDbLine
 10
274.904842
 20
271.407994
 30
0.0
 11
274.404842
 21
271.907994
 31
0.0
  0
LINE
  5
D1
330
1F
100
AcDbEntity
  8
1
100
AcDbLine
 10
274.404842
 20
305.907994
 30
0.0
 11
274.904842
 21
306.407994
 31
0.0
  0
LINE
  5
D2
330
1F
100
AcDbEntity
  8
1
100
AcDbLine
 10
279.404842
 20
306.407994
 30
0.0
 11
274.904842
 21
306.407994
 31
0.0
  0
LINE
  5
D7
330
1F
100
AcDbEntity
  8
80
100
AcDbLine
 10
275.404416
 20
288.907994
 30
0.0
 11
273.405268
 21
288.907994
 31
0.0
  0
LINE
  5
D8
330
1F
100
AcDbEntity
  8
1
100
AcDbLine
 10
417.217906
 20
284.939494
 30
0.0
 11
417.5275159999999
 21
284.939494
 31
0.0
  0
LINE
  5
D9
330
1F
100
AcDbEntity
  8
1
100
AcDbLine
 10
412.5609299999999
 20
292.396598
 30
0.0
 11
418.5447029999999
 21
292.657259
 31
0.0
  0
LINE
  5
DA
330
1F
100
AcDbEntity
  8
1
100
AcDbLine
 10
418.734842
 20
289.840928
 30
0.0
 11
418.734842
 21
289.940943
 31
0.0
  0
LINE
  5
DB
330
1F
100
AcDbEntity
  8
1
100
AcDbLine
 10
418.5453039999999
 20
292.596612
 30
0.0
 11
418.5447029999999
 21
292.657259
 31
0.0
  0
LINE
  5
DC
330
1F
100
AcDbEntity
  8
1
100
AcDbLine
 10
279.404842
 20
306.407994
 30
0.0
 11
279.404842
 21
278.944405
 31
0.0
  0
LINE
  5
DD
330
1F
100
AcDbEntity
  8
1
100
AcDbLine
 10
279.404842
 20
271.407994
 30
0.0
 11
279.404842
 21
272.694919
 31
0.0
  0
LINE
  5
DE
330
1F
100
AcDbEntity
  8
1
100
AcDbLine
 10
410.902913
 20
299.879932
 30
0.0
 11
410.88397
 21
300.315
 31
0.0
  0
LINE
  5
DF
330
1F
100
AcDbEntity
  8
1
100
AcDbLine
 10
418.459975
 20
292.048606
 30
0.0
 11
412.113652
 21
291.772152
 31
0.0
  0
LINE
  5
E0
330
1F
100
AcDbEntity
  8
1
100
AcDbLine
 10
418.459975
 20
292.048606
 30
0.0
 11
417.123736
 21
289.822088
 31
0.0
  0
LINE
  5
E1
330
1F
100
AcDbEntity
  8
1
100
AcDbLine
 10
418.132956
 20
281.936621
 30
0.0
 11
417.9975439999999
 21
281.938788
 31
0.0
  0
LINE
  5
E2
330
1F
100
AcDbEntity
  8
1
100
AcDbLine
 10
417.9872439999999
 20
282.238991
 30
0.0
 11
418.2738679999999
 21
284.939494
 31
0.0
  0
LINE
  5
E3
330
1F
100
AcDbEntity
  8
1
100
AcDbLine
 10
418.2738679999999
 20
284.939494
 30
0.0
 11
418.2738679999999
 21
288.979519
 31
0.0
  0
LINE
  5
E4
330
1F
100
AcDbEntity
  8
1
100
AcDbLine
 10
418.3160299999999
 20
289.278829
 30
0.0
 11
418.451672
 21
289.276461
 31
0.0
  0
LINE
  5
E5
330
1F
100
AcDbEntity
  8
81
100
AcDbLine
 10
417.404842
 20
300.907994
 30
0.0
 11
421.404842
 21
300.907994
 31
0.0
  0
LINE
  5
E6
330
1F
100
AcDbEntity
  8
80
100
AcDbLine
 10
274.404842
 20
287.90842
 30
0.0
 11
274.404842
 21
289.907567
 31
0.0
  0
LINE
  5
E7
330
1F
100
AcDbEntity
  8
SK1
100
AcDbLine
 10
220.404842
 20
276.407994
 30
0.0
 11
274.404842
 21
276.407994
 31
0.0
  0
LINE
  5
E8
330
1F
100
AcDbEntity
  8
81
100
AcDbLine
 10
419.4048419999999
 20
302.907994
 30
0.0
 11
419.4048419999999
 21
298.907994
 31
0.0
  0
LINE
  5
E9
330
1F
100
AcDbEntity
  8
1
100
AcDbLine
 10
274.904842
 20
271.407994
 30
0.0
 11
279.404842
 21
271.407994
 31
0.0
  0
LINE
  5
11E
330
1F
100
AcDbEntity
  8
NOCUT
100
AcDbLine
 10
218.404842
 20
299.407994
 30
0.0
 11
220.404842
 21
301.407994
 31
0.0
  0
LINE
  5
11F
330
1F
100
AcDbEntity
  8
NOCUT
100
AcDbLine
 10
274.404842
 20
301.407994
 30
0.0
 11
274.404842
 21
305.907994
 31
0.0
  0
LINE
  5
120
330
1F
100
AcDbEntity
  8
NOCUT
100
AcDbLine
 10
274.404842
 20
305.907994
 30
0.0
 11
274.904842
 21
306.407994
 31
0.0
  0
LINE
  5
121
330
1F
100
AcDbEntity
  8
NOCUT
100
AcDbLine
 10
274.404842
 20
301.407994
 30
0.0
 11
220.404842
 21
301.407994
 31
0.0
  0
LINE
  5
122
330
1F
100
AcDbEntity
  8
NOCUT
100
AcDbLine
 10
279.404842
 20
306.407994
 30
0.0
 11
280.71855
 21
305.094285
 31
0.0
  0
LINE
  5
123
330
1F
100
AcDbEntity
  8
NOCUT
100
AcDbLine
 10
292.032259
 20
300.407994
 30
0.0
 11
418.417579
 21
300.407994
 31
0.0
  0
LINE
  5
124
330
1F
100
AcDbEntity
  8
NOCUT
100
AcDbLine
 10
418.417579
 20
300.407994
 30
0.0
 11
418.734842
 21
293.195173
 31
0.0
  0
LINE
  5
125
330
1F
100
AcDbEntity
  8
NOCUT
100
AcDbLine
 10
418.734842
 20
293.195173
 30
0.0
 11
418.734842
 21
288.907994
 31
0.0
  0
LINE
  5
126
330
1F
100
AcDbEntity
  8
NOCUT
100
AcDbLine
 10
418.734842
 20
288.907994
 30
0.0
 11
218.404842
 21
288.907994
 31
0.0
  0
LINE
  5
127
330
1F
100
AcDbEntity
  8
NOCUT
100
AcDbLine
 10
279.404842
 20
306.407994
 30
0.0
 11
274.904842
 21
306.407994
 31
0.0
  0
LINE
  5
128
330
1F
100
AcDbEntity
  8
NOCUT
100
AcDbLine
 10
218.404842
 20
299.407994
 30
0.0
 11
218.404842
 21
288.907994
 31
0.0
  0
ARC
  5
131
330
1F
100
AcDbEntity
  8
1
100
AcDbCircle
 10
292.032259
 20
261.407994
 30
0.0
 40
16.0
100
AcDbArc
 50
105.86621
 51
135.0
  0
ARC
  5
132
330
1F
100
AcDbEntity
  8
1
100
AcDbCircle
 10
411.467842
 20
296.355416
 30
0.0
 40
6.0
100
AcDbArc
 50
270.000185
 51
271.998472
  0
ARC
  5
133
330
1F
100
AcDbEntity
  8
1
100
AcDbCircle
 10
292.032259
 20
316.407994
 30
0.0
 40
16.0
100
AcDbArc
 50
225.0
 51
261.632249
  0
ARC
  5
134
330
1F
100
AcDbEntity
  8
1
100
AcDbCircle
 10
415.2783359999999
 20
285.852145
 30
0.0
 40
1.25
100
AcDbArc
 50
75.0
 51
345.0
  0
CIRCLE
  5
135
330
1F
100
AcDbEntity
  8
1
100
AcDbCircle
 10
415.2783359999999
 20
285.852145
 30
0.0
 40
0.8499999999999991
  0
ARC
  5
144
330
1F
100
AcDbEntity
  8
NOCUT
100
AcDbCircle
 10
292.032259
 20
316.407994
 30
0.0
 40
16.0
100
AcDbArc
 50
225.0
 51
270.0
  0
ELLIPSE
  5
145
330
1F
100
AcDbEntity
  8
1
100
AcDbEllipse
 10
411.7431319999999
 20
290.64837
 30
0.0
 11
-1.290641928035511
 21
-0.0622565814743008
 31
0.0
210
0.0
220
0.0
230
0.9999999999999998
 40
0.221492
 41
1.889573942622775
 42
4.387409714410376
  0
ELLIPSE
  5
146
330
1F
100
AcDbEntity
  8
1
100
AcDbEllipse
 10
416.3512329999999
 20
297.002273
 30
0.0
 11
-0.5397109347785422
 21
0.1334734425485491
 31
0.0
210
0.0
220
0.0
230
1.0
 40
0.9973590000000001
 41
0.0884288147996587
 42
1.008552387969577
  0
ELLIPSE
  5
147
330
1F
100
AcDbEntity
  8
1
100
AcDbEllipse
 10
416.0228319999999
 20
296.687055
 30
0.0
 11
-0.0969839493716005
 21
0.0239846568976656
 31
0.0
210
0.0
220
0.0
230
1.0
 40
0.9973589999999999
 41
1.008552387969827
 42
1.85748754038059
  0
ELLIPSE
  5
148
330
1F
100
AcDbEntity
  8
1
100
AcDbEllipse
 10
416.0317919999999
 20
296.48793
 30
0.0
 11
-0.0969839493716006
 21
0.0239846568976657
 31
0.0
210
0.0
220
0.0
230
1.0
 40
0.9973589999999999
 41
3.626546265961084
 42
4.999080193970403
  0
ELLIPSE
  5
149
330
1F
100
AcDbEntity
  8
1
100
AcDbEllipse
 10
415.589208
 20
296.3789549999999
 30
0.0
 11
-0.5397109347785424
 21
0.1334734425485492
 31
0.0
210
0.0
220
0.0
230
1.0
 40
0.9973590000000001
 41
2.706422692791143
 42
3.626546265961045
  0
ELLIPSE
  5
14A
330
1F
100
AcDbEntity
  8
1
100
AcDbEllipse
 10
415.944637
 20
296.093525
 30
0.0
 11
-0.0969839493716005
 21
0.0239846568976656
 31
0.0
210
0.0
220
0.0
230
1.0
 40
0.9973589999999999
 41
1.333888764782179
 42
2.706422692791381
  0
ELLIPSE
  5
14B
330
1F
100
AcDbEntity
  8
1
100
AcDbEllipse
 10
415.8526069999999
 20
295.916732
 30
0.0
 11
-0.0969839493716005
 21
0.0239846568976656
 31
0.0
210
0.0
220
0.0
230
1.0
 40
0.9973589999999999
 41
4.475481418372264
 42
5.324416570782851
  0
ELLIPSE
  5
14C
330
1F
100
AcDbEntity
  8
1
100
AcDbEllipse
 10
416.0175879999999
 20
295.492419
 30
0.0
 11
-0.5397109347785422
 21
0.1334734425485491
 31
0.0
210
0.0
220
0.0
230
1.0
 40
0.9973590000000001
 41
5.324416570782686
 42
6.24454014395252
  0
ELLIPSE
  5
14D
330
1F
100
AcDbEntity
  8
1
100
AcDbEllipse
 10
415.579411
 20
295.618886
 30
0.0
 11
-0.0969839493716005
 21
0.0239846568976656
 31
0.0
210
0.0
220
0.0
230
1.0
 40
0.9973589999999999
 41
6.244540143952442
 42
7.093475296363414
  0
ELLIPSE
  5
14E
330
1F
100
AcDbEntity
  8
1
100
AcDbEllipse
 10
415.411049
 20
295.511794
 30
0.0
 11
-0.0969839493716006
 21
0.0239846568976657
 31
0.0
210
0.0
220
0.0
230
1.0
 40
0.9973589999999999
 41
2.579348714764869
 42
3.951882642773414
  0
ELLIPSE
  5
14F
330
1F
100
AcDbEntity
  8
1
100
AcDbEllipse
 10
415.0946879999999
 20
295.839817
 30
0.0
 11
-0.5397109347785424
 21
0.1334734425485492
 31
0.0
210
0.0
220
0.0
230
1.0
 40
0.9973590000000001
 41
1.659225141594516
 42
2.579348714764437
  0
ELLIPSE
  5
150
330
1F
100
AcDbEntity
  8
1
100
AcDbEllipse
 10
415.0250139999999
 20
295.390315
 30
0.0
 11
-0.0969839493716005
 21
0.0239846568976656
 31
0.0
210
0.0
220
0.0
230
1.0
 40
0.9973589999999999
 41
0.2866912135855288
 42
1.659225141594444
  0
ELLIPSE
  5
151
330
1F
100
AcDbEntity
  8
1
100
AcDbEllipse
 10
414.8254339999999
 20
295.381621
 30
0.0
 11
-0.0969839493716005
 21
0.0239846568976656
 31
0.0
210
0.0
220
0.0
230
1.0
 40
0.9973589999999999
 41
3.428283867175184
 42
4.277219019586216
  0
ELLIPSE
  5
152
330
1F
100
AcDbEntity
  8
1
100
AcDbEllipse
 10
414.5397739999999
 20
295.027374
 30
0.0
 11
-0.5397109347785422
 21
0.1334734425485491
 31
0.0
210
0.0
220
0.0
230
1.0
 40
0.9973590000000001
 41
4.277219019585961
 42
5.197342592755858
  0
ELLIPSE
  5
153
330
1F
100
AcDbEntity
  8
1
100
AcDbEllipse
 10
414.8734189999999
 20
296.5372270000001
 30
0.0
 11
1.456132277865614
 21
-0.3601094130370632
 31
0.0
210
0.0
220
0.0
230
0.9999999999999998
 40
0.9973589999999999
 41
0.0
 42
6.283185307179585
  0
ELLIPSE
  5
154
330
1F
100
AcDbEntity
  8
1
100
AcDbEllipse
 10
415.010343
 20
296.75279
 30
0.0
 11
2.033978351583129
 21
-0.5030138823598634
 31
0.0
210
0.0
220
0.0
230
1.0
 40
0.9973589999999999
 41
2.351895531162231
 42
2.715829348081396
  0
ELLIPSE
  5
155
330
1F
100
AcDbEntity
  8
1
100
AcDbEllipse
 10
415.010343
 20
296.75279
 30
0.0
 11
2.033978351583129
 21
-0.5030138823598634
 31
0.0
210
0.0
220
0.0
230
1.0
 40
0.9973589999999999
 41
5.90631304478699
 42
6.283185307179585
  0
ELLIPSE
  5
156
330
1F
100
AcDbEntity
  8
1
100
AcDbEllipse
 10
415.010343
 20
296.75279
 30
0.0
 11
2.033978351583129
 21
-0.5030138823598634
 31
0.0
210
0.0
220
0.0
230
1.0
 40
0.9973589999999999
 41
0.0
 42
0.7896407265465378
  0
ELLIPSE
  5
157
330
1F
100
AcDbEntity
  8
1
100
AcDbEllipse
 10
412.0853109999999
 20
293.453132
 30
0.0
 11
0.953812384526914
 21
1.042195465343298
 31
0.0
210
0.0
220
0.0
230
1.0
 40
0.024613
 41
0.9708236129798821
 42
1.525634646479523
  0
ELLIPSE
  5
158
330
1F
100
AcDbEntity
  8
1
100
AcDbEllipse
 10
414.9905529999999
 20
296.672768
 30
0.0
 11
2.091721596912266
 21
-0.5172941002345821
 31
0.0
210
0.0
220
0.0
230
0.9999999999999998
 40
0.9973589999999997
 41
0.0
 42
6.283185307179585
  0
ELLIPSE
  5
159
330
1F
100
AcDbEntity
  8
1
100
AcDbEllipse
 10
411.813845
 20
299.485886
 30
0.0
 11
1.042942260000492
 21
-0.9544958474569844
 31
0.0
210
0.0
220
0.0
230
1.0
 40
0.045128
 41
1.040557921625969
 42
1.595368954601331
  0
ELLIPSE
  5
15A
330
1F
100
AcDbEntity
  8
1
100
AcDbEllipse
 10
414.9876759999999
 20
296.661135
 30
0.0
 11
-2.184198416798424
 21
0.5401641195555916
 31
0.0
210
0.0
220
0.0
230
1.0
 40
0.9973589999999999
 41
0.0
 42
6.283185307179585
  0
ELLIPSE
  5
15B
330
1F
100
AcDbEntity
  8
1
100
AcDbEllipse
 10
417.8603999999999
 20
299.749282
 30
0.0
 11
0.9538123852374184
 21
1.042195466151613
 31
0.0
210
0.0
220
0.0
230
0.9999999999999998
 40
0.024613
 41
1.525634645879495
 42
2.080445678994423
  0
ELLIPSE
  5
15C
330
1F
100
AcDbEntity
  8
1
100
AcDbEllipse
 10
418.1318649999999
 20
293.716528
 30
0.0
 11
1.04294226038551
 21
-0.9544958478258818
 31
0.0
210
0.0
220
0.0
230
1.0
 40
0.045128
 41
1.595368954787411
 42
2.150179987566804
  0
ELLIPSE
  5
15D
330
1F
100
AcDbEntity
  8
1
100
AcDbEllipse
 10
414.876206
 20
296.548495
 30
0.0
 11
2.03858518901186
 21
-0.5041531782518886
 31
0.0
210
0.0
220
0.0
230
0.9999999999999998
 40
0.9973589999999999
 41
0.0
 42
6.283185307179585
  0
ELLIPSE
  5
15E
330
1F
100
AcDbEntity
  8
1
100
AcDbEllipse
 10
414.429998
 20
295.469058
 30
0.0
 11
-0.0969839493716005
 21
0.0239846568976656
 31
0.0
210
0.0
220
0.0
230
1.0
 40
0.9973589999999999
 41
5.197342592755681
 42
6.046277745166639
  0
ELLIPSE
  5
15F
330
1F
100
AcDbEntity
  8
1
100
AcDbEllipse
 10
414.2526759999999
 20
295.561091
 30
0.0
 11
-0.0969839493716006
 21
0.0239846568976657
 31
0.0
210
0.0
220
0.0
230
1.0
 40
0.9973589999999999
 41
1.532151163568048
 42
2.904685091576983
  0
ELLIPSE
  5
160
330
1F
100
AcDbEntity
  8
1
100
AcDbEllipse
 10
414.378899
 20
295.998089
 30
0.0
 11
-0.5397109347785424
 21
0.1334734425485492
 31
0.0
210
0.0
220
0.0
230
1.0
 40
0.9973590000000001
 41
0.6120275903979903
 42
1.532151163567855
  0
ELLIPSE
  5
161
330
1F
100
AcDbEntity
  8
1
100
AcDbEllipse
 10
413.953796
 20
295.834017
 30
0.0
 11
-0.0969839493716005
 21
0.0239846568976656
 31
0.0
210
0.0
220
0.0
230
1.0
 40
0.9973589999999999
 41
5.52267896956828
 42
6.895212897577726
  0
ELLIPSE
  5
162
330
1F
100
AcDbEntity
  8
1
100
AcDbEllipse
 10
413.846246
 20
296.002117
 30
0.0
 11
-0.0969839493716005
 21
0.0239846568976656
 31
0.0
210
0.0
220
0.0
230
1.0
 40
0.9973589999999999
 41
2.381086315978291
 42
3.230021468389467
  0
ELLIPSE
  5
163
330
1F
100
AcDbEntity
  8
1
100
AcDbEllipse
 10
413.395605
 20
296.072182
 30
0.0
 11
-0.5397109347785422
 21
0.1334734425485491
 31
0.0
210
0.0
220
0.0
230
1.0
 40
0.9973590000000001
 41
3.230021468389486
 42
4.15014504155929
  0
ELLIPSE
  5
164
330
1F
100
AcDbEntity
  8
1
100
AcDbEllipse
 10
413.724006
 20
296.3874
 30
0.0
 11
-0.0969839493716005
 21
0.0239846568976656
 31
0.0
210
0.0
220
0.0
230
1.0
 40
0.9973589999999999
 41
4.150145041559379
 42
4.999080193970403
  0
ELLIPSE
  5
165
330
1F
100
AcDbEntity
  8
1
100
AcDbEllipse
 10
413.7150459999999
 20
296.586525
 30
0.0
 11
-0.0969839493716006
 21
0.0239846568976657
 31
0.0
210
0.0
220
0.0
230
1.0
 40
0.9973589999999999
 41
0.4849536123712225
 42
1.857487540380338
  0
ELLIPSE
  5
166
330
1F
100
AcDbEntity
  8
1
100
AcDbEllipse
 10
414.1576299999999
 20
296.6955
 30
0.0
 11
-0.5397109347785424
 21
0.1334734425485492
 31
0.0
210
0.0
220
0.0
230
1.0
 40
0.9973590000000001
 41
5.848015346380924
 42
6.76813891955079
  0
ELLIPSE
  5
167
330
1F
100
AcDbEntity
  8
1
100
AcDbEllipse
 10
413.8022009999999
 20
296.980929
 30
0.0
 11
-0.0969839493716005
 21
0.0239846568976656
 31
0.0
210
0.0
220
0.0
230
1.0
 40
0.9973589999999999
 41
4.475481418372021
 42
5.848015346380926
  0
ELLIPSE
  5
168
330
1F
100
AcDbEntity
  8
1
100
AcDbEllipse
 10
413.894231
 20
297.157723
 30
0.0
 11
-0.0969839493716005
 21
0.0239846568976656
 31
0.0
210
0.0
220
0.0
230
1.0
 40
0.9973589999999999
 41
1.333888764782195
 42
2.1828239171931
  0
ELLIPSE
  5
169
330
1F
100
AcDbEntity
  8
1
100
AcDbEllipse
 10
413.72925
 20
297.582036
 30
0.0
 11
-0.5397109347785422
 21
0.1334734425485491
 31
0.0
210
0.0
220
0.0
230
1.0
 40
0.9973590000000001
 41
2.182823917192866
 42
3.102947490362741
  0
ELLIPSE
  5
16A
330
1F
100
AcDbEntity
  8
1
100
AcDbEllipse
 10
414.167427
 20
297.455569
 30
0.0
 11
-0.0969839493716005
 21
0.0239846568976656
 31
0.0
210
0.0
220
0.0
230
1.0
 40
0.9973589999999999
 41
3.102947490362731
 42
3.951882642773366
  0
ELLIPSE
  5
16B
330
1F
100
AcDbEntity
  8
1
100
AcDbEllipse
 10
414.3357879999999
 20
297.562661
 30
0.0
 11
-0.0969839493716006
 21
0.0239846568976657
 31
0.0
210
0.0
220
0.0
230
1.0
 40
0.9973589999999999
 41
5.720941368354177
 42
7.093475296363473
  0
ELLIPSE
  5
16C
330
1F
100
AcDbEntity
  8
1
100
AcDbEllipse
 10
414.65215
 20
297.234638
 30
0.0
 11
-0.5397109347785424
 21
0.1334734425485492
 31
0.0
210
0.0
220
0.0
230
1.0
 40
0.9973590000000001
 41
4.800817795184308
 42
5.720941368354242
  0
ELLIPSE
  5
16D
330
1F
100
AcDbEntity
  8
1
100
AcDbEllipse
 10
414.7218239999999
 20
297.68414
 30
0.0
 11
-0.0969839493716005
 21
0.0239846568976656
 31
0.0
210
0.0
220
0.0
230
1.0
 40
0.9973589999999999
 41
3.42828386717524
 42
4.800817795183683
  0
ELLIPSE
  5
16E
330
1F
100
AcDbEntity
  8
1
100
AcDbEllipse
 10
414.921404
 20
297.692834
 30
0.0
 11
-0.0969839493716005
 21
0.0239846568976656
 31
0.0
210
0.0
220
0.0
230
1.0
 40
0.9973589999999999
 41
0.2866912135855408
 42
1.135626365996393
  0
ELLIPSE
  5
16F
330
1F
100
AcDbEntity
  8
1
100
AcDbEllipse
 10
415.2070639999999
 20
298.047081
 30
0.0
 11
-0.5397109347785422
 21
0.1334734425485491
 31
0.0
210
0.0
220
0.0
230
1.0
 40
0.9973590000000001
 41
1.135626365996246
 42
2.055749939166109
  0
ELLIPSE
  5
170
330
1F
100
AcDbEntity
  8
1
100
AcDbEllipse
 10
415.31684
 20
297.605396
 30
0.0
 11
-0.0969839493716005
 21
0.0239846568976656
 31
0.0
210
0.0
220
0.0
230
1.0
 40
0.9973589999999999
 41
2.055749939165736
 42
2.904685091576778
  0
ELLIPSE
  5
171
330
1F
100
AcDbEntity
  8
1
100
AcDbEllipse
 10
415.494162
 20
297.513363
 30
0.0
 11
-0.0969839493716006
 21
0.0239846568976657
 31
0.0
210
0.0
220
0.0
230
1.0
 40
0.9973589999999999
 41
4.673743817157551
 42
6.046277745166985
  0
ELLIPSE
  5
172
330
1F
100
AcDbEntity
  8
1
100
AcDbEllipse
 10
415.367939
 20
297.076365
 30
0.0
 11
-0.5397109347785424
 21
0.1334734425485492
 31
0.0
210
0.0
220
0.0
230
1.0
 40
0.9973590000000001
 41
3.753620243987793
 42
4.673743817157701
  0
ELLIPSE
  5
173
330
1F
100
AcDbEntity
  8
1
100
AcDbEllipse
 10
415.793042
 20
297.240438
 30
0.0
 11
-0.0969839493716005
 21
0.0239846568976656
 31
0.0
210
0.0
220
0.0
230
1.0
 40
0.9973589999999999
 41
2.381086315978683
 42
3.753620243987768
  0
ELLIPSE
  5
174
330
1F
100
AcDbEntity
  8
1
100
AcDbEllipse
 10
415.900592
 20
297.072338
 30
0.0
 11
-0.0969839493716005
 21
0.0239846568976656
 31
0.0
210
0.0
220
0.0
230
1.0
 40
0.9973589999999999
 41
5.522678969568332
 42
6.371614121979306
  0
ELLIPSE
  5
175
330
1F
100
AcDbEntity
  8
1
100
AcDbEllipse
 10
411.548154
 20
304.373845
 30
0.0
 11
12.23151113407117
 21
-3.024919069511333
 31
0.0
210
0.0
220
0.0
230
0.9999999999999998
 40
0.9973589999999999
 41
4.432402216504033
 42
4.998514166397827
  0
ELLIPSE
  5
176
330
1F
100
AcDbEntity
  8
1
100
AcDbEllipse
 10
414.8908549999999
 20
296.607731
 30
0.0
 11
-2.038585189011861
 21
0.5041531782518853
 31
0.0
210
0.0
220
0.0
230
1.0
 40
0.9973589999999999
 41
3.141613722820884
 42
6.283108437511081
  0
ELLIPSE
  5
177
330
1F
100
AcDbEntity
  8
1
100
AcDbEllipse
 10
411.603414
 20
288.907993
 30
0.0
 11
0.4844442813802906
 21
-11.49999625375139
 31
0.0
210
0.0
220
0.0
230
1.0
 40
0.020422
 41
3.034357687158066
 42
3.118332340774558
  0
ELLIPSE
  5
178
330
1F
100
AcDbEntity
  8
1
100
AcDbEllipse
 10
413.6658859999999
 20
288.907994
 30
0.0
 11
19.7318676829114
 21
-11.3454476459802
 31
0.0
210
0.0
220
0.0
230
0.9999999999999998
 40
0.095229
 41
4.277433012623191
 42
4.334521632210265
  0
ELLIPSE
  5
179
330
1F
100
AcDbEntity
  8
1
100
AcDbEllipse
 10
411.8145619999999
 20
293.219748
 30
0.0
 11
-1.06783033710145
 21
0.2640802362271779
 31
0.0
210
0.0
220
0.0
230
1.0
 40
0.9973589999999999
 41
2.564998284414819
 42
2.796152521219756
  0
ELLIPSE
  5
17A
330
1F
100
AcDbEntity
  8
1
100
AcDbEllipse
 10
418.475396
 20
292.558694
 30
0.0
 11
0.0003720974352741
 21
0.5004807490626391
 31
0.0
210
0.0
220
0.0
230
1.0
 40
0.140029
 41
3.217531031709254
 42
4.788327358499827
  0
ELLIPSE
  5
17B
330
1F
100
AcDbEntity
  8
1
100
AcDbEllipse
 10
419.1560469999999
 20
288.907994
 30
0.0
 11
1.244745848334387
 21
11.49869940993263
 31
0.0
210
0.0
220
0.0
230
1.0
 40
0.138944
 41
1.93816750018661
 42
3.156632395651076
  0
ELLIPSE
  5
17C
330
1F
100
AcDbEntity
  8
1
100
AcDbEllipse
 10
418.734842
 20
288.907994
 30
0.0
 11
0.0
 21
11.50000000079552
 31
0.0
210
0.0
220
0.0
230
1.0
 40
0.140541
 41
1.491225927382289
 42
1.923127758100139
  0
ELLIPSE
  5
17D
330
1F
100
AcDbEntity
  8
1
100
AcDbEllipse
 10
411.868264
 20
293.436898
 30
0.0
 11
-1.067830337101449
 21
0.2640802362271777
 31
0.0
210
0.0
220
0.0
230
0.9999999999999998
 40
0.9973589999999999
 41
0.1120380090731437
 42
1.85748718695252
  0
ELLIPSE
  5
17E
330
1F
100
AcDbEntity
  8
1
100
AcDbEllipse
 10
411.868264
 20
293.436898
 30
0.0
 11
-1.067830337101449
 21
0.2640802362271777
 31
0.0
210
0.0
220
0.0
230
0.9999999999999998
 40
0.9973589999999999
 41
1.85748718695252
 42
2.52330855074796
  0
ELLIPSE
  5
17F
330
1F
100
AcDbEntity
  8
1
100
AcDbEllipse
 10
411.8145619999999
 20
293.219748
 30
0.0
 11
-1.06783033710145
 21
0.2640802362271779
 31
0.0
210
0.0
220
0.0
230
1.0
 40
0.9973589999999999
 41
5.620155368642787
 42
5.87430052331132
  0
ELLIPSE
  5
180
330
1F
100
AcDbEntity
  8
1
100
AcDbEllipse
 10
411.8093309999999
 20
293.198597
 30
0.0
 11
1.06783033710145
 21
-0.2640802362271797
 31
0.0
210
0.0
220
0.0
230
0.9999999999999998
 40
0.9973589999999999
 41
2.732707869721527
 42
4.327726013559082
  0
ELLIPSE
  5
181
330
1F
100
AcDbEntity
  8
1
100
AcDbEllipse
 10
411.1696539999999
 20
288.907886
 30
0.0
 11
0.4844490949745851
 21
-11.50010324039828
 31
0.0
210
0.0
220
0.0
230
0.9999999999999998
 40
0.020422
 41
3.267648710675266
 42
3.293796672110671
  0
ELLIPSE
  5
182
330
1F
100
AcDbEntity
  8
1
100
AcDbEllipse
 10
356.314719
 20
288.907603
 30
0.0
 11
659.4707446002002
 21
-0.8111405501284394
 31
0.0
210
0.0
220
0.0
230
1.0
 40
0.017395
 41
1.488324055819179
 42
1.4942274813833
  0
ELLIPSE
  5
183
330
1F
100
AcDbEntity
  8
1
100
AcDbEllipse
 10
411.8093309999999
 20
293.198597
 30
0.0
 11
1.06783033710145
 21
-0.2640802362271797
 31
0.0
210
0.0
220
0.0
230
0.9999999999999998
 40
0.9973589999999999
 41
5.616764553213022
 42
5.706590938004661
  0
ELLIPSE
  5
184
330
1F
100
AcDbEntity
  8
1
100
AcDbEllipse
 10
411.4745179999999
 20
288.907994
 30
0.0
 11
0.3945249133458082
 21
-11.49986408210627
 31
0.0
210
0.0
220
0.0
230
1.0
 40
0.141717
 41
3.114330817599518
 42
3.263988672049709
  0
ELLIPSE
  5
185
330
1F
100
AcDbEntity
  8
1
100
AcDbEllipse
 10
344.131947
 20
288.907993
 30
0.0
 11
244.4929881006784
 21
11.21494391425264
 31
0.0
210
0.0
220
0.0
230
1.0
 40
0.010408
 41
4.993996173588038
 42
5.015077718418997
  0
ELLIPSE
  5
186
330
1F
100
AcDbEntity
  8
1
100
AcDbEllipse
 10
418.029335
 20
282.238318
 30
0.0
 11
0.0323262014603056
 21
0.2994966855013927
 31
0.0
210
0.0
220
0.0
230
0.9999999999999998
 40
0.139171
 41
1.583568179234303
 42
3.154364506043999
  0
ELLIPSE
  5
187
330
1F
100
AcDbEntity
  8
1
100
AcDbEllipse
 10
418.3160299999999
 20
288.978783
 30
0.0
 11
0.0001054973290789
 21
-0.3000466005974955
 31
0.0
210
0.0
220
0.0
230
1.0
 40
0.140519
 41
3.139090475969728
 42
4.709886802771058
  0
ELLIPSE
  5
188
330
1F
100
AcDbEntity
  8
1
100
AcDbEllipse
 10
317.498473
 20
288.907994
 30
0.0
 11
49.79516778401656
 21
-7.157085073764102
 31
0.0
210
0.0
220
0.0
230
1.0
 40
0.18077
 41
4.232131049061162
 42
4.366273763098834
  0
SPLINE
  5
18E
330
1F
100
AcDbEntity
  8
1
100
AcDbSpline
210
0.0
220
0.0
230
1.0
 70
     8
 71
     3
 72
    15
 73
    11
 74
     0
 42
0.000000001
 43
0.0000000001
 40
0.0
 40
0.0
 40
0.0
 40
0.0
 40
0.0478449185838088
 40
0.0478449185838088
 40
0.2382759348670692
 40
0.4287069511503295
 40
0.4287069511503295
 40
0.6191379674335895
 40
0.6191379674335895
 40
1.0
 40
1.0
 40
1.0
 40
1.0
 10
411.1893071278094
 20
300.3262039684537
 30
0.0
 10
411.1880446571427
 20
300.3264608820919
 30
0.0
 10
411.1868101340933
 20
300.326718622923
 30
0.0
 10
411.1808055913914
 20
300.3280051416772
 30
0.0
 10
411.1720766759278
 20
300.3300879072718
 30
0.0
 10
411.1650641227193
 20
300.3322170288653
 30
0.0
 10
411.1589238698106
 20
300.3343672884091
 30
0.0
 10
411.1562815533018
 20
300.3354579514165
 30
0.0
 10
411.1498076611131
 20
300.338713172007
 30
0.0
 10
411.1473865618021
 20
300.3408634905785
 30
0.0
 10
411.1468895026527
 20
300.3429903245037
 30
0.0
  0
SPLINE
  5
18F
330
1F
100
AcDbEntity
  8
1
100
AcDbSpline
210
0.0
220
0.0
230
1.0
 70
     8
 71
     3
 72
    10
 73
     6
 74
     0
 42
0.000000001
 43
0.0000000001
 40
0.0
 40
0.0
 40
0.0
 40
0.0
 40
0.5
 40
0.5
 40
1.0
 40
1.0
 40
1.0
 40
1.0
 10
412.1421525890687
 20
290.939151635172
 30
0.0
 10
412.0326289654409
 20
290.9420315216069
 30
0.0
 10
411.9215763543211
 20
290.9443368633219
 30
0.0
 10
411.6967497183193
 20
290.9484780963611
 30
0.0
 10
411.5829725372943
 20
290.9503083568422
 30
0.0
 10
411.4678419452968
 20
290.9520285338794
 30
0.0
  0
SPLINE
  5
190
330
1F
100
AcDbEntity
  8
1
100
AcDbSpline
210
0.0
220
0.0
230
1.0
 70
     8
 71
     3
 72
   112
 73
   108
 74
     0
 42
0.000000001
 43
0.0000000001
 40
0.0
 40
0.0
 40
0.0
 40
0.0
 40
0.0156249999999996
 40
0.0156249999999996
 40
0.0312499999999991
 40
0.0312499999999991
 40
0.0468749999999987
 40
0.0468749999999987
 40
0.0624999999999982
 40
0.0624999999999982
 40
0.0937499999999992
 40
0.0937499999999992
 40
0.1093750000000005
 40
0.1093750000000005
 40
0.1250000000000019
 40
0.1250000000000019
 40
0.1406250000000032
 40
0.1406250000000032
 40
0.1562500000000046
 40
0.1562500000000046
 40
0.1875000000000073
 40
0.1875000000000073
 40
0.2031250000000082
 40
0.2031250000000082
 40
0.2187500000000092
 40
0.2187500000000092
 40
0.2343750000000102
 40
0.2343750000000102
 40
0.2500000000000112
 40
0.2500000000000112
 40
0.2812500000000127
 40
0.2812500000000127
 40
0.2968750000000135
 40
0.2968750000000135
 40
0.3125000000000143
 40
0.3125000000000143
 40
0.328125000000015
 40
0.328125000000015
 40
0.3437500000000158
 40
0.3437500000000158
 40
0.3750000000000168
 40
0.3750000000000168
 40
0.390625000000017
 40
0.390625000000017
 40
0.4062500000000174
 40
0.4062500000000174
 40
0.4218750000000176
 40
0.4218750000000176
 40
0.4375000000000183
 40
0.4531250000000189
 40
0.4531250000000189
 40
0.4687500000000197
 40
0.4687500000000197
 40
0.500000000000021
 40
0.500000000000021
 40
0.5312500000000223
 40
0.5312500000000223
 40
0.5468750000000222
 40
0.5468750000000222
 40
0.5625000000000217
 40
0.5625000000000217
 40
0.5781250000000214
 40
0.5781250000000214
 40
0.593750000000021
 40
0.6093750000000206
 40
0.6093750000000206
 40
0.6250000000000204
 40
0.6250000000000204
 40
0.6406250000000201
 40
0.6406250000000201
 40
0.6562500000000197
 40
0.6562500000000197
 40
0.6875000000000196
 40
0.6875000000000196
 40
0.7031250000000197
 40
0.7031250000000197
 40
0.7187500000000198
 40
0.7187500000000198
 40
0.7343750000000199
 40
0.7343750000000199
 40
0.75000000000002
 40
0.75000000000002
 40
0.7812500000000187
 40
0.7812500000000187
 40
0.7968750000000182
 40
0.7968750000000182
 40
0.8125000000000177
 40
0.8125000000000177
 40
0.8281250000000174
 40
0.8281250000000174
 40
0.8437500000000168
 40
0.8437500000000168
 40
0.875000000000014
 40
0.875000000000014
 40
0.890625000000012
 40
0.890625000000012
 40
0.9062500000000099
 40
0.9062500000000099
 40
0.9218750000000079
 40
0.9218750000000079
 40
0.937500000000006
 40
0.937500000000006
 40
0.9687500000000028
 40
0.9687500000000028
 40
0.9843750000000012
 40
0.9843750000000012
 40
1.0
 40
1.0
 40
1.0
 40
1.0
 10
417.5275157617718
 20
284.9394935136932
 30
0.0
 10
417.5219078612176
 20
284.9117630667729
 30
0.0
 10
417.5163629869848
 20
284.8833602303425
 30
0.0
 10
417.5054523273588
 20
284.8254896495491
 30
0.0
 10
417.5000783658476
 20
284.7959817893259
 30
0.0
 10
417.4894938261056
 20
284.7358163787068
 30
0.0
 10
417.4842741319466
 20
284.7051012262883
 30
0.0
 10
417.4740673415944
 20
284.6429124877125
 30
0.0
 10
417.4690756751282
 20
284.6114170680086
 30
0.0
 10
417.4544350391822
 20
284.5157306106515
 30
0.0
 10
417.4450962744511
 20
284.4501452813295
 30
0.0
 10
417.4319627346037
 20
284.3507585836148
 30
0.0
 10
417.4277232598356
 20
284.3174157010241
 30
0.0
 10
417.4195224561585
 20
284.2502998007795
 30
0.0
 10
417.4155592106843
 20
284.2165036065088
 30
0.0
 10
417.4079720156461
 20
284.1489938353175
 30
0.0
 10
417.4043401460753
 20
284.1152178726222
 30
0.0
 10
417.3973993886495
 20
284.0476238548295
 30
0.0
 10
417.3940854211026
 20
284.0137503325999
 30
0.0
 10
417.3846714386696
 20
283.9124725114047
 30
0.0
 10
417.3791164339357
 20
283.8456462281263
 30
0.0
 10
417.3718633389205
 20
283.7464432184257
 30
0.0
 10
417.3696315547458
 20
283.71361428438
 30
0.0
 10
417.3655608100955
 20
283.6487808638757
 30
0.0
 10
417.3637179494467
 20
283.6167239470642
 30
0.0
 10
417.3604171271747
 20
283.5533294679624
 30
0.0
 10
417.3589572620488
 20
283.5219369715965
 30
0.0
 10
417.3564425237326
 20
283.460277567006
 30
0.0
 10
417.3553855989332
 20
283.4299844845422
 30
0.0
 10
417.3528122821386
 20
283.3407047214199
 30
0.0
 10
417.3518948555027
 20
283.2831721186139
 30
0.0
 10
417.3517326767013
 20
283.2012797291585
 30
0.0
 10
417.3518793074339
 20
283.1746723474839
 30
0.0
 10
417.3525745840473
 20
283.1228399287821
 30
0.0
 10
417.3531244755359
 20
283.0976045874964
 30
0.0
 10
417.3546181300039
 20
283.0488855343241
 30
0.0
 10
417.3555621974504
 20
283.0253535791761
 30
0.0
 10
417.3578432526992
 20
282.9799382660939
 30
0.0
 10
417.3591827917189
 20
282.9580216867741
 30
0.0
 10
417.3637777873159
 20
282.8950167514359
 30
0.0
 10
417.3675948405684
 20
282.8567749212376
 30
0.0
 10
417.3744458176411
 20
282.8050284797788
 30
0.0
 10
417.3769136822853
 20
282.7887568040372
 30
0.0
 10
417.3821910778656
 20
282.7583083143616
 30
0.0
 10
417.3850038343756
 20
282.7441063615236
 30
0.0
 10
417.3909773347451
 20
282.7177462757948
 30
0.0
 10
417.3941441528881
 20
282.7055710302787
 30
0.0
 10
417.4007864796056
 20
282.6834256770025
 30
0.0
 10
417.4077413503152
 20
282.6634551795112
 30
0.0
 10
417.4153174319619
 20
282.6478074149256
 30
0.0
 10
417.4232064379098
 20
282.6343371525276
 30
0.0
 10
417.4272995534724
 20
282.628707105485
 30
0.0
 10
417.4399846887927
 20
282.6151835016598
 30
0.0
 10
417.4490010230235
 20
282.6106457296879
 30
0.0
 10
417.4679536075916
 20
282.6106182828984
 30
0.0
 10
417.477854247627
 20
282.6150955640886
 30
0.0
 10
417.4933419355081
 20
282.6285501750309
 30
0.0
 10
417.4986078899053
 20
282.6341638987691
 30
0.0
 10
417.5092761439226
 20
282.6475671964496
 30
0.0
 10
417.5146876612255
 20
282.6553639208228
 30
0.0
 10
417.5256656549865
 20
282.6731500473707
 30
0.0
 10
417.5312417193321
 20
282.6831588529051
 30
0.0
 10
417.5425024684171
 20
282.7053039373043
 30
0.0
 10
417.553856927628
 20
282.7295395883662
 30
0.0
 10
417.5653979097844
 20
282.7579363548685
 30
0.0
 10
417.5770329882254
 20
282.7884323027965
 30
0.0
 10
417.5828913417661
 20
282.8047173974281
 30
0.0
 10
417.5946165653483
 20
282.8391538395086
 30
0.0
 10
417.6004935780518
 20
282.8573311521867
 30
0.0
 10
417.6122764888278
 20
282.8956095247933
 30
0.0
 10
417.618193318477
 20
282.9157503274691
 30
0.0
 10
417.6358973619386
 20
282.9787795960915
 30
0.0
 10
417.6476254860983
 20
283.0242002006075
 30
0.0
 10
417.6651049877497
 20
283.0974704804574
 30
0.0
 10
417.6708981988952
 20
283.1226957749734
 30
0.0
 10
417.6823651541373
 20
283.1745122117369
 30
0.0
 10
417.6880470155482
 20
283.2011371128653
 30
0.0
 10
417.6993070532303
 20
283.2558265665483
 30
0.0
 10
417.7048951364081
 20
283.283944600001
 30
0.0
 10
417.7158947831265
 20
283.3412697829677
 30
0.0
 10
417.7213108337028
 20
283.3704948120356
 30
0.0
 10
417.7373081599852
 20
283.4598539027354
 30
0.0
 10
417.7476670550157
 20
283.5218637094198
 30
0.0
 10
417.7624785369109
 20
283.6169559430516
 30
0.0
 10
417.7673023050612
 20
283.6490404808131
 30
0.0
 10
417.7767217880247
 20
283.713988139719
 30
0.0
 10
417.7813208437894
 20
283.7468809023767
 30
0.0
 10
417.790220564156
 20
283.8129522585853
 30
0.0
 10
417.7945299958901
 20
283.8461889530035
 30
0.0
 10
417.8028682586801
 20
283.9130640077025
 30
0.0
 10
417.8069029875286
 20
283.9467542324064
 30
0.0
 10
417.8185386425838
 20
284.0480657287556
 30
0.0
 10
417.8256421307025
 20
284.1156363309865
 30
0.0
 10
417.8353177780433
 20
284.2170366033723
 30
0.0
 10
417.8383733492614
 20
284.2507899898043
 30
0.0
 10
417.8441117400486
 20
284.3178101961336
 30
0.0
 10
417.8468001060044
 20
284.3511342611514
 30
0.0
 10
417.8518151453473
 20
284.4174102802302
 30
0.0
 10
417.8541455030373
 20
284.4504229260727
 30
0.0
 10
417.8584136849517
 20
284.5156602069035
 30
0.0
 10
417.8603537295392
 20
284.5479046614721
 30
0.0
 10
417.8655953563138
 20
284.6435224715738
 30
0.0
 10
417.8683224394895
 20
284.7059523560865
 30
0.0
 10
417.871197830401
 20
284.7960510775463
 30
0.0
 10
417.8719566475068
 20
284.8255386084718
 30
0.0
 10
417.873074362308
 20
284.8834212068673
 30
0.0
 10
417.8734325946276
 20
284.9118351678085
 30
0.0
 10
417.8735881684066
 20
284.9394935136932
 30
0.0
  0
SPLINE
  5
191
330
1F
100
AcDbEntity
  8
1
100
AcDbSpline
210
0.0
220
0.0
230
1.0
 70
     8
 71
     3
 72
    52
 73
    48
 74
     0
 42
0.000000001
 43
0.0000000001
 40
0.0
 40
0.0
 40
0.0
 40
0.0
 40
0.0312499999999954
 40
0.0312499999999954
 40
0.0624999999999907
 40
0.0624999999999907
 40
0.1249999999999806
 40
0.1249999999999806
 40
0.1562499999999771
 40
0.1562499999999771
 40
0.1874999999999737
 40
0.2187499999999703
 40
0.2187499999999703
 40
0.2499999999999668
 40
0.2499999999999668
 40
0.3124999999999636
 40
0.3124999999999636
 40
0.3749999999999605
 40
0.3749999999999605
 40
0.406249999999961
 40
0.406249999999961
 40
0.4374999999999613
 40
0.4687499999999617
 40
0.4687499999999617
 40
0.4999999999999619
 40
0.4999999999999619
 40
0.5624999999999676
 40
0.5624999999999676
 40
0.5937499999999704
 40
0.5937499999999704
 40
0.6249999999999732
 40
0.6562499999999761
 40
0.6562499999999761
 40
0.6874999999999788
 40
0.6874999999999788
 40
0.7499999999999845
 40
0.7499999999999845
 40
0.8124999999999902
 40
0.8124999999999902
 40
0.8437499999999921
 40
0.8437499999999921
 40
0.8749999999999943
 40
0.9062499999999964
 40
0.9062499999999964
 40
0.9374999999999984
 40
0.9374999999999984
 40
1.0
 40
1.0
 40
1.0
 40
1.0
 10
417.8735881684066
 20
284.9394935136932
 30
0.0
 10
417.8711378957531
 20
284.964174210944
 30
0.0
 10
417.8685875257681
 20
284.9883143667076
 30
0.0
 10
417.8632868520252
 20
285.0355150041102
 30
0.0
 10
417.8605326739446
 20
285.0586056001426
 30
0.0
 10
417.8519954099778
 20
285.126023966629
 30
0.0
 10
417.8459580975683
 20
285.1683672020262
 30
0.0
 10
417.8363869649346
 20
285.2280051867365
 30
0.0
 10
417.8331053614653
 20
285.2472629992929
 30
0.0
 10
417.8264060190427
 20
285.2842628077563
 30
0.0
 10
417.8195660620887
 20
285.319782217645
 30
0.0
 10
417.8124463841667
 20
285.3523567076953
 30
0.0
 10
417.8051860895753
 20
285.3834507766582
 30
0.0
 10
417.8014850316451
 20
285.3982556556614
 30
0.0
 10
417.7902417344501
 20
285.4401619567921
 30
0.0
 10
417.7825368107876
 20
285.4648674745602
 30
0.0
 10
417.7667052523992
 20
285.5077693037149
 30
0.0
 10
417.7586382686666
 20
285.5257961643956
 30
0.0
 10
417.746348969009
 20
285.5476411012888
 30
0.0
 10
417.7422150367013
 20
285.5540650876767
 30
0.0
 10
417.7338969212103
 20
285.5651430147693
 30
0.0
 10
417.7255516545645
 20
285.5744238605236
 30
0.0
 10
417.7171524131146
 20
285.5801322205671
 30
0.0
 10
417.7087260549943
 20
285.5840457817277
 30
0.0
 10
417.7044923473244
 20
285.5851043414621
 30
0.0
 10
417.6918147634265
 20
285.585549640942
 30
0.0
 10
417.6833917378506
 20
285.5822321850409
 30
0.0
 10
417.6708004527132
 20
285.5718083594764
 30
0.0
 10
417.6666074790917
 20
285.567416297995
 30
0.0
 10
417.6582908930893
 20
285.5568586640151
 30
0.0
 10
417.6500305162183
 20
285.5445198319217
 30
0.0
 10
417.6418825293863
 20
285.5286194979427
 30
0.0
 10
417.6337913437421
 20
285.5109192042974
 30
0.0
 10
417.6297822042565
 20
285.5011838631434
 30
0.0
 10
417.6179164946378
 20
285.4694586481102
 30
0.0
 10
417.6101933477053
 20
285.4448894483233
 30
0.0
 10
417.5951676984478
 20
285.3889523455942
 30
0.0
 10
417.5879277827696
 20
285.3578247157648
 30
0.0
 10
417.5774769454354
 20
285.3063984413583
 30
0.0
 10
417.5740561839025
 20
285.2884324743761
 30
0.0
 10
417.5673903476198
 20
285.2511046132051
 30
0.0
 10
417.5608966004388
 20
285.2123720739922
 30
0.0
 10
417.5547458693854
 20
285.1708396641393
 30
0.0
 10
417.5487679769551
 20
285.1278964582695
 30
0.0
 10
417.5458663174725
 20
285.1057197445361
 30
0.0
 10
417.537480837291
 20
285.0375235812
 30
0.0
 10
417.5322944278211
 20
284.9896996532908
 30
0.0
 10
417.5275157617713
 20
284.9394935136934
 30
0.0
  0
SPLINE
  5
192
330
1F
100
AcDbEntity
  8
1
100
AcDbSpline
210
0.0
220
0.0
230
1.0
 70
     8
 71
     3
 72
    10
 73
     6
 74
     0
 42
0.000000001
 43
0.0000000001
 40
0.0
 40
0.0
 40
0.0
 40
0.0
 40
0.5
 40
0.5
 40
1.0
 40
1.0
 40
1.0
 40
1.0
 10
411.4678419452957
 20
290.3554498941171
 30
0.0
 10
411.5864088587732
 20
290.3554331576304
 30
0.0
 10
411.7034522552542
 20
290.3588939618559
 30
0.0
 10
411.9344763210813
 20
290.3725520662458
 30
0.0
 10
412.0484607837421
 20
290.3827465026692
 30
0.0
 10
412.160721779302
 20
290.3964160885781
 30
0.0
  0
SPLINE
  5
193
330
1F
100
AcDbEntity
  8
1
100
AcDbSpline
210
0.0
220
0.0
230
1.0
 70
     8
 71
     3
 72
    14
 73
    10
 74
     0
 42
0.000000001
 43
0.0000000001
 40
0.0
 40
0.0
 40
0.0
 40
0.0
 40
0.25
 40
0.25
 40
0.5
 40
0.5
 40
0.75
 40
0.75
 40
1.0
 40
1.0
 40
1.0
 40
1.0
 10
296.6001331503871
 20
300.1772962968975
 30
0.0
 10
296.2158789745178
 20
300.198197191226
 30
0.0
 10
295.8330266611674
 20
300.2186520750775
 30
0.0
 10
295.0692355244502
 20
300.2573965230603
 30
0.0
 10
294.6882925636745
 20
300.2756859695568
 30
0.0
 10
293.9276457296219
 20
300.3092361318862
 30
0.0
 10
293.5479393288805
 20
300.3245008406496
 30
0.0
 10
292.7894214233399
 20
300.3514971512554
 30
0.0
 10
292.410609928405
 20
300.3632354589871
 30
0.0
 10
292.0322589432873
 20
300.3730509474414
 30
0.0
  0
SPLINE
  5
194
330
1F
100
AcDbEntity
  8
1
100
AcDbSpline
210
0.0
220
0.0
230
1.0
 70
    24
 71
     3
 72
    14
 73
    10
 74
     0
 42
0.000000001
 43
0.0000000001
 40
0.0
 40
0.0
 40
0.0
 40
0.0
 40
0.25
 40
0.25
 40
0.5
 40
0.5
 40
0.75
 40
0.75
 40
1.0
 40
1.0
 40
1.0
 40
1.0
 10
411.4678419452957
 20
290.9520285338785
 30
0.0
 10
411.4678419452957
 20
290.8535398380806
 30
0.0
 10
411.4678419452957
 20
290.7666196484425
 30
0.0
 10
411.4678419452957
 20
290.6170294843473
 30
0.0
 10
411.4678419452957
 20
290.5543599201552
 30
0.0
 10
411.4678419452957
 20
290.4540744481203
 30
0.0
 10
411.4678419452957
 20
290.4164588153197
 30
0.0
 10
411.4678419452957
 20
290.366763506483
 30
0.0
 10
411.4678419452957
 20
290.3546839667407
 30
0.0
 10
411.4678419452957
 20
290.3554498941184
 30
0.0
  0
SPLINE
  5
195
330
1F
100
AcDbEntity
  8
1
100
AcDbSpline
210
0.0
220
0.0
230
1.0
 70
     8
 71
     3
 72
    24
 73
    20
 74
     0
 42
0.000000001
 43
0.0000000001
 40
0.0
 40
0.0
 40
0.0
 40
0.0
 40
0.250000000000008
 40
0.250000000000008
 40
0.3750000000000067
 40
0.3750000000000067
 40
0.5000000000000055
 40
0.5000000000000055
 40
0.6250000000000041
 40
0.6250000000000041
 40
0.7500000000000028
 40
0.7500000000000028
 40
0.8125000000000021
 40
0.8125000000000021
 40
0.8750000000000014
 40
0.8750000000000014
 40
0.9375000000000007
 40
0.9375000000000007
 40
1.0
 40
1.0
 40
1.0
 40
1.0
 10
406.4744242670706
 20
292.7978617875602
 30
0.0
 10
406.8808785213251
 20
292.5595363986865
 30
0.0
 10
407.2879251237802
 20
292.344261362279
 30
0.0
 10
407.9000626901143
 20
292.0523677706601
 30
0.0
 10
408.1043678857537
 20
291.9602610169754
 30
0.0
 10
408.5136831928544
 20
291.7860689684061
 30
0.0
 10
408.7186869416905
 20
291.7039822643587
 30
0.0
 10
409.1297748072883
 20
291.5496305871776
 30
0.0
 10
409.3359441345996
 20
291.4773695783231
 30
0.0
 10
409.7506842193941
 20
291.3428173219215
 30
0.0
 10
409.9592204456176
 20
291.2805155725278
 30
0.0
 10
410.2751432842555
 20
291.1949655348081
 30
0.0
 10
410.380977876438
 20
291.1677700970832
 30
0.0
 10
410.5940674457561
 20
291.1161698393972
 30
0.0
 10
410.7012507269158
 20
291.0917830627732
 30
0.0
 10
410.9169493368491
 20
291.0461408235485
 30
0.0
 10
411.0255220630683
 20
291.0248682437152
 30
0.0
 10
411.2448134197267
 20
290.9857491483754
 30
0.0
 10
411.3555255664677
 20
290.9678988947409
 30
0.0
 10
411.4678419452957
 20
290.9520285338785
 30
0.0
  0
SPLINE
  5
196
330
1F
100
AcDbEntity
  8
1
100
AcDbSpline
210
0.0
220
0.0
230
1.0
 70
     8
 71
     3
 72
     8
 73
     4
 74
     0
 42
0.000000001
 43
0.0000000001
 40
0.0
 40
0.0
 40
0.0
 40
0.0
 40
1.0
 40
1.0
 40
1.0
 40
1.0
 10
293.3452852017913
 20
284.2314540954522
 30
0.0
 10
292.9115703659443
 20
284.3360507490947
 30
0.0
 10
292.4742594032904
 20
284.4304685807538
 30
0.0
 10
292.0322589432653
 20
284.5108262950096
 30
0.0
  0
SPLINE
  5
197
330
1F
100
AcDbEntity
  8
1
100
AcDbSpline
210
0.0
220
0.0
230
1.0
 70
     8
 71
     3
 72
    12
 73
     8
 74
     0
 42
0.000000001
 43
0.0000000001
 40
0.0
 40
0.0
 40
0.0
 40
0.0
 40
0.3017368219438933
 40
0.3017368219438933
 40
0.6508684109719466
 40
0.6508684109719466
 40
1.0
 40
1.0
 40
1.0
 40
1.0
 10
289.7025057724451
 20
300.5785185275945
 30
0.0
 10
289.9307171852907
 20
300.5449010420935
 30
0.0
 10
290.1606459424204
 20
300.5148143079519
 30
0.0
 10
290.6605425351265
 20
300.4582011799465
 30
0.0
 10
290.9311260084884
 20
300.4329748760109
 30
0.0
 10
291.4775855338276
 20
300.3940170749724
 30
0.0
 10
291.7534606611334
 20
300.3802837588433
 30
0.0
 10
292.032258943287
 20
300.3730509474407
 30
0.0
  0
SPLINE
  5
198
330
1F
100
AcDbEntity
  8
1
100
AcDbSpline
210
0.0
220
0.0
230
1.0
 70
     8
 71
     3
 72
    12
 73
     8
 74
     0
 42
0.000000001
 43
0.0000000001
 40
0.0
 40
0.0
 40
0.0
 40
0.0
 40
0.3216674082771889
 40
0.5879456945633402
 40
0.7985988658445836
 40
0.9535039663992709
 40
1.0
 40
1.0
 40
1.0
 40
1.0
 10
418.4932815918098
 20
300.6369019941524
 30
0.0
 10
418.4846827519315
 20
300.6406811295832
 30
0.0
 10
418.4686283624341
 20
300.6477416523343
 30
0.0
 10
418.4448366231309
 20
300.6582110461625
 30
0.0
 10
418.4271018311838
 20
300.6660304066833
 30
0.0
 10
418.4188280930866
 20
300.6696104974143
 30
0.0
 10
418.4166447337544
 20
300.6705315241645
 30
0.0
 10
418.4165148339148
 20
300.6705580714645
 30
0.0
  0
SPLINE
  5
199
330
1F
100
AcDbEntity
  8
1
100
AcDbSpline
210
0.0
220
0.0
230
1.0
 70
     8
 71
     3
 72
    11
 73
     7
 74
     0
 42
0.000000001
 43
0.0000000001
 40
0.0
 40
0.0
 40
0.0
 40
0.0
 40
0.021020286784742
 40
0.2895905242871505
 40
0.6158707874651973
 40
1.0
 40
1.0
 40
1.0
 40
1.0
 10
418.5265880959141
 20
300.6004914854142
 30
0.0
 10
418.5266019599873
 20
300.6005097126261
 30
0.0
 10
418.5266561459642
 20
300.6008823981085
 30
0.0
 10
418.523125862015
 20
300.6049821926142
 30
0.0
 10
418.5112048170058
 20
300.6177155205149
 30
0.0
 10
418.5002039516317
 20
300.629514035212
 30
0.0
 10
418.4932815918098
 20
300.6369019941524
 30
0.0
  0
SPLINE
  5
19A
330
1F
100
AcDbEntity
  8
1
100
AcDbSpline
210
0.0
220
0.0
230
1.0
 70
     8
 71
     3
 72
    14
 73
    10
 74
     0
 42
0.000000001
 43
0.0000000001
 40
0.0
 40
0.0
 40
0.0
 40
0.0
 40
0.25
 40
0.25
 40
0.5
 40
0.5
 40
0.75
 40
0.75
 40
1.0
 40
1.0
 40
1.0
 40
1.0
 10
415.8413265228309
 20
296.1102058788325
 30
0.0
 10
415.8480994847655
 20
296.1127120708034
 30
0.0
 10
415.8551171527241
 20
296.114432160419
 30
0.0
 10
415.8691096964311
 20
296.1162923011309
 30
0.0
 10
415.8761012735469
 20
296.1164534135607
 30
0.0
 10
415.8900795608529
 20
296.1152862172935
 30
0.0
 10
415.8970557358125
 20
296.113936385519
 30
0.0
 10
415.9103811582423
 20
296.1098753656921
 30
0.0
 10
415.9168139414833
 20
296.1071614772055
 30
0.0
 10
415.923009862471
 20
296.1037420707243
 30
0.0
  0
SPLINE
  5
19B
330
1F
100
AcDbEntity
  8
1
100
AcDbSpline
210
0.0
220
0.0
230
1.0
 70
     8
 71
     3
 72
    21
 73
    17
 74
     0
 42
0.000000001
 43
0.0000000001
 40
0.0
 40
0.0
 40
0.0
 40
0.0
 40
0.2499999999998925
 40
0.2499999999998925
 40
0.3124999999998689
 40
0.3124999999998689
 40
0.3749999999998453
 40
0.3749999999998453
 40
0.4999999999997942
 40
0.624999999999743
 40
0.624999999999743
 40
0.6874999999997189
 40
0.6874999999997189
 40
0.7499999999996949
 40
0.7499999999996949
 40
1.0
 40
1.0
 40
1.0
 40
1.0
 10
415.5082834214561
 20
295.7471137623547
 30
0.0
 10
415.5201644179554
 20
295.7883464915752
 30
0.0
 10
415.5364683910141
 20
295.8277111287359
 30
0.0
 10
415.5625194661952
 20
295.874569834727
 30
0.0
 10
415.5680169315342
 20
295.8838226382917
 30
0.0
 10
415.579605580975
 20
295.9020833331193
 30
0.0
 10
415.585713911404
 20
295.9111113029626
 30
0.0
 10
415.6046701691198
 20
295.937419565919
 30
0.0
 10
415.6317685972298
 20
295.9706846331819
 30
0.0
 10
415.6624307383648
 20
296.0004026391843
 30
0.0
 10
415.6867876677742
 20
296.0213388746067
 30
0.0
 10
415.6951650444386
 20
296.0281147532148
 30
0.0
 10
415.7122224557098
 20
296.0410825810681
 30
0.0
 10
415.7208844932341
 20
296.047264430822
 30
0.0
 10
415.7648431004834
 20
296.0767165594476
 30
0.0
 10
415.8020565589181
 20
296.0956748554478
 30
0.0
 10
415.8413265228309
 20
296.1102058788327
 30
0.0
  0
SPLINE
  5
19C
330
1F
100
AcDbEntity
  8
1
100
AcDbSpline
210
0.0
220
0.0
230
1.0
 70
     8
 71
     3
 72
     8
 73
     4
 74
     0
 42
0.000000001
 43
0.0000000001
 40
0.0
 40
0.0
 40
0.0
 40
0.0
 40
1.0
 40
1.0
 40
1.0
 40
1.0
 10
415.8883710821013
 20
297.2683673943821
 30
0.0
 10
415.8832020190245
 20
297.263283649977
 30
0.0
 10
415.8774782348706
 20
297.2588297769568
 30
0.0
 10
415.8712047902713
 20
297.2550015782696
 30
0.0
  0
SPLINE
  5
19D
330
1F
100
AcDbEntity
  8
1
100
AcDbSpline
210
0.0
220
0.0
230
1.0
 70
     8
 71
     3
 72
    14
 73
    10
 74
     0
 42
0.000000001
 43
0.0000000001
 40
0.0
 40
0.0
 40
0.0
 40
0.0
 40
0.1653519721316929
 40
0.1653519721316929
 40
0.4435679814211286
 40
0.4435679814211286
 40
0.7217839907105644
 40
0.7217839907105644
 40
1.0
 40
1.0
 40
1.0
 40
1.0
 10
415.8284365585585
 20
297.1967116638477
 30
0.0
 10
415.8294497278745
 20
297.2008029710038
 30
0.0
 10
415.8307237248413
 20
297.2047952394405
 30
0.0
 10
415.8347718227114
 20
297.2151095125892
 30
0.0
 10
415.8379662388014
 20
297.2211866853688
 30
0.0
 10
415.8456274494611
 20
297.2325853200689
 30
0.0
 10
415.8501076492703
 20
297.2378868908086
 30
0.0
 10
415.8599349691304
 20
297.2472656500723
 30
0.0
 10
415.8653242091746
 20
297.2514131138338
 30
0.0
 10
415.8712047902713
 20
297.2550015782696
 30
0.0
  0
SPLINE
  5
19E
330
1F
100
AcDbEntity
  8
1
100
AcDbSpline
210
0.0
220
0.0
230
1.0
 70
     8
 71
     3
 72
    21
 73
    17
 74
     0
 42
0.000000001
 43
0.0000000001
 40
0.0
 40
0.0
 40
0.0
 40
0.0
 40
0.2499999999998253
 40
0.2499999999998253
 40
0.3124999999997121
 40
0.3124999999997121
 40
0.3749999999995991
 40
0.3749999999995991
 40
0.4999999999995194
 40
0.6249999999994398
 40
0.6249999999994398
 40
0.6874999999994791
 40
0.6874999999994791
 40
0.7499999999995186
 40
0.7499999999995186
 40
1.0
 40
1.0
 40
1.0
 40
1.0
 10
415.5041013984003
 20
295.5359717879174
 30
0.0
 10
415.4731648830861
 20
295.506059746135
 30
0.0
 10
415.4392587076837
 20
295.4801288964655
 30
0.0
 10
415.3931665919129
 20
295.4526897260714
 30
0.0
 10
415.3837393979726
 20
295.4474444826539
 30
0.0
 10
415.3647193890629
 20
295.4375775418069
 30
0.0
 10
415.3551053239496
 20
295.4329416564493
 30
0.0
 10
415.3259566024017
 20
295.4199104696071
 30
0.0
 10
415.2862762057471
 20
295.4048671472344
 30
0.0
 10
415.2449759001623
 20
295.3944551996995
 30
0.0
 10
415.2133729519989
 20
295.3884410935405
 30
0.0
 10
415.2027538357788
 20
295.3867425641645
 30
0.0
 10
415.1815845683707
 20
295.3839874982504
 30
0.0
 10
415.1710012211428
 20
295.3829242693093
 30
0.0
 10
415.1180910106289
 20
295.379151450252
 30
0.0
 10
415.0757832030178
 20
295.3810110225538
 30
0.0
 10
415.0335009398886
 20
295.387881103818
 30
0.0
  0
SPLINE
  5
19F
330
1F
100
AcDbEntity
  8
1
100
AcDbSpline
210
0.0
220
0.0
230
1.0
 70
     8
 71
     3
 72
    21
 73
    17
 74
     0
 42
0.000000001
 43
0.0000000001
 40
0.0
 40
0.0
 40
0.0
 40
0.0
 40
0.2499999999999349
 40
0.2499999999999349
 40
0.3124999999998785
 40
0.3124999999998785
 40
0.3749999999998221
 40
0.3749999999998221
 40
0.4999999999997089
 40
0.6249999999995957
 40
0.6249999999995957
 40
0.6874999999996147
 40
0.6874999999996147
 40
0.7499999999996339
 40
0.7499999999996339
 40
1.0
 40
1.0
 40
1.0
 40
1.0
 10
414.4308101705179
 20
295.6663382034632
 30
0.0
 10
414.4720404174523
 20
295.6771395430035
 30
0.0
 10
414.5139687843888
 20
295.6830882817727
 30
0.0
 10
414.5673415663533
 20
295.6843017599965
 30
0.0
 10
414.5780647906974
 20
295.6842292796078
 30
0.0
 10
414.5996131157359
 20
295.6834328696288
 30
0.0
 10
414.6104641123291
 20
295.6827041739382
 30
0.0
 10
414.6426884405579
 20
295.67955838738
 30
0.0
 10
414.6850685829352
 20
295.6728131034648
 30
0.0
 10
414.7263028858541
 20
295.6610776849739
 30
0.0
 10
414.7567917008901
 20
295.6503730043784
 30
0.0
 10
414.7669174855008
 20
295.6464712336586
 30
0.0
 10
414.7868308578552
 20
295.6380983179741
 30
0.0
 10
414.7966006639133
 20
295.6336377881248
 30
0.0
 10
414.8445497158039
 20
295.6100095741318
 30
0.0
 10
414.8800651365778
 20
295.5869204979054
 30
0.0
 10
414.9128709733506
 20
295.5597466759731
 30
0.0
  0
SPLINE
  5
1A0
330
1F
100
AcDbEntity
  8
1
100
AcDbSpline
210
0.0
220
0.0
230
1.0
 70
     8
 71
     3
 72
    14
 73
    10
 74
     0
 42
0.000000001
 43
0.0000000001
 40
0.0
 40
0.0
 40
0.0
 40
0.0
 40
0.25
 40
0.25
 40
0.5
 40
0.5
 40
0.75
 40
0.75
 40
1.0
 40
1.0
 40
1.0
 40
1.0
 10
414.3657245508499
 20
295.6136884743782
 30
0.0
 10
414.3690063756375
 20
295.6200876745822
 30
0.0
 10
414.3729458799928
 20
295.6261371994559
 30
0.0
 10
414.3819478319564
 20
295.6372649007472
 30
0.0
 10
414.3869686183302
 20
295.6423098119508
 30
0.0
 10
414.3980630538445
 20
295.6513518090178
 30
0.0
 10
414.4041768038261
 20
295.6553500550755
 30
0.0
 10
414.4169689511717
 20
295.6618834160982
 30
0.0
 10
414.423704222302
 20
295.6644766148204
 30
0.0
 10
414.4308101705179
 20
295.6663382034632
 30
0.0
  0
SPLINE
  5
1A1
330
1F
100
AcDbEntity
  8
1
100
AcDbSpline
210
0.0
220
0.0
230
1.0
 70
     8
 71
     3
 72
    22
 73
    18
 74
     0
 42
0.000000001
 43
0.0000000001
 40
0.0
 40
0.0
 40
0.0
 40
0.0
 40
0.125
 40
0.125
 40
0.25
 40
0.25
 40
0.375
 40
0.375
 40
0.5
 40
0.5
 40
0.625
 40
0.625
 40
0.75
 40
0.75
 40
0.875
 40
0.875
 40
1.0
 40
1.0
 40
1.0
 40
1.0
 10
414.3657245508496
 20
295.6136884743774
 30
0.0
 10
414.3631012100579
 20
295.6085732461081
 30
0.0
 10
414.3600646324176
 20
295.6036953057065
 30
0.0
 10
414.3532951797986
 20
295.5945684511923
 30
0.0
 10
414.3495503850675
 20
295.59029431379
 30
0.0
 10
414.3413202968561
 20
295.5823421037272
 30
0.0
 10
414.3368291566636
 20
295.578673471823
 30
0.0
 10
414.3273940235323
 20
295.5722059343774
 30
0.0
 10
414.3224154899773
 20
295.5693699486572
 30
0.0
 10
414.3119146875052
 20
295.5645295857436
 30
0.0
 10
414.3064096150489
 20
295.5625447821113
 30
0.0
 10
414.2952349908249
 20
295.559581688218
 30
0.0
 10
414.2895197464652
 20
295.558580011603
 30
0.0
 10
414.2778197990565
 20
295.5575927863259
 30
0.0
 10
414.2719240265368
 20
295.557622197898
 30
0.0
 10
414.2602886471183
 20
295.5587198001699
 30
0.0
 10
414.2545107130478
 20
295.559783895918
 30
0.0
 10
414.2487754350808
 20
295.5613967469201
 30
0.0
  0
SPLINE
  5
1A2
330
1F
100
AcDbEntity
  8
1
100
AcDbSpline
210
0.0
220
0.0
230
1.0
 70
     8
 71
     3
 72
    14
 73
    10
 74
     0
 42
0.000000001
 43
0.0000000001
 40
0.0
 40
0.0
 40
0.0
 40
0.0
 40
0.25
 40
0.25
 40
0.5
 40
0.5
 40
0.75
 40
0.75
 40
1.0
 40
1.0
 40
1.0
 40
1.0
 10
413.7439134936567
 20
296.5855759164448
 30
0.0
 10
413.7509780846161
 20
296.5860620660958
 30
0.0
 10
413.7580694911008
 20
296.5858054273762
 30
0.0
 10
413.7719770989888
 20
296.5838311079007
 30
0.0
 10
413.7787453895243
 20
296.5821319144769
 30
0.0
 10
413.7919093875708
 20
296.5772922041868
 30
0.0
 10
413.7983251608768
 20
296.5741182476663
 30
0.0
 10
413.8101905206885
 20
296.5665325818817
 30
0.0
 10
413.815717707409
 20
296.5621019816726
 30
0.0
 10
413.8208058448431
 20
296.5569760458457
 30
0.0
  0
SPLINE
  5
1A3
330
1F
100
AcDbEntity
  8
1
100
AcDbSpline
210
0.0
220
0.0
230
1.0
 70
     8
 71
     3
 72
    20
 73
    16
 74
     0
 42
0.000000001
 43
0.0000000001
 40
0.0
 40
0.0
 40
0.0
 40
0.0
 40
0.125000000000025
 40
0.125000000000025
 40
0.2500000000000501
 40
0.2500000000000501
 40
0.3750000000000751
 40
0.3750000000000751
 40
0.5000000000001002
 40
0.5000000000001002
 40
0.6250000000001253
 40
0.6250000000001253
 40
0.7500000000001503
 40
0.7500000000001503
 40
1.0
 40
1.0
 40
1.0
 40
1.0
 10
415.0335009398887
 20
295.3878811038178
 30
0.0
 10
415.0276157712383
 20
295.3888373342533
 30
0.0
 10
415.0219167674434
 20
295.3903114603752
 30
0.0
 10
415.0108715032919
 20
295.3942392226283
 30
0.0
 10
415.0054753370343
 20
295.3967246855062
 30
0.0
 10
414.9953266174535
 20
295.4025427376474
 30
0.0
 10
414.9905826745678
 20
295.405855459737
 30
0.0
 10
414.9817235246981
 20
295.4132469964181
 30
0.0
 10
414.9775755353048
 20
295.4173670973477
 30
0.0
 10
414.9700997141166
 20
295.426196216112
 30
0.0
 10
414.9667916123954
 20
295.4308656552862
 30
0.0
 10
414.9609908479453
 20
295.4406863579765
 30
0.0
 10
414.9584885965102
 20
295.4458637963033
 30
0.0
 10
414.9523094781355
 20
295.4619700489268
 30
0.0
 10
414.9500444906151
 20
295.4730887044993
 30
0.0
 10
414.9496116631033
 20
295.4845814845313
 30
0.0
  0
SPLINE
  5
1A4
330
1F
100
AcDbEntity
  8
1
100
AcDbSpline
210
0.0
220
0.0
230
1.0
 70
     8
 71
     3
 72
    21
 73
    17
 74
     0
 42
0.000000001
 43
0.0000000001
 40
0.0
 40
0.0
 40
0.0
 40
0.0
 40
0.249999999999897
 40
0.249999999999897
 40
0.3124999999998707
 40
0.3124999999998707
 40
0.3749999999998443
 40
0.3749999999998443
 40
0.4999999999999237
 40
0.6250000000000031
 40
0.6250000000000031
 40
0.687499999999988
 40
0.687499999999988
 40
0.7499999999999729
 40
0.7499999999999729
 40
1.0
 40
1.0
 40
1.0
 40
1.0
 10
414.2487754350808
 20
295.5613967469201
 30
0.0
 10
414.2075214039996
 20
295.5729980338592
 30
0.0
 10
414.1681807564636
 20
295.5892035903009
 30
0.0
 10
414.1214001342543
 20
295.6152089384613
 30
0.0
 10
414.1121467966049
 20
295.6207144989981
 30
0.0
 10
414.0940914634159
 20
295.6321865004904
 30
0.0
 10
414.0852665426958
 20
295.6381641733589
 30
0.0
 10
414.0593889653766
 20
295.6568089632361
 30
0.0
 10
414.0264741770389
 20
295.6835621391617
 30
0.0
 10
413.9967152105988
 20
295.7140763361818
 30
0.0
 10
413.9756189488103
 20
295.7384195931327
 30
0.0
 10
413.9688068029628
 20
295.7467632303156
 30
0.0
 10
413.955767863784
 20
295.7637174585117
 30
0.0
 10
413.9495186095324
 20
295.7723534078391
 30
0.0
 10
413.9195991491972
 20
295.816313039022
 30
0.0
 10
413.8998571345561
 20
295.8539457030209
 30
0.0
 10
413.8844220907488
 20
295.8941093722887
 30
0.0
  0
SPLINE
  5
1A5
330
1F
100
AcDbEntity
  8
1
100
AcDbSpline
210
0.0
220
0.0
230
1.0
 70
     8
 71
     3
 72
    14
 73
    10
 74
     0
 42
0.000000001
 43
0.0000000001
 40
0.0
 40
0.0
 40
0.0
 40
0.0
 40
0.25
 40
0.25
 40
0.5
 40
0.5
 40
0.75
 40
0.75
 40
1.0
 40
1.0
 40
1.0
 40
1.0
 10
414.9128709733506
 20
295.5597466759731
 30
0.0
 10
414.9185291117171
 20
295.555059911069
 30
0.0
 10
414.923639568599
 20
295.5497579263223
 30
0.0
 10
414.9324826329846
 20
295.5383876682438
 30
0.0
 10
414.936241249268
 20
295.5323162475013
 30
0.0
 10
414.9424764698155
 20
295.5194225004154
 30
0.0
 10
414.9449297915741
 20
295.5125968545498
 30
0.0
 10
414.9483415065468
 20
295.4988075566594
 30
0.0
 10
414.9493409763296
 20
295.4917689748434
 30
0.0
 10
414.9496116631033
 20
295.4845814845313
 30
0.0
  0
SPLINE
  5
1A6
330
1F
100
AcDbEntity
  8
1
100
AcDbSpline
210
0.0
220
0.0
230
1.0
 70
     8
 71
     3
 72
    21
 73
    17
 74
     0
 42
0.000000001
 43
0.0000000001
 40
0.0
 40
0.0
 40
0.0
 40
0.0
 40
0.2500000000001052
 40
0.2500000000001052
 40
0.3125000000001326
 40
0.3125000000001326
 40
0.37500000000016
 40
0.37500000000016
 40
0.5000000000001489
 40
0.6250000000001378
 40
0.6250000000001378
 40
0.6875000000001195
 40
0.6875000000001195
 40
0.7500000000001013
 40
0.7500000000001013
 40
1.0
 40
1.0
 40
1.0
 40
1.0
 10
413.8208058448431
 20
296.5569760458457
 30
0.0
 10
413.8503265607458
 20
296.5272360285514
 30
0.0
 10
413.8760877413936
 20
296.494372705772
 30
0.0
 10
413.9035276404885
 20
296.4492064601533
 30
0.0
 10
413.9087743734398
 20
296.4399662860239
 30
0.0
 10
413.9187703313742
 20
296.421056669932
 30
0.0
 10
413.9235284449957
 20
296.411362353165
 30
0.0
 10
413.9368335617156
 20
296.3820570163978
 30
0.0
 10
413.9521398617758
 20
296.3421456041506
 30
0.0
 10
413.9626874668135
 20
296.3005934987722
 30
0.0
 10
413.9687824861576
 20
296.2688045358623
 30
0.0
 10
413.9705154272975
 20
296.2580649514792
 30
0.0
 10
413.9733350653902
 20
296.2365765818571
 30
0.0
 10
413.9744218270966
 20
296.2258489853727
 30
0.0
 10
413.9782938992563
 20
296.1722890501251
 30
0.0
 10
413.9764588889652
 20
296.1296884047453
 30
0.0
 10
413.9698235463011
 20
296.0872924018777
 30
0.0
  0
SPLINE
  5
1A7
330
1F
100
AcDbEntity
  8
1
100
AcDbSpline
210
0.0
220
0.0
230
1.0
 70
     8
 71
     3
 72
    22
 73
    18
 74
     0
 42
0.000000001
 43
0.0000000001
 40
0.0
 40
0.0
 40
0.0
 40
0.0
 40
0.125
 40
0.125
 40
0.25
 40
0.25
 40
0.375
 40
0.375
 40
0.5
 40
0.5
 40
0.625
 40
0.625
 40
0.75
 40
0.75
 40
0.875
 40
0.875
 40
1.0
 40
1.0
 40
1.0
 40
1.0
 10
413.7439134936567
 20
296.5855759164448
 30
0.0
 10
413.7382661744618
 20
296.5851872963151
 30
0.0
 10
413.7326170724216
 20
296.5852744630239
 30
0.0
 10
413.7215119805985
 20
296.5863684865137
 30
0.0
 10
413.716028544293
 20
296.5873725400328
 30
0.0
 10
413.7052049204607
 20
296.5903209064438
 30
0.0
 10
413.6998695761848
 20
296.5922751861086
 30
0.0
 10
413.6897170989317
 20
296.5970185539443
 30
0.0
 10
413.6848513666723
 20
296.5998180966128
 30
0.0
 10
413.675561192585
 20
296.6063096874087
 30
0.0
 10
413.6711615796491
 20
296.6099973418835
 30
0.0
 10
413.6631397685116
 20
296.6180303492412
 30
0.0
 10
413.6594750950161
 20
296.62240278615
 30
0.0
 10
413.6528799022682
 20
296.6318996948424
 30
0.0
 10
413.6500055910942
 20
296.6369562951463
 30
0.0
 10
413.6452203283093
 20
296.6474686058485
 30
0.0
 10
413.6432869088661
 20
296.6529551565082
 30
0.0
 10
413.6418427515558
 20
296.6586866464556
 30
0.0
  0
SPLINE
  5
1A8
330
1F
100
AcDbEntity
  8
1
100
AcDbSpline
210
0.0
220
0.0
230
1.0
 70
     8
 71
     3
 72
    14
 73
    10
 74
     0
 42
0.000000001
 43
0.0000000001
 40
0.0
 40
0.0
 40
0.0
 40
0.0
 40
0.643137547329544
 40
0.643137547329544
 40
0.8039219341619428
 40
0.8039219341619428
 40
0.964706320994342
 40
0.964706320994342
 40
1.0
 40
1.0
 40
1.0
 40
1.0
 10
413.6418427515558
 20
296.6586866464556
 30
0.0
 10
413.6314546065984
 20
296.6999145293059
 30
0.0
 10
413.6259675562394
 20
296.7418387621372
 30
0.0
 10
413.6252348555306
 20
296.7951043468637
 30
0.0
 10
413.6254009120134
 20
296.8058236094214
 30
0.0
 10
413.6263522343371
 20
296.8271087469335
 30
0.0
 10
413.6271358436517
 20
296.837700019966
 30
0.0
 10
413.6284601861926
 20
296.8505547196934
 30
0.0
 10
413.6287131001688
 20
296.8528661184692
 30
0.0
 10
413.6289805379432
 20
296.8551750962233
 30
0.0
  0
SPLINE
  5
1A9
330
1F
100
AcDbEntity
  8
1
100
AcDbSpline
210
0.0
220
0.0
230
1.0
 70
     8
 71
     3
 72
    14
 73
    10
 74
     0
 42
0.000000001
 43
0.0000000001
 40
0.0
 40
0.0
 40
0.0
 40
0.0
 40
0.25
 40
0.25
 40
0.5
 40
0.5
 40
0.75
 40
0.75
 40
1.0
 40
1.0
 40
1.0
 40
1.0
 10
414.2759955337103
 20
297.6077284341433
 30
0.0
 10
414.2798232721368
 20
297.6019957735982
 30
0.0
 10
414.2830194776216
 20
297.5958696550596
 30
0.0
 10
414.2880126001529
 20
297.5831193359057
 30
0.0
 10
414.289802221527
 20
297.5765453188919
 30
0.0
 10
414.2919525460018
 20
297.5629918561594
 30
0.0
 10
414.2922939827019
 20
297.5559783012441
 30
0.0
 10
414.2914389510761
 20
297.5421486651597
 30
0.0
 10
414.2902635325878
 20
297.5352576175313
 30
0.0
 10
414.2882747701064
 20
297.5283894471195
 30
0.0
  0
SPLINE
  5
1AA
330
1F
100
AcDbEntity
  8
1
100
AcDbSpline
210
0.0
220
0.0
230
1.0
 70
     8
 71
     3
 72
    10
 73
     6
 74
     0
 42
0.000000001
 43
0.0000000001
 40
0.0
 40
0.0
 40
0.0
 40
0.0
 40
0.5443268977711902
 40
0.5443268977711902
 40
1.0
 40
1.0
 40
1.0
 40
1.0
 10
414.2759955337098
 20
297.6077284341445
 30
0.0
 10
414.2729358101624
 20
297.612310867557
 30
0.0
 10
414.2702880948961
 20
297.6171321223363
 30
0.0
 10
414.2662417063871
 20
297.6262620166344
 30
0.0
 10
414.2646989355574
 20
297.6305414576385
 30
0.0
 10
414.2634646969118
 20
297.6349426541247
 30
0.0
  0
SPLINE
  5
1AB
330
1F
100
AcDbEntity
  8
1
100
AcDbSpline
210
0.0
220
0.0
230
1.0
 70
     8
 71
     3
 72
    14
 73
    10
 74
     0
 42
0.000000001
 43
0.0000000001
 40
0.0
 40
0.0
 40
0.0
 40
0.0
 40
0.0248250190554957
 40
0.0248250190554957
 40
0.1873541825462767
 40
0.1873541825462767
 40
0.3498833460370581
 40
0.3498833460370581
 40
1.0
 40
1.0
 40
1.0
 40
1.0
 10
416.1398083346909
 20
296.2972345614342
 30
0.0
 10
416.1392883911892
 20
296.2956888633161
 30
0.0
 10
416.1387612953197
 20
296.2941445798418
 30
0.0
 10
416.1347291954601
 20
296.2825005901382
 30
0.0
 10
416.1309279474307
 20
296.272481217604
 30
0.0
 10
416.1228110970061
 20
296.2528260225472
 30
0.0
 10
416.1184848116743
 20
296.2431582464267
 30
0.0
 10
416.0955383836903
 20
296.1956043795062
 30
0.0
 10
416.0730246922205
 20
296.1600420998589
 30
0.0
 10
416.0462475640152
 20
296.127033418982
 30
0.0
  0
SPLINE
  5
1AC
330
1F
100
AcDbEntity
  8
1
100
AcDbSpline
210
0.0
220
0.0
230
1.0
 70
     8
 71
     3
 72
    20
 73
    16
 74
     0
 42
0.000000001
 43
0.0000000001
 40
0.0
 40
0.0
 40
0.0
 40
0.0
 40
0.125
 40
0.125
 40
0.25
 40
0.25
 40
0.3749999999999999
 40
0.3749999999999999
 40
0.5
 40
0.5
 40
0.625
 40
0.625
 40
0.7499999999999999
 40
0.7499999999999999
 40
1.0
 40
1.0
 40
1.0
 40
1.0
 10
416.0462475640152
 20
296.127033418982
 30
0.0
 10
416.0425203944266
 20
296.1224388653547
 30
0.0
 10
416.0384477988483
 20
296.1182678887914
 30
0.0
 10
416.0296498700341
 20
296.1107277768452
 30
0.0
 10
416.0248727640378
 20
296.1073317317008
 30
0.0
 10
416.0149248817936
 20
296.101526712675
 30
0.0
 10
416.0097737268941
 20
296.0991141480948
 30
0.0
 10
415.9991362954883
 20
296.0952207517943
 30
0.0
 10
415.9935984120423
 20
296.0937325623419
 30
0.0
 10
415.9824363871059
 20
296.0917641139113
 30
0.0
 10
415.9768535412286
 20
296.0912803063212
 30
0.0
 10
415.9656862611421
 20
296.0912616698179
 30
0.0
 10
415.9600740483533
 20
296.0917320414475
 30
0.0
 10
415.9434198574945
 20
296.0945805593289
 30
0.0
 10
415.9329169607291
 20
296.0982745387688
 30
0.0
 10
415.923009862471
 20
296.1037420707243
 30
0.0
  0
SPLINE
  5
1AD
330
1F
100
AcDbEntity
  8
1
100
AcDbSpline
210
0.0
220
0.0
230
1.0
 70
     8
 71
     3
 72
    18
 73
    14
 74
     0
 42
0.000000001
 43
0.0000000001
 40
0.0
 40
0.0
 40
0.0
 40
0.0
 40
0.1093297525409372
 40
0.1093297525409372
 40
0.3319973144057032
 40
0.3319973144057032
 40
0.4433310953380862
 40
0.4433310953380862
 40
0.5546648762704696
 40
0.5546648762704696
 40
0.7773324381352348
 40
0.7773324381352348
 40
1.0
 40
1.0
 40
1.0
 40
1.0
 10
333.1717296192105
 20
280.1045654370785
 30
0.0
 10
332.2990731876197
 20
280.0297661888264
 30
0.0
 10
331.4263919250366
 20
279.9564598167098
 30
0.0
 10
328.7764405409169
 20
279.7375769055546
 30
0.0
 10
326.9992612393468
 20
279.5958670298998
 30
0.0
 10
324.3340959391283
 20
279.3895643088852
 30
0.0
 10
323.4458053026212
 20
279.3218607557918
 30
0.0
 10
321.6694561508508
 20
279.1885749408559
 30
0.0
 10
320.7813697762948
 20
279.1229913958555
 30
0.0
 10
318.1176846889225
 20
278.9296159622091
 30
0.0
 10
316.3427861247442
 20
278.8051725463748
 30
0.0
 10
312.7947010441579
 20
278.5672805997525
 30
0.0
 10
311.0215115523224
 20
278.453859776659
 30
0.0
 10
309.2489939242377
 20
278.3473753401183
 30
0.0
  0
SPLINE
  5
1AE
330
1F
100
AcDbEntity
  8
1
100
AcDbSpline
210
0.0
220
0.0
230
1.0
 70
     8
 71
     3
 72
    22
 73
    18
 74
     0
 42
0.000000001
 43
0.0000000001
 40
0.0
 40
0.0
 40
0.0
 40
0.0
 40
0.142490737505076
 40
0.142490737505076
 40
0.2849814750101519
 40
0.2849814750101519
 40
0.4274722125152279
 40
0.4274722125152279
 40
0.5699629500203038
 40
0.5699629500203038
 40
0.7124536875253799
 40
0.7124536875253799
 40
0.8549444250304556
 40
0.8549444250304556
 40
0.9974351625355314
 40
0.9974351625355314
 40
1.0
 40
1.0
 40
1.0
 40
1.0
 10
309.2489939242377
 20
278.3473753401174
 30
0.0
 10
310.1325627680014
 20
278.4551102156079
 30
0.0
 10
311.0163475439578
 20
278.5638501643268
 30
0.0
 10
312.784490687641
 20
278.7822150287585
 30
0.0
 10
313.6688494426629
 20
278.8918381135258
 30
0.0
 10
315.4382777530807
 20
279.1106338893129
 30
0.0
 10
316.323347779899
 20
279.2198034971501
 30
0.0
 10
318.0943178137358
 20
279.4362211662866
 30
0.0
 10
318.9802183513702
 20
279.5434647289889
 30
0.0
 10
320.7529354005952
 20
279.7545366679368
 30
0.0
 10
321.6397015166478
 20
279.858353098123
 30
0.0
 10
323.4139843874016
 20
280.0611879256373
 30
0.0
 10
324.3015173143711
 20
280.1602019643791
 30
0.0
 10
326.0773502033265
 20
280.3523961013548
 30
0.0
 10
326.9656503595864
 20
280.4455708290678
 30
0.0
 10
327.8702912716899
 20
280.5371779064483
 30
0.0
 10
327.8862870244922
 20
280.5387966468897
 30
0.0
 10
327.9022828886803
 20
280.5404143539402
 30
0.0
  0
SPLINE
  5
1AF
330
1F
100
AcDbEntity
  8
1
100
AcDbSpline
210
0.0
220
0.0
230
1.0
 70
     8
 71
     3
 72
    36
 73
    32
 74
     0
 42
0.000000001
 43
0.0000000001
 40
0.0
 40
0.0
 40
0.0
 40
0.0
 40
0.1250000000001628
 40
0.1250000000001628
 40
0.1875000000002441
 40
0.1875000000002441
 40
0.2187500000002848
 40
0.2187500000002848
 40
0.2500000000003255
 40
0.2500000000003255
 40
0.3750000000002955
 40
0.3750000000002955
 40
0.4062500000002729
 40
0.4062500000002729
 40
0.4375000000002502
 40
0.4375000000002502
 40
0.5000000000002049
 40
0.5000000000002049
 40
0.6250000000001142
 40
0.6250000000001142
 40
0.6562500000000995
 40
0.6562500000000995
 40
0.6875000000000849
 40
0.7500000000000595
 40
0.8125000000000341
 40
0.8125000000000341
 40
0.8437500000000301
 40
0.8437500000000301
 40
0.8750000000000264
 40
0.8750000000000264
 40
1.0
 40
1.0
 40
1.0
 40
1.0
 10
411.6159463730311
 20
300.487329022787
 30
0.0
 10
411.5653663689105
 20
300.4851256923931
 30
0.0
 10
411.5159075992841
 20
300.4777705736505
 30
0.0
 10
411.4432860199452
 20
300.4595398799622
 30
0.0
 10
411.4193421769098
 20
300.4522529552005
 30
0.0
 10
411.3838260863096
 20
300.4394861675332
 30
0.0
 10
411.3720223225457
 20
300.4349100755983
 30
0.0
 10
411.348739966349
 20
300.4252149159306
 30
0.0
 10
411.3372614151116
 20
300.4200983294732
 30
0.0
 10
411.280662843083
 20
300.3932017101512
 30
0.0
 10
411.2379015212376
 20
300.3675200731145
 30
0.0
 10
411.1875442703126
 20
300.3302994722186
 30
0.0
 10
411.1776290149681
 20
300.3225969848398
 30
0.0
 10
411.1581155645046
 20
300.3066675499766
 30
0.0
 10
411.1485132286668
 20
300.2984343066643
 30
0.0
 10
411.1204840550154
 20
300.2732076031559
 30
0.0
 10
411.102728639823
 20
300.2556066915402
 30
0.0
 10
411.0521805357424
 20
300.2005168604138
 30
0.0
 10
411.0220784471454
 20
300.1607640183214
 30
0.0
 10
410.9891162988382
 20
300.1071473563157
 30
0.0
 10
410.9827602486426
 20
300.0962229240968
 30
0.0
 10
410.9706597198208
 20
300.0742150904366
 30
0.0
 10
410.9533712249157
 20
300.0408765520248
 30
0.0
 10
410.9288005500558
 20
299.9837041550595
 30
0.0
 10
410.9136550258001
 20
299.9362566836408
 30
0.0
 10
410.9040341765373
 20
299.9000123133347
 30
0.0
 10
410.9011175128434
 20
299.8878208459406
 30
0.0
 10
410.8958798040808
 20
299.86321218768
 30
0.0
 10
410.8935582828227
 20
299.8507819113466
 30
0.0
 10
410.8835723036948
 20
299.7886547985835
 30
0.0
 10
410.8806124331324
 20
299.7385824293995
 30
0.0
 10
410.8828829682649
 20
299.6881245292838
 30
0.0
  0
SPLINE
  5
1B0
330
1F
100
AcDbEntity
  8
1
100
AcDbSpline
210
0.0
220
0.0
230
1.0
 70
     8
 71
     3
 72
    36
 73
    32
 74
     0
 42
0.000000001
 43
0.0000000001
 40
0.0
 40
0.0
 40
0.0
 40
0.0
 40
0.1249999999998146
 40
0.1249999999998146
 40
0.1874999999997314
 40
0.1874999999997314
 40
0.2187499999997015
 40
0.2187499999997015
 40
0.2499999999996717
 40
0.2499999999996717
 40
0.3749999999996414
 40
0.3749999999996414
 40
0.4062499999996441
 40
0.4062499999996441
 40
0.4374999999996468
 40
0.4374999999996468
 40
0.4999999999996986
 40
0.4999999999996986
 40
0.6249999999998011
 40
0.6249999999998011
 40
0.6562499999998118
 40
0.6562499999998118
 40
0.6874999999998228
 40
0.7499999999998448
 40
0.8124999999998671
 40
0.8124999999998671
 40
0.8437499999998779
 40
0.8437499999998779
 40
0.8749999999998888
 40
0.8749999999998888
 40
1.0
 40
1.0
 40
1.0
 40
1.0
 10
411.1698918634531
 20
293.3099514024931
 30
0.0
 10
411.1721626983957
 20
293.2594868397233
 30
0.0
 10
411.1795960105387
 20
293.2101345423916
 30
0.0
 10
411.1979589286599
 20
293.1376601400394
 30
0.0
 10
411.2052924387779
 20
293.1137632493914
 30
0.0
 10
411.2181329146151
 20
293.0783143902729
 30
0.0
 10
411.2227342771505
 20
293.0665325603724
 30
0.0
 10
411.2324808494425
 20
293.0432926430467
 30
0.0
 10
411.2376235720594
 20
293.0318345997791
 30
0.0
 10
411.264652971327
 20
292.9753350931745
 30
0.0
 10
411.2904474865468
 20
292.9326420098641
 30
0.0
 10
411.3278173641409
 20
292.8823565196113
 30
0.0
 10
411.3355501197058
 20
292.8724549330746
 30
0.0
 10
411.3515409289793
 20
292.8529674331402
 30
0.0
 10
411.3598052983706
 20
292.8433773809368
 30
0.0
 10
411.3851256561195
 20
292.8153825916179
 30
0.0
 10
411.4027896916192
 20
292.7976469599409
 30
0.0
 10
411.4580709029168
 20
292.7471490377657
 30
0.0
 10
411.4979539894643
 20
292.7170682718178
 30
0.0
 10
411.551736904494
 20
292.6841170396169
 30
0.0
 10
411.5626947671536
 20
292.6777623725856
 30
0.0
 10
411.5847690803771
 20
292.6656629854987
 30
0.0
 10
411.6182070409891
 20
292.6483737860499
 30
0.0
 10
411.6755437321571
 20
292.6237901809802
 30
0.0
 10
411.7231209893754
 20
292.6086214171091
 30
0.0
 10
411.7594621396397
 20
292.5989783697895
 30
0.0
 10
411.7716857669885
 20
292.5960534930299
 30
0.0
 10
411.7963585399104
 20
292.5907976885312
 30
0.0
 10
411.8088208021972
 20
292.5884662695865
 30
0.0
 10
411.8711057891376
 20
292.5784270437485
 30
0.0
 10
411.9212991278224
 20
292.5754123711849
 30
0.0
 10
411.9718724540478
 20
292.5776154106812
 30
0.0
  0
SPLINE
  5
1B1
330
1F
100
AcDbEntity
  8
1
100
AcDbSpline
210
0.0
220
0.0
230
1.0
 70
     8
 71
     3
 72
    36
 73
    32
 74
     0
 42
0.000000001
 43
0.0000000001
 40
0.0
 40
0.0
 40
0.0
 40
0.0
 40
0.1250000000001699
 40
0.1250000000001699
 40
0.1875000000002552
 40
0.1875000000002552
 40
0.2187500000002975
 40
0.2187500000002975
 40
0.2500000000003397
 40
0.2500000000003397
 40
0.3750000000003216
 40
0.3750000000003216
 40
0.4062500000003033
 40
0.4062500000003033
 40
0.4375000000002849
 40
0.4375000000002849
 40
0.5000000000002479
 40
0.5000000000002479
 40
0.6250000000001761
 40
0.6250000000001761
 40
0.656250000000158
 40
0.656250000000158
 40
0.6875000000001402
 40
0.750000000000104
 40
0.8125000000000678
 40
0.8125000000000678
 40
0.8437500000000587
 40
0.8437500000000587
 40
0.8750000000000495
 40
0.8750000000000495
 40
1.0
 40
1.0
 40
1.0
 40
1.0
 10
418.3646361149036
 20
292.8560924634306
 30
0.0
 10
418.4152161190242
 20
292.8582957938246
 30
0.0
 10
418.4646748886506
 20
292.8656509125671
 30
0.0
 10
418.5372964679896
 20
292.8838816062555
 30
0.0
 10
418.5612403110249
 20
292.8911685310171
 30
0.0
 10
418.5967564016253
 20
292.9039353186844
 30
0.0
 10
418.608560165389
 20
292.9085114106194
 30
0.0
 10
418.6318425215858
 20
292.9182065702871
 30
0.0
 10
418.643321072823
 20
292.9233231567444
 30
0.0
 10
418.6999196448518
 20
292.9502197760664
 30
0.0
 10
418.7426809666972
 20
292.9759014131032
 30
0.0
 10
418.7930382176221
 20
293.0131220139991
 30
0.0
 10
418.8029534729666
 20
293.0208245013779
 30
0.0
 10
418.8224669234301
 20
293.0367539362411
 30
0.0
 10
418.8320692592681
 20
293.0449871795534
 30
0.0
 10
418.8600984329194
 20
293.0702138830617
 30
0.0
 10
418.8778538481117
 20
293.0878147946774
 30
0.0
 10
418.9284019521923
 20
293.1429046258038
 30
0.0
 10
418.9585040407894
 20
293.1826574678962
 30
0.0
 10
418.9914661890965
 20
293.2362741299018
 30
0.0
 10
418.9978222392923
 20
293.2471985621209
 30
0.0
 10
419.0099227681141
 20
293.2692063957811
 30
0.0
 10
419.0272112630191
 20
293.3025449341928
 30
0.0
 10
419.0517817983645
 20
293.3597173840304
 30
0.0
 10
419.0669274621346
 20
293.4071648025767
 30
0.0
 10
419.0765483113976
 20
293.4434091728828
 30
0.0
 10
419.0794649750914
 20
293.4556006402771
 30
0.0
 10
419.0847026838538
 20
293.4802092985377
 30
0.0
 10
419.0870242051119
 20
293.492639574871
 30
0.0
 10
419.0970101842399
 20
293.5547666876342
 30
0.0
 10
419.0999700548023
 20
293.6048390568182
 30
0.0
 10
419.0976995196697
 20
293.6552969569338
 30
0.0
  0
SPLINE
  5
1B2
330
1F
100
AcDbEntity
  8
1
100
AcDbSpline
210
0.0
220
0.0
230
1.0
 70
     8
 71
     3
 72
    36
 73
    32
 74
     0
 42
0.000000001
 43
0.0000000001
 40
0.0
 40
0.0
 40
0.0
 40
0.0
 40
0.1250000000000294
 40
0.1250000000000294
 40
0.1875000000000526
 40
0.1875000000000526
 40
0.2187500000000505
 40
0.2187500000000505
 40
0.2500000000000484
 40
0.2500000000000484
 40
0.3750000000001292
 40
0.3750000000001292
 40
0.406250000000158
 40
0.406250000000158
 40
0.4375000000001867
 40
0.4375000000001867
 40
0.5000000000002013
 40
0.5000000000002013
 40
0.6250000000001793
 40
0.6250000000001793
 40
0.6562500000001585
 40
0.6562500000001585
 40
0.6875000000001377
 40
0.7500000000000961
 40
0.8125000000000547
 40
0.8125000000000547
 40
0.8437500000000344
 40
0.8437500000000344
 40
0.8750000000000143
 40
0.8750000000000143
 40
1.0
 40
1.0
 40
1.0
 40
1.0
 10
418.8106906244818
 20
300.0334700837246
 30
0.0
 10
418.8084197895391
 20
300.0839346464943
 30
0.0
 10
418.8009864773961
 20
300.133286943826
 30
0.0
 10
418.7826235592748
 20
300.2057613461782
 30
0.0
 10
418.775290049157
 20
300.2296582368263
 30
0.0
 10
418.7624495733196
 20
300.2651070959448
 30
0.0
 10
418.7578482107842
 20
300.2768889258453
 30
0.0
 10
418.7481016384921
 20
300.300128843171
 30
0.0
 10
418.7429589158754
 20
300.3115868864386
 30
0.0
 10
418.7159295166079
 20
300.3680863930431
 30
0.0
 10
418.6901350013881
 20
300.4107794763535
 30
0.0
 10
418.6527651237939
 20
300.4610649666063
 30
0.0
 10
418.645032368229
 20
300.4709665531431
 30
0.0
 10
418.6290415589555
 20
300.4904540530775
 30
0.0
 10
418.6207771895642
 20
300.5000441052808
 30
0.0
 10
418.5954568318151
 20
300.5280388945998
 30
0.0
 10
418.5777927963155
 20
300.5457745262767
 30
0.0
 10
418.522511585018
 20
300.5962724484519
 30
0.0
 10
418.4826284984705
 20
300.6263532143998
 30
0.0
 10
418.4288455834408
 20
300.6593044466007
 30
0.0
 10
418.4178877207811
 20
300.6656591136321
 30
0.0
 10
418.3958134075576
 20
300.6777585007189
 30
0.0
 10
418.3623754469458
 20
300.6950477001677
 30
0.0
 10
418.3050387557776
 20
300.7196313052374
 30
0.0
 10
418.2574614985595
 20
300.7348000691085
 30
0.0
 10
418.2211203482949
 20
300.7444431164281
 30
0.0
 10
418.2088967209462
 20
300.7473679931878
 30
0.0
 10
418.1842239480242
 20
300.7526237976865
 30
0.0
 10
418.1717616857376
 20
300.7549552166311
 30
0.0
 10
418.1094766987973
 20
300.7649944424691
 30
0.0
 10
418.0592833601123
 20
300.7680091150327
 30
0.0
 10
418.008710033887
 20
300.7658060755365
 30
0.0
  0
SPLINE
  5
1B3
330
1F
100
AcDbEntity
  8
1
100
AcDbSpline
210
0.0
220
0.0
230
1.0
 70
     8
 71
     3
 72
    57
 73
    53
 74
     0
 42
0.000000001
 43
0.0000000001
 40
0.0
 40
0.0
 40
0.0
 40
0.0
 40
0.0624999999999996
 40
0.0624999999999996
 40
0.1249999999999993
 40
0.1249999999999993
 40
0.187499999999999
 40
0.187499999999999
 40
0.203124999999999
 40
0.203124999999999
 40
0.2187499999999989
 40
0.2499999999999989
 40
0.2499999999999989
 40
0.3124999999999983
 40
0.3124999999999983
 40
0.3749999999999977
 40
0.3749999999999977
 40
0.3906249999999975
 40
0.3906249999999975
 40
0.4062499999999975
 40
0.4062499999999975
 40
0.4374999999999975
 40
0.4374999999999975
 40
0.4999999999999973
 40
0.5624999999999973
 40
0.5624999999999973
 40
0.5703124999999972
 40
0.5703124999999972
 40
0.5781249999999972
 40
0.5781249999999972
 40
0.5937499999999974
 40
0.6249999999999982
 40
0.6249999999999982
 40
0.6874999999999996
 40
0.6874999999999996
 40
0.7187500000000005
 40
0.7187500000000005
 40
0.7343750000000006
 40
0.7343750000000006
 40
0.7500000000000007
 40
0.7500000000000007
 40
0.8125000000000007
 40
0.8125000000000007
 40
0.8750000000000005
 40
0.8750000000000005
 40
0.9062500000000007
 40
0.9062500000000007
 40
0.9218750000000007
 40
0.9218750000000007
 40
0.9375000000000005
 40
0.9375000000000005
 40
1.0
 40
1.0
 40
1.0
 40
1.0
 10
279.4048419452957
 20
278.9444052421294
 30
0.0
 10
279.2192466872407
 20
278.8146489913715
 30
0.0
 10
279.042394298952
 20
278.6799650439101
 30
0.0
 10
278.7062314201005
 20
278.4014796826357
 30
0.0
 10
278.5469189068753
 20
278.2576778314381
 30
0.0
 10
278.246454825121
 20
277.9613981842634
 30
0.0
 10
278.1052974562298
 20
277.8089216018267
 30
0.0
 10
277.9410093868726
 20
277.6129898882873
 30
0.0
 10
277.908710702348
 20
277.5734707784835
 30
0.0
 10
277.8456706589897
 20
277.4942885747743
 30
0.0
 10
277.7534365367251
 20
277.3752991235159
 30
0.0
 10
277.6681515627647
 20
277.2557189400367
 30
0.0
 10
277.5068418710811
 20
277.0159074127017
 30
0.0
 10
277.4116223710428
 20
276.8551698420505
 30
0.0
 10
277.2464188917673
 20
276.5325637030335
 30
0.0
 10
277.1764286091174
 20
276.3706946890564
 30
0.0
 10
277.1056613257811
 20
276.1679258663038
 30
0.0
 10
277.0923464887952
 20
276.1273501056552
 30
0.0
 10
277.0674290241762
 20
276.046159975224
 30
0.0
 10
277.0558188080714
 20
276.0055041825575
 30
0.0
 10
277.0238471167499
 20
275.884435402127
 30
0.0
 10
277.0062438201252
 20
275.8046249014001
 30
0.0
 10
276.9643596457926
 20
275.5679061615741
 30
0.0
 10
276.9375894618715
 20
275.2595137859559
 30
0.0
 10
276.9682770747455
 20
274.9656913379123
 30
0.0
 10
277.0020521953133
 20
274.8045586865684
 30
0.0
 10
277.0060349786073
 20
274.7867126118122
 30
0.0
 10
277.0144628729016
 20
274.7511357567716
 30
0.0
 10
277.0189121154581
 20
274.7333897141202
 30
0.0
 10
277.0329246085516
 20
274.680446028805
 30
0.0
 10
277.0635792836431
 20
274.5758260624179
 30
0.0
 10
277.101962271417
 20
274.4749115809572
 30
0.0
 10
277.1887026226907
 20
274.2777971401441
 30
0.0
 10
277.259801996662
 20
274.152665916646
 30
0.0
 10
277.3855857898993
 20
273.9736488032745
 30
0.0
 10
277.4307098325484
 20
273.9154251138852
 30
0.0
 10
277.5031517373628
 20
273.8301863757188
 30
0.0
 10
277.5280920617352
 20
273.8021230267744
 30
0.0
 10
277.579556870748
 20
273.7466838458611
 30
0.0
 10
277.6061094005802
 20
273.7192828443481
 30
0.0
 10
277.7420815707539
 20
273.5846892238909
 30
0.0
 10
277.8615526689377
 20
273.4841815843276
 30
0.0
 10
278.1203055187555
 20
273.2956400736972
 30
0.0
 10
278.2595941849059
 20
273.2076118682121
 30
0.0
 10
278.482736087987
 20
273.0838574959888
 30
0.0
 10
278.5594896479587
 20
273.0439901489056
 30
0.0
 10
278.6781364155437
 20
272.9861524614187
 30
0.0
 10
278.718300827609
 20
272.9671873932564
 30
0.0
 10
278.7996499667928
 20
272.9299618413385
 30
0.0
 10
278.8408122479284
 20
272.9117106076405
 30
0.0
 10
279.0490251955706
 20
272.8221957284876
 30
0.0
 10
279.2232630162132
 20
272.7561416858518
 30
0.0
 10
279.404841945313
 20
272.6949185416269
 30
0.0
  0
SPLINE
  5
1B4
330
1F
100
AcDbEntity
  8
1
100
AcDbSpline
210
0.0
220
0.0
230
1.0
 70
     9
 71
     3
 72
   121
 73
   117
 74
     0
 42
0.000000001
 43
0.0000000001
 40
0.0
 40
0.0
 40
0.0
 40
0.0
 40
0.0312500000000193
 40
0.0312500000000193
 40
0.0468750000000289
 40
0.0468750000000289
 40
0.0546875000000337
 40
0.0546875000000337
 40
0.0625000000000385
 40
0.0625000000000385
 40
0.0937500000000228
 40
0.0937500000000228
 40
0.101562500000019
 40
0.101562500000019
 40
0.1093750000000151
 40
0.1093750000000151
 40
0.1249999999999979
 40
0.1249999999999979
 40
0.1562499999999548
 40
0.1562499999999548
 40
0.1874999999999117
 40
0.1874999999999117
 40
0.203124999999888
 40
0.203124999999888
 40
0.2109374999998778
 40
0.2109374999998778
 40
0.2187499999998675
 40
0.2187499999998675
 40
0.2499999999998317
 40
0.2499999999998317
 40
0.2578124999998228
 40
0.2578124999998228
 40
0.2656249999998139
 40
0.2656249999998139
 40
0.2812499999997962
 40
0.2812499999997962
 40
0.3124999999997639
 40
0.3124999999997639
 40
0.32812499999975
 40
0.32812499999975
 40
0.3437499999997362
 40
0.3437499999997362
 40
0.3749999999997083
 40
0.3749999999997083
 40
0.3828124999997035
 40
0.3828124999997035
 40
0.3906249999996987
 40
0.406249999999689
 40
0.4218749999996795
 40
0.4218749999996795
 40
0.4296874999996748
 40
0.4296874999996748
 40
0.4374999999996699
 40
0.4374999999996699
 40
0.4687499999996396
 40
0.4687499999996396
 40
0.4843749999996244
 40
0.4843749999996244
 40
0.4921874999996169
 40
0.4921874999996169
 40
0.4999999999996093
 40
0.4999999999996093
 40
0.5312499999996044
 40
0.5312499999996044
 40
0.5390624999996031
 40
0.5390624999996031
 40
0.5468749999996018
 40
0.5624999999995993
 40
0.5781249999995967
 40
0.5781249999995967
 40
0.5937499999995941
 40
0.5937499999995941
 40
0.6249999999995995
 40
0.6249999999995995
 40
0.6328124999996009
 40
0.6328124999996009
 40
0.6406249999996023
 40
0.6406249999996023
 40
0.6562499999996129
 40
0.6562499999996129
 40
0.6874999999996341
 40
0.6874999999996341
 40
0.6953124999996417
 40
0.6953124999996417
 40
0.7031249999996492
 40
0.7187499999996645
 40
0.7343749999996799
 40
0.7343749999996799
 40
0.7421874999996873
 40
0.7421874999996873
 40
0.7499999999996947
 40
0.7499999999996947
 40
0.7812499999997249
 40
0.7812499999997249
 40
0.7968749999997402
 40
0.7968749999997402
 40
0.812499999999755
 40
0.812499999999755
 40
0.84374999999979
 40
0.84374999999979
 40
0.8593749999998074
 40
0.8593749999998074
 40
0.8749999999998248
 40
0.8749999999998248
 40
0.9062499999998683
 40
0.9062499999998683
 40
0.9218749999998903
 40
0.9218749999998903
 40
0.9374999999999122
 40
0.953124999999934
 40
0.953124999999934
 40
0.9609374999999388
 40
0.9609374999999388
 40
0.9687499999999435
 40
0.9687499999999435
 40
1.0
 40
1.0
 40
1.0
 40
1.0
 10
415.2962249652843
 20
286.8769886193043
 30
0.0
 10
415.3652616077211
 20
286.8757835802281
 30
0.0
 10
415.4329768757746
 20
286.867694916927
 30
0.0
 10
415.5326501365917
 20
286.8456774045828
 30
0.0
 10
415.5655554692091
 20
286.8366780849902
 30
0.0
 10
415.6144229852153
 20
286.820630486228
 30
0.0
 10
415.630676498245
 20
286.8148369468203
 30
0.0
 10
415.6627300522962
 20
286.8024927501947
 30
0.0
 10
415.6785349617427
 20
286.7959438707404
 30
0.0
 10
415.756472446172
 20
286.7613553625557
 30
0.0
 10
415.8153755209156
 20
286.7278365225957
 30
0.0
 10
415.8847219373014
 20
286.678710089088
 30
0.0
 10
415.8983751308954
 20
286.6685201124887
 30
0.0
 10
415.9252419548455
 20
286.6473993985489
 30
0.0
 10
415.9384468593273
 20
286.6364716003473
 30
0.0
 10
415.9769595149928
 20
286.6029504003644
 30
0.0
 10
416.0013216446147
 20
286.5795035595288
 30
0.0
 10
416.0705873636724
 20
286.5059781654403
 30
0.0
 10
416.1117130869492
 20
286.4527325696253
 30
0.0
 10
416.1835655205522
 20
286.3377193098627
 30
0.0
 10
416.2131339579765
 20
286.2778141971959
 30
0.0
 10
416.2484880835093
 20
286.1846119935585
 30
0.0
 10
416.2587618871994
 20
286.1529827818542
 30
0.0
 10
416.2718773576304
 20
286.1046903832783
 30
0.0
 10
416.275874220256
 20
286.088412202627
 30
0.0
 10
416.2830467255608
 20
286.0557649178206
 30
0.0
 10
416.2862176803498
 20
286.0394278925593
 30
0.0
 10
416.3000441021361
 20
285.9576789154505
 30
0.0
 10
416.30467009593
 20
285.8920784835009
 30
0.0
 10
416.3025951223891
 20
285.8098429699997
 30
0.0
 10
416.301783822508
 20
285.7933839295327
 30
0.0
 10
416.2993594164099
 20
285.7604416281533
 30
0.0
 10
416.2977408927288
 20
285.7439176432005
 30
0.0
 10
416.2917024072759
 20
285.6946336127698
 30
0.0
 10
416.2861214170266
 20
285.6622355364148
 30
0.0
 10
416.2648657854798
 20
285.5663646326325
 30
0.0
 10
416.2447206621298
 20
285.5042039555036
 30
0.0
 10
416.2053686003272
 20
285.4136014914895
 30
0.0
 10
416.190652750604
 20
285.3837555884552
 30
0.0
 10
416.1587004488696
 20
285.3261517049318
 30
0.0
 10
416.1414131961441
 20
285.2982508815398
 30
0.0
 10
416.0856620701931
 20
285.2172030996912
 30
0.0
 10
416.0433502044567
 20
285.1666836346654
 30
0.0
 10
415.9835886667939
 20
285.1081528510917
 30
0.0
 10
415.9713118481127
 20
285.0967053120669
 30
0.0
 10
415.9463343713493
 20
285.0745304795723
 30
0.0
 10
415.9081377926283
 20
285.042260024501
 30
0.0
 10
415.8408677632264
 20
284.993361703349
 30
0.0
 10
415.7831787090258
 20
284.9594557242416
 30
0.0
 10
415.7384061156842
 20
284.9360419204203
 30
0.0
 10
415.7232304797148
 20
284.9285739026192
 30
0.0
 10
415.6923612085844
 20
284.91432956563
 30
0.0
 10
415.676642648702
 20
284.907546062559
 30
0.0
 10
415.5976969208335
 20
284.8757903351718
 30
0.0
 10
415.5327209673099
 20
284.8568912199108
 30
0.0
 10
415.4325290152208
 20
284.8382395955593
 30
0.0
 10
415.3986738535091
 20
284.8336502497103
 30
0.0
 10
415.3471735592434
 20
284.8293137525965
 30
0.0
 10
415.3299268985617
 20
284.8283000238039
 30
0.0
 10
415.2956195424562
 20
284.8271467469226
 30
0.0
 10
415.2785094278354
 20
284.827002624299
 30
0.0
 10
415.1931731304392
 20
284.8284093307618
 30
0.0
 10
415.1255836352116
 20
284.8362788944732
 30
0.0
 10
415.0419522529955
 20
284.8546273927715
 30
0.0
 10
415.0252200533851
 20
284.858741061974
 30
0.0
 10
414.9921539473523
 20
284.8677566153802
 30
0.0
 10
414.9431299678859
 20
284.8824621178454
 30
0.0
 10
414.8642133194899
 20
284.9127141041117
 30
0.0
 10
414.8039716903002
 20
284.9428908056014
 30
0.0
 10
414.7451768553358
 20
284.9760708206255
 30
0.0
 10
414.7164084903997
 20
284.9942465725435
 30
0.0
 10
414.6340094764461
 20
285.0521595824592
 30
0.0
 10
414.5836944744181
 20
285.0955057327536
 30
0.0
 10
414.526335151754
 20
285.1554420345587
 30
0.0
 10
414.5151426536754
 20
285.1677197005399
 30
0.0
 10
414.4933209452886
 20
285.1928625006493
 30
0.0
 10
414.482673093956
 20
285.2057538595232
 30
0.0
 10
414.4518772001215
 20
285.2449425388235
 30
0.0
 10
414.4327846929547
 20
285.2718463830548
 30
0.0
 10
414.3796632110002
 20
285.3548257204528
 30
0.0
 10
414.3497510999671
 20
285.4131481684714
 30
0.0
 10
414.3193343574822
 20
285.4899112673702
 30
0.0
 10
414.313597724492
 20
285.5054797562092
 30
0.0
 10
414.3029430694501
 20
285.5366981308908
 30
0.0
 10
414.2881469820482
 20
285.5837554300336
 30
0.0
 10
414.2692931653238
 20
285.6633158458356
 30
0.0
 10
414.2603311098786
 20
285.7281668597474
 30
0.0
 10
414.2559429228342
 20
285.7772656218583
 30
0.0
 10
414.2548697603841
 20
285.7937087418256
 30
0.0
 10
414.2535174281146
 20
285.8267517681691
 30
0.0
 10
414.2532392634896
 20
285.8433965322824
 30
0.0
 10
414.2538743101797
 20
285.9263639840023
 30
0.0
 10
414.2607639259458
 20
285.9918775623625
 30
0.0
 10
414.2804998119169
 20
286.0888636989935
 30
0.0
 10
414.2886560290319
 20
286.1209766879156
 30
0.0
 10
414.3082277291261
 20
286.1847511329364
 30
0.0
 10
414.3197102637401
 20
286.2165361875049
 30
0.0
 10
414.3584254352468
 20
286.3091663323809
 30
0.0
 10
414.3900109216658
 20
286.367894979692
 30
0.0
 10
414.4460758459955
 20
286.4513871062121
 30
0.0
 10
414.4662215195078
 20
286.47844585108
 30
0.0
 10
414.5095579192488
 20
286.5309402131817
 30
0.0
 10
414.5324520719813
 20
286.5560067606277
 30
0.0
 10
414.6043572179449
 20
286.6273460662822
 30
0.0
 10
414.6567094879746
 20
286.6699769711055
 30
0.0
 10
414.7420179447605
 20
286.7263007688738
 30
0.0
 10
414.7717379071411
 20
286.743856065482
 30
0.0
 10
414.8322075473206
 20
286.7755948734368
 30
0.0
 10
414.8939399327052
 20
286.8041519516182
 30
0.0
 10
414.9581514746565
 20
286.8264494029047
 30
0.0
 10
415.0072504019964
 20
286.8407944089316
 30
0.0
 10
415.0237737111527
 20
286.8451790117397
 30
0.0
 10
415.0571397352772
 20
286.8531398712018
 30
0.0
 10
415.0740208566547
 20
286.856722894217
 30
0.0
 10
415.1587464756601
 20
286.8724762016367
 30
0.0
 10
415.2271883228474
 20
286.8781936583804
 30
0.0
 10
415.2962249652843
 20
286.8769886193043
 30
0.0
  0
SPLINE
  5
1B5
330
1F
100
AcDbEntity
  8
1
100
AcDbSpline
210
0.0
220
0.0
230
1.0
 70
    12
 71
     2
 72
     6
 73
     3
 74
     0
 42
0.000000001
 43
0.0000000001
 40
0.0
 40
0.0
 40
0.0
 40
1.0
 40
1.0
 40
1.0
 10
410.6595216428141
 20
300.3154972767202
 30
0.0
 41
0.499997693852185
 10
410.7717471203141
 20
300.3152491668287
 30
0.0
 41
0.500002306147815
 10
410.8839704332364
 20
300.3150003941146
 30
0.0
 41
0.499997693852185
  0
SPLINE
  5
1BC
330
1F
100
AcDbEntity
  8
1
100
AcDbSpline
210
0.0
220
0.0
230
1.0
 70
     8
 71
     3
 72
    10
 73
     6
 74
     0
 42
0.000000001
 43
0.0000000001
 40
0.0
 40
0.0
 40
0.0
 40
0.0
 40
0.5
 40
0.5
 40
1.0
 40
1.0
 40
1.0
 40
1.0
 10
405.3773516277506
 20
291.4782737540665
 30
0.0
 10
405.211675701882
 20
291.5594847693737
 30
0.0
 10
405.0449455256678
 20
291.6424154056082
 30
0.0
 10
404.7096351030011
 20
291.8112943858856
 30
0.0
 10
404.5410540592076
 20
291.8972440304976
 30
0.0
 10
404.3716440513725
 20
291.9845458244532
 30
0.0
  0
SPLINE
  5
1BD
330
1F
100
AcDbEntity
  8
1
100
AcDbSpline
210
0.0
220
0.0
230
1.0
 70
     8
 71
     3
 72
    41
 73
    37
 74
     0
 42
0.000000001
 43
0.0000000001
 40
0.0
 40
0.0
 40
0.0
 40
0.0
 40
0.1250000000000066
 40
0.1250000000000066
 40
0.2500000000000131
 40
0.2500000000000131
 40
0.3750000000000197
 40
0.3750000000000197
 40
0.5000000000000262
 40
0.5000000000000262
 40
0.5625000000000482
 40
0.5625000000000482
 40
0.62500000000007
 40
0.62500000000007
 40
0.6562500000000926
 40
0.6562500000000926
 40
0.6875000000001151
 40
0.6875000000001151
 40
0.7187500000001376
 40
0.7187500000001376
 40
0.7500000000001601
 40
0.7500000000001601
 40
0.7812500000001826
 40
0.7812500000001826
 40
0.7968750000001847
 40
0.7968750000001847
 40
0.8125000000001866
 40
0.8437500000001557
 40
0.8437500000001557
 40
0.8750000000001248
 40
0.8750000000001248
 40
0.9062500000000941
 40
0.9062500000000941
 40
0.9375000000000632
 40
0.9375000000000632
 40
1.0
 40
1.0
 40
1.0
 40
1.0
 10
405.2623750261223
 20
293.4731845813869
 30
0.0
 10
405.2315845542649
 20
293.497089235456
 30
0.0
 10
405.2015901939895
 20
293.5217355801632
 30
0.0
 10
405.1434218566146
 20
293.5727273313743
 30
0.0
 10
405.1152442562384
 20
293.5990695719926
 30
0.0
 10
405.061100350943
 20
293.6538108436998
 30
0.0
 10
405.0351244394956
 20
293.6822015114931
 30
0.0
 10
404.9861179095874
 20
293.7416966699518
 30
0.0
 10
404.9630537178158
 20
293.7727720182846
 30
0.0
 10
404.931881661746
 20
293.8224917591972
 30
0.0
 10
404.9221773752311
 20
293.8394277952676
 30
0.0
 10
404.9045601776228
 20
293.8742000376297
 30
0.0
 10
404.8966365337985
 20
293.8920358409163
 30
0.0
 10
404.8866211361477
 20
293.9197262342313
 30
0.0
 10
404.8836016608762
 20
293.9291123273472
 30
0.0
 10
404.8783974246388
 20
293.9480250287481
 30
0.0
 10
404.8762020142427
 20
293.9575771787401
 30
0.0
 10
404.8727951525511
 20
293.9769102062985
 30
0.0
 10
404.8715822483006
 20
293.9866907697853
 30
0.0
 10
404.8703891179004
 20
294.0065346731145
 30
0.0
 10
404.8704206864909
 20
294.016615613868
 30
0.0
 10
404.8720071678381
 20
294.0365522440815
 30
0.0
 10
404.8735537561263
 20
294.0464705194602
 30
0.0
 10
404.8772319551954
 20
294.0612542409611
 30
0.0
 10
404.8786949731873
 20
294.0661926826649
 30
0.0
 10
404.8820742285386
 20
294.0758931399254
 30
0.0
 10
404.8878028201306
 20
294.0901465512926
 30
0.0
 10
404.8955280711082
 20
294.1034980585081
 30
0.0
 10
404.9076539983421
 20
294.1204717058527
 30
0.0
 10
404.9146771672678
 20
294.1285580039434
 30
0.0
 10
404.9298538366079
 20
294.1432524816951
 30
0.0
 10
404.938068741078
 20
294.1499635158007
 30
0.0
 10
404.955586726727
 20
294.1622790052856
 30
0.0
 10
404.9647809562093
 20
294.167801126985
 30
0.0
 10
404.9929932698926
 20
294.1826137202182
 30
0.0
 10
405.0128152295625
 20
294.1903082286958
 30
0.0
 10
405.0333197260189
 20
294.1965341590981
 30
0.0
  0
SPLINE
  5
1BE
330
1F
100
AcDbEntity
  8
1
100
AcDbSpline
210
0.0
220
0.0
230
1.0
 70
     8
 71
     3
 72
    14
 73
    10
 74
     0
 42
0.000000001
 43
0.0000000001
 40
0.0
 40
0.0
 40
0.0
 40
0.0
 40
0.249999999999998
 40
0.249999999999998
 40
0.374999999999997
 40
0.374999999999997
 40
0.4999999999999961
 40
0.4999999999999961
 40
1.0
 40
1.0
 40
1.0
 40
1.0
 10
297.9048419452946
 20
300.1409507514338
 30
0.0
 10
297.7953919528597
 20
300.1409507514338
 30
0.0
 10
297.6855723894839
 20
300.1417368834324
 30
0.0
 10
297.5202745313587
 20
300.1441095335502
 30
0.0
 10
297.4652761435562
 20
300.1450965162765
 30
0.0
 10
297.3556558055392
 20
300.1474491572428
 30
0.0
 10
297.30100511347
 20
300.1488152208616
 30
0.0
 10
297.0285418466713
 20
300.15656310689
 30
0.0
 10
296.8130923810779
 20
300.1657127184838
 30
0.0
 10
296.6001331503871
 20
300.1772962968975
 30
0.0
  0
SPLINE
  5
1BF
330
1F
100
AcDbEntity
  8
1
100
AcDbSpline
210
0.0
220
0.0
230
1.0
 70
     8
 71
     3
 72
     8
 73
     4
 74
     0
 42
0.000000001
 43
0.0000000001
 40
0.0
 40
0.0
 40
0.0
 40
0.0
 40
1.0
 40
1.0
 40
1.0
 40
1.0
 10
406.4744242670706
 20
292.7978617875602
 30
0.0
 10
406.1369025314956
 20
292.9591619462944
 30
0.0
 10
405.8048683252648
 20
293.1356009318188
 30
0.0
 10
405.4775513362239
 20
293.3280735181235
 30
0.0
  0
SPLINE
  5
1C0
330
1F
100
AcDbEntity
  8
1
100
AcDbSpline
210
0.0
220
0.0
230
1.0
 70
     8
 71
     3
 72
     8
 73
     4
 74
     0
 42
0.000000001
 43
0.0000000001
 40
0.0
 40
0.0
 40
0.0
 40
0.0
 40
1.0
 40
1.0
 40
1.0
 40
1.0
 10
405.477551336224
 20
293.3280735181235
 30
0.0
 10
405.4025281205436
 20
293.3721895061056
 30
0.0
 10
405.330579482989
 20
293.4202330074417
 30
0.0
 10
405.2623750261223
 20
293.473184581387
 30
0.0
  0
SPLINE
  5
1C1
330
1F
100
AcDbEntity
  8
1
100
AcDbSpline
210
0.0
220
0.0
230
1.0
 70
     8
 71
     3
 72
    10
 73
     6
 74
     0
 42
0.000000001
 43
0.0000000001
 40
0.0
 40
0.0
 40
0.0
 40
0.0
 40
0.5
 40
0.5
 40
1.0
 40
1.0
 40
1.0
 40
1.0
 10
279.4048419453066
 20
272.6949185416392
 30
0.0
 10
279.6197749287247
 20
272.822167317726
 30
0.0
 10
279.8370822880226
 20
272.9582847552165
 30
0.0
 10
280.2753222985879
 20
273.2447333612462
 30
0.0
 10
280.4962568447312
 20
273.3950772831355
 30
0.0
 10
280.7185504442905
 20
273.5513035817978
 30
0.0
  0
SPLINE
  5
1C2
330
1F
100
AcDbEntity
  8
1
100
AcDbSpline
210
0.0
220
0.0
230
1.0
 70
     8
 71
     3
 72
    10
 73
     6
 74
     0
 42
0.000000001
 43
0.0000000001
 40
0.0
 40
0.0
 40
0.0
 40
0.0
 40
0.5
 40
0.5
 40
1.0
 40
1.0
 40
1.0
 40
1.0
 10
280.7185504442805
 20
280.410055449482
 30
0.0
 10
280.4944913893663
 20
280.1780034503099
 30
0.0
 10
280.2728580663602
 20
279.9403327716098
 30
0.0
 10
279.834810506656
 20
279.452339013606
 30
0.0
 10
279.6183939766626
 20
279.2020248281931
 30
0.0
 10
279.4048419452957
 20
278.9444052421294
 30
0.0
  0
SPLINE
  5
1C3
330
1F
100
AcDbEntity
  8
1
100
AcDbSpline
210
0.0
220
0.0
230
1.0
 70
     8
 71
     3
 72
    10
 73
     6
 74
     0
 42
0.000000001
 43
0.0000000001
 40
0.0
 40
0.0
 40
0.0
 40
0.0
 40
0.5
 40
0.5
 40
1.0
 40
1.0
 40
1.0
 40
1.0
 10
296.3863641041387
 20
277.8784598109693
 30
0.0
 10
296.6353769700694
 20
277.8982615576349
 30
0.0
 10
296.8864256548151
 20
277.9136988131116
 30
0.0
 10
297.3925689328353
 20
277.9345403748842
 30
0.0
 10
297.6476632356159
 20
277.9399460963519
 30
0.0
 10
297.9048419452957
 20
277.9399460963519
 30
0.0
  0
SPLINE
  5
1C4
330
1F
100
AcDbEntity
  8
1
100
AcDbSpline
210
0.0
220
0.0
230
1.0
 70
     8
 71
     3
 72
    10
 73
     6
 74
     0
 42
0.000000001
 43
0.0000000001
 40
0.0
 40
0.0
 40
0.0
 40
0.0
 40
0.5
 40
0.5
 40
1.0
 40
1.0
 40
1.0
 40
1.0
 10
309.2489939242375
 20
278.3473753401186
 30
0.0
 10
307.3589175040826
 20
278.2683131938315
 30
0.0
 10
305.4686134156045
 20
278.1947780556008
 30
0.0
 10
301.6873284390784
 20
278.0589014850054
 30
0.0
 10
299.7963451287073
 20
277.9965774603442
 30
0.0
 10
297.9048419452957
 20
277.9399460963519
 30
0.0
  0
SPLINE
  5
1C5
330
1F
100
AcDbEntity
  8
1
100
AcDbSpline
210
0.0
220
0.0
230
1.0
 70
     8
 71
     3
 72
    14
 73
    10
 74
     0
 42
0.000000001
 43
0.0000000001
 40
0.0
 40
0.0
 40
0.0
 40
0.0
 40
0.25
 40
0.25
 40
0.5
 40
0.5
 40
0.75
 40
0.75
 40
1.0
 40
1.0
 40
1.0
 40
1.0
 10
292.0322589432653
 20
277.5665673243516
 30
0.0
 10
292.3926380512179
 20
277.5871588178333
 30
0.0
 10
292.7534708648306
 20
277.6094586492093
 30
0.0
 10
293.4761294233566
 20
277.6570962077844
 30
0.0
 10
293.8379556397326
 20
277.6824384914174
 30
0.0
 10
294.5629774435585
 20
277.735525693252
 30
0.0
 10
294.9261752567359
 20
277.7632724560304
 30
0.0
 10
295.6545689558314
 20
277.8201641770178
 30
0.0
 10
296.0197680476845
 20
277.8493077339814
 30
0.0
 10
296.3863641041389
 20
277.878459810969
 30
0.0
  0
SPLINE
  5
1C6
330
1F
100
AcDbEntity
  8
1
100
AcDbSpline
210
0.0
220
0.0
230
1.0
 70
     8
 71
     3
 72
    40
 73
    36
 74
     0
 42
0.000000001
 43
0.0000000001
 40
0.0
 40
0.0
 40
0.0
 40
0.0
 40
0.1249999999999981
 40
0.1249999999999981
 40
0.2499999999999962
 40
0.2499999999999962
 40
0.3124999999999952
 40
0.3124999999999952
 40
0.3749999999999942
 40
0.3749999999999942
 40
0.4062499999999939
 40
0.4218749999999938
 40
0.4218749999999938
 40
0.4374999999999936
 40
0.4374999999999936
 40
0.4999999999999939
 40
0.4999999999999939
 40
0.5624999999999942
 40
0.5624999999999942
 40
0.6249999999999945
 40
0.6249999999999945
 40
0.6874999999999947
 40
0.6874999999999947
 40
0.7187499999999952
 40
0.7343749999999954
 40
0.7343749999999954
 40
0.7499999999999955
 40
0.7499999999999955
 40
0.8124999999999966
 40
0.8124999999999966
 40
0.8749999999999978
 40
0.8749999999999978
 40
0.9374999999999989
 40
0.9374999999999989
 40
1.0
 40
1.0
 40
1.0
 40
1.0
 10
280.7185504442805
 20
280.410055449482
 30
0.0
 10
281.0725677536055
 20
280.7767017535193
 30
0.0
 10
281.4424563314587
 20
281.1229962607681
 30
0.0
 10
282.2145498501068
 20
281.7755549371481
 30
0.0
 10
282.6167444359988
 20
282.0818278373499
 30
0.0
 10
283.2457020179802
 20
282.5104023551397
 30
0.0
 10
283.4596435227245
 20
282.6481069478749
 30
0.0
 10
283.8965068452983
 20
282.9128692111381
 30
0.0
 10
284.1194276538867
 20
283.039928134389
 30
0.0
 10
284.4609483650986
 20
283.2221495605272
 30
0.0
 10
284.6334953540058
 20
283.3111663566502
 30
0.0
 10
284.8088162346451
 20
283.3969481449667
 30
0.0
 10
284.9263250868036
 20
283.4534048966095
 30
0.0
 10
284.9854394211624
 20
283.4812885606691
 30
0.0
 10
285.2817658412064
 20
283.6184598642067
 30
0.0
 10
285.5215804268592
 20
283.7211923003608
 30
0.0
 10
286.0068717468389
 20
283.9123501948152
 30
0.0
 10
286.2523482961385
 20
284.0007765877985
 30
0.0
 10
286.7491870998293
 20
284.1627970132677
 30
0.0
 10
287.0005490976122
 20
284.2363924199059
 30
0.0
 10
287.5094575145423
 20
284.3679623933625
 30
0.0
 10
287.7670036078885
 20
284.4259388629957
 30
0.0
 10
288.1582480335989
 20
284.5003626727158
 30
0.0
 10
288.3551025979299
 20
284.534435429976
 30
0.0
 10
288.5538694421967
 20
284.5636052298096
 30
0.0
 10
288.6868134326583
 20
284.5819376414966
 30
0.0
 10
288.7535584141525
 20
284.5905529227291
 30
0.0
 10
289.0871441544014
 20
284.6306393001306
 30
0.0
 10
289.3542648705765
 20
284.6532611544202
 30
0.0
 10
289.8889461153515
 20
284.6791280639707
 30
0.0
 10
290.156506822608
 20
284.6823722564725
 30
0.0
 10
290.6919784084739
 20
284.6687894345446
 30
0.0
 10
290.9598894691098
 20
284.6519612341283
 30
0.0
 10
291.4959411214145
 20
284.5973584643821
 30
0.0
 10
291.7640818743141
 20
284.5595821181946
 30
0.0
 10
292.0322589432653
 20
284.5108262950095
 30
0.0
  0
SPLINE
  5
1C7
330
1F
100
AcDbEntity
  8
1
100
AcDbSpline
210
0.0
220
0.0
230
1.0
 70
     8
 71
     3
 72
    16
 73
    12
 74
     0
 42
0.000000001
 43
0.0000000001
 40
0.0
 40
0.0
 40
0.0
 40
0.0
 40
0.250000000000044
 40
0.250000000000044
 40
0.5000000000000881
 40
0.5000000000000881
 40
0.7500000000001323
 40
0.7500000000001323
 40
0.875000000000066
 40
0.875000000000066
 40
1.0
 40
1.0
 40
1.0
 40
1.0
 10
412.4858702999281
 20
292.3326549144237
 30
0.0
 10
412.4568967054695
 20
292.3101382077746
 30
0.0
 10
412.4270716421365
 20
292.2892059431652
 30
0.0
 10
412.3657515432796
 20
292.2504052405525
 30
0.0
 10
412.3342563977342
 20
292.2325372370022
 30
0.0
 10
412.2695720461426
 20
292.1998724045502
 30
0.0
 10
412.2363829905598
 20
292.1850754108493
 30
0.0
 10
412.1852680647043
 20
292.1652687274187
 30
0.0
 10
412.1680161351679
 20
292.1590708328275
 30
0.0
 10
412.1332813567058
 20
292.1475646441852
 30
0.0
 10
412.1157715040801
 20
292.1422455172956
 30
0.0
 10
412.0981156558952
 20
292.1373644286147
 30
0.0
  0
SPLINE
  5
1C8
330
1F
100
AcDbEntity
  8
1
100
AcDbSpline
210
0.0
220
0.0
230
1.0
 70
     8
 71
     3
 72
    21
 73
    17
 74
     0
 42
0.000000001
 43
0.0000000001
 40
0.0
 40
0.0
 40
0.0
 40
0.0
 40
0.2499999999999755
 40
0.2499999999999755
 40
0.4999999999999508
 40
0.4999999999999508
 40
0.5312499999999478
 40
0.5312499999999478
 40
0.5624999999999448
 40
0.6249999999999526
 40
0.6249999999999526
 40
0.7499999999999685
 40
0.7499999999999685
 40
0.8749999999999841
 40
0.8749999999999841
 40
1.0
 40
1.0
 40
1.0
 40
1.0
 10
412.1019286334728
 20
291.7716383713182
 30
0.0
 10
411.6187832075651
 20
291.7503818187807
 30
0.0
 10
411.1378134816631
 20
291.7564886204521
 30
0.0
 10
410.1801285890213
 20
291.8221067114692
 30
0.0
 10
409.7034134797116
 20
291.8816200607094
 30
0.0
 10
409.1695456284845
 20
291.9790504758984
 30
0.0
 10
409.110231605167
 20
291.9903067071305
 30
0.0
 10
408.9918680677077
 20
292.0136329071306
 30
0.0
 10
408.814694753919
 20
292.0498459625346
 30
0.0
 10
408.6386334523795
 20
292.0897147920854
 30
0.0
 10
408.2879865666778
 20
292.1742966583936
 30
0.0
 10
408.0561883543983
 20
292.2371397626239
 30
0.0
 10
407.5965178862377
 20
292.3756680822153
 30
0.0
 10
407.3686050782812
 20
292.4513681207256
 30
0.0
 10
406.9169032583664
 20
292.6156017385472
 30
0.0
 10
406.6941372431733
 20
292.7037607674663
 30
0.0
 10
406.4744242670706
 20
292.7978617875602
 30
0.0
  0
SPLINE
  5
1C9
330
1F
100
AcDbEntity
  8
1
100
AcDbSpline
210
0.0
220
0.0
230
1.0
 70
     8
 71
     3
 72
    27
 73
    23
 74
     0
 42
0.000000001
 43
0.0000000001
 40
0.0
 40
0.0
 40
0.0
 40
0.0
 40
0.1250000000000032
 40
0.1250000000000032
 40
0.2500000000000064
 40
0.2500000000000064
 40
0.2812499999999992
 40
0.2812499999999992
 40
0.3124999999999921
 40
0.3749999999999887
 40
0.3749999999999887
 40
0.4999999999999819
 40
0.4999999999999819
 40
0.5624999999999841
 40
0.5624999999999841
 40
0.6249999999999865
 40
0.6249999999999865
 40
0.749999999999991
 40
0.749999999999991
 40
0.8749999999999953
 40
0.8749999999999953
 40
1.0
 40
1.0
 40
1.0
 40
1.0
 10
405.3818331838758
 20
291.3472879769443
 30
0.0
 10
405.6338125855874
 20
291.1894491674365
 30
0.0
 10
405.891448279631
 20
291.0415371028357
 30
0.0
 10
406.4178296231588
 20
290.7656293025835
 30
0.0
 10
406.6865748802186
 20
290.6376322442918
 30
0.0
 10
407.0294257764293
 20
290.4902692680266
 30
0.0
 10
407.0983722217408
 20
290.4614174575868
 30
0.0
 10
407.236666335125
 20
290.4051023783611
 30
0.0
 10
407.4447949139993
 20
290.3226741646934
 30
0.0
 10
407.654971999722
 20
290.2463530812333
 30
0.0
 10
408.0780323908982
 20
290.1018145687743
 30
0.0
 10
408.3636767937232
 20
290.0162491421142
 30
0.0
 10
408.7975232356441
 20
289.9041339043355
 30
0.0
 10
408.9431960607025
 20
289.8694418791879
 30
0.0
 10
409.2347606562007
 20
289.8058368981444
 30
0.0
 10
409.3808085567099
 20
289.7768772050019
 30
0.0
 10
409.8197369130414
 20
289.6984098855051
 30
0.0
 10
410.1134007272526
 20
289.6573009769027
 30
0.0
 10
410.7027854481263
 20
289.5971884462227
 30
0.0
 10
410.9985063551661
 20
289.5781847682082
 30
0.0
 10
411.592014167857
 20
289.5624021062216
 30
0.0
 10
411.8898009558699
 20
289.5656218914375
 30
0.0
 10
412.1886467620958
 20
289.5802318279747
 30
0.0
  0
SPLINE
  5
1CA
330
1F
100
AcDbEntity
  8
1
100
AcDbSpline
210
0.0
220
0.0
230
1.0
 70
     8
 71
     3
 72
     8
 73
     4
 74
     0
 42
0.000000001
 43
0.0000000001
 40
0.0
 40
0.0
 40
0.0
 40
0.0
 40
1.0
 40
1.0
 40
1.0
 40
1.0
 10
412.1019286334729
 20
291.7716383713182
 30
0.0
 10
412.1058354220235
 20
291.7718102550858
 30
0.0
 10
412.1097433009425
 20
291.7719813375575
 30
0.0
 10
412.1136522720521
 20
291.7721516173945
 30
0.0
  0
SPLINE
  5
1CB
330
1F
100
AcDbEntity
  8
1
100
AcDbSpline
210
0.0
220
0.0
230
1.0
 70
     8
 71
     3
 72
    31
 73
    27
 74
     0
 42
0.000000001
 43
0.0000000001
 40
0.0
 40
0.0
 40
0.0
 40
0.0
 40
0.062499999999998
 40
0.062499999999998
 40
0.1249999999999959
 40
0.1249999999999959
 40
0.1874999999999939
 40
0.1874999999999939
 40
0.2499999999999919
 40
0.2499999999999919
 40
0.3124999999999899
 40
0.3124999999999899
 40
0.3749999999999878
 40
0.3749999999999878
 40
0.4999999999999841
 40
0.4999999999999841
 40
0.6249999999999804
 40
0.6249999999999804
 40
0.7499999999999768
 40
0.7499999999999768
 40
0.8124999999999747
 40
0.843749999999979
 40
0.843749999999979
 40
0.8749999999999833
 40
0.8749999999999833
 40
1.0
 40
1.0
 40
1.0
 40
1.0
 10
411.4678419452957
 20
290.3554498941171
 30
0.0
 10
411.3299137143949
 20
290.3485311089029
 30
0.0
 10
411.1937503090969
 20
290.342887430444
 30
0.0
 10
410.9236750909444
 20
290.3346932894297
 30
0.0
 10
410.7897726109795
 20
290.3321396944035
 30
0.0
 10
410.5234675822065
 20
290.3304784512841
 30
0.0
 10
410.3910703494129
 20
290.3313687819813
 30
0.0
 10
410.1273073454166
 20
290.3368436037487
 30
0.0
 10
409.9959445011956
 20
290.3414269068946
 30
0.0
 10
409.7339473513263
 20
290.3544781817038
 30
0.0
 10
409.6031948149283
 20
290.3629577569319
 30
0.0
 10
409.343206236163
 20
290.3838711930134
 30
0.0
 10
409.2138863656797
 20
290.3963050545116
 30
0.0
 10
408.8277021421701
 20
290.4396417980581
 30
0.0
 10
408.5725980585543
 20
290.4765791483639
 30
0.0
 10
408.0663476008738
 20
290.5670360068851
 30
0.0
 10
407.8151820582672
 20
290.6205792312454
 30
0.0
 10
407.3166719216114
 20
290.7446107224647
 30
0.0
 10
407.0693288658478
 20
290.8150945771
 30
0.0
 10
406.701038178267
 20
290.9340723433714
 30
0.0
 10
406.517574337004
 20
290.9968779787928
 30
0.0
 10
406.3351086975968
 20
291.0648008701232
 30
0.0
 10
406.2136841770884
 20
291.1112388852287
 30
0.0
 10
406.1530610377008
 20
291.1350445814673
 30
0.0
 10
405.8510658858708
 20
291.2567744238592
 30
0.0
 10
405.6126562558532
 20
291.3629321457155
 30
0.0
 10
405.377351627751
 20
291.4782737540662
 30
0.0
  0
SPLINE
  5
1CC
330
1F
100
AcDbEntity
  8
1
100
AcDbSpline
210
0.0
220
0.0
230
1.0
 70
     8
 71
     3
 72
    26
 73
    22
 74
     0
 42
0.000000001
 43
0.0000000001
 40
0.0
 40
0.0
 40
0.0
 40
0.0
 40
0.1249999999999696
 40
0.1249999999999696
 40
0.2499999999999392
 40
0.2499999999999392
 40
0.3124999999999239
 40
0.3124999999999239
 40
0.3749999999999087
 40
0.3749999999999087
 40
0.4999999999998784
 40
0.4999999999998784
 40
0.6249999999998482
 40
0.6249999999998482
 40
0.6874999999998735
 40
0.6874999999998735
 40
0.7499999999998988
 40
0.7499999999998988
 40
0.8749999999999493
 40
0.8749999999999493
 40
1.0
 40
1.0
 40
1.0
 40
1.0
 10
412.0981156558952
 20
292.1373644286147
 30
0.0
 10
412.0583089398605
 20
292.1263595701096
 30
0.0
 10
412.0182300141961
 20
292.1177006772855
 30
0.0
 10
411.9375340868137
 20
292.1049776614656
 30
0.0
 10
411.8969170134403
 20
292.1009141028946
 30
0.0
 10
411.8355807999533
 20
292.0983111204906
 30
0.0
 10
411.8150668476833
 20
292.0980266877923
 30
0.0
 10
411.7738992947813
 20
292.0986462551874
 30
0.0
 10
411.7531774308725
 20
292.0995571139528
 30
0.0
 10
411.691501626004
 20
292.1040579037036
 30
0.0
 10
411.6509417897892
 20
292.1093937179266
 30
0.0
 10
411.5708532483167
 20
292.1245440935743
 30
0.0
 10
411.5313244659518
 20
292.1343586764871
 30
0.0
 10
411.4727569638342
 20
292.1524282313224
 30
0.0
 10
411.4533555739273
 20
292.1590107288563
 30
0.0
 10
411.4147891758018
 20
292.1733099172256
 30
0.0
 10
411.3956380154103
 20
292.1810261747174
 30
0.0
 10
411.3392205142004
 20
292.205585685528
 30
0.0
 10
411.3027518773846
 20
292.2239181462666
 30
0.0
 10
411.2319940772847
 20
292.2643684897448
 30
0.0
 10
411.1977052486436
 20
292.2864866064712
 30
0.0
 10
411.1644947816748
 20
292.3105073357407
 30
0.0
  0
SPLINE
  5
1CD
330
1F
100
AcDbEntity
  8
1
100
AcDbSpline
210
0.0
220
0.0
230
1.0
 70
     8
 71
     3
 72
    10
 73
     6
 74
     0
 42
0.000000001
 43
0.0000000001
 40
0.0
 40
0.0
 40
0.0
 40
0.0
 40
0.5
 40
0.5
 40
1.0
 40
1.0
 40
1.0
 40
1.0
 10
408.3716575839383
 20
297.2047044697689
 30
0.0
 10
408.0702385621389
 20
297.6989306237628
 30
0.0
 10
407.7877234445876
 20
298.2036910714181
 30
0.0
 10
407.2562143497743
 20
299.2318917870889
 30
0.0
 10
407.0077613357703
 20
299.754262531629
 30
0.0
 10
406.7743752270543
 20
300.283693151207
 30
0.0
  0
SPLINE
  5
1CE
330
1F
100
AcDbEntity
  8
1
100
AcDbSpline
210
0.0
220
0.0
230
1.0
 70
     8
 71
     3
 72
    46
 73
    42
 74
     0
 42
0.000000001
 43
0.0000000001
 40
0.0
 40
0.0
 40
0.0
 40
0.0
 40
0.0466537594114429
 40
0.0466537594114429
 40
0.0933075188228858
 40
0.0933075188228858
 40
0.1166343985286078
 40
0.1166343985286078
 40
0.1399612782343298
 40
0.1399612782343298
 40
0.1866150376457739
 40
0.1866150376457739
 40
0.2332687970572179
 40
0.2332687970572179
 40
0.2799225564686619
 40
0.2799225564686619
 40
0.326576315880106
 40
0.326576315880106
 40
0.3732300752915501
 40
0.3732300752915501
 40
0.4198838347029941
 40
0.4198838347029941
 40
0.4665375941144382
 40
0.4665375941144382
 40
0.5598451129373263
 40
0.5598451129373263
 40
0.6531526317602144
 40
0.6531526317602144
 40
0.6998063911716585
 40
0.6998063911716585
 40
0.7464601505831025
 40
0.7464601505831025
 40
0.7931139099945466
 40
0.7931139099945466
 40
0.8397676694059905
 40
0.8397676694059905
 40
0.8864214288174347
 40
0.8864214288174347
 40
0.9330751882288785
 40
0.9330751882288785
 40
1.0
 40
1.0
 40
1.0
 40
1.0
 10
406.7743752270542
 20
300.2836931512072
 30
0.0
 10
405.6643036531587
 20
300.313864625878
 30
0.0
 10
404.5523421313722
 20
300.337013207037
 30
0.0
 10
402.3245617006883
 20
300.37245320321
 30
0.0
 10
401.2087442686533
 20
300.3847550656747
 30
0.0
 10
399.5322740278528
 20
300.397245199443
 30
0.0
 10
398.9729733185911
 20
300.4004113383551
 30
0.0
 10
397.8539316923214
 20
300.405060244987
 30
0.0
 10
397.2941380068509
 20
300.4065436121992
 30
0.0
 10
395.6139912246068
 20
300.4088836403088
 30
0.0
 10
394.4928690369952
 20
300.4076519433366
 30
0.0
 10
392.2489494370559
 20
300.4012991916032
 30
0.0
 10
391.1261529922755
 20
300.3961775336168
 30
0.0
 10
388.8793563743964
 20
300.383054420031
 30
0.0
 10
387.7553359029792
 20
300.3750514143327
 30
0.0
 10
385.5067315777245
 20
300.3565235075354
 30
0.0
 10
384.382176404342
 20
300.3459973322604
 30
0.0
 10
382.1330301127418
 20
300.3221691028118
 30
0.0
 10
381.0084303804618
 20
300.3088583694196
 30
0.0
 10
378.7592619188154
 20
300.2793406510457
 30
0.0
 10
377.6346934880404
 20
300.2631327790859
 30
0.0
 10
375.3856624889155
 20
300.2276319205097
 30
0.0
 10
374.2611940255375
 20
300.2083379226904
 30
0.0
 10
370.888160003958
 20
300.1454618062305
 30
0.0
 10
368.6399372038398
 20
300.0968963238697
 30
0.0
 10
364.1447590125573
 20
299.9841332217653
 30
0.0
 10
361.8977897381051
 20
299.9199715878835
 30
0.0
 10
358.5284975932268
 20
299.8096992267901
 30
0.0
 10
357.4055948832897
 20
299.7705950561662
 30
0.0
 10
355.1602586384079
 20
299.6870543255298
 30
0.0
 10
354.0378418263489
 20
299.6425569130828
 30
0.0
 10
351.7934589206922
 20
299.5478220446499
 30
0.0
 10
350.67145624654
 20
299.4975979259229
 30
0.0
 10
348.4279792491092
 20
299.3914073981672
 30
0.0
 10
347.3065065594243
 20
299.3354360621623
 30
0.0
 10
345.0639417165983
 20
299.2179681790365
 30
0.0
 10
343.9428499603632
 20
299.1564672682378
 30
0.0
 10
341.7008299484903
 20
299.0285682004837
 30
0.0
 10
340.579887177875
 20
298.9622280009315
 30
0.0
 10
337.8509092354584
 20
298.7957005902112
 30
0.0
 10
336.2428757715108
 20
298.6932375031408
 30
0.0
 10
334.6347030269415
 20
298.5870756241502
 30
0.0
  0
SPLINE
  5
1CF
330
1F
100
AcDbEntity
  8
1
100
AcDbSpline
210
0.0
220
0.0
230
1.0
 70
    28
 71
     4
 72
    13
 73
     8
 74
     0
 42
0.000000001
 43
0.0000000001
 40
0.0
 40
0.0
 40
0.0
 40
0.0
 40
0.0
 40
0.0209309885881948
 40
0.0209309885881948
 40
0.0209309885881948
 40
1.0
 40
1.0
 40
1.0
 40
1.0
 40
1.0
 10
297.9048419452957
 20
283.1903970963406
 30
0.0
 41
1.001546908329887
 10
297.9048419452957
 20
283.1658080404281
 30
0.0
 41
1.001554946878964
 10
297.9048419452957
 20
283.141195686163
 30
0.0
 41
1.001560432162498
 10
297.9048419452957
 20
283.1165618988622
 30
0.0
 41
1.00156323924462
 10
297.9048419452957
 20
281.9387228883134
 30
0.0
 41
1.00156323924462
 10
297.9048419452957
 20
280.5795913299057
 30
0.0
 41
0.9954213462452589
 10
297.9048419452957
 20
279.1862760767184
 30
0.0
 41
0.9963279797710347
 10
297.9048419452957
 20
277.9399460963519
 30
0.0
 41
0.9985882670052131
  0
SPLINE
  5
1D0
330
1F
100
AcDbEntity
  8
1
100
AcDbSpline
210
0.0
220
0.0
230
1.0
 70
     8
 71
     3
 72
    57
 73
    53
 74
     0
 42
0.000000001
 43
0.0000000001
 40
0.0
 40
0.0
 40
0.0
 40
0.0
 40
0.0624999999999997
 40
0.0624999999999997
 40
0.1249999999999994
 40
0.1249999999999994
 40
0.1874999999999991
 40
0.1874999999999991
 40
0.2499999999999988
 40
0.2499999999999988
 40
0.3124999999999984
 40
0.3124999999999984
 40
0.3437499999999984
 40
0.3437499999999984
 40
0.3749999999999984
 40
0.3749999999999984
 40
0.4062499999999984
 40
0.4062499999999984
 40
0.4374999999999984
 40
0.4374999999999984
 40
0.4687499999999984
 40
0.4687499999999984
 40
0.4999999999999983
 40
0.4999999999999983
 40
0.5312499999999983
 40
0.5312499999999983
 40
0.5624999999999982
 40
0.5624999999999982
 40
0.5937499999999982
 40
0.5937499999999982
 40
0.6249999999999979
 40
0.6249999999999979
 40
0.6562499999999979
 40
0.6562499999999979
 40
0.6874999999999979
 40
0.6874999999999979
 40
0.7187499999999979
 40
0.7187499999999979
 40
0.7499999999999979
 40
0.7499999999999979
 40
0.8124999999999982
 40
0.8124999999999982
 40
0.8749999999999985
 40
0.8749999999999985
 40
0.8906249999999987
 40
0.8906249999999987
 40
0.9062499999999987
 40
0.9062499999999987
 40
0.9374999999999992
 40
0.9374999999999992
 40
0.9687499999999996
 40
1.0
 40
1.0
 40
1.0
 40
1.0
 10
299.388604376762
 20
282.8683608029552
 30
0.0
 10
301.3671423418957
 20
282.6768988993101
 30
0.0
 10
303.3466555528632
 20
282.4970259632419
 30
0.0
 10
307.3070308928944
 20
282.1541691769738
 30
0.0
 10
309.2878905407443
 20
281.9911591757964
 30
0.0
 10
313.2501013320359
 20
281.6747431078066
 30
0.0
 10
315.2314733580327
 20
281.5213040253869
 30
0.0
 10
319.1932175228595
 20
281.2166837010444
 30
0.0
 10
321.1736254409429
 20
281.0654603618966
 30
0.0
 10
325.1322179503017
 20
280.7588471895919
 30
0.0
 10
327.1103959367987
 20
280.603409609185
 30
0.0
 10
330.0750520686225
 20
280.3640017766237
 30
0.0
 10
331.062836618404
 20
280.2831794348647
 30
0.0
 10
333.0374046481877
 20
280.1193194994363
 30
0.0
 10
334.0241877906093
 20
280.0362802808567
 30
0.0
 10
335.99664659452
 20
279.8680944819914
 30
0.0
 10
336.982321869684
 20
279.7829465085948
 30
0.0
 10
338.9524963095485
 20
279.6109841809585
 30
0.0
 10
339.9369950493378
 20
279.5241689326261
 30
0.0
 10
341.9047977916722
 20
279.3496815756603
 30
0.0
 10
342.8880752667766
 20
279.2619160191725
 30
0.0
 10
344.8540437567481
 20
279.0890977560628
 30
0.0
 10
345.836628505584
 20
279.0040762160884
 30
0.0
 10
347.8013125090528
 20
278.8395758284979
 30
0.0
 10
348.7834717392356
 20
278.7600866470957
 30
0.0
 10
350.7479855326037
 20
278.6083000944236
 30
0.0
 10
351.7303392985169
 20
278.5359940737724
 30
0.0
 10
353.6956594417818
 20
278.3993724086124
 30
0.0
 10
354.6786270195996
 20
278.3350546264538
 30
0.0
 10
356.6454775486956
 20
278.214603950522
 30
0.0
 10
357.6293319460392
 20
278.1583894321087
 30
0.0
 10
359.5978536501177
 20
278.0533222254218
 30
0.0
 10
360.5825222801898
 20
278.0044763550194
 30
0.0
 10
362.5527268509816
 20
277.9137434139708
 30
0.0
 10
363.5382639460109
 20
277.8718608554414
 30
0.0
 10
365.5103192057051
 20
277.7947204754904
 30
0.0
 10
366.4967702492457
 20
277.75946829799
 30
0.0
 10
368.4702124588001
 20
277.695234836024
 30
0.0
 10
369.4572658566336
 20
277.6662520458509
 30
0.0
 10
372.4196093006733
 20
277.5880092013441
 30
0.0
 10
374.3960893472413
 20
277.5474952646174
 30
0.0
 10
378.3531303779658
 20
277.4849651686137
 30
0.0
 10
380.3336918390659
 20
277.462916533622
 30
0.0
 10
382.8123842309198
 20
277.4433585302737
 30
0.0
 10
383.3082735398877
 20
277.43984753138
 30
0.0
 10
384.300350991838
 20
277.4335307669556
 30
0.0
 10
384.7965354230213
 20
277.4307220759558
 30
0.0
 10
386.2854655238121
 20
277.4231897506465
 30
0.0
 10
387.2785899733307
 20
277.419351333189
 30
0.0
 10
389.2655166100056
 20
277.4134389455349
 30
0.0
 10
391.2529286232712
 20
277.409294454037
 30
0.0
 10
393.2408481543638
 20
277.4079935137005
 30
0.0
 10
394.2348177895087
 20
277.4079935137005
 30
0.0
  0
SPLINE
  5
1D1
330
1F
100
AcDbEntity
  8
1
100
AcDbSpline
210
0.0
220
0.0
230
1.0
 70
     8
 71
     3
 72
    56
 73
    52
 74
     0
 42
0.000000001
 43
0.0000000001
 40
0.0
 40
0.0
 40
0.0
 40
0.0
 40
0.0624999999999999
 40
0.0624999999999999
 40
0.1249999999999998
 40
0.1249999999999998
 40
0.1874999999999998
 40
0.1874999999999998
 40
0.2499999999999997
 40
0.2499999999999997
 40
0.3124999999999996
 40
0.3124999999999996
 40
0.3749999999999995
 40
0.3749999999999995
 40
0.4062499999999997
 40
0.4062499999999997
 40
0.4374999999999997
 40
0.4374999999999997
 40
0.4687499999999998
 40
0.4687499999999998
 40
0.4999999999999999
 40
0.4999999999999999
 40
0.53125
 40
0.53125
 40
0.5625
 40
0.5625
 40
0.59375
 40
0.59375
 40
0.625
 40
0.625
 40
0.6875000000000002
 40
0.6875000000000002
 40
0.7500000000000004
 40
0.7500000000000004
 40
0.7812500000000002
 40
0.7812500000000002
 40
0.8125
 40
0.8125
 40
0.8437499999999998
 40
0.8437499999999998
 40
0.8749999999999996
 40
0.8749999999999996
 40
0.9062499999999996
 40
0.9062499999999996
 40
0.9374999999999994
 40
0.9374999999999994
 40
0.9687499999999992
 40
0.9687499999999992
 40
0.9843749999999996
 40
0.9843749999999996
 40
1.0
 40
1.0
 40
1.0
 40
1.0
 10
297.9048419452959
 20
300.1409507514338
 30
0.0
 10
300.1285814709336
 20
300.096533163925
 30
0.0
 10
302.3513893449919
 20
300.0446954695415
 30
0.0
 10
306.7953120295657
 20
299.9237233060515
 30
0.0
 10
309.0165059301578
 20
299.8545704512302
 30
0.0
 10
313.4570505952508
 20
299.6970819878919
 30
0.0
 10
315.6763919274857
 20
299.6087318603819
 30
0.0
 10
320.1137010749274
 20
299.4120191126352
 30
0.0
 10
322.3316703271721
 20
299.3036460592208
 30
0.0
 10
326.7668872435517
 20
299.0675292763833
 30
0.0
 10
328.9841377882456
 20
298.9397863099646
 30
0.0
 10
333.4186674027505
 20
298.6672124098228
 30
0.0
 10
335.6357493044731
 20
298.5224089180082
 30
0.0
 10
338.9615666494294
 20
298.2951883779087
 30
0.0
 10
340.0702108199933
 20
298.2177880012589
 30
0.0
 10
342.2876665495853
 20
298.060206498028
 30
0.0
 10
343.3964784017942
 20
297.9800357974535
 30
0.0
 10
345.6141248460414
 20
297.8162564631077
 30
0.0
 10
346.7229594312587
 20
297.7326451238144
 30
0.0
 10
348.9405760640997
 20
297.5615536260649
 30
0.0
 10
350.0493584698872
 20
297.4740730337996
 30
0.0
 10
352.2668600223001
 20
297.2951125076704
 30
0.0
 10
353.3755913853318
 20
297.2036333446059
 30
0.0
 10
355.5929761426847
 20
297.0168308826272
 30
0.0
 10
356.7016045058322
 20
296.9214864648615
 30
0.0
 10
358.9188552420291
 20
296.727608553453
 30
0.0
 10
360.0274795553537
 20
296.6290879519493
 30
0.0
 10
362.2448123261467
 20
296.4294370982371
 30
0.0
 10
363.3535203745954
 20
296.3283055515009
 30
0.0
 10
366.6798410057258
 20
296.0215228453578
 30
0.0
 10
368.8975804882799
 20
295.8125559368744
 30
0.0
 10
373.3333823818554
 20
295.3867060476356
 30
0.0
 10
375.5514985270037
 20
295.1698104496985
 30
0.0
 10
378.8786840192352
 20
294.8377255597571
 30
0.0
 10
379.9877374179677
 20
294.7258928884306
 30
0.0
 10
382.2057833545244
 20
294.499620645545
 30
0.0
 10
383.3147810176697
 20
294.385220036575
 30
0.0
 10
385.5326303567242
 20
294.1531375245814
 30
0.0
 10
386.6414707434066
 20
294.0353400925773
 30
0.0
 10
388.8588121957487
 20
293.7950226241978
 30
0.0
 10
389.9672771510661
 20
293.6724963991902
 30
0.0
 10
392.183764920994
 20
293.4223576043616
 30
0.0
 10
393.2917861537982
 20
293.2947304389364
 30
0.0
 10
395.5075190253118
 20
293.0352423144125
 30
0.0
 10
396.6152290251606
 20
292.9033650815765
 30
0.0
 10
398.8306872489106
 20
292.6379277998158
 30
0.0
 10
399.9384549857879
 20
292.5043482034645
 30
0.0
 10
401.6004692663766
 20
292.3062919066552
 30
0.0
 10
402.1545381429426
 20
292.2406770573299
 30
0.0
 10
403.2628970084176
 20
292.1111059145603
 30
0.0
 10
403.8171868785871
 20
292.0471484553378
 30
0.0
 10
404.3716440513724
 20
291.9845458244524
 30
0.0
  0
SPLINE
  5
1D2
330
1F
100
AcDbEntity
  8
1
100
AcDbSpline
210
0.0
220
0.0
230
1.0
 70
     8
 71
     3
 72
    56
 73
    52
 74
     0
 42
0.000000001
 43
0.0000000001
 40
0.0
 40
0.0
 40
0.0
 40
0.0
 40
0.1249999999999921
 40
0.1249999999999921
 40
0.187499999999996
 40
0.187499999999996
 40
0.2499999999999999
 40
0.2499999999999999
 40
0.3750000000000074
 40
0.3750000000000074
 40
0.4375000000000112
 40
0.4375000000000112
 40
0.5000000000000151
 40
0.5000000000000151
 40
0.5312500000000099
 40
0.5312500000000099
 40
0.5625000000000048
 40
0.5625000000000048
 40
0.6250000000000079
 40
0.6250000000000079
 40
0.6562500000000034
 40
0.6562500000000034
 40
0.6874999999999987
 40
0.6874999999999987
 40
0.7187499999999942
 40
0.7187499999999942
 40
0.7499999999999895
 40
0.7499999999999895
 40
0.7812499999999849
 40
0.7812499999999849
 40
0.7968749999999864
 40
0.7968749999999864
 40
0.8124999999999879
 40
0.8124999999999879
 40
0.843749999999985
 40
0.843749999999985
 40
0.8515624999999861
 40
0.8515624999999861
 40
0.8593749999999872
 40
0.8593749999999872
 40
0.8749999999999918
 40
0.9062500000000024
 40
0.9062500000000024
 40
0.9218750000000079
 40
0.9218750000000079
 40
0.9296875000000094
 40
0.9296875000000094
 40
0.9375000000000108
 40
0.9687500000000051
 40
0.9687500000000051
 40
1.0
 40
1.0
 40
1.0
 40
1.0
 10
405.0333197260189
 20
294.1965341590981
 30
0.0
 10
405.2359822713238
 20
294.2580700717164
 30
0.0
 10
405.4374564934648
 20
294.3233118027815
 30
0.0
 10
405.7374709542991
 20
294.4280254062683
 30
0.0
 10
405.837108122582
 20
294.4640764736154
 30
0.0
 10
406.0355532822951
 20
294.5387644191146
 30
0.0
 10
406.1342705901666
 20
294.5773681147342
 30
0.0
 10
406.4282703118871
 20
294.6972842081018
 30
0.0
 10
406.6215980689046
 20
294.7826957510716
 30
0.0
 10
406.9062075811221
 20
294.9218257985458
 30
0.0
 10
407.000173739379
 20
294.970051561155
 30
0.0
 10
407.1859391524036
 20
295.070936936777
 30
0.0
 10
407.2777411976636
 20
295.1235908399715
 30
0.0
 10
407.4134338522183
 20
295.2066853398896
 30
0.0
 10
407.4583748645942
 20
295.2351033003724
 30
0.0
 10
407.5472276958191
 20
295.2933205729028
 30
0.0
 10
407.591131869217
 20
295.3231121443756
 30
0.0
 10
407.7210836981524
 20
295.4147893115959
 30
0.0
 10
407.8053949997292
 20
295.478945534305
 30
0.0
 10
407.9272655538308
 20
295.5811905701368
 30
0.0
 10
407.9671414248529
 20
295.6163026605016
 30
0.0
 10
408.0449752669156
 20
295.6888163003837
 30
0.0
 10
408.0827050383128
 20
295.72600408174
 30
0.0
 10
408.1554257568245
 20
295.8025274273908
 30
0.0
 10
408.1904182926785
 20
295.8418617457976
 30
0.0
 10
408.2571832922722
 20
295.9230555595612
 30
0.0
 10
408.2889584953614
 20
295.9649129067232
 30
0.0
 10
408.3486265300775
 20
296.0516721524042
 30
0.0
 10
408.3765244579711
 20
296.0965700544368
 30
0.0
 10
408.414743283853
 20
296.1667620327517
 30
0.0
 10
408.4269116987636
 20
296.1907205437629
 30
0.0
 10
408.4495936655507
 20
296.2391016719285
 30
0.0
 10
408.4601309591861
 20
296.263556297754
 30
0.0
 10
408.4891619584391
 20
296.3377681543176
 30
0.0
 10
408.5050854609613
 20
296.3883698555765
 30
0.0
 10
408.5199993425379
 20
296.4532616686209
 30
0.0
 10
408.5227317615007
 20
296.4663222890888
 30
0.0
 10
408.527674685623
 20
296.4926150109563
 30
0.0
 10
408.5298893815743
 20
296.5058777086804
 30
0.0
 10
408.5356828666165
 20
296.5456944716731
 30
0.0
 10
408.5438539953249
 20
296.6252296785797
 30
0.0
 10
408.5417780495079
 20
296.7044699411907
 30
0.0
 10
408.5328316476547
 20
296.7835124496223
 30
0.0
 10
408.5287040041361
 20
296.8098269809236
 30
0.0
 10
408.5207855929581
 20
296.8492490707283
 30
0.0
 10
408.5178534933096
 20
296.8623953613438
 30
0.0
 10
408.5114769093058
 20
296.8884282794733
 30
0.0
 10
408.4942255700759
 20
296.953008499962
 30
0.0
 10
408.4707037568191
 20
297.0151852567093
 30
0.0
 10
408.426111400019
 20
297.1120012847115
 30
0.0
 10
408.4002340236917
 20
297.159209648531
 30
0.0
 10
408.3716575839383
 20
297.2047044697689
 30
0.0
  0
SPLINE
  5
1D3
330
1F
100
AcDbEntity
  8
1
100
AcDbSpline
210
0.0
220
0.0
230
1.0
 70
    12
 71
     3
 72
    10
 73
     6
 74
     0
 42
0.000000001
 43
0.0000000001
 40
0.0
 40
0.0
 40
0.0
 40
0.0
 40
0.0582786524930301
 40
0.5564604392215104
 40
1.0
 40
1.0
 40
1.0
 40
1.0
 10
352.038143245867
 20
297.3111198160808
 30
0.0
 41
1.005660604726425
 10
353.1344853357452
 20
297.3503205676175
 30
0.0
 41
1.005631565859079
 10
363.605394925566
 20
297.6643535917546
 30
0.0
 41
1.00506289574291
 10
382.4813218891424
 20
296.9024413644034
 30
0.0
 41
0.9968087562021072
 10
400.0342268030514
 20
296.517906626896
 30
0.0
 41
1.003816349040971
 10
408.3716575839447
 20
297.2047044697695
 30
0.0
 41
1.002294979532049
  0
SPLINE
  5
1D4
330
1F
100
AcDbEntity
  8
1
100
AcDbSpline
210
0.0
220
0.0
230
1.0
 70
     8
 71
     3
 72
    33
 73
    29
 74
     0
 42
0.000000001
 43
0.0000000001
 40
0.0
 40
0.0
 40
0.0
 40
0.0
 40
0.0625000000000005
 40
0.0625000000000005
 40
0.1250000000000011
 40
0.1250000000000011
 40
0.1875000000000016
 40
0.1875000000000016
 40
0.2500000000000021
 40
0.2500000000000021
 40
0.3125000000000027
 40
0.3125000000000027
 40
0.3750000000000032
 40
0.3750000000000032
 40
0.4375000000000038
 40
0.4375000000000038
 40
0.4531250000000038
 40
0.4531250000000038
 40
0.4687500000000038
 40
0.5000000000000037
 40
0.5000000000000037
 40
0.6250000000000027
 40
0.6250000000000027
 40
0.7500000000000018
 40
0.7500000000000018
 40
0.8750000000000007
 40
0.8750000000000007
 40
1.0
 40
1.0
 40
1.0
 40
1.0
 10
292.0322589432653
 20
277.5665673243516
 30
0.0
 10
291.7513640134352
 20
277.5505174313667
 30
0.0
 10
291.4737732352291
 20
277.527537764744
 30
0.0
 10
290.9245020406979
 20
277.4695120237235
 30
0.0
 10
290.6528227271453
 20
277.4344636315107
 30
0.0
 10
290.1148390042255
 20
277.3537240297041
 30
0.0
 10
289.8485353479375
 20
277.3080309685541
 30
0.0
 10
289.3208996002998
 20
277.2071237033844
 30
0.0
 10
289.0595680631177
 20
277.1519079391034
 30
0.0
 10
288.5415862398775
 20
277.0328256343905
 30
0.0
 10
288.2849363922107
 20
276.9689577489336
 30
0.0
 10
287.7761260501018
 20
276.8332336018775
 30
0.0
 10
287.5239659194324
 20
276.7613761830264
 30
0.0
 10
287.0240296293681
 20
276.6101648547822
 30
0.0
 10
286.7762537750937
 20
276.5308099673255
 30
0.0
 10
286.469255905964
 20
276.4271519100217
 30
0.0
 10
286.4080103554007
 20
276.406202524414
 30
0.0
 10
286.2859953463461
 20
276.3639331566424
 30
0.0
 10
286.1036146030792
 20
276.299948755699
 30
0.0
 10
285.9231451610073
 20
276.2342547059711
 30
0.0
 10
285.3257808969242
 20
276.0115992779785
 30
0.0
 10
284.8612820984042
 20
275.8217592023743
 30
0.0
 10
283.9587449973323
 20
275.420989720616
 30
0.0
 10
283.5207200768336
 20
275.2100429526282
 30
0.0
 10
282.6718315846238
 20
274.7685433349392
 30
0.0
 10
282.2609734696511
 20
274.5379804587726
 30
0.0
 10
281.4678254549988
 20
274.0583216483092
 30
0.0
 10
281.0855352754783
 20
273.8092178085467
 30
0.0
 10
280.7185504442905
 20
273.5513035817978
 30
0.0
  0
LINE
  5
1EE
330
1F
100
AcDbEntity
  8
SK4
100
AcDbLine
 10
214.904842
 20
288.907994
 30
0.0
 11
277.404842
 21
288.907994
 31
0.0
  0
LINE
  5
1EF
330
1F
100
AcDbEntity
  8
4
100
AcDbLine
 10
269.032259
 20
288.907994
 30
0.0
 11
423.7857519999999
 21
288.907994
 31
0.0
  0
MTEXT
  5
1F0
330
1F
100
AcDbEntity
  8
SK6
100
AcDbMText
 10
299.563793
 20
249.353545
 30
0.0
 40
3.5
 41
0.0
 71
     7
 72
     5
  1
\W0.7147;805D-24-120-S25
  7
cesky
 73
     2
 44
0.8433729999999998
  0
MTEXT
  5
306
330
1F
100
AcDbEntity
  8
2
100
AcDbMText
 10
343.827842
 20
329.044517
 30
0.0
 40
3.5
 41
0.0
 71
     7
 72
     5
  1
\W0.7809;145
  7
cesky
 73
     2
 44
0.8433729999999998
  0
LINE
  5
307
330
1F
100
AcDbEntity
  8
2
100
AcDbLine
 10
419.4048419999999
 20
300.907994
 30
0.0
 11
419.4048419999999
 21
330.17035
 31
0.0
  0
LINE
  5
308
330
1F
100
AcDbEntity
  8
2
100
AcDbLine
 10
274.404842
 20
289.907567
 30
0.0
 11
274.404842
 21
330.17035
 31
0.0
  0
LINE
  5
309
330
1F
100
AcDbEntity
  8
2
100
AcDbLine
 10
419.4048419999999
 20
329.17035
 30
0.0
 11
274.404842
 21
329.17035
 31
0.0
  0
SOLID
  5
30A
330
1F
100
AcDbEntity
  8
2
100
AcDbTrace
 10
419.4048419999999
 20
329.17035
 30
0.0
 11
415.9048439999999
 21
328.553206
 31
0.0
 12
415.9048399999999
 22
329.7874950000001
 32
0.0
 13
415.9048399999999
 23
329.7874950000001
 33
0.0
  0
SOLID
  5
30B
330
1F
100
AcDbEntity
  8
2
100
AcDbTrace
 10
274.404842
 20
329.17035
 30
0.0
 11
277.90484
 21
329.7874950000001
 31
0.0
 12
277.904844
 22
328.553206
 32
0.0
 13
277.904844
 23
328.553206
 33
0.0
  0
MTEXT
  5
30C
330
1F
100
AcDbEntity
  8
2
100
AcDbMText
 10
434.479855
 20
287.181723
 30
0.0
 40
3.5
 41
0.0
 71
     7
 72
     5
  1
\W0.6844;24
  7
cesky
 11
0.0000000000000001
 21
1.0
 31
0.0
 73
     2
 44
0.8433729999999998
  0
MTEXT
  5
30D
330
1F
100
AcDbEntity
  8
2
100
AcDbMText
 10
434.479855
 20
280.444223
 30
0.0
 40
3.5
 41
0.0
 71
     7
 72
     5
  1
\W3.0115;\H2.63;%%c\H3.50;
  7
cesky
 11
0.0000000000000001
 21
1.0
 31
0.0
 73
     2
 44
0.8433729999999998
  0
LINE
  5
30E
330
1F
100
AcDbEntity
  8
2
100
AcDbLine
 10
421.404842
 20
300.907994
 30
0.0
 11
435.6672709999999
 21
300.907994
 31
0.0
  0
LINE
  5
30F
330
1F
100
AcDbEntity
  8
2
100
AcDbLine
 10
434.6672709999999
 20
300.907994
 30
0.0
 11
434.6672709999999
 21
280.286723
 31
0.0
  0
SOLID
  5
310
330
1F
100
AcDbEntity
  8
2
100
AcDbTrace
 10
434.6672709999999
 20
300.907994
 30
0.0
 11
435.284416
 21
297.407996
 31
0.0
 12
434.0501269999999
 22
297.407991
 32
0.0
 13
434.0501269999999
 23
297.407991
 33
0.0
  0
MTEXT
  5
311
330
1F
100
AcDbEntity
  8
2
100
AcDbMText
 10
315.827842
 20
343.029854
 30
0.0
 40
3.5
 41
0.0
 71
     7
 72
     5
  1
\W0.8677;201
  7
cesky
 73
     2
 44
0.8433729999999998
  0
LINE
  5
312
330
1F
100
AcDbEntity
  8
2
100
AcDbLine
 10
419.4048419999999
 20
302.907994
 30
0.0
 11
419.4048419999999
 21
344.155687
 31
0.0
  0
LINE
  5
313
330
1F
100
AcDbEntity
  8
2
100
AcDbLine
 10
218.404842
 20
299.407994
 30
0.0
 11
218.404842
 21
344.155687
 31
0.0
  0
LINE
  5
314
330
1F
100
AcDbEntity
  8
2
100
AcDbLine
 10
419.4048419999999
 20
343.155687
 30
0.0
 11
218.404842
 21
343.155687
 31
0.0
  0
SOLID
  5
315
330
1F
100
AcDbEntity
  8
2
100
AcDbTrace
 10
419.4048419999999
 20
343.155687
 30
0.0
 11
415.9048439999999
 21
342.538543
 31
0.0
 12
415.9048399999999
 22
343.772832
 32
0.0
 13
415.9048399999999
 23
343.772832
 33
0.0
  0
SOLID
  5
316
330
1F
100
AcDbEntity
  8
2
100
AcDbTrace
 10
218.404842
 20
343.155687
 30
0.0
 11
221.90484
 21
343.772832
 31
0.0
 12
221.904844
 22
342.538543
 32
0.0
 13
221.904844
 23
342.538543
 33
0.0
  0
MTEXT
  5
317
330
1F
100
AcDbEntity
  8
2
100
AcDbMText
 10
244.590342
 20
329.044517
 30
0.0
 40
3.5
 41
0.0
 71
     7
 72
     5
  1
\W0.7259;56
  7
cesky
 73
     2
 44
0.8433729999999998
  0
LINE
  5
318
330
1F
100
AcDbEntity
  8
2
100
AcDbLine
 10
274.404842
 20
288.907994
 30
0.0
 11
274.404842
 21
330.17035
 31
0.0
  0
LINE
  5
319
330
1F
100
AcDbEntity
  8
2
100
AcDbLine
 10
218.404842
 20
299.407994
 30
0.0
 11
218.404842
 21
330.17035
 31
0.0
  0
LINE
  5
31A
330
1F
100
AcDbEntity
  8
2
100
AcDbLine
 10
274.404842
 20
329.17035
 30
0.0
 11
218.404842
 21
329.17035
 31
0.0
  0
SOLID
  5
31B
330
1F
100
AcDbEntity
  8
2
100
AcDbTrace
 10
274.404842
 20
329.17035
 30
0.0
 11
270.904844
 21
328.553206
 31
0.0
 12
270.90484
 22
329.7874950000001
 32
0.0
 13
270.90484
 23
329.7874950000001
 33
0.0
  0
SOLID
  5
31C
330
1F
100
AcDbEntity
  8
2
100
AcDbTrace
 10
218.404842
 20
329.17035
 30
0.0
 11
221.90484
 21
329.7874950000001
 31
0.0
 12
221.904844
 22
328.553206
 32
0.0
 13
221.904844
 23
328.553206
 33
0.0
  0
MTEXT
  5
31D
330
1F
100
AcDbEntity
  8
2
100
AcDbMText
 10
352.828943
 20
314.470071
 30
0.0
 40
3.5
 41
0.0
 71
     7
 72
     5
  1
\W0.7809;127
  7
cesky
 73
     2
 44
0.8433729999999998
  0
LINE
  5
31E
330
1F
100
AcDbEntity
  8
2
100
AcDbLine
 10
419.4048419999999
 20
302.907994
 30
0.0
 11
419.4048419999999
 21
315.595905
 31
0.0
  0
LINE
  5
31F
330
1F
100
AcDbEntity
  8
2
100
AcDbLine
 10
292.407044
 20
300.86522
 30
0.0
 11
292.407044
 21
315.595905
 31
0.0
  0
LINE
  5
320
330
1F
100
AcDbEntity
  8
2
100
AcDbLine
 10
419.4048419999999
 20
314.595905
 30
0.0
 11
292.407044
 21
314.595905
 31
0.0
  0
SOLID
  5
321
330
1F
100
AcDbEntity
  8
2
100
AcDbTrace
 10
419.4048419999999
 20
314.595905
 30
0.0
 11
415.9048439999999
 21
313.97876
 31
0.0
 12
415.9048399999999
 22
315.213049
 32
0.0
 13
415.9048399999999
 23
315.213049
 33
0.0
  0
SOLID
  5
322
330
1F
100
AcDbEntity
  8
2
100
AcDbTrace
 10
292.407044
 20
314.595905
 30
0.0
 11
295.907042
 21
315.213049
 31
0.0
 12
295.907046
 22
313.97876
 32
0.0
 13
295.907046
 23
313.97876
 33
0.0
  0
MTEXT
  5
323
330
1F
100
AcDbEntity
  8
SK2
100
AcDbMText
 10
205.76788
 20
290.434244
 30
0.0
 40
3.5
 41
0.0
 71
     7
 72
     5
  1
\W0.7045;25
  7
cesky
 11
0.0000000000000001
 21
1.0
 31
0.0
 73
     2
 44
0.8433729999999998
  0
MTEXT
  5
324
330
1F
100
AcDbEntity
  8
SK2
100
AcDbMText
 10
205.76788
 20
283.696744
 30
0.0
 40
3.5
 41
0.0
 71
     7
 72
     5
  1
\W3.0115;\H2.63;%%c\H3.50;
  7
cesky
 11
0.0000000000000001
 21
1.0
 31
0.0
 73
     2
 44
0.8433729999999998
  0
LINE
  5
325
330
1F
100
AcDbEntity
  8
SK2
100
AcDbLine
 10
220.404842
 20
301.407994
 30
0.0
 11
204.955296
 21
301.407994
 31
0.0
  0
LINE
  5
326
330
1F
100
AcDbEntity
  8
SK2
100
AcDbLine
 10
220.404842
 20
276.407994
 30
0.0
 11
204.955296
 21
276.407994
 31
0.0
  0
LINE
  5
327
330
1F
100
AcDbEntity
  8
SK2
100
AcDbLine
 10
205.955296
 20
301.407994
 30
0.0
 11
205.955296
 21
276.407994
 31
0.0
  0
SOLID
  5
328
330
1F
100
AcDbEntity
  8
SK2
100
AcDbTrace
 10
205.955296
 20
301.407994
 30
0.0
 11
206.572441
 21
297.9079959999999
 31
0.0
 12
205.338152
 22
297.907991
 32
0.0
 13
205.338152
 23
297.907991
 33
0.0
  0
SOLID
  5
329
330
1F
100
AcDbEntity
  8
SK2
100
AcDbTrace
 10
205.955296
 20
276.407994
 30
0.0
 11
205.338152
 21
279.9079910000001
 31
0.0
 12
206.572441
 22
279.907996
 32
0.0
 13
206.572441
 23
279.907996
 33
0.0
  0
MTEXT
  5
32A
330
1F
100
AcDbEntity
  8
SK2
100
AcDbMText
 10
189.956072
 20
290.434244
 30
0.0
 40
3.5
 41
0.0
 71
     7
 72
     5
  1
\W0.7045;35
  7
cesky
 11
0.0000000000000001
 21
1.0
 31
0.0
 73
     2
 44
0.8433729999999998
  0
MTEXT
  5
32B
330
1F
100
AcDbEntity
  8
SK2
100
AcDbMText
 10
189.956072
 20
283.696744
 30
0.0
 40
3.5
 41
0.0
 71
     7
 72
     5
  1
\W3.0115;\H2.63;%%c\H3.50;
  7
cesky
 11
0.0000000000000001
 21
1.0
 31
0.0
 73
     2
 44
0.8433729999999998
  0
LINE
  5
32C
330
1F
100
AcDbEntity
  8
SK2
100
AcDbLine
 10
274.904842
 20
306.407994
 30
0.0
 11
189.143489
 21
306.407994
 31
0.0
  0
LINE
  5
32D
330
1F
100
AcDbEntity
  8
SK2
100
AcDbLine
 10
274.904842
 20
271.407994
 30
0.0
 11
189.143489
 21
271.407994
 31
0.0
  0
LINE
  5
32E
330
1F
100
AcDbEntity
  8
SK2
100
AcDbLine
 10
190.143489
 20
306.407994
 30
0.0
 11
190.143489
 21
271.407994
 31
0.0
  0
SOLID
  5
32F
330
1F
100
AcDbEntity
  8
SK2
100
AcDbTrace
 10
190.143489
 20
306.407994
 30
0.0
 11
190.760634
 21
302.907996
 31
0.0
 12
189.526345
 22
302.907991
 32
0.0
 13
189.526345
 23
302.907991
 33
0.0
  0
SOLID
  5
330
330
1F
100
AcDbEntity
  8
SK2
100
AcDbTrace
 10
190.143489
 20
271.407994
 30
0.0
 11
189.526345
 21
274.907991
 31
0.0
 12
190.760634
 22
274.9079959999999
 32
0.0
 13
190.760634
 23
274.9079959999999
 33
0.0
  0
LINE
  5
331
330
1F
100
AcDbEntity
  8
CUT
100
AcDbLine
 10
419.3232220537611
 20
294.4990720017853
 30
0.0
 11
419.4048419452957
 21
289.8276302906288
 31
0.0
  0
LINE
  5
332
330
1F
100
AcDbEntity
  8
CUT
100
AcDbLine
 10
419.0465327619589
 20
294.9594922577518
 30
0.0
 11
419.3232220537611
 21
294.4990720017853
 31
0.0
  0
LINE
  5
333
330
1F
100
AcDbEntity
  8
CUT
100
AcDbLine
 10
411.6159463730311
 20
300.6092893673482
 30
0.0
 11
418.008710033887
 21
300.9041297180009
 31
0.0
  0
LINE
  5
334
330
1F
100
AcDbEntity
  8
CUT
100
AcDbLine
 10
418.8106906244818
 20
300.1747623657955
 30
0.0
 11
419.0465327619589
 21
294.9594922577518
 31
0.0
  0
LINE
  5
337
330
1F
100
AcDbEntity
  8
CUT
100
AcDbLine
 10
419.4048419999999
 20
289.82763
 30
0.0
 11
419.4048419999999
 21
288.907994
 31
0.0
  0
LINE
  5
338
330
1F
100
AcDbEntity
  8
CUT
100
AcDbLine
 10
419.4048419999999
 20
288.907994
 30
0.0
 11
410.882883
 21
288.907994
 31
0.0
  0
LINE
  5
339
330
1F
100
AcDbEntity
  8
CUT
100
AcDbLine
 10
410.882883
 20
288.907994
 30
0.0
 11
410.882883
 21
299.808533
 31
0.0
  0
ARC
  5
33A
330
1F
100
AcDbEntity
  8
CUT
100
AcDbCircle
 10
418.0349174298389
 20
300.1261746871693
 30
0.0
 40
0.7783963370923475
100
AcDbArc
 50
10.47650956295977
 51
91.92942456382736
  0
ARC
  5
33B
330
1F
100
AcDbEntity
  8
CUT
100
AcDbCircle
 10
418.0967334851201
 20
300.1422909836362
 30
0.0
 40
0.7146951710377784
100
AcDbArc
 50
2.604066600836365
 51
10.10713477968099
  0
ARC
  5
33C
330
1F
100
AcDbEntity
  8
CUT
100
AcDbCircle
 10
411.6621704169881
 20
299.831603570197
 30
0.0
 40
0.7796288741938628
100
AcDbArc
 50
97.5340986254678
 51
181.6957330381829
  0
ARC
  5
33D
330
1F
100
AcDbEntity
  8
CUT
100
AcDbCircle
 10
411.6490396911776
 20
299.8923108832398
 30
0.0
 40
0.7177418159619089
100
AcDbArc
 50
92.64270505869809
 51
97.13035356825002
  0
ENDSEC
  0
SECTION
  2
OBJECTS
  0
DICTIONARY
  5
C
330
0
100
AcDbDictionary
281
     1
  3
ACAD_CIP_PREVIOUS_PRODUCT_INFO
350
303
  3
ACAD_COLOR
350
2FE
  3
ACAD_DETAILVIEWSTYLE
350
2FA
  3
ACAD_GROUP
350
D
  3
ACAD_LAYOUT
350
1A
  3
ACAD_MATERIAL
350
43
  3
ACAD_MLEADERSTYLE
350
6B
  3
ACAD_MLINESTYLE
350
17
  3
ACAD_PLOTSETTINGS
350
19
  3
ACAD_PLOTSTYLENAME
350
E
  3
ACAD_SCALELIST
350
47
  3
ACAD_SECTIONVIEWSTYLE
350
2FB
  3
ACAD_TABLESTYLE
350
69
  3
ACAD_VISUALSTYLE
350
2A
  3
ACDB_RECOMPOSE_DATA
350
369
  3
AcDbVariableDictionary
350
2B7
  0
DICTIONARY
  5
34C
330
10
100
AcDbDictionary
280
     1
281
     1
  3
ADSK_XREC_LAYER_RECONCILED
360
34D
  0
DICTIONARY
  5
34E
330
33E
100
AcDbDictionary
280
     1
281
     1
  3
ADSK_XREC_LAYER_RECONCILED
360
34F
  0
DICTIONARY
  5
350
330
33F
100
AcDbDictionary
280
     1
281
     1
  3
ADSK_XREC_LAYER_RECONCILED
360
351
  0
DICTIONARY
  5
352
330
340
100
AcDbDictionary
280
     1
281
     1
  3
ADSK_XREC_LAYER_RECONCILED
360
353
  0
DICTIONARY
  5
354
330
342
100
AcDbDictionary
280
     1
281
     1
  3
ADSK_XREC_LAYER_RECONCILED
360
355
  0
DICTIONARY
  5
356
330
343
100
AcDbDictionary
280
     1
281
     1
  3
ADSK_XREC_LAYER_RECONCILED
360
357
  0
DICTIONARY
  5
358
330
345
100
AcDbDictionary
280
     1
281
     1
  3
ADSK_XREC_LAYER_RECONCILED
360
359
  0
DICTIONARY
  5
35A
330
346
100
AcDbDictionary
280
     1
281
     1
  3
ADSK_XREC_LAYER_RECONCILED
360
35B
  0
DICTIONARY
  5
35C
330
347
100
AcDbDictionary
280
     1
281
     1
  3
ADSK_XREC_LAYER_RECONCILED
360
35D
  0
DICTIONARY
  5
35E
330
348
100
AcDbDictionary
280
     1
281
     1
  3
ADSK_XREC_LAYER_RECONCILED
360
35F
  0
DICTIONARY
  5
360
330
349
100
AcDbDictionary
280
     1
281
     1
  3
ADSK_XREC_LAYER_RECONCILED
360
361
  0
DICTIONARY
  5
362
330
34A
100
AcDbDictionary
280
     1
281
     1
  3
ADSK_XREC_LAYER_RECONCILED
360
363
  0
DICTIONARY
  5
304
330
1F
100
AcDbDictionary
280
     1
281
     1
  3
ACAD_SORTENTS
360
305
  0
XRECORD
  5
303
102
{ACAD_REACTORS
330
C
102
}
330
C
100
AcDbXrecord
280
     1
300
ACD
300
2019
300
87084ACD_2019_0F
  0
DICTIONARY
  5
2FE
102
{ACAD_REACTORS
330
C
102
}
330
C
100
AcDbDictionary
281
     1
  0
DICTIONARY
  5
2FA
102
{ACAD_REACTORS
330
C
102
}
330
C
100
AcDbDictionary
281
     1
  3
Metric50
350
300
  0
DICTIONARY
  5
D
102
{ACAD_REACTORS
330
C
102
}
330
C
100
AcDbDictionary
281
     1
  3
NULOVY_BOD
350
34B
  0
DICTIONARY
  5
1A
102
{ACAD_REACTORS
330
C
102
}
330
C
100
AcDbDictionary
281
     1
  3
Layout1
350
1E
  3
Layout2
350
26
  3
Model
350
22
  0
DICTIONARY
  5
43
102
{ACAD_REACTORS
330
C
102
}
330
C
100
AcDbDictionary
281
     1
  3
ByBlock
350
45
  3
ByLayer
350
44
  3
Global
350
46
  0
DICTIONARY
  5
6B
102
{ACAD_REACTORS
330
C
102
}
330
C
100
AcDbDictionary
281
     1
  3
Standard
350
6C
  0
DICTIONARY
  5
17
102
{ACAD_REACTORS
330
C
102
}
330
C
100
AcDbDictionary
281
     1
  3
Standard
350
18
  0
DICTIONARY
  5
19
102
{ACAD_REACTORS
330
C
102
}
330
C
100
AcDbDictionary
281
     1
  0
ACDBDICTIONARYWDFLT
  5
E
102
{ACAD_REACTORS
330
C
102
}
330
C
100
AcDbDictionary
281
     1
  3
Normal
350
F
100
AcDbDictionaryWithDefault
340
F
  0
DICTIONARY
  5
47
102
{ACAD_REACTORS
330
C
102
}
330
C
100
AcDbDictionary
281
     1
  3
A0
350
48
  3
A1
350
49
  3
A2
350
4A
  3
A3
350
4B
  3
A4
350
4C
  3
A5
350
4D
  3
A6
350
4E
  3
A7
350
4F
  3
A8
350
50
  3
A9
350
51
  3
B0
350
52
  3
B1
350
53
  3
B2
350
54
  3
B3
350
55
  3
B4
350
56
  3
B5
350
57
  3
B6
350
58
  3
B7
350
59
  3
B8
350
5A
  3
B9
350
5B
  3
C0
350
5C
  3
C1
350
5D
  3
C2
350
5E
  3
C3
350
5F
  3
C4
350
60
  3
C5
350
61
  3
C6
350
62
  3
C7
350
63
  3
C8
350
64
  3
C9
350
65
  3
D0
350
66
  3
D1
350
67
  3
D2
350
68
  0
DICTIONARY
  5
2FB
102
{ACAD_REACTORS
330
C
102
}
330
C
100
AcDbDictionary
281
     1
  3
Metric50
350
2FF
  0
DICTIONARY
  5
69
102
{ACAD_REACTORS
330
C
102
}
330
C
100
AcDbDictionary
281
     1
  3
Standard
350
6A
  0
DICTIONARY
  5
2A
102
{ACAD_REACTORS
330
C
102
}
330
C
100
AcDbDictionary
281
     1
  3
2dWireframe
350
2F
  3
Basic
350
32
  3
Brighten
350
36
  3
ColorChange
350
3A
  3
Conceptual
350
34
  3
Dim
350
35
  3
EdgeColorOff
350
3D
  3
Facepattern
350
39
  3
Flat
350
2B
  3
FlatWithEdges
350
2C
  3
Gouraud
350
2D
  3
GouraudWithEdges
350
2E
  3
Hidden
350
31
  3
JitterOff
350
3B
  3
Linepattern
350
38
  3
OverhangOff
350
3C
  3
Realistic
350
33
  3
Shaded
350
42
  3
Shaded with edges
350
41
  3
Shades of Gray
350
3E
  3
Sketchy
350
3F
  3
Thicken
350
37
  3
Wireframe
350
30
  3
X-Ray
350
40
  0
XRECORD
  5
369
102
{ACAD_REACTORS
330
C
102
}
330
C
100
AcDbXrecord
280
     1
 90
        1
330
6A
  0
DICTIONARY
  5
2B7
102
{ACAD_REACTORS
330
C
102
}
330
C
100
AcDbDictionary
281
     1
  3
CANNOSCALE
350
2B8
  3
CMLEADERSTYLE
350
2F9
  3
CTABLESTYLE
350
2F8
  3
CVIEWDETAILSTYLE
350
364
  3
CVIEWSECTIONSTYLE
350
365
  3
MSLTSCALE
350
2B9
  3
XCLIPFRAME
350
366
  0
XRECORD
  5
34D
102
{ACAD_REACTORS
330
34C
102
}
330
34C
100
AcDbXrecord
280
     1
290
     1
  0
XRECORD
  5
34F
102
{ACAD_REACTORS
330
34E
102
}
330
34E
100
AcDbXrecord
280
     1
290
     1
  0
XRECORD
  5
351
102
{ACAD_REACTORS
330
350
102
}
330
350
100
AcDbXrecord
280
     1
290
     1
  0
XRECORD
  5
353
102
{ACAD_REACTORS
330
352
102
}
330
352
100
AcDbXrecord
280
     1
290
     1
  0
XRECORD
  5
355
102
{ACAD_REACTORS
330
354
102
}
330
354
100
AcDbXrecord
280
     1
290
     1
  0
XRECORD
  5
357
102
{ACAD_REACTORS
330
356
102
}
330
356
100
AcDbXrecord
280
     1
290
     1
  0
XRECORD
  5
359
102
{ACAD_REACTORS
330
358
102
}
330
358
100
AcDbXrecord
280
     1
290
     1
  0
XRECORD
  5
35B
102
{ACAD_REACTORS
330
35A
102
}
330
35A
100
AcDbXrecord
280
     1
290
     1
  0
XRECORD
  5
35D
102
{ACAD_REACTORS
330
35C
102
}
330
35C
100
AcDbXrecord
280
     1
290
     1
  0
XRECORD
  5
35F
102
{ACAD_REACTORS
330
35E
102
}
330
35E
100
AcDbXrecord
280
     1
290
     1
  0
XRECORD
  5
361
102
{ACAD_REACTORS
330
360
102
}
330
360
100
AcDbXrecord
280
     1
290
     1
  0
XRECORD
  5
363
102
{ACAD_REACTORS
330
362
102
}
330
362
100
AcDbXrecord
280
     1
290
     1
  0
SORTENTSTABLE
  5
305
102
{ACAD_REACTORS
330
304
102
}
330
304
100
AcDbSortentsTable
330
1F
331
306
  5
229
331
307
  5
242
331
308
  5
306
331
309
  5
307
331
30A
  5
308
331
30B
  5
309
331
30C
  5
30A
331
30D
  5
30B
331
30E
  5
30C
331
30F
  5
30D
331
310
  5
30E
331
311
  5
31F
331
312
  5
320
331
313
  5
321
331
314
  5
322
331
315
  5
323
331
316
  5
324
331
317
  5
325
331
318
  5
326
331
319
  5
327
331
31A
  5
328
331
31B
  5
329
331
31C
  5
32A
331
31D
  5
32B
331
31E
  5
32C
331
31F
  5
32D
331
320
  5
32E
331
321
  5
32F
331
322
  5
330
331
323
  5
311
331
324
  5
312
331
325
  5
313
331
326
  5
314
331
327
  5
315
331
328
  5
316
331
329
  5
317
331
32A
  5
318
331
32B
  5
319
331
32C
  5
31A
331
32D
  5
31B
331
32E
  5
31C
331
32F
  5
31D
331
330
  5
31E
331
337
  5
33B
331
338
  5
33C
331
339
  5
33D
331
33A
  5
337
331
33B
  5
338
331
33C
  5
339
331
33D
  5
33A
  0
ACDBDETAILVIEWSTYLE
  5
300
102
{ACAD_XDICTIONARY
360
39D
102
}
102
{ACAD_REACTORS
330
2FA
102
}
330
2FA
100
AcDbModelDocViewStyle
 70
     0
  3
Metric50
290
     0
100
AcDbDetailViewStyle
 70
     0
 71
     0
 90
        3
 71
     1
340
11
 62
   256
 40
5.0
340
0
 62
   256
 40
5.0
300

 40
0.0
280
     1
 71
     2
340
16
 90
       25
 62
   256
 71
     3
340
11
 62
   256
 40
5.0
 90
        0
 40
15.0
 90
        1
300
%<\AcVar ViewDetailId>% (%<\AcVar ViewScale \f "%sn">%)
 71
     4
340
16
 90
       25
 62
   256
340
16
 90
       25
 62
   256
280
     0
  0
GROUP
  5
34B
102
{ACAD_REACTORS
330
D
102
}
330
D
100
AcDbGroup
300

 70
     0
 71
     1
340
73
  0
LAYOUT
  5
1E
102
{ACAD_REACTORS
330
1A
102
}
330
1A
100
AcDbPlotSettings
  1

  2
none_device
  4

  6

 40
0.0
 41
0.0
 42
0.0
 43
0.0
 44
0.0
 45
0.0
 46
0.0
 47
0.0
 48
0.0
 49
0.0
140
0.0
141
0.0
142
1.0
143
1.0
 70
   688
 72
     0
 73
     0
 74
     5
  7

 75
    16
147
1.0
 76
     0
 77
     2
 78
   300
148
0.0
149
0.0
100
AcDbLayout
  1
Layout1
 70
     1
 71
     1
 10
-0.5
 20
-0.5
 11
5.0
 21
5.0
 12
0.0
 22
0.0
 32
0.0
 14
-0.5
 24
-0.5
 34
-0.5
 15
5.0
 25
5.0
 35
5.0
146
0.0
 13
0.0
 23
0.0
 33
0.0
 16
1.0
 26
0.0
 36
0.0
 17
0.0
 27
1.0
 37
0.0
 76
     0
330
1B
  0
LAYOUT
  5
26
102
{ACAD_REACTORS
330
1A
102
}
330
1A
100
AcDbPlotSettings
  1

  2
none_device
  4

  6

 40
0.0
 41
0.0
 42
0.0
 43
0.0
 44
0.0
 45
0.0
 46
0.0
 47
0.0
 48
0.0
 49
0.0
140
0.0
141
0.0
142
1.0
143
1.0
 70
   688
 72
     0
 73
     0
 74
     5
  7

 75
    16
147
1.0
 76
     0
 77
     2
 78
   300
148
0.0
149
0.0
100
AcDbLayout
  1
Layout2
 70
     1
 71
     2
 10
0.0
 20
0.0
 11
0.0
 21
0.0
 12
0.0
 22
0.0
 32
0.0
 14
0.0
 24
0.0
 34
0.0
 15
0.0
 25
0.0
 35
0.0
146
0.0
 13
0.0
 23
0.0
 33
0.0
 16
1.0
 26
0.0
 36
0.0
 17
0.0
 27
1.0
 37
0.0
 76
     0
330
23
  0
LAYOUT
  5
22
102
{ACAD_REACTORS
330
1A
102
}
330
1A
100
AcDbPlotSettings
  1

  2
none_device
  4
Letter_(8.50_x_11.00_Inches)
  6

 40
6.349999999999999
 41
6.349999999999999
 42
6.350005
 43
6.350005
 44
215.9
 45
279.4
 46
0.0
 47
0.0
 48
0.0
 49
0.0
140
0.0
141
0.0
142
1.0
143
1.0
 70
  1712
 72
     0
 73
     0
 74
     0
  7

 75
     0
147
1.0
 76
     0
 77
     2
 78
   300
148
0.0
149
0.0
100
AcDbLayout
  1
Model
 70
     1
 71
     0
 10
-0.5
 20
-0.5
 11
5.0
 21
5.0
 12
0.0
 22
0.0
 32
0.0
 14
-0.5
 24
-0.5
 34
-0.5
 15
5.0
 25
5.0
 35
5.0
146
0.0
 13
0.0
 23
0.0
 33
0.0
 16
1.0
 26
0.0
 36
0.0
 17
0.0
 27
1.0
 37
0.0
 76
     0
330
1F
331
29
  0
MATERIAL
  5
45
102
{ACAD_XDICTIONARY
360
2ED
102
}
102
{ACAD_REACTORS
330
43
102
}
330
43
100
AcDbMaterial
  1
ByBlock
  0
MATERIAL
  5
44
102
{ACAD_XDICTIONARY
360
2EB
102
}
102
{ACAD_REACTORS
330
43
102
}
330
43
100
AcDbMaterial
  1
ByLayer
  0
MATERIAL
  5
46
102
{ACAD_XDICTIONARY
360
2EF
102
}
102
{ACAD_REACTORS
330
43
102
}
330
43
100
AcDbMaterial
  1
Global
  0
MLEADERSTYLE
  5
6C
102
{ACAD_REACTORS
330
6B
102
}
330
6B
100
AcDbMLeaderStyle
170
     2
171
     1
172
     0
 90
        2
 40
0.0
 41
0.0
173
     1
 91
-1056964608
340
14
 92
       -2
290
     1
 42
0.09
291
     1
 43
0.36
  3
Standard
 44
0.18
300

342
11
174
     1
178
     6
175
     1
176
     0
 93
-1056964608
 45
0.18
292
     0
297
     0
 46
0.18
 94
-1056964608
 47
1.0
 49
1.0
140
1.0
293
     1
141
0.0
294
     1
177
     0
142
1.0
295
     0
296
     0
143
0.125
1001
ACAD_MLEADERVER
1070
     2
  0
MLINESTYLE
  5
18
102
{ACAD_REACTORS
330
17
102
}
330
17
100
AcDbMlineStyle
  2
STANDARD
 70
     0
  3

 62
   256
 51
90.0
 52
90.0
 71
     2
 49
0.5
 62
   256
  6
BYLAYER
 49
-0.5
 62
   256
  6
BYLAYER
  0
ACDBPLACEHOLDER
  5
F
102
{ACAD_REACTORS
330
E
102
}
330
E
  0
SCALE
  5
48
102
{ACAD_REACTORS
330
47
102
}
330
47
100
AcDbScale
 70
     0
300
1:1
140
1.0
141
1.0
290
     1
  0
SCALE
  5
49
102
{ACAD_REACTORS
330
47
102
}
330
47
100
AcDbScale
 70
     0
300
1:2
140
1.0
141
2.0
290
     0
  0
SCALE
  5
4A
102
{ACAD_REACTORS
330
47
102
}
330
47
100
AcDbScale
 70
     0
300
1:4
140
1.0
141
4.0
290
     0
  0
SCALE
  5
4B
102
{ACAD_REACTORS
330
47
102
}
330
47
100
AcDbScale
 70
     0
300
1:5
140
1.0
141
5.0
290
     0
  0
SCALE
  5
4C
102
{ACAD_REACTORS
330
47
102
}
330
47
100
AcDbScale
 70
     0
300
1:8
140
1.0
141
8.0
290
     0
  0
SCALE
  5
4D
102
{ACAD_REACTORS
330
47
102
}
330
47
100
AcDbScale
 70
     0
300
1:10
140
1.0
141
10.0
290
     0
  0
SCALE
  5
4E
102
{ACAD_REACTORS
330
47
102
}
330
47
100
AcDbScale
 70
     0
300
1:16
140
1.0
141
16.0
290
     0
  0
SCALE
  5
4F
102
{ACAD_REACTORS
330
47
102
}
330
47
100
AcDbScale
 70
     0
300
1:20
140
1.0
141
20.0
290
     0
  0
SCALE
  5
50
102
{ACAD_REACTORS
330
47
102
}
330
47
100
AcDbScale
 70
     0
300
1:30
140
1.0
141
30.0
290
     0
  0
SCALE
  5
51
102
{ACAD_REACTORS
330
47
102
}
330
47
100
AcDbScale
 70
     0
300
1:40
140
1.0
141
40.0
290
     0
  0
SCALE
  5
52
102
{ACAD_REACTORS
330
47
102
}
330
47
100
AcDbScale
 70
     0
300
1:50
140
1.0
141
50.0
290
     0
  0
SCALE
  5
53
102
{ACAD_REACTORS
330
47
102
}
330
47
100
AcDbScale
 70
     0
300
1:100
140
1.0
141
100.0
290
     0
  0
SCALE
  5
54
102
{ACAD_REACTORS
330
47
102
}
330
47
100
AcDbScale
 70
     0
300
2:1
140
2.0
141
1.0
290
     0
  0
SCALE
  5
55
102
{ACAD_REACTORS
330
47
102
}
330
47
100
AcDbScale
 70
     0
300
4:1
140
4.0
141
1.0
290
     0
  0
SCALE
  5
56
102
{ACAD_REACTORS
330
47
102
}
330
47
100
AcDbScale
 70
     0
300
8:1
140
8.0
141
1.0
290
     0
  0
SCALE
  5
57
102
{ACAD_REACTORS
330
47
102
}
330
47
100
AcDbScale
 70
     0
300
10:1
140
10.0
141
1.0
290
     0
  0
SCALE
  5
58
102
{ACAD_REACTORS
330
47
102
}
330
47
100
AcDbScale
 70
     0
300
100:1
140
100.0
141
1.0
290
     0
  0
SCALE
  5
59
102
{ACAD_REACTORS
330
47
102
}
330
47
100
AcDbScale
 70
     0
300
1/128" = 1'-0"
140
0.007812
141
12.0
290
     0
  0
SCALE
  5
5A
102
{ACAD_REACTORS
330
47
102
}
330
47
100
AcDbScale
 70
     0
300
1/64" = 1'-0"
140
0.015625
141
12.0
290
     0
  0
SCALE
  5
5B
102
{ACAD_REACTORS
330
47
102
}
330
47
100
AcDbScale
 70
     0
300
1/32" = 1'-0"
140
0.03125
141
12.0
290
     0
  0
SCALE
  5
5C
102
{ACAD_REACTORS
330
47
102
}
330
47
100
AcDbScale
 70
     0
300
1/16" = 1'-0"
140
0.0625
141
12.0
290
     0
  0
SCALE
  5
5D
102
{ACAD_REACTORS
330
47
102
}
330
47
100
AcDbScale
 70
     0
300
3/32" = 1'-0"
140
0.09375
141
12.0
290
     0
  0
SCALE
  5
5E
102
{ACAD_REACTORS
330
47
102
}
330
47
100
AcDbScale
 70
     0
300
1/8" = 1'-0"
140
0.125
141
12.0
290
     0
  0
SCALE
  5
5F
102
{ACAD_REACTORS
330
47
102
}
330
47
100
AcDbScale
 70
     0
300
3/16" = 1'-0"
140
0.1875
141
12.0
290
     0
  0
SCALE
  5
60
102
{ACAD_REACTORS
330
47
102
}
330
47
100
AcDbScale
 70
     0
300
1/4" = 1'-0"
140
0.25
141
12.0
290
     0
  0
SCALE
  5
61
102
{ACAD_REACTORS
330
47
102
}
330
47
100
AcDbScale
 70
     0
300
3/8" = 1'-0"
140
0.375
141
12.0
290
     0
  0
SCALE
  5
62
102
{ACAD_REACTORS
330
47
102
}
330
47
100
AcDbScale
 70
     0
300
1/2" = 1'-0"
140
0.5
141
12.0
290
     0
  0
SCALE
  5
63
102
{ACAD_REACTORS
330
47
102
}
330
47
100
AcDbScale
 70
     0
300
3/4" = 1'-0"
140
0.75
141
12.0
290
     0
  0
SCALE
  5
64
102
{ACAD_REACTORS
330
47
102
}
330
47
100
AcDbScale
 70
     0
300
1" = 1'-0"
140
1.0
141
12.0
290
     0
  0
SCALE
  5
65
102
{ACAD_REACTORS
330
47
102
}
330
47
100
AcDbScale
 70
     0
300
1-1/2" = 1'-0"
140
1.5
141
12.0
290
     0
  0
SCALE
  5
66
102
{ACAD_REACTORS
330
47
102
}
330
47
100
AcDbScale
 70
     0
300
3" = 1'-0"
140
3.0
141
12.0
290
     0
  0
SCALE
  5
67
102
{ACAD_REACTORS
330
47
102
}
330
47
100
AcDbScale
 70
     0
300
6" = 1'-0"
140
6.0
141
12.0
290
     0
  0
SCALE
  5
68
102
{ACAD_REACTORS
330
47
102
}
330
47
100
AcDbScale
 70
     0
300
1'-0" = 1'-0"
140
12.0
141
12.0
290
     0
  0
ACDBSECTIONVIEWSTYLE
  5
2FF
102
{ACAD_XDICTIONARY
360
39B
102
}
102
{ACAD_REACTORS
330
2FB
102
}
330
2FB
100
AcDbModelDocViewStyle
 70
     0
  3
Metric50
290
     0
100
AcDbSectionViewStyle
 70
     0
 71
     0
 90
      102
 71
     1
340
11
 62
   256
 40
5.0
340
0
340
0
 62
   256
 40
5.0
300
I, O, Q, S, X, Z
 40
10.0
 90
        0
 40
2.5
 90
        0
 71
     2
340
16
 90
       25
 62
   256
340
16
 90
       50
 62
   256
 40
5.0
 40
2.5
 40
5.0
 71
     3
340
11
 62
   256
 40
5.0
 90
        0
 40
15.0
 90
        1
300
%<\AcVar ViewSectionStartId>%-%<\AcVar ViewSectionEndId>% (%<\AcVar ViewScale \f "%sn">%)
 71
     4
 62
   256
 62
   257
300
ANSI31
 40
1.0
 90
        0
290
     0
290
     0
 90
        6
 40
0.0
 40
1.570796326794896
 40
0.2617993877991494
 40
1.308996938995747
 40
-0.2617993877991494
 40
1.832595714594046
  0
TABLESTYLE
  5
6A
102
{ACAD_XDICTIONARY
360
2F1
102
}
102
{ACAD_REACTORS
330
69
102
}
330
69
100
AcDbTableStyle
  3
Standard
 70
     0
 71
     0
 40
0.06
 41
0.06
280
     0
281
     0
  7
Standard
140
0.18
170
     2
 62
     0
 63
     7
283
     0
274
    -2
284
     1
 64
     0
275
    -2
285
     1
 65
     0
276
    -2
286
     1
 66
     0
277
    -2
287
     1
 67
     0
278
    -2
288
     1
 68
     0
279
    -2
289
     1
 69
     0
  7
Standard
140
0.25
170
     5
 62
     0
 63
     7
283
     0
274
    -2
284
     1
 64
     0
275
    -2
285
     1
 65
     0
276
    -2
286
     1
 66
     0
277
    -2
287
     1
 67
     0
278
    -2
288
     1
 68
     0
279
    -2
289
     1
 69
     0
  7
Standard
140
0.18
170
     5
 62
     0
 63
     7
283
     0
274
    -2
284
     1
 64
     0
275
    -2
285
     1
 65
     0
276
    -2
286
     1
 66
     0
277
    -2
287
     1
 67
     0
278
    -2
288
     1
 68
     0
279
    -2
289
     1
 69
     0
  0
VISUALSTYLE
  5
2F
102
{ACAD_XDICTIONARY
360
372
102
}
102
{ACAD_REACTORS
330
2A
102
}
330
2A
100
AcDbVisualStyle
  2

 70
     4
 71
     0
 72
     2
 73
     0
 90
        0
 40
-0.6
 41
-30.0
 62
     5
 63
     7
421
 16777215
 74
     1
 91
        4
 64
     7
 65
   257
 75
     1
175
     1
 42
1.0
 92
        0
 66
   257
 43
1.0
 76
     1
 77
     6
 78
     2
 67
     7
 79
     5
170
     0
171
     0
290
     0
174
     0
 93
        1
 44
0.0
173
     0
291
     0
 45
0.0
1001
ACAD
1000
AcDbSavedByObjectVersion
1070
     0
  0
VISUALSTYLE
  5
32
102
{ACAD_XDICTIONARY
360
378
102
}
102
{ACAD_REACTORS
330
2A
102
}
330
2A
100
AcDbVisualStyle
  2

 70
     7
 71
     1
 72
     0
 73
     1
 90
        0
 40
-0.6
 41
-30.0
 62
     5
 63
     7
421
 16777215
 74
     0
 91
        4
 64
     7
 65
   257
 75
     1
175
     1
 42
1.0
 92
        8
 66
     7
 43
1.0
 76
     1
 77
     6
 78
     2
 67
     7
 79
     5
170
     0
171
     0
290
     0
174
     0
 93
        1
 44
0.0
173
     0
291
     1
 45
0.0
1001
ACAD
1000
AcDbSavedByObjectVersion
1070
     0
  0
VISUALSTYLE
  5
36
102
{ACAD_XDICTIONARY
360
380
102
}
102
{ACAD_REACTORS
330
2A
102
}
330
2A
100
AcDbVisualStyle
  2

 70
    12
 71
     2
 72
     2
 73
     0
 90
        0
 40
-0.6
 41
-30.0
 62
     5
 63
     7
421
 16777215
 74
     1
 91
        4
 64
     7
 65
   257
 75
     1
175
     1
 42
1.0
 92
        8
 66
     7
 43
1.0
 76
     1
 77
     6
 78
     2
 67
     7
 79
     5
170
     0
171
     0
290
     0
174
     0
 93
        1
 44
50.0
173
     0
291
     1
 45
0.0
1001
ACAD
1000
AcDbSavedByObjectVersion
1070
     0
  0
VISUALSTYLE
  5
3A
102
{ACAD_XDICTIONARY
360
388
102
}
102
{ACAD_REACTORS
330
2A
102
}
330
2A
100
AcDbVisualStyle
  2

 70
    16
 71
     2
 72
     2
 73
     3
 90
        0
 40
-0.6
 41
-30.0
 62
     5
 63
     8
421
  8421504
 74
     1
 91
        4
 64
     7
 65
   257
 75
     1
175
     1
 42
1.0
 92
        8
 66
     8
424
  8421504
 43
1.0
 76
     1
 77
     6
 78
     2
 67
     7
 79
     5
170
     0
171
     0
290
     0
174
     0
 93
        1
 44
0.0
173
     0
291
     1
 45
0.0
1001
ACAD
1000
AcDbSavedByObjectVersion
1070
     0
  0
VISUALSTYLE
  5
34
102
{ACAD_XDICTIONARY
360
37C
102
}
102
{ACAD_REACTORS
330
2A
102
}
330
2A
100
AcDbVisualStyle
  2

 70
     9
 71
     3
 72
     2
 73
     0
 90
        0
 40
-0.6
 41
-30.0
 62
     5
 63
     7
421
 16777215
 74
     2
 91
        2
 64
     7
 65
   257
 75
     1
175
     1
 42
179.0
 92
        8
 66
     7
 43
1.0
 76
     1
 77
     6
 78
     2
 67
     7
 79
     3
170
     0
171
     0
290
     0
174
     0
 93
        1
 44
0.0
173
     0
291
     0
 45
0.0
1001
ACAD
1000
AcDbSavedByObjectVersion
1070
     0
  0
VISUALSTYLE
  5
35
102
{ACAD_XDICTIONARY
360
37E
102
}
102
{ACAD_REACTORS
330
2A
102
}
330
2A
100
AcDbVisualStyle
  2

 70
    11
 71
     2
 72
     2
 73
     0
 90
        0
 40
-0.6
 41
-30.0
 62
     5
 63
     7
421
 16777215
 74
     1
 91
        4
 64
     7
 65
   257
 75
     1
175
     1
 42
1.0
 92
        8
 66
     7
 43
1.0
 76
     1
 77
     6
 78
     2
 67
     7
 79
     5
170
     0
171
     0
290
     0
174
     0
 93
        1
 44
-50.0
173
     0
291
     1
 45
0.0
1001
ACAD
1000
AcDbSavedByObjectVersion
1070
     0
  0
VISUALSTYLE
  5
3D
102
{ACAD_XDICTIONARY
360
38E
102
}
102
{ACAD_REACTORS
330
2A
102
}
330
2A
100
AcDbVisualStyle
  2

 70
    22
 71
     2
 72
     2
 73
     0
 90
        0
 40
-0.6
 41
-30.0
 62
     5
 63
     7
421
 16777215
 74
     1
 91
        4
 64
     7
 65
   257
 75
     1
175
     1
 42
1.0
 92
        8
 66
     7
 43
1.0
 76
     1
 77
     6
 78
     2
 67
     7
 79
     5
170
     0
171
     0
290
     0
174
     0
 93
        1
 44
0.0
173
     0
291
     1
 45
0.0
1001
ACAD
1000
AcDbSavedByObjectVersion
1070
     0
  0
VISUALSTYLE
  5
39
102
{ACAD_XDICTIONARY
360
386
102
}
102
{ACAD_REACTORS
330
2A
102
}
330
2A
100
AcDbVisualStyle
  2

 70
    15
 71
     2
 72
     2
 73
     0
 90
        0
 40
-0.6
 41
-30.0
 62
     5
 63
     7
421
 16777215
 74
     1
 91
        4
 64
     7
 65
   257
 75
     1
175
     1
 42
1.0
 92
        8
 66
     7
 43
1.0
 76
     1
 77
     6
 78
     2
 67
     7
 79
     5
170
     0
171
     0
290
     0
174
     0
 93
        1
 44
0.0
173
     0
291
     1
 45
0.0
1001
ACAD
1000
AcDbSavedByObjectVersion
1070
     0
  0
VISUALSTYLE
  5
2B
102
{ACAD_XDICTIONARY
360
36A
102
}
102
{ACAD_REACTORS
330
2A
102
}
330
2A
100
AcDbVisualStyle
  2

 70
     0
 71
     2
 72
     1
 73
     1
 90
        2
 40
-0.6
 41
30.0
 62
     5
 63
     7
421
 16777215
 74
     0
 91
        0
 64
     7
 65
   257
 75
     1
175
     1
 42
1.0
 92
        8
 66
     7
 43
1.0
 76
     1
 77
     6
 78
     2
 67
     7
 79
     5
170
     0
171
     0
290
     0
174
     0
 93
       13
 44
0.0
173
     0
291
     1
 45
0.0
1001
ACAD
1000
AcDbSavedByObjectVersion
1070
     0
  0
VISUALSTYLE
  5
2C
102
{ACAD_XDICTIONARY
360
36C
102
}
102
{ACAD_REACTORS
330
2A
102
}
330
2A
100
AcDbVisualStyle
  2

 70
     1
 71
     2
 72
     1
 73
     1
 90
        2
 40
-0.6
 41
30.0
 62
     5
 63
     7
421
 16777215
 74
     1
 91
        0
 64
     7
 65
   257
 75
     1
175
     1
 42
1.0
 92
        0
 66
   257
 43
1.0
 76
     1
 77
     6
 78
     2
 67
     7
 79
     5
170
     0
171
     0
290
     0
174
     0
 93
       13
 44
0.0
173
     0
291
     1
 45
0.0
1001
ACAD
1000
AcDbSavedByObjectVersion
1070
     0
  0
VISUALSTYLE
  5
2D
102
{ACAD_XDICTIONARY
360
36E
102
}
102
{ACAD_REACTORS
330
2A
102
}
330
2A
100
AcDbVisualStyle
  2

 70
     2
 71
     2
 72
     2
 73
     1
 90
        2
 40
-0.6
 41
30.0
 62
     5
 63
     7
421
 16777215
 74
     0
 91
        0
 64
     7
 65
   257
 75
     1
175
     1
 42
1.0
 92
        0
 66
     7
 43
1.0
 76
     1
 77
     6
 78
     2
 67
     7
 79
     5
170
     0
171
     0
290
     0
174
     0
 93
       13
 44
0.0
173
     0
291
     1
 45
0.0
1001
ACAD
1000
AcDbSavedByObjectVersion
1070
     0
  0
VISUALSTYLE
  5
2E
102
{ACAD_XDICTIONARY
360
370
102
}
102
{ACAD_REACTORS
330
2A
102
}
330
2A
100
AcDbVisualStyle
  2

 70
     3
 71
     2
 72
     2
 73
     1
 90
        2
 40
-0.6
 41
30.0
 62
     5
 63
     7
421
 16777215
 74
     1
 91
        0
 64
     7
 65
   257
 75
     1
175
     1
 42
1.0
 92
        0
 66
   257
 43
1.0
 76
     1
 77
     6
 78
     2
 67
     7
 79
     5
170
     0
171
     0
290
     0
174
     0
 93
       13
 44
0.0
173
     0
291
     1
 45
0.0
1001
ACAD
1000
AcDbSavedByObjectVersion
1070
     0
  0
VISUALSTYLE
  5
31
102
{ACAD_XDICTIONARY
360
376
102
}
102
{ACAD_REACTORS
330
2A
102
}
330
2A
100
AcDbVisualStyle
  2

 70
     6
 71
     1
 72
     2
 73
     2
 90
        0
 40
-0.6
 41
-30.0
 62
     5
 63
     7
421
 16777215
 74
     2
 91
        2
 64
     7
 65
   257
 75
     2
175
     1
 42
40.0
 92
        0
 66
   257
 43
1.0
 76
     1
 77
     6
 78
     2
 67
     7
 79
     3
170
     0
171
     0
290
     0
174
     0
 93
        1
 44
0.0
173
     0
291
     0
 45
0.0
1001
ACAD
1000
AcDbSavedByObjectVersion
1070
     0
  0
VISUALSTYLE
  5
3B
102
{ACAD_XDICTIONARY
360
38A
102
}
102
{ACAD_REACTORS
330
2A
102
}
330
2A
100
AcDbVisualStyle
  2

 70
    20
 71
     2
 72
     2
 73
     0
 90
        0
 40
-0.6
 41
-30.0
 62
     5
 63
     7
421
 16777215
 74
     1
 91
        4
 64
     7
 65
   257
 75
     1
175
     1
 42
1.0
 92
       10
 66
     7
 43
1.0
 76
     1
 77
     6
 78
     2
 67
     7
 79
     5
170
     0
171
     0
290
     0
174
     0
 93
        1
 44
0.0
173
     0
291
     1
 45
0.0
1001
ACAD
1000
AcDbSavedByObjectVersion
1070
     0
  0
VISUALSTYLE
  5
38
102
{ACAD_XDICTIONARY
360
384
102
}
102
{ACAD_REACTORS
330
2A
102
}
330
2A
100
AcDbVisualStyle
  2

 70
    14
 71
     2
 72
     2
 73
     0
 90
        0
 40
-0.6
 41
-30.0
 62
     5
 63
     7
421
 16777215
 74
     1
 91
        4
 64
     7
 65
   257
 75
     7
175
     7
 42
1.0
 92
        8
 66
     7
 43
1.0
 76
     1
 77
     6
 78
     2
 67
     7
 79
     5
170
     0
171
     0
290
     0
174
     0
 93
        1
 44
0.0
173
     0
291
     1
 45
0.0
1001
ACAD
1000
AcDbSavedByObjectVersion
1070
     0
  0
VISUALSTYLE
  5
3C
102
{ACAD_XDICTIONARY
360
38C
102
}
102
{ACAD_REACTORS
330
2A
102
}
330
2A
100
AcDbVisualStyle
  2

 70
    21
 71
     2
 72
     2
 73
     0
 90
        0
 40
-0.6
 41
-30.0
 62
     5
 63
     7
421
 16777215
 74
     1
 91
        4
 64
     7
 65
   257
 75
     1
175
     1
 42
1.0
 92
        9
 66
     7
 43
1.0
 76
     1
 77
     6
 78
     2
 67
     7
 79
     5
170
     0
171
     0
290
     0
174
     0
 93
        1
 44
0.0
173
     0
291
     1
 45
0.0
1001
ACAD
1000
AcDbSavedByObjectVersion
1070
     0
  0
VISUALSTYLE
  5
33
102
{ACAD_XDICTIONARY
360
37A
102
}
102
{ACAD_REACTORS
330
2A
102
}
330
2A
100
AcDbVisualStyle
  2

 70
     8
 71
     2
 72
     3
 73
     0
 90
        2
 40
-0.6
 41
30.0
 62
     5
 63
     7
421
 16777215
 74
     0
 91
        0
 64
     7
 65
   257
 75
     1
175
     1
 42
1.0
 92
        8
 66
   257
 43
1.0
 76
     1
 77
     6
 78
     2
 67
     7
 79
     3
170
     0
171
     0
290
     0
174
     0
 93
       13
 44
0.0
173
     0
291
     0
 45
0.0
1001
ACAD
1000
AcDbSavedByObjectVersion
1070
     0
  0
VISUALSTYLE
  5
42
102
{ACAD_XDICTIONARY
360
398
102
}
102
{ACAD_REACTORS
330
2A
102
}
330
2A
100
AcDbVisualStyle
  2

 70
    27
 71
     2
 72
     2
 73
     1
 90
        2
 40
-0.6
 41
30.0
 62
     5
 63
     7
421
 16777215
 74
     0
 91
        4
 64
     7
 65
   257
 75
     1
175
     1
 42
1.0
 92
        8
 66
   257
 43
1.0
 76
     1
 77
     6
 78
     2
 67
     8
425
  7895160
 79
     3
170
     0
171
     0
290
     0
174
     0
 93
        5
 44
0.0
173
     0
291
     0
 45
0.0
1001
ACAD
1000
AcDbSavedByObjectVersion
1070
     0
  0
VISUALSTYLE
  5
41
102
{ACAD_XDICTIONARY
360
396
102
}
102
{ACAD_REACTORS
330
2A
102
}
330
2A
100
AcDbVisualStyle
  2

 70
    26
 71
     2
 72
     2
 73
     1
 90
        2
 40
-0.6
 41
30.0
 62
     5
 63
     7
421
 16777215
 74
     1
 91
       10
 64
     7
 65
   257
 75
     2
175
     1
 42
1.0
 92
        8
 66
   257
 43
1.0
 76
     1
 77
     6
 78
     2
 67
     7
 79
     3
170
     0
171
     0
290
     0
174
     0
 93
        5
 44
0.0
173
     0
291
     0
 45
0.0
1001
ACAD
1000
AcDbSavedByObjectVersion
1070
     0
  0
VISUALSTYLE
  5
3E
102
{ACAD_XDICTIONARY
360
390
102
}
102
{ACAD_REACTORS
330
2A
102
}
330
2A
100
AcDbVisualStyle
  2

 70
    23
 71
     2
 72
     2
 73
     3
 90
        0
 40
-0.6
 41
-30.0
 62
     5
 63
     7
421
 16777215
 74
     2
 91
        2
 64
     7
 65
     7
 75
     1
175
     1
 42
40.0
 92
        8
 66
     7
 43
1.0
 76
     1
 77
     6
 78
     2
 67
     7
 79
     3
170
     0
171
     0
290
     0
174
     0
 93
        1
 44
0.0
173
     0
291
     0
 45
0.0
1001
ACAD
1000
AcDbSavedByObjectVersion
1070
     0
  0
VISUALSTYLE
  5
3F
102
{ACAD_XDICTIONARY
360
392
102
}
102
{ACAD_REACTORS
330
2A
102
}
330
2A
100
AcDbVisualStyle
  2

 70
    24
 71
     1
 72
     2
 73
     2
 90
        0
 40
-0.6
 41
-30.0
 62
     5
 63
     7
421
 16777215
 74
     2
 91
        2
 64
     7
 65
     7
 75
     1
175
     1
 42
40.0
 92
       11
 66
     7
 43
1.0
 76
     1
 77
     6
 78
     2
 67
     7
 79
     6
170
     0
171
     0
290
     0
174
     0
 93
        1
 44
0.0
173
     0
291
     0
 45
0.0
1001
ACAD
1000
AcDbSavedByObjectVersion
1070
     0
  0
VISUALSTYLE
  5
37
102
{ACAD_XDICTIONARY
360
382
102
}
102
{ACAD_REACTORS
330
2A
102
}
330
2A
100
AcDbVisualStyle
  2

 70
    13
 71
     2
 72
     2
 73
     0
 90
        0
 40
-0.6
 41
-30.0
 62
     5
 63
     7
421
 16777215
 74
     1
 91
        4
 64
     7
 65
   257
 75
     1
175
     1
 42
1.0
 92
       12
 66
     7
 43
1.0
 76
     1
 77
     6
 78
     2
 67
     7
 79
     5
170
     0
171
     0
290
     0
174
     0
 93
        1
 44
0.0
173
     0
291
     1
 45
0.0
1001
ACAD
1000
AcDbSavedByObjectVersion
1070
     0
  0
VISUALSTYLE
  5
30
102
{ACAD_XDICTIONARY
360
374
102
}
102
{ACAD_REACTORS
330
2A
102
}
330
2A
100
AcDbVisualStyle
  2

 70
     5
 71
     0
 72
     2
 73
     0
 90
        0
 40
-0.6
 41
-30.0
 62
     5
 63
     7
421
 16777215
 74
     1
 91
        4
 64
     7
 65
   257
 75
     1
175
     1
 42
1.0
 92
        0
 66
   257
 43
1.0
 76
     1
 77
     6
 78
     2
 67
     7
 79
     3
170
     0
171
     0
290
     0
174
     0
 93
        1
 44
0.0
173
     0
291
     0
 45
0.0
1001
ACAD
1000
AcDbSavedByObjectVersion
1070
     0
  0
VISUALSTYLE
  5
40
102
{ACAD_XDICTIONARY
360
394
102
}
102
{ACAD_REACTORS
330
2A
102
}
330
2A
100
AcDbVisualStyle
  2

 70
    25
 71
     2
 72
     2
 73
     1
 90
        1
 40
0.5
 41
-30.0
 62
     5
 63
     7
421
 16777215
 74
     1
 91
        0
 64
     7
 65
   257
 75
     1
175
     1
 42
1.0
 92
        8
 66
     7
 43
1.0
 76
     1
 77
     6
 78
     2
 67
     7
 79
     3
170
     0
171
     0
290
     0
174
     0
 93
       13
 44
0.0
173
     0
291
     0
 45
0.0
1001
ACAD
1000
AcDbSavedByObjectVersion
1070
     0
  0
DICTIONARYVAR
  5
2B8
102
{ACAD_REACTORS
330
2B7
102
}
330
2B7
100
DictionaryVariables
280
     0
  1
1:1
  0
DICTIONARYVAR
  5
2F9
102
{ACAD_REACTORS
330
2B7
102
}
330
2B7
100
DictionaryVariables
280
     0
  1
STANDARD
  0
DICTIONARYVAR
  5
2F8
102
{ACAD_REACTORS
330
2B7
102
}
330
2B7
100
DictionaryVariables
280
     0
  1
STANDARD
  0
DICTIONARYVAR
  5
364
102
{ACAD_REACTORS
330
2B7
102
}
330
2B7
100
DictionaryVariables
280
     0
  1
Metric50
  0
DICTIONARYVAR
  5
365
102
{ACAD_REACTORS
330
2B7
102
}
330
2B7
100
DictionaryVariables
280
     0
  1
Metric50
  0
DICTIONARYVAR
  5
2B9
102
{ACAD_REACTORS
330
2B7
102
}
330
2B7
100
DictionaryVariables
280
     0
  1
1
  0
DICTIONARYVAR
  5
366
102
{ACAD_REACTORS
330
2B7
102
}
330
2B7
100
DictionaryVariables
280
     0
  1
2
  0
DICTIONARY
  5
39D
330
300
100
AcDbDictionary
280
     1
281
     1
  3
ACAD_XREC_ROUNDTRIP
360
39E
  0
DICTIONARY
  5
2ED
330
45
100
AcDbDictionary
280
     1
281
     1
  3
ACAD_XREC_ROUNDTRIP
360
2EE
  0
DICTIONARY
  5
2EB
330
44
100
AcDbDictionary
280
     1
281
     1
  3
ACAD_XREC_ROUNDTRIP
360
2EC
  0
DICTIONARY
  5
2EF
330
46
100
AcDbDictionary
280
     1
281
     1
  3
ACAD_XREC_ROUNDTRIP
360
2F0
  0
DICTIONARY
  5
39B
330
2FF
100
AcDbDictionary
280
     1
281
     1
  3
ACAD_XREC_ROUNDTRIP
360
39C
  0
DICTIONARY
  5
2F1
330
6A
100
AcDbDictionary
280
     1
281
     1
  3
ACAD_ROUNDTRIP_2008_TABLESTYLE_CELLSTYLEMAP
360
368
  3
ACAD_XREC_ROUNDTRIP
360
39A
  0
DICTIONARY
  5
372
330
2F
100
AcDbDictionary
280
     1
281
     1
  3
ACAD_XREC_ROUNDTRIP
360
373
  0
DICTIONARY
  5
378
330
32
100
AcDbDictionary
280
     1
281
     1
  3
ACAD_XREC_ROUNDTRIP
360
379
  0
DICTIONARY
  5
380
330
36
100
AcDbDictionary
280
     1
281
     1
  3
ACAD_XREC_ROUNDTRIP
360
381
  0
DICTIONARY
  5
388
330
3A
100
AcDbDictionary
280
     1
281
     1
  3
ACAD_XREC_ROUNDTRIP
360
389
  0
DICTIONARY
  5
37C
330
34
100
AcDbDictionary
280
     1
281
     1
  3
ACAD_XREC_ROUNDTRIP
360
37D
  0
DICTIONARY
  5
37E
330
35
100
AcDbDictionary
280
     1
281
     1
  3
ACAD_XREC_ROUNDTRIP
360
37F
  0
DICTIONARY
  5
38E
330
3D
100
AcDbDictionary
280
     1
281
     1
  3
ACAD_XREC_ROUNDTRIP
360
38F
  0
DICTIONARY
  5
386
330
39
100
AcDbDictionary
280
     1
281
     1
  3
ACAD_XREC_ROUNDTRIP
360
387
  0
DICTIONARY
  5
36A
330
2B
100
AcDbDictionary
280
     1
281
     1
  3
ACAD_XREC_ROUNDTRIP
360
36B
  0
DICTIONARY
  5
36C
330
2C
100
AcDbDictionary
280
     1
281
     1
  3
ACAD_XREC_ROUNDTRIP
360
36D
  0
DICTIONARY
  5
36E
330
2D
100
AcDbDictionary
280
     1
281
     1
  3
ACAD_XREC_ROUNDTRIP
360
36F
  0
DICTIONARY
  5
370
330
2E
100
AcDbDictionary
280
     1
281
     1
  3
ACAD_XREC_ROUNDTRIP
360
371
  0
DICTIONARY
  5
376
330
31
100
AcDbDictionary
280
     1
281
     1
  3
ACAD_XREC_ROUNDTRIP
360
377
  0
DICTIONARY
  5
38A
330
3B
100
AcDbDictionary
280
     1
281
     1
  3
ACAD_XREC_ROUNDTRIP
360
38B
  0
DICTIONARY
  5
384
330
38
100
AcDbDictionary
280
     1
281
     1
  3
ACAD_XREC_ROUNDTRIP
360
385
  0
DICTIONARY
  5
38C
330
3C
100
AcDbDictionary
280
     1
281
     1
  3
ACAD_XREC_ROUNDTRIP
360
38D
  0
DICTIONARY
  5
37A
330
33
100
AcDbDictionary
280
     1
281
     1
  3
ACAD_XREC_ROUNDTRIP
360
37B
  0
DICTIONARY
  5
398
330
42
100
AcDbDictionary
280
     1
281
     1
  3
ACAD_XREC_ROUNDTRIP
360
399
  0
DICTIONARY
  5
396
330
41
100
AcDbDictionary
280
     1
281
     1
  3
ACAD_XREC_ROUNDTRIP
360
397
  0
DICTIONARY
  5
390
330
3E
100
AcDbDictionary
280
     1
281
     1
  3
ACAD_XREC_ROUNDTRIP
360
391
  0
DICTIONARY
  5
392
330
3F
100
AcDbDictionary
280
     1
281
     1
  3
ACAD_XREC_ROUNDTRIP
360
393
  0
DICTIONARY
  5
382
330
37
100
AcDbDictionary
280
     1
281
     1
  3
ACAD_XREC_ROUNDTRIP
360
383
  0
DICTIONARY
  5
374
330
30
100
AcDbDictionary
280
     1
281
     1
  3
ACAD_XREC_ROUNDTRIP
360
375
  0
DICTIONARY
  5
394
330
40
100
AcDbDictionary
280
     1
281
     1
  3
ACAD_XREC_ROUNDTRIP
360
395
  0
XRECORD
  5
39E
102
{ACAD_REACTORS
330
39D
102
}
330
39D
100
AcDbXrecord
280
     1
102
DISPLAYNAME
  1
Metric50
102
FLAGS
 90
        0
  0
XRECORD
  5
2EE
102
{ACAD_REACTORS
330
2ED
102
}
330
2ED
100
AcDbXrecord
280
     1
102
MATERIAL
148
0.0
149
0.0
149
0.0
 93
        0
 94
      127
282
     0
 72
     1
 77
     1
171
     1
175
     1
179
     1
273
     0
  0
XRECORD
  5
2EC
102
{ACAD_REACTORS
330
2EB
102
}
330
2EB
100
AcDbXrecord
280
     1
102
MATERIAL
148
0.0
149
0.0
149
0.0
 93
        0
 94
      127
282
     0
 72
     1
 77
     1
171
     1
175
     1
179
     1
273
     0
  0
XRECORD
  5
2F0
102
{ACAD_REACTORS
330
2EF
102
}
330
2EF
100
AcDbXrecord
280
     1
102
MATERIAL
148
0.0
149
0.0
149
0.0
 93
        0
 94
      127
282
     0
 72
     1
 77
     1
171
     1
175
     1
179
     1
273
     0
  0
XRECORD
  5
39C
102
{ACAD_REACTORS
330
39B
102
}
330
39B
100
AcDbXrecord
280
     1
102
DISPLAYNAME
  1
Metric50
102
FLAGS
 90
        0
  0
CELLSTYLEMAP
  5
368
102
{ACAD_REACTORS
330
2F1
102
}
330
2F1
100
AcDbCellStyleMap
 90
        3
300
CELLSTYLE
  1
TABLEFORMAT_BEGIN
 90
        5
170
     1
 91
        0
 92
    32768
 62
   257
 93
        1
300
CONTENTFORMAT
  1
CONTENTFORMAT_BEGIN
 90
        0
 91
        0
 92
        4
 93
        0
300

 40
0.0
140
1.0
 94
        5
 62
     0
340
11
144
0.25
309
CONTENTFORMAT_END
171
     1
301
MARGIN
  1
CELLMARGIN_BEGIN
 40
0.06
 40
0.06
 40
0.06
 40
0.06
 40
0.18
 40
0.18
309
CELLMARGIN_END
 94
        6
 95
        1
302
GRIDFORMAT
  1
GRIDFORMAT_BEGIN
 90
        0
 91
        1
 62
     0
 92
       -2
340
14
 93
        0
 40
0.045
309
GRIDFORMAT_END
 95
        2
302
GRIDFORMAT
  1
GRIDFORMAT_BEGIN
 90
        0
 91
        1
 62
     0
 92
       -2
340
14
 93
        0
 40
0.045
309
GRIDFORMAT_END
 95
        4
302
GRIDFORMAT
  1
GRIDFORMAT_BEGIN
 90
        0
 91
        1
 62
     0
 92
       -2
340
14
 93
        0
 40
0.045
309
GRIDFORMAT_END
 95
        8
302
GRIDFORMAT
  1
GRIDFORMAT_BEGIN
 90
        0
 91
        1
 62
     0
 92
       -2
340
14
 93
        0
 40
0.045
309
GRIDFORMAT_END
 95
       16
302
GRIDFORMAT
  1
GRIDFORMAT_BEGIN
 90
        0
 91
        1
 62
     0
 92
       -2
340
14
 93
        0
 40
0.045
309
GRIDFORMAT_END
 95
       32
302
GRIDFORMAT
  1
GRIDFORMAT_BEGIN
 90
        0
 91
        1
 62
     0
 92
       -2
340
14
 93
        0
 40
0.045
309
GRIDFORMAT_END
309
TABLEFORMAT_END
  1
CELLSTYLE_BEGIN
 90
        1
 91
        1
300
_TITLE
309
CELLSTYLE_END
300
CELLSTYLE
  1
TABLEFORMAT_BEGIN
 90
        5
170
     1
 91
        0
 92
        0
 62
   257
 93
        1
300
CONTENTFORMAT
  1
CONTENTFORMAT_BEGIN
 90
        0
 91
        0
 92
        4
 93
        0
300

 40
0.0
140
1.0
 94
        5
 62
     0
340
11
144
0.18
309
CONTENTFORMAT_END
171
     1
301
MARGIN
  1
CELLMARGIN_BEGIN
 40
0.06
 40
0.06
 40
0.06
 40
0.06
 40
0.18
 40
0.18
309
CELLMARGIN_END
 94
        6
 95
        1
302
GRIDFORMAT
  1
GRIDFORMAT_BEGIN
 90
        0
 91
        1
 62
     0
 92
       -2
340
14
 93
        0
 40
0.045
309
GRIDFORMAT_END
 95
        2
302
GRIDFORMAT
  1
GRIDFORMAT_BEGIN
 90
        0
 91
        1
 62
     0
 92
       -2
340
14
 93
        0
 40
0.045
309
GRIDFORMAT_END
 95
        4
302
GRIDFORMAT
  1
GRIDFORMAT_BEGIN
 90
        0
 91
        1
 62
     0
 92
       -2
340
14
 93
        0
 40
0.045
309
GRIDFORMAT_END
 95
        8
302
GRIDFORMAT
  1
GRIDFORMAT_BEGIN
 90
        0
 91
        1
 62
     0
 92
       -2
340
14
 93
        0
 40
0.045
309
GRIDFORMAT_END
 95
       16
302
GRIDFORMAT
  1
GRIDFORMAT_BEGIN
 90
        0
 91
        1
 62
     0
 92
       -2
340
14
 93
        0
 40
0.045
309
GRIDFORMAT_END
 95
       32
302
GRIDFORMAT
  1
GRIDFORMAT_BEGIN
 90
        0
 91
        1
 62
     0
 92
       -2
340
14
 93
        0
 40
0.045
309
GRIDFORMAT_END
309
TABLEFORMAT_END
  1
CELLSTYLE_BEGIN
 90
        2
 91
        1
300
_HEADER
309
CELLSTYLE_END
300
CELLSTYLE
  1
TABLEFORMAT_BEGIN
 90
        5
170
     1
 91
        0
 92
        0
 62
   257
 93
        1
300
CONTENTFORMAT
  1
CONTENTFORMAT_BEGIN
 90
        0
 91
        0
 92
        4
 93
        0
300

 40
0.0
140
1.0
 94
        2
 62
     0
340
11
144
0.18
309
CONTENTFORMAT_END
171
     1
301
MARGIN
  1
CELLMARGIN_BEGIN
 40
0.06
 40
0.06
 40
0.06
 40
0.06
 40
0.18
 40
0.18
309
CELLMARGIN_END
 94
        6
 95
        1
302
GRIDFORMAT
  1
GRIDFORMAT_BEGIN
 90
        0
 91
        1
 62
     0
 92
       -2
340
14
 93
        0
 40
0.045
309
GRIDFORMAT_END
 95
        2
302
GRIDFORMAT
  1
GRIDFORMAT_BEGIN
 90
        0
 91
        1
 62
     0
 92
       -2
340
14
 93
        0
 40
0.045
309
GRIDFORMAT_END
 95
        4
302
GRIDFORMAT
  1
GRIDFORMAT_BEGIN
 90
        0
 91
        1
 62
     0
 92
       -2
340
14
 93
        0
 40
0.045
309
GRIDFORMAT_END
 95
        8
302
GRIDFORMAT
  1
GRIDFORMAT_BEGIN
 90
        0
 91
        1
 62
     0
 92
       -2
340
14
 93
        0
 40
0.045
309
GRIDFORMAT_END
 95
       16
302
GRIDFORMAT
  1
GRIDFORMAT_BEGIN
 90
        0
 91
        1
 62
     0
 92
       -2
340
14
 93
        0
 40
0.045
309
GRIDFORMAT_END
 95
       32
302
GRIDFORMAT
  1
GRIDFORMAT_BEGIN
 90
        0
 91
        1
 62
     0
 92
       -2
340
14
 93
        0
 40
0.045
309
GRIDFORMAT_END
309
TABLEFORMAT_END
  1
CELLSTYLE_BEGIN
 90
        3
 91
        2
300
_DATA
309
CELLSTYLE_END
  0
XRECORD
  5
39A
102
{ACAD_REACTORS
330
2F1
102
}
330
2F1
100
AcDbXrecord
280
     1
102
ACAD_ROUNDTRIP_PRE2007_TABLESTYLE
 90
        4
 91
        0
  1

 92
        4
 93
        0
  2

 94
        4
 95
        0
  3

  0
XRECORD
  5
373
102
{ACAD_REACTORS
330
372
102
}
330
372
100
AcDbXrecord
280
     1
102
RTVSPost2010Prop28
280
     1
102
RTVSPost2010PropOp28
 70
     1
102
RTVSPost2010Prop29
280
     1
102
RTVSPost2010PropOp29
 70
     1
102
RTVSPost2010Prop30
280
     0
102
RTVSPost2010PropOp30
 70
     1
102
RTVSPost2010Prop31
280
     0
102
RTVSPost2010PropOp31
 70
     1
102
RTVSPost2010Prop32
280
     0
102
RTVSPost2010PropOp32
 70
     1
102
RTVSPost2010Prop33
280
     0
102
RTVSPost2010PropOp33
 70
     1
102
RTVSPost2010Prop34
280
     0
102
RTVSPost2010PropOp34
 70
     1
102
RTVSPost2010Prop35
280
     0
102
RTVSPost2010PropOp35
 70
     1
102
RTVSPost2010Prop36
280
     0
102
RTVSPost2010PropOp36
 70
     1
102
RTVSPost2010Prop37
 90
       50
102
RTVSPost2010PropOp37
 70
     1
102
RTVSPost2010Prop38
140
0.0
102
RTVSPost2010PropOp38
 70
     1
102
RTVSPost2010Prop39
140
1.0
102
RTVSPost2010PropOp39
 70
     1
102
RTVSPost2010Prop40
 90
        0
102
RTVSPost2010PropOp40
 70
     1
102
RTVSPost2010Prop41ColorIndex
 90
       18
102
RTVSPost2010Prop41ColorRGB
 90
        0
102
RTVSPost2010PropOp41
 70
     1
102
RTVSPost2010Prop42
 90
       50
102
RTVSPost2010PropOp42
 70
     1
102
RTVSPost2010Prop43
 90
        3
102
RTVSPost2010PropOp43
 70
     1
102
RTVSPost2010Prop44ColorIndex
 90
        5
102
RTVSPost2010Prop44ColorRGB
 90
      255
102
RTVSPost2010PropOp44
 70
     1
102
RTVSPost2010Prop45
280
     0
102
RTVSPost2010PropOp45
 70
     1
102
RTVSPost2010Prop46
 90
       50
102
RTVSPost2010PropOp46
 70
     1
102
RTVSPost2010Prop47
 90
       50
102
RTVSPost2010PropOp47
 70
     1
102
RTVSPost2010Prop48
 90
       50
102
RTVSPost2010PropOp48
 70
     1
102
RTVSPost2010Prop49
280
     0
102
RTVSPost2010PropOp49
 70
     1
102
RTVSPost2010Prop50
 90
       50
102
RTVSPost2010PropOp50
 70
     1
102
RTVSPost2010Prop51ColorIndex
 90
      256
102
RTVSPost2010Prop51ColorRGB
 90
-16777216
102
RTVSPost2010PropOp51
 70
     0
102
RTVSPost2010Prop52
140
1.0
102
RTVSPost2010PropOp52
 70
     0
102
RTVSPost2010Prop53
 90
        2
102
RTVSPost2010PropOp53
 70
     1
102
RTVSPost2010Prop54
  1
strokes_ogs.tif
102
RTVSPost2010PropOp54
 70
     1
102
RTVSPost2010Prop55
280
     0
102
RTVSPost2010PropOp55
 70
     1
102
RTVSPost2010Prop56
140
1.0
102
RTVSPost2010PropOp56
 70
     1
102
RTVSPost2010Prop57
140
1.0
102
RTVSPost2010PropOp57
 70
     1
102
RTVSPropertyOp0
 70
     1
102
RTVSPropertyOp1
 70
     1
102
RTVSPropertyOp2
 70
     1
102
RTVSPropertyOp3
 70
     1
102
RTVSPropertyOp4
 70
     1
102
RTVSPropertyOp5
 70
     1
102
RTVSPropertyOp6
 70
     1
102
RTVSPropertyOp7
 70
     1
102
RTVSPropertyOp8
 70
     1
102
RTVSPropertyOp9
 70
     1
102
RTVSPropertyOp10
 70
     1
102
RTVSPropertyOp11
 70
     1
102
RTVSPropertyOp12
 70
     1
102
RTVSPropertyOp13
 70
     1
102
RTVSPropertyOp14
 70
     1
102
RTVSPropertyOp15
 70
     1
102
RTVSPropertyOp16
 70
     1
102
RTVSPropertyOp17
 70
     1
102
RTVSPropertyOp18
 70
     1
102
RTVSPropertyOp19
 70
     1
102
RTVSPropertyOp20
 70
     1
102
RTVSPropertyOp21
 70
     1
102
RTVSPropertyOp22
 70
     1
102
RTVSPropertyOp23
 70
     1
102
RTVSPropertyOp24
 70
     1
102
RTVSPropertyOp25
 70
     1
102
RTVSPropertyOp26
 70
     1
102
RTVSPropertyOp27
 70
     1
102
RTVSPropertyOp28
 70
     1
102
RTVSPropertyOp29
 70
     1
102
RTVSPropertyOp30
 70
     1
102
RTVSPropertyOp31
 70
     1
102
RTVSPropertyOp32
 70
     1
102
RTVSPropertyOp33
 70
     1
102
RTVSPropertyOp34
 70
     1
102
RTVSPropertyOp35
 70
     1
102
RTVSPropertyOp36
 70
     1
102
RTVSPropertyOp37
 70
     1
102
RTVSPropertyOp38
 70
     1
102
RTVSPropertyOp39
 70
     1
102
RTVSPropertyOp40
 70
     1
102
RTVSPropertyOp41
 70
     1
102
RTVSPropertyOp42
 70
     1
102
RTVSPropertyOp43
 70
     1
102
RTVSPropertyOp44
 70
     1
102
RTVSPropertyOp45
 70
     1
102
RTVSPropertyOp46
 70
     1
102
RTVSPropertyOp47
 70
     1
102
RTVSPropertyOp48
 70
     1
102
RTVSPropertyOp49
 70
     1
102
RTVSPropertyOp50
 70
     1
102
RTVSPropertyOp51
 70
     0
102
RTVSPropertyOp52
 70
     0
102
RTVSPropertyOp53
 70
     1
102
RTVSPropertyOp54
 70
     1
102
RTVSPropertyOp55
 70
     1
102
RTVSPropertyOp56
 70
     1
102
RTVSPropertyOp57
 70
     1
102
RTVSPropertyOp58
 70
     1
102
RTVSPropertyOp59
 70
     1
102
RTVSPropertyOp60
 70
     1
102
RTVSPropertyOp61
 70
     1
102
RTVSPropertyOp62
 70
     1
  0
XRECORD
  5
379
102
{ACAD_REACTORS
330
378
102
}
330
378
100
AcDbXrecord
280
     1
102
RTVSPost2010Prop28
280
     0
102
RTVSPost2010PropOp28
 70
     1
102
RTVSPost2010Prop29
280
     1
102
RTVSPost2010PropOp29
 70
     1
102
RTVSPost2010Prop30
280
     1
102
RTVSPost2010PropOp30
 70
     1
102
RTVSPost2010Prop31
280
     0
102
RTVSPost2010PropOp31
 70
     1
102
RTVSPost2010Prop32
280
     0
102
RTVSPost2010PropOp32
 70
     1
102
RTVSPost2010Prop33
280
     0
102
RTVSPost2010PropOp33
 70
     1
102
RTVSPost2010Prop34
280
     0
102
RTVSPost2010PropOp34
 70
     1
102
RTVSPost2010Prop35
280
     0
102
RTVSPost2010PropOp35
 70
     1
102
RTVSPost2010Prop36
280
     0
102
RTVSPost2010PropOp36
 70
     1
102
RTVSPost2010Prop37
 90
       50
102
RTVSPost2010PropOp37
 70
     1
102
RTVSPost2010Prop38
140
0.0
102
RTVSPost2010PropOp38
 70
     1
102
RTVSPost2010Prop39
140
1.0
102
RTVSPost2010PropOp39
 70
     1
102
RTVSPost2010Prop40
 90
        0
102
RTVSPost2010PropOp40
 70
     1
102
RTVSPost2010Prop41ColorIndex
 90
       18
102
RTVSPost2010Prop41ColorRGB
 90
        0
102
RTVSPost2010PropOp41
 70
     1
102
RTVSPost2010Prop42
 90
       50
102
RTVSPost2010PropOp42
 70
     1
102
RTVSPost2010Prop43
 90
        3
102
RTVSPost2010PropOp43
 70
     1
102
RTVSPost2010Prop44ColorIndex
 90
        5
102
RTVSPost2010Prop44ColorRGB
 90
      255
102
RTVSPost2010PropOp44
 70
     1
102
RTVSPost2010Prop45
280
     0
102
RTVSPost2010PropOp45
 70
     1
102
RTVSPost2010Prop46
 90
       50
102
RTVSPost2010PropOp46
 70
     1
102
RTVSPost2010Prop47
 90
       50
102
RTVSPost2010PropOp47
 70
     1
102
RTVSPost2010Prop48
 90
       50
102
RTVSPost2010PropOp48
 70
     1
102
RTVSPost2010Prop49
280
     0
102
RTVSPost2010PropOp49
 70
     1
102
RTVSPost2010Prop50
 90
       50
102
RTVSPost2010PropOp50
 70
     1
102
RTVSPost2010Prop51ColorIndex
 90
      256
102
RTVSPost2010Prop51ColorRGB
 90
-16777216
102
RTVSPost2010PropOp51
 70
     0
102
RTVSPost2010Prop52
140
1.0
102
RTVSPost2010PropOp52
 70
     0
102
RTVSPost2010Prop53
 90
        2
102
RTVSPost2010PropOp53
 70
     1
102
RTVSPost2010Prop54
  1
strokes_ogs.tif
102
RTVSPost2010PropOp54
 70
     1
102
RTVSPost2010Prop55
280
     0
102
RTVSPost2010PropOp55
 70
     1
102
RTVSPost2010Prop56
140
1.0
102
RTVSPost2010PropOp56
 70
     1
102
RTVSPost2010Prop57
140
1.0
102
RTVSPost2010PropOp57
 70
     1
102
RTVSPropertyOp0
 70
     1
102
RTVSPropertyOp1
 70
     1
102
RTVSPropertyOp2
 70
     1
102
RTVSPropertyOp3
 70
     1
102
RTVSPropertyOp4
 70
     1
102
RTVSPropertyOp5
 70
     1
102
RTVSPropertyOp6
 70
     1
102
RTVSPropertyOp7
 70
     1
102
RTVSPropertyOp8
 70
     1
102
RTVSPropertyOp9
 70
     1
102
RTVSPropertyOp10
 70
     1
102
RTVSPropertyOp11
 70
     1
102
RTVSPropertyOp12
 70
     1
102
RTVSPropertyOp13
 70
     1
102
RTVSPropertyOp14
 70
     1
102
RTVSPropertyOp15
 70
     1
102
RTVSPropertyOp16
 70
     1
102
RTVSPropertyOp17
 70
     1
102
RTVSPropertyOp18
 70
     1
102
RTVSPropertyOp19
 70
     1
102
RTVSPropertyOp20
 70
     1
102
RTVSPropertyOp21
 70
     1
102
RTVSPropertyOp22
 70
     1
102
RTVSPropertyOp23
 70
     1
102
RTVSPropertyOp24
 70
     1
102
RTVSPropertyOp25
 70
     1
102
RTVSPropertyOp26
 70
     1
102
RTVSPropertyOp27
 70
     1
102
RTVSPropertyOp28
 70
     1
102
RTVSPropertyOp29
 70
     1
102
RTVSPropertyOp30
 70
     1
102
RTVSPropertyOp31
 70
     1
102
RTVSPropertyOp32
 70
     1
102
RTVSPropertyOp33
 70
     1
102
RTVSPropertyOp34
 70
     1
102
RTVSPropertyOp35
 70
     1
102
RTVSPropertyOp36
 70
     1
102
RTVSPropertyOp37
 70
     1
102
RTVSPropertyOp38
 70
     1
102
RTVSPropertyOp39
 70
     1
102
RTVSPropertyOp40
 70
     1
102
RTVSPropertyOp41
 70
     1
102
RTVSPropertyOp42
 70
     1
102
RTVSPropertyOp43
 70
     1
102
RTVSPropertyOp44
 70
     1
102
RTVSPropertyOp45
 70
     1
102
RTVSPropertyOp46
 70
     1
102
RTVSPropertyOp47
 70
     1
102
RTVSPropertyOp48
 70
     1
102
RTVSPropertyOp49
 70
     1
102
RTVSPropertyOp50
 70
     1
102
RTVSPropertyOp51
 70
     0
102
RTVSPropertyOp52
 70
     0
102
RTVSPropertyOp53
 70
     1
102
RTVSPropertyOp54
 70
     1
102
RTVSPropertyOp55
 70
     1
102
RTVSPropertyOp56
 70
     1
102
RTVSPropertyOp57
 70
     1
102
RTVSPropertyOp58
 70
     1
102
RTVSPropertyOp59
 70
     1
102
RTVSPropertyOp60
 70
     1
102
RTVSPropertyOp61
 70
     1
102
RTVSPropertyOp62
 70
     1
  0
XRECORD
  5
381
102
{ACAD_REACTORS
330
380
102
}
330
380
100
AcDbXrecord
280
     1
102
RTVSPost2010Prop28
280
     0
102
RTVSPost2010PropOp28
 70
     1
102
RTVSPost2010Prop29
280
     1
102
RTVSPost2010PropOp29
 70
     1
102
RTVSPost2010Prop30
280
     1
102
RTVSPost2010PropOp30
 70
     1
102
RTVSPost2010Prop31
280
     0
102
RTVSPost2010PropOp31
 70
     1
102
RTVSPost2010Prop32
280
     0
102
RTVSPost2010PropOp32
 70
     1
102
RTVSPost2010Prop33
280
     0
102
RTVSPost2010PropOp33
 70
     1
102
RTVSPost2010Prop34
280
     0
102
RTVSPost2010PropOp34
 70
     1
102
RTVSPost2010Prop35
280
     0
102
RTVSPost2010PropOp35
 70
     1
102
RTVSPost2010Prop36
280
     0
102
RTVSPost2010PropOp36
 70
     1
102
RTVSPost2010Prop37
 90
       50
102
RTVSPost2010PropOp37
 70
     1
102
RTVSPost2010Prop38
140
0.0
102
RTVSPost2010PropOp38
 70
     1
102
RTVSPost2010Prop39
140
1.0
102
RTVSPost2010PropOp39
 70
     1
102
RTVSPost2010Prop40
 90
        0
102
RTVSPost2010PropOp40
 70
     1
102
RTVSPost2010Prop41ColorIndex
 90
       18
102
RTVSPost2010Prop41ColorRGB
 90
        0
102
RTVSPost2010PropOp41
 70
     1
102
RTVSPost2010Prop42
 90
       50
102
RTVSPost2010PropOp42
 70
     1
102
RTVSPost2010Prop43
 90
        3
102
RTVSPost2010PropOp43
 70
     1
102
RTVSPost2010Prop44ColorIndex
 90
        5
102
RTVSPost2010Prop44ColorRGB
 90
      255
102
RTVSPost2010PropOp44
 70
     1
102
RTVSPost2010Prop45
280
     0
102
RTVSPost2010PropOp45
 70
     1
102
RTVSPost2010Prop46
 90
       50
102
RTVSPost2010PropOp46
 70
     1
102
RTVSPost2010Prop47
 90
       50
102
RTVSPost2010PropOp47
 70
     1
102
RTVSPost2010Prop48
 90
       50
102
RTVSPost2010PropOp48
 70
     1
102
RTVSPost2010Prop49
280
     0
102
RTVSPost2010PropOp49
 70
     1
102
RTVSPost2010Prop50
 90
       50
102
RTVSPost2010PropOp50
 70
     1
102
RTVSPost2010Prop51ColorIndex
 90
      256
102
RTVSPost2010Prop51ColorRGB
 90
-16777216
102
RTVSPost2010PropOp51
 70
     0
102
RTVSPost2010Prop52
140
1.0
102
RTVSPost2010PropOp52
 70
     0
102
RTVSPost2010Prop53
 90
        2
102
RTVSPost2010PropOp53
 70
     1
102
RTVSPost2010Prop54
  1
strokes_ogs.tif
102
RTVSPost2010PropOp54
 70
     1
102
RTVSPost2010Prop55
280
     0
102
RTVSPost2010PropOp55
 70
     1
102
RTVSPost2010Prop56
140
1.0
102
RTVSPost2010PropOp56
 70
     1
102
RTVSPost2010Prop57
140
1.0
102
RTVSPost2010PropOp57
 70
     1
102
RTVSPropertyOp0
 70
     1
102
RTVSPropertyOp1
 70
     1
102
RTVSPropertyOp2
 70
     1
102
RTVSPropertyOp3
 70
     1
102
RTVSPropertyOp4
 70
     1
102
RTVSPropertyOp5
 70
     1
102
RTVSPropertyOp6
 70
     1
102
RTVSPropertyOp7
 70
     1
102
RTVSPropertyOp8
 70
     1
102
RTVSPropertyOp9
 70
     1
102
RTVSPropertyOp10
 70
     1
102
RTVSPropertyOp11
 70
     1
102
RTVSPropertyOp12
 70
     1
102
RTVSPropertyOp13
 70
     1
102
RTVSPropertyOp14
 70
     1
102
RTVSPropertyOp15
 70
     1
102
RTVSPropertyOp16
 70
     1
102
RTVSPropertyOp17
 70
     1
102
RTVSPropertyOp18
 70
     1
102
RTVSPropertyOp19
 70
     1
102
RTVSPropertyOp20
 70
     1
102
RTVSPropertyOp21
 70
     1
102
RTVSPropertyOp22
 70
     1
102
RTVSPropertyOp23
 70
     1
102
RTVSPropertyOp24
 70
     1
102
RTVSPropertyOp25
 70
     1
102
RTVSPropertyOp26
 70
     1
102
RTVSPropertyOp27
 70
     1
102
RTVSPropertyOp28
 70
     1
102
RTVSPropertyOp29
 70
     1
102
RTVSPropertyOp30
 70
     1
102
RTVSPropertyOp31
 70
     1
102
RTVSPropertyOp32
 70
     1
102
RTVSPropertyOp33
 70
     1
102
RTVSPropertyOp34
 70
     1
102
RTVSPropertyOp35
 70
     1
102
RTVSPropertyOp36
 70
     1
102
RTVSPropertyOp37
 70
     1
102
RTVSPropertyOp38
 70
     1
102
RTVSPropertyOp39
 70
     1
102
RTVSPropertyOp40
 70
     1
102
RTVSPropertyOp41
 70
     1
102
RTVSPropertyOp42
 70
     1
102
RTVSPropertyOp43
 70
     1
102
RTVSPropertyOp44
 70
     1
102
RTVSPropertyOp45
 70
     1
102
RTVSPropertyOp46
 70
     1
102
RTVSPropertyOp47
 70
     1
102
RTVSPropertyOp48
 70
     1
102
RTVSPropertyOp49
 70
     1
102
RTVSPropertyOp50
 70
     1
102
RTVSPropertyOp51
 70
     0
102
RTVSPropertyOp52
 70
     0
102
RTVSPropertyOp53
 70
     1
102
RTVSPropertyOp54
 70
     1
102
RTVSPropertyOp55
 70
     1
102
RTVSPropertyOp56
 70
     1
102
RTVSPropertyOp57
 70
     1
102
RTVSPropertyOp58
 70
     1
102
RTVSPropertyOp59
 70
     1
102
RTVSPropertyOp60
 70
     1
102
RTVSPropertyOp61
 70
     1
102
RTVSPropertyOp62
 70
     1
  0
XRECORD
  5
389
102
{ACAD_REACTORS
330
388
102
}
330
388
100
AcDbXrecord
280
     1
102
RTVSPost2010Prop28
280
     0
102
RTVSPost2010PropOp28
 70
     1
102
RTVSPost2010Prop29
280
     1
102
RTVSPost2010PropOp29
 70
     1
102
RTVSPost2010Prop30
280
     1
102
RTVSPost2010PropOp30
 70
     1
102
RTVSPost2010Prop31
280
     0
102
RTVSPost2010PropOp31
 70
     1
102
RTVSPost2010Prop32
280
     0
102
RTVSPost2010PropOp32
 70
     1
102
RTVSPost2010Prop33
280
     0
102
RTVSPost2010PropOp33
 70
     1
102
RTVSPost2010Prop34
280
     0
102
RTVSPost2010PropOp34
 70
     1
102
RTVSPost2010Prop35
280
     0
102
RTVSPost2010PropOp35
 70
     1
102
RTVSPost2010Prop36
280
     0
102
RTVSPost2010PropOp36
 70
     1
102
RTVSPost2010Prop37
 90
       50
102
RTVSPost2010PropOp37
 70
     1
102
RTVSPost2010Prop38
140
0.0
102
RTVSPost2010PropOp38
 70
     1
102
RTVSPost2010Prop39
140
1.0
102
RTVSPost2010PropOp39
 70
     1
102
RTVSPost2010Prop40
 90
        0
102
RTVSPost2010PropOp40
 70
     1
102
RTVSPost2010Prop41ColorIndex
 90
       18
102
RTVSPost2010Prop41ColorRGB
 90
        0
102
RTVSPost2010PropOp41
 70
     1
102
RTVSPost2010Prop42
 90
       50
102
RTVSPost2010PropOp42
 70
     1
102
RTVSPost2010Prop43
 90
        3
102
RTVSPost2010PropOp43
 70
     1
102
RTVSPost2010Prop44ColorIndex
 90
        5
102
RTVSPost2010Prop44ColorRGB
 90
      255
102
RTVSPost2010PropOp44
 70
     1
102
RTVSPost2010Prop45
280
     0
102
RTVSPost2010PropOp45
 70
     1
102
RTVSPost2010Prop46
 90
       50
102
RTVSPost2010PropOp46
 70
     1
102
RTVSPost2010Prop47
 90
       50
102
RTVSPost2010PropOp47
 70
     1
102
RTVSPost2010Prop48
 90
       50
102
RTVSPost2010PropOp48
 70
     1
102
RTVSPost2010Prop49
280
     0
102
RTVSPost2010PropOp49
 70
     1
102
RTVSPost2010Prop50
 90
       50
102
RTVSPost2010PropOp50
 70
     1
102
RTVSPost2010Prop51ColorIndex
 90
      256
102
RTVSPost2010Prop51ColorRGB
 90
-16777216
102
RTVSPost2010PropOp51
 70
     0
102
RTVSPost2010Prop52
140
1.0
102
RTVSPost2010PropOp52
 70
     0
102
RTVSPost2010Prop53
 90
        2
102
RTVSPost2010PropOp53
 70
     1
102
RTVSPost2010Prop54
  1
strokes_ogs.tif
102
RTVSPost2010PropOp54
 70
     1
102
RTVSPost2010Prop55
280
     0
102
RTVSPost2010PropOp55
 70
     1
102
RTVSPost2010Prop56
140
1.0
102
RTVSPost2010PropOp56
 70
     1
102
RTVSPost2010Prop57
140
1.0
102
RTVSPost2010PropOp57
 70
     1
102
RTVSPropertyOp0
 70
     1
102
RTVSPropertyOp1
 70
     1
102
RTVSPropertyOp2
 70
     1
102
RTVSPropertyOp3
 70
     1
102
RTVSPropertyOp4
 70
     1
102
RTVSPropertyOp5
 70
     1
102
RTVSPropertyOp6
 70
     1
102
RTVSPropertyOp7
 70
     1
102
RTVSPropertyOp8
 70
     1
102
RTVSPropertyOp9
 70
     1
102
RTVSPropertyOp10
 70
     1
102
RTVSPropertyOp11
 70
     1
102
RTVSPropertyOp12
 70
     1
102
RTVSPropertyOp13
 70
     1
102
RTVSPropertyOp14
 70
     1
102
RTVSPropertyOp15
 70
     1
102
RTVSPropertyOp16
 70
     1
102
RTVSPropertyOp17
 70
     1
102
RTVSPropertyOp18
 70
     1
102
RTVSPropertyOp19
 70
     1
102
RTVSPropertyOp20
 70
     1
102
RTVSPropertyOp21
 70
     1
102
RTVSPropertyOp22
 70
     1
102
RTVSPropertyOp23
 70
     1
102
RTVSPropertyOp24
 70
     1
102
RTVSPropertyOp25
 70
     1
102
RTVSPropertyOp26
 70
     1
102
RTVSPropertyOp27
 70
     1
102
RTVSPropertyOp28
 70
     1
102
RTVSPropertyOp29
 70
     1
102
RTVSPropertyOp30
 70
     1
102
RTVSPropertyOp31
 70
     1
102
RTVSPropertyOp32
 70
     1
102
RTVSPropertyOp33
 70
     1
102
RTVSPropertyOp34
 70
     1
102
RTVSPropertyOp35
 70
     1
102
RTVSPropertyOp36
 70
     1
102
RTVSPropertyOp37
 70
     1
102
RTVSPropertyOp38
 70
     1
102
RTVSPropertyOp39
 70
     1
102
RTVSPropertyOp40
 70
     1
102
RTVSPropertyOp41
 70
     1
102
RTVSPropertyOp42
 70
     1
102
RTVSPropertyOp43
 70
     1
102
RTVSPropertyOp44
 70
     1
102
RTVSPropertyOp45
 70
     1
102
RTVSPropertyOp46
 70
     1
102
RTVSPropertyOp47
 70
     1
102
RTVSPropertyOp48
 70
     1
102
RTVSPropertyOp49
 70
     1
102
RTVSPropertyOp50
 70
     1
102
RTVSPropertyOp51
 70
     0
102
RTVSPropertyOp52
 70
     0
102
RTVSPropertyOp53
 70
     1
102
RTVSPropertyOp54
 70
     1
102
RTVSPropertyOp55
 70
     1
102
RTVSPropertyOp56
 70
     1
102
RTVSPropertyOp57
 70
     1
102
RTVSPropertyOp58
 70
     1
102
RTVSPropertyOp59
 70
     1
102
RTVSPropertyOp60
 70
     1
102
RTVSPropertyOp61
 70
     1
102
RTVSPropertyOp62
 70
     1
  0
XRECORD
  5
37D
102
{ACAD_REACTORS
330
37C
102
}
330
37C
100
AcDbXrecord
280
     1
102
RTVSPost2010Prop28
280
     0
102
RTVSPost2010PropOp28
 70
     1
102
RTVSPost2010Prop29
280
     1
102
RTVSPost2010PropOp29
 70
     1
102
RTVSPost2010Prop30
280
     1
102
RTVSPost2010PropOp30
 70
     1
102
RTVSPost2010Prop31
280
     0
102
RTVSPost2010PropOp31
 70
     1
102
RTVSPost2010Prop32
280
     0
102
RTVSPost2010PropOp32
 70
     1
102
RTVSPost2010Prop33
280
     0
102
RTVSPost2010PropOp33
 70
     1
102
RTVSPost2010Prop34
280
     0
102
RTVSPost2010PropOp34
 70
     1
102
RTVSPost2010Prop35
280
     0
102
RTVSPost2010PropOp35
 70
     1
102
RTVSPost2010Prop36
280
     0
102
RTVSPost2010PropOp36
 70
     1
102
RTVSPost2010Prop37
 90
       50
102
RTVSPost2010PropOp37
 70
     1
102
RTVSPost2010Prop38
140
0.0
102
RTVSPost2010PropOp38
 70
     1
102
RTVSPost2010Prop39
140
1.0
102
RTVSPost2010PropOp39
 70
     1
102
RTVSPost2010Prop40
 90
        0
102
RTVSPost2010PropOp40
 70
     1
102
RTVSPost2010Prop41ColorIndex
 90
       18
102
RTVSPost2010Prop41ColorRGB
 90
        0
102
RTVSPost2010PropOp41
 70
     1
102
RTVSPost2010Prop42
 90
       50
102
RTVSPost2010PropOp42
 70
     1
102
RTVSPost2010Prop43
 90
        3
102
RTVSPost2010PropOp43
 70
     1
102
RTVSPost2010Prop44ColorIndex
 90
        5
102
RTVSPost2010Prop44ColorRGB
 90
      255
102
RTVSPost2010PropOp44
 70
     1
102
RTVSPost2010Prop45
280
     0
102
RTVSPost2010PropOp45
 70
     1
102
RTVSPost2010Prop46
 90
       50
102
RTVSPost2010PropOp46
 70
     1
102
RTVSPost2010Prop47
 90
       50
102
RTVSPost2010PropOp47
 70
     1
102
RTVSPost2010Prop48
 90
       50
102
RTVSPost2010PropOp48
 70
     1
102
RTVSPost2010Prop49
280
     0
102
RTVSPost2010PropOp49
 70
     1
102
RTVSPost2010Prop50
 90
       50
102
RTVSPost2010PropOp50
 70
     1
102
RTVSPost2010Prop51ColorIndex
 90
      256
102
RTVSPost2010Prop51ColorRGB
 90
-16777216
102
RTVSPost2010PropOp51
 70
     0
102
RTVSPost2010Prop52
140
1.0
102
RTVSPost2010PropOp52
 70
     0
102
RTVSPost2010Prop53
 90
        2
102
RTVSPost2010PropOp53
 70
     1
102
RTVSPost2010Prop54
  1
strokes_ogs.tif
102
RTVSPost2010PropOp54
 70
     1
102
RTVSPost2010Prop55
280
     0
102
RTVSPost2010PropOp55
 70
     1
102
RTVSPost2010Prop56
140
1.0
102
RTVSPost2010PropOp56
 70
     1
102
RTVSPost2010Prop57
140
1.0
102
RTVSPost2010PropOp57
 70
     1
102
RTVSPropertyOp0
 70
     1
102
RTVSPropertyOp1
 70
     1
102
RTVSPropertyOp2
 70
     1
102
RTVSPropertyOp3
 70
     1
102
RTVSPropertyOp4
 70
     1
102
RTVSPropertyOp5
 70
     1
102
RTVSPropertyOp6
 70
     1
102
RTVSPropertyOp7
 70
     1
102
RTVSPropertyOp8
 70
     1
102
RTVSPropertyOp9
 70
     1
102
RTVSPropertyOp10
 70
     1
102
RTVSPropertyOp11
 70
     1
102
RTVSPropertyOp12
 70
     1
102
RTVSPropertyOp13
 70
     1
102
RTVSPropertyOp14
 70
     1
102
RTVSPropertyOp15
 70
     1
102
RTVSPropertyOp16
 70
     1
102
RTVSPropertyOp17
 70
     1
102
RTVSPropertyOp18
 70
     1
102
RTVSPropertyOp19
 70
     1
102
RTVSPropertyOp20
 70
     1
102
RTVSPropertyOp21
 70
     1
102
RTVSPropertyOp22
 70
     1
102
RTVSPropertyOp23
 70
     1
102
RTVSPropertyOp24
 70
     1
102
RTVSPropertyOp25
 70
     1
102
RTVSPropertyOp26
 70
     1
102
RTVSPropertyOp27
 70
     1
102
RTVSPropertyOp28
 70
     1
102
RTVSPropertyOp29
 70
     1
102
RTVSPropertyOp30
 70
     1
102
RTVSPropertyOp31
 70
     1
102
RTVSPropertyOp32
 70
     1
102
RTVSPropertyOp33
 70
     1
102
RTVSPropertyOp34
 70
     1
102
RTVSPropertyOp35
 70
     1
102
RTVSPropertyOp36
 70
     1
102
RTVSPropertyOp37
 70
     1
102
RTVSPropertyOp38
 70
     1
102
RTVSPropertyOp39
 70
     1
102
RTVSPropertyOp40
 70
     1
102
RTVSPropertyOp41
 70
     1
102
RTVSPropertyOp42
 70
     1
102
RTVSPropertyOp43
 70
     1
102
RTVSPropertyOp44
 70
     1
102
RTVSPropertyOp45
 70
     1
102
RTVSPropertyOp46
 70
     1
102
RTVSPropertyOp47
 70
     1
102
RTVSPropertyOp48
 70
     1
102
RTVSPropertyOp49
 70
     1
102
RTVSPropertyOp50
 70
     1
102
RTVSPropertyOp51
 70
     0
102
RTVSPropertyOp52
 70
     0
102
RTVSPropertyOp53
 70
     1
102
RTVSPropertyOp54
 70
     1
102
RTVSPropertyOp55
 70
     1
102
RTVSPropertyOp56
 70
     1
102
RTVSPropertyOp57
 70
     1
102
RTVSPropertyOp58
 70
     1
102
RTVSPropertyOp59
 70
     1
102
RTVSPropertyOp60
 70
     1
102
RTVSPropertyOp61
 70
     1
102
RTVSPropertyOp62
 70
     1
  0
XRECORD
  5
37F
102
{ACAD_REACTORS
330
37E
102
}
330
37E
100
AcDbXrecord
280
     1
102
RTVSPost2010Prop28
280
     0
102
RTVSPost2010PropOp28
 70
     1
102
RTVSPost2010Prop29
280
     1
102
RTVSPost2010PropOp29
 70
     1
102
RTVSPost2010Prop30
280
     1
102
RTVSPost2010PropOp30
 70
     1
102
RTVSPost2010Prop31
280
     0
102
RTVSPost2010PropOp31
 70
     1
102
RTVSPost2010Prop32
280
     0
102
RTVSPost2010PropOp32
 70
     1
102
RTVSPost2010Prop33
280
     0
102
RTVSPost2010PropOp33
 70
     1
102
RTVSPost2010Prop34
280
     0
102
RTVSPost2010PropOp34
 70
     1
102
RTVSPost2010Prop35
280
     0
102
RTVSPost2010PropOp35
 70
     1
102
RTVSPost2010Prop36
280
     0
102
RTVSPost2010PropOp36
 70
     1
102
RTVSPost2010Prop37
 90
       50
102
RTVSPost2010PropOp37
 70
     1
102
RTVSPost2010Prop38
140
0.0
102
RTVSPost2010PropOp38
 70
     1
102
RTVSPost2010Prop39
140
1.0
102
RTVSPost2010PropOp39
 70
     1
102
RTVSPost2010Prop40
 90
        0
102
RTVSPost2010PropOp40
 70
     1
102
RTVSPost2010Prop41ColorIndex
 90
       18
102
RTVSPost2010Prop41ColorRGB
 90
        0
102
RTVSPost2010PropOp41
 70
     1
102
RTVSPost2010Prop42
 90
       50
102
RTVSPost2010PropOp42
 70
     1
102
RTVSPost2010Prop43
 90
        3
102
RTVSPost2010PropOp43
 70
     1
102
RTVSPost2010Prop44ColorIndex
 90
        5
102
RTVSPost2010Prop44ColorRGB
 90
      255
102
RTVSPost2010PropOp44
 70
     1
102
RTVSPost2010Prop45
280
     0
102
RTVSPost2010PropOp45
 70
     1
102
RTVSPost2010Prop46
 90
       50
102
RTVSPost2010PropOp46
 70
     1
102
RTVSPost2010Prop47
 90
       50
102
RTVSPost2010PropOp47
 70
     1
102
RTVSPost2010Prop48
 90
       50
102
RTVSPost2010PropOp48
 70
     1
102
RTVSPost2010Prop49
280
     0
102
RTVSPost2010PropOp49
 70
     1
102
RTVSPost2010Prop50
 90
       50
102
RTVSPost2010PropOp50
 70
     1
102
RTVSPost2010Prop51ColorIndex
 90
      256
102
RTVSPost2010Prop51ColorRGB
 90
-16777216
102
RTVSPost2010PropOp51
 70
     0
102
RTVSPost2010Prop52
140
1.0
102
RTVSPost2010PropOp52
 70
     0
102
RTVSPost2010Prop53
 90
        2
102
RTVSPost2010PropOp53
 70
     1
102
RTVSPost2010Prop54
  1
strokes_ogs.tif
102
RTVSPost2010PropOp54
 70
     1
102
RTVSPost2010Prop55
280
     0
102
RTVSPost2010PropOp55
 70
     1
102
RTVSPost2010Prop56
140
1.0
102
RTVSPost2010PropOp56
 70
     1
102
RTVSPost2010Prop57
140
1.0
102
RTVSPost2010PropOp57
 70
     1
102
RTVSPropertyOp0
 70
     1
102
RTVSPropertyOp1
 70
     1
102
RTVSPropertyOp2
 70
     1
102
RTVSPropertyOp3
 70
     1
102
RTVSPropertyOp4
 70
     1
102
RTVSPropertyOp5
 70
     1
102
RTVSPropertyOp6
 70
     1
102
RTVSPropertyOp7
 70
     1
102
RTVSPropertyOp8
 70
     1
102
RTVSPropertyOp9
 70
     1
102
RTVSPropertyOp10
 70
     1
102
RTVSPropertyOp11
 70
     1
102
RTVSPropertyOp12
 70
     1
102
RTVSPropertyOp13
 70
     1
102
RTVSPropertyOp14
 70
     1
102
RTVSPropertyOp15
 70
     1
102
RTVSPropertyOp16
 70
     1
102
RTVSPropertyOp17
 70
     1
102
RTVSPropertyOp18
 70
     1
102
RTVSPropertyOp19
 70
     1
102
RTVSPropertyOp20
 70
     1
102
RTVSPropertyOp21
 70
     1
102
RTVSPropertyOp22
 70
     1
102
RTVSPropertyOp23
 70
     1
102
RTVSPropertyOp24
 70
     1
102
RTVSPropertyOp25
 70
     1
102
RTVSPropertyOp26
 70
     1
102
RTVSPropertyOp27
 70
     1
102
RTVSPropertyOp28
 70
     1
102
RTVSPropertyOp29
 70
     1
102
RTVSPropertyOp30
 70
     1
102
RTVSPropertyOp31
 70
     1
102
RTVSPropertyOp32
 70
     1
102
RTVSPropertyOp33
 70
     1
102
RTVSPropertyOp34
 70
     1
102
RTVSPropertyOp35
 70
     1
102
RTVSPropertyOp36
 70
     1
102
RTVSPropertyOp37
 70
     1
102
RTVSPropertyOp38
 70
     1
102
RTVSPropertyOp39
 70
     1
102
RTVSPropertyOp40
 70
     1
102
RTVSPropertyOp41
 70
     1
102
RTVSPropertyOp42
 70
     1
102
RTVSPropertyOp43
 70
     1
102
RTVSPropertyOp44
 70
     1
102
RTVSPropertyOp45
 70
     1
102
RTVSPropertyOp46
 70
     1
102
RTVSPropertyOp47
 70
     1
102
RTVSPropertyOp48
 70
     1
102
RTVSPropertyOp49
 70
     1
102
RTVSPropertyOp50
 70
     1
102
RTVSPropertyOp51
 70
     0
102
RTVSPropertyOp52
 70
     0
102
RTVSPropertyOp53
 70
     1
102
RTVSPropertyOp54
 70
     1
102
RTVSPropertyOp55
 70
     1
102
RTVSPropertyOp56
 70
     1
102
RTVSPropertyOp57
 70
     1
102
RTVSPropertyOp58
 70
     1
102
RTVSPropertyOp59
 70
     1
102
RTVSPropertyOp60
 70
     1
102
RTVSPropertyOp61
 70
     1
102
RTVSPropertyOp62
 70
     1
  0
XRECORD
  5
38F
102
{ACAD_REACTORS
330
38E
102
}
330
38E
100
AcDbXrecord
280
     1
102
RTVSPost2010Prop28
280
     0
102
RTVSPost2010PropOp28
 70
     0
102
RTVSPost2010Prop29
280
     1
102
RTVSPost2010PropOp29
 70
     0
102
RTVSPost2010Prop30
280
     1
102
RTVSPost2010PropOp30
 70
     0
102
RTVSPost2010Prop31
280
     0
102
RTVSPost2010PropOp31
 70
     0
102
RTVSPost2010Prop32
280
     0
102
RTVSPost2010PropOp32
 70
     0
102
RTVSPost2010Prop33
280
     0
102
RTVSPost2010PropOp33
 70
     0
102
RTVSPost2010Prop34
280
     0
102
RTVSPost2010PropOp34
 70
     0
102
RTVSPost2010Prop35
280
     0
102
RTVSPost2010PropOp35
 70
     0
102
RTVSPost2010Prop36
280
     0
102
RTVSPost2010PropOp36
 70
     0
102
RTVSPost2010Prop37
 90
       50
102
RTVSPost2010PropOp37
 70
     0
102
RTVSPost2010Prop38
140
0.0
102
RTVSPost2010PropOp38
 70
     0
102
RTVSPost2010Prop39
140
1.0
102
RTVSPost2010PropOp39
 70
     0
102
RTVSPost2010Prop40
 90
        0
102
RTVSPost2010PropOp40
 70
     0
102
RTVSPost2010Prop41ColorIndex
 90
       18
102
RTVSPost2010Prop41ColorRGB
 90
        0
102
RTVSPost2010PropOp41
 70
     0
102
RTVSPost2010Prop42
 90
       50
102
RTVSPost2010PropOp42
 70
     0
102
RTVSPost2010Prop43
 90
        3
102
RTVSPost2010PropOp43
 70
     0
102
RTVSPost2010Prop44ColorIndex
 90
        5
102
RTVSPost2010Prop44ColorRGB
 90
      255
102
RTVSPost2010PropOp44
 70
     0
102
RTVSPost2010Prop45
280
     0
102
RTVSPost2010PropOp45
 70
     0
102
RTVSPost2010Prop46
 90
       50
102
RTVSPost2010PropOp46
 70
     0
102
RTVSPost2010Prop47
 90
       50
102
RTVSPost2010PropOp47
 70
     0
102
RTVSPost2010Prop48
 90
       50
102
RTVSPost2010PropOp48
 70
     0
102
RTVSPost2010Prop49
280
     0
102
RTVSPost2010PropOp49
 70
     0
102
RTVSPost2010Prop50
 90
       50
102
RTVSPost2010PropOp50
 70
     0
102
RTVSPost2010Prop51ColorIndex
 90
      256
102
RTVSPost2010Prop51ColorRGB
 90
-16777216
102
RTVSPost2010PropOp51
 70
     0
102
RTVSPost2010Prop52
140
1.0
102
RTVSPost2010PropOp52
 70
     0
102
RTVSPost2010Prop53
 90
        2
102
RTVSPost2010PropOp53
 70
     0
102
RTVSPost2010Prop54
  1
strokes_ogs.tif
102
RTVSPost2010PropOp54
 70
     0
102
RTVSPost2010Prop55
280
     0
102
RTVSPost2010PropOp55
 70
     0
102
RTVSPost2010Prop56
140
1.0
102
RTVSPost2010PropOp56
 70
     0
102
RTVSPost2010Prop57
140
1.0
102
RTVSPost2010PropOp57
 70
     0
102
RTVSPropertyOp0
 70
     0
102
RTVSPropertyOp1
 70
     0
102
RTVSPropertyOp2
 70
     0
102
RTVSPropertyOp3
 70
     0
102
RTVSPropertyOp4
 70
     0
102
RTVSPropertyOp5
 70
     0
102
RTVSPropertyOp6
 70
     0
102
RTVSPropertyOp7
 70
     0
102
RTVSPropertyOp8
 70
     0
102
RTVSPropertyOp9
 70
     0
102
RTVSPropertyOp10
 70
     0
102
RTVSPropertyOp11
 70
     0
102
RTVSPropertyOp12
 70
     0
102
RTVSPropertyOp13
 70
     0
102
RTVSPropertyOp14
 70
     2
102
RTVSPropertyOp15
 70
     0
102
RTVSPropertyOp16
 70
     0
102
RTVSPropertyOp17
 70
     0
102
RTVSPropertyOp18
 70
     0
102
RTVSPropertyOp19
 70
     0
102
RTVSPropertyOp20
 70
     0
102
RTVSPropertyOp21
 70
     0
102
RTVSPropertyOp22
 70
     0
102
RTVSPropertyOp23
 70
     0
102
RTVSPropertyOp24
 70
     0
102
RTVSPropertyOp25
 70
     0
102
RTVSPropertyOp26
 70
     0
102
RTVSPropertyOp27
 70
     0
102
RTVSPropertyOp28
 70
     0
102
RTVSPropertyOp29
 70
     0
102
RTVSPropertyOp30
 70
     0
102
RTVSPropertyOp31
 70
     0
102
RTVSPropertyOp32
 70
     0
102
RTVSPropertyOp33
 70
     0
102
RTVSPropertyOp34
 70
     0
102
RTVSPropertyOp35
 70
     0
102
RTVSPropertyOp36
 70
     0
102
RTVSPropertyOp37
 70
     0
102
RTVSPropertyOp38
 70
     0
102
RTVSPropertyOp39
 70
     0
102
RTVSPropertyOp40
 70
     0
102
RTVSPropertyOp41
 70
     0
102
RTVSPropertyOp42
 70
     0
102
RTVSPropertyOp43
 70
     0
102
RTVSPropertyOp44
 70
     0
102
RTVSPropertyOp45
 70
     0
102
RTVSPropertyOp46
 70
     0
102
RTVSPropertyOp47
 70
     0
102
RTVSPropertyOp48
 70
     0
102
RTVSPropertyOp49
 70
     0
102
RTVSPropertyOp50
 70
     0
102
RTVSPropertyOp51
 70
     0
102
RTVSPropertyOp52
 70
     0
102
RTVSPropertyOp53
 70
     0
102
RTVSPropertyOp54
 70
     0
102
RTVSPropertyOp55
 70
     0
102
RTVSPropertyOp56
 70
     0
102
RTVSPropertyOp57
 70
     0
102
RTVSPropertyOp58
 70
     1
102
RTVSPropertyOp59
 70
     1
102
RTVSPropertyOp60
 70
     1
102
RTVSPropertyOp61
 70
     1
102
RTVSPropertyOp62
 70
     1
  0
XRECORD
  5
387
102
{ACAD_REACTORS
330
386
102
}
330
386
100
AcDbXrecord
280
     1
102
RTVSPost2010Prop28
280
     0
102
RTVSPost2010PropOp28
 70
     1
102
RTVSPost2010Prop29
280
     1
102
RTVSPost2010PropOp29
 70
     1
102
RTVSPost2010Prop30
280
     1
102
RTVSPost2010PropOp30
 70
     1
102
RTVSPost2010Prop31
280
     0
102
RTVSPost2010PropOp31
 70
     1
102
RTVSPost2010Prop32
280
     0
102
RTVSPost2010PropOp32
 70
     1
102
RTVSPost2010Prop33
280
     0
102
RTVSPost2010PropOp33
 70
     1
102
RTVSPost2010Prop34
280
     0
102
RTVSPost2010PropOp34
 70
     1
102
RTVSPost2010Prop35
280
     0
102
RTVSPost2010PropOp35
 70
     1
102
RTVSPost2010Prop36
280
     0
102
RTVSPost2010PropOp36
 70
     1
102
RTVSPost2010Prop37
 90
       50
102
RTVSPost2010PropOp37
 70
     1
102
RTVSPost2010Prop38
140
0.0
102
RTVSPost2010PropOp38
 70
     1
102
RTVSPost2010Prop39
140
1.0
102
RTVSPost2010PropOp39
 70
     1
102
RTVSPost2010Prop40
 90
        0
102
RTVSPost2010PropOp40
 70
     1
102
RTVSPost2010Prop41ColorIndex
 90
       18
102
RTVSPost2010Prop41ColorRGB
 90
        0
102
RTVSPost2010PropOp41
 70
     1
102
RTVSPost2010Prop42
 90
       50
102
RTVSPost2010PropOp42
 70
     1
102
RTVSPost2010Prop43
 90
        3
102
RTVSPost2010PropOp43
 70
     1
102
RTVSPost2010Prop44ColorIndex
 90
        5
102
RTVSPost2010Prop44ColorRGB
 90
      255
102
RTVSPost2010PropOp44
 70
     1
102
RTVSPost2010Prop45
280
     0
102
RTVSPost2010PropOp45
 70
     1
102
RTVSPost2010Prop46
 90
       50
102
RTVSPost2010PropOp46
 70
     1
102
RTVSPost2010Prop47
 90
       50
102
RTVSPost2010PropOp47
 70
     1
102
RTVSPost2010Prop48
 90
       50
102
RTVSPost2010PropOp48
 70
     1
102
RTVSPost2010Prop49
280
     0
102
RTVSPost2010PropOp49
 70
     1
102
RTVSPost2010Prop50
 90
       50
102
RTVSPost2010PropOp50
 70
     1
102
RTVSPost2010Prop51ColorIndex
 90
      256
102
RTVSPost2010Prop51ColorRGB
 90
-16777216
102
RTVSPost2010PropOp51
 70
     0
102
RTVSPost2010Prop52
140
1.0
102
RTVSPost2010PropOp52
 70
     0
102
RTVSPost2010Prop53
 90
        2
102
RTVSPost2010PropOp53
 70
     1
102
RTVSPost2010Prop54
  1
strokes_ogs.tif
102
RTVSPost2010PropOp54
 70
     1
102
RTVSPost2010Prop55
280
     0
102
RTVSPost2010PropOp55
 70
     1
102
RTVSPost2010Prop56
140
1.0
102
RTVSPost2010PropOp56
 70
     1
102
RTVSPost2010Prop57
140
1.0
102
RTVSPost2010PropOp57
 70
     1
102
RTVSPropertyOp0
 70
     1
102
RTVSPropertyOp1
 70
     1
102
RTVSPropertyOp2
 70
     1
102
RTVSPropertyOp3
 70
     1
102
RTVSPropertyOp4
 70
     1
102
RTVSPropertyOp5
 70
     1
102
RTVSPropertyOp6
 70
     1
102
RTVSPropertyOp7
 70
     1
102
RTVSPropertyOp8
 70
     1
102
RTVSPropertyOp9
 70
     1
102
RTVSPropertyOp10
 70
     1
102
RTVSPropertyOp11
 70
     1
102
RTVSPropertyOp12
 70
     1
102
RTVSPropertyOp13
 70
     1
102
RTVSPropertyOp14
 70
     1
102
RTVSPropertyOp15
 70
     1
102
RTVSPropertyOp16
 70
     1
102
RTVSPropertyOp17
 70
     1
102
RTVSPropertyOp18
 70
     1
102
RTVSPropertyOp19
 70
     1
102
RTVSPropertyOp20
 70
     1
102
RTVSPropertyOp21
 70
     1
102
RTVSPropertyOp22
 70
     1
102
RTVSPropertyOp23
 70
     1
102
RTVSPropertyOp24
 70
     1
102
RTVSPropertyOp25
 70
     1
102
RTVSPropertyOp26
 70
     1
102
RTVSPropertyOp27
 70
     1
102
RTVSPropertyOp28
 70
     1
102
RTVSPropertyOp29
 70
     1
102
RTVSPropertyOp30
 70
     1
102
RTVSPropertyOp31
 70
     1
102
RTVSPropertyOp32
 70
     1
102
RTVSPropertyOp33
 70
     1
102
RTVSPropertyOp34
 70
     1
102
RTVSPropertyOp35
 70
     1
102
RTVSPropertyOp36
 70
     1
102
RTVSPropertyOp37
 70
     1
102
RTVSPropertyOp38
 70
     1
102
RTVSPropertyOp39
 70
     1
102
RTVSPropertyOp40
 70
     1
102
RTVSPropertyOp41
 70
     1
102
RTVSPropertyOp42
 70
     1
102
RTVSPropertyOp43
 70
     1
102
RTVSPropertyOp44
 70
     1
102
RTVSPropertyOp45
 70
     1
102
RTVSPropertyOp46
 70
     1
102
RTVSPropertyOp47
 70
     1
102
RTVSPropertyOp48
 70
     1
102
RTVSPropertyOp49
 70
     1
102
RTVSPropertyOp50
 70
     1
102
RTVSPropertyOp51
 70
     0
102
RTVSPropertyOp52
 70
     0
102
RTVSPropertyOp53
 70
     1
102
RTVSPropertyOp54
 70
     1
102
RTVSPropertyOp55
 70
     1
102
RTVSPropertyOp56
 70
     1
102
RTVSPropertyOp57
 70
     1
102
RTVSPropertyOp58
 70
     1
102
RTVSPropertyOp59
 70
     1
102
RTVSPropertyOp60
 70
     1
102
RTVSPropertyOp61
 70
     1
102
RTVSPropertyOp62
 70
     1
  0
XRECORD
  5
36B
102
{ACAD_REACTORS
330
36A
102
}
330
36A
100
AcDbXrecord
280
     1
102
RTVSPost2010Prop28
280
     0
102
RTVSPost2010PropOp28
 70
     1
102
RTVSPost2010Prop29
280
     1
102
RTVSPost2010PropOp29
 70
     1
102
RTVSPost2010Prop30
280
     1
102
RTVSPost2010PropOp30
 70
     1
102
RTVSPost2010Prop31
280
     0
102
RTVSPost2010PropOp31
 70
     1
102
RTVSPost2010Prop32
280
     0
102
RTVSPost2010PropOp32
 70
     1
102
RTVSPost2010Prop33
280
     0
102
RTVSPost2010PropOp33
 70
     1
102
RTVSPost2010Prop34
280
     0
102
RTVSPost2010PropOp34
 70
     1
102
RTVSPost2010Prop35
280
     0
102
RTVSPost2010PropOp35
 70
     1
102
RTVSPost2010Prop36
280
     0
102
RTVSPost2010PropOp36
 70
     1
102
RTVSPost2010Prop37
 90
       50
102
RTVSPost2010PropOp37
 70
     1
102
RTVSPost2010Prop38
140
0.0
102
RTVSPost2010PropOp38
 70
     1
102
RTVSPost2010Prop39
140
1.0
102
RTVSPost2010PropOp39
 70
     1
102
RTVSPost2010Prop40
 90
        0
102
RTVSPost2010PropOp40
 70
     1
102
RTVSPost2010Prop41ColorIndex
 90
       18
102
RTVSPost2010Prop41ColorRGB
 90
        0
102
RTVSPost2010PropOp41
 70
     1
102
RTVSPost2010Prop42
 90
       50
102
RTVSPost2010PropOp42
 70
     1
102
RTVSPost2010Prop43
 90
        3
102
RTVSPost2010PropOp43
 70
     1
102
RTVSPost2010Prop44ColorIndex
 90
        5
102
RTVSPost2010Prop44ColorRGB
 90
      255
102
RTVSPost2010PropOp44
 70
     1
102
RTVSPost2010Prop45
280
     0
102
RTVSPost2010PropOp45
 70
     1
102
RTVSPost2010Prop46
 90
       50
102
RTVSPost2010PropOp46
 70
     1
102
RTVSPost2010Prop47
 90
       50
102
RTVSPost2010PropOp47
 70
     1
102
RTVSPost2010Prop48
 90
       50
102
RTVSPost2010PropOp48
 70
     1
102
RTVSPost2010Prop49
280
     0
102
RTVSPost2010PropOp49
 70
     1
102
RTVSPost2010Prop50
 90
       50
102
RTVSPost2010PropOp50
 70
     1
102
RTVSPost2010Prop51ColorIndex
 90
      256
102
RTVSPost2010Prop51ColorRGB
 90
-16777216
102
RTVSPost2010PropOp51
 70
     0
102
RTVSPost2010Prop52
140
1.0
102
RTVSPost2010PropOp52
 70
     0
102
RTVSPost2010Prop53
 90
        2
102
RTVSPost2010PropOp53
 70
     1
102
RTVSPost2010Prop54
  1
strokes_ogs.tif
102
RTVSPost2010PropOp54
 70
     1
102
RTVSPost2010Prop55
280
     0
102
RTVSPost2010PropOp55
 70
     1
102
RTVSPost2010Prop56
140
1.0
102
RTVSPost2010PropOp56
 70
     1
102
RTVSPost2010Prop57
140
1.0
102
RTVSPost2010PropOp57
 70
     1
102
RTVSPropertyOp0
 70
     1
102
RTVSPropertyOp1
 70
     1
102
RTVSPropertyOp2
 70
     1
102
RTVSPropertyOp3
 70
     1
102
RTVSPropertyOp4
 70
     1
102
RTVSPropertyOp5
 70
     1
102
RTVSPropertyOp6
 70
     1
102
RTVSPropertyOp7
 70
     1
102
RTVSPropertyOp8
 70
     1
102
RTVSPropertyOp9
 70
     1
102
RTVSPropertyOp10
 70
     1
102
RTVSPropertyOp11
 70
     1
102
RTVSPropertyOp12
 70
     1
102
RTVSPropertyOp13
 70
     1
102
RTVSPropertyOp14
 70
     1
102
RTVSPropertyOp15
 70
     1
102
RTVSPropertyOp16
 70
     1
102
RTVSPropertyOp17
 70
     1
102
RTVSPropertyOp18
 70
     1
102
RTVSPropertyOp19
 70
     1
102
RTVSPropertyOp20
 70
     1
102
RTVSPropertyOp21
 70
     1
102
RTVSPropertyOp22
 70
     1
102
RTVSPropertyOp23
 70
     1
102
RTVSPropertyOp24
 70
     1
102
RTVSPropertyOp25
 70
     1
102
RTVSPropertyOp26
 70
     1
102
RTVSPropertyOp27
 70
     1
102
RTVSPropertyOp28
 70
     1
102
RTVSPropertyOp29
 70
     1
102
RTVSPropertyOp30
 70
     1
102
RTVSPropertyOp31
 70
     1
102
RTVSPropertyOp32
 70
     1
102
RTVSPropertyOp33
 70
     1
102
RTVSPropertyOp34
 70
     1
102
RTVSPropertyOp35
 70
     1
102
RTVSPropertyOp36
 70
     1
102
RTVSPropertyOp37
 70
     1
102
RTVSPropertyOp38
 70
     1
102
RTVSPropertyOp39
 70
     1
102
RTVSPropertyOp40
 70
     1
102
RTVSPropertyOp41
 70
     1
102
RTVSPropertyOp42
 70
     1
102
RTVSPropertyOp43
 70
     1
102
RTVSPropertyOp44
 70
     1
102
RTVSPropertyOp45
 70
     1
102
RTVSPropertyOp46
 70
     1
102
RTVSPropertyOp47
 70
     1
102
RTVSPropertyOp48
 70
     1
102
RTVSPropertyOp49
 70
     1
102
RTVSPropertyOp50
 70
     1
102
RTVSPropertyOp51
 70
     0
102
RTVSPropertyOp52
 70
     0
102
RTVSPropertyOp53
 70
     1
102
RTVSPropertyOp54
 70
     1
102
RTVSPropertyOp55
 70
     1
102
RTVSPropertyOp56
 70
     1
102
RTVSPropertyOp57
 70
     1
102
RTVSPropertyOp58
 70
     1
102
RTVSPropertyOp59
 70
     1
102
RTVSPropertyOp60
 70
     1
102
RTVSPropertyOp61
 70
     1
102
RTVSPropertyOp62
 70
     1
  0
XRECORD
  5
36D
102
{ACAD_REACTORS
330
36C
102
}
330
36C
100
AcDbXrecord
280
     1
102
RTVSPost2010Prop28
280
     0
102
RTVSPost2010PropOp28
 70
     1
102
RTVSPost2010Prop29
280
     1
102
RTVSPost2010PropOp29
 70
     1
102
RTVSPost2010Prop30
280
     1
102
RTVSPost2010PropOp30
 70
     1
102
RTVSPost2010Prop31
280
     0
102
RTVSPost2010PropOp31
 70
     1
102
RTVSPost2010Prop32
280
     0
102
RTVSPost2010PropOp32
 70
     1
102
RTVSPost2010Prop33
280
     0
102
RTVSPost2010PropOp33
 70
     1
102
RTVSPost2010Prop34
280
     0
102
RTVSPost2010PropOp34
 70
     1
102
RTVSPost2010Prop35
280
     0
102
RTVSPost2010PropOp35
 70
     1
102
RTVSPost2010Prop36
280
     0
102
RTVSPost2010PropOp36
 70
     1
102
RTVSPost2010Prop37
 90
       50
102
RTVSPost2010PropOp37
 70
     1
102
RTVSPost2010Prop38
140
0.0
102
RTVSPost2010PropOp38
 70
     1
102
RTVSPost2010Prop39
140
1.0
102
RTVSPost2010PropOp39
 70
     1
102
RTVSPost2010Prop40
 90
        0
102
RTVSPost2010PropOp40
 70
     1
102
RTVSPost2010Prop41ColorIndex
 90
       18
102
RTVSPost2010Prop41ColorRGB
 90
        0
102
RTVSPost2010PropOp41
 70
     1
102
RTVSPost2010Prop42
 90
       50
102
RTVSPost2010PropOp42
 70
     1
102
RTVSPost2010Prop43
 90
        3
102
RTVSPost2010PropOp43
 70
     1
102
RTVSPost2010Prop44ColorIndex
 90
        5
102
RTVSPost2010Prop44ColorRGB
 90
      255
102
RTVSPost2010PropOp44
 70
     1
102
RTVSPost2010Prop45
280
     0
102
RTVSPost2010PropOp45
 70
     1
102
RTVSPost2010Prop46
 90
       50
102
RTVSPost2010PropOp46
 70
     1
102
RTVSPost2010Prop47
 90
       50
102
RTVSPost2010PropOp47
 70
     1
102
RTVSPost2010Prop48
 90
       50
102
RTVSPost2010PropOp48
 70
     1
102
RTVSPost2010Prop49
280
     0
102
RTVSPost2010PropOp49
 70
     1
102
RTVSPost2010Prop50
 90
       50
102
RTVSPost2010PropOp50
 70
     1
102
RTVSPost2010Prop51ColorIndex
 90
      256
102
RTVSPost2010Prop51ColorRGB
 90
-16777216
102
RTVSPost2010PropOp51
 70
     0
102
RTVSPost2010Prop52
140
1.0
102
RTVSPost2010PropOp52
 70
     0
102
RTVSPost2010Prop53
 90
        2
102
RTVSPost2010PropOp53
 70
     1
102
RTVSPost2010Prop54
  1
strokes_ogs.tif
102
RTVSPost2010PropOp54
 70
     1
102
RTVSPost2010Prop55
280
     0
102
RTVSPost2010PropOp55
 70
     1
102
RTVSPost2010Prop56
140
1.0
102
RTVSPost2010PropOp56
 70
     1
102
RTVSPost2010Prop57
140
1.0
102
RTVSPost2010PropOp57
 70
     1
102
RTVSPropertyOp0
 70
     1
102
RTVSPropertyOp1
 70
     1
102
RTVSPropertyOp2
 70
     1
102
RTVSPropertyOp3
 70
     1
102
RTVSPropertyOp4
 70
     1
102
RTVSPropertyOp5
 70
     1
102
RTVSPropertyOp6
 70
     1
102
RTVSPropertyOp7
 70
     1
102
RTVSPropertyOp8
 70
     1
102
RTVSPropertyOp9
 70
     1
102
RTVSPropertyOp10
 70
     1
102
RTVSPropertyOp11
 70
     1
102
RTVSPropertyOp12
 70
     1
102
RTVSPropertyOp13
 70
     1
102
RTVSPropertyOp14
 70
     1
102
RTVSPropertyOp15
 70
     1
102
RTVSPropertyOp16
 70
     1
102
RTVSPropertyOp17
 70
     1
102
RTVSPropertyOp18
 70
     1
102
RTVSPropertyOp19
 70
     1
102
RTVSPropertyOp20
 70
     1
102
RTVSPropertyOp21
 70
     1
102
RTVSPropertyOp22
 70
     1
102
RTVSPropertyOp23
 70
     1
102
RTVSPropertyOp24
 70
     1
102
RTVSPropertyOp25
 70
     1
102
RTVSPropertyOp26
 70
     1
102
RTVSPropertyOp27
 70
     1
102
RTVSPropertyOp28
 70
     1
102
RTVSPropertyOp29
 70
     1
102
RTVSPropertyOp30
 70
     1
102
RTVSPropertyOp31
 70
     1
102
RTVSPropertyOp32
 70
     1
102
RTVSPropertyOp33
 70
     1
102
RTVSPropertyOp34
 70
     1
102
RTVSPropertyOp35
 70
     1
102
RTVSPropertyOp36
 70
     1
102
RTVSPropertyOp37
 70
     1
102
RTVSPropertyOp38
 70
     1
102
RTVSPropertyOp39
 70
     1
102
RTVSPropertyOp40
 70
     1
102
RTVSPropertyOp41
 70
     1
102
RTVSPropertyOp42
 70
     1
102
RTVSPropertyOp43
 70
     1
102
RTVSPropertyOp44
 70
     1
102
RTVSPropertyOp45
 70
     1
102
RTVSPropertyOp46
 70
     1
102
RTVSPropertyOp47
 70
     1
102
RTVSPropertyOp48
 70
     1
102
RTVSPropertyOp49
 70
     1
102
RTVSPropertyOp50
 70
     1
102
RTVSPropertyOp51
 70
     0
102
RTVSPropertyOp52
 70
     0
102
RTVSPropertyOp53
 70
     1
102
RTVSPropertyOp54
 70
     1
102
RTVSPropertyOp55
 70
     1
102
RTVSPropertyOp56
 70
     1
102
RTVSPropertyOp57
 70
     1
102
RTVSPropertyOp58
 70
     1
102
RTVSPropertyOp59
 70
     1
102
RTVSPropertyOp60
 70
     1
102
RTVSPropertyOp61
 70
     1
102
RTVSPropertyOp62
 70
     1
  0
XRECORD
  5
36F
102
{ACAD_REACTORS
330
36E
102
}
330
36E
100
AcDbXrecord
280
     1
102
RTVSPost2010Prop28
280
     0
102
RTVSPost2010PropOp28
 70
     1
102
RTVSPost2010Prop29
280
     1
102
RTVSPost2010PropOp29
 70
     1
102
RTVSPost2010Prop30
280
     1
102
RTVSPost2010PropOp30
 70
     1
102
RTVSPost2010Prop31
280
     0
102
RTVSPost2010PropOp31
 70
     1
102
RTVSPost2010Prop32
280
     0
102
RTVSPost2010PropOp32
 70
     1
102
RTVSPost2010Prop33
280
     0
102
RTVSPost2010PropOp33
 70
     1
102
RTVSPost2010Prop34
280
     0
102
RTVSPost2010PropOp34
 70
     1
102
RTVSPost2010Prop35
280
     0
102
RTVSPost2010PropOp35
 70
     1
102
RTVSPost2010Prop36
280
     0
102
RTVSPost2010PropOp36
 70
     1
102
RTVSPost2010Prop37
 90
       50
102
RTVSPost2010PropOp37
 70
     1
102
RTVSPost2010Prop38
140
0.0
102
RTVSPost2010PropOp38
 70
     1
102
RTVSPost2010Prop39
140
1.0
102
RTVSPost2010PropOp39
 70
     1
102
RTVSPost2010Prop40
 90
        0
102
RTVSPost2010PropOp40
 70
     1
102
RTVSPost2010Prop41ColorIndex
 90
       18
102
RTVSPost2010Prop41ColorRGB
 90
        0
102
RTVSPost2010PropOp41
 70
     1
102
RTVSPost2010Prop42
 90
       50
102
RTVSPost2010PropOp42
 70
     1
102
RTVSPost2010Prop43
 90
        3
102
RTVSPost2010PropOp43
 70
     1
102
RTVSPost2010Prop44ColorIndex
 90
        5
102
RTVSPost2010Prop44ColorRGB
 90
      255
102
RTVSPost2010PropOp44
 70
     1
102
RTVSPost2010Prop45
280
     0
102
RTVSPost2010PropOp45
 70
     1
102
RTVSPost2010Prop46
 90
       50
102
RTVSPost2010PropOp46
 70
     1
102
RTVSPost2010Prop47
 90
       50
102
RTVSPost2010PropOp47
 70
     1
102
RTVSPost2010Prop48
 90
       50
102
RTVSPost2010PropOp48
 70
     1
102
RTVSPost2010Prop49
280
     0
102
RTVSPost2010PropOp49
 70
     1
102
RTVSPost2010Prop50
 90
       50
102
RTVSPost2010PropOp50
 70
     1
102
RTVSPost2010Prop51ColorIndex
 90
      256
102
RTVSPost2010Prop51ColorRGB
 90
-16777216
102
RTVSPost2010PropOp51
 70
     0
102
RTVSPost2010Prop52
140
1.0
102
RTVSPost2010PropOp52
 70
     0
102
RTVSPost2010Prop53
 90
        2
102
RTVSPost2010PropOp53
 70
     1
102
RTVSPost2010Prop54
  1
strokes_ogs.tif
102
RTVSPost2010PropOp54
 70
     1
102
RTVSPost2010Prop55
280
     0
102
RTVSPost2010PropOp55
 70
     1
102
RTVSPost2010Prop56
140
1.0
102
RTVSPost2010PropOp56
 70
     1
102
RTVSPost2010Prop57
140
1.0
102
RTVSPost2010PropOp57
 70
     1
102
RTVSPropertyOp0
 70
     1
102
RTVSPropertyOp1
 70
     1
102
RTVSPropertyOp2
 70
     1
102
RTVSPropertyOp3
 70
     1
102
RTVSPropertyOp4
 70
     1
102
RTVSPropertyOp5
 70
     1
102
RTVSPropertyOp6
 70
     1
102
RTVSPropertyOp7
 70
     1
102
RTVSPropertyOp8
 70
     1
102
RTVSPropertyOp9
 70
     1
102
RTVSPropertyOp10
 70
     1
102
RTVSPropertyOp11
 70
     1
102
RTVSPropertyOp12
 70
     1
102
RTVSPropertyOp13
 70
     1
102
RTVSPropertyOp14
 70
     1
102
RTVSPropertyOp15
 70
     1
102
RTVSPropertyOp16
 70
     1
102
RTVSPropertyOp17
 70
     1
102
RTVSPropertyOp18
 70
     1
102
RTVSPropertyOp19
 70
     1
102
RTVSPropertyOp20
 70
     1
102
RTVSPropertyOp21
 70
     1
102
RTVSPropertyOp22
 70
     1
102
RTVSPropertyOp23
 70
     1
102
RTVSPropertyOp24
 70
     1
102
RTVSPropertyOp25
 70
     1
102
RTVSPropertyOp26
 70
     1
102
RTVSPropertyOp27
 70
     1
102
RTVSPropertyOp28
 70
     1
102
RTVSPropertyOp29
 70
     1
102
RTVSPropertyOp30
 70
     1
102
RTVSPropertyOp31
 70
     1
102
RTVSPropertyOp32
 70
     1
102
RTVSPropertyOp33
 70
     1
102
RTVSPropertyOp34
 70
     1
102
RTVSPropertyOp35
 70
     1
102
RTVSPropertyOp36
 70
     1
102
RTVSPropertyOp37
 70
     1
102
RTVSPropertyOp38
 70
     1
102
RTVSPropertyOp39
 70
     1
102
RTVSPropertyOp40
 70
     1
102
RTVSPropertyOp41
 70
     1
102
RTVSPropertyOp42
 70
     1
102
RTVSPropertyOp43
 70
     1
102
RTVSPropertyOp44
 70
     1
102
RTVSPropertyOp45
 70
     1
102
RTVSPropertyOp46
 70
     1
102
RTVSPropertyOp47
 70
     1
102
RTVSPropertyOp48
 70
     1
102
RTVSPropertyOp49
 70
     1
102
RTVSPropertyOp50
 70
     1
102
RTVSPropertyOp51
 70
     0
102
RTVSPropertyOp52
 70
     0
102
RTVSPropertyOp53
 70
     1
102
RTVSPropertyOp54
 70
     1
102
RTVSPropertyOp55
 70
     1
102
RTVSPropertyOp56
 70
     1
102
RTVSPropertyOp57
 70
     1
102
RTVSPropertyOp58
 70
     1
102
RTVSPropertyOp59
 70
     1
102
RTVSPropertyOp60
 70
     1
102
RTVSPropertyOp61
 70
     1
102
RTVSPropertyOp62
 70
     1
  0
XRECORD
  5
371
102
{ACAD_REACTORS
330
370
102
}
330
370
100
AcDbXrecord
280
     1
102
RTVSPost2010Prop28
280
     0
102
RTVSPost2010PropOp28
 70
     1
102
RTVSPost2010Prop29
280
     1
102
RTVSPost2010PropOp29
 70
     1
102
RTVSPost2010Prop30
280
     1
102
RTVSPost2010PropOp30
 70
     1
102
RTVSPost2010Prop31
280
     0
102
RTVSPost2010PropOp31
 70
     1
102
RTVSPost2010Prop32
280
     0
102
RTVSPost2010PropOp32
 70
     1
102
RTVSPost2010Prop33
280
     0
102
RTVSPost2010PropOp33
 70
     1
102
RTVSPost2010Prop34
280
     0
102
RTVSPost2010PropOp34
 70
     1
102
RTVSPost2010Prop35
280
     0
102
RTVSPost2010PropOp35
 70
     1
102
RTVSPost2010Prop36
280
     0
102
RTVSPost2010PropOp36
 70
     1
102
RTVSPost2010Prop37
 90
       50
102
RTVSPost2010PropOp37
 70
     1
102
RTVSPost2010Prop38
140
0.0
102
RTVSPost2010PropOp38
 70
     1
102
RTVSPost2010Prop39
140
1.0
102
RTVSPost2010PropOp39
 70
     1
102
RTVSPost2010Prop40
 90
        0
102
RTVSPost2010PropOp40
 70
     1
102
RTVSPost2010Prop41ColorIndex
 90
       18
102
RTVSPost2010Prop41ColorRGB
 90
        0
102
RTVSPost2010PropOp41
 70
     1
102
RTVSPost2010Prop42
 90
       50
102
RTVSPost2010PropOp42
 70
     1
102
RTVSPost2010Prop43
 90
        3
102
RTVSPost2010PropOp43
 70
     1
102
RTVSPost2010Prop44ColorIndex
 90
        5
102
RTVSPost2010Prop44ColorRGB
 90
      255
102
RTVSPost2010PropOp44
 70
     1
102
RTVSPost2010Prop45
280
     0
102
RTVSPost2010PropOp45
 70
     1
102
RTVSPost2010Prop46
 90
       50
102
RTVSPost2010PropOp46
 70
     1
102
RTVSPost2010Prop47
 90
       50
102
RTVSPost2010PropOp47
 70
     1
102
RTVSPost2010Prop48
 90
       50
102
RTVSPost2010PropOp48
 70
     1
102
RTVSPost2010Prop49
280
     0
102
RTVSPost2010PropOp49
 70
     1
102
RTVSPost2010Prop50
 90
       50
102
RTVSPost2010PropOp50
 70
     1
102
RTVSPost2010Prop51ColorIndex
 90
      256
102
RTVSPost2010Prop51ColorRGB
 90
-16777216
102
RTVSPost2010PropOp51
 70
     0
102
RTVSPost2010Prop52
140
1.0
102
RTVSPost2010PropOp52
 70
     0
102
RTVSPost2010Prop53
 90
        2
102
RTVSPost2010PropOp53
 70
     1
102
RTVSPost2010Prop54
  1
strokes_ogs.tif
102
RTVSPost2010PropOp54
 70
     1
102
RTVSPost2010Prop55
280
     0
102
RTVSPost2010PropOp55
 70
     1
102
RTVSPost2010Prop56
140
1.0
102
RTVSPost2010PropOp56
 70
     1
102
RTVSPost2010Prop57
140
1.0
102
RTVSPost2010PropOp57
 70
     1
102
RTVSPropertyOp0
 70
     1
102
RTVSPropertyOp1
 70
     1
102
RTVSPropertyOp2
 70
     1
102
RTVSPropertyOp3
 70
     1
102
RTVSPropertyOp4
 70
     1
102
RTVSPropertyOp5
 70
     1
102
RTVSPropertyOp6
 70
     1
102
RTVSPropertyOp7
 70
     1
102
RTVSPropertyOp8
 70
     1
102
RTVSPropertyOp9
 70
     1
102
RTVSPropertyOp10
 70
     1
102
RTVSPropertyOp11
 70
     1
102
RTVSPropertyOp12
 70
     1
102
RTVSPropertyOp13
 70
     1
102
RTVSPropertyOp14
 70
     1
102
RTVSPropertyOp15
 70
     1
102
RTVSPropertyOp16
 70
     1
102
RTVSPropertyOp17
 70
     1
102
RTVSPropertyOp18
 70
     1
102
RTVSPropertyOp19
 70
     1
102
RTVSPropertyOp20
 70
     1
102
RTVSPropertyOp21
 70
     1
102
RTVSPropertyOp22
 70
     1
102
RTVSPropertyOp23
 70
     1
102
RTVSPropertyOp24
 70
     1
102
RTVSPropertyOp25
 70
     1
102
RTVSPropertyOp26
 70
     1
102
RTVSPropertyOp27
 70
     1
102
RTVSPropertyOp28
 70
     1
102
RTVSPropertyOp29
 70
     1
102
RTVSPropertyOp30
 70
     1
102
RTVSPropertyOp31
 70
     1
102
RTVSPropertyOp32
 70
     1
102
RTVSPropertyOp33
 70
     1
102
RTVSPropertyOp34
 70
     1
102
RTVSPropertyOp35
 70
     1
102
RTVSPropertyOp36
 70
     1
102
RTVSPropertyOp37
 70
     1
102
RTVSPropertyOp38
 70
     1
102
RTVSPropertyOp39
 70
     1
102
RTVSPropertyOp40
 70
     1
102
RTVSPropertyOp41
 70
     1
102
RTVSPropertyOp42
 70
     1
102
RTVSPropertyOp43
 70
     1
102
RTVSPropertyOp44
 70
     1
102
RTVSPropertyOp45
 70
     1
102
RTVSPropertyOp46
 70
     1
102
RTVSPropertyOp47
 70
     1
102
RTVSPropertyOp48
 70
     1
102
RTVSPropertyOp49
 70
     1
102
RTVSPropertyOp50
 70
     1
102
RTVSPropertyOp51
 70
     0
102
RTVSPropertyOp52
 70
     0
102
RTVSPropertyOp53
 70
     1
102
RTVSPropertyOp54
 70
     1
102
RTVSPropertyOp55
 70
     1
102
RTVSPropertyOp56
 70
     1
102
RTVSPropertyOp57
 70
     1
102
RTVSPropertyOp58
 70
     1
102
RTVSPropertyOp59
 70
     1
102
RTVSPropertyOp60
 70
     1
102
RTVSPropertyOp61
 70
     1
102
RTVSPropertyOp62
 70
     1
  0
XRECORD
  5
377
102
{ACAD_REACTORS
330
376
102
}
330
376
100
AcDbXrecord
280
     1
102
RTVSPost2010Prop28
280
     0
102
RTVSPost2010PropOp28
 70
     1
102
RTVSPost2010Prop29
280
     1
102
RTVSPost2010PropOp29
 70
     1
102
RTVSPost2010Prop30
280
     1
102
RTVSPost2010PropOp30
 70
     1
102
RTVSPost2010Prop31
280
     0
102
RTVSPost2010PropOp31
 70
     1
102
RTVSPost2010Prop32
280
     0
102
RTVSPost2010PropOp32
 70
     1
102
RTVSPost2010Prop33
280
     0
102
RTVSPost2010PropOp33
 70
     1
102
RTVSPost2010Prop34
280
     0
102
RTVSPost2010PropOp34
 70
     1
102
RTVSPost2010Prop35
280
     0
102
RTVSPost2010PropOp35
 70
     1
102
RTVSPost2010Prop36
280
     0
102
RTVSPost2010PropOp36
 70
     1
102
RTVSPost2010Prop37
 90
       50
102
RTVSPost2010PropOp37
 70
     1
102
RTVSPost2010Prop38
140
0.0
102
RTVSPost2010PropOp38
 70
     1
102
RTVSPost2010Prop39
140
1.0
102
RTVSPost2010PropOp39
 70
     1
102
RTVSPost2010Prop40
 90
        0
102
RTVSPost2010PropOp40
 70
     1
102
RTVSPost2010Prop41ColorIndex
 90
       18
102
RTVSPost2010Prop41ColorRGB
 90
        0
102
RTVSPost2010PropOp41
 70
     1
102
RTVSPost2010Prop42
 90
       50
102
RTVSPost2010PropOp42
 70
     1
102
RTVSPost2010Prop43
 90
        3
102
RTVSPost2010PropOp43
 70
     1
102
RTVSPost2010Prop44ColorIndex
 90
        5
102
RTVSPost2010Prop44ColorRGB
 90
      255
102
RTVSPost2010PropOp44
 70
     1
102
RTVSPost2010Prop45
280
     0
102
RTVSPost2010PropOp45
 70
     1
102
RTVSPost2010Prop46
 90
       50
102
RTVSPost2010PropOp46
 70
     1
102
RTVSPost2010Prop47
 90
       50
102
RTVSPost2010PropOp47
 70
     1
102
RTVSPost2010Prop48
 90
       50
102
RTVSPost2010PropOp48
 70
     1
102
RTVSPost2010Prop49
280
     0
102
RTVSPost2010PropOp49
 70
     1
102
RTVSPost2010Prop50
 90
       50
102
RTVSPost2010PropOp50
 70
     1
102
RTVSPost2010Prop51ColorIndex
 90
      256
102
RTVSPost2010Prop51ColorRGB
 90
-16777216
102
RTVSPost2010PropOp51
 70
     0
102
RTVSPost2010Prop52
140
1.0
102
RTVSPost2010PropOp52
 70
     0
102
RTVSPost2010Prop53
 90
        2
102
RTVSPost2010PropOp53
 70
     1
102
RTVSPost2010Prop54
  1
strokes_ogs.tif
102
RTVSPost2010PropOp54
 70
     1
102
RTVSPost2010Prop55
280
     0
102
RTVSPost2010PropOp55
 70
     1
102
RTVSPost2010Prop56
140
1.0
102
RTVSPost2010PropOp56
 70
     1
102
RTVSPost2010Prop57
140
1.0
102
RTVSPost2010PropOp57
 70
     1
102
RTVSPropertyOp0
 70
     1
102
RTVSPropertyOp1
 70
     1
102
RTVSPropertyOp2
 70
     1
102
RTVSPropertyOp3
 70
     1
102
RTVSPropertyOp4
 70
     1
102
RTVSPropertyOp5
 70
     1
102
RTVSPropertyOp6
 70
     1
102
RTVSPropertyOp7
 70
     1
102
RTVSPropertyOp8
 70
     1
102
RTVSPropertyOp9
 70
     1
102
RTVSPropertyOp10
 70
     1
102
RTVSPropertyOp11
 70
     1
102
RTVSPropertyOp12
 70
     1
102
RTVSPropertyOp13
 70
     1
102
RTVSPropertyOp14
 70
     1
102
RTVSPropertyOp15
 70
     1
102
RTVSPropertyOp16
 70
     1
102
RTVSPropertyOp17
 70
     1
102
RTVSPropertyOp18
 70
     1
102
RTVSPropertyOp19
 70
     1
102
RTVSPropertyOp20
 70
     1
102
RTVSPropertyOp21
 70
     1
102
RTVSPropertyOp22
 70
     1
102
RTVSPropertyOp23
 70
     1
102
RTVSPropertyOp24
 70
     1
102
RTVSPropertyOp25
 70
     1
102
RTVSPropertyOp26
 70
     1
102
RTVSPropertyOp27
 70
     1
102
RTVSPropertyOp28
 70
     1
102
RTVSPropertyOp29
 70
     1
102
RTVSPropertyOp30
 70
     1
102
RTVSPropertyOp31
 70
     1
102
RTVSPropertyOp32
 70
     1
102
RTVSPropertyOp33
 70
     1
102
RTVSPropertyOp34
 70
     1
102
RTVSPropertyOp35
 70
     1
102
RTVSPropertyOp36
 70
     1
102
RTVSPropertyOp37
 70
     1
102
RTVSPropertyOp38
 70
     1
102
RTVSPropertyOp39
 70
     1
102
RTVSPropertyOp40
 70
     1
102
RTVSPropertyOp41
 70
     1
102
RTVSPropertyOp42
 70
     1
102
RTVSPropertyOp43
 70
     1
102
RTVSPropertyOp44
 70
     1
102
RTVSPropertyOp45
 70
     1
102
RTVSPropertyOp46
 70
     1
102
RTVSPropertyOp47
 70
     1
102
RTVSPropertyOp48
 70
     1
102
RTVSPropertyOp49
 70
     1
102
RTVSPropertyOp50
 70
     1
102
RTVSPropertyOp51
 70
     0
102
RTVSPropertyOp52
 70
     0
102
RTVSPropertyOp53
 70
     1
102
RTVSPropertyOp54
 70
     1
102
RTVSPropertyOp55
 70
     1
102
RTVSPropertyOp56
 70
     1
102
RTVSPropertyOp57
 70
     1
102
RTVSPropertyOp58
 70
     1
102
RTVSPropertyOp59
 70
     1
102
RTVSPropertyOp60
 70
     1
102
RTVSPropertyOp61
 70
     1
102
RTVSPropertyOp62
 70
     1
  0
XRECORD
  5
38B
102
{ACAD_REACTORS
330
38A
102
}
330
38A
100
AcDbXrecord
280
     1
102
RTVSPost2010Prop28
280
     0
102
RTVSPost2010PropOp28
 70
     0
102
RTVSPost2010Prop29
280
     1
102
RTVSPost2010PropOp29
 70
     0
102
RTVSPost2010Prop30
280
     1
102
RTVSPost2010PropOp30
 70
     0
102
RTVSPost2010Prop31
280
     0
102
RTVSPost2010PropOp31
 70
     0
102
RTVSPost2010Prop32
280
     0
102
RTVSPost2010PropOp32
 70
     0
102
RTVSPost2010Prop33
280
     0
102
RTVSPost2010PropOp33
 70
     0
102
RTVSPost2010Prop34
280
     0
102
RTVSPost2010PropOp34
 70
     0
102
RTVSPost2010Prop35
280
     0
102
RTVSPost2010PropOp35
 70
     0
102
RTVSPost2010Prop36
280
     0
102
RTVSPost2010PropOp36
 70
     0
102
RTVSPost2010Prop37
 90
       50
102
RTVSPost2010PropOp37
 70
     0
102
RTVSPost2010Prop38
140
0.0
102
RTVSPost2010PropOp38
 70
     0
102
RTVSPost2010Prop39
140
1.0
102
RTVSPost2010PropOp39
 70
     0
102
RTVSPost2010Prop40
 90
        0
102
RTVSPost2010PropOp40
 70
     0
102
RTVSPost2010Prop41ColorIndex
 90
       18
102
RTVSPost2010Prop41ColorRGB
 90
        0
102
RTVSPost2010PropOp41
 70
     0
102
RTVSPost2010Prop42
 90
       50
102
RTVSPost2010PropOp42
 70
     0
102
RTVSPost2010Prop43
 90
        3
102
RTVSPost2010PropOp43
 70
     0
102
RTVSPost2010Prop44ColorIndex
 90
        5
102
RTVSPost2010Prop44ColorRGB
 90
      255
102
RTVSPost2010PropOp44
 70
     0
102
RTVSPost2010Prop45
280
     0
102
RTVSPost2010PropOp45
 70
     0
102
RTVSPost2010Prop46
 90
       50
102
RTVSPost2010PropOp46
 70
     0
102
RTVSPost2010Prop47
 90
       50
102
RTVSPost2010PropOp47
 70
     0
102
RTVSPost2010Prop48
 90
       50
102
RTVSPost2010PropOp48
 70
     0
102
RTVSPost2010Prop49
280
     0
102
RTVSPost2010PropOp49
 70
     0
102
RTVSPost2010Prop50
 90
       50
102
RTVSPost2010PropOp50
 70
     0
102
RTVSPost2010Prop51ColorIndex
 90
      256
102
RTVSPost2010Prop51ColorRGB
 90
-16777216
102
RTVSPost2010PropOp51
 70
     0
102
RTVSPost2010Prop52
140
1.0
102
RTVSPost2010PropOp52
 70
     0
102
RTVSPost2010Prop53
 90
        2
102
RTVSPost2010PropOp53
 70
     0
102
RTVSPost2010Prop54
  1
strokes_ogs.tif
102
RTVSPost2010PropOp54
 70
     0
102
RTVSPost2010Prop55
280
     0
102
RTVSPost2010PropOp55
 70
     0
102
RTVSPost2010Prop56
140
1.0
102
RTVSPost2010PropOp56
 70
     0
102
RTVSPost2010Prop57
140
1.0
102
RTVSPost2010PropOp57
 70
     0
102
RTVSPropertyOp0
 70
     0
102
RTVSPropertyOp1
 70
     0
102
RTVSPropertyOp2
 70
     0
102
RTVSPropertyOp3
 70
     0
102
RTVSPropertyOp4
 70
     0
102
RTVSPropertyOp5
 70
     0
102
RTVSPropertyOp6
 70
     0
102
RTVSPropertyOp7
 70
     0
102
RTVSPropertyOp8
 70
     0
102
RTVSPropertyOp9
 70
     0
102
RTVSPropertyOp10
 70
     0
102
RTVSPropertyOp11
 70
     0
102
RTVSPropertyOp12
 70
     0
102
RTVSPropertyOp13
 70
     0
102
RTVSPropertyOp14
 70
     2
102
RTVSPropertyOp15
 70
     0
102
RTVSPropertyOp16
 70
     0
102
RTVSPropertyOp17
 70
     0
102
RTVSPropertyOp18
 70
     0
102
RTVSPropertyOp19
 70
     0
102
RTVSPropertyOp20
 70
     0
102
RTVSPropertyOp21
 70
     0
102
RTVSPropertyOp22
 70
     0
102
RTVSPropertyOp23
 70
     0
102
RTVSPropertyOp24
 70
     0
102
RTVSPropertyOp25
 70
     0
102
RTVSPropertyOp26
 70
     0
102
RTVSPropertyOp27
 70
     0
102
RTVSPropertyOp28
 70
     0
102
RTVSPropertyOp29
 70
     0
102
RTVSPropertyOp30
 70
     0
102
RTVSPropertyOp31
 70
     0
102
RTVSPropertyOp32
 70
     0
102
RTVSPropertyOp33
 70
     0
102
RTVSPropertyOp34
 70
     0
102
RTVSPropertyOp35
 70
     0
102
RTVSPropertyOp36
 70
     0
102
RTVSPropertyOp37
 70
     0
102
RTVSPropertyOp38
 70
     0
102
RTVSPropertyOp39
 70
     0
102
RTVSPropertyOp40
 70
     0
102
RTVSPropertyOp41
 70
     0
102
RTVSPropertyOp42
 70
     0
102
RTVSPropertyOp43
 70
     0
102
RTVSPropertyOp44
 70
     0
102
RTVSPropertyOp45
 70
     0
102
RTVSPropertyOp46
 70
     0
102
RTVSPropertyOp47
 70
     0
102
RTVSPropertyOp48
 70
     0
102
RTVSPropertyOp49
 70
     0
102
RTVSPropertyOp50
 70
     0
102
RTVSPropertyOp51
 70
     0
102
RTVSPropertyOp52
 70
     0
102
RTVSPropertyOp53
 70
     0
102
RTVSPropertyOp54
 70
     0
102
RTVSPropertyOp55
 70
     0
102
RTVSPropertyOp56
 70
     0
102
RTVSPropertyOp57
 70
     0
102
RTVSPropertyOp58
 70
     1
102
RTVSPropertyOp59
 70
     1
102
RTVSPropertyOp60
 70
     1
102
RTVSPropertyOp61
 70
     1
102
RTVSPropertyOp62
 70
     1
  0
XRECORD
  5
385
102
{ACAD_REACTORS
330
384
102
}
330
384
100
AcDbXrecord
280
     1
102
RTVSPost2010Prop28
280
     0
102
RTVSPost2010PropOp28
 70
     1
102
RTVSPost2010Prop29
280
     1
102
RTVSPost2010PropOp29
 70
     1
102
RTVSPost2010Prop30
280
     1
102
RTVSPost2010PropOp30
 70
     1
102
RTVSPost2010Prop31
280
     0
102
RTVSPost2010PropOp31
 70
     1
102
RTVSPost2010Prop32
280
     0
102
RTVSPost2010PropOp32
 70
     1
102
RTVSPost2010Prop33
280
     0
102
RTVSPost2010PropOp33
 70
     1
102
RTVSPost2010Prop34
280
     0
102
RTVSPost2010PropOp34
 70
     1
102
RTVSPost2010Prop35
280
     0
102
RTVSPost2010PropOp35
 70
     1
102
RTVSPost2010Prop36
280
     0
102
RTVSPost2010PropOp36
 70
     1
102
RTVSPost2010Prop37
 90
       50
102
RTVSPost2010PropOp37
 70
     1
102
RTVSPost2010Prop38
140
0.0
102
RTVSPost2010PropOp38
 70
     1
102
RTVSPost2010Prop39
140
1.0
102
RTVSPost2010PropOp39
 70
     1
102
RTVSPost2010Prop40
 90
        0
102
RTVSPost2010PropOp40
 70
     1
102
RTVSPost2010Prop41ColorIndex
 90
       18
102
RTVSPost2010Prop41ColorRGB
 90
        0
102
RTVSPost2010PropOp41
 70
     1
102
RTVSPost2010Prop42
 90
       50
102
RTVSPost2010PropOp42
 70
     1
102
RTVSPost2010Prop43
 90
        3
102
RTVSPost2010PropOp43
 70
     1
102
RTVSPost2010Prop44ColorIndex
 90
        5
102
RTVSPost2010Prop44ColorRGB
 90
      255
102
RTVSPost2010PropOp44
 70
     1
102
RTVSPost2010Prop45
280
     0
102
RTVSPost2010PropOp45
 70
     1
102
RTVSPost2010Prop46
 90
       50
102
RTVSPost2010PropOp46
 70
     1
102
RTVSPost2010Prop47
 90
       50
102
RTVSPost2010PropOp47
 70
     1
102
RTVSPost2010Prop48
 90
       50
102
RTVSPost2010PropOp48
 70
     1
102
RTVSPost2010Prop49
280
     0
102
RTVSPost2010PropOp49
 70
     1
102
RTVSPost2010Prop50
 90
       50
102
RTVSPost2010PropOp50
 70
     1
102
RTVSPost2010Prop51ColorIndex
 90
      256
102
RTVSPost2010Prop51ColorRGB
 90
-16777216
102
RTVSPost2010PropOp51
 70
     0
102
RTVSPost2010Prop52
140
1.0
102
RTVSPost2010PropOp52
 70
     0
102
RTVSPost2010Prop53
 90
        2
102
RTVSPost2010PropOp53
 70
     1
102
RTVSPost2010Prop54
  1
strokes_ogs.tif
102
RTVSPost2010PropOp54
 70
     1
102
RTVSPost2010Prop55
280
     0
102
RTVSPost2010PropOp55
 70
     1
102
RTVSPost2010Prop56
140
1.0
102
RTVSPost2010PropOp56
 70
     1
102
RTVSPost2010Prop57
140
1.0
102
RTVSPost2010PropOp57
 70
     1
102
RTVSPropertyOp0
 70
     1
102
RTVSPropertyOp1
 70
     1
102
RTVSPropertyOp2
 70
     1
102
RTVSPropertyOp3
 70
     1
102
RTVSPropertyOp4
 70
     1
102
RTVSPropertyOp5
 70
     1
102
RTVSPropertyOp6
 70
     1
102
RTVSPropertyOp7
 70
     1
102
RTVSPropertyOp8
 70
     1
102
RTVSPropertyOp9
 70
     1
102
RTVSPropertyOp10
 70
     1
102
RTVSPropertyOp11
 70
     1
102
RTVSPropertyOp12
 70
     1
102
RTVSPropertyOp13
 70
     1
102
RTVSPropertyOp14
 70
     1
102
RTVSPropertyOp15
 70
     1
102
RTVSPropertyOp16
 70
     1
102
RTVSPropertyOp17
 70
     1
102
RTVSPropertyOp18
 70
     1
102
RTVSPropertyOp19
 70
     1
102
RTVSPropertyOp20
 70
     1
102
RTVSPropertyOp21
 70
     1
102
RTVSPropertyOp22
 70
     1
102
RTVSPropertyOp23
 70
     1
102
RTVSPropertyOp24
 70
     1
102
RTVSPropertyOp25
 70
     1
102
RTVSPropertyOp26
 70
     1
102
RTVSPropertyOp27
 70
     1
102
RTVSPropertyOp28
 70
     1
102
RTVSPropertyOp29
 70
     1
102
RTVSPropertyOp30
 70
     1
102
RTVSPropertyOp31
 70
     1
102
RTVSPropertyOp32
 70
     1
102
RTVSPropertyOp33
 70
     1
102
RTVSPropertyOp34
 70
     1
102
RTVSPropertyOp35
 70
     1
102
RTVSPropertyOp36
 70
     1
102
RTVSPropertyOp37
 70
     1
102
RTVSPropertyOp38
 70
     1
102
RTVSPropertyOp39
 70
     1
102
RTVSPropertyOp40
 70
     1
102
RTVSPropertyOp41
 70
     1
102
RTVSPropertyOp42
 70
     1
102
RTVSPropertyOp43
 70
     1
102
RTVSPropertyOp44
 70
     1
102
RTVSPropertyOp45
 70
     1
102
RTVSPropertyOp46
 70
     1
102
RTVSPropertyOp47
 70
     1
102
RTVSPropertyOp48
 70
     1
102
RTVSPropertyOp49
 70
     1
102
RTVSPropertyOp50
 70
     1
102
RTVSPropertyOp51
 70
     0
102
RTVSPropertyOp52
 70
     0
102
RTVSPropertyOp53
 70
     1
102
RTVSPropertyOp54
 70
     1
102
RTVSPropertyOp55
 70
     1
102
RTVSPropertyOp56
 70
     1
102
RTVSPropertyOp57
 70
     1
102
RTVSPropertyOp58
 70
     1
102
RTVSPropertyOp59
 70
     1
102
RTVSPropertyOp60
 70
     1
102
RTVSPropertyOp61
 70
     1
102
RTVSPropertyOp62
 70
     1
  0
XRECORD
  5
38D
102
{ACAD_REACTORS
330
38C
102
}
330
38C
100
AcDbXrecord
280
     1
102
RTVSPost2010Prop28
280
     0
102
RTVSPost2010PropOp28
 70
     0
102
RTVSPost2010Prop29
280
     1
102
RTVSPost2010PropOp29
 70
     0
102
RTVSPost2010Prop30
280
     1
102
RTVSPost2010PropOp30
 70
     0
102
RTVSPost2010Prop31
280
     0
102
RTVSPost2010PropOp31
 70
     0
102
RTVSPost2010Prop32
280
     0
102
RTVSPost2010PropOp32
 70
     0
102
RTVSPost2010Prop33
280
     0
102
RTVSPost2010PropOp33
 70
     0
102
RTVSPost2010Prop34
280
     0
102
RTVSPost2010PropOp34
 70
     0
102
RTVSPost2010Prop35
280
     0
102
RTVSPost2010PropOp35
 70
     0
102
RTVSPost2010Prop36
280
     0
102
RTVSPost2010PropOp36
 70
     0
102
RTVSPost2010Prop37
 90
       50
102
RTVSPost2010PropOp37
 70
     0
102
RTVSPost2010Prop38
140
0.0
102
RTVSPost2010PropOp38
 70
     0
102
RTVSPost2010Prop39
140
1.0
102
RTVSPost2010PropOp39
 70
     0
102
RTVSPost2010Prop40
 90
        0
102
RTVSPost2010PropOp40
 70
     0
102
RTVSPost2010Prop41ColorIndex
 90
       18
102
RTVSPost2010Prop41ColorRGB
 90
        0
102
RTVSPost2010PropOp41
 70
     0
102
RTVSPost2010Prop42
 90
       50
102
RTVSPost2010PropOp42
 70
     0
102
RTVSPost2010Prop43
 90
        3
102
RTVSPost2010PropOp43
 70
     0
102
RTVSPost2010Prop44ColorIndex
 90
        5
102
RTVSPost2010Prop44ColorRGB
 90
      255
102
RTVSPost2010PropOp44
 70
     0
102
RTVSPost2010Prop45
280
     0
102
RTVSPost2010PropOp45
 70
     0
102
RTVSPost2010Prop46
 90
       50
102
RTVSPost2010PropOp46
 70
     0
102
RTVSPost2010Prop47
 90
       50
102
RTVSPost2010PropOp47
 70
     0
102
RTVSPost2010Prop48
 90
       50
102
RTVSPost2010PropOp48
 70
     0
102
RTVSPost2010Prop49
280
     0
102
RTVSPost2010PropOp49
 70
     0
102
RTVSPost2010Prop50
 90
       50
102
RTVSPost2010PropOp50
 70
     0
102
RTVSPost2010Prop51ColorIndex
 90
      256
102
RTVSPost2010Prop51ColorRGB
 90
-16777216
102
RTVSPost2010PropOp51
 70
     0
102
RTVSPost2010Prop52
140
1.0
102
RTVSPost2010PropOp52
 70
     0
102
RTVSPost2010Prop53
 90
        2
102
RTVSPost2010PropOp53
 70
     0
102
RTVSPost2010Prop54
  1
strokes_ogs.tif
102
RTVSPost2010PropOp54
 70
     0
102
RTVSPost2010Prop55
280
     0
102
RTVSPost2010PropOp55
 70
     0
102
RTVSPost2010Prop56
140
1.0
102
RTVSPost2010PropOp56
 70
     0
102
RTVSPost2010Prop57
140
1.0
102
RTVSPost2010PropOp57
 70
     0
102
RTVSPropertyOp0
 70
     0
102
RTVSPropertyOp1
 70
     0
102
RTVSPropertyOp2
 70
     0
102
RTVSPropertyOp3
 70
     0
102
RTVSPropertyOp4
 70
     0
102
RTVSPropertyOp5
 70
     0
102
RTVSPropertyOp6
 70
     0
102
RTVSPropertyOp7
 70
     0
102
RTVSPropertyOp8
 70
     0
102
RTVSPropertyOp9
 70
     0
102
RTVSPropertyOp10
 70
     0
102
RTVSPropertyOp11
 70
     0
102
RTVSPropertyOp12
 70
     0
102
RTVSPropertyOp13
 70
     0
102
RTVSPropertyOp14
 70
     2
102
RTVSPropertyOp15
 70
     0
102
RTVSPropertyOp16
 70
     0
102
RTVSPropertyOp17
 70
     0
102
RTVSPropertyOp18
 70
     0
102
RTVSPropertyOp19
 70
     0
102
RTVSPropertyOp20
 70
     0
102
RTVSPropertyOp21
 70
     0
102
RTVSPropertyOp22
 70
     0
102
RTVSPropertyOp23
 70
     0
102
RTVSPropertyOp24
 70
     0
102
RTVSPropertyOp25
 70
     0
102
RTVSPropertyOp26
 70
     0
102
RTVSPropertyOp27
 70
     0
102
RTVSPropertyOp28
 70
     0
102
RTVSPropertyOp29
 70
     0
102
RTVSPropertyOp30
 70
     0
102
RTVSPropertyOp31
 70
     0
102
RTVSPropertyOp32
 70
     0
102
RTVSPropertyOp33
 70
     0
102
RTVSPropertyOp34
 70
     0
102
RTVSPropertyOp35
 70
     0
102
RTVSPropertyOp36
 70
     0
102
RTVSPropertyOp37
 70
     0
102
RTVSPropertyOp38
 70
     0
102
RTVSPropertyOp39
 70
     0
102
RTVSPropertyOp40
 70
     0
102
RTVSPropertyOp41
 70
     0
102
RTVSPropertyOp42
 70
     0
102
RTVSPropertyOp43
 70
     0
102
RTVSPropertyOp44
 70
     0
102
RTVSPropertyOp45
 70
     0
102
RTVSPropertyOp46
 70
     0
102
RTVSPropertyOp47
 70
     0
102
RTVSPropertyOp48
 70
     0
102
RTVSPropertyOp49
 70
     0
102
RTVSPropertyOp50
 70
     0
102
RTVSPropertyOp51
 70
     0
102
RTVSPropertyOp52
 70
     0
102
RTVSPropertyOp53
 70
     0
102
RTVSPropertyOp54
 70
     0
102
RTVSPropertyOp55
 70
     0
102
RTVSPropertyOp56
 70
     0
102
RTVSPropertyOp57
 70
     0
102
RTVSPropertyOp58
 70
     1
102
RTVSPropertyOp59
 70
     1
102
RTVSPropertyOp60
 70
     1
102
RTVSPropertyOp61
 70
     1
102
RTVSPropertyOp62
 70
     1
  0
XRECORD
  5
37B
102
{ACAD_REACTORS
330
37A
102
}
330
37A
100
AcDbXrecord
280
     1
102
RTVSPost2010Prop28
280
     0
102
RTVSPost2010PropOp28
 70
     1
102
RTVSPost2010Prop29
280
     1
102
RTVSPost2010PropOp29
 70
     1
102
RTVSPost2010Prop30
280
     1
102
RTVSPost2010PropOp30
 70
     1
102
RTVSPost2010Prop31
280
     0
102
RTVSPost2010PropOp31
 70
     1
102
RTVSPost2010Prop32
280
     0
102
RTVSPost2010PropOp32
 70
     1
102
RTVSPost2010Prop33
280
     0
102
RTVSPost2010PropOp33
 70
     1
102
RTVSPost2010Prop34
280
     0
102
RTVSPost2010PropOp34
 70
     1
102
RTVSPost2010Prop35
280
     0
102
RTVSPost2010PropOp35
 70
     1
102
RTVSPost2010Prop36
280
     0
102
RTVSPost2010PropOp36
 70
     1
102
RTVSPost2010Prop37
 90
       50
102
RTVSPost2010PropOp37
 70
     1
102
RTVSPost2010Prop38
140
0.0
102
RTVSPost2010PropOp38
 70
     1
102
RTVSPost2010Prop39
140
1.0
102
RTVSPost2010PropOp39
 70
     1
102
RTVSPost2010Prop40
 90
        0
102
RTVSPost2010PropOp40
 70
     1
102
RTVSPost2010Prop41ColorIndex
 90
       18
102
RTVSPost2010Prop41ColorRGB
 90
        0
102
RTVSPost2010PropOp41
 70
     1
102
RTVSPost2010Prop42
 90
       50
102
RTVSPost2010PropOp42
 70
     1
102
RTVSPost2010Prop43
 90
        3
102
RTVSPost2010PropOp43
 70
     1
102
RTVSPost2010Prop44ColorIndex
 90
        5
102
RTVSPost2010Prop44ColorRGB
 90
      255
102
RTVSPost2010PropOp44
 70
     1
102
RTVSPost2010Prop45
280
     0
102
RTVSPost2010PropOp45
 70
     1
102
RTVSPost2010Prop46
 90
       50
102
RTVSPost2010PropOp46
 70
     1
102
RTVSPost2010Prop47
 90
       50
102
RTVSPost2010PropOp47
 70
     1
102
RTVSPost2010Prop48
 90
       50
102
RTVSPost2010PropOp48
 70
     1
102
RTVSPost2010Prop49
280
     0
102
RTVSPost2010PropOp49
 70
     1
102
RTVSPost2010Prop50
 90
       50
102
RTVSPost2010PropOp50
 70
     1
102
RTVSPost2010Prop51ColorIndex
 90
      256
102
RTVSPost2010Prop51ColorRGB
 90
-16777216
102
RTVSPost2010PropOp51
 70
     0
102
RTVSPost2010Prop52
140
1.0
102
RTVSPost2010PropOp52
 70
     0
102
RTVSPost2010Prop53
 90
        2
102
RTVSPost2010PropOp53
 70
     1
102
RTVSPost2010Prop54
  1
strokes_ogs.tif
102
RTVSPost2010PropOp54
 70
     1
102
RTVSPost2010Prop55
280
     0
102
RTVSPost2010PropOp55
 70
     1
102
RTVSPost2010Prop56
140
1.0
102
RTVSPost2010PropOp56
 70
     1
102
RTVSPost2010Prop57
140
1.0
102
RTVSPost2010PropOp57
 70
     1
102
RTVSPropertyOp0
 70
     1
102
RTVSPropertyOp1
 70
     1
102
RTVSPropertyOp2
 70
     1
102
RTVSPropertyOp3
 70
     1
102
RTVSPropertyOp4
 70
     1
102
RTVSPropertyOp5
 70
     1
102
RTVSPropertyOp6
 70
     1
102
RTVSPropertyOp7
 70
     1
102
RTVSPropertyOp8
 70
     1
102
RTVSPropertyOp9
 70
     1
102
RTVSPropertyOp10
 70
     1
102
RTVSPropertyOp11
 70
     1
102
RTVSPropertyOp12
 70
     1
102
RTVSPropertyOp13
 70
     1
102
RTVSPropertyOp14
 70
     1
102
RTVSPropertyOp15
 70
     1
102
RTVSPropertyOp16
 70
     1
102
RTVSPropertyOp17
 70
     1
102
RTVSPropertyOp18
 70
     1
102
RTVSPropertyOp19
 70
     1
102
RTVSPropertyOp20
 70
     1
102
RTVSPropertyOp21
 70
     1
102
RTVSPropertyOp22
 70
     1
102
RTVSPropertyOp23
 70
     1
102
RTVSPropertyOp24
 70
     1
102
RTVSPropertyOp25
 70
     1
102
RTVSPropertyOp26
 70
     1
102
RTVSPropertyOp27
 70
     1
102
RTVSPropertyOp28
 70
     1
102
RTVSPropertyOp29
 70
     1
102
RTVSPropertyOp30
 70
     1
102
RTVSPropertyOp31
 70
     1
102
RTVSPropertyOp32
 70
     1
102
RTVSPropertyOp33
 70
     1
102
RTVSPropertyOp34
 70
     1
102
RTVSPropertyOp35
 70
     1
102
RTVSPropertyOp36
 70
     1
102
RTVSPropertyOp37
 70
     1
102
RTVSPropertyOp38
 70
     1
102
RTVSPropertyOp39
 70
     1
102
RTVSPropertyOp40
 70
     1
102
RTVSPropertyOp41
 70
     1
102
RTVSPropertyOp42
 70
     1
102
RTVSPropertyOp43
 70
     1
102
RTVSPropertyOp44
 70
     1
102
RTVSPropertyOp45
 70
     1
102
RTVSPropertyOp46
 70
     1
102
RTVSPropertyOp47
 70
     1
102
RTVSPropertyOp48
 70
     1
102
RTVSPropertyOp49
 70
     1
102
RTVSPropertyOp50
 70
     1
102
RTVSPropertyOp51
 70
     0
102
RTVSPropertyOp52
 70
     0
102
RTVSPropertyOp53
 70
     1
102
RTVSPropertyOp54
 70
     1
102
RTVSPropertyOp55
 70
     1
102
RTVSPropertyOp56
 70
     1
102
RTVSPropertyOp57
 70
     1
102
RTVSPropertyOp58
 70
     1
102
RTVSPropertyOp59
 70
     1
102
RTVSPropertyOp60
 70
     1
102
RTVSPropertyOp61
 70
     1
102
RTVSPropertyOp62
 70
     1
  0
XRECORD
  5
399
102
{ACAD_REACTORS
330
398
102
}
330
398
100
AcDbXrecord
280
     1
102
RTVSPost2010Prop28
280
     0
102
RTVSPost2010PropOp28
 70
     1
102
RTVSPost2010Prop29
280
     1
102
RTVSPost2010PropOp29
 70
     1
102
RTVSPost2010Prop30
280
     1
102
RTVSPost2010PropOp30
 70
     1
102
RTVSPost2010Prop31
280
     0
102
RTVSPost2010PropOp31
 70
     1
102
RTVSPost2010Prop32
280
     0
102
RTVSPost2010PropOp32
 70
     1
102
RTVSPost2010Prop33
280
     0
102
RTVSPost2010PropOp33
 70
     1
102
RTVSPost2010Prop34
280
     0
102
RTVSPost2010PropOp34
 70
     1
102
RTVSPost2010Prop35
280
     0
102
RTVSPost2010PropOp35
 70
     1
102
RTVSPost2010Prop36
280
     0
102
RTVSPost2010PropOp36
 70
     1
102
RTVSPost2010Prop37
 90
       50
102
RTVSPost2010PropOp37
 70
     1
102
RTVSPost2010Prop38
140
0.0
102
RTVSPost2010PropOp38
 70
     1
102
RTVSPost2010Prop39
140
1.0
102
RTVSPost2010PropOp39
 70
     1
102
RTVSPost2010Prop40
 90
        0
102
RTVSPost2010PropOp40
 70
     1
102
RTVSPost2010Prop41ColorIndex
 90
       18
102
RTVSPost2010Prop41ColorRGB
 90
        0
102
RTVSPost2010PropOp41
 70
     1
102
RTVSPost2010Prop42
 90
       50
102
RTVSPost2010PropOp42
 70
     1
102
RTVSPost2010Prop43
 90
        3
102
RTVSPost2010PropOp43
 70
     1
102
RTVSPost2010Prop44ColorIndex
 90
        5
102
RTVSPost2010Prop44ColorRGB
 90
      255
102
RTVSPost2010PropOp44
 70
     1
102
RTVSPost2010Prop45
280
     0
102
RTVSPost2010PropOp45
 70
     1
102
RTVSPost2010Prop46
 90
       50
102
RTVSPost2010PropOp46
 70
     1
102
RTVSPost2010Prop47
 90
       50
102
RTVSPost2010PropOp47
 70
     1
102
RTVSPost2010Prop48
 90
       50
102
RTVSPost2010PropOp48
 70
     1
102
RTVSPost2010Prop49
280
     0
102
RTVSPost2010PropOp49
 70
     1
102
RTVSPost2010Prop50
 90
       50
102
RTVSPost2010PropOp50
 70
     1
102
RTVSPost2010Prop51ColorIndex
 90
      256
102
RTVSPost2010Prop51ColorRGB
 90
-16777216
102
RTVSPost2010PropOp51
 70
     0
102
RTVSPost2010Prop52
140
1.0
102
RTVSPost2010PropOp52
 70
     0
102
RTVSPost2010Prop53
 90
        2
102
RTVSPost2010PropOp53
 70
     1
102
RTVSPost2010Prop54
  1
strokes_ogs.tif
102
RTVSPost2010PropOp54
 70
     1
102
RTVSPost2010Prop55
280
     0
102
RTVSPost2010PropOp55
 70
     1
102
RTVSPost2010Prop56
140
1.0
102
RTVSPost2010PropOp56
 70
     1
102
RTVSPost2010Prop57
140
1.0
102
RTVSPost2010PropOp57
 70
     1
102
RTVSPropertyOp0
 70
     1
102
RTVSPropertyOp1
 70
     1
102
RTVSPropertyOp2
 70
     1
102
RTVSPropertyOp3
 70
     1
102
RTVSPropertyOp4
 70
     1
102
RTVSPropertyOp5
 70
     1
102
RTVSPropertyOp6
 70
     1
102
RTVSPropertyOp7
 70
     1
102
RTVSPropertyOp8
 70
     1
102
RTVSPropertyOp9
 70
     1
102
RTVSPropertyOp10
 70
     1
102
RTVSPropertyOp11
 70
     1
102
RTVSPropertyOp12
 70
     1
102
RTVSPropertyOp13
 70
     1
102
RTVSPropertyOp14
 70
     1
102
RTVSPropertyOp15
 70
     1
102
RTVSPropertyOp16
 70
     1
102
RTVSPropertyOp17
 70
     1
102
RTVSPropertyOp18
 70
     1
102
RTVSPropertyOp19
 70
     1
102
RTVSPropertyOp20
 70
     1
102
RTVSPropertyOp21
 70
     1
102
RTVSPropertyOp22
 70
     1
102
RTVSPropertyOp23
 70
     1
102
RTVSPropertyOp24
 70
     1
102
RTVSPropertyOp25
 70
     1
102
RTVSPropertyOp26
 70
     1
102
RTVSPropertyOp27
 70
     1
102
RTVSPropertyOp28
 70
     1
102
RTVSPropertyOp29
 70
     1
102
RTVSPropertyOp30
 70
     1
102
RTVSPropertyOp31
 70
     1
102
RTVSPropertyOp32
 70
     1
102
RTVSPropertyOp33
 70
     1
102
RTVSPropertyOp34
 70
     1
102
RTVSPropertyOp35
 70
     1
102
RTVSPropertyOp36
 70
     1
102
RTVSPropertyOp37
 70
     1
102
RTVSPropertyOp38
 70
     1
102
RTVSPropertyOp39
 70
     1
102
RTVSPropertyOp40
 70
     1
102
RTVSPropertyOp41
 70
     1
102
RTVSPropertyOp42
 70
     1
102
RTVSPropertyOp43
 70
     1
102
RTVSPropertyOp44
 70
     1
102
RTVSPropertyOp45
 70
     1
102
RTVSPropertyOp46
 70
     1
102
RTVSPropertyOp47
 70
     1
102
RTVSPropertyOp48
 70
     1
102
RTVSPropertyOp49
 70
     1
102
RTVSPropertyOp50
 70
     1
102
RTVSPropertyOp51
 70
     0
102
RTVSPropertyOp52
 70
     0
102
RTVSPropertyOp53
 70
     1
102
RTVSPropertyOp54
 70
     1
102
RTVSPropertyOp55
 70
     1
102
RTVSPropertyOp56
 70
     1
102
RTVSPropertyOp57
 70
     1
102
RTVSPropertyOp58
 70
     1
102
RTVSPropertyOp59
 70
     1
102
RTVSPropertyOp60
 70
     1
102
RTVSPropertyOp61
 70
     1
102
RTVSPropertyOp62
 70
     1
  0
XRECORD
  5
397
102
{ACAD_REACTORS
330
396
102
}
330
396
100
AcDbXrecord
280
     1
102
RTVSPost2010Prop28
280
     0
102
RTVSPost2010PropOp28
 70
     1
102
RTVSPost2010Prop29
280
     1
102
RTVSPost2010PropOp29
 70
     1
102
RTVSPost2010Prop30
280
     1
102
RTVSPost2010PropOp30
 70
     1
102
RTVSPost2010Prop31
280
     0
102
RTVSPost2010PropOp31
 70
     1
102
RTVSPost2010Prop32
280
     0
102
RTVSPost2010PropOp32
 70
     1
102
RTVSPost2010Prop33
280
     0
102
RTVSPost2010PropOp33
 70
     1
102
RTVSPost2010Prop34
280
     0
102
RTVSPost2010PropOp34
 70
     1
102
RTVSPost2010Prop35
280
     0
102
RTVSPost2010PropOp35
 70
     1
102
RTVSPost2010Prop36
280
     0
102
RTVSPost2010PropOp36
 70
     1
102
RTVSPost2010Prop37
 90
       50
102
RTVSPost2010PropOp37
 70
     1
102
RTVSPost2010Prop38
140
0.0
102
RTVSPost2010PropOp38
 70
     1
102
RTVSPost2010Prop39
140
1.0
102
RTVSPost2010PropOp39
 70
     1
102
RTVSPost2010Prop40
 90
        0
102
RTVSPost2010PropOp40
 70
     1
102
RTVSPost2010Prop41ColorIndex
 90
       18
102
RTVSPost2010Prop41ColorRGB
 90
        0
102
RTVSPost2010PropOp41
 70
     1
102
RTVSPost2010Prop42
 90
       50
102
RTVSPost2010PropOp42
 70
     1
102
RTVSPost2010Prop43
 90
        3
102
RTVSPost2010PropOp43
 70
     1
102
RTVSPost2010Prop44ColorIndex
 90
        5
102
RTVSPost2010Prop44ColorRGB
 90
      255
102
RTVSPost2010PropOp44
 70
     1
102
RTVSPost2010Prop45
280
     0
102
RTVSPost2010PropOp45
 70
     1
102
RTVSPost2010Prop46
 90
       50
102
RTVSPost2010PropOp46
 70
     1
102
RTVSPost2010Prop47
 90
       50
102
RTVSPost2010PropOp47
 70
     1
102
RTVSPost2010Prop48
 90
       50
102
RTVSPost2010PropOp48
 70
     1
102
RTVSPost2010Prop49
280
     0
102
RTVSPost2010PropOp49
 70
     1
102
RTVSPost2010Prop50
 90
       50
102
RTVSPost2010PropOp50
 70
     1
102
RTVSPost2010Prop51ColorIndex
 90
      256
102
RTVSPost2010Prop51ColorRGB
 90
-16777216
102
RTVSPost2010PropOp51
 70
     0
102
RTVSPost2010Prop52
140
1.0
102
RTVSPost2010PropOp52
 70
     0
102
RTVSPost2010Prop53
 90
        2
102
RTVSPost2010PropOp53
 70
     1
102
RTVSPost2010Prop54
  1
strokes_ogs.tif
102
RTVSPost2010PropOp54
 70
     1
102
RTVSPost2010Prop55
280
     0
102
RTVSPost2010PropOp55
 70
     1
102
RTVSPost2010Prop56
140
1.0
102
RTVSPost2010PropOp56
 70
     1
102
RTVSPost2010Prop57
140
1.0
102
RTVSPost2010PropOp57
 70
     1
102
RTVSPropertyOp0
 70
     1
102
RTVSPropertyOp1
 70
     1
102
RTVSPropertyOp2
 70
     1
102
RTVSPropertyOp3
 70
     1
102
RTVSPropertyOp4
 70
     1
102
RTVSPropertyOp5
 70
     1
102
RTVSPropertyOp6
 70
     1
102
RTVSPropertyOp7
 70
     1
102
RTVSPropertyOp8
 70
     1
102
RTVSPropertyOp9
 70
     1
102
RTVSPropertyOp10
 70
     1
102
RTVSPropertyOp11
 70
     1
102
RTVSPropertyOp12
 70
     1
102
RTVSPropertyOp13
 70
     1
102
RTVSPropertyOp14
 70
     1
102
RTVSPropertyOp15
 70
     1
102
RTVSPropertyOp16
 70
     1
102
RTVSPropertyOp17
 70
     1
102
RTVSPropertyOp18
 70
     1
102
RTVSPropertyOp19
 70
     1
102
RTVSPropertyOp20
 70
     1
102
RTVSPropertyOp21
 70
     1
102
RTVSPropertyOp22
 70
     1
102
RTVSPropertyOp23
 70
     1
102
RTVSPropertyOp24
 70
     1
102
RTVSPropertyOp25
 70
     1
102
RTVSPropertyOp26
 70
     1
102
RTVSPropertyOp27
 70
     1
102
RTVSPropertyOp28
 70
     1
102
RTVSPropertyOp29
 70
     1
102
RTVSPropertyOp30
 70
     1
102
RTVSPropertyOp31
 70
     1
102
RTVSPropertyOp32
 70
     1
102
RTVSPropertyOp33
 70
     1
102
RTVSPropertyOp34
 70
     1
102
RTVSPropertyOp35
 70
     1
102
RTVSPropertyOp36
 70
     1
102
RTVSPropertyOp37
 70
     1
102
RTVSPropertyOp38
 70
     1
102
RTVSPropertyOp39
 70
     1
102
RTVSPropertyOp40
 70
     1
102
RTVSPropertyOp41
 70
     1
102
RTVSPropertyOp42
 70
     1
102
RTVSPropertyOp43
 70
     1
102
RTVSPropertyOp44
 70
     1
102
RTVSPropertyOp45
 70
     1
102
RTVSPropertyOp46
 70
     1
102
RTVSPropertyOp47
 70
     1
102
RTVSPropertyOp48
 70
     1
102
RTVSPropertyOp49
 70
     1
102
RTVSPropertyOp50
 70
     1
102
RTVSPropertyOp51
 70
     0
102
RTVSPropertyOp52
 70
     0
102
RTVSPropertyOp53
 70
     1
102
RTVSPropertyOp54
 70
     1
102
RTVSPropertyOp55
 70
     1
102
RTVSPropertyOp56
 70
     1
102
RTVSPropertyOp57
 70
     1
102
RTVSPropertyOp58
 70
     1
102
RTVSPropertyOp59
 70
     1
102
RTVSPropertyOp60
 70
     1
102
RTVSPropertyOp61
 70
     1
102
RTVSPropertyOp62
 70
     1
  0
XRECORD
  5
391
102
{ACAD_REACTORS
330
390
102
}
330
390
100
AcDbXrecord
280
     1
102
RTVSPost2010Prop28
280
     0
102
RTVSPost2010PropOp28
 70
     1
102
RTVSPost2010Prop29
280
     1
102
RTVSPost2010PropOp29
 70
     1
102
RTVSPost2010Prop30
280
     1
102
RTVSPost2010PropOp30
 70
     1
102
RTVSPost2010Prop31
280
     0
102
RTVSPost2010PropOp31
 70
     1
102
RTVSPost2010Prop32
280
     0
102
RTVSPost2010PropOp32
 70
     1
102
RTVSPost2010Prop33
280
     0
102
RTVSPost2010PropOp33
 70
     1
102
RTVSPost2010Prop34
280
     0
102
RTVSPost2010PropOp34
 70
     1
102
RTVSPost2010Prop35
280
     0
102
RTVSPost2010PropOp35
 70
     1
102
RTVSPost2010Prop36
280
     0
102
RTVSPost2010PropOp36
 70
     1
102
RTVSPost2010Prop37
 90
       50
102
RTVSPost2010PropOp37
 70
     1
102
RTVSPost2010Prop38
140
0.0
102
RTVSPost2010PropOp38
 70
     1
102
RTVSPost2010Prop39
140
1.0
102
RTVSPost2010PropOp39
 70
     1
102
RTVSPost2010Prop40
 90
        0
102
RTVSPost2010PropOp40
 70
     1
102
RTVSPost2010Prop41ColorIndex
 90
       18
102
RTVSPost2010Prop41ColorRGB
 90
        0
102
RTVSPost2010PropOp41
 70
     1
102
RTVSPost2010Prop42
 90
       50
102
RTVSPost2010PropOp42
 70
     1
102
RTVSPost2010Prop43
 90
        3
102
RTVSPost2010PropOp43
 70
     1
102
RTVSPost2010Prop44ColorIndex
 90
        5
102
RTVSPost2010Prop44ColorRGB
 90
      255
102
RTVSPost2010PropOp44
 70
     1
102
RTVSPost2010Prop45
280
     0
102
RTVSPost2010PropOp45
 70
     1
102
RTVSPost2010Prop46
 90
       50
102
RTVSPost2010PropOp46
 70
     1
102
RTVSPost2010Prop47
 90
       50
102
RTVSPost2010PropOp47
 70
     1
102
RTVSPost2010Prop48
 90
       50
102
RTVSPost2010PropOp48
 70
     1
102
RTVSPost2010Prop49
280
     0
102
RTVSPost2010PropOp49
 70
     1
102
RTVSPost2010Prop50
 90
       50
102
RTVSPost2010PropOp50
 70
     1
102
RTVSPost2010Prop51ColorIndex
 90
      256
102
RTVSPost2010Prop51ColorRGB
 90
-16777216
102
RTVSPost2010PropOp51
 70
     0
102
RTVSPost2010Prop52
140
1.0
102
RTVSPost2010PropOp52
 70
     0
102
RTVSPost2010Prop53
 90
        2
102
RTVSPost2010PropOp53
 70
     1
102
RTVSPost2010Prop54
  1
strokes_ogs.tif
102
RTVSPost2010PropOp54
 70
     1
102
RTVSPost2010Prop55
280
     0
102
RTVSPost2010PropOp55
 70
     1
102
RTVSPost2010Prop56
140
1.0
102
RTVSPost2010PropOp56
 70
     1
102
RTVSPost2010Prop57
140
1.0
102
RTVSPost2010PropOp57
 70
     1
102
RTVSPropertyOp0
 70
     1
102
RTVSPropertyOp1
 70
     1
102
RTVSPropertyOp2
 70
     1
102
RTVSPropertyOp3
 70
     1
102
RTVSPropertyOp4
 70
     1
102
RTVSPropertyOp5
 70
     1
102
RTVSPropertyOp6
 70
     1
102
RTVSPropertyOp7
 70
     1
102
RTVSPropertyOp8
 70
     1
102
RTVSPropertyOp9
 70
     1
102
RTVSPropertyOp10
 70
     1
102
RTVSPropertyOp11
 70
     1
102
RTVSPropertyOp12
 70
     1
102
RTVSPropertyOp13
 70
     1
102
RTVSPropertyOp14
 70
     1
102
RTVSPropertyOp15
 70
     1
102
RTVSPropertyOp16
 70
     1
102
RTVSPropertyOp17
 70
     1
102
RTVSPropertyOp18
 70
     1
102
RTVSPropertyOp19
 70
     1
102
RTVSPropertyOp20
 70
     1
102
RTVSPropertyOp21
 70
     1
102
RTVSPropertyOp22
 70
     1
102
RTVSPropertyOp23
 70
     1
102
RTVSPropertyOp24
 70
     1
102
RTVSPropertyOp25
 70
     1
102
RTVSPropertyOp26
 70
     1
102
RTVSPropertyOp27
 70
     1
102
RTVSPropertyOp28
 70
     1
102
RTVSPropertyOp29
 70
     1
102
RTVSPropertyOp30
 70
     1
102
RTVSPropertyOp31
 70
     1
102
RTVSPropertyOp32
 70
     1
102
RTVSPropertyOp33
 70
     1
102
RTVSPropertyOp34
 70
     1
102
RTVSPropertyOp35
 70
     1
102
RTVSPropertyOp36
 70
     1
102
RTVSPropertyOp37
 70
     1
102
RTVSPropertyOp38
 70
     1
102
RTVSPropertyOp39
 70
     1
102
RTVSPropertyOp40
 70
     1
102
RTVSPropertyOp41
 70
     1
102
RTVSPropertyOp42
 70
     1
102
RTVSPropertyOp43
 70
     1
102
RTVSPropertyOp44
 70
     1
102
RTVSPropertyOp45
 70
     1
102
RTVSPropertyOp46
 70
     1
102
RTVSPropertyOp47
 70
     1
102
RTVSPropertyOp48
 70
     1
102
RTVSPropertyOp49
 70
     1
102
RTVSPropertyOp50
 70
     1
102
RTVSPropertyOp51
 70
     0
102
RTVSPropertyOp52
 70
     0
102
RTVSPropertyOp53
 70
     1
102
RTVSPropertyOp54
 70
     1
102
RTVSPropertyOp55
 70
     1
102
RTVSPropertyOp56
 70
     1
102
RTVSPropertyOp57
 70
     1
102
RTVSPropertyOp58
 70
     1
102
RTVSPropertyOp59
 70
     1
102
RTVSPropertyOp60
 70
     1
102
RTVSPropertyOp61
 70
     1
102
RTVSPropertyOp62
 70
     1
  0
XRECORD
  5
393
102
{ACAD_REACTORS
330
392
102
}
330
392
100
AcDbXrecord
280
     1
102
RTVSPost2010Prop28
280
     0
102
RTVSPost2010PropOp28
 70
     1
102
RTVSPost2010Prop29
280
     1
102
RTVSPost2010PropOp29
 70
     1
102
RTVSPost2010Prop30
280
     1
102
RTVSPost2010PropOp30
 70
     1
102
RTVSPost2010Prop31
280
     0
102
RTVSPost2010PropOp31
 70
     1
102
RTVSPost2010Prop32
280
     0
102
RTVSPost2010PropOp32
 70
     1
102
RTVSPost2010Prop33
280
     0
102
RTVSPost2010PropOp33
 70
     1
102
RTVSPost2010Prop34
280
     0
102
RTVSPost2010PropOp34
 70
     1
102
RTVSPost2010Prop35
280
     0
102
RTVSPost2010PropOp35
 70
     1
102
RTVSPost2010Prop36
280
     0
102
RTVSPost2010PropOp36
 70
     1
102
RTVSPost2010Prop37
 90
       50
102
RTVSPost2010PropOp37
 70
     1
102
RTVSPost2010Prop38
140
0.0
102
RTVSPost2010PropOp38
 70
     1
102
RTVSPost2010Prop39
140
1.0
102
RTVSPost2010PropOp39
 70
     1
102
RTVSPost2010Prop40
 90
        0
102
RTVSPost2010PropOp40
 70
     1
102
RTVSPost2010Prop41ColorIndex
 90
       18
102
RTVSPost2010Prop41ColorRGB
 90
        0
102
RTVSPost2010PropOp41
 70
     1
102
RTVSPost2010Prop42
 90
       50
102
RTVSPost2010PropOp42
 70
     1
102
RTVSPost2010Prop43
 90
        3
102
RTVSPost2010PropOp43
 70
     1
102
RTVSPost2010Prop44ColorIndex
 90
        5
102
RTVSPost2010Prop44ColorRGB
 90
      255
102
RTVSPost2010PropOp44
 70
     1
102
RTVSPost2010Prop45
280
     0
102
RTVSPost2010PropOp45
 70
     1
102
RTVSPost2010Prop46
 90
       50
102
RTVSPost2010PropOp46
 70
     1
102
RTVSPost2010Prop47
 90
       50
102
RTVSPost2010PropOp47
 70
     1
102
RTVSPost2010Prop48
 90
       50
102
RTVSPost2010PropOp48
 70
     1
102
RTVSPost2010Prop49
280
     0
102
RTVSPost2010PropOp49
 70
     1
102
RTVSPost2010Prop50
 90
       50
102
RTVSPost2010PropOp50
 70
     1
102
RTVSPost2010Prop51ColorIndex
 90
      256
102
RTVSPost2010Prop51ColorRGB
 90
-16777216
102
RTVSPost2010PropOp51
 70
     0
102
RTVSPost2010Prop52
140
1.0
102
RTVSPost2010PropOp52
 70
     0
102
RTVSPost2010Prop53
 90
        2
102
RTVSPost2010PropOp53
 70
     1
102
RTVSPost2010Prop54
  1
strokes_ogs.tif
102
RTVSPost2010PropOp54
 70
     1
102
RTVSPost2010Prop55
280
     0
102
RTVSPost2010PropOp55
 70
     1
102
RTVSPost2010Prop56
140
1.0
102
RTVSPost2010PropOp56
 70
     1
102
RTVSPost2010Prop57
140
1.0
102
RTVSPost2010PropOp57
 70
     1
102
RTVSPropertyOp0
 70
     1
102
RTVSPropertyOp1
 70
     1
102
RTVSPropertyOp2
 70
     1
102
RTVSPropertyOp3
 70
     1
102
RTVSPropertyOp4
 70
     1
102
RTVSPropertyOp5
 70
     1
102
RTVSPropertyOp6
 70
     1
102
RTVSPropertyOp7
 70
     1
102
RTVSPropertyOp8
 70
     1
102
RTVSPropertyOp9
 70
     1
102
RTVSPropertyOp10
 70
     1
102
RTVSPropertyOp11
 70
     1
102
RTVSPropertyOp12
 70
     1
102
RTVSPropertyOp13
 70
     1
102
RTVSPropertyOp14
 70
     1
102
RTVSPropertyOp15
 70
     1
102
RTVSPropertyOp16
 70
     1
102
RTVSPropertyOp17
 70
     1
102
RTVSPropertyOp18
 70
     1
102
RTVSPropertyOp19
 70
     1
102
RTVSPropertyOp20
 70
     1
102
RTVSPropertyOp21
 70
     1
102
RTVSPropertyOp22
 70
     1
102
RTVSPropertyOp23
 70
     1
102
RTVSPropertyOp24
 70
     1
102
RTVSPropertyOp25
 70
     1
102
RTVSPropertyOp26
 70
     1
102
RTVSPropertyOp27
 70
     1
102
RTVSPropertyOp28
 70
     1
102
RTVSPropertyOp29
 70
     1
102
RTVSPropertyOp30
 70
     1
102
RTVSPropertyOp31
 70
     1
102
RTVSPropertyOp32
 70
     1
102
RTVSPropertyOp33
 70
     1
102
RTVSPropertyOp34
 70
     1
102
RTVSPropertyOp35
 70
     1
102
RTVSPropertyOp36
 70
     1
102
RTVSPropertyOp37
 70
     1
102
RTVSPropertyOp38
 70
     1
102
RTVSPropertyOp39
 70
     1
102
RTVSPropertyOp40
 70
     1
102
RTVSPropertyOp41
 70
     1
102
RTVSPropertyOp42
 70
     1
102
RTVSPropertyOp43
 70
     1
102
RTVSPropertyOp44
 70
     1
102
RTVSPropertyOp45
 70
     1
102
RTVSPropertyOp46
 70
     1
102
RTVSPropertyOp47
 70
     1
102
RTVSPropertyOp48
 70
     1
102
RTVSPropertyOp49
 70
     1
102
RTVSPropertyOp50
 70
     1
102
RTVSPropertyOp51
 70
     0
102
RTVSPropertyOp52
 70
     0
102
RTVSPropertyOp53
 70
     1
102
RTVSPropertyOp54
 70
     1
102
RTVSPropertyOp55
 70
     1
102
RTVSPropertyOp56
 70
     1
102
RTVSPropertyOp57
 70
     1
102
RTVSPropertyOp58
 70
     1
102
RTVSPropertyOp59
 70
     1
102
RTVSPropertyOp60
 70
     1
102
RTVSPropertyOp61
 70
     1
102
RTVSPropertyOp62
 70
     1
  0
XRECORD
  5
383
102
{ACAD_REACTORS
330
382
102
}
330
382
100
AcDbXrecord
280
     1
102
RTVSPost2010Prop28
280
     0
102
RTVSPost2010PropOp28
 70
     1
102
RTVSPost2010Prop29
280
     1
102
RTVSPost2010PropOp29
 70
     1
102
RTVSPost2010Prop30
280
     1
102
RTVSPost2010PropOp30
 70
     1
102
RTVSPost2010Prop31
280
     0
102
RTVSPost2010PropOp31
 70
     1
102
RTVSPost2010Prop32
280
     0
102
RTVSPost2010PropOp32
 70
     1
102
RTVSPost2010Prop33
280
     0
102
RTVSPost2010PropOp33
 70
     1
102
RTVSPost2010Prop34
280
     0
102
RTVSPost2010PropOp34
 70
     1
102
RTVSPost2010Prop35
280
     0
102
RTVSPost2010PropOp35
 70
     1
102
RTVSPost2010Prop36
280
     0
102
RTVSPost2010PropOp36
 70
     1
102
RTVSPost2010Prop37
 90
       50
102
RTVSPost2010PropOp37
 70
     1
102
RTVSPost2010Prop38
140
0.0
102
RTVSPost2010PropOp38
 70
     1
102
RTVSPost2010Prop39
140
1.0
102
RTVSPost2010PropOp39
 70
     1
102
RTVSPost2010Prop40
 90
        0
102
RTVSPost2010PropOp40
 70
     1
102
RTVSPost2010Prop41ColorIndex
 90
       18
102
RTVSPost2010Prop41ColorRGB
 90
        0
102
RTVSPost2010PropOp41
 70
     1
102
RTVSPost2010Prop42
 90
       50
102
RTVSPost2010PropOp42
 70
     1
102
RTVSPost2010Prop43
 90
        3
102
RTVSPost2010PropOp43
 70
     1
102
RTVSPost2010Prop44ColorIndex
 90
        5
102
RTVSPost2010Prop44ColorRGB
 90
      255
102
RTVSPost2010PropOp44
 70
     1
102
RTVSPost2010Prop45
280
     0
102
RTVSPost2010PropOp45
 70
     1
102
RTVSPost2010Prop46
 90
       50
102
RTVSPost2010PropOp46
 70
     1
102
RTVSPost2010Prop47
 90
       50
102
RTVSPost2010PropOp47
 70
     1
102
RTVSPost2010Prop48
 90
       50
102
RTVSPost2010PropOp48
 70
     1
102
RTVSPost2010Prop49
280
     0
102
RTVSPost2010PropOp49
 70
     1
102
RTVSPost2010Prop50
 90
       50
102
RTVSPost2010PropOp50
 70
     1
102
RTVSPost2010Prop51ColorIndex
 90
      256
102
RTVSPost2010Prop51ColorRGB
 90
-16777216
102
RTVSPost2010PropOp51
 70
     0
102
RTVSPost2010Prop52
140
1.0
102
RTVSPost2010PropOp52
 70
     0
102
RTVSPost2010Prop53
 90
        2
102
RTVSPost2010PropOp53
 70
     1
102
RTVSPost2010Prop54
  1
strokes_ogs.tif
102
RTVSPost2010PropOp54
 70
     1
102
RTVSPost2010Prop55
280
     0
102
RTVSPost2010PropOp55
 70
     1
102
RTVSPost2010Prop56
140
1.0
102
RTVSPost2010PropOp56
 70
     1
102
RTVSPost2010Prop57
140
1.0
102
RTVSPost2010PropOp57
 70
     1
102
RTVSPropertyOp0
 70
     1
102
RTVSPropertyOp1
 70
     1
102
RTVSPropertyOp2
 70
     1
102
RTVSPropertyOp3
 70
     1
102
RTVSPropertyOp4
 70
     1
102
RTVSPropertyOp5
 70
     1
102
RTVSPropertyOp6
 70
     1
102
RTVSPropertyOp7
 70
     1
102
RTVSPropertyOp8
 70
     1
102
RTVSPropertyOp9
 70
     1
102
RTVSPropertyOp10
 70
     1
102
RTVSPropertyOp11
 70
     1
102
RTVSPropertyOp12
 70
     1
102
RTVSPropertyOp13
 70
     1
102
RTVSPropertyOp14
 70
     1
102
RTVSPropertyOp15
 70
     1
102
RTVSPropertyOp16
 70
     1
102
RTVSPropertyOp17
 70
     1
102
RTVSPropertyOp18
 70
     1
102
RTVSPropertyOp19
 70
     1
102
RTVSPropertyOp20
 70
     1
102
RTVSPropertyOp21
 70
     1
102
RTVSPropertyOp22
 70
     1
102
RTVSPropertyOp23
 70
     1
102
RTVSPropertyOp24
 70
     1
102
RTVSPropertyOp25
 70
     1
102
RTVSPropertyOp26
 70
     1
102
RTVSPropertyOp27
 70
     1
102
RTVSPropertyOp28
 70
     1
102
RTVSPropertyOp29
 70
     1
102
RTVSPropertyOp30
 70
     1
102
RTVSPropertyOp31
 70
     1
102
RTVSPropertyOp32
 70
     1
102
RTVSPropertyOp33
 70
     1
102
RTVSPropertyOp34
 70
     1
102
RTVSPropertyOp35
 70
     1
102
RTVSPropertyOp36
 70
     1
102
RTVSPropertyOp37
 70
     1
102
RTVSPropertyOp38
 70
     1
102
RTVSPropertyOp39
 70
     1
102
RTVSPropertyOp40
 70
     1
102
RTVSPropertyOp41
 70
     1
102
RTVSPropertyOp42
 70
     1
102
RTVSPropertyOp43
 70
     1
102
RTVSPropertyOp44
 70
     1
102
RTVSPropertyOp45
 70
     1
102
RTVSPropertyOp46
 70
     1
102
RTVSPropertyOp47
 70
     1
102
RTVSPropertyOp48
 70
     1
102
RTVSPropertyOp49
 70
     1
102
RTVSPropertyOp50
 70
     1
102
RTVSPropertyOp51
 70
     0
102
RTVSPropertyOp52
 70
     0
102
RTVSPropertyOp53
 70
     1
102
RTVSPropertyOp54
 70
     1
102
RTVSPropertyOp55
 70
     1
102
RTVSPropertyOp56
 70
     1
102
RTVSPropertyOp57
 70
     1
102
RTVSPropertyOp58
 70
     1
102
RTVSPropertyOp59
 70
     1
102
RTVSPropertyOp60
 70
     1
102
RTVSPropertyOp61
 70
     1
102
RTVSPropertyOp62
 70
     1
  0
XRECORD
  5
375
102
{ACAD_REACTORS
330
374
102
}
330
374
100
AcDbXrecord
280
     1
102
RTVSPost2010Prop28
280
     0
102
RTVSPost2010PropOp28
 70
     1
102
RTVSPost2010Prop29
280
     1
102
RTVSPost2010PropOp29
 70
     1
102
RTVSPost2010Prop30
280
     1
102
RTVSPost2010PropOp30
 70
     1
102
RTVSPost2010Prop31
280
     0
102
RTVSPost2010PropOp31
 70
     1
102
RTVSPost2010Prop32
280
     0
102
RTVSPost2010PropOp32
 70
     1
102
RTVSPost2010Prop33
280
     0
102
RTVSPost2010PropOp33
 70
     1
102
RTVSPost2010Prop34
280
     0
102
RTVSPost2010PropOp34
 70
     1
102
RTVSPost2010Prop35
280
     0
102
RTVSPost2010PropOp35
 70
     1
102
RTVSPost2010Prop36
280
     0
102
RTVSPost2010PropOp36
 70
     1
102
RTVSPost2010Prop37
 90
       50
102
RTVSPost2010PropOp37
 70
     1
102
RTVSPost2010Prop38
140
0.0
102
RTVSPost2010PropOp38
 70
     1
102
RTVSPost2010Prop39
140
1.0
102
RTVSPost2010PropOp39
 70
     1
102
RTVSPost2010Prop40
 90
        0
102
RTVSPost2010PropOp40
 70
     1
102
RTVSPost2010Prop41ColorIndex
 90
       18
102
RTVSPost2010Prop41ColorRGB
 90
        0
102
RTVSPost2010PropOp41
 70
     1
102
RTVSPost2010Prop42
 90
       50
102
RTVSPost2010PropOp42
 70
     1
102
RTVSPost2010Prop43
 90
        3
102
RTVSPost2010PropOp43
 70
     1
102
RTVSPost2010Prop44ColorIndex
 90
        5
102
RTVSPost2010Prop44ColorRGB
 90
      255
102
RTVSPost2010PropOp44
 70
     1
102
RTVSPost2010Prop45
280
     0
102
RTVSPost2010PropOp45
 70
     1
102
RTVSPost2010Prop46
 90
       50
102
RTVSPost2010PropOp46
 70
     1
102
RTVSPost2010Prop47
 90
       50
102
RTVSPost2010PropOp47
 70
     1
102
RTVSPost2010Prop48
 90
       50
102
RTVSPost2010PropOp48
 70
     1
102
RTVSPost2010Prop49
280
     0
102
RTVSPost2010PropOp49
 70
     1
102
RTVSPost2010Prop50
 90
       50
102
RTVSPost2010PropOp50
 70
     1
102
RTVSPost2010Prop51ColorIndex
 90
      256
102
RTVSPost2010Prop51ColorRGB
 90
-16777216
102
RTVSPost2010PropOp51
 70
     0
102
RTVSPost2010Prop52
140
1.0
102
RTVSPost2010PropOp52
 70
     0
102
RTVSPost2010Prop53
 90
        2
102
RTVSPost2010PropOp53
 70
     1
102
RTVSPost2010Prop54
  1
strokes_ogs.tif
102
RTVSPost2010PropOp54
 70
     1
102
RTVSPost2010Prop55
280
     0
102
RTVSPost2010PropOp55
 70
     1
102
RTVSPost2010Prop56
140
1.0
102
RTVSPost2010PropOp56
 70
     1
102
RTVSPost2010Prop57
140
1.0
102
RTVSPost2010PropOp57
 70
     1
102
RTVSPropertyOp0
 70
     1
102
RTVSPropertyOp1
 70
     1
102
RTVSPropertyOp2
 70
     1
102
RTVSPropertyOp3
 70
     1
102
RTVSPropertyOp4
 70
     1
102
RTVSPropertyOp5
 70
     1
102
RTVSPropertyOp6
 70
     1
102
RTVSPropertyOp7
 70
     1
102
RTVSPropertyOp8
 70
     1
102
RTVSPropertyOp9
 70
     1
102
RTVSPropertyOp10
 70
     1
102
RTVSPropertyOp11
 70
     1
102
RTVSPropertyOp12
 70
     1
102
RTVSPropertyOp13
 70
     1
102
RTVSPropertyOp14
 70
     1
102
RTVSPropertyOp15
 70
     1
102
RTVSPropertyOp16
 70
     1
102
RTVSPropertyOp17
 70
     1
102
RTVSPropertyOp18
 70
     1
102
RTVSPropertyOp19
 70
     1
102
RTVSPropertyOp20
 70
     1
102
RTVSPropertyOp21
 70
     1
102
RTVSPropertyOp22
 70
     1
102
RTVSPropertyOp23
 70
     1
102
RTVSPropertyOp24
 70
     1
102
RTVSPropertyOp25
 70
     1
102
RTVSPropertyOp26
 70
     1
102
RTVSPropertyOp27
 70
     1
102
RTVSPropertyOp28
 70
     1
102
RTVSPropertyOp29
 70
     1
102
RTVSPropertyOp30
 70
     1
102
RTVSPropertyOp31
 70
     1
102
RTVSPropertyOp32
 70
     1
102
RTVSPropertyOp33
 70
     1
102
RTVSPropertyOp34
 70
     1
102
RTVSPropertyOp35
 70
     1
102
RTVSPropertyOp36
 70
     1
102
RTVSPropertyOp37
 70
     1
102
RTVSPropertyOp38
 70
     1
102
RTVSPropertyOp39
 70
     1
102
RTVSPropertyOp40
 70
     1
102
RTVSPropertyOp41
 70
     1
102
RTVSPropertyOp42
 70
     1
102
RTVSPropertyOp43
 70
     1
102
RTVSPropertyOp44
 70
     1
102
RTVSPropertyOp45
 70
     1
102
RTVSPropertyOp46
 70
     1
102
RTVSPropertyOp47
 70
     1
102
RTVSPropertyOp48
 70
     1
102
RTVSPropertyOp49
 70
     1
102
RTVSPropertyOp50
 70
     1
102
RTVSPropertyOp51
 70
     0
102
RTVSPropertyOp52
 70
     0
102
RTVSPropertyOp53
 70
     1
102
RTVSPropertyOp54
 70
     1
102
RTVSPropertyOp55
 70
     1
102
RTVSPropertyOp56
 70
     1
102
RTVSPropertyOp57
 70
     1
102
RTVSPropertyOp58
 70
     1
102
RTVSPropertyOp59
 70
     1
102
RTVSPropertyOp60
 70
     1
102
RTVSPropertyOp61
 70
     1
102
RTVSPropertyOp62
 70
     1
  0
XRECORD
  5
395
102
{ACAD_REACTORS
330
394
102
}
330
394
100
AcDbXrecord
280
     1
102
RTVSPost2010Prop28
280
     0
102
RTVSPost2010PropOp28
 70
     1
102
RTVSPost2010Prop29
280
     1
102
RTVSPost2010PropOp29
 70
     1
102
RTVSPost2010Prop30
280
     1
102
RTVSPost2010PropOp30
 70
     1
102
RTVSPost2010Prop31
280
     0
102
RTVSPost2010PropOp31
 70
     1
102
RTVSPost2010Prop32
280
     0
102
RTVSPost2010PropOp32
 70
     1
102
RTVSPost2010Prop33
280
     0
102
RTVSPost2010PropOp33
 70
     1
102
RTVSPost2010Prop34
280
     0
102
RTVSPost2010PropOp34
 70
     1
102
RTVSPost2010Prop35
280
     0
102
RTVSPost2010PropOp35
 70
     1
102
RTVSPost2010Prop36
280
     0
102
RTVSPost2010PropOp36
 70
     1
102
RTVSPost2010Prop37
 90
       50
102
RTVSPost2010PropOp37
 70
     1
102
RTVSPost2010Prop38
140
0.0
102
RTVSPost2010PropOp38
 70
     1
102
RTVSPost2010Prop39
140
1.0
102
RTVSPost2010PropOp39
 70
     1
102
RTVSPost2010Prop40
 90
        0
102
RTVSPost2010PropOp40
 70
     1
102
RTVSPost2010Prop41ColorIndex
 90
       18
102
RTVSPost2010Prop41ColorRGB
 90
        0
102
RTVSPost2010PropOp41
 70
     1
102
RTVSPost2010Prop42
 90
       50
102
RTVSPost2010PropOp42
 70
     1
102
RTVSPost2010Prop43
 90
        3
102
RTVSPost2010PropOp43
 70
     1
102
RTVSPost2010Prop44ColorIndex
 90
        5
102
RTVSPost2010Prop44ColorRGB
 90
      255
102
RTVSPost2010PropOp44
 70
     1
102
RTVSPost2010Prop45
280
     0
102
RTVSPost2010PropOp45
 70
     1
102
RTVSPost2010Prop46
 90
       50
102
RTVSPost2010PropOp46
 70
     1
102
RTVSPost2010Prop47
 90
       50
102
RTVSPost2010PropOp47
 70
     1
102
RTVSPost2010Prop48
 90
       50
102
RTVSPost2010PropOp48
 70
     1
102
RTVSPost2010Prop49
280
     0
102
RTVSPost2010PropOp49
 70
     1
102
RTVSPost2010Prop50
 90
       50
102
RTVSPost2010PropOp50
 70
     1
102
RTVSPost2010Prop51ColorIndex
 90
      256
102
RTVSPost2010Prop51ColorRGB
 90
-16777216
102
RTVSPost2010PropOp51
 70
     0
102
RTVSPost2010Prop52
140
1.0
102
RTVSPost2010PropOp52
 70
     0
102
RTVSPost2010Prop53
 90
        2
102
RTVSPost2010PropOp53
 70
     1
102
RTVSPost2010Prop54
  1
strokes_ogs.tif
102
RTVSPost2010PropOp54
 70
     1
102
RTVSPost2010Prop55
280
     0
102
RTVSPost2010PropOp55
 70
     1
102
RTVSPost2010Prop56
140
1.0
102
RTVSPost2010PropOp56
 70
     1
102
RTVSPost2010Prop57
140
1.0
102
RTVSPost2010PropOp57
 70
     1
102
RTVSPropertyOp0
 70
     1
102
RTVSPropertyOp1
 70
     1
102
RTVSPropertyOp2
 70
     1
102
RTVSPropertyOp3
 70
     1
102
RTVSPropertyOp4
 70
     1
102
RTVSPropertyOp5
 70
     1
102
RTVSPropertyOp6
 70
     1
102
RTVSPropertyOp7
 70
     1
102
RTVSPropertyOp8
 70
     1
102
RTVSPropertyOp9
 70
     1
102
RTVSPropertyOp10
 70
     1
102
RTVSPropertyOp11
 70
     1
102
RTVSPropertyOp12
 70
     1
102
RTVSPropertyOp13
 70
     1
102
RTVSPropertyOp14
 70
     1
102
RTVSPropertyOp15
 70
     1
102
RTVSPropertyOp16
 70
     1
102
RTVSPropertyOp17
 70
     1
102
RTVSPropertyOp18
 70
     1
102
RTVSPropertyOp19
 70
     1
102
RTVSPropertyOp20
 70
     1
102
RTVSPropertyOp21
 70
     1
102
RTVSPropertyOp22
 70
     1
102
RTVSPropertyOp23
 70
     1
102
RTVSPropertyOp24
 70
     1
102
RTVSPropertyOp25
 70
     1
102
RTVSPropertyOp26
 70
     1
102
RTVSPropertyOp27
 70
     1
102
RTVSPropertyOp28
 70
     1
102
RTVSPropertyOp29
 70
     1
102
RTVSPropertyOp30
 70
     1
102
RTVSPropertyOp31
 70
     1
102
RTVSPropertyOp32
 70
     1
102
RTVSPropertyOp33
 70
     1
102
RTVSPropertyOp34
 70
     1
102
RTVSPropertyOp35
 70
     1
102
RTVSPropertyOp36
 70
     1
102
RTVSPropertyOp37
 70
     1
102
RTVSPropertyOp38
 70
     1
102
RTVSPropertyOp39
 70
     1
102
RTVSPropertyOp40
 70
     1
102
RTVSPropertyOp41
 70
     1
102
RTVSPropertyOp42
 70
     1
102
RTVSPropertyOp43
 70
     1
102
RTVSPropertyOp44
 70
     1
102
RTVSPropertyOp45
 70
     1
102
RTVSPropertyOp46
 70
     1
102
RTVSPropertyOp47
 70
     1
102
RTVSPropertyOp48
 70
     1
102
RTVSPropertyOp49
 70
     1
102
RTVSPropertyOp50
 70
     1
102
RTVSPropertyOp51
 70
     0
102
RTVSPropertyOp52
 70
     0
102
RTVSPropertyOp53
 70
     1
102
RTVSPropertyOp54
 70
     1
102
RTVSPropertyOp55
 70
     1
102
RTVSPropertyOp56
 70
     1
102
RTVSPropertyOp57
 70
     1
102
RTVSPropertyOp58
 70
     1
102
RTVSPropertyOp59
 70
     1
102
RTVSPropertyOp60
 70
     1
102
RTVSPropertyOp61
 70
     1
102
RTVSPropertyOp62
 70
     1
  0
ENDSEC
  0
EOF
