  0
SECTION
  2
HEADER
  9
$ACADVER
  1
AC1018
  9
$ACADMAINTVER
 70
   104
  9
$DWGCODEPAGE
  3
ANSI_1250
  9
$LASTSAVEDBY
  1
wq7085
  9
$INSBASE
 10
0.0
 20
0.0
 30
0.0
  9
$EXTMIN
 10
170.4845713333333
 20
114.534924
 30
0.0
  9
$EXTMAX
 10
492.9463049999999
 20
351.9336746666668
 30
0.0
  9
$LIMMIN
 10
-0.5
 20
-0.5
  9
$LIMMAX
 10
5.0
 20
5.0
  9
$ORTHOMODE
 70
     1
  9
$REGENMODE
 70
     1
  9
$FILLMODE
 70
     1
  9
$QTEXTMODE
 70
     0
  9
$MIRRTEXT
 70
     1
  9
$LTSCALE
 40
1.0
  9
$ATTMODE
 70
     1
  9
$TEXTSIZE
 40
0.2
  9
$TRACEWID
 40
0.05
  9
$TEXTSTYLE
  7
Standard
  9
$CLAYER
  8
0
  9
$CELTYPE
  6
ByLayer
  9
$CECOLOR
 62
   256
  9
$CELTSCALE
 40
1.0
  9
$DISPSILH
 70
     0
  9
$DIMSCALE
 40
1.0
  9
$DIMASZ
 40
0.18
  9
$DIMEXO
 40
0.0625
  9
$DIMDLI
 40
0.38
  9
$DIMRND
 40
0.0
  9
$DIMDLE
 40
0.0
  9
$DIMEXE
 40
0.18
  9
$DIMTP
 40
0.0
  9
$DIMTM
 40
0.0
  9
$DIMTXT
 40
0.18
  9
$DIMCEN
 40
0.09
  9
$DIMTSZ
 40
0.0
  9
$DIMTOL
 70
     0
  9
$DIMLIM
 70
     0
  9
$DIMTIH
 70
     1
  9
$DIMTOH
 70
     1
  9
$DIMSE1
 70
     0
  9
$DIMSE2
 70
     0
  9
$DIMTAD
 70
     0
  9
$DIMZIN
 70
     0
  9
$DIMBLK
  1

  9
$DIMASO
 70
     1
  9
$DIMSHO
 70
     1
  9
$DIMPOST
  1

  9
$DIMAPOST
  1

  9
$DIMALT
 70
     0
  9
$DIMALTD
 70
     2
  9
$DIMALTF
 40
25.4
  9
$DIMLFAC
 40
1.0
  9
$DIMTOFL
 70
     0
  9
$DIMTVP
 40
0.0
  9
$DIMTIX
 70
     0
  9
$DIMSOXD
 70
     0
  9
$DIMSAH
 70
     0
  9
$DIMBLK1
  1

  9
$DIMBLK2
  1

  9
$DIMSTYLE
  2
Standard
  9
$DIMCLRD
 70
     0
  9
$DIMCLRE
 70
     0
  9
$DIMCLRT
 70
     0
  9
$DIMTFAC
 40
1.0
  9
$DIMGAP
 40
0.09
  9
$DIMJUST
 70
     0
  9
$DIMSD1
 70
     0
  9
$DIMSD2
 70
     0
  9
$DIMTOLJ
 70
     1
  9
$DIMTZIN
 70
     0
  9
$DIMALTZ
 70
     0
  9
$DIMALTTZ
 70
     0
  9
$DIMUPT
 70
     0
  9
$DIMDEC
 70
     4
  9
$DIMTDEC
 70
     4
  9
$DIMALTU
 70
     2
  9
$DIMALTTD
 70
     2
  9
$DIMTXSTY
  7
Standard
  9
$DIMAUNIT
 70
     0
  9
$DIMADEC
 70
     0
  9
$DIMALTRND
 40
0.0
  9
$DIMAZIN
 70
     0
  9
$DIMDSEP
 70
    46
  9
$DIMATFIT
 70
     3
  9
$DIMFRAC
 70
     0
  9
$DIMLDRBLK
  1

  9
$DIMLUNIT
 70
     2
  9
$DIMLWD
 70
    -2
  9
$DIMLWE
 70
    -2
  9
$DIMTMOVE
 70
     0
  9
$LUNITS
 70
     2
  9
$LUPREC
 70
     4
  9
$SKETCHINC
 40
0.1
  9
$FILLETRAD
 40
0.5
  9
$AUNITS
 70
     0
  9
$AUPREC
 70
     0
  9
$MENU
  1
.
  9
$ELEVATION
 40
0.0
  9
$PELEVATION
 40
0.0
  9
$THICKNESS
 40
0.0
  9
$LIMCHECK
 70
     0
  9
$CHAMFERA
 40
0.0
  9
$CHAMFERB
 40
0.0
  9
$CHAMFERC
 40
0.0
  9
$CHAMFERD
 40
0.0
  9
$SKPOLY
 70
     0
  9
$TDCREATE
 40
2459093.302754630
  9
$TDUCREATE
 40
2459093.219422431
  9
$TDUPDATE
 40
2459093.310289352
  9
$TDUUPDATE
 40
2459093.226956019
  9
$TDINDWG
 40
0.0007870486
  9
$TDUSRTIMER
 40
0.0007870486
  9
$USRTIMER
 70
     1
  9
$ANGBASE
 50
0.0
  9
$ANGDIR
 70
     0
  9
$PDMODE
 70
     0
  9
$PDSIZE
 40
0.0
  9
$PLINEWID
 40
0.0
  9
$SPLFRAME
 70
     0
  9
$SPLINETYPE
 70
     6
  9
$SPLINESEGS
 70
     8
  9
$HANDSEED
  5
3AE
  9
$SURFTAB1
 70
     6
  9
$SURFTAB2
 70
     6
  9
$SURFTYPE
 70
     6
  9
$SURFU
 70
     6
  9
$SURFV
 70
     6
  9
$UCSBASE
  2

  9
$UCSNAME
  2

  9
$UCSORG
 10
274.404842
 20
288.907994
 30
0.0
  9
$UCSXDIR
 10
1.0
 20
0.0
 30
0.0
  9
$UCSYDIR
 10
0.0
 20
1.0
 30
0.0
  9
$UCSORTHOREF
  2

  9
$UCSORTHOVIEW
 70
     0
  9
$UCSORGTOP
 10
0.0
 20
0.0
 30
0.0
  9
$UCSORGBOTTOM
 10
0.0
 20
0.0
 30
0.0
  9
$UCSORGLEFT
 10
0.0
 20
0.0
 30
0.0
  9
$UCSORGRIGHT
 10
0.0
 20
0.0
 30
0.0
  9
$UCSORGFRONT
 10
0.0
 20
0.0
 30
0.0
  9
$UCSORGBACK
 10
0.0
 20
0.0
 30
0.0
  9
$PUCSBASE
  2

  9
$PUCSNAME
  2

  9
$PUCSORG
 10
0.0
 20
0.0
 30
0.0
  9
$PUCSXDIR
 10
1.0
 20
0.0
 30
0.0
  9
$PUCSYDIR
 10
0.0
 20
1.0
 30
0.0
  9
$PUCSORTHOREF
  2

  9
$PUCSORTHOVIEW
 70
     0
  9
$PUCSORGTOP
 10
0.0
 20
0.0
 30
0.0
  9
$PUCSORGBOTTOM
 10
0.0
 20
0.0
 30
0.0
  9
$PUCSORGLEFT
 10
0.0
 20
0.0
 30
0.0
  9
$PUCSORGRIGHT
 10
0.0
 20
0.0
 30
0.0
  9
$PUCSORGFRONT
 10
0.0
 20
0.0
 30
0.0
  9
$PUCSORGBACK
 10
0.0
 20
0.0
 30
0.0
  9
$USERI1
 70
     0
  9
$USERI2
 70
     0
  9
$USERI3
 70
     0
  9
$USERI4
 70
     0
  9
$USERI5
 70
     0
  9
$USERR1
 40
0.0
  9
$USERR2
 40
0.0
  9
$USERR3
 40
0.0
  9
$USERR4
 40
0.0
  9
$USERR5
 40
0.0
  9
$WORLDVIEW
 70
     1
  9
$SHADEDGE
 70
     3
  9
$SHADEDIF
 70
    70
  9
$TILEMODE
 70
     1
  9
$MAXACTVP
 70
    64
  9
$PINSBASE
 10
0.0
 20
0.0
 30
0.0
  9
$PLIMCHECK
 70
     0
  9
$PEXTMIN
 10
-0.5
 20
-0.5
 30
-0.5
  9
$PEXTMAX
 10
5.0
 20
5.0
 30
5.0
  9
$PLIMMIN
 10
-0.5
 20
-0.5
  9
$PLIMMAX
 10
5.0
 20
5.0
  9
$UNITMODE
 70
     0
  9
$VISRETAIN
 70
     1
  9
$PLINEGEN
 70
     0
  9
$PSLTSCALE
 70
     1
  9
$TREEDEPTH
 70
  3020
  9
$CMLSTYLE
  2
Standard
  9
$CMLJUST
 70
     0
  9
$CMLSCALE
 40
1.0
  9
$PROXYGRAPHICS
 70
     1
  9
$MEASUREMENT
 70
     1
  9
$CELWEIGHT
370
    13
  9
$ENDCAPS
280
     0
  9
$JOINSTYLE
280
     0
  9
$LWDISPLAY
290
     0
  9
$INSUNITS
 70
     4
  9
$HYPERLINKBASE
  1

  9
$STYLESHEET
  1

  9
$XEDIT
290
     1
  9
$CEPSNTYPE
380
     0
  9
$PSTYLEMODE
290
     1
  9
$FINGERPRINTGUID
  2
{35F6498E-F05E-4098-9792-A98BB7D51C4B}
  9
$VERSIONGUID
  2
{E2B59F0A-F5BF-5D40-867B-5E3F30FD26E5}
  9
$EXTNAMES
290
     1
  9
$PSVPSCALE
 40
0.0
  9
$OLESTARTUP
290
     0
  9
$SORTENTS
280
   127
  9
$INDEXCTL
280
     0
  9
$HIDETEXT
280
     1
  9
$XCLIPFRAME
290
     0
  9
$HALOGAP
280
     0
  9
$OBSCOLOR
 70
   257
  9
$OBSLTYPE
280
     0
  9
$INTERSECTIONDISPLAY
280
     0
  9
$INTERSECTIONCOLOR
 70
   257
  9
$DIMASSOC
280
     2
  9
$PROJECTNAME
  1

  0
ENDSEC
  0
SECTION
  2
CLASSES
  0
CLASS
  1
ACDBDICTIONARYWDFLT
  2
AcDbDictionaryWithDefault
  3
ObjectDBX Classes
 90
        0
 91
        1
280
     0
281
     0
  0
CLASS
  1
VISUALSTYLE
  2
AcDbVisualStyle
  3
ObjectDBX Classes
 90
     4095
 91
       24
280
     0
281
     0
  0
CLASS
  1
MATERIAL
  2
AcDbMaterial
  3
ObjectDBX Classes
 90
     1153
 91
        3
280
     0
281
     0
  0
CLASS
  1
SCALE
  2
AcDbScale
  3
ObjectDBX Classes
 90
     1153
 91
       33
280
     0
281
     0
  0
CLASS
  1
TABLESTYLE
  2
AcDbTableStyle
  3
ObjectDBX Classes
 90
     4095
 91
        1
280
     0
281
     0
  0
CLASS
  1
MLEADERSTYLE
  2
AcDbMLeaderStyle
  3
ACDB_MLEADERSTYLE_CLASS
 90
     4095
 91
        1
280
     0
281
     0
  0
CLASS
  1
SUN
  2
AcDbSun
  3
SCENEOE
 90
     1153
 91
        0
280
     0
281
     0
  0
CLASS
  1
DIMASSOC
  2
AcDbDimAssoc
  3
"AcDbDimAssoc|Product Desc:     AcDim ARX App For Dimension|Company:          Autodesk, Inc.|WEB Address:      www.autodesk.com"
 90
        0
 91
        7
280
     0
281
     0
  0
CLASS
  1
DICTIONARYVAR
  2
AcDbDictionaryVar
  3
ObjectDBX Classes
 90
        0
 91
        8
280
     0
281
     0
  0
CLASS
  1
CELLSTYLEMAP
  2
AcDbCellStyleMap
  3
ObjectDBX Classes
 90
     1152
 91
        2
280
     0
281
     0
  0
CLASS
  1
ACDBSECTIONVIEWSTYLE
  2
AcDbSectionViewStyle
  3
ObjectDBX Classes
 90
     1025
 91
        1
280
     0
281
     0
  0
CLASS
  1
ACDBDETAILVIEWSTYLE
  2
AcDbDetailViewStyle
  3
ObjectDBX Classes
 90
     1025
 91
        1
280
     0
281
     0
  0
CLASS
  1
SORTENTSTABLE
  2
AcDbSortentsTable
  3
ObjectDBX Classes
 90
        0
 91
        1
280
     0
281
     0
  0
ENDSEC
  0
SECTION
  2
TABLES
  0
TABLE
  2
VPORT
  5
8
330
0
100
AcDbSymbolTable
 70
    16
  0
VPORT
  5
29
330
8
100
AcDbSymbolTableRecord
100
AcDbViewportTableRecord
  2
*Active
 70
     0
 10
0.0
 20
0.0
 11
1.0
 21
1.0
 12
328.0399184841883
 22
294.6125782046636
 13
0.0
 23
0.0
 14
0.5
 24
0.5
 15
0.5
 25
0.5
 16
0.0
 26
0.0
 36
1.0
 17
0.0
 27
0.0
 37
0.0
 40
206.7779109988767
 41
2.292712066905615
 42
50.0
 43
540.381469
 44
-540.381469
 50
0.0
 51
0.0
 71
     0
 72
   100
 73
     1
 74
     3
 75
     0
 76
     0
 77
     0
 78
     0
281
     0
 65
     1
110
274.404842
120
288.907994
130
0.0
111
1.0
121
0.0
131
0.0
112
0.0
122
1.0
132
0.0
 79
     0
146
0.0
1001
ACAD_NAV_VCDISPLAY
1070
     3
  0
VPORT
  5
2A7
330
8
100
AcDbSymbolTableRecord
100
AcDbViewportTableRecord
  2
L1
 70
     0
 10
0.0
 20
0.0
 11
1.0
 21
1.0
 12
331.211235
 22
233.105771
 13
0.0
 23
0.0
 14
0.5
 24
0.5
 15
0.5
 25
0.5
 16
0.0
 26
0.0
 36
1.0
 17
0.0
 27
0.0
 37
0.0
 40
207.433333
 41
0.085602
 42
50.0
 43
540.381469
 44
-540.381469
 50
0.0
 51
0.0
 71
     0
 72
   100
 73
     1
 74
     3
 75
     0
 76
     0
 77
     0
 78
     0
281
     0
 65
     1
110
0.0
120
0.0
130
0.0
111
1.0
121
0.0
131
0.0
112
0.0
122
1.0
132
0.0
 79
     0
146
0.0
  0
VPORT
  5
2A8
330
8
100
AcDbSymbolTableRecord
100
AcDbViewportTableRecord
  2
L2
 70
     0
 10
0.0
 20
0.0
 11
0.5
 21
1.0
 12
0.0
 22
0.0
 13
0.0
 23
0.0
 14
0.5
 24
0.5
 15
0.5
 25
0.5
 16
0.0
 26
-1.0
 36
0.0
 17
0.0
 27
0.0
 37
0.0
 40
1316.18997
 41
0.013491
 42
50.0
 43
678.00864
 44
-678.00864
 50
0.0
 51
0.0
 71
     0
 72
   100
 73
     1
 74
     3
 75
     0
 76
     0
 77
     0
 78
     0
281
     0
 65
     1
110
0.0
120
0.0
130
0.0
111
1.0
121
0.0
131
0.0
112
0.0
122
1.0
132
0.0
 79
     0
146
0.0
  0
VPORT
  5
2A9
330
8
100
AcDbSymbolTableRecord
100
AcDbViewportTableRecord
  2
L2
 70
     0
 10
0.5
 20
0.0
 11
1.0
 21
1.0
 12
0.0
 22
0.0
 13
0.0
 23
0.0
 14
0.5
 24
0.5
 15
0.5
 25
0.5
 16
1.0
 26
0.0
 36
0.0
 17
0.0
 27
0.0
 37
0.0
 40
1316.18997
 41
0.013491
 42
50.0
 43
666.2177989999999
 44
-666.2177989999999
 50
0.0
 51
0.0
 71
     0
 72
   100
 73
     1
 74
     3
 75
     0
 76
     0
 77
     0
 78
     0
281
     0
 65
     1
110
0.0
120
0.0
130
0.0
111
1.0
121
0.0
131
0.0
112
0.0
122
1.0
132
0.0
 79
     0
146
0.0
  0
VPORT
  5
2AA
330
8
100
AcDbSymbolTableRecord
100
AcDbViewportTableRecord
  2
L3
 70
     0
 10
0.0
 20
0.5
 11
1.0
 21
1.0
 12
331.211235
 22
233.105771
 13
0.0
 23
0.0
 14
0.5
 24
0.5
 15
0.5
 25
0.5
 16
0.0
 26
0.0
 36
1.0
 17
0.0
 27
0.0
 37
0.0
 40
207.433333
 41
0.085602
 42
50.0
 43
540.381469
 44
-540.381469
 50
0.0
 51
0.0
 71
     0
 72
   100
 73
     1
 74
     3
 75
     0
 76
     0
 77
     0
 78
     0
281
     0
 65
     1
110
0.0
120
0.0
130
0.0
111
1.0
121
0.0
131
0.0
112
0.0
122
1.0
132
0.0
 79
     0
146
0.0
  0
VPORT
  5
2AB
330
8
100
AcDbSymbolTableRecord
100
AcDbViewportTableRecord
  2
L3
 70
     0
 10
0.0
 20
0.0
 11
1.0
 21
0.5
 12
0.0
 22
0.0
 13
0.0
 23
0.0
 14
0.5
 24
0.5
 15
0.5
 25
0.5
 16
0.0
 26
-1.0
 36
0.0
 17
0.0
 27
0.0
 37
0.0
 40
1316.18997
 41
0.013491
 42
50.0
 43
678.00864
 44
-678.00864
 50
0.0
 51
0.0
 71
     0
 72
   100
 73
     1
 74
     3
 75
     0
 76
     0
 77
     0
 78
     0
281
     0
 65
     1
110
0.0
120
0.0
130
0.0
111
1.0
121
0.0
131
0.0
112
0.0
122
1.0
132
0.0
 79
     0
146
0.0
  0
VPORT
  5
2AC
330
8
100
AcDbSymbolTableRecord
100
AcDbViewportTableRecord
  2
L4
 70
     0
 10
0.0
 20
0.5
 11
0.5
 21
1.0
 12
331.211235
 22
233.105771
 13
0.0
 23
0.0
 14
0.5
 24
0.5
 15
0.5
 25
0.5
 16
0.0
 26
0.0
 36
1.0
 17
0.0
 27
0.0
 37
0.0
 40
207.433333
 41
0.085602
 42
50.0
 43
540.381469
 44
-540.381469
 50
0.0
 51
0.0
 71
     0
 72
   100
 73
     1
 74
     3
 75
     0
 76
     0
 77
     0
 78
     0
281
     0
 65
     1
110
0.0
120
0.0
130
0.0
111
1.0
121
0.0
131
0.0
112
0.0
122
1.0
132
0.0
 79
     0
146
0.0
  0
VPORT
  5
2AD
330
8
100
AcDbSymbolTableRecord
100
AcDbViewportTableRecord
  2
L4
 70
     0
 10
0.0
 20
0.0
 11
0.5
 21
0.5
 12
0.0
 22
0.0
 13
0.0
 23
0.0
 14
0.5
 24
0.5
 15
0.5
 25
0.5
 16
0.0
 26
-1.0
 36
0.0
 17
0.0
 27
0.0
 37
0.0
 40
1316.18997
 41
0.013491
 42
50.0
 43
678.00864
 44
-678.00864
 50
0.0
 51
0.0
 71
     0
 72
   100
 73
     1
 74
     3
 75
     0
 76
     0
 77
     0
 78
     0
281
     0
 65
     1
110
0.0
120
0.0
130
0.0
111
1.0
121
0.0
131
0.0
112
0.0
122
1.0
132
0.0
 79
     0
146
0.0
  0
VPORT
  5
2AE
330
8
100
AcDbSymbolTableRecord
100
AcDbViewportTableRecord
  2
L4
 70
     0
 10
0.5
 20
0.0
 11
1.0
 21
0.5
 12
0.0
 22
0.0
 13
0.0
 23
0.0
 14
0.5
 24
0.5
 15
0.5
 25
0.5
 16
1.0
 26
0.0
 36
0.0
 17
0.0
 27
0.0
 37
0.0
 40
1316.18997
 41
0.013491
 42
50.0
 43
666.2177989999999
 44
-666.2177989999999
 50
0.0
 51
0.0
 71
     0
 72
   100
 73
     1
 74
     3
 75
     0
 76
     0
 77
     0
 78
     0
281
     0
 65
     1
110
0.0
120
0.0
130
0.0
111
1.0
121
0.0
131
0.0
112
0.0
122
1.0
132
0.0
 79
     0
146
0.0
  0
VPORT
  5
2AF
330
8
100
AcDbSymbolTableRecord
100
AcDbViewportTableRecord
  2
L4
 70
     0
 10
0.5
 20
0.5
 11
1.0
 21
1.0
 12
0.0
 22
0.0
 13
0.0
 23
0.0
 14
0.5
 24
0.5
 15
0.5
 25
0.5
 16
0.5773502691896259
 26
-0.5773502691896259
 36
0.5773502691896259
 17
0.0
 27
0.0
 37
0.0
 40
1292.532264
 41
0.013738
 42
50.0
 43
673.245608
 44
-673.245608
 50
0.0
 51
0.0
 71
     0
 72
   100
 73
     1
 74
     3
 75
     0
 76
     0
 77
     0
 78
     0
281
     0
 65
     1
110
0.0
120
0.0
130
0.0
111
1.0
121
0.0
131
0.0
112
0.0
122
1.0
132
0.0
 79
     0
146
0.0
  0
VPORT
  5
2B0
330
8
100
AcDbSymbolTableRecord
100
AcDbViewportTableRecord
  2
L6
 70
     0
 10
0.0
 20
0.5
 11
0.333333
 21
1.0
 12
0.0
 22
0.0
 13
0.0
 23
0.0
 14
0.5
 24
0.5
 15
0.5
 25
0.5
 16
0.7188730927569434
 26
-0.5850486126764433
 36
0.3754192287502549
 17
0.0
 27
0.0
 37
0.0
 40
1364.064247
 41
0.013018
 42
50.0
 43
706.2613849999999
 44
-706.2613849999999
 50
0.0
 51
0.0
 71
     0
 72
   100
 73
     1
 74
     3
 75
     0
 76
     0
 77
     0
 78
     0
281
     0
 65
     1
110
0.0
120
0.0
130
0.0
111
1.0
121
0.0
131
0.0
112
0.0
122
1.0
132
0.0
 79
     0
146
0.0
  0
VPORT
  5
2B1
330
8
100
AcDbSymbolTableRecord
100
AcDbViewportTableRecord
  2
L6
 70
     0
 10
0.0
 20
0.0
 11
0.333333
 21
0.5
 12
0.0
 22
0.0
 13
0.0
 23
0.0
 14
0.5
 24
0.5
 15
0.5
 25
0.5
 16
-1.0
 26
0.0
 36
0.0
 17
0.0
 27
0.0
 37
0.0
 40
1316.18997
 41
0.013491
 42
50.0
 43
666.2177989999999
 44
-666.2177989999999
 50
0.0
 51
0.0
 71
     0
 72
   100
 73
     1
 74
     3
 75
     0
 76
     0
 77
     0
 78
     0
281
     0
 65
     1
110
0.0
120
0.0
130
0.0
111
1.0
121
0.0
131
0.0
112
0.0
122
1.0
132
0.0
 79
     0
146
0.0
  0
VPORT
  5
2B2
330
8
100
AcDbSymbolTableRecord
100
AcDbViewportTableRecord
  2
L6
 70
     0
 10
0.333333
 20
0.5
 11
0.666667
 21
1.0
 12
331.211235
 22
233.105771
 13
0.0
 23
0.0
 14
0.5
 24
0.5
 15
0.5
 25
0.5
 16
0.0
 26
0.0
 36
1.0
 17
0.0
 27
0.0
 37
0.0
 40
207.433333
 41
0.085602
 42
50.0
 43
540.381469
 44
-540.381469
 50
0.0
 51
0.0
 71
     0
 72
   100
 73
     1
 74
     3
 75
     0
 76
     0
 77
     0
 78
     0
281
     0
 65
     1
110
0.0
120
0.0
130
0.0
111
1.0
121
0.0
131
0.0
112
0.0
122
1.0
132
0.0
 79
     0
146
0.0
  0
VPORT
  5
2B3
330
8
100
AcDbSymbolTableRecord
100
AcDbViewportTableRecord
  2
L6
 70
     0
 10
0.333333
 20
0.0
 11
0.666667
 21
0.5
 12
0.0
 22
0.0
 13
0.0
 23
0.0
 14
0.5
 24
0.5
 15
0.5
 25
0.5
 16
0.0
 26
-1.0
 36
0.0
 17
0.0
 27
0.0
 37
0.0
 40
1316.18997
 41
0.013491
 42
50.0
 43
678.00864
 44
-678.00864
 50
0.0
 51
0.0
 71
     0
 72
   100
 73
     1
 74
     3
 75
     0
 76
     0
 77
     0
 78
     0
281
     0
 65
     1
110
0.0
120
0.0
130
0.0
111
1.0
121
0.0
131
0.0
112
0.0
122
1.0
132
0.0
 79
     0
146
0.0
  0
VPORT
  5
2B4
330
8
100
AcDbSymbolTableRecord
100
AcDbViewportTableRecord
  2
L6
 70
     0
 10
0.666667
 20
0.5
 11
1.0
 21
1.0
 12
0.0
 22
0.0
 13
0.0
 23
0.0
 14
0.5
 24
0.5
 15
0.5
 25
0.5
 16
0.5773502691896259
 26
-0.5773502691896259
 36
0.5773502691896259
 17
0.0
 27
0.0
 37
0.0
 40
1292.532264
 41
0.013738
 42
50.0
 43
673.245608
 44
-673.245608
 50
0.0
 51
0.0
 71
     0
 72
   100
 73
     1
 74
     3
 75
     0
 76
     0
 77
     0
 78
     0
281
     0
 65
     1
110
0.0
120
0.0
130
0.0
111
1.0
121
0.0
131
0.0
112
0.0
122
1.0
132
0.0
 79
     0
146
0.0
  0
VPORT
  5
2B5
330
8
100
AcDbSymbolTableRecord
100
AcDbViewportTableRecord
  2
L6
 70
     0
 10
0.666667
 20
0.0
 11
1.0
 21
0.5
 12
0.0
 22
0.0
 13
0.0
 23
0.0
 14
0.5
 24
0.5
 15
0.5
 25
0.5
 16
1.0
 26
0.0
 36
0.0
 17
0.0
 27
0.0
 37
0.0
 40
1316.18997
 41
0.013491
 42
50.0
 43
666.2177989999999
 44
-666.2177989999999
 50
0.0
 51
0.0
 71
     0
 72
   100
 73
     1
 74
     3
 75
     0
 76
     0
 77
     0
 78
     0
281
     0
 65
     1
110
0.0
120
0.0
130
0.0
111
1.0
121
0.0
131
0.0
112
0.0
122
1.0
132
0.0
 79
     0
146
0.0
  0
ENDTAB
  0
TABLE
  2
LTYPE
  5
5
330
0
100
AcDbSymbolTable
 70
     8
  0
LTYPE
  5
14
330
5
100
AcDbSymbolTableRecord
100
AcDbLinetypeTableRecord
  2
ByBlock
 70
     0
  3

 72
    65
 73
     0
 40
0.0
  0
LTYPE
  5
15
330
5
100
AcDbSymbolTableRecord
100
AcDbLinetypeTableRecord
  2
ByLayer
 70
     0
  3

 72
    65
 73
     0
 40
0.0
  0
LTYPE
  5
16
330
5
100
AcDbSymbolTableRecord
100
AcDbLinetypeTableRecord
  2
Continuous
 70
     0
  3
Solid line
 72
    65
 73
     0
 40
0.0
  0
LTYPE
  5
6E
330
5
100
AcDbSymbolTableRecord
100
AcDbLinetypeTableRecord
  2
CENTER
 70
     0
  3
____ _ ____ _ ____ _ ____
 72
    65
 73
     4
 40
47.4
 49
22.0
 74
     4
 75
     0
340
0
 46
0.0
 50
0.0
 44
0.0
 45
0.0
 49
-8.5
 74
     4
 75
     0
340
0
 46
0.0
 50
0.0
 44
0.0
 45
0.0
 49
8.5
 74
     4
 75
     0
340
0
 46
0.0
 50
0.0
 44
0.0
 45
0.0
 49
-8.5
 74
     4
 75
     0
340
0
 46
0.0
 50
0.0
 44
0.0
 45
0.0
  0
LTYPE
  5
6F
330
5
100
AcDbSymbolTableRecord
100
AcDbLinetypeTableRecord
  2
DASHDOT
 70
     0
  3
_._._._._._._._._._._._._._._._.
 72
    65
 73
     4
 40
70.0
 49
31.0
 74
     4
 75
     0
340
0
 46
0.0
 50
0.0
 44
0.0
 45
0.0
 49
-13.0
 74
     4
 75
     0
340
0
 46
0.0
 50
0.0
 44
0.0
 45
0.0
 49
13.0
 74
     4
 75
     0
340
0
 46
0.0
 50
0.0
 44
0.0
 45
0.0
 49
-13.0
 74
     4
 75
     0
340
0
 46
0.0
 50
0.0
 44
0.0
 45
0.0
  0
LTYPE
  5
70
330
5
100
AcDbSymbolTableRecord
100
AcDbLinetypeTableRecord
  2
DASHED
 70
     0
  3
__ __ __ __ __ __ __ __ __
 72
    65
 73
     2
 40
25.72
 49
12.86
 74
     4
 75
     0
340
0
 46
0.0
 50
0.0
 44
0.0
 45
0.0
 49
-12.86
 74
     4
 75
     0
340
0
 46
0.0
 50
0.0
 44
0.0
 45
0.0
  0
LTYPE
  5
71
330
5
100
AcDbSymbolTableRecord
100
AcDbLinetypeTableRecord
  2
DOT
 70
     0
  3
.........................
 72
    65
 73
     2
 40
10.0
 49
0.0
 74
     4
 75
     0
340
0
 46
0.0
 50
0.0
 44
0.0
 45
0.0
 49
-10.0
 74
     4
 75
     0
340
0
 46
0.0
 50
0.0
 44
0.0
 45
0.0
  0
LTYPE
  5
72
330
5
100
AcDbSymbolTableRecord
100
AcDbLinetypeTableRecord
  2
PHANTOM
 70
     0
  3
____ _ _ ____ _ _ _____ _ _ ____
 72
    65
 73
     6
 40
50.5
 49
18.0
 74
     4
 75
     0
340
0
 46
0.0
 50
0.0
 44
0.0
 45
0.0
 49
-6.5
 74
     4
 75
     0
340
0
 46
0.0
 50
0.0
 44
0.0
 45
0.0
 49
6.5
 74
     4
 75
     0
340
0
 46
0.0
 50
0.0
 44
0.0
 45
0.0
 49
-6.5
 74
     4
 75
     0
340
0
 46
0.0
 50
0.0
 44
0.0
 45
0.0
 49
6.5
 74
     4
 75
     0
340
0
 46
0.0
 50
0.0
 44
0.0
 45
0.0
 49
-6.5
 74
     4
 75
     0
340
0
 46
0.0
 50
0.0
 44
0.0
 45
0.0
  0
LTYPE
  5
348
330
5
100
AcDbSymbolTableRecord
100
AcDbLinetypeTableRecord
  2
CENTER2
 70
     0
  3
Center (.5x) ___ _ ___ _ ___ _ ___ _ ___ _ ___
 72
    65
 73
     4
 40
1.125
 49
0.75
 74
     0
 49
-0.125
 74
     0
 49
0.125
 74
     0
 49
-0.125
 74
     0
  0
ENDTAB
  0
TABLE
  2
LAYER
  5
2
330
0
100
AcDbSymbolTable
 70
    22
  0
LAYER
  5
10
102
{ACAD_XDICTIONARY
360
35B
102
}
330
2
100
AcDbSymbolTableRecord
100
AcDbLayerTableRecord
  2
0
 70
     0
 62
     7
  6
Continuous
370
    -3
390
F
  0
LAYER
  5
201
330
2
100
AcDbSymbolTableRecord
100
AcDbLayerTableRecord
  2
Defpoints
 70
     0
 62
     7
  6
Continuous
290
     0
370
    -3
390
F
  0
LAYER
  5
345
102
{ACAD_XDICTIONARY
360
35D
102
}
330
2
100
AcDbSymbolTableRecord
100
AcDbLayerTableRecord
  2
1
 70
     0
 62
     4
  6
Continuous
370
    -3
390
F
  0
LAYER
  5
346
102
{ACAD_XDICTIONARY
360
35F
102
}
330
2
100
AcDbSymbolTableRecord
100
AcDbLayerTableRecord
  2
2
 70
     0
 62
     7
  6
Continuous
370
    -3
390
F
  0
LAYER
  5
347
102
{ACAD_XDICTIONARY
360
361
102
}
330
2
100
AcDbSymbolTableRecord
100
AcDbLayerTableRecord
  2
4
 70
     0
 62
     2
  6
CENTER2
370
    -3
390
F
  0
LAYER
  5
349
102
{ACAD_XDICTIONARY
360
363
102
}
330
2
100
AcDbSymbolTableRecord
100
AcDbLayerTableRecord
  2
SK1
 70
     0
 62
     4
  6
Continuous
370
    -3
390
F
  0
LAYER
  5
34A
102
{ACAD_XDICTIONARY
360
365
102
}
330
2
100
AcDbSymbolTableRecord
100
AcDbLayerTableRecord
  2
SK2
 70
     0
 62
     7
  6
Continuous
370
    -3
390
F
  0
LAYER
  5
34C
102
{ACAD_XDICTIONARY
360
367
102
}
330
2
100
AcDbSymbolTableRecord
100
AcDbLayerTableRecord
  2
SK4
 70
     0
 62
     2
  6
CENTER2
370
    -3
390
F
  0
LAYER
  5
34D
102
{ACAD_XDICTIONARY
360
369
102
}
330
2
100
AcDbSymbolTableRecord
100
AcDbLayerTableRecord
  2
SK6
 70
     0
 62
     5
  6
Continuous
370
    -3
390
F
  0
LAYER
  5
34E
102
{ACAD_XDICTIONARY
360
36B
102
}
330
2
100
AcDbSymbolTableRecord
100
AcDbLayerTableRecord
  2
CUT
 70
     0
 62
     1
  6
Continuous
370
    -3
390
F
  0
LAYER
  5
34F
102
{ACAD_XDICTIONARY
360
36D
102
}
330
2
100
AcDbSymbolTableRecord
100
AcDbLayerTableRecord
  2
NOCUT
 70
     0
 62
     7
  6
Continuous
370
    -3
390
F
  0
LAYER
  5
350
102
{ACAD_XDICTIONARY
360
36F
102
}
330
2
100
AcDbSymbolTableRecord
100
AcDbLayerTableRecord
  2
80
 70
     0
 62
     6
  6
Continuous
370
    -3
390
F
  0
LAYER
  5
351
102
{ACAD_XDICTIONARY
360
371
102
}
330
2
100
AcDbSymbolTableRecord
100
AcDbLayerTableRecord
  2
81
 70
     0
 62
     3
  6
Continuous
370
    -3
390
F
  0
ENDTAB
  0
TABLE
  2
STYLE
  5
3
330
0
100
AcDbSymbolTable
 70
     3
  0
STYLE
  5
11
330
3
100
AcDbSymbolTableRecord
100
AcDbTextStyleTableRecord
  2
Standard
 70
     0
 40
0.0
 41
1.0
 50
0.0
 71
     0
 42
0.2
  3
txt
  4

  0
STYLE
  5
1F5
330
3
100
AcDbSymbolTableRecord
100
AcDbTextStyleTableRecord
  2
cesky
 70
     0
 40
0.0
 41
1.0
 50
0.0
 71
     0
 42
0.2
  3
simplex.shx
  4

  0
STYLE
  5
1F6
330
3
100
AcDbSymbolTableRecord
100
AcDbTextStyleTableRecord
  2
DWGDirectTextStyle
 70
     0
 40
0.0
 41
1.0
 50
0.0
 71
     0
 42
0.2
  3
simplex
  4

  0
ENDTAB
  0
TABLE
  2
VIEW
  5
6
330
0
100
AcDbSymbolTable
 70
     0
  0
ENDTAB
  0
TABLE
  2
UCS
  5
7
330
0
100
AcDbSymbolTable
 70
     0
  0
ENDTAB
  0
TABLE
  2
APPID
  5
9
330
0
100
AcDbSymbolTable
 70
     8
  0
APPID
  5
12
330
9
100
AcDbSymbolTableRecord
100
AcDbRegAppTableRecord
  2
ACAD
 70
     0
  0
APPID
  5
1FD
330
9
100
AcDbSymbolTableRecord
100
AcDbRegAppTableRecord
  2
ACAD_DSTYLE_DIMBREAK
 70
     0
  0
APPID
  5
2B6
330
9
100
AcDbSymbolTableRecord
100
AcDbRegAppTableRecord
  2
ACAD_DSTYLE_DIM_LINETYPE
 70
     0
  0
APPID
  5
2B7
330
9
100
AcDbSymbolTableRecord
100
AcDbRegAppTableRecord
  2
ACAD_DSTYLE_DIM_EXT1_LINETYPE
 70
     0
  0
APPID
  5
2B8
330
9
100
AcDbSymbolTableRecord
100
AcDbRegAppTableRecord
  2
ACAD_DSTYLE_DIM_EXT2_LINETYPE
 70
     0
  0
APPID
  5
2F8
330
9
100
AcDbSymbolTableRecord
100
AcDbRegAppTableRecord
  2
ACAD_MLEADERVER
 70
     0
  0
APPID
  5
354
330
9
100
AcDbSymbolTableRecord
100
AcDbRegAppTableRecord
  2
ACAD_EXEMPT_FROM_CAD_STANDARDS
 70
     0
  0
APPID
  5
376
330
9
100
AcDbSymbolTableRecord
100
AcDbRegAppTableRecord
  2
ACAD_NAV_VCDISPLAY
 70
     0
  0
ENDTAB
  0
TABLE
  2
DIMSTYLE
  5
A
330
0
100
AcDbSymbolTable
 70
     2
100
AcDbDimStyleTable
 71
     1
340
27
  0
DIMSTYLE
105
27
330
A
100
AcDbSymbolTableRecord
100
AcDbDimStyleTableRecord
  2
Standard
 70
     0
340
11
1001
ACAD_DSTYLE_DIMBREAK
1070
   391
1040
6.349999999999999
  0
ENDTAB
  0
TABLE
  2
BLOCK_RECORD
  5
1
330
0
100
AcDbSymbolTable
 70
    17
  0
BLOCK_RECORD
  5
1F
102
{ACAD_XDICTIONARY
360
308
102
}
330
1
100
AcDbSymbolTableRecord
100
AcDbBlockTableRecord
  2
*Model_Space
340
22
  0
BLOCK_RECORD
  5
1B
330
1
100
AcDbSymbolTableRecord
100
AcDbBlockTableRecord
  2
*Paper_Space
340
1E
  0
BLOCK_RECORD
  5
23
330
1
100
AcDbSymbolTableRecord
100
AcDbBlockTableRecord
  2
*Paper_Space0
340
26
  0
BLOCK_RECORD
  5
1F8
330
1
100
AcDbSymbolTableRecord
100
AcDbBlockTableRecord
  2
ASSORTED_DRAFT1
340
0
  0
BLOCK_RECORD
  5
202
330
1
100
AcDbSymbolTableRecord
100
AcDbBlockTableRecord
  2
*D2
340
0
  0
BLOCK_RECORD
  5
20E
330
1
100
AcDbSymbolTableRecord
100
AcDbBlockTableRecord
  2
_U0
340
0
  0
BLOCK_RECORD
  5
21A
330
1
100
AcDbSymbolTableRecord
100
AcDbBlockTableRecord
  2
*D4
340
0
  0
BLOCK_RECORD
  5
225
330
1
100
AcDbSymbolTableRecord
100
AcDbBlockTableRecord
  2
_U1
340
0
  0
BLOCK_RECORD
  5
230
330
1
100
AcDbSymbolTableRecord
100
AcDbBlockTableRecord
  2
*D6
340
0
  0
BLOCK_RECORD
  5
23C
330
1
100
AcDbSymbolTableRecord
100
AcDbBlockTableRecord
  2
_U2
340
0
  0
BLOCK_RECORD
  5
249
330
1
100
AcDbSymbolTableRecord
100
AcDbBlockTableRecord
  2
*D8
340
0
  0
BLOCK_RECORD
  5
255
330
1
100
AcDbSymbolTableRecord
100
AcDbBlockTableRecord
  2
_U3
340
0
  0
BLOCK_RECORD
  5
262
330
1
100
AcDbSymbolTableRecord
100
AcDbBlockTableRecord
  2
*D10
340
0
  0
BLOCK_RECORD
  5
26E
330
1
100
AcDbSymbolTableRecord
100
AcDbBlockTableRecord
  2
_U4
340
0
  0
BLOCK_RECORD
  5
27A
330
1
100
AcDbSymbolTableRecord
100
AcDbBlockTableRecord
  2
*D12
340
0
  0
BLOCK_RECORD
  5
286
330
1
100
AcDbSymbolTableRecord
100
AcDbBlockTableRecord
  2
_U5
340
0
  0
BLOCK_RECORD
  5
292
330
1
100
AcDbSymbolTableRecord
100
AcDbBlockTableRecord
  2
*D14
340
0
  0
BLOCK_RECORD
  5
29E
330
1
100
AcDbSymbolTableRecord
100
AcDbBlockTableRecord
  2
_U6
340
0
  0
ENDTAB
  0
ENDSEC
  0
SECTION
  2
BLOCKS
  0
BLOCK
  5
20
330
1F
100
AcDbEntity
  8
0
100
AcDbBlockBegin
  2
*Model_Space
 70
     0
 10
0.0
 20
0.0
 30
0.0
  3
*Model_Space
  1

  0
ENDBLK
  5
21
330
1F
100
AcDbEntity
  8
0
100
AcDbBlockEnd
  0
BLOCK
  5
1C
330
1B
100
AcDbEntity
 67
     1
  8
0
100
AcDbBlockBegin
  2
*Paper_Space
 70
     0
 10
0.0
 20
0.0
 30
0.0
  3
*Paper_Space
  1

  0
ENDBLK
  5
1D
330
1B
100
AcDbEntity
 67
     1
  8
0
100
AcDbBlockEnd
  0
BLOCK
  5
24
330
23
100
AcDbEntity
 67
     1
  8
0
100
AcDbBlockBegin
  2
*Paper_Space0
 70
     0
 10
0.0
 20
0.0
 30
0.0
  3
*Paper_Space0
  1

  0
ENDBLK
  5
25
330
23
100
AcDbEntity
 67
     1
  8
0
100
AcDbBlockEnd
  0
BLOCK
  5
1FB
330
1F8
100
AcDbEntity
  8
0
100
AcDbBlockBegin
  2
ASSORTED_DRAFT1
 70
     0
 10
0.0
 20
0.0
 30
0.0
  3
ASSORTED_DRAFT1
  1

  0
SOLID
  5
1F9
330
1F8
100
AcDbEntity
  8
0
 62
   254
370
    13
100
AcDbTrace
 10
270.185042
 20
168.534924
 30
0.0
 11
265.185046
 21
167.42645
 31
0.0
 12
265.1850379999999
 22
169.643397
 32
0.0
 13
270.185042
 23
168.534924
 33
0.0
  0
ENDBLK
  5
1FC
330
1F8
100
AcDbEntity
  8
0
100
AcDbBlockEnd
  0
BLOCK
  5
203
330
202
100
AcDbEntity
  8
0
100
AcDbBlockBegin
  2
*D2
 70
     1
 10
0.0
 20
0.0
 30
0.0
  3
*D2
  1

  0
LINE
  5
205
330
202
100
AcDbEntity
  8
0
 62
   254
370
    -2
100
AcDbLine
 10
475.404842
 20
310.907994
 30
0.0
 11
475.404842
 21
321.118433
 31
0.0
  0
LINE
  5
206
330
202
100
AcDbEntity
  8
0
 62
   254
370
    -2
100
AcDbLine
 10
289.898771
 20
310.590425
 30
0.0
 11
289.898771
 21
321.118433
 31
0.0
  0
LINE
  5
207
330
202
100
AcDbEntity
  8
0
 62
   254
370
    -2
100
AcDbLine
 10
471.904842
 20
320.118433
 30
0.0
 11
293.398771
 21
320.118433
 31
0.0
  0
SOLID
  5
208
330
202
100
AcDbEntity
  8
0
 62
   254
100
AcDbTrace
 10
471.904842
 20
319.5351
 30
0.0
 11
471.904842
 21
320.701766
 31
0.0
 12
475.404842
 22
320.118433
 32
0.0
 13
475.404842
 23
320.118433
 33
0.0
  0
SOLID
  5
209
330
202
100
AcDbEntity
  8
0
 62
   254
100
AcDbTrace
 10
293.398771
 20
320.701766
 30
0.0
 11
293.398771
 21
319.5351
 31
0.0
 12
289.898771
 22
320.118433
 32
0.0
 13
289.898771
 23
320.118433
 33
0.0
  0
MTEXT
  5
20A
330
202
100
AcDbEntity
  8
0
 62
   254
370
    13
100
AcDbMText
 10
382.651807
 20
325.368433
 30
0.0
 40
3.5
 41
0.0
 71
     5
 72
     1
  1
\A1;185.5
  7
cesky
 73
     1
 44
1.0
  0
POINT
  5
20B
330
202
100
AcDbEntity
  8
Defpoints
 62
     0
100
AcDbPoint
 10
475.404842
 20
310.907994
 30
0.0
  0
POINT
  5
20C
330
202
100
AcDbEntity
  8
Defpoints
 62
     0
100
AcDbPoint
 10
289.898771
 20
310.590425
 30
0.0
  0
POINT
  5
20D
330
202
100
AcDbEntity
  8
Defpoints
 62
     0
100
AcDbPoint
 10
289.898771
 20
320.118433
 30
0.0
  0
ENDBLK
  5
204
330
202
100
AcDbEntity
  8
0
100
AcDbBlockEnd
  0
BLOCK
  5
215
330
20E
100
AcDbEntity
  8
0
100
AcDbBlockBegin
  2
_U0
 70
     0
 10
0.0
 20
0.0
 30
0.0
  3
_U0
  1

  0
ENDBLK
  5
216
330
20E
100
AcDbEntity
  8
0
100
AcDbBlockEnd
  0
BLOCK
  5
21B
330
21A
100
AcDbEntity
  8
0
100
AcDbBlockBegin
  2
*D4
 70
     1
 10
0.0
 20
0.0
 30
0.0
  3
*D4
  1

  0
LINE
  5
21D
330
21A
100
AcDbEntity
  8
0
 62
   254
370
    -2
100
AcDbLine
 10
289.392334
 20
288.907994
 30
0.0
 11
492.9463049999999
 21
288.907994
 31
0.0
  0
LINE
  5
21E
330
21A
100
AcDbEntity
  8
0
 62
   254
370
    -2
100
AcDbLine
 10
330.83929
 20
310.907994
 30
0.0
 11
492.9463049999999
 21
310.907994
 31
0.0
  0
LINE
  5
21F
330
21A
100
AcDbEntity
  8
0
 62
   254
370
    -2
100
AcDbLine
 10
491.946305
 20
288.907994
 30
0.0
 11
491.946305
 21
310.907994
 31
0.0
  0
SOLID
  5
220
330
21A
100
AcDbEntity
  8
0
 62
   254
100
AcDbTrace
 10
492.5296379999999
 20
307.407994
 30
0.0
 11
491.3629719999999
 21
307.407994
 31
0.0
 12
491.946305
 22
310.907994
 32
0.0
 13
491.946305
 23
310.907994
 33
0.0
  0
MTEXT
  5
221
330
21A
100
AcDbEntity
  8
0
 62
   254
370
    13
100
AcDbMText
 10
486.6963049999999
 20
278.991327
 30
0.0
 40
3.5
 41
0.0
 71
     5
 72
     1
  1
\A1;44
  7
cesky
 11
0.0
 21
1.0
 31
0.0
 73
     1
 44
1.0
  0
POINT
  5
222
330
21A
100
AcDbEntity
  8
Defpoints
 62
     0
100
AcDbPoint
 10
289.392334
 20
288.907994
 30
0.0
  0
POINT
  5
223
330
21A
100
AcDbEntity
  8
Defpoints
 62
     0
100
AcDbPoint
 10
330.83929
 20
310.907994
 30
0.0
  0
POINT
  5
224
330
21A
100
AcDbEntity
  8
Defpoints
 62
     0
100
AcDbPoint
 10
491.946305
 20
310.907994
 30
0.0
  0
ENDBLK
  5
21C
330
21A
100
AcDbEntity
  8
0
100
AcDbBlockEnd
  0
BLOCK
  5
22B
330
225
100
AcDbEntity
  8
0
100
AcDbBlockBegin
  2
_U1
 70
     0
 10
0.0
 20
0.0
 30
0.0
  3
_U1
  1

  0
ENDBLK
  5
22C
330
225
100
AcDbEntity
  8
0
100
AcDbBlockEnd
  0
BLOCK
  5
231
330
230
100
AcDbEntity
  8
0
100
AcDbBlockBegin
  2
*D6
 70
     1
 10
0.0
 20
0.0
 30
0.0
  3
*D6
  1

  0
LINE
  5
233
330
230
100
AcDbEntity
  8
0
 62
    95
370
    -2
100
AcDbLine
 10
206.404842
 20
308.907994
 30
0.0
 11
189.475719
 21
308.907994
 31
0.0
  0
LINE
  5
234
330
230
100
AcDbEntity
  8
0
 62
    95
370
    -2
100
AcDbLine
 10
206.404842
 20
268.907994
 30
0.0
 11
189.475719
 21
268.907994
 31
0.0
  0
LINE
  5
235
330
230
100
AcDbEntity
  8
0
 62
    95
370
    -2
100
AcDbLine
 10
190.475719
 20
305.407994
 30
0.0
 11
190.475719
 21
272.407994
 31
0.0
  0
SOLID
  5
236
330
230
100
AcDbEntity
  8
0
 62
    95
100
AcDbTrace
 10
191.059052
 20
305.407994
 30
0.0
 11
189.892385
 21
305.407994
 31
0.0
 12
190.475719
 22
308.907994
 32
0.0
 13
190.475719
 23
308.907994
 33
0.0
  0
SOLID
  5
237
330
230
100
AcDbEntity
  8
0
 62
    95
100
AcDbTrace
 10
189.892385
 20
272.407994
 30
0.0
 11
191.059052
 21
272.407994
 31
0.0
 12
190.475719
 22
268.907994
 32
0.0
 13
190.475719
 23
268.907994
 33
0.0
  0
MTEXT
  5
238
330
230
100
AcDbEntity
  8
0
 62
    95
370
    13
100
AcDbMText
 10
185.225719
 20
288.907994
 30
0.0
 40
3.5
 41
0.0
 71
     5
 72
     1
  1
\A1;40
  7
cesky
 11
0.0
 21
1.0
 31
0.0
 73
     1
 44
1.0
  0
POINT
  5
239
330
230
100
AcDbEntity
  8
Defpoints
 62
     0
100
AcDbPoint
 10
206.404842
 20
308.907994
 30
0.0
  0
POINT
  5
23A
330
230
100
AcDbEntity
  8
Defpoints
 62
     0
100
AcDbPoint
 10
206.404842
 20
268.907994
 30
0.0
  0
POINT
  5
23B
330
230
100
AcDbEntity
  8
Defpoints
 62
     0
100
AcDbPoint
 10
190.475719
 20
268.907994
 30
0.0
  0
ENDBLK
  5
232
330
230
100
AcDbEntity
  8
0
100
AcDbBlockEnd
  0
BLOCK
  5
244
330
23C
100
AcDbEntity
  8
0
100
AcDbBlockBegin
  2
_U2
 70
     0
 10
0.0
 20
0.0
 30
0.0
  3
_U2
  1

  0
ENDBLK
  5
245
330
23C
100
AcDbEntity
  8
0
100
AcDbBlockEnd
  0
BLOCK
  5
24A
330
249
100
AcDbEntity
  8
0
100
AcDbBlockBegin
  2
*D8
 70
     1
 10
0.0
 20
0.0
 30
0.0
  3
*D8
  1

  0
LINE
  5
24C
330
249
100
AcDbEntity
  8
0
 62
    95
370
    -2
100
AcDbLine
 10
277.154842
 20
313.907994
 30
0.0
 11
174.338654
 21
313.907994
 31
0.0
  0
LINE
  5
24D
330
249
100
AcDbEntity
  8
0
 62
    95
370
    -2
100
AcDbLine
 10
277.154842
 20
263.907994
 30
0.0
 11
174.338654
 21
263.907994
 31
0.0
  0
LINE
  5
24E
330
249
100
AcDbEntity
  8
0
 62
    95
370
    -2
100
AcDbLine
 10
175.338654
 20
310.407994
 30
0.0
 11
175.338654
 21
267.407994
 31
0.0
  0
SOLID
  5
24F
330
249
100
AcDbEntity
  8
0
 62
    95
100
AcDbTrace
 10
175.921988
 20
310.407994
 30
0.0
 11
174.755321
 21
310.407994
 31
0.0
 12
175.338654
 22
313.907994
 32
0.0
 13
175.338654
 23
313.907994
 33
0.0
  0
SOLID
  5
250
330
249
100
AcDbEntity
  8
0
 62
    95
100
AcDbTrace
 10
174.755321
 20
267.407994
 30
0.0
 11
175.921988
 21
267.407994
 31
0.0
 12
175.338654
 22
263.907994
 32
0.0
 13
175.338654
 23
263.907994
 33
0.0
  0
MTEXT
  5
251
330
249
100
AcDbEntity
  8
0
 62
    95
370
    13
100
AcDbMText
 10
170.088654
 20
288.907994
 30
0.0
 40
3.5
 41
0.0
 71
     5
 72
     1
  1
\A1;50
  7
cesky
 11
0.0
 21
1.0
 31
0.0
 73
     1
 44
1.0
  0
POINT
  5
252
330
249
100
AcDbEntity
  8
Defpoints
 62
     0
100
AcDbPoint
 10
277.154842
 20
313.907994
 30
0.0
  0
POINT
  5
253
330
249
100
AcDbEntity
  8
Defpoints
 62
     0
100
AcDbPoint
 10
277.154842
 20
263.907994
 30
0.0
  0
POINT
  5
254
330
249
100
AcDbEntity
  8
Defpoints
 62
     0
100
AcDbPoint
 10
175.338654
 20
263.907994
 30
0.0
  0
ENDBLK
  5
24B
330
249
100
AcDbEntity
  8
0
100
AcDbBlockEnd
  0
BLOCK
  5
25D
330
255
100
AcDbEntity
  8
0
100
AcDbBlockBegin
  2
_U3
 70
     0
 10
0.0
 20
0.0
 30
0.0
  3
_U3
  1

  0
ENDBLK
  5
25E
330
255
100
AcDbEntity
  8
0
100
AcDbBlockEnd
  0
BLOCK
  5
263
330
262
100
AcDbEntity
  8
0
100
AcDbBlockBegin
  2
*D10
 70
     1
 10
0.0
 20
0.0
 30
0.0
  3
*D10
  1

  0
LINE
  5
265
330
262
100
AcDbEntity
  8
0
 62
   254
370
    -2
100
AcDbLine
 10
475.404842
 20
312.907994
 30
0.0
 11
475.404842
 21
348.392842
 31
0.0
  0
LINE
  5
266
330
262
100
AcDbEntity
  8
0
 62
   254
370
    -2
100
AcDbLine
 10
204.404842
 20
306.907994
 30
0.0
 11
204.404842
 21
348.392842
 31
0.0
  0
LINE
  5
267
330
262
100
AcDbEntity
  8
0
 62
   254
370
    -2
100
AcDbLine
 10
471.904842
 20
347.392842
 30
0.0
 11
207.904842
 21
347.392842
 31
0.0
  0
SOLID
  5
268
330
262
100
AcDbEntity
  8
0
 62
   254
100
AcDbTrace
 10
471.904842
 20
346.809508
 30
0.0
 11
471.904842
 21
347.976175
 31
0.0
 12
475.404842
 22
347.392842
 32
0.0
 13
475.404842
 23
347.392842
 33
0.0
  0
SOLID
  5
269
330
262
100
AcDbEntity
  8
0
 62
   254
100
AcDbTrace
 10
207.904842
 20
347.976175
 30
0.0
 11
207.904842
 21
346.809508
 31
0.0
 12
204.404842
 22
347.392842
 32
0.0
 13
204.404842
 23
347.392842
 33
0.0
  0
MTEXT
  5
26A
330
262
100
AcDbEntity
  8
0
 62
   254
370
    13
100
AcDbMText
 10
339.904842
 20
352.642842
 30
0.0
 40
3.5
 41
0.0
 71
     5
 72
     1
  1
\A1;271
  7
cesky
 73
     1
 44
1.0
  0
POINT
  5
26B
330
262
100
AcDbEntity
  8
Defpoints
 62
     0
100
AcDbPoint
 10
475.404842
 20
312.907994
 30
0.0
  0
POINT
  5
26C
330
262
100
AcDbEntity
  8
Defpoints
 62
     0
100
AcDbPoint
 10
204.404842
 20
306.907994
 30
0.0
  0
POINT
  5
26D
330
262
100
AcDbEntity
  8
Defpoints
 62
     0
100
AcDbPoint
 10
204.404842
 20
347.392842
 30
0.0
  0
ENDBLK
  5
264
330
262
100
AcDbEntity
  8
0
100
AcDbBlockEnd
  0
BLOCK
  5
275
330
26E
100
AcDbEntity
  8
0
100
AcDbBlockBegin
  2
_U4
 70
     0
 10
0.0
 20
0.0
 30
0.0
  3
_U4
  1

  0
ENDBLK
  5
276
330
26E
100
AcDbEntity
  8
0
100
AcDbBlockEnd
  0
BLOCK
  5
27B
330
27A
100
AcDbEntity
  8
0
100
AcDbBlockBegin
  2
*D12
 70
     1
 10
0.0
 20
0.0
 30
0.0
  3
*D12
  1

  0
LINE
  5
27D
330
27A
100
AcDbEntity
  8
0
 62
   254
370
    -2
100
AcDbLine
 10
274.404842
 20
288.907994
 30
0.0
 11
274.404842
 21
334.9472990000001
 31
0.0
  0
LINE
  5
27E
330
27A
100
AcDbEntity
  8
0
 62
   254
370
    -2
100
AcDbLine
 10
204.404842
 20
303.696669
 30
0.0
 11
204.404842
 21
334.9472990000001
 31
0.0
  0
LINE
  5
27F
330
27A
100
AcDbEntity
  8
0
 62
   254
370
    -2
100
AcDbLine
 10
270.904842
 20
333.947299
 30
0.0
 11
207.904842
 21
333.947299
 31
0.0
  0
SOLID
  5
280
330
27A
100
AcDbEntity
  8
0
 62
   254
100
AcDbTrace
 10
270.904842
 20
333.363965
 30
0.0
 11
270.904842
 21
334.530632
 31
0.0
 12
274.404842
 22
333.947299
 32
0.0
 13
274.404842
 23
333.947299
 33
0.0
  0
SOLID
  5
281
330
27A
100
AcDbEntity
  8
0
 62
   254
100
AcDbTrace
 10
207.904842
 20
334.530632
 30
0.0
 11
207.904842
 21
333.363965
 31
0.0
 12
204.404842
 22
333.947299
 32
0.0
 13
204.404842
 23
333.947299
 33
0.0
  0
MTEXT
  5
282
330
27A
100
AcDbEntity
  8
0
 62
   254
370
    13
100
AcDbMText
 10
239.404842
 20
339.1972990000001
 30
0.0
 40
3.5
 41
0.0
 71
     5
 72
     1
  1
\A1;70
  7
cesky
 73
     1
 44
1.0
  0
POINT
  5
283
330
27A
100
AcDbEntity
  8
Defpoints
 62
     0
100
AcDbPoint
 10
274.404842
 20
288.907994
 30
0.0
  0
POINT
  5
284
330
27A
100
AcDbEntity
  8
Defpoints
 62
     0
100
AcDbPoint
 10
204.404842
 20
303.696669
 30
0.0
  0
POINT
  5
285
330
27A
100
AcDbEntity
  8
Defpoints
 62
     0
100
AcDbPoint
 10
204.404842
 20
333.947299
 30
0.0
  0
ENDBLK
  5
27C
330
27A
100
AcDbEntity
  8
0
100
AcDbBlockEnd
  0
BLOCK
  5
28D
330
286
100
AcDbEntity
  8
0
100
AcDbBlockBegin
  2
_U5
 70
     0
 10
0.0
 20
0.0
 30
0.0
  3
_U5
  1

  0
ENDBLK
  5
28E
330
286
100
AcDbEntity
  8
0
100
AcDbBlockEnd
  0
BLOCK
  5
293
330
292
100
AcDbEntity
  8
0
100
AcDbBlockBegin
  2
*D14
 70
     1
 10
0.0
 20
0.0
 30
0.0
  3
*D14
  1

  0
LINE
  5
295
330
292
100
AcDbEntity
  8
0
 62
   254
370
    -2
100
AcDbLine
 10
475.404842
 20
310.907994
 30
0.0
 11
475.404842
 21
334.9472990000001
 31
0.0
  0
LINE
  5
296
330
292
100
AcDbEntity
  8
0
 62
   254
370
    -2
100
AcDbLine
 10
274.404842
 20
288.907994
 30
0.0
 11
274.404842
 21
334.9472990000001
 31
0.0
  0
LINE
  5
297
330
292
100
AcDbEntity
  8
0
 62
   254
370
    -2
100
AcDbLine
 10
471.904842
 20
333.947299
 30
0.0
 11
277.904842
 21
333.947299
 31
0.0
  0
SOLID
  5
298
330
292
100
AcDbEntity
  8
0
 62
   254
100
AcDbTrace
 10
471.904842
 20
333.363965
 30
0.0
 11
471.904842
 21
334.530632
 31
0.0
 12
475.404842
 22
333.947299
 32
0.0
 13
475.404842
 23
333.947299
 33
0.0
  0
SOLID
  5
299
330
292
100
AcDbEntity
  8
0
 62
   254
100
AcDbTrace
 10
277.904842
 20
334.530632
 30
0.0
 11
277.904842
 21
333.363965
 31
0.0
 12
274.404842
 22
333.947299
 32
0.0
 13
274.404842
 23
333.947299
 33
0.0
  0
MTEXT
  5
29A
330
292
100
AcDbEntity
  8
0
 62
   254
370
    13
100
AcDbMText
 10
374.904842
 20
339.1972990000001
 30
0.0
 40
3.5
 41
0.0
 71
     5
 72
     1
  1
\A1;201
  7
cesky
 73
     1
 44
1.0
  0
POINT
  5
29B
330
292
100
AcDbEntity
  8
Defpoints
 62
     0
100
AcDbPoint
 10
475.404842
 20
310.907994
 30
0.0
  0
POINT
  5
29C
330
292
100
AcDbEntity
  8
Defpoints
 62
     0
100
AcDbPoint
 10
274.404842
 20
288.907994
 30
0.0
  0
POINT
  5
29D
330
292
100
AcDbEntity
  8
Defpoints
 62
     0
100
AcDbPoint
 10
274.404842
 20
333.947299
 30
0.0
  0
ENDBLK
  5
294
330
292
100
AcDbEntity
  8
0
100
AcDbBlockEnd
  0
BLOCK
  5
2A5
330
29E
100
AcDbEntity
  8
0
100
AcDbBlockBegin
  2
_U6
 70
     0
 10
0.0
 20
0.0
 30
0.0
  3
_U6
  1

  0
ENDBLK
  5
2A6
330
29E
100
AcDbEntity
  8
0
100
AcDbBlockEnd
  0
ENDSEC
  0
SECTION
  2
ENTITIES
  0
POINT
  5
73
102
{ACAD_REACTORS
330
352
102
}
330
1F
100
AcDbEntity
  8
80
100
AcDbPoint
 10
274.404842
 20
288.907994
 30
0.0
  0
POINT
  5
76
330
1F
100
AcDbEntity
  8
SK4
 60
     1
100
AcDbPoint
 10
206.404842
 20
288.907994
 30
0.0
  0
POINT
  5
78
330
1F
100
AcDbEntity
  8
SK4
 60
     1
100
AcDbPoint
 10
274.404842
 20
288.907994
 30
0.0
  0
POINT
  5
79
330
1F
100
AcDbEntity
  8
4
 60
     1
100
AcDbPoint
 10
289.392334
 20
288.907994
 30
0.0
  0
POINT
  5
7A
330
1F
100
AcDbEntity
  8
4
 60
     1
100
AcDbPoint
 10
474.890261
 20
288.907994
 30
0.0
  0
POINT
  5
7B
330
1F
100
AcDbEntity
  8
SK6
 60
     1
100
AcDbPoint
 10
289.898771
 20
310.590425
 30
0.0
  0
POINT
  5
7C
330
1F
100
AcDbEntity
  8
SK6
 60
     1
100
AcDbPoint
 10
274.404842
 20
288.907994
 30
0.0
  0
LINE
  5
7D
330
1F
100
AcDbEntity
  8
1
100
AcDbLine
 10
474.3929829999999
 20
290.197466
 30
0.0
 11
473.881815
 21
289.703837
 31
0.0
  0
LINE
  5
7F
330
1F
100
AcDbEntity
  8
1
100
AcDbLine
 10
475.396101
 20
288.387795
 30
0.0
 11
474.568246
 21
288.181387
 31
0.0
  0
LINE
  5
80
330
1F
100
AcDbEntity
  8
1
100
AcDbLine
 10
475.217138
 20
278.135037
 30
0.0
 11
474.396991
 21
278.370211
 31
0.0
  0
LINE
  5
81
330
1F
100
AcDbEntity
  8
1
100
AcDbLine
 10
474.171175
 20
276.394262
 30
0.0
 11
473.578493
 21
277.008002
 31
0.0
  0
LINE
  5
84
330
1F
100
AcDbEntity
  8
1
100
AcDbLine
 10
474.438707
 20
290.135664
 30
0.0
 11
475.367919
 21
288.459321
 31
0.0
  0
LINE
  5
85
330
1F
100
AcDbEntity
  8
1
100
AcDbLine
 10
475.404797
 20
288.311411
 30
0.0
 11
475.2284949999999
 21
278.211071
 31
0.0
  0
LINE
  5
86
330
1F
100
AcDbEntity
  8
1
100
AcDbLine
 10
473.8894559999999
 20
290.511715
 30
0.0
 11
474.332814
 21
290.245319
 31
0.0
  0
LINE
  5
87
330
1F
100
AcDbEntity
  8
1
100
AcDbLine
 10
474.3682339999999
 20
278.299166
 30
0.0
 11
473.6277219999999
 21
277.066746
 31
0.0
  0
LINE
  5
88
330
1F
100
AcDbEntity
  8
1
100
AcDbLine
 10
473.881817
 20
289.444369
 30
0.0
 11
474.541986
 21
288.253393
 31
0.0
  0
LINE
  5
89
330
1F
100
AcDbEntity
  8
1
100
AcDbLine
 10
474.5788639999999
 20
288.105482
 30
0.0
 11
474.4102519999999
 21
278.4456990000001
 31
0.0
  0
LINE
  5
8A
330
1F
100
AcDbEntity
  8
1
100
AcDbLine
 10
473.934295
 20
288.023326
 30
0.0
 11
474.568246
 21
288.181387
 31
0.0
  0
LINE
  5
8B
330
1F
100
AcDbEntity
  8
1
100
AcDbLine
 10
473.7689429999999
 20
278.550301
 30
0.0
 11
474.396991
 21
278.370211
 31
0.0
  0
LINE
  5
8C
330
1F
100
AcDbEntity
  8
1
100
AcDbLine
 10
473.518067
 20
276.960854
 30
0.0
 11
473.452369
 21
276.924437
 31
0.0
  0
LINE
  5
8D
330
1F
100
AcDbEntity
  8
1
100
AcDbLine
 10
473.47285
 20
277.117399
 30
0.0
 11
473.578493
 21
277.008002
 31
0.0
  0
LINE
  5
8E
330
1F
100
AcDbEntity
  8
1
100
AcDbLine
 10
473.934295
 20
288.023326
 30
0.0
 11
473.881811
 21
288.118009
 31
0.0
  0
LINE
  5
8F
330
1F
100
AcDbEntity
  8
1
100
AcDbLine
 10
473.5940429999999
 20
278.259218
 30
0.0
 11
473.7689429999999
 21
278.550301
 31
0.0
  0
LINE
  5
90
330
1F
100
AcDbEntity
  8
1
100
AcDbLine
 10
473.7689429999999
 20
278.550301
 30
0.0
 11
473.797288
 21
280.174184
 31
0.0
  0
LINE
  5
91
330
1F
100
AcDbEntity
  8
1
100
AcDbLine
 10
473.881811
 20
285.016528
 30
0.0
 11
473.934295
 21
288.023326
 31
0.0
  0
LINE
  5
92
330
1F
100
AcDbEntity
  8
1
100
AcDbLine
 10
289.392334
 20
267.407994
 30
0.0
 11
299.458257
 21
267.407994
 31
0.0
  0
LINE
  5
94
330
1F
100
AcDbEntity
  8
1
100
AcDbLine
 10
462.140525
 20
310.407994
 30
0.0
 11
446.8632599999999
 21
310.407994
 31
0.0
  0
LINE
  5
95
330
1F
100
AcDbEntity
  8
1
100
AcDbLine
 10
306.173384
 20
310.407994
 30
0.0
 11
289.392334
 21
310.407994
 31
0.0
  0
LINE
  5
96
330
1F
100
AcDbEntity
  8
1
100
AcDbLine
 10
467.562046
 20
302.735104
 30
0.0
 11
467.5963299999999
 21
302.832302
 31
0.0
  0
LINE
  5
98
330
1F
100
AcDbEntity
  8
1
100
AcDbLine
 10
468.3578139999999
 20
302.679082
 30
0.0
 11
468.3233999999999
 21
302.581514
 31
0.0
  0
LINE
  5
99
330
1F
100
AcDbEntity
  8
1
100
AcDbLine
 10
466.9879169999999
 20
304.278885
 30
0.0
 11
467.023408
 21
304.379507
 31
0.0
  0
LINE
  5
9A
330
1F
100
AcDbEntity
  8
1
100
AcDbLine
 10
469.575672
 20
303.929448
 30
0.0
 11
469.5401809999999
 21
303.828827
 31
0.0
  0
LINE
  5
9B
330
1F
100
AcDbEntity
  8
1
100
AcDbLine
 10
468.2046989999999
 20
305.526198
 30
0.0
 11
468.239113
 21
305.623767
 31
0.0
  0
LINE
  5
9C
330
1F
100
AcDbEntity
  8
1
100
AcDbLine
 10
468.9821
 20
305.418104
 30
0.0
 11
468.9660519999999
 21
305.372608
 31
0.0
  0
LINE
  5
9D
330
1F
100
AcDbEntity
  8
80
100
AcDbLine
 10
274.404842
 20
287.90842
 30
0.0
 11
274.404842
 21
289.907567
 31
0.0
  0
LINE
  5
9E
330
1F
100
AcDbEntity
  8
81
100
AcDbLine
 10
475.404842
 20
312.907994
 30
0.0
 11
475.404842
 21
308.907994
 31
0.0
  0
LINE
  5
9F
330
1F
100
AcDbEntity
  8
81
100
AcDbLine
 10
473.4048419999999
 20
310.907994
 30
0.0
 11
477.4048419999999
 21
310.907994
 31
0.0
  0
LINE
  5
A0
330
1F
100
AcDbEntity
  8
SK1
100
AcDbLine
 10
206.404842
 20
268.907994
 30
0.0
 11
274.404842
 21
268.907994
 31
0.0
  0
LINE
  5
A1
330
1F
100
AcDbEntity
  8
1
100
AcDbLine
 10
274.904842
 20
263.907994
 30
0.0
 11
279.404842
 21
263.907994
 31
0.0
  0
LINE
  5
A2
330
1F
100
AcDbEntity
  8
1
100
AcDbLine
 10
466.9220919999999
 20
304.902401
 30
0.0
 11
466.888266
 21
304.806497
 31
0.0
  0
LINE
  5
A3
330
1F
100
AcDbEntity
  8
1
100
AcDbLine
 10
466.987223
 20
304.842761
 30
0.0
 11
466.952846
 21
304.745298
 31
0.0
  0
LINE
  5
A4
330
1F
100
AcDbEntity
  8
1
100
AcDbLine
 10
469.7432389999999
 20
304.100632
 30
0.0
 11
469.777631
 21
304.198137
 31
0.0
  0
LINE
  5
A5
330
1F
100
AcDbEntity
  8
1
100
AcDbLine
 10
467.0360299999999
 20
303.36045
 30
0.0
 11
467.001707
 21
303.263142
 31
0.0
  0
LINE
  5
A6
330
1F
100
AcDbEntity
  8
1
100
AcDbLine
 10
466.992719
 20
303.339889
 30
0.0
 11
466.958696
 21
303.24343
 31
0.0
  0
LINE
  5
A7
330
1F
100
AcDbEntity
  8
1
100
AcDbLine
 10
469.051734
 20
302.791726
 30
0.0
 11
469.0860699999999
 21
302.889075
 31
0.0
  0
LINE
  5
A8
330
1F
100
AcDbEntity
  8
1
100
AcDbLine
 10
469.0893059999999
 20
302.748774
 30
0.0
 11
469.1232799999999
 21
302.845096
 31
0.0
  0
LINE
  5
A9
330
1F
100
AcDbEntity
  8
1
100
AcDbLine
 10
459.689215
 20
297.281121
 30
0.0
 11
459.72572
 21
296.214147
 31
0.0
  0
LINE
  5
AA
330
1F
100
AcDbEntity
  8
1
100
AcDbLine
 10
459.886205
 20
297.232268
 30
0.0
 11
459.889974
 21
297.242954
 31
0.0
  0
LINE
  5
AB
330
1F
100
AcDbEntity
  8
1
100
AcDbLine
 10
451.962061
 20
301.10396
 30
0.0
 11
454.3861559999999
 21
299.706604
 31
0.0
  0
LINE
  5
AC
330
1F
100
AcDbEntity
  8
1
100
AcDbLine
 10
472.7904309999999
 20
297.111029
 30
0.0
 11
464.288053
 21
296.814429
 31
0.0
  0
LINE
  5
AD
330
1F
100
AcDbEntity
  8
1
100
AcDbLine
 10
464.8952069999999
 20
305.325504
 30
0.0
 11
464.895099
 21
305.325196
 31
0.0
  0
LINE
  5
AE
330
1F
100
AcDbEntity
  8
1
100
AcDbLine
 10
462.18787
 20
310.236119
 30
0.0
 11
462.182033
 21
310.405973
 31
0.0
  0
LINE
  5
AF
330
1F
100
AcDbEntity
  8
1
100
AcDbLine
 10
465.6543559999999
 20
297.61811
 30
0.0
 11
474.335861
 21
297.920959
 31
0.0
  0
LINE
  5
B0
330
1F
100
AcDbEntity
  8
1
100
AcDbLine
 10
474.564842
 20
291.420104
 30
0.0
 11
474.564842
 21
291.620135
 31
0.0
  0
LINE
  5
B1
330
1F
100
AcDbEntity
  8
1
100
AcDbLine
 10
474.33764
 20
297.664711
 30
0.0
 11
474.335861
 21
297.920959
 31
0.0
  0
LINE
  5
B2
330
1F
100
AcDbEntity
  8
1
100
AcDbLine
 10
461.9180489999999
 20
309.801465
 30
0.0
 11
461.8995909999999
 21
310.338556
 31
0.0
  0
LINE
  5
B3
330
1F
100
AcDbEntity
  8
1
100
AcDbLine
 10
474.261719
 20
297.134662
 30
0.0
 11
464.295886
 21
296.787009
 31
0.0
  0
LINE
  5
B4
330
1F
100
AcDbEntity
  8
1
100
AcDbLine
 10
474.261719
 20
297.134662
 30
0.0
 11
471.590825
 21
292.7096009999999
 31
0.0
  0
LINE
  5
B5
330
1F
100
AcDbEntity
  8
1
100
AcDbLine
 10
473.661891
 20
275.664857
 30
0.0
 11
473.3894219999999
 21
275.669217
 31
0.0
  0
LINE
  5
B6
330
1F
100
AcDbEntity
  8
1
100
AcDbLine
 10
473.3722559999999
 20
276.169556
 30
0.0
 11
473.8818129999999
 21
280.9704939999999
 31
0.0
  0
LINE
  5
B7
330
1F
100
AcDbEntity
  8
1
100
AcDbLine
 10
473.8818129999999
 20
280.9704939999999
 30
0.0
 11
473.8818129999999
 21
290.284777
 31
0.0
  0
LINE
  5
B8
330
1F
100
AcDbEntity
  8
1
100
AcDbLine
 10
473.9520839999999
 20
290.783627
 30
0.0
 11
474.225016
 21
290.778863
 31
0.0
  0
LINE
  5
B9
330
1F
100
AcDbEntity
  8
1
100
AcDbLine
 10
474.586531
 20
310.051004
 30
0.0
 11
474.985117
 21
298.924419
 31
0.0
  0
LINE
  5
BA
330
1F
100
AcDbEntity
  8
1
100
AcDbLine
 10
462.644704
 20
310.410464
 30
0.0
 11
473.782883
 21
310.799013
 31
0.0
  0
LINE
  5
BB
330
1F
100
AcDbEntity
  8
1
100
AcDbLine
 10
462.2951719999999
 20
298.481738
 30
0.0
 11
461.896586
 21
309.608323
 31
0.0
  0
LINE
  5
BC
330
1F
100
AcDbEntity
  8
1
100
AcDbLine
 10
474.236999
 20
298.122277
 30
0.0
 11
463.09882
 21
297.733728
 31
0.0
  0
LINE
  5
BD
330
1F
100
AcDbEntity
  8
1
100
AcDbLine
 10
464.1011879999999
 20
299.606039
 30
0.0
 11
463.779373
 21
308.589552
 31
0.0
  0
LINE
  5
BE
330
1F
100
AcDbEntity
  8
1
100
AcDbLine
 10
473.094063
 20
299.91975
 30
0.0
 11
464.1011879999999
 21
299.606039
 31
0.0
  0
LINE
  5
BF
330
1F
100
AcDbEntity
  8
1
100
AcDbLine
 10
472.772248
 20
308.903264
 30
0.0
 11
473.094063
 21
299.91975
 31
0.0
  0
LINE
  5
C0
330
1F
100
AcDbEntity
  8
1
100
AcDbLine
 10
463.779373
 20
308.589552
 30
0.0
 11
472.772248
 21
308.903264
 31
0.0
  0
LINE
  5
C1
330
1F
100
AcDbEntity
  8
1
100
AcDbLine
 10
475.186477
 20
278.064538
 30
0.0
 11
474.219027
 21
276.454431
 31
0.0
  0
LINE
  5
C2
330
1F
100
AcDbEntity
  8
1
100
AcDbLine
 10
474.1093719999999
 20
276.348539
 30
0.0
 11
473.355437
 21
275.930626
 31
0.0
  0
LINE
  5
C3
330
1F
100
AcDbEntity
  8
1
100
AcDbLine
 10
279.404842
 20
263.907994
 30
0.0
 11
279.404842
 21
267.602852
 31
0.0
  0
LINE
  5
C4
330
1F
100
AcDbEntity
  8
1
100
AcDbLine
 10
279.404842
 20
313.907994
 30
0.0
 11
279.404842
 21
275.942557
 31
0.0
  0
LINE
  5
C5
330
1F
100
AcDbEntity
  8
1
100
AcDbLine
 10
455.662576
 20
298.902243
 30
0.0
 11
453.9432879999999
 21
299.882304
 31
0.0
  0
LINE
  5
C6
330
1F
100
AcDbEntity
  8
1
100
AcDbLine
 10
474.261719
 20
297.134662
 30
0.0
 11
474.271099
 21
297.138261
 31
0.0
  0
LINE
  5
C7
330
1F
100
AcDbEntity
  8
1
100
AcDbLine
 10
474.377866
 20
297.937077
 30
0.0
 11
465.659589
 21
297.632945
 31
0.0
  0
LINE
  5
C8
330
1F
100
AcDbEntity
  8
1
100
AcDbLine
 10
465.6543559999999
 20
297.61811
 30
0.0
 11
465.659589
 21
297.632945
 31
0.0
  0
LINE
  5
C9
330
1F
100
AcDbEntity
  8
1
100
AcDbLine
 10
474.225016
 20
290.778863
 30
0.0
 11
474.52268
 21
291.18223
 31
0.0
  0
LINE
  5
CA
330
1F
100
AcDbEntity
  8
1
100
AcDbLine
 10
474.52268
 20
291.42084
 30
0.0
 11
474.52268
 21
291.18223
 31
0.0
  0
LINE
  5
CB
330
1F
100
AcDbEntity
  8
1
100
AcDbLine
 10
474.52268
 20
291.42084
 30
0.0
 11
474.564842
 21
291.420104
 31
0.0
  0
LINE
  5
CC
330
1F
100
AcDbEntity
  8
1
100
AcDbLine
 10
474.564842
 20
298.219886
 30
0.0
 11
474.564842
 21
291.620135
 31
0.0
  0
LINE
  5
CD
330
1F
100
AcDbEntity
  8
1
100
AcDbLine
 10
474.377866
 20
297.937077
 30
0.0
 11
474.3763099999999
 21
298.1611529999999
 31
0.0
  0
LINE
  5
CE
330
1F
100
AcDbEntity
  8
1
100
AcDbLine
 10
474.377866
 20
297.937077
 30
0.0
 11
474.335861
 21
297.920959
 31
0.0
  0
LINE
  5
CF
330
1F
100
AcDbEntity
  8
1
100
AcDbLine
 10
473.1253569999999
 20
267.407994
 30
0.0
 11
473.93257
 21
275.013369
 31
0.0
  0
LINE
  5
D0
330
1F
100
AcDbEntity
  8
1
100
AcDbLine
 10
473.93257
 20
275.013369
 30
0.0
 11
473.890479
 21
275.014042
 31
0.0
  0
LINE
  5
D1
330
1F
100
AcDbEntity
  8
1
100
AcDbLine
 10
473.915761
 20
275.252243
 30
0.0
 11
473.890479
 21
275.014042
 31
0.0
  0
LINE
  5
D2
330
1F
100
AcDbEntity
  8
1
100
AcDbLine
 10
473.915761
 20
275.252243
 30
0.0
 11
473.661891
 21
275.664857
 31
0.0
  0
LINE
  5
D3
330
1F
100
AcDbEntity
  8
1
100
AcDbLine
 10
471.7566749999999
 20
280.9704939999999
 30
0.0
 11
473.8818129999999
 21
280.9704939999999
 31
0.0
  0
LINE
  5
D4
330
1F
100
AcDbEntity
  8
SK1
100
AcDbLine
 10
206.404842
 20
308.907994
 30
0.0
 11
206.404842
 21
268.907994
 31
0.0
  0
LINE
  5
D5
330
1F
100
AcDbEntity
  8
SK1
100
AcDbLine
 10
204.404842
 20
306.907994
 30
0.0
 11
204.404842
 21
270.907994
 31
0.0
  0
LINE
  5
D6
330
1F
100
AcDbEntity
  8
1
100
AcDbLine
 10
461.995565
 20
301.017426
 30
0.0
 11
461.990333
 21
301.002591
 31
0.0
  0
LINE
  5
D7
330
1F
100
AcDbEntity
  8
1
100
AcDbLine
 10
461.995565
 20
301.017426
 30
0.0
 11
461.6752269999999
 21
310.33887
 31
0.0
  0
LINE
  5
D8
330
1F
100
AcDbEntity
  8
1
100
AcDbLine
 10
461.670383
 20
310.312731
 30
0.0
 11
461.990333
 21
301.002591
 31
0.0
  0
LINE
  5
D9
330
1F
100
AcDbEntity
  8
1
100
AcDbLine
 10
473.1253569999999
 20
267.407994
 30
0.0
 11
441.777703
 21
267.407994
 31
0.0
  0
LINE
  5
DA
330
1F
100
AcDbEntity
  8
1
100
AcDbLine
 10
274.904842
 20
263.907994
 30
0.0
 11
274.904842
 21
288.907994
 31
0.0
  0
LINE
  5
DB
330
1F
100
AcDbEntity
  8
1
100
AcDbLine
 10
274.904842
 20
288.907994
 30
0.0
 11
274.904842
 21
313.907994
 31
0.0
  0
LINE
  5
DC
330
1F
100
AcDbEntity
  8
1
100
AcDbLine
 10
464.8952069999999
 20
305.325504
 30
0.0
 11
464.879078
 21
305.279774
 31
0.0
  0
LINE
  5
DD
330
1F
100
AcDbEntity
  8
1
100
AcDbLine
 10
471.6690869999999
 20
302.884828
 30
0.0
 11
471.685217
 21
302.930558
 31
0.0
  0
LINE
  5
DE
330
1F
100
AcDbEntity
  8
SK1
100
AcDbLine
 10
204.404842
 20
270.907994
 30
0.0
 11
206.404842
 21
268.907994
 31
0.0
  0
LINE
  5
DF
330
1F
100
AcDbEntity
  8
SK1
100
AcDbLine
 10
206.404842
 20
308.907994
 30
0.0
 11
204.404842
 21
306.907994
 31
0.0
  0
LINE
  5
E0
330
1F
100
AcDbEntity
  8
SK1
100
AcDbLine
 10
274.404842
 20
308.907994
 30
0.0
 11
206.404842
 21
308.907994
 31
0.0
  0
LINE
  5
E1
330
1F
100
AcDbEntity
  8
1
100
AcDbLine
 10
274.904842
 20
263.907994
 30
0.0
 11
274.404842
 21
264.407994
 31
0.0
  0
LINE
  5
E2
330
1F
100
AcDbEntity
  8
1
100
AcDbLine
 10
274.404842
 20
313.407994
 30
0.0
 11
274.904842
 21
313.907994
 31
0.0
  0
LINE
  5
E3
330
1F
100
AcDbEntity
  8
1
100
AcDbLine
 10
279.404842
 20
313.907994
 30
0.0
 11
274.904842
 21
313.907994
 31
0.0
  0
LINE
  5
E6
330
1F
100
AcDbEntity
  8
80
100
AcDbLine
 10
275.404416
 20
288.907994
 30
0.0
 11
273.405268
 21
288.907994
 31
0.0
  0
LINE
  5
E7
330
1F
100
AcDbEntity
  8
1
100
AcDbLine
 10
274.404842
 20
313.407994
 30
0.0
 11
274.404842
 21
288.907994
 31
0.0
  0
LINE
  5
E8
330
1F
100
AcDbEntity
  8
1
100
AcDbLine
 10
274.404842
 20
288.907994
 30
0.0
 11
274.404842
 21
264.407994
 31
0.0
  0
LINE
  5
11B
330
1F
100
AcDbEntity
  8
NOCUT
100
AcDbLine
 10
474.1446929999999
 20
310.407994
 30
0.0
 11
474.564842
 21
298.47981
 31
0.0
  0
LINE
  5
11C
330
1F
100
AcDbEntity
  8
NOCUT
100
AcDbLine
 10
474.564842
 20
298.47981
 30
0.0
 11
474.564842
 21
288.907994
 31
0.0
  0
LINE
  5
11E
330
1F
100
AcDbEntity
  8
NOCUT
100
AcDbLine
 10
274.404842
 20
308.907994
 30
0.0
 11
206.404842
 21
308.907994
 31
0.0
  0
LINE
  5
11F
330
1F
100
AcDbEntity
  8
NOCUT
100
AcDbLine
 10
279.404842
 20
313.907994
 30
0.0
 11
274.904842
 21
313.907994
 31
0.0
  0
LINE
  5
120
330
1F
100
AcDbEntity
  8
NOCUT
100
AcDbLine
 10
204.404842
 20
306.907994
 30
0.0
 11
204.404842
 21
288.907994
 31
0.0
  0
LINE
  5
125
330
1F
100
AcDbEntity
  8
NOCUT
100
AcDbLine
 10
289.392334
 20
310.407994
 30
0.0
 11
474.1446929999999
 21
310.407994
 31
0.0
  0
LINE
  5
128
330
1F
100
AcDbEntity
  8
NOCUT
100
AcDbLine
 10
204.404842
 20
306.907994
 30
0.0
 11
206.404842
 21
308.907994
 31
0.0
  0
LINE
  5
129
330
1F
100
AcDbEntity
  8
NOCUT
100
AcDbLine
 10
274.404842
 20
308.907994
 30
0.0
 11
274.404842
 21
313.407994
 31
0.0
  0
LINE
  5
12A
330
1F
100
AcDbEntity
  8
NOCUT
100
AcDbLine
 10
274.404842
 20
313.407994
 30
0.0
 11
274.904842
 21
313.907994
 31
0.0
  0
ARC
  5
133
330
1F
100
AcDbEntity
  8
1
100
AcDbCircle
 10
289.392334
 20
251.407994
 30
0.0
 40
16.0
100
AcDbArc
 50
90.0
 51
128.624833
  0
ARC
  5
134
330
1F
100
AcDbEntity
  8
1
100
AcDbCircle
 10
289.392334
 20
326.407994
 30
0.0
 40
16.0
100
AcDbArc
 50
231.375167
 51
270.0
  0
CIRCLE
  5
135
330
1F
100
AcDbEntity
  8
1
100
AcDbCircle
 10
467.2134699999999
 20
283.579709
 30
0.0
 40
1.599999999999996
  0
ARC
  5
136
330
1F
100
AcDbEntity
  8
1
100
AcDbCircle
 10
467.2134699999999
 20
283.579709
 30
0.0
 40
1.75
100
AcDbArc
 50
75.0
 51
345.0
  0
ARC
  5
142
330
1F
100
AcDbEntity
  8
NOCUT
100
AcDbCircle
 10
289.392334
 20
326.407994
 30
0.0
 40
16.0
100
AcDbArc
 50
231.375167
 51
270.0
  0
ELLIPSE
  5
144
330
1F
100
AcDbEntity
  8
1
100
AcDbEllipse
 10
475.0991759999999
 20
288.313763
 30
0.0
 11
0.2969242547840781
 21
0.0740315314410134
 31
0.0
210
0.0
220
0.0
230
0.9999999999999998
 40
0.980347
 41
6.026305677866879
 42
6.540064936492357
  0
ELLIPSE
  5
145
330
1F
100
AcDbEntity
  8
1
100
AcDbEllipse
 10
474.1728549999999
 20
289.984891
 30
0.0
 11
0.220128181922268
 21
0.2125753143010232
 31
0.0
210
0.0
220
0.0
230
0.9999999999999998
 40
0.9803469999999999
 41
6.026305677866907
 42
6.540064936492317
  0
ELLIPSE
  5
146
330
1F
100
AcDbEntity
  8
1
100
AcDbEllipse
 10
473.9586
 20
276.61439
 30
0.0
 11
0.2125753143010232
 21
-0.2201281819222681
 31
0.0
210
0.0
220
0.0
230
1.0
 40
0.9803469999999999
 41
6.026305677866883
 42
6.540064936492264
  0
ELLIPSE
  5
147
330
1F
100
AcDbEntity
  8
1
100
AcDbEllipse
 10
474.922978
 20
278.219386
 30
0.0
 11
0.2941597133632818
 21
-0.0843489404830548
 31
0.0
210
0.0
220
0.0
230
0.9999999999999996
 40
0.9803469999999999
 41
6.026305677866848
 42
6.540064936492289
  0
ELLIPSE
  5
148
330
1F
100
AcDbEntity
  8
1
100
AcDbEllipse
 10
473.325357
 20
277.270133
 30
0.0
 11
0.2800576478646502
 21
-0.2346916553009039
 31
0.0
210
0.0
220
0.0
230
1.0
 40
0.81881
 41
6.154745492649174
 42
6.41162512161341
  0
ELLIPSE
  5
149
330
1F
100
AcDbEntity
  8
1
100
AcDbEllipse
 10
474.046703
 20
278.470654
 30
0.0
 11
0.3386995303356362
 21
-0.1370951664245642
 31
0.0
210
0.0
220
0.0
230
1.0
 40
0.81881
 41
6.154745491972692
 42
6.411625122231992
  0
ELLIPSE
  5
14A
330
1F
100
AcDbEntity
  8
1
100
AcDbEllipse
 10
474.214665
 20
288.09323
 30
0.0
 11
0.3432777580203208
 21
0.1251912093596556
 31
0.0
210
0.0
220
0.0
230
1.0
 40
0.81881
 41
6.154745492442726
 42
6.411625121957304
  0
ELLIPSE
  5
14B
330
1F
100
AcDbEntity
  8
1
100
AcDbEllipse
 10
474.214665
 20
288.09323
 30
0.0
 11
0.3618699819592053
 21
0.0506218684541995
 31
0.0
210
0.0
220
0.0
230
1.0
 40
0.81881
 41
6.154745492246308
 42
6.411625122071007
  0
ELLIPSE
  5
14C
330
1F
100
AcDbEntity
  8
1
100
AcDbEllipse
 10
474.046703
 20
278.470654
 30
0.0
 11
0.3598828655160766
 21
-0.0632201116666719
 31
0.0
210
0.0
220
0.0
230
0.9999999999999998
 40
0.81881
 41
6.154745492704384
 42
6.41162512156446
  0
ELLIPSE
  5
14D
330
1F
100
AcDbEntity
  8
1
100
AcDbEllipse
 10
473.325357
 20
277.270133
 30
0.0
 11
0.2247748175288529
 21
-0.2880776663392572
 31
0.0
210
0.0
220
0.0
230
1.0
 40
0.81881
 41
6.154745493172891
 42
6.411625121538591
  0
ELLIPSE
  5
14E
330
1F
100
AcDbEntity
  8
1
100
AcDbEllipse
 10
468.290212
 20
304.128031
 30
0.0
 11
-3.395004864809728
 21
1.19747315958158
 31
0.0
210
0.0
220
0.0
230
1.0
 40
0.9986239999999998
 41
3.141585274248861
 42
5.872218228534566
  0
ELLIPSE
  5
14F
330
1F
100
AcDbEntity
  8
1
100
AcDbEllipse
 10
468.290212
 20
304.128031
 30
0.0
 11
-3.395004864809728
 21
1.19747315958158
 31
0.0
210
0.0
220
0.0
230
1.0
 40
0.9986239999999998
 41
5.87221822853457
 42
6.283185307179585
  0
ELLIPSE
  5
150
330
1F
100
AcDbEntity
  8
1
100
AcDbEllipse
 10
305.860713
 20
288.908535
 30
0.0
 11
3.81448265635749
 21
21.49196474163742
 31
0.0
210
0.0
220
0.0
230
0.9999999999999998
 40
0.161817
 41
4.353387003322633
 42
4.363070842757618
  0
ELLIPSE
  5
151
330
1F
100
AcDbEntity
  8
1
100
AcDbEllipse
 10
462.895082
 20
288.907994
 30
0.0
 11
0.719014602284716
 21
-21.4999955456024
 31
0.0
210
0.0
220
0.0
230
0.9999999999999998
 40
0.0191
 41
3.032077966151156
 42
3.127245566149346
  0
ELLIPSE
  5
152
330
1F
100
AcDbEntity
  8
1
100
AcDbEllipse
 10
463.9345940000001
 20
299.431627
 30
0.0
 11
2.357642267228976
 21
-0.8315785830427666
 31
0.0
210
0.0
220
0.0
230
1.0
 40
0.9986239999999998
 41
5.637007748744047
 42
5.809792633311547
  0
ELLIPSE
  5
153
330
1F
100
AcDbEntity
  8
1
100
AcDbEllipse
 10
462.73146
 20
288.907994
 30
0.0
 11
0.6028473498033354
 21
-21.49983305523358
 31
0.0
210
0.0
220
0.0
230
0.9999999999999998
 40
0.140543
 41
3.123943569796701
 42
3.218043577114158
  0
ELLIPSE
  5
154
330
1F
100
AcDbEntity
  8
1
100
AcDbEllipse
 10
252.158962
 20
288.907985
 30
0.0
 11
561.7816190679365
 21
20.96663531918514
 31
0.0
210
0.0
220
0.0
230
1.0
 40
0.008472
 41
5.09957894803283
 42
5.11335598153937
  0
ELLIPSE
  5
155
330
1F
100
AcDbEntity
  8
1
100
AcDbEllipse
 10
473.442407
 20
276.168433
 30
0.0
 11
0.0538770024364631
 21
0.4991611425139362
 31
0.0
210
0.0
220
0.0
230
0.9999999999999998
 40
0.139171
 41
1.583568179257956
 42
3.154364506041843
  0
ELLIPSE
  5
156
330
1F
100
AcDbEntity
  8
1
100
AcDbEllipse
 10
473.9520839999999
 20
290.283551
 30
0.0
 11
0.0001758288826031
 21
-0.5000776676689994
 31
0.0
210
0.0
220
0.0
230
1.0
 40
0.140519
 41
3.139090475970856
 42
4.709886802757853
  0
ELLIPSE
  5
157
330
1F
100
AcDbEntity
  8
1
100
AcDbEllipse
 10
341.864195
 20
288.907994
 30
0.0
 11
89.51703456360068
 21
-15.88818954467085
 31
0.0
210
0.0
220
0.0
230
1.0
 40
0.161813
 41
4.240722009644153
 42
4.351174396187174
  0
ELLIPSE
  5
158
330
1F
100
AcDbEntity
  8
1
100
AcDbEllipse
 10
468.274082
 20
304.082301
 30
0.0
 11
3.395004864809725
 21
-1.197473159581583
 31
0.0
210
0.0
220
0.0
230
1.0
 40
0.9986239999999998
 41
0.0
 42
6.283185307179585
  0
ELLIPSE
  5
159
330
1F
100
AcDbEntity
  8
1
100
AcDbEllipse
 10
466.8855999999999
 20
304.677898
 30
0.0
 11
-0.0898897536456662
 21
0.0317055708602404
 31
0.0
210
0.0
220
0.0
230
1.0
 40
0.998624
 41
3.886489476374772
 42
4.563221393255915
  0
ELLIPSE
  5
15A
330
1F
100
AcDbEntity
  8
1
100
AcDbEllipse
 10
466.9749379999999
 20
304.846012
 30
0.0
 11
-0.089889753645666
 21
0.0317055708602403
 31
0.0
210
0.0
220
0.0
230
0.9999999999999998
 40
0.998624
 41
0.2212980471868512
 42
1.421628739665783
  0
ELLIPSE
  5
15B
330
1F
100
AcDbEntity
  8
1
100
AcDbEllipse
 10
467.476961
 20
304.786452
 30
0.0
 11
-0.5666776289729548
 21
0.1998763706833373
 31
0.0
210
0.0
220
0.0
230
1.0
 40
0.9986239999999998
 41
5.239953310136226
 42
6.504483354366429
  0
ELLIPSE
  5
15C
330
1F
100
AcDbEntity
  8
1
100
AcDbEllipse
 10
467.382037
 20
305.282509
 30
0.0
 11
-0.0898897536456681
 21
0.0317055708602411
 31
0.0
210
0.0
220
0.0
230
1.0
 40
0.9986239999999998
 41
4.039622617657629
 42
5.239953310136371
  0
ELLIPSE
  5
15D
330
1F
100
AcDbEntity
  8
1
100
AcDbEllipse
 10
467.5435929999999
 20
305.383407
 30
0.0
 11
-0.0898897536456681
 21
0.0317055708602411
 31
0.0
210
0.0
220
0.0
230
1.0
 40
0.9986239999999998
 41
0.898029964067231
 42
1.574761880947593
  0
ELLIPSE
  5
15E
330
1F
100
AcDbEntity
  8
1
100
AcDbEllipse
 10
467.70964
 20
305.860202
 30
0.0
 11
-0.5666776289729545
 21
0.1998763706833372
 31
0.0
210
0.0
220
0.0
230
0.9999999999999998
 40
0.9986239999999998
 41
1.574761880948108
 42
2.839291925178288
  0
ELLIPSE
  5
15F
330
1F
100
AcDbEntity
  8
1
100
AcDbEllipse
 10
468.1148089999999
 20
305.557904
 30
0.0
 11
-0.0898897536456662
 21
0.0317055708602404
 31
0.0
210
0.0
220
0.0
230
1.0
 40
0.998624
 41
2.839291925178276
 42
3.516023842058874
  0
ELLIPSE
  5
160
330
1F
100
AcDbEntity
  8
1
100
AcDbEllipse
 10
468.3052929999999
 20
305.564549
 30
0.0
 11
-0.089889753645666
 21
0.0317055708602403
 31
0.0
210
0.0
220
0.0
230
0.9999999999999998
 40
0.998624
 41
5.457285803169839
 42
6.657616495648838
  0
ELLIPSE
  5
161
330
1F
100
AcDbEntity
  8
1
100
AcDbEllipse
 10
468.505044
 20
305.100514
 30
0.0
 11
-0.5666776289729548
 21
0.1998763706833373
 31
0.0
210
0.0
220
0.0
230
1.0
 40
0.9986239999999998
 41
4.192755758939625
 42
5.457285803169771
  0
ELLIPSE
  5
162
330
1F
100
AcDbEntity
  8
1
100
AcDbEllipse
 10
468.88757
 20
305.43029
 30
0.0
 11
-0.0898897536456681
 21
0.0317055708602411
 31
0.0
210
0.0
220
0.0
230
1.0
 40
0.9986239999999998
 41
2.992425066460799
 42
4.192755758939556
  0
ELLIPSE
  5
163
330
1F
100
AcDbEntity
  8
1
100
AcDbEllipse
 10
469.055942
 20
305.340902
 30
0.0
 11
-0.0898897536456681
 21
0.0317055708602411
 31
0.0
210
0.0
220
0.0
230
1.0
 40
0.9986239999999998
 41
6.134017720050592
 42
6.810749636931183
  0
ELLIPSE
  5
164
330
1F
100
AcDbEntity
  8
1
100
AcDbEllipse
 10
469.55245
 20
305.435296
 30
0.0
 11
-0.5666776289729545
 21
0.1998763706833372
 31
0.0
210
0.0
220
0.0
230
0.9999999999999998
 40
0.9986239999999998
 41
0.5275643297515008
 42
1.792094373981719
  0
ELLIPSE
  5
165
330
1F
100
AcDbEntity
  8
1
100
AcDbEllipse
 10
469.4932589999999
 20
304.933862
 30
0.0
 11
-0.0898897536456662
 21
0.0317055708602404
 31
0.0
210
0.0
220
0.0
230
1.0
 40
0.998624
 41
1.792094373981933
 42
2.468826290862539
  0
ELLIPSE
  5
166
330
1F
100
AcDbEntity
  8
1
100
AcDbEllipse
 10
469.5944039999999
 20
304.772393
 30
0.0
 11
-0.089889753645666
 21
0.0317055708602403
 31
0.0
210
0.0
220
0.0
230
0.9999999999999998
 40
0.998624
 41
4.410088251973299
 42
5.610418944451961
  0
ELLIPSE
  5
167
330
1F
100
AcDbEntity
  8
1
100
AcDbEllipse
 10
469.292132
 20
304.367919
 30
0.0
 11
-0.5666776289729548
 21
0.1998763706833373
 31
0.0
210
0.0
220
0.0
230
1.0
 40
0.9986239999999998
 41
3.145558207742977
 42
4.410088251973228
  0
ELLIPSE
  5
168
330
1F
100
AcDbEntity
  8
1
100
AcDbEllipse
 10
469.7695819999999
 20
304.201637
 30
0.0
 11
-0.0898897536456681
 21
0.0317055708602411
 31
0.0
210
0.0
220
0.0
230
1.0
 40
0.9986239999999998
 41
1.945227515263915
 42
3.145558207743272
  0
ELLIPSE
  5
169
330
1F
100
AcDbEntity
  8
1
100
AcDbEllipse
 10
469.776399
 20
304.011352
 30
0.0
 11
-0.0898897536456681
 21
0.0317055708602411
 31
0.0
210
0.0
220
0.0
230
1.0
 40
0.9986239999999998
 41
5.086820168853931
 42
5.763552085734606
  0
ELLIPSE
  5
16A
330
1F
100
AcDbEntity
  8
1
100
AcDbEllipse
 10
470.106859
 20
303.62895
 30
0.0
 11
-0.5666776289729545
 21
0.1998763706833372
 31
0.0
210
0.0
220
0.0
230
0.9999999999999998
 40
0.9986239999999998
 41
5.763552085734495
 42
7.028082129964669
  0
ELLIPSE
  5
16B
330
1F
100
AcDbEntity
  8
1
100
AcDbEllipse
 10
469.642499
 20
303.429814
 30
0.0
 11
-0.0898897536456662
 21
0.0317055708602404
 31
0.0
210
0.0
220
0.0
230
1.0
 40
0.998624
 41
0.7448968227850727
 42
1.421628739665804
  0
ELLIPSE
  5
16C
330
1F
100
AcDbEntity
  8
1
100
AcDbEllipse
 10
469.553161
 20
303.2617
 30
0.0
 11
-0.089889753645666
 21
0.0317055708602403
 31
0.0
210
0.0
220
0.0
230
0.9999999999999998
 40
0.998624
 41
3.362890700776578
 42
4.563221393255302
  0
ELLIPSE
  5
16D
330
1F
100
AcDbEntity
  8
1
100
AcDbEllipse
 10
469.051138
 20
303.32126
 30
0.0
 11
-0.5666776289729548
 21
0.1998763706833373
 31
0.0
210
0.0
220
0.0
230
1.0
 40
0.9986239999999998
 41
2.098360656546356
 42
3.3628907007766
  0
ELLIPSE
  5
16E
330
1F
100
AcDbEntity
  8
1
100
AcDbEllipse
 10
469.1460619999999
 20
302.825203
 30
0.0
 11
-0.0898897536456681
 21
0.0317055708602411
 31
0.0
210
0.0
220
0.0
230
1.0
 40
0.9986239999999998
 41
0.898029964067464
 42
2.098360656546395
  0
ELLIPSE
  5
16F
330
1F
100
AcDbEntity
  8
1
100
AcDbEllipse
 10
468.9845059999999
 20
302.724305
 30
0.0
 11
-0.0898897536456681
 21
0.0317055708602411
 31
0.0
210
0.0
220
0.0
230
1.0
 40
0.9986239999999998
 41
4.039622617657396
 42
4.716354534537384
  0
ELLIPSE
  5
170
330
1F
100
AcDbEntity
  8
1
100
AcDbEllipse
 10
468.8184589999999
 20
302.24751
 30
0.0
 11
-0.5666776289729545
 21
0.1998763706833372
 31
0.0
210
0.0
220
0.0
230
0.9999999999999998
 40
0.9986239999999998
 41
4.7163545345379
 42
5.980884578768097
  0
ELLIPSE
  5
171
330
1F
100
AcDbEntity
  8
1
100
AcDbEllipse
 10
468.41329
 20
302.549808
 30
0.0
 11
-0.0898897536456662
 21
0.0317055708602404
 31
0.0
210
0.0
220
0.0
230
1.0
 40
0.998624
 41
5.980884578768069
 42
6.657616495648838
  0
ELLIPSE
  5
172
330
1F
100
AcDbEntity
  8
1
100
AcDbEllipse
 10
468.2228059999999
 20
302.543163
 30
0.0
 11
-0.089889753645666
 21
0.0317055708602403
 31
0.0
210
0.0
220
0.0
230
0.9999999999999998
 40
0.998624
 41
2.315693149580163
 42
3.516023842059044
  0
ELLIPSE
  5
173
330
1F
100
AcDbEntity
  8
1
100
AcDbEllipse
 10
468.023055
 20
303.007198
 30
0.0
 11
-0.5666776289729548
 21
0.1998763706833373
 31
0.0
210
0.0
220
0.0
230
1.0
 40
0.9986239999999998
 41
1.051163105349822
 42
2.315693149580063
  0
ELLIPSE
  5
174
330
1F
100
AcDbEntity
  8
1
100
AcDbEllipse
 10
467.6405289999999
 20
302.677422
 30
0.0
 11
-0.0898897536456681
 21
0.0317055708602411
 31
0.0
210
0.0
220
0.0
230
1.0
 40
0.9986239999999998
 41
6.134017720050017
 42
7.334348412529459
  0
ELLIPSE
  5
175
330
1F
100
AcDbEntity
  8
1
100
AcDbEllipse
 10
467.472157
 20
302.76681
 30
0.0
 11
-0.0898897536456681
 21
0.0317055708602411
 31
0.0
210
0.0
220
0.0
230
1.0
 40
0.9986239999999998
 41
2.992425066460799
 42
3.669156983341411
  0
ELLIPSE
  5
176
330
1F
100
AcDbEntity
  8
1
100
AcDbEllipse
 10
466.975649
 20
302.672416
 30
0.0
 11
-0.5666776289729545
 21
0.1998763706833372
 31
0.0
210
0.0
220
0.0
230
0.9999999999999998
 40
0.9986239999999998
 41
3.6691569833413
 42
4.933687027571558
  0
ELLIPSE
  5
177
330
1F
100
AcDbEntity
  8
1
100
AcDbEllipse
 10
467.03484
 20
303.17385
 30
0.0
 11
-0.0898897536456662
 21
0.0317055708602404
 31
0.0
210
0.0
220
0.0
230
1.0
 40
0.998624
 41
4.93368702757205
 42
5.61041894445245
  0
ELLIPSE
  5
178
330
1F
100
AcDbEntity
  8
1
100
AcDbEllipse
 10
466.9336949999999
 20
303.335319
 30
0.0
 11
-0.089889753645666
 21
0.0317055708602403
 31
0.0
210
0.0
220
0.0
230
0.9999999999999998
 40
0.998624
 41
1.268495598383309
 42
2.468826290861934
  0
ELLIPSE
  5
179
330
1F
100
AcDbEntity
  8
1
100
AcDbEllipse
 10
467.235967
 20
303.739793
 30
0.0
 11
-0.5666776289729548
 21
0.1998763706833373
 31
0.0
210
0.0
220
0.0
230
1.0
 40
0.9986239999999998
 41
0.0039655541532317
 42
1.268495598383397
  0
ELLIPSE
  5
17A
330
1F
100
AcDbEntity
  8
1
100
AcDbEllipse
 10
466.7585169999999
 20
303.906075
 30
0.0
 11
-0.0898897536456681
 21
0.0317055708602411
 31
0.0
210
0.0
220
0.0
230
1.0
 40
0.9986239999999998
 41
5.086820168853708
 42
6.287150861333066
  0
ELLIPSE
  5
17B
330
1F
100
AcDbEntity
  8
1
100
AcDbEllipse
 10
466.7517
 20
304.09636
 30
0.0
 11
-0.0898897536456681
 21
0.0317055708602411
 31
0.0
210
0.0
220
0.0
230
1.0
 40
0.9986239999999998
 41
1.945227515264138
 42
2.621959432144961
  0
ELLIPSE
  5
17C
330
1F
100
AcDbEntity
  8
1
100
AcDbEllipse
 10
466.42124
 20
304.478762
 30
0.0
 11
-0.5666776289729545
 21
0.1998763706833372
 31
0.0
210
0.0
220
0.0
230
0.9999999999999998
 40
0.9986239999999998
 41
2.621959432144655
 42
3.886489476374912
  0
ELLIPSE
  5
17D
330
1F
100
AcDbEntity
  8
1
100
AcDbEllipse
 10
468.2640489999999
 20
304.053856
 30
0.0
 11
1.98041950447234
 21
-0.6985260097559243
 31
0.0
210
0.0
220
0.0
230
1.0
 40
0.9986239999999998
 41
0.0
 42
6.283185307179585
  0
ELLIPSE
  5
17E
330
1F
100
AcDbEntity
  8
1
100
AcDbEllipse
 10
468.459392
 20
304.318936
 30
0.0
 11
3.531988007444662
 21
-1.245789330883937
 31
0.0
210
0.0
220
0.0
230
0.9999999999999998
 40
0.9986239999999998
 41
1.94522755203838
 42
3.356097206659879
  0
ELLIPSE
  5
17F
330
1F
100
AcDbEntity
  8
1
100
AcDbEllipse
 10
468.459392
 20
304.318936
 30
0.0
 11
3.531988007444662
 21
-1.245789330883937
 31
0.0
210
0.0
220
0.0
230
0.9999999999999998
 40
0.9986239999999998
 41
5.419043491545753
 42
6.283185307179585
  0
ELLIPSE
  5
180
330
1F
100
AcDbEntity
  8
1
100
AcDbEllipse
 10
468.459392
 20
304.318936
 30
0.0
 11
3.531988007444662
 21
-1.245789330883937
 31
0.0
210
0.0
220
0.0
230
0.9999999999999998
 40
0.9986239999999998
 41
0.0
 42
1.50893877539691
  0
ELLIPSE
  5
181
330
1F
100
AcDbEntity
  8
1
100
AcDbEllipse
 10
468.459392
 20
304.318936
 30
0.0
 11
3.531988007444662
 21
-1.245789330883937
 31
0.0
210
0.0
220
0.0
230
0.9999999999999998
 40
0.9986239999999998
 41
1.632540859458623
 42
1.94522755203838
  0
ELLIPSE
  5
182
330
1F
100
AcDbEntity
  8
1
100
AcDbEllipse
 10
463.6869009999999
 20
299.153748
 30
0.0
 11
0.4817434593767361
 21
0.517054578774594
 31
0.0
210
0.0
220
0.0
230
0.9999999999999998
 40
0.01483
 41
0.5198738242439447
 42
1.536779664528209
  0
ELLIPSE
  5
183
330
1F
100
AcDbEntity
  8
1
100
AcDbEllipse
 10
468.4395959999999
 20
304.26281
 30
0.0
 11
3.588083700633127
 21
-1.265575189707758
 31
0.0
210
0.0
220
0.0
230
1.0
 40
0.9986239999999998
 41
1.945227451328571
 42
3.745261875445964
  0
ELLIPSE
  5
184
330
1F
100
AcDbEntity
  8
1
100
AcDbEllipse
 10
468.4395959999999
 20
304.26281
 30
0.0
 11
3.588083700633127
 21
-1.265575189707758
 31
0.0
210
0.0
220
0.0
230
1.0
 40
0.9986239999999998
 41
4.874566385899282
 42
6.283185307179585
  0
ELLIPSE
  5
185
330
1F
100
AcDbEntity
  8
1
100
AcDbEllipse
 10
468.4395959999999
 20
304.26281
 30
0.0
 11
3.588083700633127
 21
-1.265575189707758
 31
0.0
210
0.0
220
0.0
230
1.0
 40
0.9986239999999998
 41
0.0
 42
1.945227440221053
  0
ELLIPSE
  5
186
330
1F
100
AcDbEntity
  8
1
100
AcDbEllipse
 10
468.4367179999999
 20
304.254651
 30
0.0
 11
-3.677921936877203
 21
1.297262589546711
 31
0.0
210
0.0
220
0.0
230
1.0
 40
0.9986239999999998
 41
0.0
 42
6.283185307179585
  0
ELLIPSE
  5
187
330
1F
100
AcDbEntity
  8
1
100
AcDbEllipse
 10
473.529586
 20
299.497104
 30
0.0
 11
0.5172967686801068
 21
-0.4819691094461021
 31
0.0
210
0.0
220
0.0
230
1.0
 40
0.033998
 41
1.585610887643966
 42
2.602516728107735
  0
ELLIPSE
  5
188
330
1F
100
AcDbEntity
  8
1
100
AcDbEllipse
 10
463.334675
 20
308.986188
 30
0.0
 11
0.5172967686089934
 21
-0.4819691093898916
 31
0.0
210
0.0
220
0.0
230
1.0
 40
0.033998
 41
0.5687050473833235
 42
1.585610887969825
  0
ELLIPSE
  5
189
330
1F
100
AcDbEntity
  8
1
100
AcDbEllipse
 10
473.177361
 20
309.329544
 30
0.0
 11
0.4817434592900086
 21
0.5170545786817476
 31
0.0
210
0.0
220
0.0
230
1.0
 40
0.01483
 41
1.53677966450812
 42
2.55368550494638
  0
ELLIPSE
  5
18A
330
1F
100
AcDbEntity
  8
1
100
AcDbEllipse
 10
459.9508269999999
 20
293.997122
 30
0.0
 11
-5.917569061885052
 21
-0.2322502744457884
 31
0.0
210
0.0
220
0.0
230
1.0
 40
0.22151
 41
2.416820075237771
 42
3.864138272552734
  0
ELLIPSE
  5
18B
330
1F
100
AcDbEntity
  8
1
100
AcDbEllipse
 10
465.733112
 20
318.593051
 30
0.0
 11
9.075001773990369
 21
20.19681647157968
 31
0.0
210
0.0
220
0.0
230
1.0
 40
0.724923
 41
3.072042387034231
 42
3.076902673529294
  0
ELLIPSE
  5
18C
330
1F
100
AcDbEntity
  8
1
100
AcDbEllipse
 10
463.939827
 20
299.446462
 30
0.0
 11
-2.357642267228976
 21
0.8315785830427635
 31
0.0
210
0.0
220
0.0
230
1.0
 40
0.9986239999999998
 41
2.66819997972175
 42
2.776747666076894
  0
ELLIPSE
  5
18D
330
1F
100
AcDbEntity
  8
1
100
AcDbEllipse
 10
474.2676309999999
 20
297.637848
 30
0.0
 11
0.0003016037634392
 21
0.5003084758556584
 31
0.0
210
0.0
220
0.0
230
0.9999999999999998
 40
0.140101
 41
3.195395734393295
 42
4.766192061193425
  0
ELLIPSE
  5
18E
330
1F
100
AcDbEntity
  8
1
100
AcDbEllipse
 10
475.4073059999999
 20
288.907994
 30
0.0
 11
2.327133542536991
 21
21.49756846204095
 31
0.0
210
0.0
220
0.0
230
1.0
 40
0.138944
 41
1.963969111275746
 42
3.156632395651089
  0
ELLIPSE
  5
18F
330
1F
100
AcDbEntity
  8
1
100
AcDbEllipse
 10
474.564842
 20
288.907994
 30
0.0
 11
0.0
 21
21.50000000027201
 31
0.0
210
0.0
220
0.0
230
1.0
 40
0.140541
 41
1.393042810882487
 42
1.948929369209445
  0
ELLIPSE
  5
190
330
1F
100
AcDbEntity
  8
1
100
AcDbEllipse
 10
464.0211049999999
 20
299.6768990000001
 30
0.0
 11
-2.357642267228976
 21
0.8315785830427634
 31
0.0
210
0.0
220
0.0
230
0.9999999999999998
 40
0.998624
 41
0.0520252572636118
 42
1.945227431237595
  0
ELLIPSE
  5
191
330
1F
100
AcDbEntity
  8
1
100
AcDbEllipse
 10
464.0211049999999
 20
299.6768990000001
 30
0.0
 11
-2.357642267228976
 21
0.8315785830427634
 31
0.0
210
0.0
220
0.0
230
0.9999999999999998
 40
0.998624
 41
1.945227431237593
 42
2.645311779347055
  0
ELLIPSE
  5
192
330
1F
100
AcDbEntity
  8
1
100
AcDbEllipse
 10
463.939827
 20
299.446462
 30
0.0
 11
-2.357642267228976
 21
0.8315785830427635
 31
0.0
210
0.0
220
0.0
230
1.0
 40
0.9986239999999998
 41
5.82288831403411
 42
5.94224418914329
  0
ELLIPSE
  5
193
330
1F
100
AcDbEntity
  8
1
100
AcDbEllipse
 10
463.9345940000001
 20
299.431627
 30
0.0
 11
2.357642267228976
 21
-0.8315785830427666
 31
0.0
210
0.0
220
0.0
230
1.0
 40
0.9986239999999998
 41
2.800651535553506
 42
4.467917699968127
  0
ELLIPSE
  5
194
330
1F
100
AcDbEntity
  8
1
100
AcDbEllipse
 10
462.4246179999999
 20
288.907714
 30
0.0
 11
0.7190244000951284
 21
-21.50027523452004
 31
0.0
210
0.0
220
0.0
230
1.0
 40
0.0191
 41
3.221162927658466
 42
3.235124558192643
  0
ELLIPSE
  5
195
330
1F
100
AcDbEntity
  8
1
100
AcDbEllipse
 10
406.604045
 20
288.907749
 30
0.0
 11
1232.490448101282
 21
-1.063655066693637
 31
0.0
210
0.0
220
0.0
230
1.0
 40
0.017423
 41
1.52611756862824
 42
1.532842647104721
  0
ELLIPSE
  5
196
330
1F
100
AcDbEntity
  8
1
100
AcDbEllipse
 10
463.710688
 20
312.860457
 30
0.0
 11
-15.18321620095461
 21
5.355366074795398
 31
0.0
210
0.0
220
0.0
230
1.0
 40
0.998624
 41
1.386722154625874
 42
1.945227515264114
  0
SPLINE
  5
19D
330
1F
100
AcDbEntity
  8
1
100
AcDbSpline
210
0.0
220
0.0
230
1.0
 70
     8
 71
     3
 72
     8
 73
     4
 74
     0
 42
0.000000001
 43
0.0000000001
 40
0.0
 40
0.0
 40
0.0
 40
0.0
 40
1.0
 40
1.0
 40
1.0
 40
1.0
 10
466.9139144869084
 20
304.9525686858741
 30
0.0
 10
466.915194062046
 20
304.9635673268641
 30
0.0
 10
466.9167782541533
 20
304.9744990566757
 30
0.0
 10
466.9186653726209
 20
304.9853639989325
 30
0.0
  0
SPLINE
  5
19E
330
1F
100
AcDbEntity
  8
1
100
AcDbSpline
210
0.0
220
0.0
230
1.0
 70
     8
 71
     3
 72
    10
 73
     6
 74
     0
 42
0.000000001
 43
0.0000000001
 40
0.0
 40
0.0
 40
0.0
 40
0.0
 40
0.662824412141434
 40
0.662824412141434
 40
1.0
 40
1.0
 40
1.0
 40
1.0
 10
468.2419831969654
 20
305.633618783548
 30
0.0
 10
468.2414796276181
 20
305.6314472818538
 30
0.0
 10
468.2408948953801
 20
305.629286162317
 30
0.0
 10
468.2398899793826
 20
305.6260426311965
 30
0.0
 10
468.2395319184636
 20
305.6249572956972
 30
0.0
 10
468.239154501102
 20
305.6238803104657
 30
0.0
  0
SPLINE
  5
19F
330
1F
100
AcDbEntity
  8
1
100
AcDbSpline
210
0.0
220
0.0
230
1.0
 70
     8
 71
     3
 72
    27
 73
    23
 74
     0
 42
0.000000001
 43
0.0000000001
 40
0.0
 40
0.0
 40
0.0
 40
0.0
 40
0.12500000000017
 40
0.12500000000017
 40
0.1875000000002015
 40
0.1875000000002015
 40
0.2500000000002329
 40
0.2500000000002329
 40
0.3750000000002958
 40
0.3750000000002958
 40
0.4375000000003272
 40
0.4375000000003272
 40
0.5000000000003583
 40
0.5000000000003583
 40
0.6250000000003148
 40
0.6250000000003148
 40
0.6875000000002942
 40
0.6875000000002942
 40
0.7500000000002738
 40
0.7500000000002738
 40
0.8750000000001369
 40
1.0
 40
1.0
 40
1.0
 40
1.0
 10
468.2940886225523
 20
302.5510052338172
 30
0.0
 10
468.2648726468353
 20
302.5382837860599
 30
0.0
 10
468.2349346997531
 20
302.5279917035123
 30
0.0
 10
468.1889658474086
 20
302.5161415443912
 30
0.0
 10
468.1734650803541
 20
302.5127922279628
 30
0.0
 10
468.1421013034566
 20
302.507319398572
 30
0.0
 10
468.1261922296489
 20
302.5051959954955
 30
0.0
 10
468.0786766044441
 20
302.5007829850675
 30
0.0
 10
468.0470652228739
 20
302.5003863326259
 30
0.0
 10
467.9997457804782
 20
302.5035485438746
 30
0.0
 10
467.9839889755567
 20
302.5052317318238
 30
0.0
 10
467.9525087726061
 20
302.5098819921821
 30
0.0
 10
467.9367135210393
 20
302.5128681495813
 30
0.0
 10
467.8900844569902
 20
302.5236517365535
 30
0.0
 10
467.8599318434336
 20
302.5332447322298
 30
0.0
 10
467.8160610446306
 20
302.5511312777459
 30
0.0
 10
467.8016648964517
 20
302.5576791162871
 30
0.0
 10
467.773333506973
 20
302.5719613013758
 30
0.0
 10
467.7593480097139
 20
302.5797268666482
 30
0.0
 10
467.7184639485392
 20
302.6046385130779
 30
0.0
 10
467.6673360279278
 20
302.6417625352614
 30
0.0
 10
467.6226873376623
 20
302.6863566894649
 30
0.0
 10
467.6020339265164
 20
302.7105757035207
 30
0.0
  0
SPLINE
  5
1A0
330
1F
100
AcDbEntity
  8
1
100
AcDbSpline
210
0.0
220
0.0
230
1.0
 70
     8
 71
     3
 72
    16
 73
    12
 74
     0
 42
0.000000001
 43
0.0000000001
 40
0.0
 40
0.0
 40
0.0
 40
0.0
 40
0.3587940320750519
 40
0.3587940320750519
 40
0.5381910481126067
 40
0.5381910481126067
 40
0.7175880641501612
 40
0.7175880641501612
 40
0.8969850801877159
 40
0.8969850801877159
 40
1.0
 40
1.0
 40
1.0
 40
1.0
 10
467.6020339265164
 20
302.7105757035207
 30
0.0
 10
467.5955670734163
 20
302.7181589935167
 30
0.0
 10
467.5903808494441
 20
302.7266951061441
 30
0.0
 10
467.5847667918299
 20
302.7401047371556
 30
0.0
 10
467.5832376771019
 20
302.744701066904
 30
0.0
 10
467.5808690513196
 20
302.7541478458828
 30
0.0
 10
467.5800467794878
 20
302.7589524913139
 30
0.0
 10
467.5791261753968
 20
302.7684961365392
 30
0.0
 10
467.5790191236325
 20
302.7732687736915
 30
0.0
 10
467.5793983960481
 20
302.7807827215463
 30
0.0
 10
467.5796547746828
 20
302.7835357854619
 30
0.0
 10
467.5800247979038
 20
302.7862697592996
 30
0.0
  0
SPLINE
  5
1A1
330
1F
100
AcDbEntity
  8
1
100
AcDbSpline
210
0.0
220
0.0
230
1.0
 70
     8
 71
     3
 72
    10
 73
     6
 74
     0
 42
0.000000001
 43
0.0000000001
 40
0.0
 40
0.0
 40
0.0
 40
0.0
 40
0.132503507345997
 40
0.132503507345997
 40
1.0
 40
1.0
 40
1.0
 40
1.0
 10
468.3221594357054
 20
302.569718255443
 30
0.0
 10
468.3210805751561
 20
302.56868389283
 30
0.0
 10
468.3199760063553
 20
302.5676727477732
 30
0.0
 10
468.3114587313986
 20
302.5602358669992
 30
0.0
 10
468.3032232411426
 20
302.5549827006082
 30
0.0
 10
468.2940886225523
 20
302.5510052338172
 30
0.0
  0
SPLINE
  5
1A2
330
1F
100
AcDbEntity
  8
1
100
AcDbSpline
210
0.0
220
0.0
230
1.0
 70
     8
 71
     3
 72
    10
 73
     6
 74
     0
 42
0.000000001
 43
0.0000000001
 40
0.0
 40
0.0
 40
0.0
 40
0.0
 40
0.6419716905423282
 40
0.6419716905423282
 40
1.0
 40
1.0
 40
1.0
 40
1.0
 10
467.600337092081
 20
302.882624985411
 30
0.0
 10
467.6023525036769
 20
302.871658195312
 30
0.0
 10
467.6024546811508
 20
302.8606748155573
 30
0.0
 10
467.5998085884943
 20
302.8437853777054
 30
0.0
 10
467.5983278528471
 20
302.8379217892068
 30
0.0
 10
467.5963176230377
 20
302.8322398327846
 30
0.0
  0
SPLINE
  5
1A3
330
1F
100
AcDbEntity
  8
1
100
AcDbSpline
210
0.0
220
0.0
230
1.0
 70
     8
 71
     3
 72
     8
 73
     4
 74
     0
 42
0.000000001
 43
0.0000000001
 40
0.0
 40
0.0
 40
0.0
 40
0.0
 40
1.0
 40
1.0
 40
1.0
 40
1.0
 10
468.3577752360977
 20
302.6789768993881
 30
0.0
 10
468.3610058394489
 20
302.6881935617752
 30
0.0
 10
468.3655486401881
 20
302.696817407042
 30
0.0
 10
468.3714752385598
 20
302.7048198539022
 30
0.0
  0
SPLINE
  5
1A4
330
1F
100
AcDbEntity
  8
1
100
AcDbSpline
210
0.0
220
0.0
230
1.0
 70
     8
 71
     3
 72
    20
 73
    16
 74
     0
 42
0.000000001
 43
0.0000000001
 40
0.0
 40
0.0
 40
0.0
 40
0.0
 40
0.1249999999999983
 40
0.1249999999999983
 40
0.2499999999999966
 40
0.2499999999999966
 40
0.3749999999999949
 40
0.3749999999999949
 40
0.4999999999999931
 40
0.4999999999999931
 40
0.6249999999999913
 40
0.6249999999999913
 40
0.7499999999999897
 40
0.7499999999999897
 40
1.0
 40
1.0
 40
1.0
 40
1.0
 10
467.0184621427428
 20
303.3515318773001
 30
0.0
 10
467.0144465697006
 20
303.3489580012125
 30
0.0
 10
467.0102735248325
 20
303.3466941629971
 30
0.0
 10
467.0016146835549
 20
303.3427825682294
 30
0.0
 10
466.9971212146649
 20
303.3411376935073
 30
0.0
 10
466.9880314504577
 20
303.3385457629417
 30
0.0
 10
466.9834097423017
 20
303.3375854468438
 30
0.0
 10
466.9740107489513
 20
303.3363473446834
 30
0.0
 10
466.9691953284611
 20
303.3360720870946
 30
0.0
 10
466.9596361430258
 20
303.3362498837278
 30
0.0
 10
466.9548878968863
 20
303.3366954238602
 30
0.0
 10
466.9454555322578
 20
303.3383067437247
 30
0.0
 10
466.9407406859473
 20
303.3394830393481
 30
0.0
 10
466.9269183252053
 20
303.3441033852501
 30
0.0
 10
466.9183037965939
 20
303.3485309251243
 30
0.0
 10
466.9103301577743
 20
303.3543905104825
 30
0.0
  0
SPLINE
  5
1A5
330
1F
100
AcDbEntity
  8
1
100
AcDbSpline
210
0.0
220
0.0
230
1.0
 70
     8
 71
     3
 72
    10
 73
     6
 74
     0
 42
0.000000001
 43
0.0000000001
 40
0.0
 40
0.0
 40
0.0
 40
0.0
 40
0.5
 40
0.5
 40
1.0
 40
1.0
 40
1.0
 40
1.0
 10
467.0184621427428
 20
303.3515318773001
 30
0.0
 10
467.0276408414792
 20
303.3574151803667
 30
0.0
 10
467.0375662224846
 20
303.3616678358381
 30
0.0
 10
467.0587797943221
 20
303.36678902497
 30
0.0
 10
467.0695739386486
 20
303.3675504858621
 30
0.0
 10
467.0805721275458
 20
303.3664048857521
 30
0.0
  0
SPLINE
  5
1A6
330
1F
100
AcDbEntity
  8
1
100
AcDbSpline
210
0.0
220
0.0
230
1.0
 70
     8
 71
     3
 72
    24
 73
    20
 74
     0
 42
0.000000001
 43
0.0000000001
 40
0.0
 40
0.0
 40
0.0
 40
0.0
 40
0.1249999999999482
 40
0.1249999999999482
 40
0.2499999999998963
 40
0.2499999999998963
 40
0.3124999999998691
 40
0.3124999999998691
 40
0.3749999999998418
 40
0.3749999999998418
 40
0.4999999999998734
 40
0.4999999999998734
 40
0.6249999999999051
 40
0.6249999999999051
 40
0.7499999999999368
 40
0.7499999999999368
 40
0.8749999999999683
 40
0.8749999999999683
 40
1.0
 40
1.0
 40
1.0
 40
1.0
 10
467.0805721275458
 20
303.3664048857521
 30
0.0
 10
467.1117205009091
 20
303.3631603897463
 30
0.0
 10
467.1423522103086
 20
303.3575073410085
 30
0.0
 10
467.2026299518217
 20
303.3413842625149
 30
0.0
 10
467.2322764090791
 20
303.3309165886648
 30
0.0
 10
467.2759836296016
 20
303.3113022364944
 30
0.0
 10
467.2903315002538
 20
303.304144224918
 30
0.0
 10
467.3182400321666
 20
303.2887673066302
 30
0.0
 10
467.3318548202582
 20
303.2805246331778
 30
0.0
 10
467.3716832797501
 20
303.2541328379601
 30
0.0
 10
467.3969254342987
 20
303.234296789561
 30
0.0
 10
467.4444105481346
 20
303.1900865363362
 30
0.0
 10
467.4659628126648
 20
303.1663669333367
 30
0.0
 10
467.5049380774095
 20
303.1158795790956
 30
0.0
 10
467.5223658322996
 20
303.0891009703111
 30
0.0
 10
467.5529958934988
 20
303.0324700013465
 30
0.0
 10
467.5657554528112
 20
303.0034460464356
 30
0.0
 10
467.5865732658719
 20
302.9440540505694
 30
0.0
 10
467.5946290041729
 20
302.9136853415569
 30
0.0
 10
467.600337092081
 20
302.882624985411
 30
0.0
  0
SPLINE
  5
1A7
330
1F
100
AcDbEntity
  8
1
100
AcDbSpline
210
0.0
220
0.0
230
1.0
 70
     8
 71
     3
 72
    18
 73
    14
 74
     0
 42
0.000000001
 43
0.0000000001
 40
0.0
 40
0.0
 40
0.0
 40
0.0
 40
0.2499999999999981
 40
0.2499999999999981
 40
0.374999999999994
 40
0.374999999999994
 40
0.4999999999999896
 40
0.4999999999999896
 40
0.6249999999999851
 40
0.6249999999999851
 40
0.7499999999999807
 40
0.7499999999999807
 40
1.0
 40
1.0
 40
1.0
 40
1.0
 10
469.1975813509617
 20
302.8270077048788
 30
0.0
 10
469.1878528052868
 20
302.8252244020981
 30
0.0
 10
469.1779617667321
 20
302.8250305584267
 30
0.0
 10
469.16370799431
 20
302.8269211583922
 30
0.0
 10
469.1590226593436
 20
302.8279116218071
 30
0.0
 10
469.1497855769552
 20
302.8306181625153
 30
0.0
 10
469.1452815309854
 20
302.8323261060713
 30
0.0
 10
469.1366966149786
 20
302.8363362994157
 30
0.0
 10
469.1325827068056
 20
302.8386479393905
 30
0.0
 10
469.1247073843581
 20
302.8438748368711
 30
0.0
 10
469.1209199202159
 20
302.8468171720454
 30
0.0
 10
469.1103948784271
 20
302.8563207531362
 30
0.0
 10
469.1044143120897
 20
302.8635575430964
 30
0.0
 10
469.0994787606793
 20
302.8717015964179
 30
0.0
  0
SPLINE
  5
1A8
330
1F
100
AcDbEntity
  8
1
100
AcDbSpline
210
0.0
220
0.0
230
1.0
 70
     8
 71
     3
 72
    10
 73
     6
 74
     0
 42
0.000000001
 43
0.0000000001
 40
0.0
 40
0.0
 40
0.0
 40
0.0
 40
0.5
 40
0.5
 40
1.0
 40
1.0
 40
1.0
 40
1.0
 10
469.0503841691753
 20
302.9122155933296
 30
0.0
 10
469.0607389500971
 20
302.908437719926
 30
0.0
 10
469.0701344230697
 20
302.9029930208791
 30
0.0
 10
469.0868555044093
 20
302.8891240974025
 30
0.0
 10
469.0938434714116
 20
302.8810002729916
 30
0.0
 10
469.0994787606793
 20
302.8717015964179
 30
0.0
  0
SPLINE
  5
1A9
330
1F
100
AcDbEntity
  8
1
100
AcDbSpline
210
0.0
220
0.0
230
1.0
 70
     8
 71
     3
 72
    24
 73
    20
 74
     0
 42
0.000000001
 43
0.0000000001
 40
0.0
 40
0.0
 40
0.0
 40
0.0
 40
0.1249999999999323
 40
0.1249999999999323
 40
0.2499999999998644
 40
0.2499999999998644
 40
0.3124999999998758
 40
0.3124999999998758
 40
0.374999999999887
 40
0.374999999999887
 40
0.4999999999999096
 40
0.4999999999999096
 40
0.6249999999999324
 40
0.6249999999999324
 40
0.7499999999999548
 40
0.7499999999999548
 40
0.8749999999999772
 40
0.8749999999999772
 40
1.0
 40
1.0
 40
1.0
 40
1.0
 10
468.3714752385598
 20
302.7048198539022
 30
0.0
 10
468.3902908972672
 20
302.7302258793326
 30
0.0
 10
468.410897000287
 20
302.7539713945845
 30
0.0
 10
468.4557030533733
 20
302.7981807327576
 30
0.0
 10
468.4799012305462
 20
302.8186461134287
 30
0.0
 10
468.5191282549829
 20
302.8467099362118
 30
0.0
 10
468.5326159332413
 20
302.8555598356254
 30
0.0
 10
468.5600848860493
 20
302.872041379457
 30
0.0
 10
468.5741141852282
 20
302.8797079599659
 30
0.0
 10
468.6170873155014
 20
302.9009864500233
 30
0.0
 10
468.6469592551273
 20
302.9129040921217
 30
0.0
 10
468.7089936361451
 20
302.9318447873322
 30
0.0
 10
468.7402449953421
 20
302.9385985596538
 30
0.0
 10
468.8031964029558
 20
302.9469829187434
 30
0.0
 10
468.8349086980546
 20
302.9486121500308
 30
0.0
 10
468.8987611453525
 20
302.9466526727203
 30
0.0
 10
468.9299712870057
 20
302.9430973282188
 30
0.0
 10
468.9911201119121
 20
302.9312297677358
 30
0.0
 10
469.0210580576571
 20
302.9229150313545
 30
0.0
 10
469.0503841691753
 20
302.9122155933296
 30
0.0
  0
SPLINE
  5
1AA
330
1F
100
AcDbEntity
  8
1
100
AcDbSpline
210
0.0
220
0.0
230
1.0
 70
     8
 71
     3
 72
    27
 73
    23
 74
     0
 42
0.000000001
 43
0.0000000001
 40
0.0
 40
0.0
 40
0.0
 40
0.0
 40
0.1358119458616035
 40
0.1358119458616035
 40
0.2037179187924025
 40
0.2037179187924025
 40
0.2716238917232017
 40
0.2716238917232017
 40
0.4074358375847258
 40
0.4074358375847258
 40
0.4753418105154876
 40
0.4753418105154876
 40
0.5432477834462497
 40
0.5432477834462497
 40
0.6790597293078154
 40
0.6790597293078154
 40
0.7469657022385982
 40
0.7469657022385982
 40
0.8148716751693811
 40
0.8148716751693811
 40
0.9506836210309465
 40
1.0
 40
1.0
 40
1.0
 40
1.0
 10
466.9103301577743
 20
303.3543905104825
 30
0.0
 10
466.8848279716847
 20
303.3731312936548
 30
0.0
 10
466.8610504730811
 20
303.3937328309958
 30
0.0
 10
466.8279352886534
 20
303.4273775193307
 30
0.0
 10
466.8173240068592
 20
303.439051596456
 30
0.0
 10
466.7969734885075
 20
303.4633359224494
 30
0.0
 10
466.7872113101466
 20
303.4759860439352
 30
0.0
 10
466.7597115299874
 20
303.5147492017381
 30
0.0
 10
466.7435976674681
 20
303.5418289179505
 30
0.0
 10
466.7227038423162
 20
303.5842738627559
 30
0.0
 10
466.7162879332714
 20
303.598727835437
 30
0.0
 10
466.7045759689721
 20
303.6282594304429
 30
0.0
 10
466.6992604499633
 20
303.6434087795357
 30
0.0
 10
466.6852596239875
 20
303.6891316852471
 30
0.0
 10
466.6784571863352
 20
303.7200296780401
 30
0.0
 10
466.6719358868394
 20
303.7669819871489
 30
0.0
 10
466.6703788079309
 20
303.782734132361
 30
0.0
 10
466.668513960828
 20
303.8144438380872
 30
0.0
 10
466.6682079359774
 20
303.8304605659055
 30
0.0
 10
466.669212144149
 20
303.8784071959091
 30
0.0
 10
466.6735637305189
 20
303.9213427886153
 30
0.0
 10
466.6823961354575
 20
303.9634473985922
 30
0.0
 10
466.6850703791306
 20
303.9746039635822
 30
0.0
  0
SPLINE
  5
1AB
330
1F
100
AcDbEntity
  8
1
100
AcDbSpline
210
0.0
220
0.0
230
1.0
 70
     8
 71
     3
 72
    21
 73
    17
 74
     0
 42
0.000000001
 43
0.0000000001
 40
0.0
 40
0.0
 40
0.0
 40
0.0
 40
0.1243620819245882
 40
0.1243620819245882
 40
0.2119258737321471
 40
0.2119258737321471
 40
0.2994896655397059
 40
0.2994896655397059
 40
0.4746172491547199
 40
0.4746172491547199
 40
0.562181040962224
 40
0.562181040962224
 40
0.649744832769728
 40
0.649744832769728
 40
0.8248724163848638
 40
1.0
 40
1.0
 40
1.0
 40
1.0
 10
469.6174407942111
 20
303.1381798747
 30
0.0
 10
469.6070556520743
 20
303.11820683709
 30
0.0
 10
469.5955947025938
 20
303.0989051027475
 30
0.0
 10
469.5742513291348
 20
303.0671440238247
 30
0.0
 10
469.564902832396
 20
303.0543515292666
 30
0.0
 10
469.5451245581199
 20
303.029441208945
 30
0.0
 10
469.5346423668619
 20
303.0172707401797
 30
0.0
 10
469.5020138064649
 20
302.982331478609
 30
0.0
 10
469.4786738284019
 20
302.9610557681873
 30
0.0
 10
469.4413549410867
 20
302.9320767285413
 30
0.0
 10
469.4285286430933
 20
302.9229085039553
 30
0.0
 10
469.4020929052751
 20
302.9055678158651
 30
0.0
 10
469.3884317163569
 20
302.8973676406827
 30
0.0
 10
469.3466043654097
 20
302.8745068843753
 30
0.0
 10
469.2891923669713
 20
302.8489215087628
 30
0.0
 10
469.2286523861086
 20
302.8327032183941
 30
0.0
 10
469.1975813509617
 20
302.8270077048788
 30
0.0
  0
SPLINE
  5
1AC
330
1F
100
AcDbEntity
  8
1
100
AcDbSpline
210
0.0
220
0.0
230
1.0
 70
     8
 71
     3
 72
    18
 73
    14
 74
     0
 42
0.000000001
 43
0.0000000001
 40
0.0
 40
0.0
 40
0.0
 40
0.0
 40
0.2127774583469065
 40
0.2127774583469065
 40
0.4255549166938128
 40
0.4255549166938128
 40
0.5319436458672661
 40
0.5319436458672661
 40
0.638332375040719
 40
0.638332375040719
 40
0.8511098333876143
 40
0.8511098333876143
 40
1.0
 40
1.0
 40
1.0
 40
1.0
 10
467.0077192098577
 20
304.813460036254
 30
0.0
 10
467.020204890155
 20
304.785242490524
 30
0.0
 10
467.0303700223762
 20
304.7562387342585
 30
0.0
 10
467.0460902216854
 20
304.6966093789903
 30
0.0
 10
467.0516475067944
 20
304.6659846324333
 30
0.0
 10
467.0562634618068
 20
304.6186904085951
 30
0.0
 10
467.0571636041072
 20
304.6027967421437
 30
0.0
 10
467.0576721314321
 20
304.5711344803239
 30
0.0
 10
467.057286656481
 20
304.5553077837058
 30
0.0
 10
467.0542122509829
 20
304.507837092305
 30
0.0
 10
467.0496072140376
 20
304.4761518647081
 30
0.0
 10
467.0372416408254
 20
304.4224820005545
 30
0.0
 10
467.0309520391667
 20
304.4008930767378
 30
0.0
 10
467.0235105141552
 20
304.3797896428821
 30
0.0
  0
SPLINE
  5
1AD
330
1F
100
AcDbEntity
  8
1
100
AcDbSpline
210
0.0
220
0.0
230
1.0
 70
     8
 71
     3
 72
    10
 73
     6
 74
     0
 42
0.000000001
 43
0.0000000001
 40
0.0
 40
0.0
 40
0.0
 40
0.0
 40
0.5
 40
0.5
 40
1.0
 40
1.0
 40
1.0
 40
1.0
 10
466.96446388065
 20
304.8589022666505
 30
0.0
 10
466.9740268770693
 20
304.8540550249969
 30
0.0
 10
466.9825537996361
 20
304.8477436574326
 30
0.0
 10
466.9973618944252
 20
304.8322451332594
 30
0.0
 10
467.0033104885519
 20
304.8234237140104
 30
0.0
 10
467.0077192098577
 20
304.813460036254
 30
0.0
  0
SPLINE
  5
1AE
330
1F
100
AcDbEntity
  8
1
100
AcDbSpline
210
0.0
220
0.0
230
1.0
 70
     8
 71
     3
 72
    20
 73
    16
 74
     0
 42
0.000000001
 43
0.0000000001
 40
0.0
 40
0.0
 40
0.0
 40
0.0
 40
0.1249999999999897
 40
0.1249999999999897
 40
0.2499999999999793
 40
0.2499999999999793
 40
0.3749999999999689
 40
0.3749999999999689
 40
0.4999999999999586
 40
0.4999999999999586
 40
0.6249999999999483
 40
0.6249999999999483
 40
0.7499999999999379
 40
0.7499999999999379
 40
1.0
 40
1.0
 40
1.0
 40
1.0
 10
466.96446388065
 20
304.8589022666505
 30
0.0
 10
466.9602801247896
 20
304.8610229069587
 30
0.0
 10
466.9562859962297
 20
304.863434973826
 30
0.0
 10
466.9486746079298
 20
304.8688379852473
 30
0.0
 10
466.9450556327732
 20
304.8718372780075
 30
0.0
 10
466.9383680154851
 20
304.878277097897
 30
0.0
 10
466.9352755128749
 20
304.8817325298632
 30
0.0
 10
466.9296018126118
 20
304.889121577703
 30
0.0
 10
466.9270040376448
 20
304.8930890169657
 30
0.0
 10
466.9224700225948
 20
304.9013326017683
 30
0.0
 10
466.9205254945422
 20
304.9056081490804
 30
0.0
 10
466.9172880575255
 20
304.9144688519162
 30
0.0
 10
466.9159891934069
 20
304.9190851448597
 30
0.0
 10
466.9131897528993
 20
304.9332145704588
 30
0.0
 10
466.9127783824096
 20
304.9428032526928
 30
0.0
 10
466.9139144869084
 20
304.9525686858741
 30
0.0
  0
SPLINE
  5
1AF
330
1F
100
AcDbEntity
  8
1
100
AcDbSpline
210
0.0
220
0.0
230
1.0
 70
     8
 71
     3
 72
     8
 73
     4
 74
     0
 42
0.000000001
 43
0.0000000001
 40
0.0
 40
0.0
 40
0.0
 40
0.0
 40
1.0
 40
1.0
 40
1.0
 40
1.0
 10
307.7765831682105
 20
280.7796507109969
 30
0.0
 10
307.7771746102266
 20
280.8476500762612
 30
0.0
 10
307.777766415256
 20
280.9156505004233
 30
0.0
 10
307.778358583974
 20
280.9836519854525
 30
0.0
  0
SPLINE
  5
1B0
330
1F
100
AcDbEntity
  8
1
100
AcDbSpline
210
0.0
220
0.0
230
1.0
 70
     8
 71
     3
 72
     8
 73
     4
 74
     0
 42
0.000000001
 43
0.0000000001
 40
0.0
 40
0.0
 40
0.0
 40
0.0
 40
1.0
 40
1.0
 40
1.0
 40
1.0
 10
453.9432876800852
 20
299.8823043738092
 30
0.0
 10
453.3855979252312
 20
300.2215168217809
 30
0.0
 10
452.8203430276707
 20
300.5639512503525
 30
0.0
 10
452.2478341098677
 20
300.9094751530288
 30
0.0
  0
SPLINE
  5
1B1
330
1F
100
AcDbEntity
  8
1
100
AcDbSpline
210
0.0
220
0.0
230
1.0
 70
     8
 71
     3
 72
    22
 73
    18
 74
     0
 42
0.000000001
 43
0.0000000001
 40
0.0
 40
0.0
 40
0.0
 40
0.0
 40
0.125
 40
0.125
 40
0.25
 40
0.25
 40
0.375
 40
0.375
 40
0.5
 40
0.5
 40
0.625
 40
0.625
 40
0.75
 40
0.75
 40
0.875
 40
0.875
 40
1.0
 40
1.0
 40
1.0
 40
1.0
 10
289.3923341230149
 20
267.7464527238853
 30
0.0
 10
289.901381314744
 20
267.7028717515319
 30
0.0
 10
290.4144176033863
 20
267.6656905066082
 30
0.0
 10
291.4468414731678
 20
267.6010685642557
 30
0.0
 10
291.9662290436789
 20
267.5736340217823
 30
0.0
 10
293.0097407115945
 20
267.5263054983505
 30
0.0
 10
293.5338609341452
 20
267.5064152308984
 30
0.0
 10
294.5852848262573
 20
267.4726737245923
 30
0.0
 10
295.1125808127787
 20
267.4588261971589
 30
0.0
 10
296.1690399982608
 20
267.4362653289807
 30
0.0
 10
296.6981939222979
 20
267.4275579837197
 30
0.0
 10
297.7575554121147
 20
267.4148320570789
 30
0.0
 10
298.2877567560371
 20
267.4108226688803
 30
0.0
 10
299.3491540692792
 20
267.407279923015
 30
0.0
 10
299.8803511054201
 20
267.407756924041
 30
0.0
 10
300.9445261455848
 20
267.4129026148476
 30
0.0
 10
301.477512362712
 20
267.4175786017767
 30
0.0
 10
302.0121323775766
 20
267.4240316314465
 30
0.0
  0
SPLINE
  5
1B2
330
1F
100
AcDbEntity
  8
1
100
AcDbSpline
210
0.0
220
0.0
230
1.0
 70
     8
 71
     3
 72
    38
 73
    34
 74
     0
 42
0.000000001
 43
0.0000000001
 40
0.0
 40
0.0
 40
0.0
 40
0.0
 40
0.2499999999999579
 40
0.2499999999999579
 40
0.3749999999999359
 40
0.3749999999999359
 40
0.4999999999999138
 40
0.4999999999999138
 40
0.5624999999999211
 40
0.5624999999999211
 40
0.6249999999999283
 40
0.6249999999999283
 40
0.6874999999999356
 40
0.6874999999999356
 40
0.7499999999999428
 40
0.7499999999999428
 40
0.8124999999999499
 40
0.8124999999999499
 40
0.8437499999999552
 40
0.8437499999999552
 40
0.8749999999999603
 40
0.8749999999999603
 40
0.9062499999999655
 40
0.9062499999999655
 40
0.9218749999999708
 40
0.9218749999999708
 40
0.937499999999976
 40
0.937499999999976
 40
0.9531249999999811
 40
0.9531249999999811
 40
0.9687499999999864
 40
0.9687499999999864
 40
1.0
 40
1.0
 40
1.0
 40
1.0
 10
452.2478341098699
 20
300.9094751530279
 30
0.0
 10
452.1486210342058
 20
300.9693528038974
 30
0.0
 10
452.0531666908826
 20
301.0339872997487
 30
0.0
 10
451.9163303475646
 20
301.139084933184
 30
0.0
 10
451.8717876760525
 20
301.1754896796705
 30
0.0
 10
451.7852165462324
 20
301.2515299790073
 30
0.0
 10
451.7431777695455
 20
301.2911527162655
 30
0.0
 10
451.6825634299479
 20
301.3537179303008
 30
0.0
 10
451.6627490513014
 20
301.3751227550189
 30
0.0
 10
451.6242061153481
 20
301.4190987715792
 30
0.0
 10
451.6055358324661
 20
301.4415984395703
 30
0.0
 10
451.569679008963
 20
301.4878548462233
 30
0.0
 10
451.5524575145238
 20
301.5116547823353
 30
0.0
 10
451.5201090156543
 20
301.5606778348602
 30
0.0
 10
451.5050178622653
 20
301.5858211969314
 30
0.0
 10
451.4778499671208
 20
301.6378537563023
 30
0.0
 10
451.4657385424126
 20
301.6647233344482
 30
0.0
 10
451.4511551005431
 20
301.7070874138926
 30
0.0
 10
451.4469304468961
 20
301.7214961407211
 30
0.0
 10
451.4402378246334
 20
301.7507219551955
 30
0.0
 10
451.4377437954313
 20
301.7656426492428
 30
0.0
 10
451.4351491787745
 20
301.795868192408
 30
0.0
 10
451.4350564513721
 20
301.8109858985398
 30
0.0
 10
451.4372802636261
 20
301.8336693357918
 30
0.0
 10
451.438417953273
 20
301.841231626261
 30
0.0
 10
451.4416263121772
 20
301.8563583814745
 30
0.0
 10
451.4436988589783
 20
301.8638889917135
 30
0.0
 10
451.4487535263787
 20
301.8784970332454
 30
0.0
 10
451.4517453562143
 20
301.8856263823831
 30
0.0
 10
451.4587118829805
 20
301.8995151779789
 30
0.0
 10
451.4627243363632
 20
301.9063253988235
 30
0.0
 10
451.476012881405
 20
301.9257212149924
 30
0.0
 10
451.4864793186838
 20
301.9372732824642
 30
0.0
 10
451.4983547326895
 20
301.9476170104706
 30
0.0
  0
SPLINE
  5
1B3
330
1F
100
AcDbEntity
  8
1
100
AcDbSpline
210
0.0
220
0.0
230
1.0
 70
     8
 71
     3
 72
    10
 73
     6
 74
     0
 42
0.000000001
 43
0.0000000001
 40
0.0
 40
0.0
 40
0.0
 40
0.0
 40
0.5
 40
0.5
 40
1.0
 40
1.0
 40
1.0
 40
1.0
 10
453.9432876800852
 20
299.8823043738092
 30
0.0
 10
454.2521334139171
 20
299.6590015638552
 30
0.0
 10
454.5565016822433
 20
299.4367008854044
 30
0.0
 10
455.1559382696685
 20
298.9941810123448
 30
0.0
 10
455.4510089398961
 20
298.7739612915138
 30
0.0
 10
455.7411874826036
 20
298.5548365104656
 30
0.0
  0
SPLINE
  5
1B4
330
1F
100
AcDbEntity
  8
1
100
AcDbSpline
210
0.0
220
0.0
230
1.0
 70
     8
 71
     3
 72
    32
 73
    28
 74
     0
 42
0.000000001
 43
0.0000000001
 40
0.0
 40
0.0
 40
0.0
 40
0.0
 40
0.0173459870713147
 40
0.0173459870713147
 40
0.0600700745899529
 40
0.0600700745899529
 40
0.1455182496272301
 40
0.1455182496272301
 40
0.230966424664507
 40
0.230966424664507
 40
0.3164145997017839
 40
0.3164145997017839
 40
0.4018627747390611
 40
0.4018627747390611
 40
0.4873109497763379
 40
0.4873109497763379
 40
0.5727591248136151
 40
0.5727591248136151
 40
0.6582072998508919
 40
0.6582072998508919
 40
0.7436554748881691
 40
0.7436554748881691
 40
0.829103649925446
 40
0.829103649925446
 40
0.9145518249627231
 40
0.9145518249627231
 40
1.0
 40
1.0
 40
1.0
 40
1.0
 10
363.2841818184855
 20
272.1020045933772
 30
0.0
 10
363.0258663090644
 20
272.0666659084515
 30
0.0
 10
362.7675339147423
 20
272.031587955718
 30
0.0
 10
361.8728529907528
 20
271.911013044771
 30
0.0
 10
361.2364112125354
 20
271.8268403238653
 30
0.0
 10
359.3268840361293
 20
271.5786093357452
 30
0.0
 10
358.053598036401
 20
271.4188198298459
 30
0.0
 10
355.5071941277884
 20
271.108526287229
 30
0.0
 10
354.2340773088314
 20
270.958021468473
 30
0.0
 10
351.6886816282705
 20
270.6647399511591
 30
0.0
 10
350.4164036683373
 20
270.5219630658124
 30
0.0
 10
347.8732891529892
 20
270.2431501423849
 30
0.0
 10
346.6024533129291
 20
270.1071145047804
 30
0.0
 10
344.0627358206778
 20
269.8413636554856
 30
0.0
 10
342.7938547019005
 20
269.7116494294935
 30
0.0
 10
340.2584500584056
 20
269.4586670278336
 30
0.0
 10
338.9919268902922
 20
269.3354004094779
 30
0.0
 10
336.4615188475038
 20
269.0959466739935
 30
0.0
 10
335.1976341584556
 20
268.979761646579
 30
0.0
 10
332.6726529569571
 20
268.7555574803616
 30
0.0
 10
331.4115564666075
 20
268.6475408914423
 30
0.0
 10
328.8921676450839
 20
268.4411430153477
 30
0.0
 10
327.6338751826572
 20
268.3427646333303
 30
0.0
 10
325.1199781793617
 20
268.1574133440506
 30
0.0
 10
323.8643733674104
 20
268.070443566804
 30
0.0
 10
321.3556092986839
 20
267.9098893617968
 30
0.0
 10
320.1024496476731
 20
267.8363081441701
 30
0.0
 10
318.8503335505948
 20
267.7704665508522
 30
0.0
  0
SPLINE
  5
1B5
330
1F
100
AcDbEntity
  8
1
100
AcDbSpline
210
0.0
220
0.0
230
1.0
 70
     8
 71
     3
 72
    32
 73
    28
 74
     0
 42
0.000000001
 43
0.0000000001
 40
0.0
 40
0.0
 40
0.0
 40
0.0
 40
0.1429337147307838
 40
0.1429337147307838
 40
0.2144005720961759
 40
0.2144005720961759
 40
0.2858674294615681
 40
0.2858674294615681
 40
0.3573342868269603
 40
0.3573342868269603
 40
0.4288011441923524
 40
0.4288011441923524
 40
0.5002680015577445
 40
0.5002680015577445
 40
0.5717348589231368
 40
0.5717348589231368
 40
0.6432017162885289
 40
0.6432017162885289
 40
0.7146685736539209
 40
0.7146685736539209
 40
0.7861354310193132
 40
0.7861354310193132
 40
0.8576022883847052
 40
0.8576022883847052
 40
0.9290691457500972
 40
0.9290691457500972
 40
1.0
 40
1.0
 40
1.0
 40
1.0
 10
318.8503335505949
 20
267.77046655085
 30
0.0
 10
320.5535705152677
 20
268.0568905036483
 30
0.0
 10
322.2606052851423
 20
268.3511678580471
 30
0.0
 10
324.8282302268831
 20
268.7950637161522
 30
0.0
 10
325.6852795431404
 20
268.9434378337464
 30
0.0
 10
327.4018915898768
 20
269.2394577576594
 30
0.0
 10
328.261454609007
 20
269.3871015251717
 30
0.0
 10
329.9832052968343
 20
269.6801799678653
 30
0.0
 10
330.8453932343163
 20
269.8256121816002
 30
0.0
 10
332.5724424420583
 20
270.1129228479388
 30
0.0
 10
333.4373039213934
 20
270.2547985756449
 30
0.0
 10
335.1696790097766
 20
270.5338662637745
 30
0.0
 10
336.0371927211265
 20
270.6710555303567
 30
0.0
 10
337.7747763270946
 20
270.9399175160241
 30
0.0
 10
338.6448461736015
 20
271.0715879756239
 30
0.0
 10
340.3873703877132
 20
271.328952739978
 30
0.0
 10
341.2596214115672
 20
271.4546153475886
 30
0.0
 10
343.0055991200616
 20
271.69984808609
 30
0.0
 10
343.8793771781068
 20
271.8194257596866
 30
0.0
 10
345.6282894274071
 20
272.0529498840381
 30
0.0
 10
346.5034232382357
 20
272.1668974366949
 30
0.0
 10
348.254786508823
 20
272.3900452445684
 30
0.0
 10
349.131015538399
 20
272.4992476053154
 30
0.0
 10
350.8842834735647
 20
272.7141777790061
 30
0.0
 10
351.7613219505491
 20
272.8199083017547
 30
0.0
 10
353.509331068001
 20
273.0286965583214
 30
0.0
 10
354.380297503156
 20
273.131771203082
 30
0.0
 10
355.2513704682669
 20
273.2348049001682
 30
0.0
  0
SPLINE
  5
1B6
330
1F
100
AcDbEntity
  8
1
100
AcDbSpline
210
0.0
220
0.0
230
1.0
 70
     8
 71
     3
 72
    39
 73
    35
 74
     0
 42
0.000000001
 43
0.0000000001
 40
0.0
 40
0.0
 40
0.0
 40
0.0
 40
0.0625
 40
0.0625
 40
0.125
 40
0.125
 40
0.1875000000000001
 40
0.1875000000000001
 40
0.2500000000000001
 40
0.2500000000000001
 40
0.375
 40
0.375
 40
0.4374999999999998
 40
0.4374999999999998
 40
0.4687499999999994
 40
0.4687499999999994
 40
0.4999999999999992
 40
0.4999999999999992
 40
0.6249999999999992
 40
0.6249999999999992
 40
0.6874999999999995
 40
0.6874999999999995
 40
0.7499999999999997
 40
0.7499999999999997
 40
0.8125
 40
0.8125
 40
0.8437500000000001
 40
0.8593750000000003
 40
0.8593750000000003
 40
0.8750000000000005
 40
0.8750000000000005
 40
0.9375000000000003
 40
0.9375000000000003
 40
1.0
 40
1.0
 40
1.0
 40
1.0
 10
279.4048419453063
 20
275.9425567899613
 30
0.0
 10
279.5479726602129
 20
276.1722047279854
 30
0.0
 10
279.6955119419206
 20
276.3975280923599
 30
0.0
 10
279.999121095745
 20
276.8399484513711
 30
0.0
 10
280.1551922670316
 20
277.0570438185307
 30
0.0
 10
280.4757177780482
 20
277.4832713511263
 30
0.0
 10
280.6401728015369
 20
277.6924026064733
 30
0.0
 10
280.9774247680465
 20
278.1028474832554
 30
0.0
 10
281.1502220111799
 20
278.3041606333788
 30
0.0
 10
281.6812030122329
 20
278.8964452819113
 30
0.0
 10
282.0519308281236
 20
279.2758052025861
 30
0.0
 10
282.6342357153928
 20
279.8210938589651
 30
0.0
 10
282.8327171825613
 20
279.9988875083259
 30
0.0
 10
283.1372570866569
 20
280.2594574199976
 30
0.0
 10
283.2399075004436
 20
280.3452932044672
 30
0.0
 10
283.4475347002974
 20
280.5148854972149
 30
0.0
 10
283.5525380768042
 20
280.5986627441718
 30
0.0
 10
284.083248064252
 20
281.0120258809745
 30
0.0
 10
284.5204082295347
 20
281.320791731083
 30
0.0
 10
285.1958537781933
 20
281.750183442578
 30
0.0
 10
285.4242953399252
 20
281.8876718800433
 30
0.0
 10
285.8880230585045
 20
282.1510029090613
 30
0.0
 10
286.1233085104124
 20
282.2768466510207
 30
0.0
 10
286.601083528793
 20
282.5163514241031
 30
0.0
 10
286.8435720477013
 20
282.6300141991961
 30
0.0
 10
287.2130733790843
 20
282.7908041448003
 30
0.0
 10
287.3992678256497
 20
282.8687702505227
 30
0.0
 10
287.5877137100709
 20
282.9429572651529
 30
0.0
 10
287.7138555064716
 20
282.991558074169
 30
0.0
 10
287.7772216801535
 20
283.0154443369877
 30
0.0
 10
288.0947071436322
 20
283.1324500080551
 30
0.0
 10
288.3509272744798
 20
283.2183698089621
 30
0.0
 10
288.8680457337838
 20
283.3740546933682
 30
0.0
 10
289.1289433571667
 20
283.4438221463937
 30
0.0
 10
289.3923341230359
 20
283.5049647739936
 30
0.0
  0
SPLINE
  5
1B7
330
1F
100
AcDbEntity
  8
1
100
AcDbSpline
210
0.0
220
0.0
230
1.0
 70
     8
 71
     3
 72
    18
 73
    14
 74
     0
 42
0.000000001
 43
0.0000000001
 40
0.0
 40
0.0
 40
0.0
 40
0.0
 40
0.1249999999999992
 40
0.1249999999999992
 40
0.2499999999999984
 40
0.2499999999999984
 40
0.499999999999999
 40
0.499999999999999
 40
0.6249999999999992
 40
0.6249999999999992
 40
0.7499999999999995
 40
0.7499999999999995
 40
1.0
 40
1.0
 40
1.0
 40
1.0
 10
465.3168779056946
 20
297.3500266217299
 30
0.0
 10
465.2776454695576
 20
297.3240491383944
 30
0.0
 10
465.2379685184901
 20
297.2993014277946
 30
0.0
 10
465.1576916256947
 20
297.2521570301436
 30
0.0
 10
465.1170919818831
 20
297.2297607657509
 30
0.0
 10
464.9938566174407
 20
297.1660066652983
 30
0.0
 10
464.9097921646473
 20
297.1280668059318
 30
0.0
 10
464.7805310073046
 20
297.0779599213166
 30
0.0
 10
464.7368259454275
 20
297.0623682614952
 30
0.0
 10
464.6487913491366
 20
297.0336678557822
 30
0.0
 10
464.6044744766881
 20
297.0205560685191
 30
0.0
 10
464.4704959576398
 20
296.9849277542147
 30
0.0
 10
464.3798127657781
 20
296.9660941064838
 30
0.0
 10
464.2873294596843
 20
296.9524370506459
 30
0.0
  0
SPLINE
  5
1B8
330
1F
100
AcDbEntity
  8
1
100
AcDbSpline
210
0.0
220
0.0
230
1.0
 70
     8
 71
     3
 72
    28
 73
    24
 74
     0
 42
0.000000001
 43
0.0000000001
 40
0.0
 40
0.0
 40
0.0
 40
0.0
 40
0.1249999999999978
 40
0.2499999999999956
 40
0.3749999999999933
 40
0.3749999999999933
 40
0.4062499999999973
 40
0.4062499999999973
 40
0.4375000000000013
 40
0.4375000000000013
 40
0.5000000000000093
 40
0.5000000000000093
 40
0.6250000000000162
 40
0.6250000000000162
 40
0.6875000000000153
 40
0.6875000000000153
 40
0.7187500000000105
 40
0.7187500000000105
 40
0.7500000000000055
 40
0.7500000000000055
 40
0.8750000000000028
 40
0.8750000000000028
 40
1.0
 40
1.0
 40
1.0
 40
1.0
 10
464.2852100574808
 20
296.7866358764238
 30
0.0
 10
463.9118554186151
 20
296.773540371442
 30
0.0
 10
463.1672622839999
 20
296.7731167458745
 30
0.0
 10
462.0566103832721
 20
296.8484043843218
 30
0.0
 10
461.320322146768
 20
296.9490303414883
 30
0.0
 10
460.8614527787365
 20
297.0278504176572
 30
0.0
 10
460.7697445202506
 20
297.0444117785773
 30
0.0
 10
460.5864599172727
 20
297.0791370469591
 30
0.0
 10
460.4949310044992
 20
297.0972929366033
 30
0.0
 10
460.2211720440483
 20
297.1540372624193
 30
0.0
 10
460.0395806577082
 20
297.1949369386814
 30
0.0
 10
459.4975333322689
 20
297.3267811421134
 30
0.0
 10
459.1398009195156
 20
297.426860252957
 30
0.0
 10
458.6086436529968
 20
297.5951873569609
 30
0.0
 10
458.4324989507708
 20
297.6543337926361
 30
0.0
 10
458.1696500710216
 20
297.7476252239982
 30
0.0
 10
458.0822206828935
 20
297.7795002993756
 30
0.0
 10
457.9081045809892
 20
297.8446711819625
 30
0.0
 10
457.8214030995381
 20
297.8779713207463
 30
0.0
 10
457.3896713289103
 20
298.0480276844616
 30
0.0
 10
457.0499614104139
 20
298.1954388846474
 30
0.0
 10
456.3818137333561
 20
298.5127336812599
 30
0.0
 10
456.0533759542441
 20
298.6826177809401
 30
0.0
 10
455.7306180386252
 20
298.8637575179418
 30
0.0
  0
SPLINE
  5
1B9
330
1F
100
AcDbEntity
  8
1
100
AcDbSpline
210
0.0
220
0.0
230
1.0
 70
     8
 71
     3
 72
    19
 73
    15
 74
     0
 42
0.000000001
 43
0.0000000001
 40
0.0
 40
0.0
 40
0.0
 40
0.0
 40
0.2500000000000428
 40
0.2500000000000428
 40
0.2812500000000382
 40
0.2812500000000382
 40
0.3125000000000336
 40
0.3125000000000336
 40
0.3750000000000245
 40
0.5000000000000197
 40
0.5000000000000197
 40
0.7500000000000098
 40
0.7500000000000098
 40
1.0
 40
1.0
 40
1.0
 40
1.0
 10
458.5009405329901
 20
293.4029947958941
 30
0.0
 10
458.9730665761703
 20
293.2204067902727
 30
0.0
 10
459.4539597510586
 20
293.062117820605
 30
0.0
 10
460.0048042159336
 20
292.9117000211594
 30
0.0
 10
460.0661461731847
 20
292.8953719292892
 30
0.0
 10
460.1891046593921
 20
292.8634883777161
 30
0.0
 10
460.250750246703
 20
292.8479260063619
 30
0.0
 10
460.4357765793631
 20
292.8024803972046
 30
0.0
 10
460.8063568685109
 20
292.7165071249401
 30
0.0
 10
461.1785010244966
 20
292.6451424688778
 30
0.0
 10
461.9248413986956
 20
292.521649704837
 30
0.0
 10
462.4251317989016
 20
292.4649201398279
 30
0.0
 10
463.431141835053
 20
292.4025836463833
 30
0.0
 10
463.9368609248155
 20
292.3969716054766
 30
0.0
 10
464.4453772835082
 20
292.4177096890337
 30
0.0
  0
SPLINE
  5
1BA
330
1F
100
AcDbEntity
  8
1
100
AcDbSpline
210
0.0
220
0.0
230
1.0
 70
     8
 71
     3
 72
     8
 73
     4
 74
     0
 42
0.000000001
 43
0.0000000001
 40
0.0
 40
0.0
 40
0.0
 40
0.0
 40
1.0
 40
1.0
 40
1.0
 40
1.0
 10
464.2852100574808
 20
296.7866358764238
 30
0.0
 10
464.2887679856975
 20
296.7867606716234
 30
0.0
 10
464.2923265577957
 20
296.7868851499968
 30
0.0
 10
464.295885774469
 20
296.7870093112029
 30
0.0
  0
SPLINE
  5
1BB
330
1F
100
AcDbEntity
  8
1
100
AcDbSpline
210
0.0
220
0.0
230
1.0
 70
     8
 71
     3
 72
     8
 73
     4
 74
     0
 42
0.000000001
 43
0.0000000001
 40
0.0
 40
0.0
 40
0.0
 40
0.0
 40
1.0
 40
1.0
 40
1.0
 40
1.0
 10
459.529841945296
 20
293.149176384057
 30
0.0
 10
459.1815341291018
 20
293.2234720345322
 30
0.0
 10
458.8387716269581
 20
293.308001351669
 30
0.0
 10
458.5009405329901
 20
293.4029947958941
 30
0.0
  0
SPLINE
  5
1BC
330
1F
100
AcDbEntity
  8
1
100
AcDbSpline
210
0.0
220
0.0
230
1.0
 70
     8
 71
     3
 72
    26
 73
    22
 74
     0
 42
0.000000001
 43
0.0000000001
 40
0.0
 40
0.0
 40
0.0
 40
0.0
 40
0.1250000000000447
 40
0.1250000000000447
 40
0.2500000000000893
 40
0.2500000000000893
 40
0.312500000000089
 40
0.312500000000089
 40
0.3750000000000887
 40
0.3750000000000887
 40
0.500000000000088
 40
0.500000000000088
 40
0.6250000000000872
 40
0.6250000000000872
 40
0.7500000000000865
 40
0.7500000000000865
 40
0.8125000000000648
 40
0.8125000000000648
 40
0.8750000000000431
 40
0.8750000000000431
 40
1.0
 40
1.0
 40
1.0
 40
1.0
 10
464.2873294596846
 20
296.9524370506459
 30
0.0
 10
464.2116616332256
 20
296.9412631450543
 30
0.0
 10
464.135983279577
 20
296.9337223773318
 30
0.0
 10
463.9846338072563
 20
296.925823345996
 30
0.0
 10
463.9089629764267
 20
296.9254661705448
 30
0.0
 10
463.7954597400947
 20
296.9303245264505
 30
0.0
 10
463.7576255444777
 20
296.9328435811402
 30
0.0
 10
463.6819541165943
 20
296.9396904338902
 30
0.0
 10
463.6440121174252
 20
296.9440353577043
 30
0.0
 10
463.5313081181253
 20
296.95963619919
 30
0.0
 10
463.4574629689533
 20
296.9734433502325
 30
0.0
 10
463.3118639201408
 20
297.0075227398092
 30
0.0
 10
463.2401103799038
 20
297.0277963393197
 30
0.0
 10
463.0983308103057
 20
297.0747516201062
 30
0.0
 10
463.0283066740232
 20
297.1014331112795
 30
0.0
 10
462.9243619330021
 20
297.1464178690145
 30
0.0
 10
462.889865170857
 20
297.1622570732933
 30
0.0
 10
462.821336048877
 20
297.1955838486033
 30
0.0
 10
462.7874878475241
 20
297.2129804259592
 30
0.0
 10
462.6871611752397
 20
297.2673453428378
 30
0.0
 10
462.6218993855873
 20
297.3064840690905
 30
0.0
 10
462.5582003399996
 20
297.348513341729
 30
0.0
  0
SPLINE
  5
1BD
330
1F
100
AcDbEntity
  8
1
100
AcDbSpline
210
0.0
220
0.0
230
1.0
 70
     8
 71
     3
 72
    10
 73
     6
 74
     0
 42
0.000000001
 43
0.0000000001
 40
0.0
 40
0.0
 40
0.0
 40
0.0
 40
0.5
 40
0.5
 40
1.0
 40
1.0
 40
1.0
 40
1.0
 10
453.293836779512
 20
305.0510910027246
 30
0.0
 10
453.3128300564554
 20
305.9301570104404
 30
0.0
 10
453.3299483134317
 20
306.8092582530659
 30
0.0
 10
453.361370254634
 20
308.567513629069
 30
0.0
 10
453.3756696048506
 20
309.4466678438903
 30
0.0
 10
453.3888822350375
 20
310.3258424800846
 30
0.0
  0
SPLINE
  5
1BE
330
1F
100
AcDbEntity
  8
1
100
AcDbSpline
210
0.0
220
0.0
230
1.0
 70
     8
 71
     3
 72
    47
 73
    43
 74
     0
 42
0.000000001
 43
0.0000000001
 40
0.0
 40
0.0
 40
0.0
 40
0.0
 40
0.0579794176554091
 40
0.0579794176554091
 40
0.1159588353108183
 40
0.1159588353108183
 40
0.1739382529662274
 40
0.1739382529662274
 40
0.2319176706216366
 40
0.2319176706216366
 40
0.2464125250354886
 40
0.2464125250354886
 40
0.2609073794493406
 40
0.2609073794493406
 40
0.2898970882770436
 40
0.2898970882770436
 40
0.3478765059324487
 40
0.3478765059324487
 40
0.4058559235878537
 40
0.4058559235878537
 40
0.4348456324155558
 40
0.4348456324155558
 40
0.4638353412432578
 40
0.5218147588986617
 40
0.5218147588986617
 40
0.5797941765540657
 40
0.5797941765540657
 40
0.6957530118648738
 40
0.6957530118648738
 40
0.7537324295202779
 40
0.7537324295202779
 40
0.8117118471756818
 40
0.8117118471756818
 40
0.869691264831086
 40
0.869691264831086
 40
0.8986809736587883
 40
0.8986809736587883
 40
0.9276706824864906
 40
0.9276706824864906
 40
0.9856501001418953
 40
0.9856501001418953
 40
1.0
 40
1.0
 40
1.0
 40
1.0
 10
453.3888822350373
 20
310.3258424800845
 30
0.0
 10
451.9150382865265
 20
310.3660459304077
 30
0.0
 10
450.4353766886024
 20
310.3895997747376
 30
0.0
 10
447.4642950897803
 20
310.4114974690958
 30
0.0
 10
445.972878829176
 20
310.4098568361961
 30
0.0
 10
442.9788803787221
 20
310.3883256713992
 30
0.0
 10
441.4763011234605
 20
310.3684439457995
 30
0.0
 10
438.4611765316913
 20
310.3158572441407
 30
0.0
 10
436.9486337824579
 20
310.2831564592752
 30
0.0
 10
435.0528053590552
 20
310.2365820528855
 30
0.0
 10
434.6733511162635
 20
310.2269770766089
 30
0.0
 10
433.9141377882588
 20
310.2072336293773
 30
0.0
 10
433.5343889762606
 20
310.1970954881911
 30
0.0
 10
432.3947462824171
 20
310.1659323845885
 30
0.0
 10
431.6344555617389
 20
310.1441623130264
 30
0.0
 10
429.352259870614
 20
310.07614346891
 30
0.0
 10
427.829023493911
 20
310.0272420935452
 30
0.0
 10
424.7806178268028
 20
309.9224377074817
 30
0.0
 10
423.2554507303523
 20
309.8665340099092
 30
0.0
 10
420.9676320044636
 20
309.7761700896558
 30
0.0
 10
420.2050340837256
 20
309.744922573051
 30
0.0
 10
418.6799127866183
 20
309.6800785526058
 30
0.0
 10
416.3923180541626
 20
309.5793210479678
 30
0.0
 10
414.1049992792225
 20
309.4679764347542
 30
0.0
 10
411.055515923944
 20
309.30984138601
 30
0.0
 10
409.5308556588146
 20
309.2259314235778
 30
0.0
 10
404.9577777430708
 20
308.9592558366863
 30
0.0
 10
401.9103518382328
 20
308.7615534121294
 30
0.0
 10
397.341152167528
 20
308.433259736368
 30
0.0
 10
395.8184063162077
 20
308.3185398003741
 30
0.0
 10
392.7735609854155
 20
308.0781409485043
 30
0.0
 10
391.2514599438845
 20
307.9524677406965
 30
0.0
 10
388.2079555727111
 20
307.6896005485323
 30
0.0
 10
386.6865501779042
 20
307.5524159312354
 30
0.0
 10
384.4050811170328
 20
307.3372704296415
 30
0.0
 10
383.6446759041968
 20
307.2639873942839
 30
0.0
 10
382.1243275464756
 20
307.1141224606581
 30
0.0
 10
381.3643709610872
 20
307.0375223003571
 30
0.0
 10
379.0851393002119
 20
306.8026388913944
 30
0.0
 10
377.5664988550628
 20
306.6392784373388
 30
0.0
 10
375.6729115192398
 20
306.4270636724231
 30
0.0
 10
375.2972751657501
 20
306.3845466161638
 30
0.0
 10
374.9216811044896
 20
306.3416200741848
 30
0.0
  0
SPLINE
  5
1BF
330
1F
100
AcDbEntity
  8
1
100
AcDbSpline
210
0.0
220
0.0
230
1.0
 70
    28
 71
     4
 72
    13
 73
     8
 74
     0
 42
0.000000001
 43
0.0000000001
 40
0.0
 40
0.0
 40
0.0
 40
0.0
 40
0.0
 40
0.2623590226977514
 40
0.2623590226977514
 40
0.2623590226977514
 40
1.0
 40
1.0
 40
1.0
 40
1.0
 40
1.0
 10
304.9048419452959
 20
281.6923438177988
 30
0.0
 41
1.000700500287357
 10
304.9048419452957
 20
280.8978536828993
 30
0.0
 41
0.9977840936443744
 10
304.9048419452957
 20
280.0283575358419
 30
0.0
 41
0.9941908711295392
 10
304.9048419452959
 20
279.0978605801631
 30
0.0
 41
0.9909029830102712
 10
304.9048419452957
 20
275.3659578286455
 30
0.0
 41
0.9812442188024784
 10
304.9048419452957
 20
272.3179573385903
 30
0.0
 41
0.9800784463527586
 10
304.9048419452957
 20
269.5510313752433
 30
0.0
 41
0.9948394093276318
 10
304.9048419452957
 20
267.4458358177988
 30
0.0
 41
1.002147577877098
  0
SPLINE
  5
1C0
330
1F
100
AcDbEntity
  8
1
100
AcDbSpline
210
0.0
220
0.0
230
1.0
 70
     8
 71
     3
 72
    70
 73
    66
 74
     0
 42
0.000000001
 43
0.0000000001
 40
0.0
 40
0.0
 40
0.0
 40
0.0
 40
0.0312499999999998
 40
0.0312499999999998
 40
0.0624999999999996
 40
0.0624999999999996
 40
0.0937499999999995
 40
0.0937499999999995
 40
0.1249999999999993
 40
0.1249999999999993
 40
0.1562499999999991
 40
0.1562499999999991
 40
0.171874999999999
 40
0.171874999999999
 40
0.1874999999999989
 40
0.1874999999999989
 40
0.2187499999999987
 40
0.2187499999999987
 40
0.2499999999999986
 40
0.2499999999999986
 40
0.2812499999999984
 40
0.2812499999999984
 40
0.3124999999999982
 40
0.3124999999999982
 40
0.343749999999998
 40
0.343749999999998
 40
0.3749999999999978
 40
0.3749999999999978
 40
0.4062499999999977
 40
0.4062499999999977
 40
0.4218749999999975
 40
0.4218749999999975
 40
0.4374999999999973
 40
0.4374999999999973
 40
0.4687499999999969
 40
0.4687499999999969
 40
0.4999999999999968
 40
0.4999999999999968
 40
0.5312499999999966
 40
0.5312499999999966
 40
0.5468749999999966
 40
0.5468749999999966
 40
0.5624999999999965
 40
0.5624999999999965
 40
0.5937499999999966
 40
0.5937499999999966
 40
0.6249999999999967
 40
0.6249999999999967
 40
0.6562499999999969
 40
0.6562499999999969
 40
0.687499999999997
 40
0.687499999999997
 40
0.7499999999999973
 40
0.7499999999999973
 40
0.8124999999999975
 40
0.8124999999999975
 40
0.8437499999999975
 40
0.8437499999999975
 40
0.8749999999999976
 40
0.8749999999999976
 40
0.9374999999999985
 40
0.9374999999999985
 40
0.9687499999999992
 40
0.9687499999999992
 40
1.0
 40
1.0
 40
1.0
 40
1.0
 10
307.7765831682105
 20
280.7796507109969
 30
0.0
 10
309.1705034818547
 20
280.5200381541007
 30
0.0
 10
310.5649773785525
 20
280.2656887152653
 30
0.0
 10
313.3548657076757
 20
279.7663779256217
 30
0.0
 10
314.7502798687232
 20
279.521415228908
 30
0.0
 10
317.5418584122129
 20
279.03972507593
 30
0.0
 10
318.9380225280669
 20
278.8029963619539
 30
0.0
 10
321.7308956146495
 20
278.336648572207
 30
0.0
 10
323.1276043266115
 20
278.1070283295431
 30
0.0
 10
325.9213540749862
 20
277.6538354890139
 30
0.0
 10
327.3183948596537
 20
277.4302618035236
 30
0.0
 10
329.4140462477207
 20
277.0987135423163
 30
0.0
 10
330.1126117728818
 20
276.9888336949459
 30
0.0
 10
331.5097471478635
 20
276.7702378270765
 30
0.0
 10
332.2083457063976
 20
276.6615173376912
 30
0.0
 10
334.3038800829603
 20
276.336987642244
 30
0.0
 10
335.7005024948273
 20
276.1228123702494
 30
0.0
 10
338.4927309059406
 20
275.6981418792968
 30
0.0
 10
339.8883366089243
 20
275.4876457370413
 30
0.0
 10
342.6783266998908
 20
275.0698473807096
 30
0.0
 10
344.0727107636595
 20
274.8625442723705
 30
0.0
 10
346.8600729970638
 20
274.4508645790082
 30
0.0
 10
348.2530508050313
 20
274.2464871464545
 30
0.0
 10
351.0374465230011
 20
273.8406363389434
 30
0.0
 10
352.4288640262838
 20
273.6391622072931
 30
0.0
 10
355.2100272053729
 20
273.2393647417525
 30
0.0
 10
356.5997724259213
 20
273.0410408202127
 30
0.0
 10
359.3775341058969
 20
272.6480802307602
 30
0.0
 10
360.7655500650397
 20
272.4534432636297
 30
0.0
 10
362.8462867463797
 20
272.1648832432204
 30
0.0
 10
363.5396381012529
 20
272.0692248870826
 30
0.0
 10
364.9260241171627
 20
271.8794804220946
 30
0.0
 10
365.6190671689332
 20
271.7854200000945
 30
0.0
 10
367.6980174225779
 20
271.5065621546635
 30
0.0
 10
369.0837560186517
 20
271.3251392099469
 30
0.0
 10
371.8559883175397
 20
270.9747310125441
 30
0.0
 10
373.2424817524318
 20
270.8057365468669
 30
0.0
 10
376.0171101137896
 20
270.4821258864111
 30
0.0
 10
377.4052423335822
 20
270.3274951811486
 30
0.0
 10
379.4891222848821
 20
270.1069146268812
 30
0.0
 10
380.1840272398017
 20
270.0352743665562
 30
0.0
 10
381.5744521236633
 20
269.8957972217972
 30
0.0
 10
382.2699775056175
 20
269.8279725262443
 30
0.0
 10
384.3575105582447
 20
269.6301058266505
 30
0.0
 10
385.7505607354418
 20
269.5055508075721
 30
0.0
 10
388.5375201519948
 20
269.2697504296057
 30
0.0
 10
389.9315668518284
 20
269.1585040059002
 30
0.0
 10
392.7207414224258
 20
268.9483673302409
 30
0.0
 10
394.1158715700022
 20
268.8494857652606
 30
0.0
 10
396.9072635487832
 20
268.6634327323083
 30
0.0
 10
398.303527117485
 20
268.5762661364216
 30
0.0
 10
402.494147017312
 20
268.331480308386
 30
0.0
 10
405.2903517561214
 20
268.1906055063682
 30
0.0
 10
410.8881979289174
 20
267.9485699195589
 30
0.0
 10
413.6898393702065
 20
267.8473812427771
 30
0.0
 10
417.896344522915
 20
267.7213391770942
 30
0.0
 10
419.2991819806625
 20
267.6836152593758
 30
0.0
 10
422.1061690230428
 20
267.6161277436877
 30
0.0
 10
423.5103223325489
 20
267.586360868051
 30
0.0
 10
427.7235085336239
 20
267.5079924305302
 30
0.0
 10
430.5336077433194
 20
267.4702438401171
 30
0.0
 10
434.7497222770031
 20
267.4327484005653
 30
0.0
 10
436.1552529577124
 20
267.4234562246376
 30
0.0
 10
438.9664381851948
 20
267.4110790320159
 30
0.0
 10
440.3720924358526
 20
267.4079935137005
 30
0.0
 10
441.7777025825873
 20
267.4079935137005
 30
0.0
  0
SPLINE
  5
1C1
330
1F
100
AcDbEntity
  8
1
100
AcDbSpline
210
0.0
220
0.0
230
1.0
 70
     8
 71
     3
 72
    76
 73
    72
 74
     0
 42
0.000000001
 43
0.0000000001
 40
0.0
 40
0.0
 40
0.0
 40
0.0
 40
0.0231759387756915
 40
0.0231759387756915
 40
0.0546863923635728
 40
0.0546863923635728
 40
0.0861968459514541
 40
0.0861968459514541
 40
0.1177072995393354
 40
0.1177072995393354
 40
0.1492177531272167
 40
0.1492177531272167
 40
0.180728206715098
 40
0.180728206715098
 40
0.2437491138908607
 40
0.2437491138908607
 40
0.2752595674787419
 40
0.2752595674787419
 40
0.3067700210666231
 40
0.3067700210666231
 40
0.3697909282423852
 40
0.3697909282423852
 40
0.4013013818302662
 40
0.4013013818302662
 40
0.4328118354181471
 40
0.4328118354181471
 40
0.464322289006028
 40
0.464322289006028
 40
0.4958327425939089
 40
0.4958327425939089
 40
0.5273431961817899
 40
0.5273431961817899
 40
0.558853649769671
 40
0.558853649769671
 40
0.5903641033575519
 40
0.5903641033575519
 40
0.6218745569454329
 40
0.6218745569454329
 40
0.6533850105333138
 40
0.6533850105333138
 40
0.6848954641211949
 40
0.6848954641211949
 40
0.7164059177090758
 40
0.7164059177090758
 40
0.7479163712969567
 40
0.7479163712969567
 40
0.7636715980908969
 40
0.7636715980908969
 40
0.7794268248848372
 40
0.7794268248848372
 40
0.7951820516787774
 40
0.7951820516787774
 40
0.8109372784727176
 40
0.8109372784727176
 40
0.8266925052666579
 40
0.8266925052666579
 40
0.842447732060598
 40
0.842447732060598
 40
0.8582029588545381
 40
0.8582029588545381
 40
0.8739581856484782
 40
0.8739581856484782
 40
0.8897134124424185
 40
0.8897134124424185
 40
0.9054686392363587
 40
0.9054686392363587
 40
0.9369790928242391
 40
0.9369790928242391
 40
0.9684895464121195
 40
0.9684895464121195
 40
1.0
 40
1.0
 40
1.0
 40
1.0
 10
306.1747575870592
 20
310.4079940920099
 30
0.0
 10
307.3518317124467
 20
310.4079927391729
 30
0.0
 10
308.528853126492
 20
310.4044283145367
 30
0.0
 10
311.3060249129902
 20
310.3876016247592
 30
0.0
 10
312.9061214382983
 20
310.3713107724202
 30
0.0
 10
316.106079457055
 20
310.3254329719498
 30
0.0
 10
317.7059412294783
 20
310.2958444596414
 30
0.0
 10
320.9054777366778
 20
310.2232287987911
 30
0.0
 10
322.5051526835794
 20
310.180200391426
 30
0.0
 10
325.7044031376581
 20
310.0805712330633
 30
0.0
 10
327.3040031265211
 20
310.0239676673896
 30
0.0
 10
330.5025755951877
 20
309.897126700203
 30
0.0
 10
332.1016273226744
 20
309.8268862373536
 30
0.0
 10
336.8983009346302
 20
309.5957005629687
 30
0.0
 10
340.0954300620412
 20
309.4142298533014
 30
0.0
 10
344.891267627961
 20
309.1019195026261
 30
0.0
 10
346.4899829694144
 20
308.9911408587291
 30
0.0
 10
349.6873027350984
 20
308.756615929709
 30
0.0
 10
351.2858444050058
 20
308.63287502856
 30
0.0
 10
356.0814586836332
 20
308.2429522103615
 30
0.0
 10
359.2785221775188
 20
307.9580145760707
 30
0.0
 10
364.0755135251958
 20
307.4971818807686
 30
0.0
 10
365.6747654855195
 20
307.3380933453928
 30
0.0
 10
368.8733045958689
 20
307.007784206705
 30
0.0
 10
370.4724794511986
 20
306.8365565871529
 30
0.0
 10
373.6700503231442
 20
306.4813144359799
 30
0.0
 10
375.2685095253946
 20
306.2972906589357
 30
0.0
 10
378.4648709868267
 20
305.9164550539065
 30
0.0
 10
380.0627758211872
 20
305.719644857666
 30
0.0
 10
383.2583414273823
 20
305.3139779433429
 30
0.0
 10
384.8560006790306
 20
305.1051059243186
 30
0.0
 10
388.0517293175653
 20
304.6774158530039
 30
0.0
 10
389.6498753921837
 20
304.4585975089605
 30
0.0
 10
392.8463623922807
 20
304.0127246336349
 30
0.0
 10
394.4447530469114
 20
303.785662810913
 30
0.0
 10
397.6420399451255
 20
303.3243079467169
 30
0.0
 10
399.2409349218907
 20
303.0900138931003
 30
0.0
 10
402.4392840809758
 20
302.6146529419918
 30
0.0
 10
404.0387374226274
 20
302.3735856538219
 30
0.0
 10
407.2381342826879
 20
301.8846009331605
 30
0.0
 10
408.8381060551312
 20
301.6366798028217
 30
0.0
 10
412.0382459485593
 20
301.1333893906812
 30
0.0
 10
413.638233732613
 20
300.8780512402584
 30
0.0
 10
416.8377687260289
 20
300.3587855196756
 30
0.0
 10
418.4373167418857
 20
300.0948637406163
 30
0.0
 10
420.8360099191036
 20
299.6911098741506
 30
0.0
 10
421.6354662699328
 20
299.555197494606
 30
0.0
 10
423.2341162618025
 20
299.2804708424895
 30
0.0
 10
424.0333107682306
 20
299.1416600555576
 30
0.0
 10
425.6314316681753
 20
298.861063884677
 30
0.0
 10
426.4303579172678
 20
298.7192775251279
 30
0.0
 10
428.0279700505913
 20
298.4328058801414
 30
0.0
 10
428.8266557367538
 20
298.2881193051712
 30
0.0
 10
430.4238547346785
 20
297.9961136860589
 30
0.0
 10
431.2223854802742
 20
297.8487898446389
 30
0.0
 10
432.8192775417083
 20
297.5520300668449
 30
0.0
 10
433.6176412643216
 20
297.402592220701
 30
0.0
 10
435.2143776445871
 20
297.1023817686809
 30
0.0
 10
436.0127501268344
 20
296.9516079289032
 30
0.0
 10
437.6097402617758
 20
296.6498237671128
 30
0.0
 10
438.408357881108
 20
296.4988128555703
 30
0.0
 10
440.0061411282392
 20
296.1980018712418
 30
0.0
 10
440.8053069431524
 20
296.0482022894254
 30
0.0
 10
442.404554017184
 20
295.751613520545
 30
0.0
 10
443.2045070331487
 20
295.6048504920786
 30
0.0
 10
445.6057625296481
 20
295.1723555714029
 30
0.0
 10
447.20848937688
 20
294.8943730210964
 30
0.0
 10
450.4205435142156
 20
294.378340576424
 30
0.0
 10
452.0298894719751
 20
294.1404225751386
 30
0.0
 10
455.2578794845964
 20
293.7234844331464
 30
0.0
 10
456.8765146458296
 20
293.5444217534318
 30
0.0
 10
458.5009405329897
 20
293.4029947958942
 30
0.0
  0
SPLINE
  5
1C2
330
1F
100
AcDbEntity
  8
1
100
AcDbSpline
210
0.0
220
0.0
230
1.0
 70
     8
 71
     3
 72
    24
 73
    20
 74
     0
 42
0.000000001
 43
0.0000000001
 40
0.0
 40
0.0
 40
0.0
 40
0.0
 40
0.1250000000000023
 40
0.1250000000000023
 40
0.2500000000000047
 40
0.2500000000000047
 40
0.375000000000007
 40
0.375000000000007
 40
0.5000000000000094
 40
0.5000000000000094
 40
0.6250000000000117
 40
0.6250000000000117
 40
0.6875000000000079
 40
0.6875000000000079
 40
0.7500000000000043
 40
0.7500000000000043
 40
0.8750000000000028
 40
0.8750000000000028
 40
1.0
 40
1.0
 40
1.0
 40
1.0
 10
451.4983547326894
 20
301.9476170104707
 30
0.0
 10
451.6126070550841
 20
302.0471331154575
 30
0.0
 10
451.7245077498806
 20
302.149991308284
 30
0.0
 10
451.9428017309771
 20
302.3635347167957
 30
0.0
 10
452.0491995687999
 20
302.4742134639441
 30
0.0
 10
452.2553896674893
 20
302.7049586769588
 30
0.0
 10
452.3538614144958
 20
302.8235672189925
 30
0.0
 10
452.5401668424827
 20
303.06800555924
 30
0.0
 10
452.628024984188
 20
303.1938524808864
 30
0.0
 10
452.7914466759383
 20
303.453970370767
 30
0.0
 10
452.8670200433168
 20
303.5882346123301
 30
0.0
 10
452.9694041630003
 20
303.7971514975096
 30
0.0
 10
453.0014121492542
 20
303.8674802339511
 30
0.0
 10
453.0608625743031
 20
304.0092549996735
 30
0.0
 10
453.0883299243949
 20
304.0807514430183
 30
0.0
 10
453.1636620129908
 20
304.2971479017673
 30
0.0
 10
453.204473411434
 20
304.4439505621893
 30
0.0
 10
453.265344916765
 20
304.7431535631605
 30
0.0
 10
453.2854117821628
 20
304.8955520805953
 30
0.0
 10
453.2938367795123
 20
305.0510910027246
 30
0.0
  0
SPLINE
  5
1C3
330
1F
100
AcDbEntity
  8
1
100
AcDbSpline
210
0.0
220
0.0
230
1.0
 70
    12
 71
     3
 72
     9
 73
     5
 74
     0
 42
0.000000001
 43
0.0000000001
 40
0.0
 40
0.0
 40
0.0
 40
0.0
 40
0.4790718416539644
 40
1.0
 40
1.0
 40
1.0
 40
1.0
 10
391.3237151448198
 20
304.232734410603
 30
0.0
 41
1.00292866970717
 10
401.2170044010408
 20
304.5595459156202
 30
0.0
 41
1.004694294416392
 10
421.8714994272913
 20
304.1485233885103
 30
0.0
 41
1.008750384297016
 10
442.7033548302497
 20
303.7294911377358
 30
0.0
 41
0.9969383612910243
 10
453.2938367795123
 20
305.0510910027246
 30
0.0
 41
0.9991114619430378
  0
SPLINE
  5
1C4
330
1F
100
AcDbEntity
  8
1
100
AcDbSpline
210
0.0
220
0.0
230
1.0
 70
     8
 71
     3
 72
    34
 73
    30
 74
     0
 42
0.000000001
 43
0.0000000001
 40
0.0
 40
0.0
 40
0.0
 40
0.0
 40
0.0625
 40
0.0625
 40
0.1250000000000001
 40
0.1250000000000001
 40
0.1875000000000001
 40
0.1875000000000001
 40
0.2500000000000002
 40
0.2500000000000002
 40
0.3749999999999998
 40
0.3749999999999998
 40
0.4374999999999999
 40
0.4374999999999999
 40
0.46875
 40
0.46875
 40
0.5000000000000001
 40
0.5000000000000001
 40
0.6250000000000002
 40
0.6250000000000002
 40
0.7500000000000002
 40
0.7500000000000002
 40
0.8125000000000001
 40
0.8125000000000001
 40
0.8750000000000001
 40
0.8750000000000001
 40
0.9375
 40
0.9375
 40
1.0
 40
1.0
 40
1.0
 40
1.0
 10
289.3923341230149
 20
267.7464527238854
 30
0.0
 10
289.1300921863941
 20
267.7689039990824
 30
0.0
 10
288.8716628444158
 20
267.7869618741146
 30
0.0
 10
288.3617936489603
 20
267.815634807359
 30
0.0
 10
288.1103556810537
 20
267.8262477822377
 30
0.0
 10
287.6140172527399
 20
267.8411882855556
 30
0.0
 10
287.3691180256304
 20
267.8455143057122
 30
0.0
 10
286.8855375753896
 20
267.8489102759184
 30
0.0
 10
286.6468571771961
 20
267.8479790600618
 30
0.0
 10
285.9398173907256
 20
267.8387123351152
 30
0.0
 10
285.4804267672347
 20
267.8239157957568
 30
0.0
 10
284.8086891643761
 20
267.7940073822229
 30
0.0
 10
284.5876767801014
 20
267.7827479069028
 30
0.0
 10
284.2605032765177
 20
267.7645620039243
 30
0.0
 10
284.1521700679474
 20
267.7582839673941
 30
0.0
 10
283.9369572420911
 20
267.7454038405644
 30
0.0
 10
283.8300312896245
 20
267.7387985420675
 30
0.0
 10
283.3008153884975
 20
267.7053514248266
 30
0.0
 10
282.8933704588042
 20
267.6771554513863
 30
0.0
 10
282.1096418299092
 20
267.6252843494906
 30
0.0
 10
281.733360475255
 20
267.6015695608793
 30
0.0
 10
281.1925530447418
 20
267.5756294236211
 30
0.0
 10
281.0162272440875
 20
267.5685991808722
 30
0.0
 10
280.6716015061907
 20
267.5590297971581
 30
0.0
 10
280.5033010424093
 20
267.5564878156083
 30
0.0
 10
280.1749435600939
 20
267.5573741763761
 30
0.0
 10
280.0148856116733
 20
267.5607982973598
 30
0.0
 10
279.7033308585897
 20
267.5754245855147
 30
0.0
 10
279.551832433802
 20
267.5866201244386
 30
0.0
 10
279.4048419452959
 20
267.6028518087635
 30
0.0
  0
SPLINE
  5
1C5
330
1F
100
AcDbEntity
  8
1
100
AcDbSpline
210
0.0
220
0.0
230
1.0
 70
     8
 71
     3
 72
    36
 73
    32
 74
     0
 42
0.000000001
 43
0.0000000001
 40
0.0
 40
0.0
 40
0.0
 40
0.0
 40
0.0625000000000013
 40
0.1250000000000026
 40
0.1875000000000039
 40
0.1875000000000039
 40
0.2500000000000053
 40
0.2500000000000053
 40
0.2812500000000058
 40
0.2812500000000058
 40
0.3125000000000063
 40
0.3125000000000063
 40
0.3750000000000064
 40
0.4375000000000064
 40
0.5000000000000066
 40
0.5625000000000067
 40
0.5625000000000067
 40
0.6250000000000067
 40
0.6250000000000067
 40
0.6875000000000068
 40
0.6875000000000068
 40
0.750000000000007
 40
0.8125000000000063
 40
0.8125000000000063
 40
0.8281250000000056
 40
0.8281250000000056
 40
0.8437500000000051
 40
0.8437500000000051
 40
0.8750000000000039
 40
0.8750000000000039
 40
1.0
 40
1.0
 40
1.0
 40
1.0
 10
279.4048419453048
 20
275.9425567899569
 30
0.0
 10
279.2671188616516
 20
275.7514265332986
 30
0.0
 10
279.0076206539143
 20
275.3667793778066
 30
0.0
 10
278.6660039198068
 20
274.7836338616872
 30
0.0
 10
278.4702718182059
 20
274.3912999105452
 30
0.0
 10
278.2908902864999
 20
273.9974038552756
 30
0.0
 10
278.2093736194153
 20
273.7996747569624
 30
0.0
 10
278.0997995924853
 20
273.5020406693731
 30
0.0
 10
278.0653875266627
 20
273.4026363320286
 30
0.0
 10
278.0009255685058
 20
273.2035750251437
 30
0.0
 10
277.9710771740696
 20
273.1045426008988
 30
0.0
 10
277.8885884275027
 20
272.8089598656485
 30
0.0
 10
277.7974045128538
 20
272.4188886563052
 30
0.0
 10
277.7161635313156
 20
271.8462036464198
 30
0.0
 10
277.6903333470751
 20
271.2862391116133
 30
0.0
 10
277.7104604831204
 20
270.9216114844231
 30
0.0
 10
277.7497226852431
 20
270.5614300414341
 30
0.0
 10
277.7786628426136
 20
270.3859429196234
 30
0.0
 10
277.8543726400326
 20
270.0438645995265
 30
0.0
 10
277.9011464071717
 20
269.8772507720143
 30
0.0
 10
278.0120245998726
 20
269.552501531342
 30
0.0
 10
278.1402348994413
 20
269.2362312688171
 30
0.0
 10
278.3025530547726
 20
268.9363020450685
 30
0.0
 10
278.4146131343558
 20
268.7537915822399
 30
0.0
 10
278.4375561867305
 20
268.7175368660693
 30
0.0
 10
278.4845050521095
 20
268.6455185801348
 30
0.0
 10
278.5085058345848
 20
268.6097646036085
 30
0.0
 10
278.5818826745817
 20
268.5035414114923
 30
0.0
 10
278.6326998186771
 20
268.4340064191386
 30
0.0
 10
278.896083838594
 20
268.0925076646299
 30
0.0
 10
279.1364378212591
 20
267.839014488904
 30
0.0
 10
279.4048419452955
 20
267.6028518087632
 30
0.0
  0
SPLINE
  5
1C6
330
1F
100
AcDbEntity
  8
1
100
AcDbSpline
210
0.0
220
0.0
230
1.0
 70
     8
 71
     3
 72
    14
 73
    10
 74
     0
 42
0.000000001
 43
0.0000000001
 40
0.0
 40
0.0
 40
0.0
 40
0.0
 40
0.0909779694739154
 40
0.0909779694739154
 40
0.3939853129826104
 40
0.3939853129826104
 40
0.6969926564913053
 40
0.6969926564913053
 40
1.0
 40
1.0
 40
1.0
 40
1.0
 10
469.5756990123301
 20
303.9295310906812
 30
0.0
 10
469.5788721226311
 20
303.9385297165581
 30
0.0
 10
469.5822531694708
 20
303.9474271973044
 30
0.0
 10
469.5977798288979
 20
303.9855284578264
 30
0.0
 10
469.6119949771953
 20
304.0137407540195
 30
0.0
 10
469.6450366335536
 20
304.0678983121625
 30
0.0
 10
469.6633782916223
 20
304.0930578066912
 30
0.0
 10
469.7034610835741
 20
304.1398782619333
 30
0.0
 10
469.725203972286
 20
304.1615373119009
 30
0.0
 10
469.748669397966
 20
304.1814656123227
 30
0.0
  0
SPLINE
  5
1C7
330
1F
100
AcDbEntity
  8
1
100
AcDbSpline
210
0.0
220
0.0
230
1.0
 70
     8
 71
     3
 72
    10
 73
     6
 74
     0
 42
0.000000001
 43
0.0000000001
 40
0.0
 40
0.0
 40
0.0
 40
0.0
 40
0.5
 40
0.5
 40
1.0
 40
1.0
 40
1.0
 40
1.0
 10
469.748669397966
 20
304.1814656123227
 30
0.0
 10
469.7569552051017
 20
304.1885024356085
 30
0.0
 10
469.7661863547544
 20
304.1938698866988
 30
0.0
 10
469.7861782837826
 20
304.2013203847848
 30
0.0
 10
469.7965134847743
 20
304.2032607065018
 30
0.0
 10
469.8071854464486
 20
304.2034419134604
 30
0.0
  0
SPLINE
  5
1C8
330
1F
100
AcDbEntity
  8
1
100
AcDbSpline
210
0.0
220
0.0
230
1.0
 70
     8
 71
     3
 72
    16
 73
    12
 74
     0
 42
0.000000001
 43
0.0000000001
 40
0.0
 40
0.0
 40
0.0
 40
0.0
 40
0.0631184671090278
 40
0.0631184671090278
 40
0.2504947736870363
 40
0.2504947736870363
 40
0.4378710802650449
 40
0.4378710802650449
 40
0.6252473868430534
 40
0.6252473868430534
 40
1.0
 40
1.0
 40
1.0
 40
1.0
 10
469.8735381792066
 20
304.2329035304634
 30
0.0
 10
469.8724517890276
 20
304.2317357706319
 30
0.0
 10
469.8713341262005
 20
304.2305952239993
 30
0.0
 10
469.8667741733418
 20
304.2261770976968
 30
0.0
 10
469.8631159360292
 20
304.2231486017977
 30
0.0
 10
469.8555014895315
 20
304.2177573911678
 30
0.0
 10
469.8515207329458
 20
304.2153704593149
 30
0.0
 10
469.8432182115477
 20
304.2112050273287
 30
0.0
 10
469.8388604646182
 20
304.2094175446767
 30
0.0
 10
469.8256189550988
 20
304.2051181112896
 30
0.0
 10
469.8165320802776
 20
304.2036006167186
 30
0.0
 10
469.8071854464486
 20
304.2034419134604
 30
0.0
  0
SPLINE
  5
1C9
330
1F
100
AcDbEntity
  8
1
100
AcDbSpline
210
0.0
220
0.0
230
1.0
 70
     8
 71
     3
 72
    36
 73
    32
 74
     0
 42
0.000000001
 43
0.0000000001
 40
0.0
 40
0.0
 40
0.0
 40
0.0
 40
0.124999999999923
 40
0.124999999999923
 40
0.1874999999998887
 40
0.1874999999998887
 40
0.2187499999998715
 40
0.2187499999998715
 40
0.2499999999998544
 40
0.2499999999998544
 40
0.3749999999998664
 40
0.3749999999998664
 40
0.4062499999998476
 40
0.4062499999998476
 40
0.4374999999998287
 40
0.4374999999998287
 40
0.4999999999998363
 40
0.4999999999998363
 40
0.6249999999998512
 40
0.6249999999998512
 40
0.6562499999998849
 40
0.6562499999998849
 40
0.6874999999999187
 40
0.7499999999999898
 40
0.8125000000000609
 40
0.8125000000000609
 40
0.8437500000000625
 40
0.8437500000000625
 40
0.8750000000000641
 40
0.8750000000000641
 40
1.0
 40
1.0
 40
1.0
 40
1.0
 10
474.5865313456452
 20
310.0510040242539
 30
0.0
 10
474.5847001490623
 20
310.1021221787868
 30
0.0
 10
474.5777393249621
 20
310.152181145042
 30
0.0
 10
474.5600436074196
 20
310.2257716568794
 30
0.0
 10
474.5529261527877
 20
310.2500501472974
 30
0.0
 10
474.5403918909336
 20
310.286084218331
 30
0.0
 10
474.5358909557273
 20
310.2980618290539
 30
0.0
 10
474.5263207599861
 20
310.3217302804852
 30
0.0
 10
474.521261477004
 20
310.3334016134578
 30
0.0
 10
474.4946244221393
 20
310.3909618072123
 30
0.0
 10
474.4690641171733
 20
310.434484654264
 30
0.0
 10
474.4318726952674
 20
310.4857745228739
 30
0.0
 10
474.4241699188328
 20
310.4958753624762
 30
0.0
 10
474.4082272633715
 20
310.5157579502684
 30
0.0
 10
474.3999673181356
 20
310.5255606965737
 30
0.0
 10
474.3746211091964
 20
310.5541979192566
 30
0.0
 10
474.3569175253881
 20
310.5723377447498
 30
0.0
 10
474.30145720842
 20
310.6239834365574
 30
0.0
 10
474.2613740494499
 20
310.6547428358618
 30
0.0
 10
474.2072587707286
 20
310.6884565006954
 30
0.0
 10
474.1962127795978
 20
310.6949699594768
 30
0.0
 10
474.1739472355886
 20
310.707377643411
 30
0.0
 10
474.1402133581546
 20
310.7251098116994
 30
0.0
 10
474.0823425764427
 20
310.7503456588709
 30
0.0
 10
474.0343032430608
 20
310.7659674720442
 30
0.0
 10
473.9976059813072
 20
310.7759339247099
 30
0.0
 10
473.9852620615096
 20
310.7789638856271
 30
0.0
 10
473.9603461963368
 20
310.7844262535837
 30
0.0
 10
473.9477559107724
 20
310.786860358175
 30
0.0
 10
473.88480735501
 20
310.7974060982929
 30
0.0
 10
473.8340497486134
 20
310.8007981132494
 30
0.0
 10
473.7828829174507
 20
310.799013188067
 30
0.0
  0
SPLINE
  5
1CA
330
1F
100
AcDbEntity
  8
1
100
AcDbSpline
210
0.0
220
0.0
230
1.0
 70
     8
 71
     3
 72
    36
 73
    32
 74
     0
 42
0.000000001
 43
0.0000000001
 40
0.0
 40
0.0
 40
0.0
 40
0.0
 40
0.1249999999998333
 40
0.1249999999998333
 40
0.1874999999997176
 40
0.1874999999997176
 40
0.2187499999996597
 40
0.2187499999996597
 40
0.2499999999996018
 40
0.2499999999996018
 40
0.3749999999995599
 40
0.3749999999995599
 40
0.406249999999562
 40
0.406249999999562
 40
0.4374999999995641
 40
0.4374999999995641
 40
0.4999999999996136
 40
0.4999999999996136
 40
0.6249999999997532
 40
0.6249999999997532
 40
0.6562499999997828
 40
0.6562499999997828
 40
0.6874999999998123
 40
0.749999999999841
 40
0.8124999999998696
 40
0.8124999999998696
 40
0.843749999999888
 40
0.843749999999888
 40
0.8749999999999065
 40
0.8749999999999065
 40
1.0
 40
1.0
 40
1.0
 40
1.0
 10
462.6447037183725
 20
310.4104642768681
 30
0.0
 10
462.5935322975116
 20
310.4086791915768
 30
0.0
 10
462.5434256317781
 20
310.4017690581446
 30
0.0
 10
462.4697714435381
 20
310.3841558529022
 30
0.0
 10
462.4454730504258
 20
310.3770669905039
 30
0.0
 10
462.4094111418032
 20
310.3645772757652
 30
0.0
 10
462.3974245669313
 20
310.3600915062431
 30
0.0
 10
462.3737389857494
 20
310.3505520029072
 30
0.0
 10
462.3620594994891
 20
310.3455082191108
 30
0.0
 10
462.3044605517691
 20
310.3189494081913
 30
0.0
 10
462.2609130823374
 20
310.2934540700596
 30
0.0
 10
462.2096003032336
 20
310.2563467809628
 30
0.0
 10
462.1994952785692
 20
310.2486609786648
 30
0.0
 10
462.1796051269138
 20
310.2327525711557
 30
0.0
 10
462.1697989966076
 20
310.2245099393635
 30
0.0
 10
462.1411529383623
 20
310.1992156114651
 30
0.0
 10
462.1230089398121
 20
310.1815466564867
 30
0.0
 10
462.0713557342859
 20
310.1261903468779
 30
0.0
 10
462.0405979504759
 20
310.0861766861173
 30
0.0
 10
462.006894850642
 20
310.0321484865149
 30
0.0
 10
462.0003839434091
 20
310.0211199519663
 30
0.0
 10
461.9879821768897
 20
309.9988889721954
 30
0.0
 10
461.9702601180609
 20
309.9652065410407
 30
0.0
 10
461.9450470994968
 20
309.9074195678165
 30
0.0
 10
461.9294500918655
 20
309.8594451510224
 30
0.0
 10
461.9195046404163
 20
309.8227958024066
 30
0.0
 10
461.9164820897139
 20
309.8104677207185
 30
0.0
 10
461.9110353802822
 20
309.7855832598973
 30
0.0
 10
461.9086095380199
 20
309.7730085616848
 30
0.0
 10
461.8981068503988
 20
309.7101365363065
 30
0.0
 10
461.8947550344903
 20
309.6594362243954
 30
0.0
 10
461.8965860668285
 20
309.6083226547831
 30
0.0
  0
SPLINE
  5
1CB
330
1F
100
AcDbEntity
  8
1
100
AcDbSpline
210
0.0
220
0.0
230
1.0
 70
     8
 71
     3
 72
    36
 73
    32
 74
     0
 42
0.000000001
 43
0.0000000001
 40
0.0
 40
0.0
 40
0.0
 40
0.0
 40
0.1249999999999007
 40
0.1249999999999007
 40
0.1874999999998511
 40
0.1874999999998511
 40
0.2187499999998263
 40
0.2187499999998263
 40
0.2499999999998014
 40
0.2499999999998014
 40
0.3749999999996371
 40
0.3749999999996371
 40
0.4062499999996178
 40
0.4062499999996178
 40
0.4374999999995984
 40
0.4374999999995984
 40
0.499999999999608
 40
0.499999999999608
 40
0.6249999999995799
 40
0.6249999999995799
 40
0.6562499999996028
 40
0.6562499999996028
 40
0.6874999999996258
 40
0.7499999999996735
 40
0.8124999999997212
 40
0.8124999999997212
 40
0.8437499999997788
 40
0.8437499999997788
 40
0.8749999999998362
 40
0.8749999999998362
 40
1.0
 40
1.0
 40
1.0
 40
1.0
 10
462.2951717489568
 20
298.4817376208876
 30
0.0
 10
462.2970029455396
 20
298.4306194663548
 30
0.0
 10
462.3039637696396
 20
298.3805605000997
 30
0.0
 10
462.3216594871821
 20
298.3069699882621
 30
0.0
 10
462.3287769418141
 20
298.2826914978442
 30
0.0
 10
462.3413112036683
 20
298.2466574268106
 30
0.0
 10
462.3458121388747
 20
298.2346798160877
 30
0.0
 10
462.3553823346157
 20
298.2110113646564
 30
0.0
 10
462.3604416175978
 20
298.1993400316838
 30
0.0
 10
462.3870786724626
 20
298.1417798379293
 30
0.0
 10
462.4126389774287
 20
298.0982569908776
 30
0.0
 10
462.4498303993346
 20
298.0469671222677
 30
0.0
 10
462.4575331757691
 20
298.0368662826654
 30
0.0
 10
462.4734758312304
 20
298.0169836948733
 30
0.0
 10
462.4817357764664
 20
298.0071809485679
 30
0.0
 10
462.5070819854054
 20
297.978543725885
 30
0.0
 10
462.5247855692138
 20
297.9604039003918
 30
0.0
 10
462.5802458861818
 20
297.9087582085842
 30
0.0
 10
462.6203290451519
 20
297.8779988092798
 30
0.0
 10
462.6744443238732
 20
297.8442851444462
 30
0.0
 10
462.6854903150041
 20
297.8377716856648
 30
0.0
 10
462.7077558590134
 20
297.8253640017306
 30
0.0
 10
462.7414897364473
 20
297.8076318334421
 30
0.0
 10
462.799360518159
 20
297.7823959862707
 30
0.0
 10
462.8473998515412
 20
297.7667741730975
 30
0.0
 10
462.8840971132951
 20
297.7568077204317
 30
0.0
 10
462.8964410330923
 20
297.7537777595144
 30
0.0
 10
462.9213568982652
 20
297.7483153915579
 30
0.0
 10
462.9339471838297
 20
297.7458812869666
 30
0.0
 10
462.9968957395919
 20
297.7353355468487
 30
0.0
 10
463.0476533459886
 20
297.7319435318922
 30
0.0
 10
463.0988201771511
 20
297.7337284570746
 30
0.0
  0
SPLINE
  5
1CC
330
1F
100
AcDbEntity
  8
1
100
AcDbSpline
210
0.0
220
0.0
230
1.0
 70
     8
 71
     3
 72
    36
 73
    32
 74
     0
 42
0.000000001
 43
0.0000000001
 40
0.0
 40
0.0
 40
0.0
 40
0.0
 40
0.1249999999998142
 40
0.1249999999998142
 40
0.187499999999688
 40
0.187499999999688
 40
0.2187499999996248
 40
0.2187499999996248
 40
0.2499999999995617
 40
0.2499999999995617
 40
0.3749999999994951
 40
0.3749999999994951
 40
0.4062499999994942
 40
0.4062499999994942
 40
0.4374999999994932
 40
0.4374999999994932
 40
0.4999999999995424
 40
0.4999999999995424
 40
0.6249999999996874
 40
0.6249999999996874
 40
0.6562499999997217
 40
0.6562499999997217
 40
0.6874999999997561
 40
0.7499999999997984
 40
0.8124999999998408
 40
0.8124999999998408
 40
0.8437499999998641
 40
0.8437499999998641
 40
0.8749999999998873
 40
0.8749999999998873
 40
1.0
 40
1.0
 40
1.0
 40
1.0
 10
474.2369993762293
 20
298.1222773682735
 30
0.0
 10
474.2881707970902
 20
298.1240624535648
 30
0.0
 10
474.3382774628237
 20
298.130972586997
 30
0.0
 10
474.4119316510638
 20
298.1485857922394
 30
0.0
 10
474.436230044176
 20
298.1556746546378
 30
0.0
 10
474.4722919527984
 20
298.1681643693765
 30
0.0
 10
474.4842785276705
 20
298.1726501388985
 30
0.0
 10
474.5079641088524
 20
298.1821896422344
 30
0.0
 10
474.5196435951132
 20
298.1872334260308
 30
0.0
 10
474.5772425428328
 20
298.2137922369503
 30
0.0
 10
474.6207900122644
 20
298.239287575082
 30
0.0
 10
474.6721027913683
 20
298.2763948641789
 30
0.0
 10
474.6822078160326
 20
298.2840806664769
 30
0.0
 10
474.7020979676881
 20
298.2999890739858
 30
0.0
 10
474.7119040979943
 20
298.3082317057781
 30
0.0
 10
474.7405501562396
 20
298.3335260336764
 30
0.0
 10
474.7586941547899
 20
298.3511949886548
 30
0.0
 10
474.810347360316
 20
298.4065512982637
 30
0.0
 10
474.841105144126
 20
298.4465649590244
 30
0.0
 10
474.8748082439599
 20
298.5005931586266
 30
0.0
 10
474.8813191511927
 20
298.5116216931753
 30
0.0
 10
474.8937209177121
 20
298.5338526729462
 30
0.0
 10
474.9114429765411
 20
298.5675351041009
 30
0.0
 10
474.9366559951049
 20
298.6253220773251
 30
0.0
 10
474.9522530027364
 20
298.6732964941192
 30
0.0
 10
474.9621984541857
 20
298.709945842735
 30
0.0
 10
474.9652210048881
 20
298.7222739244231
 30
0.0
 10
474.9706677143197
 20
298.7471583852443
 30
0.0
 10
474.973093556582
 20
298.7597330834569
 30
0.0
 10
474.983596244203
 20
298.8226051088351
 30
0.0
 10
474.9869480601113
 20
298.8733054207462
 30
0.0
 10
474.9851170277735
 20
298.9244189903584
 30
0.0
  0
SPLINE
  5
1CD
330
1F
100
AcDbEntity
  8
1
100
AcDbSpline
210
0.0
220
0.0
230
1.0
 70
     9
 71
     3
 72
   188
 73
   184
 74
     0
 42
0.000000001
 43
0.0000000001
 40
0.0
 40
0.0
 40
0.0
 40
0.0
 40
0.0156250000000003
 40
0.0156250000000003
 40
0.0312500000000006
 40
0.0468750000000012
 40
0.0468750000000012
 40
0.0546875000000021
 40
0.0546875000000021
 40
0.062500000000003
 40
0.0703125000000039
 40
0.0703125000000039
 40
0.0781250000000049
 40
0.0781250000000049
 40
0.0937500000000067
 40
0.0937500000000067
 40
0.1015625000000074
 40
0.1015625000000074
 40
0.109375000000008
 40
0.109375000000008
 40
0.1250000000000093
 40
0.1250000000000093
 40
0.1328125000000097
 40
0.1328125000000097
 40
0.1406250000000101
 40
0.1406250000000101
 40
0.1562500000000106
 40
0.171875000000011
 40
0.171875000000011
 40
0.1796875000000114
 40
0.1796875000000114
 40
0.1875000000000118
 40
0.1875000000000118
 40
0.2031250000000124
 40
0.2031250000000124
 40
0.2109375000000128
 40
0.2109375000000128
 40
0.2187500000000132
 40
0.2265625000000136
 40
0.2265625000000136
 40
0.2343750000000139
 40
0.2343750000000139
 40
0.2500000000000149
 40
0.2500000000000149
 40
0.2578125000000153
 40
0.2578125000000153
 40
0.2656250000000157
 40
0.2656250000000157
 40
0.2812500000000165
 40
0.2812500000000165
 40
0.2890625000000168
 40
0.2890625000000168
 40
0.2968750000000172
 40
0.2968750000000172
 40
0.312500000000018
 40
0.312500000000018
 40
0.3281250000000188
 40
0.3281250000000188
 40
0.3359375000000193
 40
0.3359375000000193
 40
0.3437500000000199
 40
0.3437500000000199
 40
0.3593750000000212
 40
0.3593750000000212
 40
0.3671875000000222
 40
0.3671875000000222
 40
0.3750000000000233
 40
0.3750000000000233
 40
0.3906250000000258
 40
0.3906250000000258
 40
0.3984375000000266
 40
0.3984375000000266
 40
0.4062500000000275
 40
0.4140625000000284
 40
0.4140625000000284
 40
0.4218750000000292
 40
0.4218750000000292
 40
0.4375000000000301
 40
0.4375000000000301
 40
0.4453125000000309
 40
0.4453125000000309
 40
0.4531250000000317
 40
0.4531250000000317
 40
0.4687500000000321
 40
0.4687500000000321
 40
0.4765625000000326
 40
0.4765625000000326
 40
0.4843750000000333
 40
0.4921875000000337
 40
0.4921875000000337
 40
0.5000000000000342
 40
0.5000000000000342
 40
0.5156250000000349
 40
0.5156250000000349
 40
0.5234375000000349
 40
0.5234375000000349
 40
0.5312500000000349
 40
0.539062500000035
 40
0.539062500000035
 40
0.546875000000035
 40
0.546875000000035
 40
0.562500000000035
 40
0.562500000000035
 40
0.570312500000035
 40
0.570312500000035
 40
0.578125000000035
 40
0.578125000000035
 40
0.5937500000000348
 40
0.5937500000000348
 40
0.6015625000000342
 40
0.6015625000000342
 40
0.6093750000000337
 40
0.6171875000000333
 40
0.6171875000000333
 40
0.6250000000000327
 40
0.6250000000000327
 40
0.6406250000000317
 40
0.6406250000000317
 40
0.6484375000000308
 40
0.6484375000000308
 40
0.6562500000000299
 40
0.6562500000000299
 40
0.6718750000000281
 40
0.6875000000000265
 40
0.6875000000000265
 40
0.6953125000000257
 40
0.6953125000000257
 40
0.7031250000000249
 40
0.7031250000000249
 40
0.7187500000000235
 40
0.7187500000000235
 40
0.7265625000000227
 40
0.7265625000000227
 40
0.7343750000000219
 40
0.7343750000000219
 40
0.7500000000000205
 40
0.7500000000000205
 40
0.7578125000000197
 40
0.7578125000000197
 40
0.7656250000000191
 40
0.7734375000000182
 40
0.7734375000000182
 40
0.7812500000000174
 40
0.7812500000000174
 40
0.7968750000000162
 40
0.7968750000000162
 40
0.8046875000000156
 40
0.8046875000000156
 40
0.8125000000000149
 40
0.8125000000000149
 40
0.828125000000014
 40
0.828125000000014
 40
0.8359375000000135
 40
0.8359375000000135
 40
0.8437500000000129
 40
0.8437500000000129
 40
0.8593750000000117
 40
0.8593750000000117
 40
0.867187500000011
 40
0.867187500000011
 40
0.8750000000000104
 40
0.8828125000000097
 40
0.8828125000000097
 40
0.8906250000000092
 40
0.8906250000000092
 40
0.9062500000000079
 40
0.9062500000000079
 40
0.9140625000000072
 40
0.9140625000000072
 40
0.9218750000000063
 40
0.9218750000000063
 40
0.9375000000000051
 40
0.9375000000000051
 40
0.9453125000000046
 40
0.9453125000000046
 40
0.9531250000000039
 40
0.9609375000000031
 40
0.9609375000000031
 40
0.9687500000000028
 40
0.9687500000000028
 40
0.9843750000000012
 40
0.9843750000000012
 40
1.0
 40
1.0
 40
1.0
 40
1.0
 10
472.4388022145443
 20
290.7331050991927
 30
0.0
 10
472.4264259180683
 20
290.7334185148362
 30
0.0
 10
472.4141564797408
 20
290.7291466515562
 30
0.0
 10
472.3898236591248
 20
290.7117610684796
 30
0.0
 10
472.3656969714166
 20
290.685530330472
 30
0.0
 10
472.341979735629
 20
290.6417300267331
 30
0.0
 10
472.3243488878032
 20
290.6021395445983
 30
0.0
 10
472.3184858211298
 20
290.5877822706728
 30
0.0
 10
472.3068944938146
 20
290.5569894692939
 30
0.0
 10
472.2954316498483
 20
290.5241163756524
 30
0.0
 10
472.2842235537588
 20
290.487118622734
 30
0.0
 10
472.2731426708903
 20
290.4480611423748
 30
0.0
 10
472.26766103227
 20
290.4274831903468
 30
0.0
 10
472.2514405358603
 20
290.3627711689211
 30
0.0
 10
472.2409719015354
 20
290.3158612355934
 30
0.0
 10
472.2257785745171
 20
290.2399299681128
 30
0.0
 10
472.2207992291906
 20
290.2136900744566
 30
0.0
 10
472.2110113039869
 20
290.159345103456
 30
0.0
 10
472.2062149085455
 20
290.1313055080686
 30
0.0
 10
472.1921486650852
 20
290.0448094101191
 30
0.0
 10
472.1831865894567
 20
289.9839018696154
 30
0.0
 10
472.1703633507758
 20
289.887700762119
 30
0.0
 10
472.1661923717628
 20
289.8548166244622
 30
0.0
 10
472.1581210368714
 20
289.7879651260044
 30
0.0
 10
472.1542119855516
 20
289.753934742127
 30
0.0
 10
472.1428572302252
 20
289.6500652615828
 30
0.0
 10
472.1287087786118
 20
289.5068392011897
 30
0.0
 10
472.1165076130866
 20
289.3543141938158
 30
0.0
 10
472.1080945161131
 20
289.2363973037894
 30
0.0
 10
472.1054120631736
 20
289.196483381715
 30
0.0
 10
472.1003026913397
 20
289.115543613642
 30
0.0
 10
472.0978878150289
 20
289.0747111190004
 30
0.0
 10
472.0910577616138
 20
288.9511383907942
 30
0.0
 10
472.0870561944698
 20
288.8673254172208
 30
0.0
 10
472.0818799679073
 20
288.7394633188285
 30
0.0
 10
472.0802924333736
 20
288.6964698565487
 30
0.0
 10
472.0774089999045
 20
288.6102056083664
 30
0.0
 10
472.0748125327477
 20
288.5235569969395
 30
0.0
 10
472.072786413346
 20
288.4361444606047
 30
0.0
 10
472.0710456855841
 20
288.3483496701439
 30
0.0
 10
472.0703174452641
 20
288.3042146224611
 30
0.0
 10
472.0685683590594
 20
288.1715688804761
 30
0.0
 10
472.0679836689904
 20
288.0830408215688
 30
0.0
 10
472.0679711521786
 20
287.9501036509773
 30
0.0
 10
472.0681113202118
 20
287.9057670377955
 30
0.0
 10
472.0686821332508
 20
287.8170450639995
 30
0.0
 10
472.069112901865
 20
287.7727004889016
 30
0.0
 10
472.0708343328587
 20
287.6402445093357
 30
0.0
 10
472.0725541910202
 20
287.5525082141712
 30
0.0
 10
472.0759943628996
 20
287.4217573205174
 30
0.0
 10
472.077286676277
 20
287.3782617194424
 30
0.0
 10
472.0801502900055
 20
287.2918954562571
 30
0.0
 10
472.0817212491844
 20
287.2490196123302
 30
0.0
 10
472.0868499461402
 20
287.12131032743
 30
0.0
 10
472.0908225133468
 20
287.0373929471599
 30
0.0
 10
472.0998893398691
 20
286.8720352000345
 30
0.0
 10
472.1049546364101
 20
286.7911363998965
 30
0.0
 10
472.113335170442
 20
286.6726602184511
 30
0.0
 10
472.1162599811096
 20
286.6336359745629
 30
0.0
 10
472.1223744168462
 20
286.5565310146551
 30
0.0
 10
472.1255676033942
 20
286.5184138448667
 30
0.0
 10
472.1355000976631
 20
286.4060481561604
 30
0.0
 10
472.1426024049538
 20
286.3336261452669
 30
0.0
 10
472.1539807061357
 20
286.2287458560315
 30
0.0
 10
472.1578965845353
 20
286.1943949211459
 30
0.0
 10
472.165964797823
 20
286.1270369597718
 30
0.0
 10
472.1701051287779
 20
286.0941284013496
 30
0.0
 10
472.1828436852418
 20
285.9977059471203
 30
0.0
 10
472.1917586969087
 20
285.9364896337298
 30
0.0
 10
472.2057745744206
 20
285.8493313165581
 30
0.0
 10
472.2105539800737
 20
285.8210627451477
 30
0.0
 10
472.2202764065756
 20
285.7664019839432
 30
0.0
 10
472.2301751161634
 20
285.7135363939175
 30
0.0
 10
472.2404267139258
 20
285.664264425352
 30
0.0
 10
472.2508562176827
 20
285.616804154789
 30
0.0
 10
472.2561675159293
 20
285.593950184458
 30
0.0
 10
472.2723044520474
 20
285.528417811817
 30
0.0
 10
472.2833313102198
 20
285.4887479890935
 30
0.0
 10
472.3002762846498
 20
285.4352908590815
 30
0.0
 10
472.3059938914205
 20
285.4184769242189
 30
0.0
 10
472.3175589371272
 20
285.3869137350169
 30
0.0
 10
472.323385350809
 20
285.3722211545618
 30
0.0
 10
472.3409955857618
 20
285.3313936188088
 30
0.0
 10
472.3529100737083
 20
285.3085007499195
 30
0.0
 10
472.3710464513607
 20
285.2807278057662
 30
0.0
 10
472.3771294336826
 20
285.2725802442794
 30
0.0
 10
472.3893166359739
 20
285.2585710039962
 30
0.0
 10
472.4015403716162
 20
285.2468233030808
 30
0.0
 10
472.4138371034003
 20
285.2395943130409
 30
0.0
 10
472.4261705719706
 20
285.2346394557056
 30
0.0
 10
472.4323610174687
 20
285.2333018337981
 30
0.0
 10
472.4508851005402
 20
285.2327340071325
 30
0.0
 10
472.4632022036283
 20
285.2369198661761
 30
0.0
 10
472.4816294766895
 20
285.2500386440393
 30
0.0
 10
472.4877725548603
 20
285.2555641977896
 30
0.0
 10
472.4999914405644
 20
285.2688647805891
 30
0.0
 10
472.5121416452661
 20
285.2844046251397
 30
0.0
 10
472.5241555058285
 20
285.3043898069279
 30
0.0
 10
472.5361011933286
 20
285.3265976896978
 30
0.0
 10
472.5420439571784
 20
285.3388221068363
 30
0.0
 10
472.5597432411756
 20
285.3787952440604
 30
0.0
 10
472.5713056996499
 20
285.4096811209126
 30
0.0
 10
472.5882985744848
 20
285.4622801189671
 30
0.0
 10
472.5939042870214
 20
285.4808601195305
 30
0.0
 10
472.6049980387073
 20
285.5201233320668
 30
0.0
 10
472.6104738557613
 20
285.5407656912934
 30
0.0
 10
472.6266431496772
 20
285.6055178576091
 30
0.0
 10
472.6370988471441
 20
285.6525150852253
 30
0.0
 10
472.652298634558
 20
285.7287310838683
 30
0.0
 10
472.6572850939703
 20
285.7550998137968
 30
0.0
 10
472.6670432012818
 20
285.809457324339
 30
0.0
 10
472.6766004108099
 20
285.8655018192018
 30
0.0
 10
472.6857590075213
 20
285.9248935564243
 30
0.0
 10
472.6947184295826
 20
285.9859578084236
 30
0.0
 10
472.6991036773265
 20
286.0173669344487
 30
0.0
 10
472.7119014519076
 20
286.1136760494956
 30
0.0
 10
472.7199685050941
 20
286.1807158327223
 30
0.0
 10
472.7313803215688
 20
286.2854746633881
 30
0.0
 10
472.735074879037
 20
286.3211533807317
 30
0.0
 10
472.7422057635396
 20
286.393640865825
 30
0.0
 10
472.7456355558098
 20
286.4303763209719
 30
0.0
 10
472.7555270163368
 20
286.5420250784404
 30
0.0
 10
472.7676566491978
 20
286.6947287501067
 30
0.0
 10
472.7777166203676
 20
286.8549346619172
 30
0.0
 10
472.7844816943758
 20
286.9779161422883
 30
0.0
 10
472.7866065106276
 20
287.019381956758
 30
0.0
 10
472.7905923153807
 20
287.1032699251552
 30
0.0
 10
472.7924534943949
 20
287.14571352307
 30
0.0
 10
472.797597806154
 20
287.2735274891096
 30
0.0
 10
472.8004584938888
 20
287.3596905965293
 30
0.0
 10
472.8039017438756
 20
287.4903567333423
 30
0.0
 10
472.8049087327648
 20
287.5341909589817
 30
0.0
 10
472.8066338694913
 20
287.622144919487
 30
0.0
 10
472.8073508877248
 20
287.6661914048049
 30
0.0
 10
472.8090690398389
 20
287.798537586253
 30
0.0
 10
472.8096382773705
 20
287.8870435273654
 30
0.0
 10
472.8096244899282
 20
288.0202167679999
 30
0.0
 10
472.8094745708191
 20
288.0646649959324
 30
0.0
 10
472.8088865402276
 20
288.1532503421285
 30
0.0
 10
472.8080105000751
 20
288.2416366036128
 30
0.0
 10
472.8065603570507
 20
288.3296260202683
 30
0.0
 10
472.8048221042141
 20
288.4174162829142
 30
0.0
 10
472.8038075027005
 20
288.4612630388111
 30
0.0
 10
472.8003376901495
 20
288.5921081204975
 30
0.0
 10
472.7974628534449
 20
288.6782715936524
 30
0.0
 10
472.7923108926794
 20
288.8059221288476
 30
0.0
 10
472.7904533769033
 20
288.8482060636977
 30
0.0
 10
472.7864554346062
 20
288.932236661165
 30
0.0
 10
472.7843166422331
 20
288.9739402663362
 30
0.0
 10
472.7775073453353
 20
289.097616741223
 30
0.0
 10
472.7724358782813
 20
289.1783520993157
 30
0.0
 10
472.764025275383
 20
289.2968639642473
 30
0.0
 10
472.7610834587202
 20
289.3359857508551
 30
0.0
 10
472.7549516160617
 20
289.4130583874347
 30
0.0
 10
472.7517624661215
 20
289.4510055160623
 30
0.0
 10
472.7418262373173
 20
289.5630836688545
 30
0.0
 10
472.7347112764315
 20
289.635455748546
 30
0.0
 10
472.7232903542317
 20
289.7404351765134
 30
0.0
 10
472.7193656379346
 20
289.7747608324357
 30
0.0
 10
472.7113045035003
 20
289.8418746934212
 30
0.0
 10
472.7030247464053
 20
289.9075151975308
 30
0.0
 10
472.6943068491336
 20
289.9702029572243
 30
0.0
 10
472.685367833866
 20
290.0314005433087
 30
0.0
 10
472.6807819340917
 20
290.0612880762919
 30
0.0
 10
472.6667567414527
 20
290.1482597662703
 30
0.0
 10
472.6570377292756
 20
290.2027627304617
 30
0.0
 10
472.6419026088203
 20
290.2792690387213
 30
0.0
 10
472.6367611433246
 20
290.3039106313176
 30
0.0
 10
472.6263048267476
 20
290.351348545278
 30
0.0
 10
472.6210043645743
 20
290.3740814037697
 30
0.0
 10
472.6048868554421
 20
290.4393324449412
 30
0.0
 10
472.5938542245217
 20
290.4789104395684
 30
0.0
 10
472.5768674085749
 20
290.5323056567164
 30
0.0
 10
472.5711386284158
 20
290.5490826644598
 30
0.0
 10
472.5595967858076
 20
290.5804545117452
 30
0.0
 10
472.547956811964
 20
290.6096885963339
 30
0.0
 10
472.5361204556455
 20
290.6346445412588
 30
0.0
 10
472.5241851130387
 20
290.6574440963758
 30
0.0
 10
472.5181607909624
 20
290.6677733573683
 30
0.0
 10
472.5000556818923
 20
290.6953147292787
 30
0.0
 10
472.4879101474242
 20
290.7091623126065
 30
0.0
 10
472.4634693231953
 20
290.7279006871685
 30
0.0
 10
472.4511785110204
 20
290.7327916835492
 30
0.0
 10
472.4388022145443
 20
290.7331050991927
 30
0.0
  0
SPLINE
  5
1CE
330
1F
100
AcDbEntity
  8
1
100
AcDbSpline
210
0.0
220
0.0
230
1.0
 70
     8
 71
     3
 72
    11
 73
     7
 74
     0
 42
0.000000001
 43
0.0000000001
 40
0.0
 40
0.0
 40
0.0
 40
0.0
 40
0.25
 40
0.5
 40
0.75
 40
1.0
 40
1.0
 40
1.0
 40
1.0
 10
302.0121323775766
 20
267.4240316314465
 30
0.0
 10
302.2480948850078
 20
267.4268797722176
 30
0.0
 10
302.7225711523982
 20
267.4326134723699
 30
0.0
 10
303.4418852986711
 20
267.4398639944054
 30
0.0
 10
304.1688289037165
 20
267.4446935502137
 30
0.0
 10
304.6586207727688
 20
267.4458358177988
 30
0.0
 10
304.9048419452957
 20
267.4458358177988
 30
0.0
  0
SPLINE
  5
1CF
330
1F
100
AcDbEntity
  8
1
100
AcDbSpline
210
0.0
220
0.0
230
1.0
 70
     8
 71
     3
 72
    10
 73
     6
 74
     0
 42
0.000000001
 43
0.0000000001
 40
0.0
 40
0.0
 40
0.0
 40
0.0
 40
0.5
 40
0.5
 40
1.0
 40
1.0
 40
1.0
 40
1.0
 10
318.8503335505945
 20
267.7704665508525
 30
0.0
 10
316.5275922115102
 20
267.6878471589052
 30
0.0
 10
314.2044906200427
 20
267.6195163459898
 30
0.0
 10
309.5564319232304
 20
267.5114652856947
 30
0.0
 10
307.2314753538919
 20
267.4717648880046
 30
0.0
 10
304.9048419452957
 20
267.4458358177988
 30
0.0
  0
SPLINE
  5
1D0
330
1F
100
AcDbEntity
  8
1
100
AcDbSpline
210
0.0
220
0.0
230
1.0
 70
     8
 71
     3
 72
    24
 73
    20
 74
     0
 42
0.000000001
 43
0.0000000001
 40
0.0
 40
0.0
 40
0.0
 40
0.0
 40
0.1250000000000079
 40
0.1250000000000079
 40
0.2500000000000157
 40
0.2500000000000157
 40
0.3750000000000235
 40
0.3750000000000235
 40
0.5000000000000315
 40
0.5000000000000315
 40
0.6250000000000391
 40
0.6250000000000391
 40
0.6875000000000366
 40
0.6875000000000366
 40
0.7500000000000342
 40
0.7500000000000342
 40
0.875000000000017
 40
0.875000000000017
 40
1.0
 40
1.0
 40
1.0
 40
1.0
 10
464.3557207694509
 20
295.0381673692906
 30
0.0
 10
464.1908569230943
 20
295.072779976137
 30
0.0
 10
464.0193560318938
 20
295.1077121937093
 30
0.0
 10
463.6651307111643
 20
295.1799854050381
 30
0.0
 10
463.4823980512496
 20
295.217321736261
 30
0.0
 10
463.1071687917699
 20
295.295858976694
 30
0.0
 10
462.9146674940606
 20
295.337056839291
 30
0.0
 10
462.5209825417593
 20
295.4245853159795
 30
0.0
 10
462.3197960727543
 20
295.470913720511
 30
0.0
 10
461.9095516307124
 20
295.5698600647182
 30
0.0
 10
461.7004919354423
 20
295.6224762144307
 30
0.0
 10
461.3814529192796
 20
295.7069455470129
 30
0.0
 10
461.2745467496893
 20
295.7359341202053
 30
0.0
 10
461.0599653338725
 20
295.7955993104099
 30
0.0
 10
460.952246326549
 20
295.8262874347954
 30
0.0
 10
460.6279112456546
 20
295.9210542828319
 30
0.0
 10
460.4101204777179
 20
295.9878363279359
 30
0.0
 10
459.971881140707
 20
296.1292996431761
 30
0.0
 10
459.7514317196395
 20
296.2039797672066
 30
0.0
 10
459.5298419452951
 20
296.2829469218148
 30
0.0
  0
SPLINE
  5
1D1
330
1F
100
AcDbEntity
  8
1
100
AcDbSpline
210
0.0
220
0.0
230
1.0
 70
     8
 71
     3
 72
    26
 73
    22
 74
     0
 42
0.000000001
 43
0.0000000001
 40
0.0
 40
0.0
 40
0.0
 40
0.0
 40
0.1249999999999751
 40
0.1249999999999751
 40
0.2499999999999502
 40
0.2499999999999502
 40
0.3749999999999253
 40
0.3749999999999253
 40
0.4999999999999005
 40
0.4999999999999005
 40
0.5624999999998938
 40
0.5624999999998938
 40
0.5937499999998962
 40
0.5937499999998962
 40
0.6249999999998987
 40
0.6249999999998987
 40
0.7499999999999324
 40
0.7499999999999324
 40
0.8749999999999662
 40
0.8749999999999662
 40
1.0
 40
1.0
 40
1.0
 40
1.0
 10
459.5298419452957
 20
293.149176384057
 30
0.0
 10
459.7546270883886
 20
293.1070234894232
 30
0.0
 10
459.9778119169974
 20
293.0716441992953
 30
0.0
 10
460.4206148824708
 20
293.0138288189862
 30
0.0
 10
460.640233787376
 20
292.9913935178823
 30
0.0
 10
461.0754347125801
 20
292.9589653687854
 30
0.0
 10
461.2910179205331
 20
292.9489731151654
 30
0.0
 10
461.7175434301167
 20
292.9410109472348
 30
0.0
 10
461.9284875796863
 20
292.9430414589576
 30
0.0
 10
462.2408364105847
 20
292.954837937687
 30
0.0
 10
462.344273227467
 20
292.9602290204619
 30
0.0
 10
462.4983189484804
 20
292.9704746776821
 30
0.0
 10
462.5494824752068
 20
292.9742497618954
 30
0.0
 10
462.6514226849399
 20
292.9825150788844
 30
0.0
 10
462.7022347578032
 20
292.9870087842513
 30
0.0
 10
462.954845850079
 20
293.0112115350137
 30
0.0
 10
463.1517594666926
 20
293.0360588727517
 30
0.0
 10
463.5341347963551
 20
293.0958064085388
 30
0.0
 10
463.7196010853646
 20
293.1307073785
 30
0.0
 10
464.0775850524268
 20
293.209680849592
 30
0.0
 10
464.2501107046401
 20
293.2537537779221
 30
0.0
 10
464.4151228141311
 20
293.3019795881588
 30
0.0
  0
SPLINE
  5
1D2
330
1F
100
AcDbEntity
  8
1
100
AcDbSpline
210
0.0
220
0.0
230
1.0
 70
    24
 71
     3
 72
    22
 73
    18
 74
     0
 42
0.000000001
 43
0.0000000001
 40
0.0
 40
0.0
 40
0.0
 40
0.0
 40
0.125191482206663
 40
0.125191482206663
 40
0.2503829644133262
 40
0.2503829644133262
 40
0.3755744466199896
 40
0.3755744466199896
 40
0.5007659288266529
 40
0.5007659288266529
 40
0.6259574110333161
 40
0.6259574110333161
 40
0.7511488932399794
 40
0.7511488932399794
 40
0.8763403754466427
 40
0.8763403754466427
 40
1.0
 40
1.0
 40
1.0
 40
1.0
 10
459.5298419452957
 20
296.2829469218145
 30
0.0
 10
459.5298419452957
 20
295.8155117346553
 30
0.0
 10
459.5298419452957
 20
295.380685814789
 30
0.0
 10
459.5298419452957
 20
294.5862765337365
 30
0.0
 10
459.5298419452957
 20
294.2267002499978
 30
0.0
 10
459.5298419452957
 20
293.5910936934145
 30
0.0
 10
459.5298419452957
 20
293.315069083233
 30
0.0
 10
459.5298419452957
 20
292.8529403831058
 30
0.0
 10
459.5298419452957
 20
292.666840410297
 30
0.0
 10
459.5298419452957
 20
292.388859374228
 30
0.0
 10
459.5298419452957
 20
292.2969807875203
 30
0.0
 10
459.5298419452957
 20
292.2095655500489
 30
0.0
 10
459.5298419452958
 20
292.2140296780735
 30
0.0
 10
459.5298419452957
 20
292.3191985162834
 30
0.0
 10
459.5298419452957
 20
292.4199022895122
 30
0.0
 10
459.5298419452957
 20
292.7134202102253
 30
0.0
 10
459.5298419452957
 20
292.9050896396699
 30
0.0
 10
459.5298419452957
 20
293.1404110240666
 30
0.0
  0
SPLINE
  5
1D3
330
1F
100
AcDbEntity
  8
1
100
AcDbSpline
210
0.0
220
0.0
230
1.0
 70
     8
 71
     3
 72
    14
 73
    10
 74
     0
 42
0.000000001
 43
0.0000000001
 40
0.0
 40
0.0
 40
0.0
 40
0.0
 40
0.25
 40
0.25
 40
0.5
 40
0.5
 40
0.75
 40
0.75
 40
1.0
 40
1.0
 40
1.0
 40
1.0
 10
455.7411874826036
 20
298.5548365104657
 30
0.0
 10
456.0466859868737
 20
298.3241430476267
 30
0.0
 10
456.3544087149635
 20
298.1045248516396
 30
0.0
 10
456.9747521638082
 20
297.6860426048723
 30
0.0
 10
457.2873733277088
 20
297.4871821812578
 30
0.0
 10
457.9180512021189
 20
297.1093697579547
 30
0.0
 10
458.2361083042676
 20
296.9304198568627
 30
0.0
 10
458.8782702434752
 20
296.5920385015972
 30
0.0
 10
459.2023755689789
 20
296.432608123102
 30
0.0
 10
459.5298419452957
 20
296.2829469218145
 30
0.0
  0
SPLINE
  5
1D4
330
1F
100
AcDbEntity
  8
1
100
AcDbSpline
210
0.0
220
0.0
230
1.0
 70
     8
 71
     3
 72
    25
 73
    21
 74
     0
 42
0.000000001
 43
0.0000000001
 40
0.0
 40
0.0
 40
0.0
 40
0.0
 40
0.1249999999999992
 40
0.1249999999999992
 40
0.2499999999999983
 40
0.2499999999999983
 40
0.2812499999999984
 40
0.2812499999999984
 40
0.3124999999999984
 40
0.3749999999999986
 40
0.3749999999999986
 40
0.499999999999999
 40
0.499999999999999
 40
0.6249999999999992
 40
0.6249999999999992
 40
0.7499999999999995
 40
0.7499999999999995
 40
0.8749999999999996
 40
0.8749999999999996
 40
1.0
 40
1.0
 40
1.0
 40
1.0
 10
298.8999711278357
 20
283.2237202817951
 30
0.0
 10
298.5143020415314
 20
283.3254939666207
 30
0.0
 10
298.1257183730425
 20
283.4188223021603
 30
0.0
 10
297.3418979419703
 20
283.5858733994764
 30
0.0
 10
296.946663547483
 20
283.6596023368579
 30
0.0
 10
296.4480034960793
 20
283.7379918210715
 30
0.0
 10
296.3479542692853
 20
283.7529935470154
 30
0.0
 10
296.1478604705538
 20
283.7815170049147
 30
0.0
 10
295.8478053059769
 20
283.822075915419
 30
0.0
 10
295.5480088537423
 20
283.8558904052032
 30
0.0
 10
294.9487657316315
 20
283.9143779698238
 30
0.0
 10
294.5497367420957
 20
283.9411778200503
 30
0.0
 10
293.7526336948191
 20
283.9697434416772
 30
0.0
 10
293.3545594388894
 20
283.9715142345502
 30
0.0
 10
292.5593882529753
 20
283.9494296609053
 30
0.0
 10
292.1622911540533
 20
283.9255785060585
 30
0.0
 10
291.369102890304
 20
283.8515674821205
 30
0.0
 10
290.9730115543965
 20
283.8014117439012
 30
0.0
 10
290.1818746144488
 20
283.6738962758848
 30
0.0
 10
289.7868288015748
 20
283.5965414135185
 30
0.0
 10
289.3923341230359
 20
283.5049647739936
 30
0.0
  0
SPLINE
  5
1D5
330
1F
100
AcDbEntity
  8
1
100
AcDbSpline
210
0.0
220
0.0
230
1.0
 70
     9
 71
     3
 72
   137
 73
   133
 74
     0
 42
0.000000001
 43
0.0000000001
 40
0.0
 40
0.0
 40
0.0
 40
0.0
 40
0.0312499999999734
 40
0.0312499999999734
 40
0.0468749999999603
 40
0.0468749999999603
 40
0.0546874999999549
 40
0.0546874999999549
 40
0.0624999999999495
 40
0.0624999999999495
 40
0.0937499999999272
 40
0.0937499999999272
 40
0.1093749999999182
 40
0.1093749999999182
 40
0.1171874999999162
 40
0.1171874999999162
 40
0.1249999999999143
 40
0.1249999999999143
 40
0.1562499999999011
 40
0.1562499999999011
 40
0.1640624999998977
 40
0.1640624999998977
 40
0.1718749999998944
 40
0.1718749999998944
 40
0.1874999999998809
 40
0.2031249999998675
 40
0.2031249999998675
 40
0.2109374999998608
 40
0.2109374999998608
 40
0.218749999999854
 40
0.218749999999854
 40
0.2499999999998271
 40
0.2499999999998271
 40
0.2656249999998176
 40
0.2656249999998176
 40
0.2734374999998129
 40
0.2734374999998129
 40
0.2812499999998082
 40
0.2812499999998082
 40
0.3124999999998047
 40
0.3124999999998047
 40
0.3203124999998073
 40
0.3203124999998073
 40
0.32812499999981
 40
0.32812499999981
 40
0.343749999999822
 40
0.359374999999834
 40
0.359374999999834
 40
0.36718749999984
 40
0.36718749999984
 40
0.3749999999998459
 40
0.3749999999998459
 40
0.4062499999998591
 40
0.4062499999998591
 40
0.4218749999998653
 40
0.4218749999998653
 40
0.4296874999998687
 40
0.4296874999998687
 40
0.437499999999872
 40
0.437499999999872
 40
0.468749999999887
 40
0.468749999999887
 40
0.4765624999998898
 40
0.4765624999998898
 40
0.4843749999998927
 40
0.4843749999998927
 40
0.4999999999998984
 40
0.4999999999998984
 40
0.5312499999999102
 40
0.5312499999999102
 40
0.5390624999999134
 40
0.5390624999999134
 40
0.5468749999999165
 40
0.5468749999999165
 40
0.5624999999999223
 40
0.5781249999999282
 40
0.5781249999999282
 40
0.5859374999999293
 40
0.5859374999999293
 40
0.5937499999999304
 40
0.5937499999999304
 40
0.624999999999936
 40
0.624999999999936
 40
0.640624999999936
 40
0.640624999999936
 40
0.6484374999999359
 40
0.6484374999999359
 40
0.6562499999999357
 40
0.6562499999999357
 40
0.6874999999999548
 40
0.6874999999999548
 40
0.6953124999999543
 40
0.6953124999999543
 40
0.7031249999999538
 40
0.7031249999999538
 40
0.718749999999945
 40
0.718749999999945
 40
0.7499999999999351
 40
0.7499999999999351
 40
0.7578124999999366
 40
0.7578124999999366
 40
0.765624999999938
 40
0.765624999999938
 40
0.781249999999941
 40
0.7968749999999439
 40
0.7968749999999439
 40
0.8046874999999415
 40
0.8046874999999415
 40
0.8124999999999392
 40
0.8124999999999392
 40
0.8437499999999513
 40
0.8437499999999513
 40
0.8515624999999541
 40
0.8515624999999541
 40
0.859374999999957
 40
0.859374999999957
 40
0.8749999999999623
 40
0.8749999999999623
 40
0.9062499999999728
 40
0.9062499999999728
 40
0.9140624999999772
 40
0.9140624999999772
 40
0.9218749999999818
 40
0.9218749999999818
 40
0.937499999999987
 40
0.9531249999999921
 40
0.9531249999999921
 40
0.9609374999999937
 40
0.9609374999999937
 40
0.9687499999999952
 40
0.9687499999999952
 40
1.0
 40
1.0
 40
1.0
 40
1.0
 10
465.5637211363431
 20
283.6085059160032
 30
0.0
 10
465.5655946776753
 20
283.7158410270409
 30
0.0
 10
465.5778194775606
 20
283.8215165943675
 30
0.0
 10
465.6112754852596
 20
283.9775837557716
 30
0.0
 10
465.6249648592717
 20
284.0291953127837
 30
0.0
 10
465.6494147863673
 20
284.105972886466
 30
0.0
 10
465.6582185443997
 20
284.1314585782436
 30
0.0
 10
465.6771667580557
 20
284.1822096845825
 30
0.0
 10
465.6872448693077
 20
284.2072949274283
 30
0.0
 10
465.7405145530406
 20
284.3310559649877
 30
0.0
 10
465.7923562893205
 20
284.4250306494237
 30
0.0
 10
465.8839523030986
 20
284.5583774419512
 30
0.0
 10
465.9168052920716
 20
284.6015485825899
 30
0.0
 10
465.9697169765687
 20
284.6642957121125
 30
0.0
 10
465.987859097032
 20
284.6847523172273
 30
0.0
 10
466.0249884816567
 20
284.7245908812832
 30
0.0
 10
466.04399907397
 20
284.744000607163
 30
0.0
 10
466.1412543199203
 20
284.8385287953872
 30
0.0
 10
466.2260422779791
 20
284.9061586524272
 30
0.0
 10
466.3409592356916
 20
284.9804142855321
 30
0.0
 10
466.3643957269191
 20
284.9947481223567
 30
0.0
 10
466.4121822611908
 20
285.0223457551457
 30
0.0
 10
466.4363271934831
 20
285.0354912396857
 30
0.0
 10
466.5095016354318
 20
285.0730057554986
 30
0.0
 10
466.6090362024756
 20
285.1179094867479
 30
0.0
 10
466.7124363548595
 20
285.1527515907885
 30
0.0
 10
466.7914524744456
 20
285.1750621910875
 30
0.0
 10
466.8180359619332
 20
285.1818610774569
 30
0.0
 10
466.8717008739994
 20
285.1941603666702
 30
0.0
 10
466.8988563954921
 20
285.1996731777194
 30
0.0
 10
467.0349563477673
 20
285.223746758037
 30
0.0
 10
467.144071697642
 20
285.2318737266438
 30
0.0
 10
467.30808627086
 20
285.2279019275064
 30
0.0
 10
467.3628151536464
 20
285.2238640458583
 30
0.0
 10
467.4449970416533
 20
285.2136180246958
 30
0.0
 10
467.4724487797671
 20
285.2094917648278
 30
0.0
 10
467.5267675593143
 20
285.1999270352049
 30
0.0
 10
467.5537062565953
 20
285.1944819975022
 30
0.0
 10
467.6873159971434
 20
285.1640040245575
 30
0.0
 10
467.7907678203431
 20
285.1293076211661
 30
0.0
 10
467.9157731695089
 20
285.0730351771069
 30
0.0
 10
467.9405567653085
 20
285.0611296602173
 30
0.0
 10
467.9896803739894
 20
285.0359918548576
 30
0.0
 10
468.0138890775067
 20
285.0228242872987
 30
0.0
 10
468.0851311025683
 20
284.9817476717917
 30
0.0
 10
468.1767346875672
 20
284.9226400310707
 30
0.0
 10
468.2617342643537
 20
284.8550908335724
 30
0.0
 10
468.3229981072508
 20
284.8012601033894
 30
0.0
 10
468.3430043445808
 20
284.7827874516589
 30
0.0
 10
468.382176085225
 20
284.7447719321514
 30
0.0
 10
468.4013875513891
 20
284.7251790126812
 30
0.0
 10
468.4947270499191
 20
284.6251110409431
 30
0.0
 10
468.5601631906238
 20
284.5391403772547
 30
0.0
 10
468.6451037601255
 20
284.4017933690767
 30
0.0
 10
468.6711987670614
 20
284.3546020087657
 30
0.0
 10
468.7069505433277
 20
284.2816698439576
 30
0.0
 10
468.7183227173143
 20
284.2569457158681
 30
0.0
 10
468.7397057082807
 20
284.2072723685312
 30
0.0
 10
468.7497418360338
 20
284.1822781197388
 30
0.0
 10
468.7967147798933
 20
284.0565387816722
 30
0.0
 10
468.8241163647748
 20
283.9535118112898
 30
0.0
 10
468.8458368167649
 20
283.8217656063899
 30
0.0
 10
468.8495488843208
 20
283.795266855267
 30
0.0
 10
468.8556915660818
 20
283.7419667673287
 30
0.0
 10
468.8581193308437
 20
283.7151477932373
 30
0.0
 10
468.8634082350331
 20
283.6350748980233
 30
0.0
 10
468.8643175585324
 20
283.5819274465279
 30
0.0
 10
468.8594368742347
 20
283.4231686347709
 30
0.0
 10
468.8461087543038
 20
283.3182359686777
 30
0.0
 10
468.8165734363291
 20
283.1882123480802
 30
0.0
 10
468.8100055346482
 20
283.1622374117827
 30
0.0
 10
468.7957021716723
 20
283.1109344759947
 30
0.0
 10
468.7879537096852
 20
283.0855414700137
 30
0.0
 10
468.7629466446806
 20
283.0101237826823
 30
0.0
 10
468.7249137237416
 20
282.9115938060765
 30
0.0
 10
468.6775988199452
 20
282.8170539258512
 30
0.0
 10
468.6385674041733
 20
282.7476630546374
 30
0.0
 10
468.6249650053027
 20
282.7247855363585
 30
0.0
 10
468.5965521162743
 20
282.6795445108687
 30
0.0
 10
468.5816991275083
 20
282.6571228216019
 30
0.0
 10
468.5050308831935
 20
282.5473094595218
 30
0.0
 10
468.4359613136575
 20
282.4664330114871
 30
0.0
 10
468.3208674278146
 20
282.3553675702512
 30
0.0
 10
468.2805742170066
 20
282.3200661760969
 30
0.0
 10
468.2171249973072
 20
282.2697840487533
 30
0.0
 10
468.1954273400866
 20
282.2534370294091
 30
0.0
 10
468.1512022766582
 20
282.2218077806162
 30
0.0
 10
468.1287695721711
 20
282.2065896587538
 30
0.0
 10
468.0150271130013
 20
282.1334346124244
 30
0.0
 10
467.9190265869216
 20
282.0842177413878
 30
0.0
 10
467.7926503920153
 20
282.0344626233362
 30
0.0
 10
467.7670534737636
 20
282.0251053515239
 30
0.0
 10
467.7152012034645
 20
282.0076043700715
 30
0.0
 10
467.6888957951356
 20
281.9994466653692
 30
0.0
 10
467.6092953368138
 20
281.9769420365118
 30
0.0
 10
467.5558708829799
 20
281.964703485833
 30
0.0
 10
467.3945540232036
 20
281.9360429862589
 30
0.0
 10
467.2856281946126
 20
281.9275964014914
 30
0.0
 10
467.1476868009784
 20
281.9307903710082
 30
0.0
 10
467.1199347865218
 20
281.9321313340023
 30
0.0
 10
467.0648590961531
 20
281.9361835749218
 30
0.0
 10
467.0374839689746
 20
281.9388922463864
 30
0.0
 10
466.9558366779303
 20
281.9490245152877
 30
0.0
 10
466.8482461287979
 20
281.9678739698044
 30
0.0
 10
466.7431516841256
 20
281.9972125869968
 30
0.0
 10
466.6652759135384
 20
282.023196582167
 30
0.0
 10
466.6394606955255
 20
282.0325281097247
 30
0.0
 10
466.5882101532004
 20
282.052520227213
 30
0.0
 10
466.5629659941458
 20
282.0631053537949
 30
0.0
 10
466.4385980713281
 20
282.1188996701419
 30
0.0
 10
466.3449785176155
 20
282.1726295414224
 30
0.0
 10
466.2350342932809
 20
282.2508407224522
 30
0.0
 10
466.213402792169
 20
282.2670406392041
 30
0.0
 10
466.1708612015951
 20
282.3005688266232
 30
0.0
 10
466.1499300976033
 20
282.3179202427228
 30
0.0
 10
466.0888682667613
 20
282.3711208626672
 30
0.0
 10
466.0502447025129
 20
282.4082774312607
 30
0.0
 10
465.9403892292481
 20
282.5246509397346
 30
0.0
 10
465.8751154539968
 20
282.6087251890572
 30
0.0
 10
465.8035924921278
 20
282.7221169943138
 30
0.0
 10
465.7898579251599
 20
282.7451200940686
 30
0.0
 10
465.7636472557353
 20
282.7915313285168
 30
0.0
 10
465.7511481564116
 20
282.8149756775898
 30
0.0
 10
465.7154384308744
 20
282.8860152109872
 30
0.0
 10
465.6725839966386
 20
282.9826155113063
 30
0.0
 10
465.6391275650846
 20
283.0829542415722
 30
0.0
 10
465.6176168743805
 20
283.1596402119386
 30
0.0
 10
465.6110446394704
 20
283.1854412584017
 30
0.0
 10
465.5991191208827
 20
283.2375315933794
 30
0.0
 10
465.5937845791127
 20
283.2637496464043
 30
0.0
 10
465.5703767800329
 20
283.3949937286375
 30
0.0
 10
465.5618475950108
 20
283.5011708049653
 30
0.0
 10
465.5637211363431
 20
283.6085059160032
 30
0.0
  0
SPLINE
  5
1D6
330
1F
100
AcDbEntity
  8
1
100
AcDbSpline
210
0.0
220
0.0
230
1.0
 70
    12
 71
     2
 72
     6
 73
     3
 74
     0
 42
0.000000001
 43
0.0000000001
 40
0.0
 40
0.0
 40
0.0
 40
1.0
 40
1.0
 40
1.0
 10
461.6752270956282
 20
310.3388697046009
 30
0.0
 41
0.5000027366166179
 10
461.7874093752995
 20
310.3387128320339
 30
0.0
 41
0.4999972633833821
 10
461.8995910241278
 20
310.3385556040306
 30
0.0
 41
0.5000027366166179
  0
LINE
  5
1F2
330
1F
100
AcDbEntity
  8
SK4
100
AcDbLine
 10
200.904842
 20
288.907994
 30
0.0
 11
277.404842
 21
288.907994
 31
0.0
  0
LINE
  5
1F3
330
1F
100
AcDbEntity
  8
4
100
AcDbLine
 10
266.392334
 20
288.907994
 30
0.0
 11
479.690261
 21
288.907994
 31
0.0
  0
MTEXT
  5
1F4
330
1F
100
AcDbEntity
  8
SK6
100
AcDbMText
 10
304.314982
 20
248.747444
 30
0.0
 40
3.5
 41
0.0
 71
     7
 72
     5
  1
\W0.7147;804D-44-176-S40
  7
cesky
 73
     2
 44
0.8433729999999998
  0
MTEXT
  5
30A
330
1F
100
AcDbEntity
  8
2
100
AcDbMText
 10
377.049807
 20
319.9926
 30
0.0
 40
3.5
 41
0.0
 71
     7
 72
     5
  1
\W0.8654;185,5
  7
cesky
 73
     2
 44
0.8433729999999998
  0
LINE
  5
30B
330
1F
100
AcDbEntity
  8
2
100
AcDbLine
 10
475.404842
 20
312.907994
 30
0.0
 11
475.404842
 21
321.118433
 31
0.0
  0
LINE
  5
30C
330
1F
100
AcDbEntity
  8
2
100
AcDbLine
 10
289.898771
 20
310.590425
 30
0.0
 11
289.898771
 21
321.118433
 31
0.0
  0
LINE
  5
30D
330
1F
100
AcDbEntity
  8
2
100
AcDbLine
 10
475.404842
 20
320.118433
 30
0.0
 11
289.898771
 21
320.118433
 31
0.0
  0
SOLID
  5
30E
330
1F
100
AcDbEntity
  8
2
100
AcDbTrace
 10
475.404842
 20
320.118433
 30
0.0
 11
471.904844
 21
319.501288
 31
0.0
 12
471.90484
 22
320.735577
 32
0.0
 13
471.90484
 23
320.735577
 33
0.0
  0
SOLID
  5
30F
330
1F
100
AcDbEntity
  8
2
100
AcDbTrace
 10
289.898771
 20
320.118433
 30
0.0
 11
293.398769
 21
320.735577
 31
0.0
 12
293.398773
 22
319.501288
 32
0.0
 13
293.398773
 23
319.501288
 33
0.0
  0
MTEXT
  5
310
330
1F
100
AcDbEntity
  8
2
100
AcDbMText
 10
491.758888
 20
288.6572520000001
 30
0.0
 40
3.5
 41
0.0
 71
     7
 72
     5
  1
\W0.6844;44
  7
cesky
 11
0.0000000000000001
 21
1.0
 31
0.0
 73
     2
 44
0.8433729999999998
  0
MTEXT
  5
311
330
1F
100
AcDbEntity
  8
2
100
AcDbMText
 10
491.758888
 20
281.919752
 30
0.0
 40
3.5
 41
0.0
 71
     7
 72
     5
  1
\W3.0115;\H2.63;%%c\H3.50;
  7
cesky
 11
0.0000000000000001
 21
1.0
 31
0.0
 73
     2
 44
0.8433729999999998
  0
LINE
  5
312
330
1F
100
AcDbEntity
  8
2
100
AcDbLine
 10
477.4048419999999
 20
310.907994
 30
0.0
 11
492.9463049999999
 21
310.907994
 31
0.0
  0
LINE
  5
313
330
1F
100
AcDbEntity
  8
2
100
AcDbLine
 10
491.946305
 20
310.907994
 30
0.0
 11
491.946305
 21
281.762252
 31
0.0
  0
SOLID
  5
314
330
1F
100
AcDbEntity
  8
2
100
AcDbTrace
 10
491.946305
 20
310.907994
 30
0.0
 11
492.563449
 21
307.407996
 31
0.0
 12
491.3291599999999
 22
307.407991
 32
0.0
 13
491.3291599999999
 23
307.407991
 33
0.0
  0
MTEXT
  5
315
330
1F
100
AcDbEntity
  8
2
100
AcDbMText
 10
336.827842
 20
347.267008
 30
0.0
 40
3.5
 41
0.0
 71
     7
 72
     5
  1
\W0.8677;271
  7
cesky
 73
     2
 44
0.8433729999999998
  0
LINE
  5
316
330
1F
100
AcDbEntity
  8
2
100
AcDbLine
 10
475.404842
 20
312.907994
 30
0.0
 11
475.404842
 21
348.392842
 31
0.0
  0
LINE
  5
317
330
1F
100
AcDbEntity
  8
2
100
AcDbLine
 10
204.404842
 20
306.907994
 30
0.0
 11
204.404842
 21
348.392842
 31
0.0
  0
LINE
  5
318
330
1F
100
AcDbEntity
  8
2
100
AcDbLine
 10
475.404842
 20
347.392842
 30
0.0
 11
204.404842
 21
347.392842
 31
0.0
  0
SOLID
  5
319
330
1F
100
AcDbEntity
  8
2
100
AcDbTrace
 10
475.404842
 20
347.392842
 30
0.0
 11
471.904844
 21
346.775697
 31
0.0
 12
471.90484
 22
348.009986
 32
0.0
 13
471.90484
 23
348.009986
 33
0.0
  0
SOLID
  5
31A
330
1F
100
AcDbEntity
  8
2
100
AcDbTrace
 10
204.404842
 20
347.392842
 30
0.0
 11
207.90484
 21
348.009986
 31
0.0
 12
207.904844
 22
346.775697
 32
0.0
 13
207.904844
 23
346.775697
 33
0.0
  0
MTEXT
  5
31B
330
1F
100
AcDbEntity
  8
2
100
AcDbMText
 10
237.590342
 20
333.821465
 30
0.0
 40
3.5
 41
0.0
 71
     7
 72
     5
  1
\W0.7045;70
  7
cesky
 73
     2
 44
0.8433729999999998
  0
LINE
  5
31C
330
1F
100
AcDbEntity
  8
2
100
AcDbLine
 10
274.404842
 20
288.907994
 30
0.0
 11
274.404842
 21
334.9472990000001
 31
0.0
  0
LINE
  5
31D
330
1F
100
AcDbEntity
  8
2
100
AcDbLine
 10
204.404842
 20
306.907994
 30
0.0
 11
204.404842
 21
334.9472990000001
 31
0.0
  0
LINE
  5
31E
330
1F
100
AcDbEntity
  8
2
100
AcDbLine
 10
274.404842
 20
333.947299
 30
0.0
 11
204.404842
 21
333.947299
 31
0.0
  0
SOLID
  5
31F
330
1F
100
AcDbEntity
  8
2
100
AcDbTrace
 10
274.404842
 20
333.947299
 30
0.0
 11
270.904844
 21
333.330154
 31
0.0
 12
270.90484
 22
334.5644430000001
 32
0.0
 13
270.90484
 23
334.5644430000001
 33
0.0
  0
SOLID
  5
320
330
1F
100
AcDbEntity
  8
2
100
AcDbTrace
 10
204.404842
 20
333.947299
 30
0.0
 11
207.90484
 21
334.5644430000001
 31
0.0
 12
207.904844
 22
333.330154
 32
0.0
 13
207.904844
 23
333.330154
 33
0.0
  0
MTEXT
  5
321
330
1F
100
AcDbEntity
  8
2
100
AcDbMText
 10
371.827842
 20
333.821465
 30
0.0
 40
3.5
 41
0.0
 71
     7
 72
     5
  1
\W0.8677;201
  7
cesky
 73
     2
 44
0.8433729999999998
  0
LINE
  5
322
330
1F
100
AcDbEntity
  8
2
100
AcDbLine
 10
475.404842
 20
310.907994
 30
0.0
 11
475.404842
 21
334.9472990000001
 31
0.0
  0
LINE
  5
323
330
1F
100
AcDbEntity
  8
2
100
AcDbLine
 10
274.404842
 20
289.907567
 30
0.0
 11
274.404842
 21
334.9472990000001
 31
0.0
  0
LINE
  5
324
330
1F
100
AcDbEntity
  8
2
100
AcDbLine
 10
475.404842
 20
333.947299
 30
0.0
 11
274.404842
 21
333.947299
 31
0.0
  0
SOLID
  5
325
330
1F
100
AcDbEntity
  8
2
100
AcDbTrace
 10
475.404842
 20
333.947299
 30
0.0
 11
471.904844
 21
333.330154
 31
0.0
 12
471.90484
 22
334.5644430000001
 32
0.0
 13
471.90484
 23
334.5644430000001
 33
0.0
  0
SOLID
  5
326
330
1F
100
AcDbEntity
  8
2
100
AcDbTrace
 10
274.404842
 20
333.947299
 30
0.0
 11
277.90484
 21
334.5644430000001
 31
0.0
 12
277.904844
 22
333.330154
 32
0.0
 13
277.904844
 23
333.330154
 33
0.0
  0
MTEXT
  5
327
330
1F
100
AcDbEntity
  8
SK2
100
AcDbMText
 10
190.288302
 20
290.434244
 30
0.0
 40
3.5
 41
0.0
 71
     7
 72
     5
  1
\W0.7045;40
  7
cesky
 11
0.0000000000000001
 21
1.0
 31
0.0
 73
     2
 44
0.8433729999999998
  0
MTEXT
  5
328
330
1F
100
AcDbEntity
  8
SK2
100
AcDbMText
 10
190.288302
 20
283.696744
 30
0.0
 40
3.5
 41
0.0
 71
     7
 72
     5
  1
\W3.0115;\H2.63;%%c\H3.50;
  7
cesky
 11
0.0000000000000001
 21
1.0
 31
0.0
 73
     2
 44
0.8433729999999998
  0
LINE
  5
329
330
1F
100
AcDbEntity
  8
SK2
100
AcDbLine
 10
206.404842
 20
308.907994
 30
0.0
 11
189.475719
 21
308.907994
 31
0.0
  0
LINE
  5
32A
330
1F
100
AcDbEntity
  8
SK2
100
AcDbLine
 10
206.404842
 20
268.907994
 30
0.0
 11
189.475719
 21
268.907994
 31
0.0
  0
LINE
  5
32B
330
1F
100
AcDbEntity
  8
SK2
100
AcDbLine
 10
190.475719
 20
308.907994
 30
0.0
 11
190.475719
 21
268.907994
 31
0.0
  0
SOLID
  5
32C
330
1F
100
AcDbEntity
  8
SK2
100
AcDbTrace
 10
190.475719
 20
308.907994
 30
0.0
 11
191.092863
 21
305.407996
 31
0.0
 12
189.858574
 22
305.407991
 32
0.0
 13
189.858574
 23
305.407991
 33
0.0
  0
SOLID
  5
32D
330
1F
100
AcDbEntity
  8
SK2
100
AcDbTrace
 10
190.475719
 20
268.907994
 30
0.0
 11
189.858574
 21
272.407991
 31
0.0
 12
191.092863
 22
272.407996
 32
0.0
 13
191.092863
 23
272.407996
 33
0.0
  0
MTEXT
  5
32E
330
1F
100
AcDbEntity
  8
SK2
100
AcDbMText
 10
175.151238
 20
290.434244
 30
0.0
 40
3.5
 41
0.0
 71
     7
 72
     5
  1
\W0.7045;50
  7
cesky
 11
0.0000000000000001
 21
1.0
 31
0.0
 73
     2
 44
0.8433729999999998
  0
MTEXT
  5
32F
330
1F
100
AcDbEntity
  8
SK2
100
AcDbMText
 10
175.151238
 20
283.696744
 30
0.0
 40
3.5
 41
0.0
 71
     7
 72
     5
  1
\W3.0115;\H2.63;%%c\H3.50;
  7
cesky
 11
0.0000000000000001
 21
1.0
 31
0.0
 73
     2
 44
0.8433729999999998
  0
LINE
  5
330
330
1F
100
AcDbEntity
  8
SK2
100
AcDbLine
 10
274.904842
 20
313.907994
 30
0.0
 11
174.338654
 21
313.907994
 31
0.0
  0
LINE
  5
331
330
1F
100
AcDbEntity
  8
SK2
100
AcDbLine
 10
274.904842
 20
263.907994
 30
0.0
 11
174.338654
 21
263.907994
 31
0.0
  0
LINE
  5
332
330
1F
100
AcDbEntity
  8
SK2
100
AcDbLine
 10
175.338654
 20
313.907994
 30
0.0
 11
175.338654
 21
263.907994
 31
0.0
  0
SOLID
  5
333
330
1F
100
AcDbEntity
  8
SK2
100
AcDbTrace
 10
175.338654
 20
313.907994
 30
0.0
 11
175.955799
 21
310.407996
 31
0.0
 12
174.72151
 22
310.407991
 32
0.0
 13
174.72151
 23
310.407991
 33
0.0
  0
SOLID
  5
334
330
1F
100
AcDbEntity
  8
SK2
100
AcDbTrace
 10
175.338654
 20
263.907994
 30
0.0
 11
174.72151
 21
267.4079910000001
 31
0.0
 12
175.955799
 22
267.407996
 32
0.0
 13
175.955799
 23
267.407996
 33
0.0
  0
LINE
  5
336
330
1F
100
AcDbEntity
  8
CUT
100
AcDbLine
 10
474.5865313456452
 20
310.1584437558155
 30
0.0
 11
474.9454337838386
 21
300.1530569607828
 31
0.0
  0
LINE
  5
337
330
1F
100
AcDbEntity
  8
CUT
100
AcDbLine
 10
475.2284949081641
 20
299.6053829923661
 30
0.0
 11
475.4047969836201
 21
289.5128994469466
 31
0.0
  0
LINE
  5
339
330
1F
100
AcDbEntity
  8
CUT
100
AcDbLine
 10
462.6447037183725
 20
310.4981091107053
 30
0.0
 11
473.7828829174507
 21
310.905043347613
 31
0.0
  0
LINE
  5
33B
330
1F
100
AcDbEntity
  8
CUT
100
AcDbLine
 10
474.9454337838386
 20
300.1530569607828
 30
0.0
 11
475.1864772220416
 21
299.7519097617157
 31
0.0
  0
LINE
  5
33C
330
1F
100
AcDbEntity
  8
CUT
100
AcDbLine
 10
475.404797
 20
288.907994
 30
0.0
 11
461.896586
 21
288.907994
 31
0.0
  0
LINE
  5
33D
330
1F
100
AcDbEntity
  8
CUT
100
AcDbLine
 10
461.896586
 20
288.907994
 30
0.0
 11
461.896586
 21
309.694481
 31
0.0
  0
LINE
  5
33E
330
1F
100
AcDbEntity
  8
CUT
100
AcDbLine
 10
475.404797
 20
289.512899
 30
0.0
 11
475.404797
 21
288.907994
 31
0.0
  0
LINE
  5
33F
330
1F
100
AcDbEntity
  8
CUT
100
AcDbLine
 10
475.1864772220417
 20
299.7519097617158
 30
0.0
 11
475.1864772220417
 21
299.7519097617158
 31
0.0
  0
ARC
  5
340
330
1F
100
AcDbEntity
  8
CUT
100
AcDbCircle
 10
474.9341100587011
 20
299.6002536896064
 30
0.0
 40
0.2944295320449759
100
AcDbArc
 50
0.9982092000311709
 51
31.00309957517886
  0
LINE
  5
341
330
1F
100
AcDbEntity
  8
CUT
100
AcDbLine
 10
473.7828829174507
 20
310.905043347613
 30
0.0
 11
473.7828829174507
 21
310.905043347613
 31
0.0
  0
ARC
  5
342
330
1F
100
AcDbEntity
  8
CUT
100
AcDbCircle
 10
473.8065691227598
 20
310.1247114293534
 30
0.0
 40
0.7806913211870312
100
AcDbArc
 50
2.476422852860214
 51
91.73862300653928
  0
LINE
  5
343
330
1F
100
AcDbEntity
  8
CUT
100
AcDbLine
 10
461.8965860668285
 20
309.6944814804113
 30
0.0
 11
461.8965860668285
 21
309.6944814804113
 31
0.0
  0
ARC
  5
344
330
1F
100
AcDbEntity
  8
CUT
100
AcDbCircle
 10
462.6784262642233
 20
309.71668111782
 30
0.0
 40
0.7821553030974055
100
AcDbArc
 50
92.47106764955299
 51
181.6264242684831
  0
LINE
  5
353
330
1F
100
AcDbEntity
  8
NOCUT
370
    13
100
AcDbLine
 10
474.564842
 20
288.907994
 30
0.0
 11
204.404842
 21
288.907994
 31
0.0
  0
ENDSEC
  0
SECTION
  2
OBJECTS
  0
DICTIONARY
  5
C
330
0
100
AcDbDictionary
281
     1
  3
ACAD_CIP_PREVIOUS_PRODUCT_INFO
350
307
  3
ACAD_COLOR
350
302
  3
ACAD_DETAILVIEWSTYLE
350
2FE
  3
ACAD_GROUP
350
D
  3
ACAD_LAYOUT
350
1A
  3
ACAD_MATERIAL
350
43
  3
ACAD_MLEADERSTYLE
350
6B
  3
ACAD_MLINESTYLE
350
17
  3
ACAD_PLOTSETTINGS
350
19
  3
ACAD_PLOTSTYLENAME
350
E
  3
ACAD_SCALELIST
350
47
  3
ACAD_SECTIONVIEWSTYLE
350
2FF
  3
ACAD_TABLESTYLE
350
69
  3
ACAD_VISUALSTYLE
350
2A
  3
ACDB_RECOMPOSE_DATA
350
378
  3
AcDbVariableDictionary
350
2BB
  0
DICTIONARY
  5
35B
330
10
100
AcDbDictionary
280
     1
281
     1
  3
ADSK_XREC_LAYER_RECONCILED
360
35C
  0
DICTIONARY
  5
35D
330
345
100
AcDbDictionary
280
     1
281
     1
  3
ADSK_XREC_LAYER_RECONCILED
360
35E
  0
DICTIONARY
  5
35F
330
346
100
AcDbDictionary
280
     1
281
     1
  3
ADSK_XREC_LAYER_RECONCILED
360
360
  0
DICTIONARY
  5
361
330
347
100
AcDbDictionary
280
     1
281
     1
  3
ADSK_XREC_LAYER_RECONCILED
360
362
  0
DICTIONARY
  5
363
330
349
100
AcDbDictionary
280
     1
281
     1
  3
ADSK_XREC_LAYER_RECONCILED
360
364
  0
DICTIONARY
  5
365
330
34A
100
AcDbDictionary
280
     1
281
     1
  3
ADSK_XREC_LAYER_RECONCILED
360
366
  0
DICTIONARY
  5
367
330
34C
100
AcDbDictionary
280
     1
281
     1
  3
ADSK_XREC_LAYER_RECONCILED
360
368
  0
DICTIONARY
  5
369
330
34D
100
AcDbDictionary
280
     1
281
     1
  3
ADSK_XREC_LAYER_RECONCILED
360
36A
  0
DICTIONARY
  5
36B
330
34E
100
AcDbDictionary
280
     1
281
     1
  3
ADSK_XREC_LAYER_RECONCILED
360
36C
  0
DICTIONARY
  5
36D
330
34F
100
AcDbDictionary
280
     1
281
     1
  3
ADSK_XREC_LAYER_RECONCILED
360
36E
  0
DICTIONARY
  5
36F
330
350
100
AcDbDictionary
280
     1
281
     1
  3
ADSK_XREC_LAYER_RECONCILED
360
370
  0
DICTIONARY
  5
371
330
351
100
AcDbDictionary
280
     1
281
     1
  3
ADSK_XREC_LAYER_RECONCILED
360
372
  0
DICTIONARY
  5
308
330
1F
100
AcDbDictionary
280
     1
281
     1
  3
ACAD_SORTENTS
360
309
  0
XRECORD
  5
307
102
{ACAD_REACTORS
330
C
102
}
330
C
100
AcDbXrecord
280
     1
300
ACD
300
2019
300
87084ACD_2019_0F
  0
DICTIONARY
  5
302
102
{ACAD_REACTORS
330
C
102
}
330
C
100
AcDbDictionary
281
     1
  0
DICTIONARY
  5
2FE
102
{ACAD_REACTORS
330
C
102
}
330
C
100
AcDbDictionary
281
     1
  3
Metric50
350
304
  0
DICTIONARY
  5
D
102
{ACAD_REACTORS
330
C
102
}
330
C
100
AcDbDictionary
281
     1
  3
NULOVY_BOD
350
352
  0
DICTIONARY
  5
1A
102
{ACAD_REACTORS
330
C
102
}
330
C
100
AcDbDictionary
281
     1
  3
Layout1
350
1E
  3
Layout2
350
26
  3
Model
350
22
  0
DICTIONARY
  5
43
102
{ACAD_REACTORS
330
C
102
}
330
C
100
AcDbDictionary
281
     1
  3
ByBlock
350
45
  3
ByLayer
350
44
  3
Global
350
46
  0
DICTIONARY
  5
6B
102
{ACAD_REACTORS
330
C
102
}
330
C
100
AcDbDictionary
281
     1
  3
Standard
350
6C
  0
DICTIONARY
  5
17
102
{ACAD_REACTORS
330
C
102
}
330
C
100
AcDbDictionary
281
     1
  3
Standard
350
18
  0
DICTIONARY
  5
19
102
{ACAD_REACTORS
330
C
102
}
330
C
100
AcDbDictionary
281
     1
  0
ACDBDICTIONARYWDFLT
  5
E
102
{ACAD_REACTORS
330
C
102
}
330
C
100
AcDbDictionary
281
     1
  3
Normal
350
F
100
AcDbDictionaryWithDefault
340
F
  0
DICTIONARY
  5
47
102
{ACAD_REACTORS
330
C
102
}
330
C
100
AcDbDictionary
281
     1
  3
A0
350
48
  3
A1
350
49
  3
A2
350
4A
  3
A3
350
4B
  3
A4
350
4C
  3
A5
350
4D
  3
A6
350
4E
  3
A7
350
4F
  3
A8
350
50
  3
A9
350
51
  3
B0
350
52
  3
B1
350
53
  3
B2
350
54
  3
B3
350
55
  3
B4
350
56
  3
B5
350
57
  3
B6
350
58
  3
B7
350
59
  3
B8
350
5A
  3
B9
350
5B
  3
C0
350
5C
  3
C1
350
5D
  3
C2
350
5E
  3
C3
350
5F
  3
C4
350
60
  3
C5
350
61
  3
C6
350
62
  3
C7
350
63
  3
C8
350
64
  3
C9
350
65
  3
D0
350
66
  3
D1
350
67
  3
D2
350
68
  0
DICTIONARY
  5
2FF
102
{ACAD_REACTORS
330
C
102
}
330
C
100
AcDbDictionary
281
     1
  3
Metric50
350
303
  0
DICTIONARY
  5
69
102
{ACAD_REACTORS
330
C
102
}
330
C
100
AcDbDictionary
281
     1
  3
Standard
350
6A
  0
DICTIONARY
  5
2A
102
{ACAD_REACTORS
330
C
102
}
330
C
100
AcDbDictionary
281
     1
  3
2dWireframe
350
2F
  3
Basic
350
32
  3
Brighten
350
36
  3
ColorChange
350
3A
  3
Conceptual
350
34
  3
Dim
350
35
  3
EdgeColorOff
350
3D
  3
Facepattern
350
39
  3
Flat
350
2B
  3
FlatWithEdges
350
2C
  3
Gouraud
350
2D
  3
GouraudWithEdges
350
2E
  3
Hidden
350
31
  3
JitterOff
350
3B
  3
Linepattern
350
38
  3
OverhangOff
350
3C
  3
Realistic
350
33
  3
Shaded
350
42
  3
Shaded with edges
350
41
  3
Shades of Gray
350
3E
  3
Sketchy
350
3F
  3
Thicken
350
37
  3
Wireframe
350
30
  3
X-Ray
350
40
  0
XRECORD
  5
378
102
{ACAD_REACTORS
330
C
102
}
330
C
100
AcDbXrecord
280
     1
 90
        1
330
6A
  0
DICTIONARY
  5
2BB
102
{ACAD_REACTORS
330
C
102
}
330
C
100
AcDbDictionary
281
     1
  3
CANNOSCALE
350
2BC
  3
CMLEADERSTYLE
350
2FD
  3
CTABLESTYLE
350
2FC
  3
CVIEWDETAILSTYLE
350
373
  3
CVIEWSECTIONSTYLE
350
374
  3
MSLTSCALE
350
2BD
  3
XCLIPFRAME
350
375
  0
XRECORD
  5
35C
102
{ACAD_REACTORS
330
35B
102
}
330
35B
100
AcDbXrecord
280
     1
290
     1
  0
XRECORD
  5
35E
102
{ACAD_REACTORS
330
35D
102
}
330
35D
100
AcDbXrecord
280
     1
290
     1
  0
XRECORD
  5
360
102
{ACAD_REACTORS
330
35F
102
}
330
35F
100
AcDbXrecord
280
     1
290
     1
  0
XRECORD
  5
362
102
{ACAD_REACTORS
330
361
102
}
330
361
100
AcDbXrecord
280
     1
290
     1
  0
XRECORD
  5
364
102
{ACAD_REACTORS
330
363
102
}
330
363
100
AcDbXrecord
280
     1
290
     1
  0
XRECORD
  5
366
102
{ACAD_REACTORS
330
365
102
}
330
365
100
AcDbXrecord
280
     1
290
     1
  0
XRECORD
  5
368
102
{ACAD_REACTORS
330
367
102
}
330
367
100
AcDbXrecord
280
     1
290
     1
  0
XRECORD
  5
36A
102
{ACAD_REACTORS
330
369
102
}
330
369
100
AcDbXrecord
280
     1
290
     1
  0
XRECORD
  5
36C
102
{ACAD_REACTORS
330
36B
102
}
330
36B
100
AcDbXrecord
280
     1
290
     1
  0
XRECORD
  5
36E
102
{ACAD_REACTORS
330
36D
102
}
330
36D
100
AcDbXrecord
280
     1
290
     1
  0
XRECORD
  5
370
102
{ACAD_REACTORS
330
36F
102
}
330
36F
100
AcDbXrecord
280
     1
290
     1
  0
XRECORD
  5
372
102
{ACAD_REACTORS
330
371
102
}
330
371
100
AcDbXrecord
280
     1
290
     1
  0
SORTENTSTABLE
  5
309
102
{ACAD_REACTORS
330
308
102
}
330
308
100
AcDbSortentsTable
330
1F
331
30A
  5
22D
331
30B
  5
246
331
30C
  5
30A
331
30D
  5
30B
331
30E
  5
30C
331
30F
  5
30D
331
310
  5
30E
331
311
  5
30F
331
312
  5
310
331
313
  5
311
331
314
  5
312
331
315
  5
323
331
316
  5
324
331
317
  5
325
331
318
  5
326
331
319
  5
327
331
31A
  5
328
331
31B
  5
329
331
31C
  5
32A
331
31D
  5
32B
331
31E
  5
32C
331
31F
  5
32D
331
320
  5
32E
331
321
  5
32F
331
322
  5
330
331
323
  5
331
331
324
  5
332
331
325
  5
333
331
326
  5
334
331
327
  5
315
331
328
  5
316
331
329
  5
317
331
32A
  5
318
331
32B
  5
319
331
32C
  5
31A
331
32D
  5
31B
331
32E
  5
31C
331
32F
  5
31D
331
330
  5
31E
331
331
  5
31F
331
332
  5
320
331
333
  5
321
331
334
  5
322
331
336
  5
339
331
337
  5
33B
331
339
  5
33E
331
33B
  5
341
331
33C
  5
342
331
33D
  5
343
331
33E
  5
344
331
33F
  5
336
331
340
  5
337
331
341
  5
33C
331
342
  5
33D
331
343
  5
33F
331
344
  5
340
  0
ACDBDETAILVIEWSTYLE
  5
304
102
{ACAD_XDICTIONARY
360
3AC
102
}
102
{ACAD_REACTORS
330
2FE
102
}
330
2FE
100
AcDbModelDocViewStyle
 70
     0
  3
Metric50
290
     0
100
AcDbDetailViewStyle
 70
     0
 71
     0
 90
        3
 71
     1
340
11
 62
   256
 40
5.0
340
0
 62
   256
 40
5.0
300

 40
0.0
280
     1
 71
     2
340
16
 90
       25
 62
   256
 71
     3
340
11
 62
   256
 40
5.0
 90
        0
 40
15.0
 90
        1
300
%<\AcVar ViewDetailId>% (%<\AcVar ViewScale \f "%sn">%)
 71
     4
340
16
 90
       25
 62
   256
340
16
 90
       25
 62
   256
280
     0
  0
GROUP
  5
352
102
{ACAD_REACTORS
330
D
102
}
330
D
100
AcDbGroup
300

 70
     0
 71
     1
340
73
  0
LAYOUT
  5
1E
102
{ACAD_REACTORS
330
1A
102
}
330
1A
100
AcDbPlotSettings
  1

  2
none_device
  4

  6

 40
0.0
 41
0.0
 42
0.0
 43
0.0
 44
0.0
 45
0.0
 46
0.0
 47
0.0
 48
0.0
 49
0.0
140
0.0
141
0.0
142
1.0
143
1.0
 70
   688
 72
     0
 73
     0
 74
     5
  7

 75
    16
147
1.0
 76
     0
 77
     2
 78
   300
148
0.0
149
0.0
100
AcDbLayout
  1
Layout1
 70
     1
 71
     1
 10
-0.5
 20
-0.5
 11
5.0
 21
5.0
 12
0.0
 22
0.0
 32
0.0
 14
-0.5
 24
-0.5
 34
-0.5
 15
5.0
 25
5.0
 35
5.0
146
0.0
 13
0.0
 23
0.0
 33
0.0
 16
1.0
 26
0.0
 36
0.0
 17
0.0
 27
1.0
 37
0.0
 76
     0
330
1B
  0
LAYOUT
  5
26
102
{ACAD_REACTORS
330
1A
102
}
330
1A
100
AcDbPlotSettings
  1

  2
none_device
  4

  6

 40
0.0
 41
0.0
 42
0.0
 43
0.0
 44
0.0
 45
0.0
 46
0.0
 47
0.0
 48
0.0
 49
0.0
140
0.0
141
0.0
142
1.0
143
1.0
 70
   688
 72
     0
 73
     0
 74
     5
  7

 75
    16
147
1.0
 76
     0
 77
     2
 78
   300
148
0.0
149
0.0
100
AcDbLayout
  1
Layout2
 70
     1
 71
     2
 10
0.0
 20
0.0
 11
0.0
 21
0.0
 12
0.0
 22
0.0
 32
0.0
 14
0.0
 24
0.0
 34
0.0
 15
0.0
 25
0.0
 35
0.0
146
0.0
 13
0.0
 23
0.0
 33
0.0
 16
1.0
 26
0.0
 36
0.0
 17
0.0
 27
1.0
 37
0.0
 76
     0
330
23
  0
LAYOUT
  5
22
102
{ACAD_REACTORS
330
1A
102
}
330
1A
100
AcDbPlotSettings
  1

  2
none_device
  4
Letter_(8.50_x_11.00_Inches)
  6

 40
6.349999999999999
 41
6.349999999999999
 42
6.350005
 43
6.350005
 44
215.9
 45
279.4
 46
0.0
 47
0.0
 48
0.0
 49
0.0
140
0.0
141
0.0
142
1.0
143
1.0
 70
  1712
 72
     0
 73
     0
 74
     0
  7

 75
     0
147
1.0
 76
     0
 77
     2
 78
   300
148
0.0
149
0.0
100
AcDbLayout
  1
Model
 70
     1
 71
     0
 10
-0.5
 20
-0.5
 11
5.0
 21
5.0
 12
0.0
 22
0.0
 32
0.0
 14
-0.5
 24
-0.5
 34
-0.5
 15
5.0
 25
5.0
 35
5.0
146
0.0
 13
0.0
 23
0.0
 33
0.0
 16
1.0
 26
0.0
 36
0.0
 17
0.0
 27
1.0
 37
0.0
 76
     0
330
1F
331
29
  0
MATERIAL
  5
45
102
{ACAD_XDICTIONARY
360
2F1
102
}
102
{ACAD_REACTORS
330
43
102
}
330
43
100
AcDbMaterial
  1
ByBlock
  0
MATERIAL
  5
44
102
{ACAD_XDICTIONARY
360
2EF
102
}
102
{ACAD_REACTORS
330
43
102
}
330
43
100
AcDbMaterial
  1
ByLayer
  0
MATERIAL
  5
46
102
{ACAD_XDICTIONARY
360
2F3
102
}
102
{ACAD_REACTORS
330
43
102
}
330
43
100
AcDbMaterial
  1
Global
  0
MLEADERSTYLE
  5
6C
102
{ACAD_REACTORS
330
6B
102
}
330
6B
100
AcDbMLeaderStyle
170
     2
171
     1
172
     0
 90
        2
 40
0.0
 41
0.0
173
     1
 91
-1056964608
340
14
 92
       -2
290
     1
 42
0.09
291
     1
 43
0.36
  3
Standard
 44
0.18
300

342
11
174
     1
178
     6
175
     1
176
     0
 93
-1056964608
 45
0.18
292
     0
297
     0
 46
0.18
 94
-1056964608
 47
1.0
 49
1.0
140
1.0
293
     1
141
0.0
294
     1
177
     0
142
1.0
295
     0
296
     0
143
0.125
1001
ACAD_MLEADERVER
1070
     2
  0
MLINESTYLE
  5
18
102
{ACAD_REACTORS
330
17
102
}
330
17
100
AcDbMlineStyle
  2
STANDARD
 70
     0
  3

 62
   256
 51
90.0
 52
90.0
 71
     2
 49
0.5
 62
   256
  6
BYLAYER
 49
-0.5
 62
   256
  6
BYLAYER
  0
ACDBPLACEHOLDER
  5
F
102
{ACAD_REACTORS
330
E
102
}
330
E
  0
SCALE
  5
48
102
{ACAD_REACTORS
330
47
102
}
330
47
100
AcDbScale
 70
     0
300
1:1
140
1.0
141
1.0
290
     1
  0
SCALE
  5
49
102
{ACAD_REACTORS
330
47
102
}
330
47
100
AcDbScale
 70
     0
300
1:2
140
1.0
141
2.0
290
     0
  0
SCALE
  5
4A
102
{ACAD_REACTORS
330
47
102
}
330
47
100
AcDbScale
 70
     0
300
1:4
140
1.0
141
4.0
290
     0
  0
SCALE
  5
4B
102
{ACAD_REACTORS
330
47
102
}
330
47
100
AcDbScale
 70
     0
300
1:5
140
1.0
141
5.0
290
     0
  0
SCALE
  5
4C
102
{ACAD_REACTORS
330
47
102
}
330
47
100
AcDbScale
 70
     0
300
1:8
140
1.0
141
8.0
290
     0
  0
SCALE
  5
4D
102
{ACAD_REACTORS
330
47
102
}
330
47
100
AcDbScale
 70
     0
300
1:10
140
1.0
141
10.0
290
     0
  0
SCALE
  5
4E
102
{ACAD_REACTORS
330
47
102
}
330
47
100
AcDbScale
 70
     0
300
1:16
140
1.0
141
16.0
290
     0
  0
SCALE
  5
4F
102
{ACAD_REACTORS
330
47
102
}
330
47
100
AcDbScale
 70
     0
300
1:20
140
1.0
141
20.0
290
     0
  0
SCALE
  5
50
102
{ACAD_REACTORS
330
47
102
}
330
47
100
AcDbScale
 70
     0
300
1:30
140
1.0
141
30.0
290
     0
  0
SCALE
  5
51
102
{ACAD_REACTORS
330
47
102
}
330
47
100
AcDbScale
 70
     0
300
1:40
140
1.0
141
40.0
290
     0
  0
SCALE
  5
52
102
{ACAD_REACTORS
330
47
102
}
330
47
100
AcDbScale
 70
     0
300
1:50
140
1.0
141
50.0
290
     0
  0
SCALE
  5
53
102
{ACAD_REACTORS
330
47
102
}
330
47
100
AcDbScale
 70
     0
300
1:100
140
1.0
141
100.0
290
     0
  0
SCALE
  5
54
102
{ACAD_REACTORS
330
47
102
}
330
47
100
AcDbScale
 70
     0
300
2:1
140
2.0
141
1.0
290
     0
  0
SCALE
  5
55
102
{ACAD_REACTORS
330
47
102
}
330
47
100
AcDbScale
 70
     0
300
4:1
140
4.0
141
1.0
290
     0
  0
SCALE
  5
56
102
{ACAD_REACTORS
330
47
102
}
330
47
100
AcDbScale
 70
     0
300
8:1
140
8.0
141
1.0
290
     0
  0
SCALE
  5
57
102
{ACAD_REACTORS
330
47
102
}
330
47
100
AcDbScale
 70
     0
300
10:1
140
10.0
141
1.0
290
     0
  0
SCALE
  5
58
102
{ACAD_REACTORS
330
47
102
}
330
47
100
AcDbScale
 70
     0
300
100:1
140
100.0
141
1.0
290
     0
  0
SCALE
  5
59
102
{ACAD_REACTORS
330
47
102
}
330
47
100
AcDbScale
 70
     0
300
1/128" = 1'-0"
140
0.007812
141
12.0
290
     0
  0
SCALE
  5
5A
102
{ACAD_REACTORS
330
47
102
}
330
47
100
AcDbScale
 70
     0
300
1/64" = 1'-0"
140
0.015625
141
12.0
290
     0
  0
SCALE
  5
5B
102
{ACAD_REACTORS
330
47
102
}
330
47
100
AcDbScale
 70
     0
300
1/32" = 1'-0"
140
0.03125
141
12.0
290
     0
  0
SCALE
  5
5C
102
{ACAD_REACTORS
330
47
102
}
330
47
100
AcDbScale
 70
     0
300
1/16" = 1'-0"
140
0.0625
141
12.0
290
     0
  0
SCALE
  5
5D
102
{ACAD_REACTORS
330
47
102
}
330
47
100
AcDbScale
 70
     0
300
3/32" = 1'-0"
140
0.09375
141
12.0
290
     0
  0
SCALE
  5
5E
102
{ACAD_REACTORS
330
47
102
}
330
47
100
AcDbScale
 70
     0
300
1/8" = 1'-0"
140
0.125
141
12.0
290
     0
  0
SCALE
  5
5F
102
{ACAD_REACTORS
330
47
102
}
330
47
100
AcDbScale
 70
     0
300
3/16" = 1'-0"
140
0.1875
141
12.0
290
     0
  0
SCALE
  5
60
102
{ACAD_REACTORS
330
47
102
}
330
47
100
AcDbScale
 70
     0
300
1/4" = 1'-0"
140
0.25
141
12.0
290
     0
  0
SCALE
  5
61
102
{ACAD_REACTORS
330
47
102
}
330
47
100
AcDbScale
 70
     0
300
3/8" = 1'-0"
140
0.375
141
12.0
290
     0
  0
SCALE
  5
62
102
{ACAD_REACTORS
330
47
102
}
330
47
100
AcDbScale
 70
     0
300
1/2" = 1'-0"
140
0.5
141
12.0
290
     0
  0
SCALE
  5
63
102
{ACAD_REACTORS
330
47
102
}
330
47
100
AcDbScale
 70
     0
300
3/4" = 1'-0"
140
0.75
141
12.0
290
     0
  0
SCALE
  5
64
102
{ACAD_REACTORS
330
47
102
}
330
47
100
AcDbScale
 70
     0
300
1" = 1'-0"
140
1.0
141
12.0
290
     0
  0
SCALE
  5
65
102
{ACAD_REACTORS
330
47
102
}
330
47
100
AcDbScale
 70
     0
300
1-1/2" = 1'-0"
140
1.5
141
12.0
290
     0
  0
SCALE
  5
66
102
{ACAD_REACTORS
330
47
102
}
330
47
100
AcDbScale
 70
     0
300
3" = 1'-0"
140
3.0
141
12.0
290
     0
  0
SCALE
  5
67
102
{ACAD_REACTORS
330
47
102
}
330
47
100
AcDbScale
 70
     0
300
6" = 1'-0"
140
6.0
141
12.0
290
     0
  0
SCALE
  5
68
102
{ACAD_REACTORS
330
47
102
}
330
47
100
AcDbScale
 70
     0
300
1'-0" = 1'-0"
140
12.0
141
12.0
290
     0
  0
ACDBSECTIONVIEWSTYLE
  5
303
102
{ACAD_XDICTIONARY
360
3AA
102
}
102
{ACAD_REACTORS
330
2FF
102
}
330
2FF
100
AcDbModelDocViewStyle
 70
     0
  3
Metric50
290
     0
100
AcDbSectionViewStyle
 70
     0
 71
     0
 90
      102
 71
     1
340
11
 62
   256
 40
5.0
340
0
340
0
 62
   256
 40
5.0
300
I, O, Q, S, X, Z
 40
10.0
 90
        0
 40
2.5
 90
        0
 71
     2
340
16
 90
       25
 62
   256
340
16
 90
       50
 62
   256
 40
5.0
 40
2.5
 40
5.0
 71
     3
340
11
 62
   256
 40
5.0
 90
        0
 40
15.0
 90
        1
300
%<\AcVar ViewSectionStartId>%-%<\AcVar ViewSectionEndId>% (%<\AcVar ViewScale \f "%sn">%)
 71
     4
 62
   256
 62
   257
300
ANSI31
 40
1.0
 90
        0
290
     0
290
     0
 90
        6
 40
0.0
 40
1.570796326794896
 40
0.2617993877991494
 40
1.308996938995747
 40
-0.2617993877991494
 40
1.832595714594046
  0
TABLESTYLE
  5
6A
102
{ACAD_XDICTIONARY
360
2F5
102
}
102
{ACAD_REACTORS
330
69
102
}
330
69
100
AcDbTableStyle
  3
Standard
 70
     0
 71
     0
 40
0.06
 41
0.06
280
     0
281
     0
  7
Standard
140
0.18
170
     2
 62
     0
 63
     7
283
     0
274
    -2
284
     1
 64
     0
275
    -2
285
     1
 65
     0
276
    -2
286
     1
 66
     0
277
    -2
287
     1
 67
     0
278
    -2
288
     1
 68
     0
279
    -2
289
     1
 69
     0
  7
Standard
140
0.25
170
     5
 62
     0
 63
     7
283
     0
274
    -2
284
     1
 64
     0
275
    -2
285
     1
 65
     0
276
    -2
286
     1
 66
     0
277
    -2
287
     1
 67
     0
278
    -2
288
     1
 68
     0
279
    -2
289
     1
 69
     0
  7
Standard
140
0.18
170
     5
 62
     0
 63
     7
283
     0
274
    -2
284
     1
 64
     0
275
    -2
285
     1
 65
     0
276
    -2
286
     1
 66
     0
277
    -2
287
     1
 67
     0
278
    -2
288
     1
 68
     0
279
    -2
289
     1
 69
     0
  0
VISUALSTYLE
  5
2F
102
{ACAD_XDICTIONARY
360
381
102
}
102
{ACAD_REACTORS
330
2A
102
}
330
2A
100
AcDbVisualStyle
  2

 70
     4
 71
     0
 72
     2
 73
     0
 90
        0
 40
-0.6
 41
-30.0
 62
     5
 63
     7
421
 16777215
 74
     1
 91
        4
 64
     7
 65
   257
 75
     1
175
     1
 42
1.0
 92
        0
 66
   257
 43
1.0
 76
     1
 77
     6
 78
     2
 67
     7
 79
     5
170
     0
171
     0
290
     0
174
     0
 93
        1
 44
0.0
173
     0
291
     0
 45
0.0
1001
ACAD
1000
AcDbSavedByObjectVersion
1070
     0
  0
VISUALSTYLE
  5
32
102
{ACAD_XDICTIONARY
360
387
102
}
102
{ACAD_REACTORS
330
2A
102
}
330
2A
100
AcDbVisualStyle
  2

 70
     7
 71
     1
 72
     0
 73
     1
 90
        0
 40
-0.6
 41
-30.0
 62
     5
 63
     7
421
 16777215
 74
     0
 91
        4
 64
     7
 65
   257
 75
     1
175
     1
 42
1.0
 92
        8
 66
     7
 43
1.0
 76
     1
 77
     6
 78
     2
 67
     7
 79
     5
170
     0
171
     0
290
     0
174
     0
 93
        1
 44
0.0
173
     0
291
     1
 45
0.0
1001
ACAD
1000
AcDbSavedByObjectVersion
1070
     0
  0
VISUALSTYLE
  5
36
102
{ACAD_XDICTIONARY
360
38F
102
}
102
{ACAD_REACTORS
330
2A
102
}
330
2A
100
AcDbVisualStyle
  2

 70
    12
 71
     2
 72
     2
 73
     0
 90
        0
 40
-0.6
 41
-30.0
 62
     5
 63
     7
421
 16777215
 74
     1
 91
        4
 64
     7
 65
   257
 75
     1
175
     1
 42
1.0
 92
        8
 66
     7
 43
1.0
 76
     1
 77
     6
 78
     2
 67
     7
 79
     5
170
     0
171
     0
290
     0
174
     0
 93
        1
 44
50.0
173
     0
291
     1
 45
0.0
1001
ACAD
1000
AcDbSavedByObjectVersion
1070
     0
  0
VISUALSTYLE
  5
3A
102
{ACAD_XDICTIONARY
360
397
102
}
102
{ACAD_REACTORS
330
2A
102
}
330
2A
100
AcDbVisualStyle
  2

 70
    16
 71
     2
 72
     2
 73
     3
 90
        0
 40
-0.6
 41
-30.0
 62
     5
 63
     8
421
  8421504
 74
     1
 91
        4
 64
     7
 65
   257
 75
     1
175
     1
 42
1.0
 92
        8
 66
     8
424
  8421504
 43
1.0
 76
     1
 77
     6
 78
     2
 67
     7
 79
     5
170
     0
171
     0
290
     0
174
     0
 93
        1
 44
0.0
173
     0
291
     1
 45
0.0
1001
ACAD
1000
AcDbSavedByObjectVersion
1070
     0
  0
VISUALSTYLE
  5
34
102
{ACAD_XDICTIONARY
360
38B
102
}
102
{ACAD_REACTORS
330
2A
102
}
330
2A
100
AcDbVisualStyle
  2

 70
     9
 71
     3
 72
     2
 73
     0
 90
        0
 40
-0.6
 41
-30.0
 62
     5
 63
     7
421
 16777215
 74
     2
 91
        2
 64
     7
 65
   257
 75
     1
175
     1
 42
179.0
 92
        8
 66
     7
 43
1.0
 76
     1
 77
     6
 78
     2
 67
     7
 79
     3
170
     0
171
     0
290
     0
174
     0
 93
        1
 44
0.0
173
     0
291
     0
 45
0.0
1001
ACAD
1000
AcDbSavedByObjectVersion
1070
     0
  0
VISUALSTYLE
  5
35
102
{ACAD_XDICTIONARY
360
38D
102
}
102
{ACAD_REACTORS
330
2A
102
}
330
2A
100
AcDbVisualStyle
  2

 70
    11
 71
     2
 72
     2
 73
     0
 90
        0
 40
-0.6
 41
-30.0
 62
     5
 63
     7
421
 16777215
 74
     1
 91
        4
 64
     7
 65
   257
 75
     1
175
     1
 42
1.0
 92
        8
 66
     7
 43
1.0
 76
     1
 77
     6
 78
     2
 67
     7
 79
     5
170
     0
171
     0
290
     0
174
     0
 93
        1
 44
-50.0
173
     0
291
     1
 45
0.0
1001
ACAD
1000
AcDbSavedByObjectVersion
1070
     0
  0
VISUALSTYLE
  5
3D
102
{ACAD_XDICTIONARY
360
39D
102
}
102
{ACAD_REACTORS
330
2A
102
}
330
2A
100
AcDbVisualStyle
  2

 70
    22
 71
     2
 72
     2
 73
     0
 90
        0
 40
-0.6
 41
-30.0
 62
     5
 63
     7
421
 16777215
 74
     1
 91
        4
 64
     7
 65
   257
 75
     1
175
     1
 42
1.0
 92
        8
 66
     7
 43
1.0
 76
     1
 77
     6
 78
     2
 67
     7
 79
     5
170
     0
171
     0
290
     0
174
     0
 93
        1
 44
0.0
173
     0
291
     1
 45
0.0
1001
ACAD
1000
AcDbSavedByObjectVersion
1070
     0
  0
VISUALSTYLE
  5
39
102
{ACAD_XDICTIONARY
360
395
102
}
102
{ACAD_REACTORS
330
2A
102
}
330
2A
100
AcDbVisualStyle
  2

 70
    15
 71
     2
 72
     2
 73
     0
 90
        0
 40
-0.6
 41
-30.0
 62
     5
 63
     7
421
 16777215
 74
     1
 91
        4
 64
     7
 65
   257
 75
     1
175
     1
 42
1.0
 92
        8
 66
     7
 43
1.0
 76
     1
 77
     6
 78
     2
 67
     7
 79
     5
170
     0
171
     0
290
     0
174
     0
 93
        1
 44
0.0
173
     0
291
     1
 45
0.0
1001
ACAD
1000
AcDbSavedByObjectVersion
1070
     0
  0
VISUALSTYLE
  5
2B
102
{ACAD_XDICTIONARY
360
379
102
}
102
{ACAD_REACTORS
330
2A
102
}
330
2A
100
AcDbVisualStyle
  2

 70
     0
 71
     2
 72
     1
 73
     1
 90
        2
 40
-0.6
 41
30.0
 62
     5
 63
     7
421
 16777215
 74
     0
 91
        0
 64
     7
 65
   257
 75
     1
175
     1
 42
1.0
 92
        8
 66
     7
 43
1.0
 76
     1
 77
     6
 78
     2
 67
     7
 79
     5
170
     0
171
     0
290
     0
174
     0
 93
       13
 44
0.0
173
     0
291
     1
 45
0.0
1001
ACAD
1000
AcDbSavedByObjectVersion
1070
     0
  0
VISUALSTYLE
  5
2C
102
{ACAD_XDICTIONARY
360
37B
102
}
102
{ACAD_REACTORS
330
2A
102
}
330
2A
100
AcDbVisualStyle
  2

 70
     1
 71
     2
 72
     1
 73
     1
 90
        2
 40
-0.6
 41
30.0
 62
     5
 63
     7
421
 16777215
 74
     1
 91
        0
 64
     7
 65
   257
 75
     1
175
     1
 42
1.0
 92
        0
 66
   257
 43
1.0
 76
     1
 77
     6
 78
     2
 67
     7
 79
     5
170
     0
171
     0
290
     0
174
     0
 93
       13
 44
0.0
173
     0
291
     1
 45
0.0
1001
ACAD
1000
AcDbSavedByObjectVersion
1070
     0
  0
VISUALSTYLE
  5
2D
102
{ACAD_XDICTIONARY
360
37D
102
}
102
{ACAD_REACTORS
330
2A
102
}
330
2A
100
AcDbVisualStyle
  2

 70
     2
 71
     2
 72
     2
 73
     1
 90
        2
 40
-0.6
 41
30.0
 62
     5
 63
     7
421
 16777215
 74
     0
 91
        0
 64
     7
 65
   257
 75
     1
175
     1
 42
1.0
 92
        0
 66
     7
 43
1.0
 76
     1
 77
     6
 78
     2
 67
     7
 79
     5
170
     0
171
     0
290
     0
174
     0
 93
       13
 44
0.0
173
     0
291
     1
 45
0.0
1001
ACAD
1000
AcDbSavedByObjectVersion
1070
     0
  0
VISUALSTYLE
  5
2E
102
{ACAD_XDICTIONARY
360
37F
102
}
102
{ACAD_REACTORS
330
2A
102
}
330
2A
100
AcDbVisualStyle
  2

 70
     3
 71
     2
 72
     2
 73
     1
 90
        2
 40
-0.6
 41
30.0
 62
     5
 63
     7
421
 16777215
 74
     1
 91
        0
 64
     7
 65
   257
 75
     1
175
     1
 42
1.0
 92
        0
 66
   257
 43
1.0
 76
     1
 77
     6
 78
     2
 67
     7
 79
     5
170
     0
171
     0
290
     0
174
     0
 93
       13
 44
0.0
173
     0
291
     1
 45
0.0
1001
ACAD
1000
AcDbSavedByObjectVersion
1070
     0
  0
VISUALSTYLE
  5
31
102
{ACAD_XDICTIONARY
360
385
102
}
102
{ACAD_REACTORS
330
2A
102
}
330
2A
100
AcDbVisualStyle
  2

 70
     6
 71
     1
 72
     2
 73
     2
 90
        0
 40
-0.6
 41
-30.0
 62
     5
 63
     7
421
 16777215
 74
     2
 91
        2
 64
     7
 65
   257
 75
     2
175
     1
 42
40.0
 92
        0
 66
   257
 43
1.0
 76
     1
 77
     6
 78
     2
 67
     7
 79
     3
170
     0
171
     0
290
     0
174
     0
 93
        1
 44
0.0
173
     0
291
     0
 45
0.0
1001
ACAD
1000
AcDbSavedByObjectVersion
1070
     0
  0
VISUALSTYLE
  5
3B
102
{ACAD_XDICTIONARY
360
399
102
}
102
{ACAD_REACTORS
330
2A
102
}
330
2A
100
AcDbVisualStyle
  2

 70
    20
 71
     2
 72
     2
 73
     0
 90
        0
 40
-0.6
 41
-30.0
 62
     5
 63
     7
421
 16777215
 74
     1
 91
        4
 64
     7
 65
   257
 75
     1
175
     1
 42
1.0
 92
       10
 66
     7
 43
1.0
 76
     1
 77
     6
 78
     2
 67
     7
 79
     5
170
     0
171
     0
290
     0
174
     0
 93
        1
 44
0.0
173
     0
291
     1
 45
0.0
1001
ACAD
1000
AcDbSavedByObjectVersion
1070
     0
  0
VISUALSTYLE
  5
38
102
{ACAD_XDICTIONARY
360
393
102
}
102
{ACAD_REACTORS
330
2A
102
}
330
2A
100
AcDbVisualStyle
  2

 70
    14
 71
     2
 72
     2
 73
     0
 90
        0
 40
-0.6
 41
-30.0
 62
     5
 63
     7
421
 16777215
 74
     1
 91
        4
 64
     7
 65
   257
 75
     7
175
     7
 42
1.0
 92
        8
 66
     7
 43
1.0
 76
     1
 77
     6
 78
     2
 67
     7
 79
     5
170
     0
171
     0
290
     0
174
     0
 93
        1
 44
0.0
173
     0
291
     1
 45
0.0
1001
ACAD
1000
AcDbSavedByObjectVersion
1070
     0
  0
VISUALSTYLE
  5
3C
102
{ACAD_XDICTIONARY
360
39B
102
}
102
{ACAD_REACTORS
330
2A
102
}
330
2A
100
AcDbVisualStyle
  2

 70
    21
 71
     2
 72
     2
 73
     0
 90
        0
 40
-0.6
 41
-30.0
 62
     5
 63
     7
421
 16777215
 74
     1
 91
        4
 64
     7
 65
   257
 75
     1
175
     1
 42
1.0
 92
        9
 66
     7
 43
1.0
 76
     1
 77
     6
 78
     2
 67
     7
 79
     5
170
     0
171
     0
290
     0
174
     0
 93
        1
 44
0.0
173
     0
291
     1
 45
0.0
1001
ACAD
1000
AcDbSavedByObjectVersion
1070
     0
  0
VISUALSTYLE
  5
33
102
{ACAD_XDICTIONARY
360
389
102
}
102
{ACAD_REACTORS
330
2A
102
}
330
2A
100
AcDbVisualStyle
  2

 70
     8
 71
     2
 72
     3
 73
     0
 90
        2
 40
-0.6
 41
30.0
 62
     5
 63
     7
421
 16777215
 74
     0
 91
        0
 64
     7
 65
   257
 75
     1
175
     1
 42
1.0
 92
        8
 66
   257
 43
1.0
 76
     1
 77
     6
 78
     2
 67
     7
 79
     3
170
     0
171
     0
290
     0
174
     0
 93
       13
 44
0.0
173
     0
291
     0
 45
0.0
1001
ACAD
1000
AcDbSavedByObjectVersion
1070
     0
  0
VISUALSTYLE
  5
42
102
{ACAD_XDICTIONARY
360
3A7
102
}
102
{ACAD_REACTORS
330
2A
102
}
330
2A
100
AcDbVisualStyle
  2

 70
    27
 71
     2
 72
     2
 73
     1
 90
        2
 40
-0.6
 41
30.0
 62
     5
 63
     7
421
 16777215
 74
     0
 91
        4
 64
     7
 65
   257
 75
     1
175
     1
 42
1.0
 92
        8
 66
   257
 43
1.0
 76
     1
 77
     6
 78
     2
 67
     8
425
  7895160
 79
     3
170
     0
171
     0
290
     0
174
     0
 93
        5
 44
0.0
173
     0
291
     0
 45
0.0
1001
ACAD
1000
AcDbSavedByObjectVersion
1070
     0
  0
VISUALSTYLE
  5
41
102
{ACAD_XDICTIONARY
360
3A5
102
}
102
{ACAD_REACTORS
330
2A
102
}
330
2A
100
AcDbVisualStyle
  2

 70
    26
 71
     2
 72
     2
 73
     1
 90
        2
 40
-0.6
 41
30.0
 62
     5
 63
     7
421
 16777215
 74
     1
 91
       10
 64
     7
 65
   257
 75
     2
175
     1
 42
1.0
 92
        8
 66
   257
 43
1.0
 76
     1
 77
     6
 78
     2
 67
     7
 79
     3
170
     0
171
     0
290
     0
174
     0
 93
        5
 44
0.0
173
     0
291
     0
 45
0.0
1001
ACAD
1000
AcDbSavedByObjectVersion
1070
     0
  0
VISUALSTYLE
  5
3E
102
{ACAD_XDICTIONARY
360
39F
102
}
102
{ACAD_REACTORS
330
2A
102
}
330
2A
100
AcDbVisualStyle
  2

 70
    23
 71
     2
 72
     2
 73
     3
 90
        0
 40
-0.6
 41
-30.0
 62
     5
 63
     7
421
 16777215
 74
     2
 91
        2
 64
     7
 65
     7
 75
     1
175
     1
 42
40.0
 92
        8
 66
     7
 43
1.0
 76
     1
 77
     6
 78
     2
 67
     7
 79
     3
170
     0
171
     0
290
     0
174
     0
 93
        1
 44
0.0
173
     0
291
     0
 45
0.0
1001
ACAD
1000
AcDbSavedByObjectVersion
1070
     0
  0
VISUALSTYLE
  5
3F
102
{ACAD_XDICTIONARY
360
3A1
102
}
102
{ACAD_REACTORS
330
2A
102
}
330
2A
100
AcDbVisualStyle
  2

 70
    24
 71
     1
 72
     2
 73
     2
 90
        0
 40
-0.6
 41
-30.0
 62
     5
 63
     7
421
 16777215
 74
     2
 91
        2
 64
     7
 65
     7
 75
     1
175
     1
 42
40.0
 92
       11
 66
     7
 43
1.0
 76
     1
 77
     6
 78
     2
 67
     7
 79
     6
170
     0
171
     0
290
     0
174
     0
 93
        1
 44
0.0
173
     0
291
     0
 45
0.0
1001
ACAD
1000
AcDbSavedByObjectVersion
1070
     0
  0
VISUALSTYLE
  5
37
102
{ACAD_XDICTIONARY
360
391
102
}
102
{ACAD_REACTORS
330
2A
102
}
330
2A
100
AcDbVisualStyle
  2

 70
    13
 71
     2
 72
     2
 73
     0
 90
        0
 40
-0.6
 41
-30.0
 62
     5
 63
     7
421
 16777215
 74
     1
 91
        4
 64
     7
 65
   257
 75
     1
175
     1
 42
1.0
 92
       12
 66
     7
 43
1.0
 76
     1
 77
     6
 78
     2
 67
     7
 79
     5
170
     0
171
     0
290
     0
174
     0
 93
        1
 44
0.0
173
     0
291
     1
 45
0.0
1001
ACAD
1000
AcDbSavedByObjectVersion
1070
     0
  0
VISUALSTYLE
  5
30
102
{ACAD_XDICTIONARY
360
383
102
}
102
{ACAD_REACTORS
330
2A
102
}
330
2A
100
AcDbVisualStyle
  2

 70
     5
 71
     0
 72
     2
 73
     0
 90
        0
 40
-0.6
 41
-30.0
 62
     5
 63
     7
421
 16777215
 74
     1
 91
        4
 64
     7
 65
   257
 75
     1
175
     1
 42
1.0
 92
        0
 66
   257
 43
1.0
 76
     1
 77
     6
 78
     2
 67
     7
 79
     3
170
     0
171
     0
290
     0
174
     0
 93
        1
 44
0.0
173
     0
291
     0
 45
0.0
1001
ACAD
1000
AcDbSavedByObjectVersion
1070
     0
  0
VISUALSTYLE
  5
40
102
{ACAD_XDICTIONARY
360
3A3
102
}
102
{ACAD_REACTORS
330
2A
102
}
330
2A
100
AcDbVisualStyle
  2

 70
    25
 71
     2
 72
     2
 73
     1
 90
        1
 40
0.5
 41
-30.0
 62
     5
 63
     7
421
 16777215
 74
     1
 91
        0
 64
     7
 65
   257
 75
     1
175
     1
 42
1.0
 92
        8
 66
     7
 43
1.0
 76
     1
 77
     6
 78
     2
 67
     7
 79
     3
170
     0
171
     0
290
     0
174
     0
 93
       13
 44
0.0
173
     0
291
     0
 45
0.0
1001
ACAD
1000
AcDbSavedByObjectVersion
1070
     0
  0
DICTIONARYVAR
  5
2BC
102
{ACAD_REACTORS
330
2BB
102
}
330
2BB
100
DictionaryVariables
280
     0
  1
1:1
  0
DICTIONARYVAR
  5
2FD
102
{ACAD_REACTORS
330
2BB
102
}
330
2BB
100
DictionaryVariables
280
     0
  1
STANDARD
  0
DICTIONARYVAR
  5
2FC
102
{ACAD_REACTORS
330
2BB
102
}
330
2BB
100
DictionaryVariables
280
     0
  1
STANDARD
  0
DICTIONARYVAR
  5
373
102
{ACAD_REACTORS
330
2BB
102
}
330
2BB
100
DictionaryVariables
280
     0
  1
Metric50
  0
DICTIONARYVAR
  5
374
102
{ACAD_REACTORS
330
2BB
102
}
330
2BB
100
DictionaryVariables
280
     0
  1
Metric50
  0
DICTIONARYVAR
  5
2BD
102
{ACAD_REACTORS
330
2BB
102
}
330
2BB
100
DictionaryVariables
280
     0
  1
1
  0
DICTIONARYVAR
  5
375
102
{ACAD_REACTORS
330
2BB
102
}
330
2BB
100
DictionaryVariables
280
     0
  1
2
  0
DICTIONARY
  5
3AC
330
304
100
AcDbDictionary
280
     1
281
     1
  3
ACAD_XREC_ROUNDTRIP
360
3AD
  0
DICTIONARY
  5
2F1
330
45
100
AcDbDictionary
280
     1
281
     1
  3
ACAD_XREC_ROUNDTRIP
360
2F2
  0
DICTIONARY
  5
2EF
330
44
100
AcDbDictionary
280
     1
281
     1
  3
ACAD_XREC_ROUNDTRIP
360
2F0
  0
DICTIONARY
  5
2F3
330
46
100
AcDbDictionary
280
     1
281
     1
  3
ACAD_XREC_ROUNDTRIP
360
2F4
  0
DICTIONARY
  5
3AA
330
303
100
AcDbDictionary
280
     1
281
     1
  3
ACAD_XREC_ROUNDTRIP
360
3AB
  0
DICTIONARY
  5
2F5
330
6A
100
AcDbDictionary
280
     1
281
     1
  3
ACAD_ROUNDTRIP_2008_TABLESTYLE_CELLSTYLEMAP
360
377
  3
ACAD_XREC_ROUNDTRIP
360
3A9
  0
DICTIONARY
  5
381
330
2F
100
AcDbDictionary
280
     1
281
     1
  3
ACAD_XREC_ROUNDTRIP
360
382
  0
DICTIONARY
  5
387
330
32
100
AcDbDictionary
280
     1
281
     1
  3
ACAD_XREC_ROUNDTRIP
360
388
  0
DICTIONARY
  5
38F
330
36
100
AcDbDictionary
280
     1
281
     1
  3
ACAD_XREC_ROUNDTRIP
360
390
  0
DICTIONARY
  5
397
330
3A
100
AcDbDictionary
280
     1
281
     1
  3
ACAD_XREC_ROUNDTRIP
360
398
  0
DICTIONARY
  5
38B
330
34
100
AcDbDictionary
280
     1
281
     1
  3
ACAD_XREC_ROUNDTRIP
360
38C
  0
DICTIONARY
  5
38D
330
35
100
AcDbDictionary
280
     1
281
     1
  3
ACAD_XREC_ROUNDTRIP
360
38E
  0
DICTIONARY
  5
39D
330
3D
100
AcDbDictionary
280
     1
281
     1
  3
ACAD_XREC_ROUNDTRIP
360
39E
  0
DICTIONARY
  5
395
330
39
100
AcDbDictionary
280
     1
281
     1
  3
ACAD_XREC_ROUNDTRIP
360
396
  0
DICTIONARY
  5
379
330
2B
100
AcDbDictionary
280
     1
281
     1
  3
ACAD_XREC_ROUNDTRIP
360
37A
  0
DICTIONARY
  5
37B
330
2C
100
AcDbDictionary
280
     1
281
     1
  3
ACAD_XREC_ROUNDTRIP
360
37C
  0
DICTIONARY
  5
37D
330
2D
100
AcDbDictionary
280
     1
281
     1
  3
ACAD_XREC_ROUNDTRIP
360
37E
  0
DICTIONARY
  5
37F
330
2E
100
AcDbDictionary
280
     1
281
     1
  3
ACAD_XREC_ROUNDTRIP
360
380
  0
DICTIONARY
  5
385
330
31
100
AcDbDictionary
280
     1
281
     1
  3
ACAD_XREC_ROUNDTRIP
360
386
  0
DICTIONARY
  5
399
330
3B
100
AcDbDictionary
280
     1
281
     1
  3
ACAD_XREC_ROUNDTRIP
360
39A
  0
DICTIONARY
  5
393
330
38
100
AcDbDictionary
280
     1
281
     1
  3
ACAD_XREC_ROUNDTRIP
360
394
  0
DICTIONARY
  5
39B
330
3C
100
AcDbDictionary
280
     1
281
     1
  3
ACAD_XREC_ROUNDTRIP
360
39C
  0
DICTIONARY
  5
389
330
33
100
AcDbDictionary
280
     1
281
     1
  3
ACAD_XREC_ROUNDTRIP
360
38A
  0
DICTIONARY
  5
3A7
330
42
100
AcDbDictionary
280
     1
281
     1
  3
ACAD_XREC_ROUNDTRIP
360
3A8
  0
DICTIONARY
  5
3A5
330
41
100
AcDbDictionary
280
     1
281
     1
  3
ACAD_XREC_ROUNDTRIP
360
3A6
  0
DICTIONARY
  5
39F
330
3E
100
AcDbDictionary
280
     1
281
     1
  3
ACAD_XREC_ROUNDTRIP
360
3A0
  0
DICTIONARY
  5
3A1
330
3F
100
AcDbDictionary
280
     1
281
     1
  3
ACAD_XREC_ROUNDTRIP
360
3A2
  0
DICTIONARY
  5
391
330
37
100
AcDbDictionary
280
     1
281
     1
  3
ACAD_XREC_ROUNDTRIP
360
392
  0
DICTIONARY
  5
383
330
30
100
AcDbDictionary
280
     1
281
     1
  3
ACAD_XREC_ROUNDTRIP
360
384
  0
DICTIONARY
  5
3A3
330
40
100
AcDbDictionary
280
     1
281
     1
  3
ACAD_XREC_ROUNDTRIP
360
3A4
  0
XRECORD
  5
3AD
102
{ACAD_REACTORS
330
3AC
102
}
330
3AC
100
AcDbXrecord
280
     1
102
DISPLAYNAME
  1
Metric50
102
FLAGS
 90
        0
  0
XRECORD
  5
2F2
102
{ACAD_REACTORS
330
2F1
102
}
330
2F1
100
AcDbXrecord
280
     1
102
MATERIAL
148
0.0
149
0.0
149
0.0
 93
        0
 94
      127
282
     0
 72
     1
 77
     1
171
     1
175
     1
179
     1
273
     0
  0
XRECORD
  5
2F0
102
{ACAD_REACTORS
330
2EF
102
}
330
2EF
100
AcDbXrecord
280
     1
102
MATERIAL
148
0.0
149
0.0
149
0.0
 93
        0
 94
      127
282
     0
 72
     1
 77
     1
171
     1
175
     1
179
     1
273
     0
  0
XRECORD
  5
2F4
102
{ACAD_REACTORS
330
2F3
102
}
330
2F3
100
AcDbXrecord
280
     1
102
MATERIAL
148
0.0
149
0.0
149
0.0
 93
        0
 94
      127
282
     0
 72
     1
 77
     1
171
     1
175
     1
179
     1
273
     0
  0
XRECORD
  5
3AB
102
{ACAD_REACTORS
330
3AA
102
}
330
3AA
100
AcDbXrecord
280
     1
102
DISPLAYNAME
  1
Metric50
102
FLAGS
 90
        0
  0
CELLSTYLEMAP
  5
377
102
{ACAD_REACTORS
330
2F5
102
}
330
2F5
100
AcDbCellStyleMap
 90
        3
300
CELLSTYLE
  1
TABLEFORMAT_BEGIN
 90
        5
170
     1
 91
        0
 92
    32768
 62
   257
 93
        1
300
CONTENTFORMAT
  1
CONTENTFORMAT_BEGIN
 90
        0
 91
        0
 92
        4
 93
        0
300

 40
0.0
140
1.0
 94
        5
 62
     0
340
11
144
0.25
309
CONTENTFORMAT_END
171
     1
301
MARGIN
  1
CELLMARGIN_BEGIN
 40
0.06
 40
0.06
 40
0.06
 40
0.06
 40
0.18
 40
0.18
309
CELLMARGIN_END
 94
        6
 95
        1
302
GRIDFORMAT
  1
GRIDFORMAT_BEGIN
 90
        0
 91
        1
 62
     0
 92
       -2
340
14
 93
        0
 40
0.045
309
GRIDFORMAT_END
 95
        2
302
GRIDFORMAT
  1
GRIDFORMAT_BEGIN
 90
        0
 91
        1
 62
     0
 92
       -2
340
14
 93
        0
 40
0.045
309
GRIDFORMAT_END
 95
        4
302
GRIDFORMAT
  1
GRIDFORMAT_BEGIN
 90
        0
 91
        1
 62
     0
 92
       -2
340
14
 93
        0
 40
0.045
309
GRIDFORMAT_END
 95
        8
302
GRIDFORMAT
  1
GRIDFORMAT_BEGIN
 90
        0
 91
        1
 62
     0
 92
       -2
340
14
 93
        0
 40
0.045
309
GRIDFORMAT_END
 95
       16
302
GRIDFORMAT
  1
GRIDFORMAT_BEGIN
 90
        0
 91
        1
 62
     0
 92
       -2
340
14
 93
        0
 40
0.045
309
GRIDFORMAT_END
 95
       32
302
GRIDFORMAT
  1
GRIDFORMAT_BEGIN
 90
        0
 91
        1
 62
     0
 92
       -2
340
14
 93
        0
 40
0.045
309
GRIDFORMAT_END
309
TABLEFORMAT_END
  1
CELLSTYLE_BEGIN
 90
        1
 91
        1
300
_TITLE
309
CELLSTYLE_END
300
CELLSTYLE
  1
TABLEFORMAT_BEGIN
 90
        5
170
     1
 91
        0
 92
        0
 62
   257
 93
        1
300
CONTENTFORMAT
  1
CONTENTFORMAT_BEGIN
 90
        0
 91
        0
 92
        4
 93
        0
300

 40
0.0
140
1.0
 94
        5
 62
     0
340
11
144
0.18
309
CONTENTFORMAT_END
171
     1
301
MARGIN
  1
CELLMARGIN_BEGIN
 40
0.06
 40
0.06
 40
0.06
 40
0.06
 40
0.18
 40
0.18
309
CELLMARGIN_END
 94
        6
 95
        1
302
GRIDFORMAT
  1
GRIDFORMAT_BEGIN
 90
        0
 91
        1
 62
     0
 92
       -2
340
14
 93
        0
 40
0.045
309
GRIDFORMAT_END
 95
        2
302
GRIDFORMAT
  1
GRIDFORMAT_BEGIN
 90
        0
 91
        1
 62
     0
 92
       -2
340
14
 93
        0
 40
0.045
309
GRIDFORMAT_END
 95
        4
302
GRIDFORMAT
  1
GRIDFORMAT_BEGIN
 90
        0
 91
        1
 62
     0
 92
       -2
340
14
 93
        0
 40
0.045
309
GRIDFORMAT_END
 95
        8
302
GRIDFORMAT
  1
GRIDFORMAT_BEGIN
 90
        0
 91
        1
 62
     0
 92
       -2
340
14
 93
        0
 40
0.045
309
GRIDFORMAT_END
 95
       16
302
GRIDFORMAT
  1
GRIDFORMAT_BEGIN
 90
        0
 91
        1
 62
     0
 92
       -2
340
14
 93
        0
 40
0.045
309
GRIDFORMAT_END
 95
       32
302
GRIDFORMAT
  1
GRIDFORMAT_BEGIN
 90
        0
 91
        1
 62
     0
 92
       -2
340
14
 93
        0
 40
0.045
309
GRIDFORMAT_END
309
TABLEFORMAT_END
  1
CELLSTYLE_BEGIN
 90
        2
 91
        1
300
_HEADER
309
CELLSTYLE_END
300
CELLSTYLE
  1
TABLEFORMAT_BEGIN
 90
        5
170
     1
 91
        0
 92
        0
 62
   257
 93
        1
300
CONTENTFORMAT
  1
CONTENTFORMAT_BEGIN
 90
        0
 91
        0
 92
        4
 93
        0
300

 40
0.0
140
1.0
 94
        2
 62
     0
340
11
144
0.18
309
CONTENTFORMAT_END
171
     1
301
MARGIN
  1
CELLMARGIN_BEGIN
 40
0.06
 40
0.06
 40
0.06
 40
0.06
 40
0.18
 40
0.18
309
CELLMARGIN_END
 94
        6
 95
        1
302
GRIDFORMAT
  1
GRIDFORMAT_BEGIN
 90
        0
 91
        1
 62
     0
 92
       -2
340
14
 93
        0
 40
0.045
309
GRIDFORMAT_END
 95
        2
302
GRIDFORMAT
  1
GRIDFORMAT_BEGIN
 90
        0
 91
        1
 62
     0
 92
       -2
340
14
 93
        0
 40
0.045
309
GRIDFORMAT_END
 95
        4
302
GRIDFORMAT
  1
GRIDFORMAT_BEGIN
 90
        0
 91
        1
 62
     0
 92
       -2
340
14
 93
        0
 40
0.045
309
GRIDFORMAT_END
 95
        8
302
GRIDFORMAT
  1
GRIDFORMAT_BEGIN
 90
        0
 91
        1
 62
     0
 92
       -2
340
14
 93
        0
 40
0.045
309
GRIDFORMAT_END
 95
       16
302
GRIDFORMAT
  1
GRIDFORMAT_BEGIN
 90
        0
 91
        1
 62
     0
 92
       -2
340
14
 93
        0
 40
0.045
309
GRIDFORMAT_END
 95
       32
302
GRIDFORMAT
  1
GRIDFORMAT_BEGIN
 90
        0
 91
        1
 62
     0
 92
       -2
340
14
 93
        0
 40
0.045
309
GRIDFORMAT_END
309
TABLEFORMAT_END
  1
CELLSTYLE_BEGIN
 90
        3
 91
        2
300
_DATA
309
CELLSTYLE_END
  0
XRECORD
  5
3A9
102
{ACAD_REACTORS
330
2F5
102
}
330
2F5
100
AcDbXrecord
280
     1
102
ACAD_ROUNDTRIP_PRE2007_TABLESTYLE
 90
        4
 91
        0
  1

 92
        4
 93
        0
  2

 94
        4
 95
        0
  3

  0
XRECORD
  5
382
102
{ACAD_REACTORS
330
381
102
}
330
381
100
AcDbXrecord
280
     1
102
RTVSPost2010Prop28
280
     1
102
RTVSPost2010PropOp28
 70
     1
102
RTVSPost2010Prop29
280
     1
102
RTVSPost2010PropOp29
 70
     1
102
RTVSPost2010Prop30
280
     0
102
RTVSPost2010PropOp30
 70
     1
102
RTVSPost2010Prop31
280
     0
102
RTVSPost2010PropOp31
 70
     1
102
RTVSPost2010Prop32
280
     0
102
RTVSPost2010PropOp32
 70
     1
102
RTVSPost2010Prop33
280
     0
102
RTVSPost2010PropOp33
 70
     1
102
RTVSPost2010Prop34
280
     0
102
RTVSPost2010PropOp34
 70
     1
102
RTVSPost2010Prop35
280
     0
102
RTVSPost2010PropOp35
 70
     1
102
RTVSPost2010Prop36
280
     0
102
RTVSPost2010PropOp36
 70
     1
102
RTVSPost2010Prop37
 90
       50
102
RTVSPost2010PropOp37
 70
     1
102
RTVSPost2010Prop38
140
0.0
102
RTVSPost2010PropOp38
 70
     1
102
RTVSPost2010Prop39
140
1.0
102
RTVSPost2010PropOp39
 70
     1
102
RTVSPost2010Prop40
 90
        0
102
RTVSPost2010PropOp40
 70
     1
102
RTVSPost2010Prop41ColorIndex
 90
       18
102
RTVSPost2010Prop41ColorRGB
 90
        0
102
RTVSPost2010PropOp41
 70
     1
102
RTVSPost2010Prop42
 90
       50
102
RTVSPost2010PropOp42
 70
     1
102
RTVSPost2010Prop43
 90
        3
102
RTVSPost2010PropOp43
 70
     1
102
RTVSPost2010Prop44ColorIndex
 90
        5
102
RTVSPost2010Prop44ColorRGB
 90
      255
102
RTVSPost2010PropOp44
 70
     1
102
RTVSPost2010Prop45
280
     0
102
RTVSPost2010PropOp45
 70
     1
102
RTVSPost2010Prop46
 90
       50
102
RTVSPost2010PropOp46
 70
     1
102
RTVSPost2010Prop47
 90
       50
102
RTVSPost2010PropOp47
 70
     1
102
RTVSPost2010Prop48
 90
       50
102
RTVSPost2010PropOp48
 70
     1
102
RTVSPost2010Prop49
280
     0
102
RTVSPost2010PropOp49
 70
     1
102
RTVSPost2010Prop50
 90
       50
102
RTVSPost2010PropOp50
 70
     1
102
RTVSPost2010Prop51ColorIndex
 90
      256
102
RTVSPost2010Prop51ColorRGB
 90
-16777216
102
RTVSPost2010PropOp51
 70
     0
102
RTVSPost2010Prop52
140
1.0
102
RTVSPost2010PropOp52
 70
     0
102
RTVSPost2010Prop53
 90
        2
102
RTVSPost2010PropOp53
 70
     1
102
RTVSPost2010Prop54
  1
strokes_ogs.tif
102
RTVSPost2010PropOp54
 70
     1
102
RTVSPost2010Prop55
280
     0
102
RTVSPost2010PropOp55
 70
     1
102
RTVSPost2010Prop56
140
1.0
102
RTVSPost2010PropOp56
 70
     1
102
RTVSPost2010Prop57
140
1.0
102
RTVSPost2010PropOp57
 70
     1
102
RTVSPropertyOp0
 70
     1
102
RTVSPropertyOp1
 70
     1
102
RTVSPropertyOp2
 70
     1
102
RTVSPropertyOp3
 70
     1
102
RTVSPropertyOp4
 70
     1
102
RTVSPropertyOp5
 70
     1
102
RTVSPropertyOp6
 70
     1
102
RTVSPropertyOp7
 70
     1
102
RTVSPropertyOp8
 70
     1
102
RTVSPropertyOp9
 70
     1
102
RTVSPropertyOp10
 70
     1
102
RTVSPropertyOp11
 70
     1
102
RTVSPropertyOp12
 70
     1
102
RTVSPropertyOp13
 70
     1
102
RTVSPropertyOp14
 70
     1
102
RTVSPropertyOp15
 70
     1
102
RTVSPropertyOp16
 70
     1
102
RTVSPropertyOp17
 70
     1
102
RTVSPropertyOp18
 70
     1
102
RTVSPropertyOp19
 70
     1
102
RTVSPropertyOp20
 70
     1
102
RTVSPropertyOp21
 70
     1
102
RTVSPropertyOp22
 70
     1
102
RTVSPropertyOp23
 70
     1
102
RTVSPropertyOp24
 70
     1
102
RTVSPropertyOp25
 70
     1
102
RTVSPropertyOp26
 70
     1
102
RTVSPropertyOp27
 70
     1
102
RTVSPropertyOp28
 70
     1
102
RTVSPropertyOp29
 70
     1
102
RTVSPropertyOp30
 70
     1
102
RTVSPropertyOp31
 70
     1
102
RTVSPropertyOp32
 70
     1
102
RTVSPropertyOp33
 70
     1
102
RTVSPropertyOp34
 70
     1
102
RTVSPropertyOp35
 70
     1
102
RTVSPropertyOp36
 70
     1
102
RTVSPropertyOp37
 70
     1
102
RTVSPropertyOp38
 70
     1
102
RTVSPropertyOp39
 70
     1
102
RTVSPropertyOp40
 70
     1
102
RTVSPropertyOp41
 70
     1
102
RTVSPropertyOp42
 70
     1
102
RTVSPropertyOp43
 70
     1
102
RTVSPropertyOp44
 70
     1
102
RTVSPropertyOp45
 70
     1
102
RTVSPropertyOp46
 70
     1
102
RTVSPropertyOp47
 70
     1
102
RTVSPropertyOp48
 70
     1
102
RTVSPropertyOp49
 70
     1
102
RTVSPropertyOp50
 70
     1
102
RTVSPropertyOp51
 70
     0
102
RTVSPropertyOp52
 70
     0
102
RTVSPropertyOp53
 70
     1
102
RTVSPropertyOp54
 70
     1
102
RTVSPropertyOp55
 70
     1
102
RTVSPropertyOp56
 70
     1
102
RTVSPropertyOp57
 70
     1
102
RTVSPropertyOp58
 70
     1
102
RTVSPropertyOp59
 70
     1
102
RTVSPropertyOp60
 70
     1
102
RTVSPropertyOp61
 70
     1
102
RTVSPropertyOp62
 70
     1
  0
XRECORD
  5
388
102
{ACAD_REACTORS
330
387
102
}
330
387
100
AcDbXrecord
280
     1
102
RTVSPost2010Prop28
280
     0
102
RTVSPost2010PropOp28
 70
     1
102
RTVSPost2010Prop29
280
     1
102
RTVSPost2010PropOp29
 70
     1
102
RTVSPost2010Prop30
280
     1
102
RTVSPost2010PropOp30
 70
     1
102
RTVSPost2010Prop31
280
     0
102
RTVSPost2010PropOp31
 70
     1
102
RTVSPost2010Prop32
280
     0
102
RTVSPost2010PropOp32
 70
     1
102
RTVSPost2010Prop33
280
     0
102
RTVSPost2010PropOp33
 70
     1
102
RTVSPost2010Prop34
280
     0
102
RTVSPost2010PropOp34
 70
     1
102
RTVSPost2010Prop35
280
     0
102
RTVSPost2010PropOp35
 70
     1
102
RTVSPost2010Prop36
280
     0
102
RTVSPost2010PropOp36
 70
     1
102
RTVSPost2010Prop37
 90
       50
102
RTVSPost2010PropOp37
 70
     1
102
RTVSPost2010Prop38
140
0.0
102
RTVSPost2010PropOp38
 70
     1
102
RTVSPost2010Prop39
140
1.0
102
RTVSPost2010PropOp39
 70
     1
102
RTVSPost2010Prop40
 90
        0
102
RTVSPost2010PropOp40
 70
     1
102
RTVSPost2010Prop41ColorIndex
 90
       18
102
RTVSPost2010Prop41ColorRGB
 90
        0
102
RTVSPost2010PropOp41
 70
     1
102
RTVSPost2010Prop42
 90
       50
102
RTVSPost2010PropOp42
 70
     1
102
RTVSPost2010Prop43
 90
        3
102
RTVSPost2010PropOp43
 70
     1
102
RTVSPost2010Prop44ColorIndex
 90
        5
102
RTVSPost2010Prop44ColorRGB
 90
      255
102
RTVSPost2010PropOp44
 70
     1
102
RTVSPost2010Prop45
280
     0
102
RTVSPost2010PropOp45
 70
     1
102
RTVSPost2010Prop46
 90
       50
102
RTVSPost2010PropOp46
 70
     1
102
RTVSPost2010Prop47
 90
       50
102
RTVSPost2010PropOp47
 70
     1
102
RTVSPost2010Prop48
 90
       50
102
RTVSPost2010PropOp48
 70
     1
102
RTVSPost2010Prop49
280
     0
102
RTVSPost2010PropOp49
 70
     1
102
RTVSPost2010Prop50
 90
       50
102
RTVSPost2010PropOp50
 70
     1
102
RTVSPost2010Prop51ColorIndex
 90
      256
102
RTVSPost2010Prop51ColorRGB
 90
-16777216
102
RTVSPost2010PropOp51
 70
     0
102
RTVSPost2010Prop52
140
1.0
102
RTVSPost2010PropOp52
 70
     0
102
RTVSPost2010Prop53
 90
        2
102
RTVSPost2010PropOp53
 70
     1
102
RTVSPost2010Prop54
  1
strokes_ogs.tif
102
RTVSPost2010PropOp54
 70
     1
102
RTVSPost2010Prop55
280
     0
102
RTVSPost2010PropOp55
 70
     1
102
RTVSPost2010Prop56
140
1.0
102
RTVSPost2010PropOp56
 70
     1
102
RTVSPost2010Prop57
140
1.0
102
RTVSPost2010PropOp57
 70
     1
102
RTVSPropertyOp0
 70
     1
102
RTVSPropertyOp1
 70
     1
102
RTVSPropertyOp2
 70
     1
102
RTVSPropertyOp3
 70
     1
102
RTVSPropertyOp4
 70
     1
102
RTVSPropertyOp5
 70
     1
102
RTVSPropertyOp6
 70
     1
102
RTVSPropertyOp7
 70
     1
102
RTVSPropertyOp8
 70
     1
102
RTVSPropertyOp9
 70
     1
102
RTVSPropertyOp10
 70
     1
102
RTVSPropertyOp11
 70
     1
102
RTVSPropertyOp12
 70
     1
102
RTVSPropertyOp13
 70
     1
102
RTVSPropertyOp14
 70
     1
102
RTVSPropertyOp15
 70
     1
102
RTVSPropertyOp16
 70
     1
102
RTVSPropertyOp17
 70
     1
102
RTVSPropertyOp18
 70
     1
102
RTVSPropertyOp19
 70
     1
102
RTVSPropertyOp20
 70
     1
102
RTVSPropertyOp21
 70
     1
102
RTVSPropertyOp22
 70
     1
102
RTVSPropertyOp23
 70
     1
102
RTVSPropertyOp24
 70
     1
102
RTVSPropertyOp25
 70
     1
102
RTVSPropertyOp26
 70
     1
102
RTVSPropertyOp27
 70
     1
102
RTVSPropertyOp28
 70
     1
102
RTVSPropertyOp29
 70
     1
102
RTVSPropertyOp30
 70
     1
102
RTVSPropertyOp31
 70
     1
102
RTVSPropertyOp32
 70
     1
102
RTVSPropertyOp33
 70
     1
102
RTVSPropertyOp34
 70
     1
102
RTVSPropertyOp35
 70
     1
102
RTVSPropertyOp36
 70
     1
102
RTVSPropertyOp37
 70
     1
102
RTVSPropertyOp38
 70
     1
102
RTVSPropertyOp39
 70
     1
102
RTVSPropertyOp40
 70
     1
102
RTVSPropertyOp41
 70
     1
102
RTVSPropertyOp42
 70
     1
102
RTVSPropertyOp43
 70
     1
102
RTVSPropertyOp44
 70
     1
102
RTVSPropertyOp45
 70
     1
102
RTVSPropertyOp46
 70
     1
102
RTVSPropertyOp47
 70
     1
102
RTVSPropertyOp48
 70
     1
102
RTVSPropertyOp49
 70
     1
102
RTVSPropertyOp50
 70
     1
102
RTVSPropertyOp51
 70
     0
102
RTVSPropertyOp52
 70
     0
102
RTVSPropertyOp53
 70
     1
102
RTVSPropertyOp54
 70
     1
102
RTVSPropertyOp55
 70
     1
102
RTVSPropertyOp56
 70
     1
102
RTVSPropertyOp57
 70
     1
102
RTVSPropertyOp58
 70
     1
102
RTVSPropertyOp59
 70
     1
102
RTVSPropertyOp60
 70
     1
102
RTVSPropertyOp61
 70
     1
102
RTVSPropertyOp62
 70
     1
  0
XRECORD
  5
390
102
{ACAD_REACTORS
330
38F
102
}
330
38F
100
AcDbXrecord
280
     1
102
RTVSPost2010Prop28
280
     0
102
RTVSPost2010PropOp28
 70
     1
102
RTVSPost2010Prop29
280
     1
102
RTVSPost2010PropOp29
 70
     1
102
RTVSPost2010Prop30
280
     1
102
RTVSPost2010PropOp30
 70
     1
102
RTVSPost2010Prop31
280
     0
102
RTVSPost2010PropOp31
 70
     1
102
RTVSPost2010Prop32
280
     0
102
RTVSPost2010PropOp32
 70
     1
102
RTVSPost2010Prop33
280
     0
102
RTVSPost2010PropOp33
 70
     1
102
RTVSPost2010Prop34
280
     0
102
RTVSPost2010PropOp34
 70
     1
102
RTVSPost2010Prop35
280
     0
102
RTVSPost2010PropOp35
 70
     1
102
RTVSPost2010Prop36
280
     0
102
RTVSPost2010PropOp36
 70
     1
102
RTVSPost2010Prop37
 90
       50
102
RTVSPost2010PropOp37
 70
     1
102
RTVSPost2010Prop38
140
0.0
102
RTVSPost2010PropOp38
 70
     1
102
RTVSPost2010Prop39
140
1.0
102
RTVSPost2010PropOp39
 70
     1
102
RTVSPost2010Prop40
 90
        0
102
RTVSPost2010PropOp40
 70
     1
102
RTVSPost2010Prop41ColorIndex
 90
       18
102
RTVSPost2010Prop41ColorRGB
 90
        0
102
RTVSPost2010PropOp41
 70
     1
102
RTVSPost2010Prop42
 90
       50
102
RTVSPost2010PropOp42
 70
     1
102
RTVSPost2010Prop43
 90
        3
102
RTVSPost2010PropOp43
 70
     1
102
RTVSPost2010Prop44ColorIndex
 90
        5
102
RTVSPost2010Prop44ColorRGB
 90
      255
102
RTVSPost2010PropOp44
 70
     1
102
RTVSPost2010Prop45
280
     0
102
RTVSPost2010PropOp45
 70
     1
102
RTVSPost2010Prop46
 90
       50
102
RTVSPost2010PropOp46
 70
     1
102
RTVSPost2010Prop47
 90
       50
102
RTVSPost2010PropOp47
 70
     1
102
RTVSPost2010Prop48
 90
       50
102
RTVSPost2010PropOp48
 70
     1
102
RTVSPost2010Prop49
280
     0
102
RTVSPost2010PropOp49
 70
     1
102
RTVSPost2010Prop50
 90
       50
102
RTVSPost2010PropOp50
 70
     1
102
RTVSPost2010Prop51ColorIndex
 90
      256
102
RTVSPost2010Prop51ColorRGB
 90
-16777216
102
RTVSPost2010PropOp51
 70
     0
102
RTVSPost2010Prop52
140
1.0
102
RTVSPost2010PropOp52
 70
     0
102
RTVSPost2010Prop53
 90
        2
102
RTVSPost2010PropOp53
 70
     1
102
RTVSPost2010Prop54
  1
strokes_ogs.tif
102
RTVSPost2010PropOp54
 70
     1
102
RTVSPost2010Prop55
280
     0
102
RTVSPost2010PropOp55
 70
     1
102
RTVSPost2010Prop56
140
1.0
102
RTVSPost2010PropOp56
 70
     1
102
RTVSPost2010Prop57
140
1.0
102
RTVSPost2010PropOp57
 70
     1
102
RTVSPropertyOp0
 70
     1
102
RTVSPropertyOp1
 70
     1
102
RTVSPropertyOp2
 70
     1
102
RTVSPropertyOp3
 70
     1
102
RTVSPropertyOp4
 70
     1
102
RTVSPropertyOp5
 70
     1
102
RTVSPropertyOp6
 70
     1
102
RTVSPropertyOp7
 70
     1
102
RTVSPropertyOp8
 70
     1
102
RTVSPropertyOp9
 70
     1
102
RTVSPropertyOp10
 70
     1
102
RTVSPropertyOp11
 70
     1
102
RTVSPropertyOp12
 70
     1
102
RTVSPropertyOp13
 70
     1
102
RTVSPropertyOp14
 70
     1
102
RTVSPropertyOp15
 70
     1
102
RTVSPropertyOp16
 70
     1
102
RTVSPropertyOp17
 70
     1
102
RTVSPropertyOp18
 70
     1
102
RTVSPropertyOp19
 70
     1
102
RTVSPropertyOp20
 70
     1
102
RTVSPropertyOp21
 70
     1
102
RTVSPropertyOp22
 70
     1
102
RTVSPropertyOp23
 70
     1
102
RTVSPropertyOp24
 70
     1
102
RTVSPropertyOp25
 70
     1
102
RTVSPropertyOp26
 70
     1
102
RTVSPropertyOp27
 70
     1
102
RTVSPropertyOp28
 70
     1
102
RTVSPropertyOp29
 70
     1
102
RTVSPropertyOp30
 70
     1
102
RTVSPropertyOp31
 70
     1
102
RTVSPropertyOp32
 70
     1
102
RTVSPropertyOp33
 70
     1
102
RTVSPropertyOp34
 70
     1
102
RTVSPropertyOp35
 70
     1
102
RTVSPropertyOp36
 70
     1
102
RTVSPropertyOp37
 70
     1
102
RTVSPropertyOp38
 70
     1
102
RTVSPropertyOp39
 70
     1
102
RTVSPropertyOp40
 70
     1
102
RTVSPropertyOp41
 70
     1
102
RTVSPropertyOp42
 70
     1
102
RTVSPropertyOp43
 70
     1
102
RTVSPropertyOp44
 70
     1
102
RTVSPropertyOp45
 70
     1
102
RTVSPropertyOp46
 70
     1
102
RTVSPropertyOp47
 70
     1
102
RTVSPropertyOp48
 70
     1
102
RTVSPropertyOp49
 70
     1
102
RTVSPropertyOp50
 70
     1
102
RTVSPropertyOp51
 70
     0
102
RTVSPropertyOp52
 70
     0
102
RTVSPropertyOp53
 70
     1
102
RTVSPropertyOp54
 70
     1
102
RTVSPropertyOp55
 70
     1
102
RTVSPropertyOp56
 70
     1
102
RTVSPropertyOp57
 70
     1
102
RTVSPropertyOp58
 70
     1
102
RTVSPropertyOp59
 70
     1
102
RTVSPropertyOp60
 70
     1
102
RTVSPropertyOp61
 70
     1
102
RTVSPropertyOp62
 70
     1
  0
XRECORD
  5
398
102
{ACAD_REACTORS
330
397
102
}
330
397
100
AcDbXrecord
280
     1
102
RTVSPost2010Prop28
280
     0
102
RTVSPost2010PropOp28
 70
     1
102
RTVSPost2010Prop29
280
     1
102
RTVSPost2010PropOp29
 70
     1
102
RTVSPost2010Prop30
280
     1
102
RTVSPost2010PropOp30
 70
     1
102
RTVSPost2010Prop31
280
     0
102
RTVSPost2010PropOp31
 70
     1
102
RTVSPost2010Prop32
280
     0
102
RTVSPost2010PropOp32
 70
     1
102
RTVSPost2010Prop33
280
     0
102
RTVSPost2010PropOp33
 70
     1
102
RTVSPost2010Prop34
280
     0
102
RTVSPost2010PropOp34
 70
     1
102
RTVSPost2010Prop35
280
     0
102
RTVSPost2010PropOp35
 70
     1
102
RTVSPost2010Prop36
280
     0
102
RTVSPost2010PropOp36
 70
     1
102
RTVSPost2010Prop37
 90
       50
102
RTVSPost2010PropOp37
 70
     1
102
RTVSPost2010Prop38
140
0.0
102
RTVSPost2010PropOp38
 70
     1
102
RTVSPost2010Prop39
140
1.0
102
RTVSPost2010PropOp39
 70
     1
102
RTVSPost2010Prop40
 90
        0
102
RTVSPost2010PropOp40
 70
     1
102
RTVSPost2010Prop41ColorIndex
 90
       18
102
RTVSPost2010Prop41ColorRGB
 90
        0
102
RTVSPost2010PropOp41
 70
     1
102
RTVSPost2010Prop42
 90
       50
102
RTVSPost2010PropOp42
 70
     1
102
RTVSPost2010Prop43
 90
        3
102
RTVSPost2010PropOp43
 70
     1
102
RTVSPost2010Prop44ColorIndex
 90
        5
102
RTVSPost2010Prop44ColorRGB
 90
      255
102
RTVSPost2010PropOp44
 70
     1
102
RTVSPost2010Prop45
280
     0
102
RTVSPost2010PropOp45
 70
     1
102
RTVSPost2010Prop46
 90
       50
102
RTVSPost2010PropOp46
 70
     1
102
RTVSPost2010Prop47
 90
       50
102
RTVSPost2010PropOp47
 70
     1
102
RTVSPost2010Prop48
 90
       50
102
RTVSPost2010PropOp48
 70
     1
102
RTVSPost2010Prop49
280
     0
102
RTVSPost2010PropOp49
 70
     1
102
RTVSPost2010Prop50
 90
       50
102
RTVSPost2010PropOp50
 70
     1
102
RTVSPost2010Prop51ColorIndex
 90
      256
102
RTVSPost2010Prop51ColorRGB
 90
-16777216
102
RTVSPost2010PropOp51
 70
     0
102
RTVSPost2010Prop52
140
1.0
102
RTVSPost2010PropOp52
 70
     0
102
RTVSPost2010Prop53
 90
        2
102
RTVSPost2010PropOp53
 70
     1
102
RTVSPost2010Prop54
  1
strokes_ogs.tif
102
RTVSPost2010PropOp54
 70
     1
102
RTVSPost2010Prop55
280
     0
102
RTVSPost2010PropOp55
 70
     1
102
RTVSPost2010Prop56
140
1.0
102
RTVSPost2010PropOp56
 70
     1
102
RTVSPost2010Prop57
140
1.0
102
RTVSPost2010PropOp57
 70
     1
102
RTVSPropertyOp0
 70
     1
102
RTVSPropertyOp1
 70
     1
102
RTVSPropertyOp2
 70
     1
102
RTVSPropertyOp3
 70
     1
102
RTVSPropertyOp4
 70
     1
102
RTVSPropertyOp5
 70
     1
102
RTVSPropertyOp6
 70
     1
102
RTVSPropertyOp7
 70
     1
102
RTVSPropertyOp8
 70
     1
102
RTVSPropertyOp9
 70
     1
102
RTVSPropertyOp10
 70
     1
102
RTVSPropertyOp11
 70
     1
102
RTVSPropertyOp12
 70
     1
102
RTVSPropertyOp13
 70
     1
102
RTVSPropertyOp14
 70
     1
102
RTVSPropertyOp15
 70
     1
102
RTVSPropertyOp16
 70
     1
102
RTVSPropertyOp17
 70
     1
102
RTVSPropertyOp18
 70
     1
102
RTVSPropertyOp19
 70
     1
102
RTVSPropertyOp20
 70
     1
102
RTVSPropertyOp21
 70
     1
102
RTVSPropertyOp22
 70
     1
102
RTVSPropertyOp23
 70
     1
102
RTVSPropertyOp24
 70
     1
102
RTVSPropertyOp25
 70
     1
102
RTVSPropertyOp26
 70
     1
102
RTVSPropertyOp27
 70
     1
102
RTVSPropertyOp28
 70
     1
102
RTVSPropertyOp29
 70
     1
102
RTVSPropertyOp30
 70
     1
102
RTVSPropertyOp31
 70
     1
102
RTVSPropertyOp32
 70
     1
102
RTVSPropertyOp33
 70
     1
102
RTVSPropertyOp34
 70
     1
102
RTVSPropertyOp35
 70
     1
102
RTVSPropertyOp36
 70
     1
102
RTVSPropertyOp37
 70
     1
102
RTVSPropertyOp38
 70
     1
102
RTVSPropertyOp39
 70
     1
102
RTVSPropertyOp40
 70
     1
102
RTVSPropertyOp41
 70
     1
102
RTVSPropertyOp42
 70
     1
102
RTVSPropertyOp43
 70
     1
102
RTVSPropertyOp44
 70
     1
102
RTVSPropertyOp45
 70
     1
102
RTVSPropertyOp46
 70
     1
102
RTVSPropertyOp47
 70
     1
102
RTVSPropertyOp48
 70
     1
102
RTVSPropertyOp49
 70
     1
102
RTVSPropertyOp50
 70
     1
102
RTVSPropertyOp51
 70
     0
102
RTVSPropertyOp52
 70
     0
102
RTVSPropertyOp53
 70
     1
102
RTVSPropertyOp54
 70
     1
102
RTVSPropertyOp55
 70
     1
102
RTVSPropertyOp56
 70
     1
102
RTVSPropertyOp57
 70
     1
102
RTVSPropertyOp58
 70
     1
102
RTVSPropertyOp59
 70
     1
102
RTVSPropertyOp60
 70
     1
102
RTVSPropertyOp61
 70
     1
102
RTVSPropertyOp62
 70
     1
  0
XRECORD
  5
38C
102
{ACAD_REACTORS
330
38B
102
}
330
38B
100
AcDbXrecord
280
     1
102
RTVSPost2010Prop28
280
     0
102
RTVSPost2010PropOp28
 70
     1
102
RTVSPost2010Prop29
280
     1
102
RTVSPost2010PropOp29
 70
     1
102
RTVSPost2010Prop30
280
     1
102
RTVSPost2010PropOp30
 70
     1
102
RTVSPost2010Prop31
280
     0
102
RTVSPost2010PropOp31
 70
     1
102
RTVSPost2010Prop32
280
     0
102
RTVSPost2010PropOp32
 70
     1
102
RTVSPost2010Prop33
280
     0
102
RTVSPost2010PropOp33
 70
     1
102
RTVSPost2010Prop34
280
     0
102
RTVSPost2010PropOp34
 70
     1
102
RTVSPost2010Prop35
280
     0
102
RTVSPost2010PropOp35
 70
     1
102
RTVSPost2010Prop36
280
     0
102
RTVSPost2010PropOp36
 70
     1
102
RTVSPost2010Prop37
 90
       50
102
RTVSPost2010PropOp37
 70
     1
102
RTVSPost2010Prop38
140
0.0
102
RTVSPost2010PropOp38
 70
     1
102
RTVSPost2010Prop39
140
1.0
102
RTVSPost2010PropOp39
 70
     1
102
RTVSPost2010Prop40
 90
        0
102
RTVSPost2010PropOp40
 70
     1
102
RTVSPost2010Prop41ColorIndex
 90
       18
102
RTVSPost2010Prop41ColorRGB
 90
        0
102
RTVSPost2010PropOp41
 70
     1
102
RTVSPost2010Prop42
 90
       50
102
RTVSPost2010PropOp42
 70
     1
102
RTVSPost2010Prop43
 90
        3
102
RTVSPost2010PropOp43
 70
     1
102
RTVSPost2010Prop44ColorIndex
 90
        5
102
RTVSPost2010Prop44ColorRGB
 90
      255
102
RTVSPost2010PropOp44
 70
     1
102
RTVSPost2010Prop45
280
     0
102
RTVSPost2010PropOp45
 70
     1
102
RTVSPost2010Prop46
 90
       50
102
RTVSPost2010PropOp46
 70
     1
102
RTVSPost2010Prop47
 90
       50
102
RTVSPost2010PropOp47
 70
     1
102
RTVSPost2010Prop48
 90
       50
102
RTVSPost2010PropOp48
 70
     1
102
RTVSPost2010Prop49
280
     0
102
RTVSPost2010PropOp49
 70
     1
102
RTVSPost2010Prop50
 90
       50
102
RTVSPost2010PropOp50
 70
     1
102
RTVSPost2010Prop51ColorIndex
 90
      256
102
RTVSPost2010Prop51ColorRGB
 90
-16777216
102
RTVSPost2010PropOp51
 70
     0
102
RTVSPost2010Prop52
140
1.0
102
RTVSPost2010PropOp52
 70
     0
102
RTVSPost2010Prop53
 90
        2
102
RTVSPost2010PropOp53
 70
     1
102
RTVSPost2010Prop54
  1
strokes_ogs.tif
102
RTVSPost2010PropOp54
 70
     1
102
RTVSPost2010Prop55
280
     0
102
RTVSPost2010PropOp55
 70
     1
102
RTVSPost2010Prop56
140
1.0
102
RTVSPost2010PropOp56
 70
     1
102
RTVSPost2010Prop57
140
1.0
102
RTVSPost2010PropOp57
 70
     1
102
RTVSPropertyOp0
 70
     1
102
RTVSPropertyOp1
 70
     1
102
RTVSPropertyOp2
 70
     1
102
RTVSPropertyOp3
 70
     1
102
RTVSPropertyOp4
 70
     1
102
RTVSPropertyOp5
 70
     1
102
RTVSPropertyOp6
 70
     1
102
RTVSPropertyOp7
 70
     1
102
RTVSPropertyOp8
 70
     1
102
RTVSPropertyOp9
 70
     1
102
RTVSPropertyOp10
 70
     1
102
RTVSPropertyOp11
 70
     1
102
RTVSPropertyOp12
 70
     1
102
RTVSPropertyOp13
 70
     1
102
RTVSPropertyOp14
 70
     1
102
RTVSPropertyOp15
 70
     1
102
RTVSPropertyOp16
 70
     1
102
RTVSPropertyOp17
 70
     1
102
RTVSPropertyOp18
 70
     1
102
RTVSPropertyOp19
 70
     1
102
RTVSPropertyOp20
 70
     1
102
RTVSPropertyOp21
 70
     1
102
RTVSPropertyOp22
 70
     1
102
RTVSPropertyOp23
 70
     1
102
RTVSPropertyOp24
 70
     1
102
RTVSPropertyOp25
 70
     1
102
RTVSPropertyOp26
 70
     1
102
RTVSPropertyOp27
 70
     1
102
RTVSPropertyOp28
 70
     1
102
RTVSPropertyOp29
 70
     1
102
RTVSPropertyOp30
 70
     1
102
RTVSPropertyOp31
 70
     1
102
RTVSPropertyOp32
 70
     1
102
RTVSPropertyOp33
 70
     1
102
RTVSPropertyOp34
 70
     1
102
RTVSPropertyOp35
 70
     1
102
RTVSPropertyOp36
 70
     1
102
RTVSPropertyOp37
 70
     1
102
RTVSPropertyOp38
 70
     1
102
RTVSPropertyOp39
 70
     1
102
RTVSPropertyOp40
 70
     1
102
RTVSPropertyOp41
 70
     1
102
RTVSPropertyOp42
 70
     1
102
RTVSPropertyOp43
 70
     1
102
RTVSPropertyOp44
 70
     1
102
RTVSPropertyOp45
 70
     1
102
RTVSPropertyOp46
 70
     1
102
RTVSPropertyOp47
 70
     1
102
RTVSPropertyOp48
 70
     1
102
RTVSPropertyOp49
 70
     1
102
RTVSPropertyOp50
 70
     1
102
RTVSPropertyOp51
 70
     0
102
RTVSPropertyOp52
 70
     0
102
RTVSPropertyOp53
 70
     1
102
RTVSPropertyOp54
 70
     1
102
RTVSPropertyOp55
 70
     1
102
RTVSPropertyOp56
 70
     1
102
RTVSPropertyOp57
 70
     1
102
RTVSPropertyOp58
 70
     1
102
RTVSPropertyOp59
 70
     1
102
RTVSPropertyOp60
 70
     1
102
RTVSPropertyOp61
 70
     1
102
RTVSPropertyOp62
 70
     1
  0
XRECORD
  5
38E
102
{ACAD_REACTORS
330
38D
102
}
330
38D
100
AcDbXrecord
280
     1
102
RTVSPost2010Prop28
280
     0
102
RTVSPost2010PropOp28
 70
     1
102
RTVSPost2010Prop29
280
     1
102
RTVSPost2010PropOp29
 70
     1
102
RTVSPost2010Prop30
280
     1
102
RTVSPost2010PropOp30
 70
     1
102
RTVSPost2010Prop31
280
     0
102
RTVSPost2010PropOp31
 70
     1
102
RTVSPost2010Prop32
280
     0
102
RTVSPost2010PropOp32
 70
     1
102
RTVSPost2010Prop33
280
     0
102
RTVSPost2010PropOp33
 70
     1
102
RTVSPost2010Prop34
280
     0
102
RTVSPost2010PropOp34
 70
     1
102
RTVSPost2010Prop35
280
     0
102
RTVSPost2010PropOp35
 70
     1
102
RTVSPost2010Prop36
280
     0
102
RTVSPost2010PropOp36
 70
     1
102
RTVSPost2010Prop37
 90
       50
102
RTVSPost2010PropOp37
 70
     1
102
RTVSPost2010Prop38
140
0.0
102
RTVSPost2010PropOp38
 70
     1
102
RTVSPost2010Prop39
140
1.0
102
RTVSPost2010PropOp39
 70
     1
102
RTVSPost2010Prop40
 90
        0
102
RTVSPost2010PropOp40
 70
     1
102
RTVSPost2010Prop41ColorIndex
 90
       18
102
RTVSPost2010Prop41ColorRGB
 90
        0
102
RTVSPost2010PropOp41
 70
     1
102
RTVSPost2010Prop42
 90
       50
102
RTVSPost2010PropOp42
 70
     1
102
RTVSPost2010Prop43
 90
        3
102
RTVSPost2010PropOp43
 70
     1
102
RTVSPost2010Prop44ColorIndex
 90
        5
102
RTVSPost2010Prop44ColorRGB
 90
      255
102
RTVSPost2010PropOp44
 70
     1
102
RTVSPost2010Prop45
280
     0
102
RTVSPost2010PropOp45
 70
     1
102
RTVSPost2010Prop46
 90
       50
102
RTVSPost2010PropOp46
 70
     1
102
RTVSPost2010Prop47
 90
       50
102
RTVSPost2010PropOp47
 70
     1
102
RTVSPost2010Prop48
 90
       50
102
RTVSPost2010PropOp48
 70
     1
102
RTVSPost2010Prop49
280
     0
102
RTVSPost2010PropOp49
 70
     1
102
RTVSPost2010Prop50
 90
       50
102
RTVSPost2010PropOp50
 70
     1
102
RTVSPost2010Prop51ColorIndex
 90
      256
102
RTVSPost2010Prop51ColorRGB
 90
-16777216
102
RTVSPost2010PropOp51
 70
     0
102
RTVSPost2010Prop52
140
1.0
102
RTVSPost2010PropOp52
 70
     0
102
RTVSPost2010Prop53
 90
        2
102
RTVSPost2010PropOp53
 70
     1
102
RTVSPost2010Prop54
  1
strokes_ogs.tif
102
RTVSPost2010PropOp54
 70
     1
102
RTVSPost2010Prop55
280
     0
102
RTVSPost2010PropOp55
 70
     1
102
RTVSPost2010Prop56
140
1.0
102
RTVSPost2010PropOp56
 70
     1
102
RTVSPost2010Prop57
140
1.0
102
RTVSPost2010PropOp57
 70
     1
102
RTVSPropertyOp0
 70
     1
102
RTVSPropertyOp1
 70
     1
102
RTVSPropertyOp2
 70
     1
102
RTVSPropertyOp3
 70
     1
102
RTVSPropertyOp4
 70
     1
102
RTVSPropertyOp5
 70
     1
102
RTVSPropertyOp6
 70
     1
102
RTVSPropertyOp7
 70
     1
102
RTVSPropertyOp8
 70
     1
102
RTVSPropertyOp9
 70
     1
102
RTVSPropertyOp10
 70
     1
102
RTVSPropertyOp11
 70
     1
102
RTVSPropertyOp12
 70
     1
102
RTVSPropertyOp13
 70
     1
102
RTVSPropertyOp14
 70
     1
102
RTVSPropertyOp15
 70
     1
102
RTVSPropertyOp16
 70
     1
102
RTVSPropertyOp17
 70
     1
102
RTVSPropertyOp18
 70
     1
102
RTVSPropertyOp19
 70
     1
102
RTVSPropertyOp20
 70
     1
102
RTVSPropertyOp21
 70
     1
102
RTVSPropertyOp22
 70
     1
102
RTVSPropertyOp23
 70
     1
102
RTVSPropertyOp24
 70
     1
102
RTVSPropertyOp25
 70
     1
102
RTVSPropertyOp26
 70
     1
102
RTVSPropertyOp27
 70
     1
102
RTVSPropertyOp28
 70
     1
102
RTVSPropertyOp29
 70
     1
102
RTVSPropertyOp30
 70
     1
102
RTVSPropertyOp31
 70
     1
102
RTVSPropertyOp32
 70
     1
102
RTVSPropertyOp33
 70
     1
102
RTVSPropertyOp34
 70
     1
102
RTVSPropertyOp35
 70
     1
102
RTVSPropertyOp36
 70
     1
102
RTVSPropertyOp37
 70
     1
102
RTVSPropertyOp38
 70
     1
102
RTVSPropertyOp39
 70
     1
102
RTVSPropertyOp40
 70
     1
102
RTVSPropertyOp41
 70
     1
102
RTVSPropertyOp42
 70
     1
102
RTVSPropertyOp43
 70
     1
102
RTVSPropertyOp44
 70
     1
102
RTVSPropertyOp45
 70
     1
102
RTVSPropertyOp46
 70
     1
102
RTVSPropertyOp47
 70
     1
102
RTVSPropertyOp48
 70
     1
102
RTVSPropertyOp49
 70
     1
102
RTVSPropertyOp50
 70
     1
102
RTVSPropertyOp51
 70
     0
102
RTVSPropertyOp52
 70
     0
102
RTVSPropertyOp53
 70
     1
102
RTVSPropertyOp54
 70
     1
102
RTVSPropertyOp55
 70
     1
102
RTVSPropertyOp56
 70
     1
102
RTVSPropertyOp57
 70
     1
102
RTVSPropertyOp58
 70
     1
102
RTVSPropertyOp59
 70
     1
102
RTVSPropertyOp60
 70
     1
102
RTVSPropertyOp61
 70
     1
102
RTVSPropertyOp62
 70
     1
  0
XRECORD
  5
39E
102
{ACAD_REACTORS
330
39D
102
}
330
39D
100
AcDbXrecord
280
     1
102
RTVSPost2010Prop28
280
     0
102
RTVSPost2010PropOp28
 70
     0
102
RTVSPost2010Prop29
280
     1
102
RTVSPost2010PropOp29
 70
     0
102
RTVSPost2010Prop30
280
     1
102
RTVSPost2010PropOp30
 70
     0
102
RTVSPost2010Prop31
280
     0
102
RTVSPost2010PropOp31
 70
     0
102
RTVSPost2010Prop32
280
     0
102
RTVSPost2010PropOp32
 70
     0
102
RTVSPost2010Prop33
280
     0
102
RTVSPost2010PropOp33
 70
     0
102
RTVSPost2010Prop34
280
     0
102
RTVSPost2010PropOp34
 70
     0
102
RTVSPost2010Prop35
280
     0
102
RTVSPost2010PropOp35
 70
     0
102
RTVSPost2010Prop36
280
     0
102
RTVSPost2010PropOp36
 70
     0
102
RTVSPost2010Prop37
 90
       50
102
RTVSPost2010PropOp37
 70
     0
102
RTVSPost2010Prop38
140
0.0
102
RTVSPost2010PropOp38
 70
     0
102
RTVSPost2010Prop39
140
1.0
102
RTVSPost2010PropOp39
 70
     0
102
RTVSPost2010Prop40
 90
        0
102
RTVSPost2010PropOp40
 70
     0
102
RTVSPost2010Prop41ColorIndex
 90
       18
102
RTVSPost2010Prop41ColorRGB
 90
        0
102
RTVSPost2010PropOp41
 70
     0
102
RTVSPost2010Prop42
 90
       50
102
RTVSPost2010PropOp42
 70
     0
102
RTVSPost2010Prop43
 90
        3
102
RTVSPost2010PropOp43
 70
     0
102
RTVSPost2010Prop44ColorIndex
 90
        5
102
RTVSPost2010Prop44ColorRGB
 90
      255
102
RTVSPost2010PropOp44
 70
     0
102
RTVSPost2010Prop45
280
     0
102
RTVSPost2010PropOp45
 70
     0
102
RTVSPost2010Prop46
 90
       50
102
RTVSPost2010PropOp46
 70
     0
102
RTVSPost2010Prop47
 90
       50
102
RTVSPost2010PropOp47
 70
     0
102
RTVSPost2010Prop48
 90
       50
102
RTVSPost2010PropOp48
 70
     0
102
RTVSPost2010Prop49
280
     0
102
RTVSPost2010PropOp49
 70
     0
102
RTVSPost2010Prop50
 90
       50
102
RTVSPost2010PropOp50
 70
     0
102
RTVSPost2010Prop51ColorIndex
 90
      256
102
RTVSPost2010Prop51ColorRGB
 90
-16777216
102
RTVSPost2010PropOp51
 70
     0
102
RTVSPost2010Prop52
140
1.0
102
RTVSPost2010PropOp52
 70
     0
102
RTVSPost2010Prop53
 90
        2
102
RTVSPost2010PropOp53
 70
     0
102
RTVSPost2010Prop54
  1
strokes_ogs.tif
102
RTVSPost2010PropOp54
 70
     0
102
RTVSPost2010Prop55
280
     0
102
RTVSPost2010PropOp55
 70
     0
102
RTVSPost2010Prop56
140
1.0
102
RTVSPost2010PropOp56
 70
     0
102
RTVSPost2010Prop57
140
1.0
102
RTVSPost2010PropOp57
 70
     0
102
RTVSPropertyOp0
 70
     0
102
RTVSPropertyOp1
 70
     0
102
RTVSPropertyOp2
 70
     0
102
RTVSPropertyOp3
 70
     0
102
RTVSPropertyOp4
 70
     0
102
RTVSPropertyOp5
 70
     0
102
RTVSPropertyOp6
 70
     0
102
RTVSPropertyOp7
 70
     0
102
RTVSPropertyOp8
 70
     0
102
RTVSPropertyOp9
 70
     0
102
RTVSPropertyOp10
 70
     0
102
RTVSPropertyOp11
 70
     0
102
RTVSPropertyOp12
 70
     0
102
RTVSPropertyOp13
 70
     0
102
RTVSPropertyOp14
 70
     2
102
RTVSPropertyOp15
 70
     0
102
RTVSPropertyOp16
 70
     0
102
RTVSPropertyOp17
 70
     0
102
RTVSPropertyOp18
 70
     0
102
RTVSPropertyOp19
 70
     0
102
RTVSPropertyOp20
 70
     0
102
RTVSPropertyOp21
 70
     0
102
RTVSPropertyOp22
 70
     0
102
RTVSPropertyOp23
 70
     0
102
RTVSPropertyOp24
 70
     0
102
RTVSPropertyOp25
 70
     0
102
RTVSPropertyOp26
 70
     0
102
RTVSPropertyOp27
 70
     0
102
RTVSPropertyOp28
 70
     0
102
RTVSPropertyOp29
 70
     0
102
RTVSPropertyOp30
 70
     0
102
RTVSPropertyOp31
 70
     0
102
RTVSPropertyOp32
 70
     0
102
RTVSPropertyOp33
 70
     0
102
RTVSPropertyOp34
 70
     0
102
RTVSPropertyOp35
 70
     0
102
RTVSPropertyOp36
 70
     0
102
RTVSPropertyOp37
 70
     0
102
RTVSPropertyOp38
 70
     0
102
RTVSPropertyOp39
 70
     0
102
RTVSPropertyOp40
 70
     0
102
RTVSPropertyOp41
 70
     0
102
RTVSPropertyOp42
 70
     0
102
RTVSPropertyOp43
 70
     0
102
RTVSPropertyOp44
 70
     0
102
RTVSPropertyOp45
 70
     0
102
RTVSPropertyOp46
 70
     0
102
RTVSPropertyOp47
 70
     0
102
RTVSPropertyOp48
 70
     0
102
RTVSPropertyOp49
 70
     0
102
RTVSPropertyOp50
 70
     0
102
RTVSPropertyOp51
 70
     0
102
RTVSPropertyOp52
 70
     0
102
RTVSPropertyOp53
 70
     0
102
RTVSPropertyOp54
 70
     0
102
RTVSPropertyOp55
 70
     0
102
RTVSPropertyOp56
 70
     0
102
RTVSPropertyOp57
 70
     0
102
RTVSPropertyOp58
 70
     1
102
RTVSPropertyOp59
 70
     1
102
RTVSPropertyOp60
 70
     1
102
RTVSPropertyOp61
 70
     1
102
RTVSPropertyOp62
 70
     1
  0
XRECORD
  5
396
102
{ACAD_REACTORS
330
395
102
}
330
395
100
AcDbXrecord
280
     1
102
RTVSPost2010Prop28
280
     0
102
RTVSPost2010PropOp28
 70
     1
102
RTVSPost2010Prop29
280
     1
102
RTVSPost2010PropOp29
 70
     1
102
RTVSPost2010Prop30
280
     1
102
RTVSPost2010PropOp30
 70
     1
102
RTVSPost2010Prop31
280
     0
102
RTVSPost2010PropOp31
 70
     1
102
RTVSPost2010Prop32
280
     0
102
RTVSPost2010PropOp32
 70
     1
102
RTVSPost2010Prop33
280
     0
102
RTVSPost2010PropOp33
 70
     1
102
RTVSPost2010Prop34
280
     0
102
RTVSPost2010PropOp34
 70
     1
102
RTVSPost2010Prop35
280
     0
102
RTVSPost2010PropOp35
 70
     1
102
RTVSPost2010Prop36
280
     0
102
RTVSPost2010PropOp36
 70
     1
102
RTVSPost2010Prop37
 90
       50
102
RTVSPost2010PropOp37
 70
     1
102
RTVSPost2010Prop38
140
0.0
102
RTVSPost2010PropOp38
 70
     1
102
RTVSPost2010Prop39
140
1.0
102
RTVSPost2010PropOp39
 70
     1
102
RTVSPost2010Prop40
 90
        0
102
RTVSPost2010PropOp40
 70
     1
102
RTVSPost2010Prop41ColorIndex
 90
       18
102
RTVSPost2010Prop41ColorRGB
 90
        0
102
RTVSPost2010PropOp41
 70
     1
102
RTVSPost2010Prop42
 90
       50
102
RTVSPost2010PropOp42
 70
     1
102
RTVSPost2010Prop43
 90
        3
102
RTVSPost2010PropOp43
 70
     1
102
RTVSPost2010Prop44ColorIndex
 90
        5
102
RTVSPost2010Prop44ColorRGB
 90
      255
102
RTVSPost2010PropOp44
 70
     1
102
RTVSPost2010Prop45
280
     0
102
RTVSPost2010PropOp45
 70
     1
102
RTVSPost2010Prop46
 90
       50
102
RTVSPost2010PropOp46
 70
     1
102
RTVSPost2010Prop47
 90
       50
102
RTVSPost2010PropOp47
 70
     1
102
RTVSPost2010Prop48
 90
       50
102
RTVSPost2010PropOp48
 70
     1
102
RTVSPost2010Prop49
280
     0
102
RTVSPost2010PropOp49
 70
     1
102
RTVSPost2010Prop50
 90
       50
102
RTVSPost2010PropOp50
 70
     1
102
RTVSPost2010Prop51ColorIndex
 90
      256
102
RTVSPost2010Prop51ColorRGB
 90
-16777216
102
RTVSPost2010PropOp51
 70
     0
102
RTVSPost2010Prop52
140
1.0
102
RTVSPost2010PropOp52
 70
     0
102
RTVSPost2010Prop53
 90
        2
102
RTVSPost2010PropOp53
 70
     1
102
RTVSPost2010Prop54
  1
strokes_ogs.tif
102
RTVSPost2010PropOp54
 70
     1
102
RTVSPost2010Prop55
280
     0
102
RTVSPost2010PropOp55
 70
     1
102
RTVSPost2010Prop56
140
1.0
102
RTVSPost2010PropOp56
 70
     1
102
RTVSPost2010Prop57
140
1.0
102
RTVSPost2010PropOp57
 70
     1
102
RTVSPropertyOp0
 70
     1
102
RTVSPropertyOp1
 70
     1
102
RTVSPropertyOp2
 70
     1
102
RTVSPropertyOp3
 70
     1
102
RTVSPropertyOp4
 70
     1
102
RTVSPropertyOp5
 70
     1
102
RTVSPropertyOp6
 70
     1
102
RTVSPropertyOp7
 70
     1
102
RTVSPropertyOp8
 70
     1
102
RTVSPropertyOp9
 70
     1
102
RTVSPropertyOp10
 70
     1
102
RTVSPropertyOp11
 70
     1
102
RTVSPropertyOp12
 70
     1
102
RTVSPropertyOp13
 70
     1
102
RTVSPropertyOp14
 70
     1
102
RTVSPropertyOp15
 70
     1
102
RTVSPropertyOp16
 70
     1
102
RTVSPropertyOp17
 70
     1
102
RTVSPropertyOp18
 70
     1
102
RTVSPropertyOp19
 70
     1
102
RTVSPropertyOp20
 70
     1
102
RTVSPropertyOp21
 70
     1
102
RTVSPropertyOp22
 70
     1
102
RTVSPropertyOp23
 70
     1
102
RTVSPropertyOp24
 70
     1
102
RTVSPropertyOp25
 70
     1
102
RTVSPropertyOp26
 70
     1
102
RTVSPropertyOp27
 70
     1
102
RTVSPropertyOp28
 70
     1
102
RTVSPropertyOp29
 70
     1
102
RTVSPropertyOp30
 70
     1
102
RTVSPropertyOp31
 70
     1
102
RTVSPropertyOp32
 70
     1
102
RTVSPropertyOp33
 70
     1
102
RTVSPropertyOp34
 70
     1
102
RTVSPropertyOp35
 70
     1
102
RTVSPropertyOp36
 70
     1
102
RTVSPropertyOp37
 70
     1
102
RTVSPropertyOp38
 70
     1
102
RTVSPropertyOp39
 70
     1
102
RTVSPropertyOp40
 70
     1
102
RTVSPropertyOp41
 70
     1
102
RTVSPropertyOp42
 70
     1
102
RTVSPropertyOp43
 70
     1
102
RTVSPropertyOp44
 70
     1
102
RTVSPropertyOp45
 70
     1
102
RTVSPropertyOp46
 70
     1
102
RTVSPropertyOp47
 70
     1
102
RTVSPropertyOp48
 70
     1
102
RTVSPropertyOp49
 70
     1
102
RTVSPropertyOp50
 70
     1
102
RTVSPropertyOp51
 70
     0
102
RTVSPropertyOp52
 70
     0
102
RTVSPropertyOp53
 70
     1
102
RTVSPropertyOp54
 70
     1
102
RTVSPropertyOp55
 70
     1
102
RTVSPropertyOp56
 70
     1
102
RTVSPropertyOp57
 70
     1
102
RTVSPropertyOp58
 70
     1
102
RTVSPropertyOp59
 70
     1
102
RTVSPropertyOp60
 70
     1
102
RTVSPropertyOp61
 70
     1
102
RTVSPropertyOp62
 70
     1
  0
XRECORD
  5
37A
102
{ACAD_REACTORS
330
379
102
}
330
379
100
AcDbXrecord
280
     1
102
RTVSPost2010Prop28
280
     0
102
RTVSPost2010PropOp28
 70
     1
102
RTVSPost2010Prop29
280
     1
102
RTVSPost2010PropOp29
 70
     1
102
RTVSPost2010Prop30
280
     1
102
RTVSPost2010PropOp30
 70
     1
102
RTVSPost2010Prop31
280
     0
102
RTVSPost2010PropOp31
 70
     1
102
RTVSPost2010Prop32
280
     0
102
RTVSPost2010PropOp32
 70
     1
102
RTVSPost2010Prop33
280
     0
102
RTVSPost2010PropOp33
 70
     1
102
RTVSPost2010Prop34
280
     0
102
RTVSPost2010PropOp34
 70
     1
102
RTVSPost2010Prop35
280
     0
102
RTVSPost2010PropOp35
 70
     1
102
RTVSPost2010Prop36
280
     0
102
RTVSPost2010PropOp36
 70
     1
102
RTVSPost2010Prop37
 90
       50
102
RTVSPost2010PropOp37
 70
     1
102
RTVSPost2010Prop38
140
0.0
102
RTVSPost2010PropOp38
 70
     1
102
RTVSPost2010Prop39
140
1.0
102
RTVSPost2010PropOp39
 70
     1
102
RTVSPost2010Prop40
 90
        0
102
RTVSPost2010PropOp40
 70
     1
102
RTVSPost2010Prop41ColorIndex
 90
       18
102
RTVSPost2010Prop41ColorRGB
 90
        0
102
RTVSPost2010PropOp41
 70
     1
102
RTVSPost2010Prop42
 90
       50
102
RTVSPost2010PropOp42
 70
     1
102
RTVSPost2010Prop43
 90
        3
102
RTVSPost2010PropOp43
 70
     1
102
RTVSPost2010Prop44ColorIndex
 90
        5
102
RTVSPost2010Prop44ColorRGB
 90
      255
102
RTVSPost2010PropOp44
 70
     1
102
RTVSPost2010Prop45
280
     0
102
RTVSPost2010PropOp45
 70
     1
102
RTVSPost2010Prop46
 90
       50
102
RTVSPost2010PropOp46
 70
     1
102
RTVSPost2010Prop47
 90
       50
102
RTVSPost2010PropOp47
 70
     1
102
RTVSPost2010Prop48
 90
       50
102
RTVSPost2010PropOp48
 70
     1
102
RTVSPost2010Prop49
280
     0
102
RTVSPost2010PropOp49
 70
     1
102
RTVSPost2010Prop50
 90
       50
102
RTVSPost2010PropOp50
 70
     1
102
RTVSPost2010Prop51ColorIndex
 90
      256
102
RTVSPost2010Prop51ColorRGB
 90
-16777216
102
RTVSPost2010PropOp51
 70
     0
102
RTVSPost2010Prop52
140
1.0
102
RTVSPost2010PropOp52
 70
     0
102
RTVSPost2010Prop53
 90
        2
102
RTVSPost2010PropOp53
 70
     1
102
RTVSPost2010Prop54
  1
strokes_ogs.tif
102
RTVSPost2010PropOp54
 70
     1
102
RTVSPost2010Prop55
280
     0
102
RTVSPost2010PropOp55
 70
     1
102
RTVSPost2010Prop56
140
1.0
102
RTVSPost2010PropOp56
 70
     1
102
RTVSPost2010Prop57
140
1.0
102
RTVSPost2010PropOp57
 70
     1
102
RTVSPropertyOp0
 70
     1
102
RTVSPropertyOp1
 70
     1
102
RTVSPropertyOp2
 70
     1
102
RTVSPropertyOp3
 70
     1
102
RTVSPropertyOp4
 70
     1
102
RTVSPropertyOp5
 70
     1
102
RTVSPropertyOp6
 70
     1
102
RTVSPropertyOp7
 70
     1
102
RTVSPropertyOp8
 70
     1
102
RTVSPropertyOp9
 70
     1
102
RTVSPropertyOp10
 70
     1
102
RTVSPropertyOp11
 70
     1
102
RTVSPropertyOp12
 70
     1
102
RTVSPropertyOp13
 70
     1
102
RTVSPropertyOp14
 70
     1
102
RTVSPropertyOp15
 70
     1
102
RTVSPropertyOp16
 70
     1
102
RTVSPropertyOp17
 70
     1
102
RTVSPropertyOp18
 70
     1
102
RTVSPropertyOp19
 70
     1
102
RTVSPropertyOp20
 70
     1
102
RTVSPropertyOp21
 70
     1
102
RTVSPropertyOp22
 70
     1
102
RTVSPropertyOp23
 70
     1
102
RTVSPropertyOp24
 70
     1
102
RTVSPropertyOp25
 70
     1
102
RTVSPropertyOp26
 70
     1
102
RTVSPropertyOp27
 70
     1
102
RTVSPropertyOp28
 70
     1
102
RTVSPropertyOp29
 70
     1
102
RTVSPropertyOp30
 70
     1
102
RTVSPropertyOp31
 70
     1
102
RTVSPropertyOp32
 70
     1
102
RTVSPropertyOp33
 70
     1
102
RTVSPropertyOp34
 70
     1
102
RTVSPropertyOp35
 70
     1
102
RTVSPropertyOp36
 70
     1
102
RTVSPropertyOp37
 70
     1
102
RTVSPropertyOp38
 70
     1
102
RTVSPropertyOp39
 70
     1
102
RTVSPropertyOp40
 70
     1
102
RTVSPropertyOp41
 70
     1
102
RTVSPropertyOp42
 70
     1
102
RTVSPropertyOp43
 70
     1
102
RTVSPropertyOp44
 70
     1
102
RTVSPropertyOp45
 70
     1
102
RTVSPropertyOp46
 70
     1
102
RTVSPropertyOp47
 70
     1
102
RTVSPropertyOp48
 70
     1
102
RTVSPropertyOp49
 70
     1
102
RTVSPropertyOp50
 70
     1
102
RTVSPropertyOp51
 70
     0
102
RTVSPropertyOp52
 70
     0
102
RTVSPropertyOp53
 70
     1
102
RTVSPropertyOp54
 70
     1
102
RTVSPropertyOp55
 70
     1
102
RTVSPropertyOp56
 70
     1
102
RTVSPropertyOp57
 70
     1
102
RTVSPropertyOp58
 70
     1
102
RTVSPropertyOp59
 70
     1
102
RTVSPropertyOp60
 70
     1
102
RTVSPropertyOp61
 70
     1
102
RTVSPropertyOp62
 70
     1
  0
XRECORD
  5
37C
102
{ACAD_REACTORS
330
37B
102
}
330
37B
100
AcDbXrecord
280
     1
102
RTVSPost2010Prop28
280
     0
102
RTVSPost2010PropOp28
 70
     1
102
RTVSPost2010Prop29
280
     1
102
RTVSPost2010PropOp29
 70
     1
102
RTVSPost2010Prop30
280
     1
102
RTVSPost2010PropOp30
 70
     1
102
RTVSPost2010Prop31
280
     0
102
RTVSPost2010PropOp31
 70
     1
102
RTVSPost2010Prop32
280
     0
102
RTVSPost2010PropOp32
 70
     1
102
RTVSPost2010Prop33
280
     0
102
RTVSPost2010PropOp33
 70
     1
102
RTVSPost2010Prop34
280
     0
102
RTVSPost2010PropOp34
 70
     1
102
RTVSPost2010Prop35
280
     0
102
RTVSPost2010PropOp35
 70
     1
102
RTVSPost2010Prop36
280
     0
102
RTVSPost2010PropOp36
 70
     1
102
RTVSPost2010Prop37
 90
       50
102
RTVSPost2010PropOp37
 70
     1
102
RTVSPost2010Prop38
140
0.0
102
RTVSPost2010PropOp38
 70
     1
102
RTVSPost2010Prop39
140
1.0
102
RTVSPost2010PropOp39
 70
     1
102
RTVSPost2010Prop40
 90
        0
102
RTVSPost2010PropOp40
 70
     1
102
RTVSPost2010Prop41ColorIndex
 90
       18
102
RTVSPost2010Prop41ColorRGB
 90
        0
102
RTVSPost2010PropOp41
 70
     1
102
RTVSPost2010Prop42
 90
       50
102
RTVSPost2010PropOp42
 70
     1
102
RTVSPost2010Prop43
 90
        3
102
RTVSPost2010PropOp43
 70
     1
102
RTVSPost2010Prop44ColorIndex
 90
        5
102
RTVSPost2010Prop44ColorRGB
 90
      255
102
RTVSPost2010PropOp44
 70
     1
102
RTVSPost2010Prop45
280
     0
102
RTVSPost2010PropOp45
 70
     1
102
RTVSPost2010Prop46
 90
       50
102
RTVSPost2010PropOp46
 70
     1
102
RTVSPost2010Prop47
 90
       50
102
RTVSPost2010PropOp47
 70
     1
102
RTVSPost2010Prop48
 90
       50
102
RTVSPost2010PropOp48
 70
     1
102
RTVSPost2010Prop49
280
     0
102
RTVSPost2010PropOp49
 70
     1
102
RTVSPost2010Prop50
 90
       50
102
RTVSPost2010PropOp50
 70
     1
102
RTVSPost2010Prop51ColorIndex
 90
      256
102
RTVSPost2010Prop51ColorRGB
 90
-16777216
102
RTVSPost2010PropOp51
 70
     0
102
RTVSPost2010Prop52
140
1.0
102
RTVSPost2010PropOp52
 70
     0
102
RTVSPost2010Prop53
 90
        2
102
RTVSPost2010PropOp53
 70
     1
102
RTVSPost2010Prop54
  1
strokes_ogs.tif
102
RTVSPost2010PropOp54
 70
     1
102
RTVSPost2010Prop55
280
     0
102
RTVSPost2010PropOp55
 70
     1
102
RTVSPost2010Prop56
140
1.0
102
RTVSPost2010PropOp56
 70
     1
102
RTVSPost2010Prop57
140
1.0
102
RTVSPost2010PropOp57
 70
     1
102
RTVSPropertyOp0
 70
     1
102
RTVSPropertyOp1
 70
     1
102
RTVSPropertyOp2
 70
     1
102
RTVSPropertyOp3
 70
     1
102
RTVSPropertyOp4
 70
     1
102
RTVSPropertyOp5
 70
     1
102
RTVSPropertyOp6
 70
     1
102
RTVSPropertyOp7
 70
     1
102
RTVSPropertyOp8
 70
     1
102
RTVSPropertyOp9
 70
     1
102
RTVSPropertyOp10
 70
     1
102
RTVSPropertyOp11
 70
     1
102
RTVSPropertyOp12
 70
     1
102
RTVSPropertyOp13
 70
     1
102
RTVSPropertyOp14
 70
     1
102
RTVSPropertyOp15
 70
     1
102
RTVSPropertyOp16
 70
     1
102
RTVSPropertyOp17
 70
     1
102
RTVSPropertyOp18
 70
     1
102
RTVSPropertyOp19
 70
     1
102
RTVSPropertyOp20
 70
     1
102
RTVSPropertyOp21
 70
     1
102
RTVSPropertyOp22
 70
     1
102
RTVSPropertyOp23
 70
     1
102
RTVSPropertyOp24
 70
     1
102
RTVSPropertyOp25
 70
     1
102
RTVSPropertyOp26
 70
     1
102
RTVSPropertyOp27
 70
     1
102
RTVSPropertyOp28
 70
     1
102
RTVSPropertyOp29
 70
     1
102
RTVSPropertyOp30
 70
     1
102
RTVSPropertyOp31
 70
     1
102
RTVSPropertyOp32
 70
     1
102
RTVSPropertyOp33
 70
     1
102
RTVSPropertyOp34
 70
     1
102
RTVSPropertyOp35
 70
     1
102
RTVSPropertyOp36
 70
     1
102
RTVSPropertyOp37
 70
     1
102
RTVSPropertyOp38
 70
     1
102
RTVSPropertyOp39
 70
     1
102
RTVSPropertyOp40
 70
     1
102
RTVSPropertyOp41
 70
     1
102
RTVSPropertyOp42
 70
     1
102
RTVSPropertyOp43
 70
     1
102
RTVSPropertyOp44
 70
     1
102
RTVSPropertyOp45
 70
     1
102
RTVSPropertyOp46
 70
     1
102
RTVSPropertyOp47
 70
     1
102
RTVSPropertyOp48
 70
     1
102
RTVSPropertyOp49
 70
     1
102
RTVSPropertyOp50
 70
     1
102
RTVSPropertyOp51
 70
     0
102
RTVSPropertyOp52
 70
     0
102
RTVSPropertyOp53
 70
     1
102
RTVSPropertyOp54
 70
     1
102
RTVSPropertyOp55
 70
     1
102
RTVSPropertyOp56
 70
     1
102
RTVSPropertyOp57
 70
     1
102
RTVSPropertyOp58
 70
     1
102
RTVSPropertyOp59
 70
     1
102
RTVSPropertyOp60
 70
     1
102
RTVSPropertyOp61
 70
     1
102
RTVSPropertyOp62
 70
     1
  0
XRECORD
  5
37E
102
{ACAD_REACTORS
330
37D
102
}
330
37D
100
AcDbXrecord
280
     1
102
RTVSPost2010Prop28
280
     0
102
RTVSPost2010PropOp28
 70
     1
102
RTVSPost2010Prop29
280
     1
102
RTVSPost2010PropOp29
 70
     1
102
RTVSPost2010Prop30
280
     1
102
RTVSPost2010PropOp30
 70
     1
102
RTVSPost2010Prop31
280
     0
102
RTVSPost2010PropOp31
 70
     1
102
RTVSPost2010Prop32
280
     0
102
RTVSPost2010PropOp32
 70
     1
102
RTVSPost2010Prop33
280
     0
102
RTVSPost2010PropOp33
 70
     1
102
RTVSPost2010Prop34
280
     0
102
RTVSPost2010PropOp34
 70
     1
102
RTVSPost2010Prop35
280
     0
102
RTVSPost2010PropOp35
 70
     1
102
RTVSPost2010Prop36
280
     0
102
RTVSPost2010PropOp36
 70
     1
102
RTVSPost2010Prop37
 90
       50
102
RTVSPost2010PropOp37
 70
     1
102
RTVSPost2010Prop38
140
0.0
102
RTVSPost2010PropOp38
 70
     1
102
RTVSPost2010Prop39
140
1.0
102
RTVSPost2010PropOp39
 70
     1
102
RTVSPost2010Prop40
 90
        0
102
RTVSPost2010PropOp40
 70
     1
102
RTVSPost2010Prop41ColorIndex
 90
       18
102
RTVSPost2010Prop41ColorRGB
 90
        0
102
RTVSPost2010PropOp41
 70
     1
102
RTVSPost2010Prop42
 90
       50
102
RTVSPost2010PropOp42
 70
     1
102
RTVSPost2010Prop43
 90
        3
102
RTVSPost2010PropOp43
 70
     1
102
RTVSPost2010Prop44ColorIndex
 90
        5
102
RTVSPost2010Prop44ColorRGB
 90
      255
102
RTVSPost2010PropOp44
 70
     1
102
RTVSPost2010Prop45
280
     0
102
RTVSPost2010PropOp45
 70
     1
102
RTVSPost2010Prop46
 90
       50
102
RTVSPost2010PropOp46
 70
     1
102
RTVSPost2010Prop47
 90
       50
102
RTVSPost2010PropOp47
 70
     1
102
RTVSPost2010Prop48
 90
       50
102
RTVSPost2010PropOp48
 70
     1
102
RTVSPost2010Prop49
280
     0
102
RTVSPost2010PropOp49
 70
     1
102
RTVSPost2010Prop50
 90
       50
102
RTVSPost2010PropOp50
 70
     1
102
RTVSPost2010Prop51ColorIndex
 90
      256
102
RTVSPost2010Prop51ColorRGB
 90
-16777216
102
RTVSPost2010PropOp51
 70
     0
102
RTVSPost2010Prop52
140
1.0
102
RTVSPost2010PropOp52
 70
     0
102
RTVSPost2010Prop53
 90
        2
102
RTVSPost2010PropOp53
 70
     1
102
RTVSPost2010Prop54
  1
strokes_ogs.tif
102
RTVSPost2010PropOp54
 70
     1
102
RTVSPost2010Prop55
280
     0
102
RTVSPost2010PropOp55
 70
     1
102
RTVSPost2010Prop56
140
1.0
102
RTVSPost2010PropOp56
 70
     1
102
RTVSPost2010Prop57
140
1.0
102
RTVSPost2010PropOp57
 70
     1
102
RTVSPropertyOp0
 70
     1
102
RTVSPropertyOp1
 70
     1
102
RTVSPropertyOp2
 70
     1
102
RTVSPropertyOp3
 70
     1
102
RTVSPropertyOp4
 70
     1
102
RTVSPropertyOp5
 70
     1
102
RTVSPropertyOp6
 70
     1
102
RTVSPropertyOp7
 70
     1
102
RTVSPropertyOp8
 70
     1
102
RTVSPropertyOp9
 70
     1
102
RTVSPropertyOp10
 70
     1
102
RTVSPropertyOp11
 70
     1
102
RTVSPropertyOp12
 70
     1
102
RTVSPropertyOp13
 70
     1
102
RTVSPropertyOp14
 70
     1
102
RTVSPropertyOp15
 70
     1
102
RTVSPropertyOp16
 70
     1
102
RTVSPropertyOp17
 70
     1
102
RTVSPropertyOp18
 70
     1
102
RTVSPropertyOp19
 70
     1
102
RTVSPropertyOp20
 70
     1
102
RTVSPropertyOp21
 70
     1
102
RTVSPropertyOp22
 70
     1
102
RTVSPropertyOp23
 70
     1
102
RTVSPropertyOp24
 70
     1
102
RTVSPropertyOp25
 70
     1
102
RTVSPropertyOp26
 70
     1
102
RTVSPropertyOp27
 70
     1
102
RTVSPropertyOp28
 70
     1
102
RTVSPropertyOp29
 70
     1
102
RTVSPropertyOp30
 70
     1
102
RTVSPropertyOp31
 70
     1
102
RTVSPropertyOp32
 70
     1
102
RTVSPropertyOp33
 70
     1
102
RTVSPropertyOp34
 70
     1
102
RTVSPropertyOp35
 70
     1
102
RTVSPropertyOp36
 70
     1
102
RTVSPropertyOp37
 70
     1
102
RTVSPropertyOp38
 70
     1
102
RTVSPropertyOp39
 70
     1
102
RTVSPropertyOp40
 70
     1
102
RTVSPropertyOp41
 70
     1
102
RTVSPropertyOp42
 70
     1
102
RTVSPropertyOp43
 70
     1
102
RTVSPropertyOp44
 70
     1
102
RTVSPropertyOp45
 70
     1
102
RTVSPropertyOp46
 70
     1
102
RTVSPropertyOp47
 70
     1
102
RTVSPropertyOp48
 70
     1
102
RTVSPropertyOp49
 70
     1
102
RTVSPropertyOp50
 70
     1
102
RTVSPropertyOp51
 70
     0
102
RTVSPropertyOp52
 70
     0
102
RTVSPropertyOp53
 70
     1
102
RTVSPropertyOp54
 70
     1
102
RTVSPropertyOp55
 70
     1
102
RTVSPropertyOp56
 70
     1
102
RTVSPropertyOp57
 70
     1
102
RTVSPropertyOp58
 70
     1
102
RTVSPropertyOp59
 70
     1
102
RTVSPropertyOp60
 70
     1
102
RTVSPropertyOp61
 70
     1
102
RTVSPropertyOp62
 70
     1
  0
XRECORD
  5
380
102
{ACAD_REACTORS
330
37F
102
}
330
37F
100
AcDbXrecord
280
     1
102
RTVSPost2010Prop28
280
     0
102
RTVSPost2010PropOp28
 70
     1
102
RTVSPost2010Prop29
280
     1
102
RTVSPost2010PropOp29
 70
     1
102
RTVSPost2010Prop30
280
     1
102
RTVSPost2010PropOp30
 70
     1
102
RTVSPost2010Prop31
280
     0
102
RTVSPost2010PropOp31
 70
     1
102
RTVSPost2010Prop32
280
     0
102
RTVSPost2010PropOp32
 70
     1
102
RTVSPost2010Prop33
280
     0
102
RTVSPost2010PropOp33
 70
     1
102
RTVSPost2010Prop34
280
     0
102
RTVSPost2010PropOp34
 70
     1
102
RTVSPost2010Prop35
280
     0
102
RTVSPost2010PropOp35
 70
     1
102
RTVSPost2010Prop36
280
     0
102
RTVSPost2010PropOp36
 70
     1
102
RTVSPost2010Prop37
 90
       50
102
RTVSPost2010PropOp37
 70
     1
102
RTVSPost2010Prop38
140
0.0
102
RTVSPost2010PropOp38
 70
     1
102
RTVSPost2010Prop39
140
1.0
102
RTVSPost2010PropOp39
 70
     1
102
RTVSPost2010Prop40
 90
        0
102
RTVSPost2010PropOp40
 70
     1
102
RTVSPost2010Prop41ColorIndex
 90
       18
102
RTVSPost2010Prop41ColorRGB
 90
        0
102
RTVSPost2010PropOp41
 70
     1
102
RTVSPost2010Prop42
 90
       50
102
RTVSPost2010PropOp42
 70
     1
102
RTVSPost2010Prop43
 90
        3
102
RTVSPost2010PropOp43
 70
     1
102
RTVSPost2010Prop44ColorIndex
 90
        5
102
RTVSPost2010Prop44ColorRGB
 90
      255
102
RTVSPost2010PropOp44
 70
     1
102
RTVSPost2010Prop45
280
     0
102
RTVSPost2010PropOp45
 70
     1
102
RTVSPost2010Prop46
 90
       50
102
RTVSPost2010PropOp46
 70
     1
102
RTVSPost2010Prop47
 90
       50
102
RTVSPost2010PropOp47
 70
     1
102
RTVSPost2010Prop48
 90
       50
102
RTVSPost2010PropOp48
 70
     1
102
RTVSPost2010Prop49
280
     0
102
RTVSPost2010PropOp49
 70
     1
102
RTVSPost2010Prop50
 90
       50
102
RTVSPost2010PropOp50
 70
     1
102
RTVSPost2010Prop51ColorIndex
 90
      256
102
RTVSPost2010Prop51ColorRGB
 90
-16777216
102
RTVSPost2010PropOp51
 70
     0
102
RTVSPost2010Prop52
140
1.0
102
RTVSPost2010PropOp52
 70
     0
102
RTVSPost2010Prop53
 90
        2
102
RTVSPost2010PropOp53
 70
     1
102
RTVSPost2010Prop54
  1
strokes_ogs.tif
102
RTVSPost2010PropOp54
 70
     1
102
RTVSPost2010Prop55
280
     0
102
RTVSPost2010PropOp55
 70
     1
102
RTVSPost2010Prop56
140
1.0
102
RTVSPost2010PropOp56
 70
     1
102
RTVSPost2010Prop57
140
1.0
102
RTVSPost2010PropOp57
 70
     1
102
RTVSPropertyOp0
 70
     1
102
RTVSPropertyOp1
 70
     1
102
RTVSPropertyOp2
 70
     1
102
RTVSPropertyOp3
 70
     1
102
RTVSPropertyOp4
 70
     1
102
RTVSPropertyOp5
 70
     1
102
RTVSPropertyOp6
 70
     1
102
RTVSPropertyOp7
 70
     1
102
RTVSPropertyOp8
 70
     1
102
RTVSPropertyOp9
 70
     1
102
RTVSPropertyOp10
 70
     1
102
RTVSPropertyOp11
 70
     1
102
RTVSPropertyOp12
 70
     1
102
RTVSPropertyOp13
 70
     1
102
RTVSPropertyOp14
 70
     1
102
RTVSPropertyOp15
 70
     1
102
RTVSPropertyOp16
 70
     1
102
RTVSPropertyOp17
 70
     1
102
RTVSPropertyOp18
 70
     1
102
RTVSPropertyOp19
 70
     1
102
RTVSPropertyOp20
 70
     1
102
RTVSPropertyOp21
 70
     1
102
RTVSPropertyOp22
 70
     1
102
RTVSPropertyOp23
 70
     1
102
RTVSPropertyOp24
 70
     1
102
RTVSPropertyOp25
 70
     1
102
RTVSPropertyOp26
 70
     1
102
RTVSPropertyOp27
 70
     1
102
RTVSPropertyOp28
 70
     1
102
RTVSPropertyOp29
 70
     1
102
RTVSPropertyOp30
 70
     1
102
RTVSPropertyOp31
 70
     1
102
RTVSPropertyOp32
 70
     1
102
RTVSPropertyOp33
 70
     1
102
RTVSPropertyOp34
 70
     1
102
RTVSPropertyOp35
 70
     1
102
RTVSPropertyOp36
 70
     1
102
RTVSPropertyOp37
 70
     1
102
RTVSPropertyOp38
 70
     1
102
RTVSPropertyOp39
 70
     1
102
RTVSPropertyOp40
 70
     1
102
RTVSPropertyOp41
 70
     1
102
RTVSPropertyOp42
 70
     1
102
RTVSPropertyOp43
 70
     1
102
RTVSPropertyOp44
 70
     1
102
RTVSPropertyOp45
 70
     1
102
RTVSPropertyOp46
 70
     1
102
RTVSPropertyOp47
 70
     1
102
RTVSPropertyOp48
 70
     1
102
RTVSPropertyOp49
 70
     1
102
RTVSPropertyOp50
 70
     1
102
RTVSPropertyOp51
 70
     0
102
RTVSPropertyOp52
 70
     0
102
RTVSPropertyOp53
 70
     1
102
RTVSPropertyOp54
 70
     1
102
RTVSPropertyOp55
 70
     1
102
RTVSPropertyOp56
 70
     1
102
RTVSPropertyOp57
 70
     1
102
RTVSPropertyOp58
 70
     1
102
RTVSPropertyOp59
 70
     1
102
RTVSPropertyOp60
 70
     1
102
RTVSPropertyOp61
 70
     1
102
RTVSPropertyOp62
 70
     1
  0
XRECORD
  5
386
102
{ACAD_REACTORS
330
385
102
}
330
385
100
AcDbXrecord
280
     1
102
RTVSPost2010Prop28
280
     0
102
RTVSPost2010PropOp28
 70
     1
102
RTVSPost2010Prop29
280
     1
102
RTVSPost2010PropOp29
 70
     1
102
RTVSPost2010Prop30
280
     1
102
RTVSPost2010PropOp30
 70
     1
102
RTVSPost2010Prop31
280
     0
102
RTVSPost2010PropOp31
 70
     1
102
RTVSPost2010Prop32
280
     0
102
RTVSPost2010PropOp32
 70
     1
102
RTVSPost2010Prop33
280
     0
102
RTVSPost2010PropOp33
 70
     1
102
RTVSPost2010Prop34
280
     0
102
RTVSPost2010PropOp34
 70
     1
102
RTVSPost2010Prop35
280
     0
102
RTVSPost2010PropOp35
 70
     1
102
RTVSPost2010Prop36
280
     0
102
RTVSPost2010PropOp36
 70
     1
102
RTVSPost2010Prop37
 90
       50
102
RTVSPost2010PropOp37
 70
     1
102
RTVSPost2010Prop38
140
0.0
102
RTVSPost2010PropOp38
 70
     1
102
RTVSPost2010Prop39
140
1.0
102
RTVSPost2010PropOp39
 70
     1
102
RTVSPost2010Prop40
 90
        0
102
RTVSPost2010PropOp40
 70
     1
102
RTVSPost2010Prop41ColorIndex
 90
       18
102
RTVSPost2010Prop41ColorRGB
 90
        0
102
RTVSPost2010PropOp41
 70
     1
102
RTVSPost2010Prop42
 90
       50
102
RTVSPost2010PropOp42
 70
     1
102
RTVSPost2010Prop43
 90
        3
102
RTVSPost2010PropOp43
 70
     1
102
RTVSPost2010Prop44ColorIndex
 90
        5
102
RTVSPost2010Prop44ColorRGB
 90
      255
102
RTVSPost2010PropOp44
 70
     1
102
RTVSPost2010Prop45
280
     0
102
RTVSPost2010PropOp45
 70
     1
102
RTVSPost2010Prop46
 90
       50
102
RTVSPost2010PropOp46
 70
     1
102
RTVSPost2010Prop47
 90
       50
102
RTVSPost2010PropOp47
 70
     1
102
RTVSPost2010Prop48
 90
       50
102
RTVSPost2010PropOp48
 70
     1
102
RTVSPost2010Prop49
280
     0
102
RTVSPost2010PropOp49
 70
     1
102
RTVSPost2010Prop50
 90
       50
102
RTVSPost2010PropOp50
 70
     1
102
RTVSPost2010Prop51ColorIndex
 90
      256
102
RTVSPost2010Prop51ColorRGB
 90
-16777216
102
RTVSPost2010PropOp51
 70
     0
102
RTVSPost2010Prop52
140
1.0
102
RTVSPost2010PropOp52
 70
     0
102
RTVSPost2010Prop53
 90
        2
102
RTVSPost2010PropOp53
 70
     1
102
RTVSPost2010Prop54
  1
strokes_ogs.tif
102
RTVSPost2010PropOp54
 70
     1
102
RTVSPost2010Prop55
280
     0
102
RTVSPost2010PropOp55
 70
     1
102
RTVSPost2010Prop56
140
1.0
102
RTVSPost2010PropOp56
 70
     1
102
RTVSPost2010Prop57
140
1.0
102
RTVSPost2010PropOp57
 70
     1
102
RTVSPropertyOp0
 70
     1
102
RTVSPropertyOp1
 70
     1
102
RTVSPropertyOp2
 70
     1
102
RTVSPropertyOp3
 70
     1
102
RTVSPropertyOp4
 70
     1
102
RTVSPropertyOp5
 70
     1
102
RTVSPropertyOp6
 70
     1
102
RTVSPropertyOp7
 70
     1
102
RTVSPropertyOp8
 70
     1
102
RTVSPropertyOp9
 70
     1
102
RTVSPropertyOp10
 70
     1
102
RTVSPropertyOp11
 70
     1
102
RTVSPropertyOp12
 70
     1
102
RTVSPropertyOp13
 70
     1
102
RTVSPropertyOp14
 70
     1
102
RTVSPropertyOp15
 70
     1
102
RTVSPropertyOp16
 70
     1
102
RTVSPropertyOp17
 70
     1
102
RTVSPropertyOp18
 70
     1
102
RTVSPropertyOp19
 70
     1
102
RTVSPropertyOp20
 70
     1
102
RTVSPropertyOp21
 70
     1
102
RTVSPropertyOp22
 70
     1
102
RTVSPropertyOp23
 70
     1
102
RTVSPropertyOp24
 70
     1
102
RTVSPropertyOp25
 70
     1
102
RTVSPropertyOp26
 70
     1
102
RTVSPropertyOp27
 70
     1
102
RTVSPropertyOp28
 70
     1
102
RTVSPropertyOp29
 70
     1
102
RTVSPropertyOp30
 70
     1
102
RTVSPropertyOp31
 70
     1
102
RTVSPropertyOp32
 70
     1
102
RTVSPropertyOp33
 70
     1
102
RTVSPropertyOp34
 70
     1
102
RTVSPropertyOp35
 70
     1
102
RTVSPropertyOp36
 70
     1
102
RTVSPropertyOp37
 70
     1
102
RTVSPropertyOp38
 70
     1
102
RTVSPropertyOp39
 70
     1
102
RTVSPropertyOp40
 70
     1
102
RTVSPropertyOp41
 70
     1
102
RTVSPropertyOp42
 70
     1
102
RTVSPropertyOp43
 70
     1
102
RTVSPropertyOp44
 70
     1
102
RTVSPropertyOp45
 70
     1
102
RTVSPropertyOp46
 70
     1
102
RTVSPropertyOp47
 70
     1
102
RTVSPropertyOp48
 70
     1
102
RTVSPropertyOp49
 70
     1
102
RTVSPropertyOp50
 70
     1
102
RTVSPropertyOp51
 70
     0
102
RTVSPropertyOp52
 70
     0
102
RTVSPropertyOp53
 70
     1
102
RTVSPropertyOp54
 70
     1
102
RTVSPropertyOp55
 70
     1
102
RTVSPropertyOp56
 70
     1
102
RTVSPropertyOp57
 70
     1
102
RTVSPropertyOp58
 70
     1
102
RTVSPropertyOp59
 70
     1
102
RTVSPropertyOp60
 70
     1
102
RTVSPropertyOp61
 70
     1
102
RTVSPropertyOp62
 70
     1
  0
XRECORD
  5
39A
102
{ACAD_REACTORS
330
399
102
}
330
399
100
AcDbXrecord
280
     1
102
RTVSPost2010Prop28
280
     0
102
RTVSPost2010PropOp28
 70
     0
102
RTVSPost2010Prop29
280
     1
102
RTVSPost2010PropOp29
 70
     0
102
RTVSPost2010Prop30
280
     1
102
RTVSPost2010PropOp30
 70
     0
102
RTVSPost2010Prop31
280
     0
102
RTVSPost2010PropOp31
 70
     0
102
RTVSPost2010Prop32
280
     0
102
RTVSPost2010PropOp32
 70
     0
102
RTVSPost2010Prop33
280
     0
102
RTVSPost2010PropOp33
 70
     0
102
RTVSPost2010Prop34
280
     0
102
RTVSPost2010PropOp34
 70
     0
102
RTVSPost2010Prop35
280
     0
102
RTVSPost2010PropOp35
 70
     0
102
RTVSPost2010Prop36
280
     0
102
RTVSPost2010PropOp36
 70
     0
102
RTVSPost2010Prop37
 90
       50
102
RTVSPost2010PropOp37
 70
     0
102
RTVSPost2010Prop38
140
0.0
102
RTVSPost2010PropOp38
 70
     0
102
RTVSPost2010Prop39
140
1.0
102
RTVSPost2010PropOp39
 70
     0
102
RTVSPost2010Prop40
 90
        0
102
RTVSPost2010PropOp40
 70
     0
102
RTVSPost2010Prop41ColorIndex
 90
       18
102
RTVSPost2010Prop41ColorRGB
 90
        0
102
RTVSPost2010PropOp41
 70
     0
102
RTVSPost2010Prop42
 90
       50
102
RTVSPost2010PropOp42
 70
     0
102
RTVSPost2010Prop43
 90
        3
102
RTVSPost2010PropOp43
 70
     0
102
RTVSPost2010Prop44ColorIndex
 90
        5
102
RTVSPost2010Prop44ColorRGB
 90
      255
102
RTVSPost2010PropOp44
 70
     0
102
RTVSPost2010Prop45
280
     0
102
RTVSPost2010PropOp45
 70
     0
102
RTVSPost2010Prop46
 90
       50
102
RTVSPost2010PropOp46
 70
     0
102
RTVSPost2010Prop47
 90
       50
102
RTVSPost2010PropOp47
 70
     0
102
RTVSPost2010Prop48
 90
       50
102
RTVSPost2010PropOp48
 70
     0
102
RTVSPost2010Prop49
280
     0
102
RTVSPost2010PropOp49
 70
     0
102
RTVSPost2010Prop50
 90
       50
102
RTVSPost2010PropOp50
 70
     0
102
RTVSPost2010Prop51ColorIndex
 90
      256
102
RTVSPost2010Prop51ColorRGB
 90
-16777216
102
RTVSPost2010PropOp51
 70
     0
102
RTVSPost2010Prop52
140
1.0
102
RTVSPost2010PropOp52
 70
     0
102
RTVSPost2010Prop53
 90
        2
102
RTVSPost2010PropOp53
 70
     0
102
RTVSPost2010Prop54
  1
strokes_ogs.tif
102
RTVSPost2010PropOp54
 70
     0
102
RTVSPost2010Prop55
280
     0
102
RTVSPost2010PropOp55
 70
     0
102
RTVSPost2010Prop56
140
1.0
102
RTVSPost2010PropOp56
 70
     0
102
RTVSPost2010Prop57
140
1.0
102
RTVSPost2010PropOp57
 70
     0
102
RTVSPropertyOp0
 70
     0
102
RTVSPropertyOp1
 70
     0
102
RTVSPropertyOp2
 70
     0
102
RTVSPropertyOp3
 70
     0
102
RTVSPropertyOp4
 70
     0
102
RTVSPropertyOp5
 70
     0
102
RTVSPropertyOp6
 70
     0
102
RTVSPropertyOp7
 70
     0
102
RTVSPropertyOp8
 70
     0
102
RTVSPropertyOp9
 70
     0
102
RTVSPropertyOp10
 70
     0
102
RTVSPropertyOp11
 70
     0
102
RTVSPropertyOp12
 70
     0
102
RTVSPropertyOp13
 70
     0
102
RTVSPropertyOp14
 70
     2
102
RTVSPropertyOp15
 70
     0
102
RTVSPropertyOp16
 70
     0
102
RTVSPropertyOp17
 70
     0
102
RTVSPropertyOp18
 70
     0
102
RTVSPropertyOp19
 70
     0
102
RTVSPropertyOp20
 70
     0
102
RTVSPropertyOp21
 70
     0
102
RTVSPropertyOp22
 70
     0
102
RTVSPropertyOp23
 70
     0
102
RTVSPropertyOp24
 70
     0
102
RTVSPropertyOp25
 70
     0
102
RTVSPropertyOp26
 70
     0
102
RTVSPropertyOp27
 70
     0
102
RTVSPropertyOp28
 70
     0
102
RTVSPropertyOp29
 70
     0
102
RTVSPropertyOp30
 70
     0
102
RTVSPropertyOp31
 70
     0
102
RTVSPropertyOp32
 70
     0
102
RTVSPropertyOp33
 70
     0
102
RTVSPropertyOp34
 70
     0
102
RTVSPropertyOp35
 70
     0
102
RTVSPropertyOp36
 70
     0
102
RTVSPropertyOp37
 70
     0
102
RTVSPropertyOp38
 70
     0
102
RTVSPropertyOp39
 70
     0
102
RTVSPropertyOp40
 70
     0
102
RTVSPropertyOp41
 70
     0
102
RTVSPropertyOp42
 70
     0
102
RTVSPropertyOp43
 70
     0
102
RTVSPropertyOp44
 70
     0
102
RTVSPropertyOp45
 70
     0
102
RTVSPropertyOp46
 70
     0
102
RTVSPropertyOp47
 70
     0
102
RTVSPropertyOp48
 70
     0
102
RTVSPropertyOp49
 70
     0
102
RTVSPropertyOp50
 70
     0
102
RTVSPropertyOp51
 70
     0
102
RTVSPropertyOp52
 70
     0
102
RTVSPropertyOp53
 70
     0
102
RTVSPropertyOp54
 70
     0
102
RTVSPropertyOp55
 70
     0
102
RTVSPropertyOp56
 70
     0
102
RTVSPropertyOp57
 70
     0
102
RTVSPropertyOp58
 70
     1
102
RTVSPropertyOp59
 70
     1
102
RTVSPropertyOp60
 70
     1
102
RTVSPropertyOp61
 70
     1
102
RTVSPropertyOp62
 70
     1
  0
XRECORD
  5
394
102
{ACAD_REACTORS
330
393
102
}
330
393
100
AcDbXrecord
280
     1
102
RTVSPost2010Prop28
280
     0
102
RTVSPost2010PropOp28
 70
     1
102
RTVSPost2010Prop29
280
     1
102
RTVSPost2010PropOp29
 70
     1
102
RTVSPost2010Prop30
280
     1
102
RTVSPost2010PropOp30
 70
     1
102
RTVSPost2010Prop31
280
     0
102
RTVSPost2010PropOp31
 70
     1
102
RTVSPost2010Prop32
280
     0
102
RTVSPost2010PropOp32
 70
     1
102
RTVSPost2010Prop33
280
     0
102
RTVSPost2010PropOp33
 70
     1
102
RTVSPost2010Prop34
280
     0
102
RTVSPost2010PropOp34
 70
     1
102
RTVSPost2010Prop35
280
     0
102
RTVSPost2010PropOp35
 70
     1
102
RTVSPost2010Prop36
280
     0
102
RTVSPost2010PropOp36
 70
     1
102
RTVSPost2010Prop37
 90
       50
102
RTVSPost2010PropOp37
 70
     1
102
RTVSPost2010Prop38
140
0.0
102
RTVSPost2010PropOp38
 70
     1
102
RTVSPost2010Prop39
140
1.0
102
RTVSPost2010PropOp39
 70
     1
102
RTVSPost2010Prop40
 90
        0
102
RTVSPost2010PropOp40
 70
     1
102
RTVSPost2010Prop41ColorIndex
 90
       18
102
RTVSPost2010Prop41ColorRGB
 90
        0
102
RTVSPost2010PropOp41
 70
     1
102
RTVSPost2010Prop42
 90
       50
102
RTVSPost2010PropOp42
 70
     1
102
RTVSPost2010Prop43
 90
        3
102
RTVSPost2010PropOp43
 70
     1
102
RTVSPost2010Prop44ColorIndex
 90
        5
102
RTVSPost2010Prop44ColorRGB
 90
      255
102
RTVSPost2010PropOp44
 70
     1
102
RTVSPost2010Prop45
280
     0
102
RTVSPost2010PropOp45
 70
     1
102
RTVSPost2010Prop46
 90
       50
102
RTVSPost2010PropOp46
 70
     1
102
RTVSPost2010Prop47
 90
       50
102
RTVSPost2010PropOp47
 70
     1
102
RTVSPost2010Prop48
 90
       50
102
RTVSPost2010PropOp48
 70
     1
102
RTVSPost2010Prop49
280
     0
102
RTVSPost2010PropOp49
 70
     1
102
RTVSPost2010Prop50
 90
       50
102
RTVSPost2010PropOp50
 70
     1
102
RTVSPost2010Prop51ColorIndex
 90
      256
102
RTVSPost2010Prop51ColorRGB
 90
-16777216
102
RTVSPost2010PropOp51
 70
     0
102
RTVSPost2010Prop52
140
1.0
102
RTVSPost2010PropOp52
 70
     0
102
RTVSPost2010Prop53
 90
        2
102
RTVSPost2010PropOp53
 70
     1
102
RTVSPost2010Prop54
  1
strokes_ogs.tif
102
RTVSPost2010PropOp54
 70
     1
102
RTVSPost2010Prop55
280
     0
102
RTVSPost2010PropOp55
 70
     1
102
RTVSPost2010Prop56
140
1.0
102
RTVSPost2010PropOp56
 70
     1
102
RTVSPost2010Prop57
140
1.0
102
RTVSPost2010PropOp57
 70
     1
102
RTVSPropertyOp0
 70
     1
102
RTVSPropertyOp1
 70
     1
102
RTVSPropertyOp2
 70
     1
102
RTVSPropertyOp3
 70
     1
102
RTVSPropertyOp4
 70
     1
102
RTVSPropertyOp5
 70
     1
102
RTVSPropertyOp6
 70
     1
102
RTVSPropertyOp7
 70
     1
102
RTVSPropertyOp8
 70
     1
102
RTVSPropertyOp9
 70
     1
102
RTVSPropertyOp10
 70
     1
102
RTVSPropertyOp11
 70
     1
102
RTVSPropertyOp12
 70
     1
102
RTVSPropertyOp13
 70
     1
102
RTVSPropertyOp14
 70
     1
102
RTVSPropertyOp15
 70
     1
102
RTVSPropertyOp16
 70
     1
102
RTVSPropertyOp17
 70
     1
102
RTVSPropertyOp18
 70
     1
102
RTVSPropertyOp19
 70
     1
102
RTVSPropertyOp20
 70
     1
102
RTVSPropertyOp21
 70
     1
102
RTVSPropertyOp22
 70
     1
102
RTVSPropertyOp23
 70
     1
102
RTVSPropertyOp24
 70
     1
102
RTVSPropertyOp25
 70
     1
102
RTVSPropertyOp26
 70
     1
102
RTVSPropertyOp27
 70
     1
102
RTVSPropertyOp28
 70
     1
102
RTVSPropertyOp29
 70
     1
102
RTVSPropertyOp30
 70
     1
102
RTVSPropertyOp31
 70
     1
102
RTVSPropertyOp32
 70
     1
102
RTVSPropertyOp33
 70
     1
102
RTVSPropertyOp34
 70
     1
102
RTVSPropertyOp35
 70
     1
102
RTVSPropertyOp36
 70
     1
102
RTVSPropertyOp37
 70
     1
102
RTVSPropertyOp38
 70
     1
102
RTVSPropertyOp39
 70
     1
102
RTVSPropertyOp40
 70
     1
102
RTVSPropertyOp41
 70
     1
102
RTVSPropertyOp42
 70
     1
102
RTVSPropertyOp43
 70
     1
102
RTVSPropertyOp44
 70
     1
102
RTVSPropertyOp45
 70
     1
102
RTVSPropertyOp46
 70
     1
102
RTVSPropertyOp47
 70
     1
102
RTVSPropertyOp48
 70
     1
102
RTVSPropertyOp49
 70
     1
102
RTVSPropertyOp50
 70
     1
102
RTVSPropertyOp51
 70
     0
102
RTVSPropertyOp52
 70
     0
102
RTVSPropertyOp53
 70
     1
102
RTVSPropertyOp54
 70
     1
102
RTVSPropertyOp55
 70
     1
102
RTVSPropertyOp56
 70
     1
102
RTVSPropertyOp57
 70
     1
102
RTVSPropertyOp58
 70
     1
102
RTVSPropertyOp59
 70
     1
102
RTVSPropertyOp60
 70
     1
102
RTVSPropertyOp61
 70
     1
102
RTVSPropertyOp62
 70
     1
  0
XRECORD
  5
39C
102
{ACAD_REACTORS
330
39B
102
}
330
39B
100
AcDbXrecord
280
     1
102
RTVSPost2010Prop28
280
     0
102
RTVSPost2010PropOp28
 70
     0
102
RTVSPost2010Prop29
280
     1
102
RTVSPost2010PropOp29
 70
     0
102
RTVSPost2010Prop30
280
     1
102
RTVSPost2010PropOp30
 70
     0
102
RTVSPost2010Prop31
280
     0
102
RTVSPost2010PropOp31
 70
     0
102
RTVSPost2010Prop32
280
     0
102
RTVSPost2010PropOp32
 70
     0
102
RTVSPost2010Prop33
280
     0
102
RTVSPost2010PropOp33
 70
     0
102
RTVSPost2010Prop34
280
     0
102
RTVSPost2010PropOp34
 70
     0
102
RTVSPost2010Prop35
280
     0
102
RTVSPost2010PropOp35
 70
     0
102
RTVSPost2010Prop36
280
     0
102
RTVSPost2010PropOp36
 70
     0
102
RTVSPost2010Prop37
 90
       50
102
RTVSPost2010PropOp37
 70
     0
102
RTVSPost2010Prop38
140
0.0
102
RTVSPost2010PropOp38
 70
     0
102
RTVSPost2010Prop39
140
1.0
102
RTVSPost2010PropOp39
 70
     0
102
RTVSPost2010Prop40
 90
        0
102
RTVSPost2010PropOp40
 70
     0
102
RTVSPost2010Prop41ColorIndex
 90
       18
102
RTVSPost2010Prop41ColorRGB
 90
        0
102
RTVSPost2010PropOp41
 70
     0
102
RTVSPost2010Prop42
 90
       50
102
RTVSPost2010PropOp42
 70
     0
102
RTVSPost2010Prop43
 90
        3
102
RTVSPost2010PropOp43
 70
     0
102
RTVSPost2010Prop44ColorIndex
 90
        5
102
RTVSPost2010Prop44ColorRGB
 90
      255
102
RTVSPost2010PropOp44
 70
     0
102
RTVSPost2010Prop45
280
     0
102
RTVSPost2010PropOp45
 70
     0
102
RTVSPost2010Prop46
 90
       50
102
RTVSPost2010PropOp46
 70
     0
102
RTVSPost2010Prop47
 90
       50
102
RTVSPost2010PropOp47
 70
     0
102
RTVSPost2010Prop48
 90
       50
102
RTVSPost2010PropOp48
 70
     0
102
RTVSPost2010Prop49
280
     0
102
RTVSPost2010PropOp49
 70
     0
102
RTVSPost2010Prop50
 90
       50
102
RTVSPost2010PropOp50
 70
     0
102
RTVSPost2010Prop51ColorIndex
 90
      256
102
RTVSPost2010Prop51ColorRGB
 90
-16777216
102
RTVSPost2010PropOp51
 70
     0
102
RTVSPost2010Prop52
140
1.0
102
RTVSPost2010PropOp52
 70
     0
102
RTVSPost2010Prop53
 90
        2
102
RTVSPost2010PropOp53
 70
     0
102
RTVSPost2010Prop54
  1
strokes_ogs.tif
102
RTVSPost2010PropOp54
 70
     0
102
RTVSPost2010Prop55
280
     0
102
RTVSPost2010PropOp55
 70
     0
102
RTVSPost2010Prop56
140
1.0
102
RTVSPost2010PropOp56
 70
     0
102
RTVSPost2010Prop57
140
1.0
102
RTVSPost2010PropOp57
 70
     0
102
RTVSPropertyOp0
 70
     0
102
RTVSPropertyOp1
 70
     0
102
RTVSPropertyOp2
 70
     0
102
RTVSPropertyOp3
 70
     0
102
RTVSPropertyOp4
 70
     0
102
RTVSPropertyOp5
 70
     0
102
RTVSPropertyOp6
 70
     0
102
RTVSPropertyOp7
 70
     0
102
RTVSPropertyOp8
 70
     0
102
RTVSPropertyOp9
 70
     0
102
RTVSPropertyOp10
 70
     0
102
RTVSPropertyOp11
 70
     0
102
RTVSPropertyOp12
 70
     0
102
RTVSPropertyOp13
 70
     0
102
RTVSPropertyOp14
 70
     2
102
RTVSPropertyOp15
 70
     0
102
RTVSPropertyOp16
 70
     0
102
RTVSPropertyOp17
 70
     0
102
RTVSPropertyOp18
 70
     0
102
RTVSPropertyOp19
 70
     0
102
RTVSPropertyOp20
 70
     0
102
RTVSPropertyOp21
 70
     0
102
RTVSPropertyOp22
 70
     0
102
RTVSPropertyOp23
 70
     0
102
RTVSPropertyOp24
 70
     0
102
RTVSPropertyOp25
 70
     0
102
RTVSPropertyOp26
 70
     0
102
RTVSPropertyOp27
 70
     0
102
RTVSPropertyOp28
 70
     0
102
RTVSPropertyOp29
 70
     0
102
RTVSPropertyOp30
 70
     0
102
RTVSPropertyOp31
 70
     0
102
RTVSPropertyOp32
 70
     0
102
RTVSPropertyOp33
 70
     0
102
RTVSPropertyOp34
 70
     0
102
RTVSPropertyOp35
 70
     0
102
RTVSPropertyOp36
 70
     0
102
RTVSPropertyOp37
 70
     0
102
RTVSPropertyOp38
 70
     0
102
RTVSPropertyOp39
 70
     0
102
RTVSPropertyOp40
 70
     0
102
RTVSPropertyOp41
 70
     0
102
RTVSPropertyOp42
 70
     0
102
RTVSPropertyOp43
 70
     0
102
RTVSPropertyOp44
 70
     0
102
RTVSPropertyOp45
 70
     0
102
RTVSPropertyOp46
 70
     0
102
RTVSPropertyOp47
 70
     0
102
RTVSPropertyOp48
 70
     0
102
RTVSPropertyOp49
 70
     0
102
RTVSPropertyOp50
 70
     0
102
RTVSPropertyOp51
 70
     0
102
RTVSPropertyOp52
 70
     0
102
RTVSPropertyOp53
 70
     0
102
RTVSPropertyOp54
 70
     0
102
RTVSPropertyOp55
 70
     0
102
RTVSPropertyOp56
 70
     0
102
RTVSPropertyOp57
 70
     0
102
RTVSPropertyOp58
 70
     1
102
RTVSPropertyOp59
 70
     1
102
RTVSPropertyOp60
 70
     1
102
RTVSPropertyOp61
 70
     1
102
RTVSPropertyOp62
 70
     1
  0
XRECORD
  5
38A
102
{ACAD_REACTORS
330
389
102
}
330
389
100
AcDbXrecord
280
     1
102
RTVSPost2010Prop28
280
     0
102
RTVSPost2010PropOp28
 70
     1
102
RTVSPost2010Prop29
280
     1
102
RTVSPost2010PropOp29
 70
     1
102
RTVSPost2010Prop30
280
     1
102
RTVSPost2010PropOp30
 70
     1
102
RTVSPost2010Prop31
280
     0
102
RTVSPost2010PropOp31
 70
     1
102
RTVSPost2010Prop32
280
     0
102
RTVSPost2010PropOp32
 70
     1
102
RTVSPost2010Prop33
280
     0
102
RTVSPost2010PropOp33
 70
     1
102
RTVSPost2010Prop34
280
     0
102
RTVSPost2010PropOp34
 70
     1
102
RTVSPost2010Prop35
280
     0
102
RTVSPost2010PropOp35
 70
     1
102
RTVSPost2010Prop36
280
     0
102
RTVSPost2010PropOp36
 70
     1
102
RTVSPost2010Prop37
 90
       50
102
RTVSPost2010PropOp37
 70
     1
102
RTVSPost2010Prop38
140
0.0
102
RTVSPost2010PropOp38
 70
     1
102
RTVSPost2010Prop39
140
1.0
102
RTVSPost2010PropOp39
 70
     1
102
RTVSPost2010Prop40
 90
        0
102
RTVSPost2010PropOp40
 70
     1
102
RTVSPost2010Prop41ColorIndex
 90
       18
102
RTVSPost2010Prop41ColorRGB
 90
        0
102
RTVSPost2010PropOp41
 70
     1
102
RTVSPost2010Prop42
 90
       50
102
RTVSPost2010PropOp42
 70
     1
102
RTVSPost2010Prop43
 90
        3
102
RTVSPost2010PropOp43
 70
     1
102
RTVSPost2010Prop44ColorIndex
 90
        5
102
RTVSPost2010Prop44ColorRGB
 90
      255
102
RTVSPost2010PropOp44
 70
     1
102
RTVSPost2010Prop45
280
     0
102
RTVSPost2010PropOp45
 70
     1
102
RTVSPost2010Prop46
 90
       50
102
RTVSPost2010PropOp46
 70
     1
102
RTVSPost2010Prop47
 90
       50
102
RTVSPost2010PropOp47
 70
     1
102
RTVSPost2010Prop48
 90
       50
102
RTVSPost2010PropOp48
 70
     1
102
RTVSPost2010Prop49
280
     0
102
RTVSPost2010PropOp49
 70
     1
102
RTVSPost2010Prop50
 90
       50
102
RTVSPost2010PropOp50
 70
     1
102
RTVSPost2010Prop51ColorIndex
 90
      256
102
RTVSPost2010Prop51ColorRGB
 90
-16777216
102
RTVSPost2010PropOp51
 70
     0
102
RTVSPost2010Prop52
140
1.0
102
RTVSPost2010PropOp52
 70
     0
102
RTVSPost2010Prop53
 90
        2
102
RTVSPost2010PropOp53
 70
     1
102
RTVSPost2010Prop54
  1
strokes_ogs.tif
102
RTVSPost2010PropOp54
 70
     1
102
RTVSPost2010Prop55
280
     0
102
RTVSPost2010PropOp55
 70
     1
102
RTVSPost2010Prop56
140
1.0
102
RTVSPost2010PropOp56
 70
     1
102
RTVSPost2010Prop57
140
1.0
102
RTVSPost2010PropOp57
 70
     1
102
RTVSPropertyOp0
 70
     1
102
RTVSPropertyOp1
 70
     1
102
RTVSPropertyOp2
 70
     1
102
RTVSPropertyOp3
 70
     1
102
RTVSPropertyOp4
 70
     1
102
RTVSPropertyOp5
 70
     1
102
RTVSPropertyOp6
 70
     1
102
RTVSPropertyOp7
 70
     1
102
RTVSPropertyOp8
 70
     1
102
RTVSPropertyOp9
 70
     1
102
RTVSPropertyOp10
 70
     1
102
RTVSPropertyOp11
 70
     1
102
RTVSPropertyOp12
 70
     1
102
RTVSPropertyOp13
 70
     1
102
RTVSPropertyOp14
 70
     1
102
RTVSPropertyOp15
 70
     1
102
RTVSPropertyOp16
 70
     1
102
RTVSPropertyOp17
 70
     1
102
RTVSPropertyOp18
 70
     1
102
RTVSPropertyOp19
 70
     1
102
RTVSPropertyOp20
 70
     1
102
RTVSPropertyOp21
 70
     1
102
RTVSPropertyOp22
 70
     1
102
RTVSPropertyOp23
 70
     1
102
RTVSPropertyOp24
 70
     1
102
RTVSPropertyOp25
 70
     1
102
RTVSPropertyOp26
 70
     1
102
RTVSPropertyOp27
 70
     1
102
RTVSPropertyOp28
 70
     1
102
RTVSPropertyOp29
 70
     1
102
RTVSPropertyOp30
 70
     1
102
RTVSPropertyOp31
 70
     1
102
RTVSPropertyOp32
 70
     1
102
RTVSPropertyOp33
 70
     1
102
RTVSPropertyOp34
 70
     1
102
RTVSPropertyOp35
 70
     1
102
RTVSPropertyOp36
 70
     1
102
RTVSPropertyOp37
 70
     1
102
RTVSPropertyOp38
 70
     1
102
RTVSPropertyOp39
 70
     1
102
RTVSPropertyOp40
 70
     1
102
RTVSPropertyOp41
 70
     1
102
RTVSPropertyOp42
 70
     1
102
RTVSPropertyOp43
 70
     1
102
RTVSPropertyOp44
 70
     1
102
RTVSPropertyOp45
 70
     1
102
RTVSPropertyOp46
 70
     1
102
RTVSPropertyOp47
 70
     1
102
RTVSPropertyOp48
 70
     1
102
RTVSPropertyOp49
 70
     1
102
RTVSPropertyOp50
 70
     1
102
RTVSPropertyOp51
 70
     0
102
RTVSPropertyOp52
 70
     0
102
RTVSPropertyOp53
 70
     1
102
RTVSPropertyOp54
 70
     1
102
RTVSPropertyOp55
 70
     1
102
RTVSPropertyOp56
 70
     1
102
RTVSPropertyOp57
 70
     1
102
RTVSPropertyOp58
 70
     1
102
RTVSPropertyOp59
 70
     1
102
RTVSPropertyOp60
 70
     1
102
RTVSPropertyOp61
 70
     1
102
RTVSPropertyOp62
 70
     1
  0
XRECORD
  5
3A8
102
{ACAD_REACTORS
330
3A7
102
}
330
3A7
100
AcDbXrecord
280
     1
102
RTVSPost2010Prop28
280
     0
102
RTVSPost2010PropOp28
 70
     1
102
RTVSPost2010Prop29
280
     1
102
RTVSPost2010PropOp29
 70
     1
102
RTVSPost2010Prop30
280
     1
102
RTVSPost2010PropOp30
 70
     1
102
RTVSPost2010Prop31
280
     0
102
RTVSPost2010PropOp31
 70
     1
102
RTVSPost2010Prop32
280
     0
102
RTVSPost2010PropOp32
 70
     1
102
RTVSPost2010Prop33
280
     0
102
RTVSPost2010PropOp33
 70
     1
102
RTVSPost2010Prop34
280
     0
102
RTVSPost2010PropOp34
 70
     1
102
RTVSPost2010Prop35
280
     0
102
RTVSPost2010PropOp35
 70
     1
102
RTVSPost2010Prop36
280
     0
102
RTVSPost2010PropOp36
 70
     1
102
RTVSPost2010Prop37
 90
       50
102
RTVSPost2010PropOp37
 70
     1
102
RTVSPost2010Prop38
140
0.0
102
RTVSPost2010PropOp38
 70
     1
102
RTVSPost2010Prop39
140
1.0
102
RTVSPost2010PropOp39
 70
     1
102
RTVSPost2010Prop40
 90
        0
102
RTVSPost2010PropOp40
 70
     1
102
RTVSPost2010Prop41ColorIndex
 90
       18
102
RTVSPost2010Prop41ColorRGB
 90
        0
102
RTVSPost2010PropOp41
 70
     1
102
RTVSPost2010Prop42
 90
       50
102
RTVSPost2010PropOp42
 70
     1
102
RTVSPost2010Prop43
 90
        3
102
RTVSPost2010PropOp43
 70
     1
102
RTVSPost2010Prop44ColorIndex
 90
        5
102
RTVSPost2010Prop44ColorRGB
 90
      255
102
RTVSPost2010PropOp44
 70
     1
102
RTVSPost2010Prop45
280
     0
102
RTVSPost2010PropOp45
 70
     1
102
RTVSPost2010Prop46
 90
       50
102
RTVSPost2010PropOp46
 70
     1
102
RTVSPost2010Prop47
 90
       50
102
RTVSPost2010PropOp47
 70
     1
102
RTVSPost2010Prop48
 90
       50
102
RTVSPost2010PropOp48
 70
     1
102
RTVSPost2010Prop49
280
     0
102
RTVSPost2010PropOp49
 70
     1
102
RTVSPost2010Prop50
 90
       50
102
RTVSPost2010PropOp50
 70
     1
102
RTVSPost2010Prop51ColorIndex
 90
      256
102
RTVSPost2010Prop51ColorRGB
 90
-16777216
102
RTVSPost2010PropOp51
 70
     0
102
RTVSPost2010Prop52
140
1.0
102
RTVSPost2010PropOp52
 70
     0
102
RTVSPost2010Prop53
 90
        2
102
RTVSPost2010PropOp53
 70
     1
102
RTVSPost2010Prop54
  1
strokes_ogs.tif
102
RTVSPost2010PropOp54
 70
     1
102
RTVSPost2010Prop55
280
     0
102
RTVSPost2010PropOp55
 70
     1
102
RTVSPost2010Prop56
140
1.0
102
RTVSPost2010PropOp56
 70
     1
102
RTVSPost2010Prop57
140
1.0
102
RTVSPost2010PropOp57
 70
     1
102
RTVSPropertyOp0
 70
     1
102
RTVSPropertyOp1
 70
     1
102
RTVSPropertyOp2
 70
     1
102
RTVSPropertyOp3
 70
     1
102
RTVSPropertyOp4
 70
     1
102
RTVSPropertyOp5
 70
     1
102
RTVSPropertyOp6
 70
     1
102
RTVSPropertyOp7
 70
     1
102
RTVSPropertyOp8
 70
     1
102
RTVSPropertyOp9
 70
     1
102
RTVSPropertyOp10
 70
     1
102
RTVSPropertyOp11
 70
     1
102
RTVSPropertyOp12
 70
     1
102
RTVSPropertyOp13
 70
     1
102
RTVSPropertyOp14
 70
     1
102
RTVSPropertyOp15
 70
     1
102
RTVSPropertyOp16
 70
     1
102
RTVSPropertyOp17
 70
     1
102
RTVSPropertyOp18
 70
     1
102
RTVSPropertyOp19
 70
     1
102
RTVSPropertyOp20
 70
     1
102
RTVSPropertyOp21
 70
     1
102
RTVSPropertyOp22
 70
     1
102
RTVSPropertyOp23
 70
     1
102
RTVSPropertyOp24
 70
     1
102
RTVSPropertyOp25
 70
     1
102
RTVSPropertyOp26
 70
     1
102
RTVSPropertyOp27
 70
     1
102
RTVSPropertyOp28
 70
     1
102
RTVSPropertyOp29
 70
     1
102
RTVSPropertyOp30
 70
     1
102
RTVSPropertyOp31
 70
     1
102
RTVSPropertyOp32
 70
     1
102
RTVSPropertyOp33
 70
     1
102
RTVSPropertyOp34
 70
     1
102
RTVSPropertyOp35
 70
     1
102
RTVSPropertyOp36
 70
     1
102
RTVSPropertyOp37
 70
     1
102
RTVSPropertyOp38
 70
     1
102
RTVSPropertyOp39
 70
     1
102
RTVSPropertyOp40
 70
     1
102
RTVSPropertyOp41
 70
     1
102
RTVSPropertyOp42
 70
     1
102
RTVSPropertyOp43
 70
     1
102
RTVSPropertyOp44
 70
     1
102
RTVSPropertyOp45
 70
     1
102
RTVSPropertyOp46
 70
     1
102
RTVSPropertyOp47
 70
     1
102
RTVSPropertyOp48
 70
     1
102
RTVSPropertyOp49
 70
     1
102
RTVSPropertyOp50
 70
     1
102
RTVSPropertyOp51
 70
     0
102
RTVSPropertyOp52
 70
     0
102
RTVSPropertyOp53
 70
     1
102
RTVSPropertyOp54
 70
     1
102
RTVSPropertyOp55
 70
     1
102
RTVSPropertyOp56
 70
     1
102
RTVSPropertyOp57
 70
     1
102
RTVSPropertyOp58
 70
     1
102
RTVSPropertyOp59
 70
     1
102
RTVSPropertyOp60
 70
     1
102
RTVSPropertyOp61
 70
     1
102
RTVSPropertyOp62
 70
     1
  0
XRECORD
  5
3A6
102
{ACAD_REACTORS
330
3A5
102
}
330
3A5
100
AcDbXrecord
280
     1
102
RTVSPost2010Prop28
280
     0
102
RTVSPost2010PropOp28
 70
     1
102
RTVSPost2010Prop29
280
     1
102
RTVSPost2010PropOp29
 70
     1
102
RTVSPost2010Prop30
280
     1
102
RTVSPost2010PropOp30
 70
     1
102
RTVSPost2010Prop31
280
     0
102
RTVSPost2010PropOp31
 70
     1
102
RTVSPost2010Prop32
280
     0
102
RTVSPost2010PropOp32
 70
     1
102
RTVSPost2010Prop33
280
     0
102
RTVSPost2010PropOp33
 70
     1
102
RTVSPost2010Prop34
280
     0
102
RTVSPost2010PropOp34
 70
     1
102
RTVSPost2010Prop35
280
     0
102
RTVSPost2010PropOp35
 70
     1
102
RTVSPost2010Prop36
280
     0
102
RTVSPost2010PropOp36
 70
     1
102
RTVSPost2010Prop37
 90
       50
102
RTVSPost2010PropOp37
 70
     1
102
RTVSPost2010Prop38
140
0.0
102
RTVSPost2010PropOp38
 70
     1
102
RTVSPost2010Prop39
140
1.0
102
RTVSPost2010PropOp39
 70
     1
102
RTVSPost2010Prop40
 90
        0
102
RTVSPost2010PropOp40
 70
     1
102
RTVSPost2010Prop41ColorIndex
 90
       18
102
RTVSPost2010Prop41ColorRGB
 90
        0
102
RTVSPost2010PropOp41
 70
     1
102
RTVSPost2010Prop42
 90
       50
102
RTVSPost2010PropOp42
 70
     1
102
RTVSPost2010Prop43
 90
        3
102
RTVSPost2010PropOp43
 70
     1
102
RTVSPost2010Prop44ColorIndex
 90
        5
102
RTVSPost2010Prop44ColorRGB
 90
      255
102
RTVSPost2010PropOp44
 70
     1
102
RTVSPost2010Prop45
280
     0
102
RTVSPost2010PropOp45
 70
     1
102
RTVSPost2010Prop46
 90
       50
102
RTVSPost2010PropOp46
 70
     1
102
RTVSPost2010Prop47
 90
       50
102
RTVSPost2010PropOp47
 70
     1
102
RTVSPost2010Prop48
 90
       50
102
RTVSPost2010PropOp48
 70
     1
102
RTVSPost2010Prop49
280
     0
102
RTVSPost2010PropOp49
 70
     1
102
RTVSPost2010Prop50
 90
       50
102
RTVSPost2010PropOp50
 70
     1
102
RTVSPost2010Prop51ColorIndex
 90
      256
102
RTVSPost2010Prop51ColorRGB
 90
-16777216
102
RTVSPost2010PropOp51
 70
     0
102
RTVSPost2010Prop52
140
1.0
102
RTVSPost2010PropOp52
 70
     0
102
RTVSPost2010Prop53
 90
        2
102
RTVSPost2010PropOp53
 70
     1
102
RTVSPost2010Prop54
  1
strokes_ogs.tif
102
RTVSPost2010PropOp54
 70
     1
102
RTVSPost2010Prop55
280
     0
102
RTVSPost2010PropOp55
 70
     1
102
RTVSPost2010Prop56
140
1.0
102
RTVSPost2010PropOp56
 70
     1
102
RTVSPost2010Prop57
140
1.0
102
RTVSPost2010PropOp57
 70
     1
102
RTVSPropertyOp0
 70
     1
102
RTVSPropertyOp1
 70
     1
102
RTVSPropertyOp2
 70
     1
102
RTVSPropertyOp3
 70
     1
102
RTVSPropertyOp4
 70
     1
102
RTVSPropertyOp5
 70
     1
102
RTVSPropertyOp6
 70
     1
102
RTVSPropertyOp7
 70
     1
102
RTVSPropertyOp8
 70
     1
102
RTVSPropertyOp9
 70
     1
102
RTVSPropertyOp10
 70
     1
102
RTVSPropertyOp11
 70
     1
102
RTVSPropertyOp12
 70
     1
102
RTVSPropertyOp13
 70
     1
102
RTVSPropertyOp14
 70
     1
102
RTVSPropertyOp15
 70
     1
102
RTVSPropertyOp16
 70
     1
102
RTVSPropertyOp17
 70
     1
102
RTVSPropertyOp18
 70
     1
102
RTVSPropertyOp19
 70
     1
102
RTVSPropertyOp20
 70
     1
102
RTVSPropertyOp21
 70
     1
102
RTVSPropertyOp22
 70
     1
102
RTVSPropertyOp23
 70
     1
102
RTVSPropertyOp24
 70
     1
102
RTVSPropertyOp25
 70
     1
102
RTVSPropertyOp26
 70
     1
102
RTVSPropertyOp27
 70
     1
102
RTVSPropertyOp28
 70
     1
102
RTVSPropertyOp29
 70
     1
102
RTVSPropertyOp30
 70
     1
102
RTVSPropertyOp31
 70
     1
102
RTVSPropertyOp32
 70
     1
102
RTVSPropertyOp33
 70
     1
102
RTVSPropertyOp34
 70
     1
102
RTVSPropertyOp35
 70
     1
102
RTVSPropertyOp36
 70
     1
102
RTVSPropertyOp37
 70
     1
102
RTVSPropertyOp38
 70
     1
102
RTVSPropertyOp39
 70
     1
102
RTVSPropertyOp40
 70
     1
102
RTVSPropertyOp41
 70
     1
102
RTVSPropertyOp42
 70
     1
102
RTVSPropertyOp43
 70
     1
102
RTVSPropertyOp44
 70
     1
102
RTVSPropertyOp45
 70
     1
102
RTVSPropertyOp46
 70
     1
102
RTVSPropertyOp47
 70
     1
102
RTVSPropertyOp48
 70
     1
102
RTVSPropertyOp49
 70
     1
102
RTVSPropertyOp50
 70
     1
102
RTVSPropertyOp51
 70
     0
102
RTVSPropertyOp52
 70
     0
102
RTVSPropertyOp53
 70
     1
102
RTVSPropertyOp54
 70
     1
102
RTVSPropertyOp55
 70
     1
102
RTVSPropertyOp56
 70
     1
102
RTVSPropertyOp57
 70
     1
102
RTVSPropertyOp58
 70
     1
102
RTVSPropertyOp59
 70
     1
102
RTVSPropertyOp60
 70
     1
102
RTVSPropertyOp61
 70
     1
102
RTVSPropertyOp62
 70
     1
  0
XRECORD
  5
3A0
102
{ACAD_REACTORS
330
39F
102
}
330
39F
100
AcDbXrecord
280
     1
102
RTVSPost2010Prop28
280
     0
102
RTVSPost2010PropOp28
 70
     1
102
RTVSPost2010Prop29
280
     1
102
RTVSPost2010PropOp29
 70
     1
102
RTVSPost2010Prop30
280
     1
102
RTVSPost2010PropOp30
 70
     1
102
RTVSPost2010Prop31
280
     0
102
RTVSPost2010PropOp31
 70
     1
102
RTVSPost2010Prop32
280
     0
102
RTVSPost2010PropOp32
 70
     1
102
RTVSPost2010Prop33
280
     0
102
RTVSPost2010PropOp33
 70
     1
102
RTVSPost2010Prop34
280
     0
102
RTVSPost2010PropOp34
 70
     1
102
RTVSPost2010Prop35
280
     0
102
RTVSPost2010PropOp35
 70
     1
102
RTVSPost2010Prop36
280
     0
102
RTVSPost2010PropOp36
 70
     1
102
RTVSPost2010Prop37
 90
       50
102
RTVSPost2010PropOp37
 70
     1
102
RTVSPost2010Prop38
140
0.0
102
RTVSPost2010PropOp38
 70
     1
102
RTVSPost2010Prop39
140
1.0
102
RTVSPost2010PropOp39
 70
     1
102
RTVSPost2010Prop40
 90
        0
102
RTVSPost2010PropOp40
 70
     1
102
RTVSPost2010Prop41ColorIndex
 90
       18
102
RTVSPost2010Prop41ColorRGB
 90
        0
102
RTVSPost2010PropOp41
 70
     1
102
RTVSPost2010Prop42
 90
       50
102
RTVSPost2010PropOp42
 70
     1
102
RTVSPost2010Prop43
 90
        3
102
RTVSPost2010PropOp43
 70
     1
102
RTVSPost2010Prop44ColorIndex
 90
        5
102
RTVSPost2010Prop44ColorRGB
 90
      255
102
RTVSPost2010PropOp44
 70
     1
102
RTVSPost2010Prop45
280
     0
102
RTVSPost2010PropOp45
 70
     1
102
RTVSPost2010Prop46
 90
       50
102
RTVSPost2010PropOp46
 70
     1
102
RTVSPost2010Prop47
 90
       50
102
RTVSPost2010PropOp47
 70
     1
102
RTVSPost2010Prop48
 90
       50
102
RTVSPost2010PropOp48
 70
     1
102
RTVSPost2010Prop49
280
     0
102
RTVSPost2010PropOp49
 70
     1
102
RTVSPost2010Prop50
 90
       50
102
RTVSPost2010PropOp50
 70
     1
102
RTVSPost2010Prop51ColorIndex
 90
      256
102
RTVSPost2010Prop51ColorRGB
 90
-16777216
102
RTVSPost2010PropOp51
 70
     0
102
RTVSPost2010Prop52
140
1.0
102
RTVSPost2010PropOp52
 70
     0
102
RTVSPost2010Prop53
 90
        2
102
RTVSPost2010PropOp53
 70
     1
102
RTVSPost2010Prop54
  1
strokes_ogs.tif
102
RTVSPost2010PropOp54
 70
     1
102
RTVSPost2010Prop55
280
     0
102
RTVSPost2010PropOp55
 70
     1
102
RTVSPost2010Prop56
140
1.0
102
RTVSPost2010PropOp56
 70
     1
102
RTVSPost2010Prop57
140
1.0
102
RTVSPost2010PropOp57
 70
     1
102
RTVSPropertyOp0
 70
     1
102
RTVSPropertyOp1
 70
     1
102
RTVSPropertyOp2
 70
     1
102
RTVSPropertyOp3
 70
     1
102
RTVSPropertyOp4
 70
     1
102
RTVSPropertyOp5
 70
     1
102
RTVSPropertyOp6
 70
     1
102
RTVSPropertyOp7
 70
     1
102
RTVSPropertyOp8
 70
     1
102
RTVSPropertyOp9
 70
     1
102
RTVSPropertyOp10
 70
     1
102
RTVSPropertyOp11
 70
     1
102
RTVSPropertyOp12
 70
     1
102
RTVSPropertyOp13
 70
     1
102
RTVSPropertyOp14
 70
     1
102
RTVSPropertyOp15
 70
     1
102
RTVSPropertyOp16
 70
     1
102
RTVSPropertyOp17
 70
     1
102
RTVSPropertyOp18
 70
     1
102
RTVSPropertyOp19
 70
     1
102
RTVSPropertyOp20
 70
     1
102
RTVSPropertyOp21
 70
     1
102
RTVSPropertyOp22
 70
     1
102
RTVSPropertyOp23
 70
     1
102
RTVSPropertyOp24
 70
     1
102
RTVSPropertyOp25
 70
     1
102
RTVSPropertyOp26
 70
     1
102
RTVSPropertyOp27
 70
     1
102
RTVSPropertyOp28
 70
     1
102
RTVSPropertyOp29
 70
     1
102
RTVSPropertyOp30
 70
     1
102
RTVSPropertyOp31
 70
     1
102
RTVSPropertyOp32
 70
     1
102
RTVSPropertyOp33
 70
     1
102
RTVSPropertyOp34
 70
     1
102
RTVSPropertyOp35
 70
     1
102
RTVSPropertyOp36
 70
     1
102
RTVSPropertyOp37
 70
     1
102
RTVSPropertyOp38
 70
     1
102
RTVSPropertyOp39
 70
     1
102
RTVSPropertyOp40
 70
     1
102
RTVSPropertyOp41
 70
     1
102
RTVSPropertyOp42
 70
     1
102
RTVSPropertyOp43
 70
     1
102
RTVSPropertyOp44
 70
     1
102
RTVSPropertyOp45
 70
     1
102
RTVSPropertyOp46
 70
     1
102
RTVSPropertyOp47
 70
     1
102
RTVSPropertyOp48
 70
     1
102
RTVSPropertyOp49
 70
     1
102
RTVSPropertyOp50
 70
     1
102
RTVSPropertyOp51
 70
     0
102
RTVSPropertyOp52
 70
     0
102
RTVSPropertyOp53
 70
     1
102
RTVSPropertyOp54
 70
     1
102
RTVSPropertyOp55
 70
     1
102
RTVSPropertyOp56
 70
     1
102
RTVSPropertyOp57
 70
     1
102
RTVSPropertyOp58
 70
     1
102
RTVSPropertyOp59
 70
     1
102
RTVSPropertyOp60
 70
     1
102
RTVSPropertyOp61
 70
     1
102
RTVSPropertyOp62
 70
     1
  0
XRECORD
  5
3A2
102
{ACAD_REACTORS
330
3A1
102
}
330
3A1
100
AcDbXrecord
280
     1
102
RTVSPost2010Prop28
280
     0
102
RTVSPost2010PropOp28
 70
     1
102
RTVSPost2010Prop29
280
     1
102
RTVSPost2010PropOp29
 70
     1
102
RTVSPost2010Prop30
280
     1
102
RTVSPost2010PropOp30
 70
     1
102
RTVSPost2010Prop31
280
     0
102
RTVSPost2010PropOp31
 70
     1
102
RTVSPost2010Prop32
280
     0
102
RTVSPost2010PropOp32
 70
     1
102
RTVSPost2010Prop33
280
     0
102
RTVSPost2010PropOp33
 70
     1
102
RTVSPost2010Prop34
280
     0
102
RTVSPost2010PropOp34
 70
     1
102
RTVSPost2010Prop35
280
     0
102
RTVSPost2010PropOp35
 70
     1
102
RTVSPost2010Prop36
280
     0
102
RTVSPost2010PropOp36
 70
     1
102
RTVSPost2010Prop37
 90
       50
102
RTVSPost2010PropOp37
 70
     1
102
RTVSPost2010Prop38
140
0.0
102
RTVSPost2010PropOp38
 70
     1
102
RTVSPost2010Prop39
140
1.0
102
RTVSPost2010PropOp39
 70
     1
102
RTVSPost2010Prop40
 90
        0
102
RTVSPost2010PropOp40
 70
     1
102
RTVSPost2010Prop41ColorIndex
 90
       18
102
RTVSPost2010Prop41ColorRGB
 90
        0
102
RTVSPost2010PropOp41
 70
     1
102
RTVSPost2010Prop42
 90
       50
102
RTVSPost2010PropOp42
 70
     1
102
RTVSPost2010Prop43
 90
        3
102
RTVSPost2010PropOp43
 70
     1
102
RTVSPost2010Prop44ColorIndex
 90
        5
102
RTVSPost2010Prop44ColorRGB
 90
      255
102
RTVSPost2010PropOp44
 70
     1
102
RTVSPost2010Prop45
280
     0
102
RTVSPost2010PropOp45
 70
     1
102
RTVSPost2010Prop46
 90
       50
102
RTVSPost2010PropOp46
 70
     1
102
RTVSPost2010Prop47
 90
       50
102
RTVSPost2010PropOp47
 70
     1
102
RTVSPost2010Prop48
 90
       50
102
RTVSPost2010PropOp48
 70
     1
102
RTVSPost2010Prop49
280
     0
102
RTVSPost2010PropOp49
 70
     1
102
RTVSPost2010Prop50
 90
       50
102
RTVSPost2010PropOp50
 70
     1
102
RTVSPost2010Prop51ColorIndex
 90
      256
102
RTVSPost2010Prop51ColorRGB
 90
-16777216
102
RTVSPost2010PropOp51
 70
     0
102
RTVSPost2010Prop52
140
1.0
102
RTVSPost2010PropOp52
 70
     0
102
RTVSPost2010Prop53
 90
        2
102
RTVSPost2010PropOp53
 70
     1
102
RTVSPost2010Prop54
  1
strokes_ogs.tif
102
RTVSPost2010PropOp54
 70
     1
102
RTVSPost2010Prop55
280
     0
102
RTVSPost2010PropOp55
 70
     1
102
RTVSPost2010Prop56
140
1.0
102
RTVSPost2010PropOp56
 70
     1
102
RTVSPost2010Prop57
140
1.0
102
RTVSPost2010PropOp57
 70
     1
102
RTVSPropertyOp0
 70
     1
102
RTVSPropertyOp1
 70
     1
102
RTVSPropertyOp2
 70
     1
102
RTVSPropertyOp3
 70
     1
102
RTVSPropertyOp4
 70
     1
102
RTVSPropertyOp5
 70
     1
102
RTVSPropertyOp6
 70
     1
102
RTVSPropertyOp7
 70
     1
102
RTVSPropertyOp8
 70
     1
102
RTVSPropertyOp9
 70
     1
102
RTVSPropertyOp10
 70
     1
102
RTVSPropertyOp11
 70
     1
102
RTVSPropertyOp12
 70
     1
102
RTVSPropertyOp13
 70
     1
102
RTVSPropertyOp14
 70
     1
102
RTVSPropertyOp15
 70
     1
102
RTVSPropertyOp16
 70
     1
102
RTVSPropertyOp17
 70
     1
102
RTVSPropertyOp18
 70
     1
102
RTVSPropertyOp19
 70
     1
102
RTVSPropertyOp20
 70
     1
102
RTVSPropertyOp21
 70
     1
102
RTVSPropertyOp22
 70
     1
102
RTVSPropertyOp23
 70
     1
102
RTVSPropertyOp24
 70
     1
102
RTVSPropertyOp25
 70
     1
102
RTVSPropertyOp26
 70
     1
102
RTVSPropertyOp27
 70
     1
102
RTVSPropertyOp28
 70
     1
102
RTVSPropertyOp29
 70
     1
102
RTVSPropertyOp30
 70
     1
102
RTVSPropertyOp31
 70
     1
102
RTVSPropertyOp32
 70
     1
102
RTVSPropertyOp33
 70
     1
102
RTVSPropertyOp34
 70
     1
102
RTVSPropertyOp35
 70
     1
102
RTVSPropertyOp36
 70
     1
102
RTVSPropertyOp37
 70
     1
102
RTVSPropertyOp38
 70
     1
102
RTVSPropertyOp39
 70
     1
102
RTVSPropertyOp40
 70
     1
102
RTVSPropertyOp41
 70
     1
102
RTVSPropertyOp42
 70
     1
102
RTVSPropertyOp43
 70
     1
102
RTVSPropertyOp44
 70
     1
102
RTVSPropertyOp45
 70
     1
102
RTVSPropertyOp46
 70
     1
102
RTVSPropertyOp47
 70
     1
102
RTVSPropertyOp48
 70
     1
102
RTVSPropertyOp49
 70
     1
102
RTVSPropertyOp50
 70
     1
102
RTVSPropertyOp51
 70
     0
102
RTVSPropertyOp52
 70
     0
102
RTVSPropertyOp53
 70
     1
102
RTVSPropertyOp54
 70
     1
102
RTVSPropertyOp55
 70
     1
102
RTVSPropertyOp56
 70
     1
102
RTVSPropertyOp57
 70
     1
102
RTVSPropertyOp58
 70
     1
102
RTVSPropertyOp59
 70
     1
102
RTVSPropertyOp60
 70
     1
102
RTVSPropertyOp61
 70
     1
102
RTVSPropertyOp62
 70
     1
  0
XRECORD
  5
392
102
{ACAD_REACTORS
330
391
102
}
330
391
100
AcDbXrecord
280
     1
102
RTVSPost2010Prop28
280
     0
102
RTVSPost2010PropOp28
 70
     1
102
RTVSPost2010Prop29
280
     1
102
RTVSPost2010PropOp29
 70
     1
102
RTVSPost2010Prop30
280
     1
102
RTVSPost2010PropOp30
 70
     1
102
RTVSPost2010Prop31
280
     0
102
RTVSPost2010PropOp31
 70
     1
102
RTVSPost2010Prop32
280
     0
102
RTVSPost2010PropOp32
 70
     1
102
RTVSPost2010Prop33
280
     0
102
RTVSPost2010PropOp33
 70
     1
102
RTVSPost2010Prop34
280
     0
102
RTVSPost2010PropOp34
 70
     1
102
RTVSPost2010Prop35
280
     0
102
RTVSPost2010PropOp35
 70
     1
102
RTVSPost2010Prop36
280
     0
102
RTVSPost2010PropOp36
 70
     1
102
RTVSPost2010Prop37
 90
       50
102
RTVSPost2010PropOp37
 70
     1
102
RTVSPost2010Prop38
140
0.0
102
RTVSPost2010PropOp38
 70
     1
102
RTVSPost2010Prop39
140
1.0
102
RTVSPost2010PropOp39
 70
     1
102
RTVSPost2010Prop40
 90
        0
102
RTVSPost2010PropOp40
 70
     1
102
RTVSPost2010Prop41ColorIndex
 90
       18
102
RTVSPost2010Prop41ColorRGB
 90
        0
102
RTVSPost2010PropOp41
 70
     1
102
RTVSPost2010Prop42
 90
       50
102
RTVSPost2010PropOp42
 70
     1
102
RTVSPost2010Prop43
 90
        3
102
RTVSPost2010PropOp43
 70
     1
102
RTVSPost2010Prop44ColorIndex
 90
        5
102
RTVSPost2010Prop44ColorRGB
 90
      255
102
RTVSPost2010PropOp44
 70
     1
102
RTVSPost2010Prop45
280
     0
102
RTVSPost2010PropOp45
 70
     1
102
RTVSPost2010Prop46
 90
       50
102
RTVSPost2010PropOp46
 70
     1
102
RTVSPost2010Prop47
 90
       50
102
RTVSPost2010PropOp47
 70
     1
102
RTVSPost2010Prop48
 90
       50
102
RTVSPost2010PropOp48
 70
     1
102
RTVSPost2010Prop49
280
     0
102
RTVSPost2010PropOp49
 70
     1
102
RTVSPost2010Prop50
 90
       50
102
RTVSPost2010PropOp50
 70
     1
102
RTVSPost2010Prop51ColorIndex
 90
      256
102
RTVSPost2010Prop51ColorRGB
 90
-16777216
102
RTVSPost2010PropOp51
 70
     0
102
RTVSPost2010Prop52
140
1.0
102
RTVSPost2010PropOp52
 70
     0
102
RTVSPost2010Prop53
 90
        2
102
RTVSPost2010PropOp53
 70
     1
102
RTVSPost2010Prop54
  1
strokes_ogs.tif
102
RTVSPost2010PropOp54
 70
     1
102
RTVSPost2010Prop55
280
     0
102
RTVSPost2010PropOp55
 70
     1
102
RTVSPost2010Prop56
140
1.0
102
RTVSPost2010PropOp56
 70
     1
102
RTVSPost2010Prop57
140
1.0
102
RTVSPost2010PropOp57
 70
     1
102
RTVSPropertyOp0
 70
     1
102
RTVSPropertyOp1
 70
     1
102
RTVSPropertyOp2
 70
     1
102
RTVSPropertyOp3
 70
     1
102
RTVSPropertyOp4
 70
     1
102
RTVSPropertyOp5
 70
     1
102
RTVSPropertyOp6
 70
     1
102
RTVSPropertyOp7
 70
     1
102
RTVSPropertyOp8
 70
     1
102
RTVSPropertyOp9
 70
     1
102
RTVSPropertyOp10
 70
     1
102
RTVSPropertyOp11
 70
     1
102
RTVSPropertyOp12
 70
     1
102
RTVSPropertyOp13
 70
     1
102
RTVSPropertyOp14
 70
     1
102
RTVSPropertyOp15
 70
     1
102
RTVSPropertyOp16
 70
     1
102
RTVSPropertyOp17
 70
     1
102
RTVSPropertyOp18
 70
     1
102
RTVSPropertyOp19
 70
     1
102
RTVSPropertyOp20
 70
     1
102
RTVSPropertyOp21
 70
     1
102
RTVSPropertyOp22
 70
     1
102
RTVSPropertyOp23
 70
     1
102
RTVSPropertyOp24
 70
     1
102
RTVSPropertyOp25
 70
     1
102
RTVSPropertyOp26
 70
     1
102
RTVSPropertyOp27
 70
     1
102
RTVSPropertyOp28
 70
     1
102
RTVSPropertyOp29
 70
     1
102
RTVSPropertyOp30
 70
     1
102
RTVSPropertyOp31
 70
     1
102
RTVSPropertyOp32
 70
     1
102
RTVSPropertyOp33
 70
     1
102
RTVSPropertyOp34
 70
     1
102
RTVSPropertyOp35
 70
     1
102
RTVSPropertyOp36
 70
     1
102
RTVSPropertyOp37
 70
     1
102
RTVSPropertyOp38
 70
     1
102
RTVSPropertyOp39
 70
     1
102
RTVSPropertyOp40
 70
     1
102
RTVSPropertyOp41
 70
     1
102
RTVSPropertyOp42
 70
     1
102
RTVSPropertyOp43
 70
     1
102
RTVSPropertyOp44
 70
     1
102
RTVSPropertyOp45
 70
     1
102
RTVSPropertyOp46
 70
     1
102
RTVSPropertyOp47
 70
     1
102
RTVSPropertyOp48
 70
     1
102
RTVSPropertyOp49
 70
     1
102
RTVSPropertyOp50
 70
     1
102
RTVSPropertyOp51
 70
     0
102
RTVSPropertyOp52
 70
     0
102
RTVSPropertyOp53
 70
     1
102
RTVSPropertyOp54
 70
     1
102
RTVSPropertyOp55
 70
     1
102
RTVSPropertyOp56
 70
     1
102
RTVSPropertyOp57
 70
     1
102
RTVSPropertyOp58
 70
     1
102
RTVSPropertyOp59
 70
     1
102
RTVSPropertyOp60
 70
     1
102
RTVSPropertyOp61
 70
     1
102
RTVSPropertyOp62
 70
     1
  0
XRECORD
  5
384
102
{ACAD_REACTORS
330
383
102
}
330
383
100
AcDbXrecord
280
     1
102
RTVSPost2010Prop28
280
     0
102
RTVSPost2010PropOp28
 70
     1
102
RTVSPost2010Prop29
280
     1
102
RTVSPost2010PropOp29
 70
     1
102
RTVSPost2010Prop30
280
     1
102
RTVSPost2010PropOp30
 70
     1
102
RTVSPost2010Prop31
280
     0
102
RTVSPost2010PropOp31
 70
     1
102
RTVSPost2010Prop32
280
     0
102
RTVSPost2010PropOp32
 70
     1
102
RTVSPost2010Prop33
280
     0
102
RTVSPost2010PropOp33
 70
     1
102
RTVSPost2010Prop34
280
     0
102
RTVSPost2010PropOp34
 70
     1
102
RTVSPost2010Prop35
280
     0
102
RTVSPost2010PropOp35
 70
     1
102
RTVSPost2010Prop36
280
     0
102
RTVSPost2010PropOp36
 70
     1
102
RTVSPost2010Prop37
 90
       50
102
RTVSPost2010PropOp37
 70
     1
102
RTVSPost2010Prop38
140
0.0
102
RTVSPost2010PropOp38
 70
     1
102
RTVSPost2010Prop39
140
1.0
102
RTVSPost2010PropOp39
 70
     1
102
RTVSPost2010Prop40
 90
        0
102
RTVSPost2010PropOp40
 70
     1
102
RTVSPost2010Prop41ColorIndex
 90
       18
102
RTVSPost2010Prop41ColorRGB
 90
        0
102
RTVSPost2010PropOp41
 70
     1
102
RTVSPost2010Prop42
 90
       50
102
RTVSPost2010PropOp42
 70
     1
102
RTVSPost2010Prop43
 90
        3
102
RTVSPost2010PropOp43
 70
     1
102
RTVSPost2010Prop44ColorIndex
 90
        5
102
RTVSPost2010Prop44ColorRGB
 90
      255
102
RTVSPost2010PropOp44
 70
     1
102
RTVSPost2010Prop45
280
     0
102
RTVSPost2010PropOp45
 70
     1
102
RTVSPost2010Prop46
 90
       50
102
RTVSPost2010PropOp46
 70
     1
102
RTVSPost2010Prop47
 90
       50
102
RTVSPost2010PropOp47
 70
     1
102
RTVSPost2010Prop48
 90
       50
102
RTVSPost2010PropOp48
 70
     1
102
RTVSPost2010Prop49
280
     0
102
RTVSPost2010PropOp49
 70
     1
102
RTVSPost2010Prop50
 90
       50
102
RTVSPost2010PropOp50
 70
     1
102
RTVSPost2010Prop51ColorIndex
 90
      256
102
RTVSPost2010Prop51ColorRGB
 90
-16777216
102
RTVSPost2010PropOp51
 70
     0
102
RTVSPost2010Prop52
140
1.0
102
RTVSPost2010PropOp52
 70
     0
102
RTVSPost2010Prop53
 90
        2
102
RTVSPost2010PropOp53
 70
     1
102
RTVSPost2010Prop54
  1
strokes_ogs.tif
102
RTVSPost2010PropOp54
 70
     1
102
RTVSPost2010Prop55
280
     0
102
RTVSPost2010PropOp55
 70
     1
102
RTVSPost2010Prop56
140
1.0
102
RTVSPost2010PropOp56
 70
     1
102
RTVSPost2010Prop57
140
1.0
102
RTVSPost2010PropOp57
 70
     1
102
RTVSPropertyOp0
 70
     1
102
RTVSPropertyOp1
 70
     1
102
RTVSPropertyOp2
 70
     1
102
RTVSPropertyOp3
 70
     1
102
RTVSPropertyOp4
 70
     1
102
RTVSPropertyOp5
 70
     1
102
RTVSPropertyOp6
 70
     1
102
RTVSPropertyOp7
 70
     1
102
RTVSPropertyOp8
 70
     1
102
RTVSPropertyOp9
 70
     1
102
RTVSPropertyOp10
 70
     1
102
RTVSPropertyOp11
 70
     1
102
RTVSPropertyOp12
 70
     1
102
RTVSPropertyOp13
 70
     1
102
RTVSPropertyOp14
 70
     1
102
RTVSPropertyOp15
 70
     1
102
RTVSPropertyOp16
 70
     1
102
RTVSPropertyOp17
 70
     1
102
RTVSPropertyOp18
 70
     1
102
RTVSPropertyOp19
 70
     1
102
RTVSPropertyOp20
 70
     1
102
RTVSPropertyOp21
 70
     1
102
RTVSPropertyOp22
 70
     1
102
RTVSPropertyOp23
 70
     1
102
RTVSPropertyOp24
 70
     1
102
RTVSPropertyOp25
 70
     1
102
RTVSPropertyOp26
 70
     1
102
RTVSPropertyOp27
 70
     1
102
RTVSPropertyOp28
 70
     1
102
RTVSPropertyOp29
 70
     1
102
RTVSPropertyOp30
 70
     1
102
RTVSPropertyOp31
 70
     1
102
RTVSPropertyOp32
 70
     1
102
RTVSPropertyOp33
 70
     1
102
RTVSPropertyOp34
 70
     1
102
RTVSPropertyOp35
 70
     1
102
RTVSPropertyOp36
 70
     1
102
RTVSPropertyOp37
 70
     1
102
RTVSPropertyOp38
 70
     1
102
RTVSPropertyOp39
 70
     1
102
RTVSPropertyOp40
 70
     1
102
RTVSPropertyOp41
 70
     1
102
RTVSPropertyOp42
 70
     1
102
RTVSPropertyOp43
 70
     1
102
RTVSPropertyOp44
 70
     1
102
RTVSPropertyOp45
 70
     1
102
RTVSPropertyOp46
 70
     1
102
RTVSPropertyOp47
 70
     1
102
RTVSPropertyOp48
 70
     1
102
RTVSPropertyOp49
 70
     1
102
RTVSPropertyOp50
 70
     1
102
RTVSPropertyOp51
 70
     0
102
RTVSPropertyOp52
 70
     0
102
RTVSPropertyOp53
 70
     1
102
RTVSPropertyOp54
 70
     1
102
RTVSPropertyOp55
 70
     1
102
RTVSPropertyOp56
 70
     1
102
RTVSPropertyOp57
 70
     1
102
RTVSPropertyOp58
 70
     1
102
RTVSPropertyOp59
 70
     1
102
RTVSPropertyOp60
 70
     1
102
RTVSPropertyOp61
 70
     1
102
RTVSPropertyOp62
 70
     1
  0
XRECORD
  5
3A4
102
{ACAD_REACTORS
330
3A3
102
}
330
3A3
100
AcDbXrecord
280
     1
102
RTVSPost2010Prop28
280
     0
102
RTVSPost2010PropOp28
 70
     1
102
RTVSPost2010Prop29
280
     1
102
RTVSPost2010PropOp29
 70
     1
102
RTVSPost2010Prop30
280
     1
102
RTVSPost2010PropOp30
 70
     1
102
RTVSPost2010Prop31
280
     0
102
RTVSPost2010PropOp31
 70
     1
102
RTVSPost2010Prop32
280
     0
102
RTVSPost2010PropOp32
 70
     1
102
RTVSPost2010Prop33
280
     0
102
RTVSPost2010PropOp33
 70
     1
102
RTVSPost2010Prop34
280
     0
102
RTVSPost2010PropOp34
 70
     1
102
RTVSPost2010Prop35
280
     0
102
RTVSPost2010PropOp35
 70
     1
102
RTVSPost2010Prop36
280
     0
102
RTVSPost2010PropOp36
 70
     1
102
RTVSPost2010Prop37
 90
       50
102
RTVSPost2010PropOp37
 70
     1
102
RTVSPost2010Prop38
140
0.0
102
RTVSPost2010PropOp38
 70
     1
102
RTVSPost2010Prop39
140
1.0
102
RTVSPost2010PropOp39
 70
     1
102
RTVSPost2010Prop40
 90
        0
102
RTVSPost2010PropOp40
 70
     1
102
RTVSPost2010Prop41ColorIndex
 90
       18
102
RTVSPost2010Prop41ColorRGB
 90
        0
102
RTVSPost2010PropOp41
 70
     1
102
RTVSPost2010Prop42
 90
       50
102
RTVSPost2010PropOp42
 70
     1
102
RTVSPost2010Prop43
 90
        3
102
RTVSPost2010PropOp43
 70
     1
102
RTVSPost2010Prop44ColorIndex
 90
        5
102
RTVSPost2010Prop44ColorRGB
 90
      255
102
RTVSPost2010PropOp44
 70
     1
102
RTVSPost2010Prop45
280
     0
102
RTVSPost2010PropOp45
 70
     1
102
RTVSPost2010Prop46
 90
       50
102
RTVSPost2010PropOp46
 70
     1
102
RTVSPost2010Prop47
 90
       50
102
RTVSPost2010PropOp47
 70
     1
102
RTVSPost2010Prop48
 90
       50
102
RTVSPost2010PropOp48
 70
     1
102
RTVSPost2010Prop49
280
     0
102
RTVSPost2010PropOp49
 70
     1
102
RTVSPost2010Prop50
 90
       50
102
RTVSPost2010PropOp50
 70
     1
102
RTVSPost2010Prop51ColorIndex
 90
      256
102
RTVSPost2010Prop51ColorRGB
 90
-16777216
102
RTVSPost2010PropOp51
 70
     0
102
RTVSPost2010Prop52
140
1.0
102
RTVSPost2010PropOp52
 70
     0
102
RTVSPost2010Prop53
 90
        2
102
RTVSPost2010PropOp53
 70
     1
102
RTVSPost2010Prop54
  1
strokes_ogs.tif
102
RTVSPost2010PropOp54
 70
     1
102
RTVSPost2010Prop55
280
     0
102
RTVSPost2010PropOp55
 70
     1
102
RTVSPost2010Prop56
140
1.0
102
RTVSPost2010PropOp56
 70
     1
102
RTVSPost2010Prop57
140
1.0
102
RTVSPost2010PropOp57
 70
     1
102
RTVSPropertyOp0
 70
     1
102
RTVSPropertyOp1
 70
     1
102
RTVSPropertyOp2
 70
     1
102
RTVSPropertyOp3
 70
     1
102
RTVSPropertyOp4
 70
     1
102
RTVSPropertyOp5
 70
     1
102
RTVSPropertyOp6
 70
     1
102
RTVSPropertyOp7
 70
     1
102
RTVSPropertyOp8
 70
     1
102
RTVSPropertyOp9
 70
     1
102
RTVSPropertyOp10
 70
     1
102
RTVSPropertyOp11
 70
     1
102
RTVSPropertyOp12
 70
     1
102
RTVSPropertyOp13
 70
     1
102
RTVSPropertyOp14
 70
     1
102
RTVSPropertyOp15
 70
     1
102
RTVSPropertyOp16
 70
     1
102
RTVSPropertyOp17
 70
     1
102
RTVSPropertyOp18
 70
     1
102
RTVSPropertyOp19
 70
     1
102
RTVSPropertyOp20
 70
     1
102
RTVSPropertyOp21
 70
     1
102
RTVSPropertyOp22
 70
     1
102
RTVSPropertyOp23
 70
     1
102
RTVSPropertyOp24
 70
     1
102
RTVSPropertyOp25
 70
     1
102
RTVSPropertyOp26
 70
     1
102
RTVSPropertyOp27
 70
     1
102
RTVSPropertyOp28
 70
     1
102
RTVSPropertyOp29
 70
     1
102
RTVSPropertyOp30
 70
     1
102
RTVSPropertyOp31
 70
     1
102
RTVSPropertyOp32
 70
     1
102
RTVSPropertyOp33
 70
     1
102
RTVSPropertyOp34
 70
     1
102
RTVSPropertyOp35
 70
     1
102
RTVSPropertyOp36
 70
     1
102
RTVSPropertyOp37
 70
     1
102
RTVSPropertyOp38
 70
     1
102
RTVSPropertyOp39
 70
     1
102
RTVSPropertyOp40
 70
     1
102
RTVSPropertyOp41
 70
     1
102
RTVSPropertyOp42
 70
     1
102
RTVSPropertyOp43
 70
     1
102
RTVSPropertyOp44
 70
     1
102
RTVSPropertyOp45
 70
     1
102
RTVSPropertyOp46
 70
     1
102
RTVSPropertyOp47
 70
     1
102
RTVSPropertyOp48
 70
     1
102
RTVSPropertyOp49
 70
     1
102
RTVSPropertyOp50
 70
     1
102
RTVSPropertyOp51
 70
     0
102
RTVSPropertyOp52
 70
     0
102
RTVSPropertyOp53
 70
     1
102
RTVSPropertyOp54
 70
     1
102
RTVSPropertyOp55
 70
     1
102
RTVSPropertyOp56
 70
     1
102
RTVSPropertyOp57
 70
     1
102
RTVSPropertyOp58
 70
     1
102
RTVSPropertyOp59
 70
     1
102
RTVSPropertyOp60
 70
     1
102
RTVSPropertyOp61
 70
     1
102
RTVSPropertyOp62
 70
     1
  0
ENDSEC
  0
EOF
