  0
SECTION
  2
HEADER
  9
$ACADVER
  1
AC1018
  9
$ACADMAINTVER
 70
   104
  9
$DWGCODEPAGE
  3
ANSI_1250
  9
$LASTSAVEDBY
  1
wq7085
  9
$INSBASE
 10
0.0
 20
0.0
 30
0.0
  9
$EXTMIN
 10
170.4845713333333
 20
114.534924
 30
0.0
  9
$EXTMAX
 10
486.57124
 20
351.9336746666668
 30
0.0
  9
$LIMMIN
 10
-0.5
 20
-0.5
  9
$LIMMAX
 10
5.0
 20
5.0
  9
$ORTHOMODE
 70
     1
  9
$REGENMODE
 70
     1
  9
$FILLMODE
 70
     1
  9
$QTEXTMODE
 70
     0
  9
$MIRRTEXT
 70
     1
  9
$LTSCALE
 40
1.0
  9
$ATTMODE
 70
     1
  9
$TEXTSIZE
 40
0.2
  9
$TRACEWID
 40
0.05
  9
$TEXTSTYLE
  7
Standard
  9
$CLAYER
  8
0
  9
$CELTYPE
  6
ByLayer
  9
$CECOLOR
 62
   256
  9
$CELTSCALE
 40
1.0
  9
$DISPSILH
 70
     0
  9
$DIMSCALE
 40
1.0
  9
$DIMASZ
 40
0.18
  9
$DIMEXO
 40
0.0625
  9
$DIMDLI
 40
0.38
  9
$DIMRND
 40
0.0
  9
$DIMDLE
 40
0.0
  9
$DIMEXE
 40
0.18
  9
$DIMTP
 40
0.0
  9
$DIMTM
 40
0.0
  9
$DIMTXT
 40
0.18
  9
$DIMCEN
 40
0.09
  9
$DIMTSZ
 40
0.0
  9
$DIMTOL
 70
     0
  9
$DIMLIM
 70
     0
  9
$DIMTIH
 70
     1
  9
$DIMTOH
 70
     1
  9
$DIMSE1
 70
     0
  9
$DIMSE2
 70
     0
  9
$DIMTAD
 70
     0
  9
$DIMZIN
 70
     0
  9
$DIMBLK
  1

  9
$DIMASO
 70
     1
  9
$DIMSHO
 70
     1
  9
$DIMPOST
  1

  9
$DIMAPOST
  1

  9
$DIMALT
 70
     0
  9
$DIMALTD
 70
     2
  9
$DIMALTF
 40
25.4
  9
$DIMLFAC
 40
1.0
  9
$DIMTOFL
 70
     0
  9
$DIMTVP
 40
0.0
  9
$DIMTIX
 70
     0
  9
$DIMSOXD
 70
     0
  9
$DIMSAH
 70
     0
  9
$DIMBLK1
  1

  9
$DIMBLK2
  1

  9
$DIMSTYLE
  2
Standard
  9
$DIMCLRD
 70
     0
  9
$DIMCLRE
 70
     0
  9
$DIMCLRT
 70
     0
  9
$DIMTFAC
 40
1.0
  9
$DIMGAP
 40
0.09
  9
$DIMJUST
 70
     0
  9
$DIMSD1
 70
     0
  9
$DIMSD2
 70
     0
  9
$DIMTOLJ
 70
     1
  9
$DIMTZIN
 70
     0
  9
$DIMALTZ
 70
     0
  9
$DIMALTTZ
 70
     0
  9
$DIMUPT
 70
     0
  9
$DIMDEC
 70
     4
  9
$DIMTDEC
 70
     4
  9
$DIMALTU
 70
     2
  9
$DIMALTTD
 70
     2
  9
$DIMTXSTY
  7
Standard
  9
$DIMAUNIT
 70
     0
  9
$DIMADEC
 70
     0
  9
$DIMALTRND
 40
0.0
  9
$DIMAZIN
 70
     0
  9
$DIMDSEP
 70
    46
  9
$DIMATFIT
 70
     3
  9
$DIMFRAC
 70
     0
  9
$DIMLDRBLK
  1

  9
$DIMLUNIT
 70
     2
  9
$DIMLWD
 70
    -2
  9
$DIMLWE
 70
    -2
  9
$DIMTMOVE
 70
     0
  9
$LUNITS
 70
     2
  9
$LUPREC
 70
     4
  9
$SKETCHINC
 40
0.1
  9
$FILLETRAD
 40
0.5
  9
$AUNITS
 70
     0
  9
$AUPREC
 70
     0
  9
$MENU
  1
.
  9
$ELEVATION
 40
0.0
  9
$PELEVATION
 40
0.0
  9
$THICKNESS
 40
0.0
  9
$LIMCHECK
 70
     0
  9
$CHAMFERA
 40
0.0
  9
$CHAMFERB
 40
0.0
  9
$CHAMFERC
 40
0.0
  9
$CHAMFERD
 40
0.0
  9
$SKPOLY
 70
     0
  9
$TDCREATE
 40
2459089.536319444
  9
$TDUCREATE
 40
2459089.452996204
  9
$TDUPDATE
 40
2459089.537673611
  9
$TDUUPDATE
 40
2459089.454340278
  9
$TDINDWG
 40
0.0008217708
  9
$TDUSRTIMER
 40
0.0008217708
  9
$USRTIMER
 70
     1
  9
$ANGBASE
 50
0.0
  9
$ANGDIR
 70
     0
  9
$PDMODE
 70
     0
  9
$PDSIZE
 40
0.0
  9
$PLINEWID
 40
0.0
  9
$SPLFRAME
 70
     0
  9
$SPLINETYPE
 70
     6
  9
$SPLINESEGS
 70
     8
  9
$HANDSEED
  5
3FA
  9
$SURFTAB1
 70
     6
  9
$SURFTAB2
 70
     6
  9
$SURFTYPE
 70
     6
  9
$SURFU
 70
     6
  9
$SURFV
 70
     6
  9
$UCSBASE
  2

  9
$UCSNAME
  2

  9
$UCSORG
 10
274.404842
 20
288.907994
 30
0.0
  9
$UCSXDIR
 10
1.0
 20
0.0
 30
0.0
  9
$UCSYDIR
 10
0.0
 20
1.0
 30
0.0
  9
$UCSORTHOREF
  2

  9
$UCSORTHOVIEW
 70
     0
  9
$UCSORGTOP
 10
0.0
 20
0.0
 30
0.0
  9
$UCSORGBOTTOM
 10
0.0
 20
0.0
 30
0.0
  9
$UCSORGLEFT
 10
0.0
 20
0.0
 30
0.0
  9
$UCSORGRIGHT
 10
0.0
 20
0.0
 30
0.0
  9
$UCSORGFRONT
 10
0.0
 20
0.0
 30
0.0
  9
$UCSORGBACK
 10
0.0
 20
0.0
 30
0.0
  9
$PUCSBASE
  2

  9
$PUCSNAME
  2

  9
$PUCSORG
 10
0.0
 20
0.0
 30
0.0
  9
$PUCSXDIR
 10
1.0
 20
0.0
 30
0.0
  9
$PUCSYDIR
 10
0.0
 20
1.0
 30
0.0
  9
$PUCSORTHOREF
  2

  9
$PUCSORTHOVIEW
 70
     0
  9
$PUCSORGTOP
 10
0.0
 20
0.0
 30
0.0
  9
$PUCSORGBOTTOM
 10
0.0
 20
0.0
 30
0.0
  9
$PUCSORGLEFT
 10
0.0
 20
0.0
 30
0.0
  9
$PUCSORGRIGHT
 10
0.0
 20
0.0
 30
0.0
  9
$PUCSORGFRONT
 10
0.0
 20
0.0
 30
0.0
  9
$PUCSORGBACK
 10
0.0
 20
0.0
 30
0.0
  9
$USERI1
 70
     0
  9
$USERI2
 70
     0
  9
$USERI3
 70
     0
  9
$USERI4
 70
     0
  9
$USERI5
 70
     0
  9
$USERR1
 40
0.0
  9
$USERR2
 40
0.0
  9
$USERR3
 40
0.0
  9
$USERR4
 40
0.0
  9
$USERR5
 40
0.0
  9
$WORLDVIEW
 70
     1
  9
$SHADEDGE
 70
     3
  9
$SHADEDIF
 70
    70
  9
$TILEMODE
 70
     1
  9
$MAXACTVP
 70
    64
  9
$PINSBASE
 10
0.0
 20
0.0
 30
0.0
  9
$PLIMCHECK
 70
     0
  9
$PEXTMIN
 10
-0.5
 20
-0.5
 30
-0.5
  9
$PEXTMAX
 10
5.0
 20
5.0
 30
5.0
  9
$PLIMMIN
 10
-0.5
 20
-0.5
  9
$PLIMMAX
 10
5.0
 20
5.0
  9
$UNITMODE
 70
     0
  9
$VISRETAIN
 70
     1
  9
$PLINEGEN
 70
     0
  9
$PSLTSCALE
 70
     1
  9
$TREEDEPTH
 70
  3020
  9
$CMLSTYLE
  2
Standard
  9
$CMLJUST
 70
     0
  9
$CMLSCALE
 40
1.0
  9
$PROXYGRAPHICS
 70
     1
  9
$MEASUREMENT
 70
     1
  9
$CELWEIGHT
370
    13
  9
$ENDCAPS
280
     0
  9
$JOINSTYLE
280
     0
  9
$LWDISPLAY
290
     0
  9
$INSUNITS
 70
     4
  9
$HYPERLINKBASE
  1

  9
$STYLESHEET
  1

  9
$XEDIT
290
     1
  9
$CEPSNTYPE
380
     0
  9
$PSTYLEMODE
290
     1
  9
$FINGERPRINTGUID
  2
{CFF1222C-D949-4AEC-94CE-060DBE3B2103}
  9
$VERSIONGUID
  2
{AA0496E2-FFAD-7B48-851E-E0414283E016}
  9
$EXTNAMES
290
     1
  9
$PSVPSCALE
 40
0.0
  9
$OLESTARTUP
290
     0
  9
$SORTENTS
280
   127
  9
$INDEXCTL
280
     0
  9
$HIDETEXT
280
     1
  9
$XCLIPFRAME
290
     0
  9
$HALOGAP
280
     0
  9
$OBSCOLOR
 70
   257
  9
$OBSLTYPE
280
     0
  9
$INTERSECTIONDISPLAY
280
     0
  9
$INTERSECTIONCOLOR
 70
   257
  9
$DIMASSOC
280
     2
  9
$PROJECTNAME
  1

  0
ENDSEC
  0
SECTION
  2
CLASSES
  0
CLASS
  1
ACDBDICTIONARYWDFLT
  2
AcDbDictionaryWithDefault
  3
ObjectDBX Classes
 90
        0
 91
        1
280
     0
281
     0
  0
CLASS
  1
VISUALSTYLE
  2
AcDbVisualStyle
  3
ObjectDBX Classes
 90
     4095
 91
       24
280
     0
281
     0
  0
CLASS
  1
MATERIAL
  2
AcDbMaterial
  3
ObjectDBX Classes
 90
     1153
 91
        3
280
     0
281
     0
  0
CLASS
  1
SCALE
  2
AcDbScale
  3
ObjectDBX Classes
 90
     1153
 91
       33
280
     0
281
     0
  0
CLASS
  1
TABLESTYLE
  2
AcDbTableStyle
  3
ObjectDBX Classes
 90
     4095
 91
        1
280
     0
281
     0
  0
CLASS
  1
MLEADERSTYLE
  2
AcDbMLeaderStyle
  3
ACDB_MLEADERSTYLE_CLASS
 90
     4095
 91
        1
280
     0
281
     0
  0
CLASS
  1
SUN
  2
AcDbSun
  3
SCENEOE
 90
     1153
 91
        0
280
     0
281
     0
  0
CLASS
  1
DIMASSOC
  2
AcDbDimAssoc
  3
"AcDbDimAssoc|Product Desc:     AcDim ARX App For Dimension|Company:          Autodesk, Inc.|WEB Address:      www.autodesk.com"
 90
        0
 91
        7
280
     0
281
     0
  0
CLASS
  1
DICTIONARYVAR
  2
AcDbDictionaryVar
  3
ObjectDBX Classes
 90
        0
 91
        8
280
     0
281
     0
  0
CLASS
  1
CELLSTYLEMAP
  2
AcDbCellStyleMap
  3
ObjectDBX Classes
 90
     1152
 91
        3
280
     0
281
     0
  0
CLASS
  1
ACDBSECTIONVIEWSTYLE
  2
AcDbSectionViewStyle
  3
ObjectDBX Classes
 90
     1025
 91
        1
280
     0
281
     0
  0
CLASS
  1
ACDBDETAILVIEWSTYLE
  2
AcDbDetailViewStyle
  3
ObjectDBX Classes
 90
     1025
 91
        1
280
     0
281
     0
  0
CLASS
  1
SORTENTSTABLE
  2
AcDbSortentsTable
  3
ObjectDBX Classes
 90
        0
 91
        1
280
     0
281
     0
  0
ENDSEC
  0
SECTION
  2
TABLES
  0
TABLE
  2
VPORT
  5
8
330
0
100
AcDbSymbolTable
 70
    16
  0
VPORT
  5
29
330
8
100
AcDbSymbolTableRecord
100
AcDbViewportTableRecord
  2
*Active
 70
     0
 10
0.0
 20
0.0
 11
1.0
 21
1.0
 12
308.9804314194256
 22
281.0502728836996
 13
0.0
 23
0.0
 14
0.5
 24
0.5
 15
0.5
 25
0.5
 16
0.0
 26
0.0
 36
1.0
 17
0.0
 27
0.0
 37
0.0
 40
210.353114737237
 41
2.292712066905615
 42
50.0
 43
529.7058019999999
 44
-529.7058019999999
 50
0.0
 51
0.0
 71
     0
 72
   100
 73
     1
 74
     3
 75
     0
 76
     0
 77
     0
 78
     0
281
     0
 65
     1
110
274.404842
120
288.907994
130
0.0
111
1.0
121
0.0
131
0.0
112
0.0
122
1.0
132
0.0
 79
     0
146
0.0
1001
ACAD_NAV_VCDISPLAY
1070
     3
  0
VPORT
  5
2AE
330
8
100
AcDbSymbolTableRecord
100
AcDbViewportTableRecord
  2
L1
 70
     0
 10
0.0
 20
0.0
 11
1.0
 21
1.0
 12
328.023689
 22
233.120458
 13
0.0
 23
0.0
 14
0.5
 24
0.5
 15
0.5
 25
0.5
 16
0.0
 26
0.0
 36
1.0
 17
0.0
 27
0.0
 37
0.0
 40
207.433333
 41
0.085602
 42
50.0
 43
529.7058019999999
 44
-529.7058019999999
 50
0.0
 51
0.0
 71
     0
 72
   100
 73
     1
 74
     3
 75
     0
 76
     0
 77
     0
 78
     0
281
     0
 65
     1
110
0.0
120
0.0
130
0.0
111
1.0
121
0.0
131
0.0
112
0.0
122
1.0
132
0.0
 79
     0
146
0.0
  0
VPORT
  5
2AF
330
8
100
AcDbSymbolTableRecord
100
AcDbViewportTableRecord
  2
L2
 70
     0
 10
0.0
 20
0.0
 11
0.5
 21
1.0
 12
0.0
 22
0.0
 13
0.0
 23
0.0
 14
0.5
 24
0.5
 15
0.5
 25
0.5
 16
0.0
 26
-1.0
 36
0.0
 17
0.0
 27
0.0
 37
0.0
 40
1316.18997
 41
0.013491
 42
50.0
 43
678.00864
 44
-678.00864
 50
0.0
 51
0.0
 71
     0
 72
   100
 73
     1
 74
     3
 75
     0
 76
     0
 77
     0
 78
     0
281
     0
 65
     1
110
0.0
120
0.0
130
0.0
111
1.0
121
0.0
131
0.0
112
0.0
122
1.0
132
0.0
 79
     0
146
0.0
  0
VPORT
  5
2B0
330
8
100
AcDbSymbolTableRecord
100
AcDbViewportTableRecord
  2
L2
 70
     0
 10
0.5
 20
0.0
 11
1.0
 21
1.0
 12
0.0
 22
0.0
 13
0.0
 23
0.0
 14
0.5
 24
0.5
 15
0.5
 25
0.5
 16
1.0
 26
0.0
 36
0.0
 17
0.0
 27
0.0
 37
0.0
 40
1316.18997
 41
0.013491
 42
50.0
 43
666.2177989999999
 44
-666.2177989999999
 50
0.0
 51
0.0
 71
     0
 72
   100
 73
     1
 74
     3
 75
     0
 76
     0
 77
     0
 78
     0
281
     0
 65
     1
110
0.0
120
0.0
130
0.0
111
1.0
121
0.0
131
0.0
112
0.0
122
1.0
132
0.0
 79
     0
146
0.0
  0
VPORT
  5
2B1
330
8
100
AcDbSymbolTableRecord
100
AcDbViewportTableRecord
  2
L3
 70
     0
 10
0.0
 20
0.5
 11
1.0
 21
1.0
 12
328.023689
 22
233.120458
 13
0.0
 23
0.0
 14
0.5
 24
0.5
 15
0.5
 25
0.5
 16
0.0
 26
0.0
 36
1.0
 17
0.0
 27
0.0
 37
0.0
 40
207.433333
 41
0.085602
 42
50.0
 43
529.7058019999999
 44
-529.7058019999999
 50
0.0
 51
0.0
 71
     0
 72
   100
 73
     1
 74
     3
 75
     0
 76
     0
 77
     0
 78
     0
281
     0
 65
     1
110
0.0
120
0.0
130
0.0
111
1.0
121
0.0
131
0.0
112
0.0
122
1.0
132
0.0
 79
     0
146
0.0
  0
VPORT
  5
2B2
330
8
100
AcDbSymbolTableRecord
100
AcDbViewportTableRecord
  2
L3
 70
     0
 10
0.0
 20
0.0
 11
1.0
 21
0.5
 12
0.0
 22
0.0
 13
0.0
 23
0.0
 14
0.5
 24
0.5
 15
0.5
 25
0.5
 16
0.0
 26
-1.0
 36
0.0
 17
0.0
 27
0.0
 37
0.0
 40
1316.18997
 41
0.013491
 42
50.0
 43
678.00864
 44
-678.00864
 50
0.0
 51
0.0
 71
     0
 72
   100
 73
     1
 74
     3
 75
     0
 76
     0
 77
     0
 78
     0
281
     0
 65
     1
110
0.0
120
0.0
130
0.0
111
1.0
121
0.0
131
0.0
112
0.0
122
1.0
132
0.0
 79
     0
146
0.0
  0
VPORT
  5
2B3
330
8
100
AcDbSymbolTableRecord
100
AcDbViewportTableRecord
  2
L4
 70
     0
 10
0.0
 20
0.5
 11
0.5
 21
1.0
 12
328.023689
 22
233.120458
 13
0.0
 23
0.0
 14
0.5
 24
0.5
 15
0.5
 25
0.5
 16
0.0
 26
0.0
 36
1.0
 17
0.0
 27
0.0
 37
0.0
 40
207.433333
 41
0.085602
 42
50.0
 43
529.7058019999999
 44
-529.7058019999999
 50
0.0
 51
0.0
 71
     0
 72
   100
 73
     1
 74
     3
 75
     0
 76
     0
 77
     0
 78
     0
281
     0
 65
     1
110
0.0
120
0.0
130
0.0
111
1.0
121
0.0
131
0.0
112
0.0
122
1.0
132
0.0
 79
     0
146
0.0
  0
VPORT
  5
2B4
330
8
100
AcDbSymbolTableRecord
100
AcDbViewportTableRecord
  2
L4
 70
     0
 10
0.0
 20
0.0
 11
0.5
 21
0.5
 12
0.0
 22
0.0
 13
0.0
 23
0.0
 14
0.5
 24
0.5
 15
0.5
 25
0.5
 16
0.0
 26
-1.0
 36
0.0
 17
0.0
 27
0.0
 37
0.0
 40
1316.18997
 41
0.013491
 42
50.0
 43
678.00864
 44
-678.00864
 50
0.0
 51
0.0
 71
     0
 72
   100
 73
     1
 74
     3
 75
     0
 76
     0
 77
     0
 78
     0
281
     0
 65
     1
110
0.0
120
0.0
130
0.0
111
1.0
121
0.0
131
0.0
112
0.0
122
1.0
132
0.0
 79
     0
146
0.0
  0
VPORT
  5
2B5
330
8
100
AcDbSymbolTableRecord
100
AcDbViewportTableRecord
  2
L4
 70
     0
 10
0.5
 20
0.0
 11
1.0
 21
0.5
 12
0.0
 22
0.0
 13
0.0
 23
0.0
 14
0.5
 24
0.5
 15
0.5
 25
0.5
 16
1.0
 26
0.0
 36
0.0
 17
0.0
 27
0.0
 37
0.0
 40
1316.18997
 41
0.013491
 42
50.0
 43
666.2177989999999
 44
-666.2177989999999
 50
0.0
 51
0.0
 71
     0
 72
   100
 73
     1
 74
     3
 75
     0
 76
     0
 77
     0
 78
     0
281
     0
 65
     1
110
0.0
120
0.0
130
0.0
111
1.0
121
0.0
131
0.0
112
0.0
122
1.0
132
0.0
 79
     0
146
0.0
  0
VPORT
  5
2B6
330
8
100
AcDbSymbolTableRecord
100
AcDbViewportTableRecord
  2
L4
 70
     0
 10
0.5
 20
0.5
 11
1.0
 21
1.0
 12
0.0
 22
0.0
 13
0.0
 23
0.0
 14
0.5
 24
0.5
 15
0.5
 25
0.5
 16
0.5773502691896259
 26
-0.5773502691896259
 36
0.5773502691896259
 17
0.0
 27
0.0
 37
0.0
 40
1292.532264
 41
0.013738
 42
50.0
 43
673.245608
 44
-673.245608
 50
0.0
 51
0.0
 71
     0
 72
   100
 73
     1
 74
     3
 75
     0
 76
     0
 77
     0
 78
     0
281
     0
 65
     1
110
0.0
120
0.0
130
0.0
111
1.0
121
0.0
131
0.0
112
0.0
122
1.0
132
0.0
 79
     0
146
0.0
  0
VPORT
  5
2B7
330
8
100
AcDbSymbolTableRecord
100
AcDbViewportTableRecord
  2
L6
 70
     0
 10
0.0
 20
0.5
 11
0.333333
 21
1.0
 12
0.0
 22
0.0
 13
0.0
 23
0.0
 14
0.5
 24
0.5
 15
0.5
 25
0.5
 16
0.7188730927569434
 26
-0.5850486126764433
 36
0.3754192287502549
 17
0.0
 27
0.0
 37
0.0
 40
1364.064247
 41
0.013018
 42
50.0
 43
706.2613849999999
 44
-706.2613849999999
 50
0.0
 51
0.0
 71
     0
 72
   100
 73
     1
 74
     3
 75
     0
 76
     0
 77
     0
 78
     0
281
     0
 65
     1
110
0.0
120
0.0
130
0.0
111
1.0
121
0.0
131
0.0
112
0.0
122
1.0
132
0.0
 79
     0
146
0.0
  0
VPORT
  5
2B8
330
8
100
AcDbSymbolTableRecord
100
AcDbViewportTableRecord
  2
L6
 70
     0
 10
0.0
 20
0.0
 11
0.333333
 21
0.5
 12
0.0
 22
0.0
 13
0.0
 23
0.0
 14
0.5
 24
0.5
 15
0.5
 25
0.5
 16
-1.0
 26
0.0
 36
0.0
 17
0.0
 27
0.0
 37
0.0
 40
1316.18997
 41
0.013491
 42
50.0
 43
666.2177989999999
 44
-666.2177989999999
 50
0.0
 51
0.0
 71
     0
 72
   100
 73
     1
 74
     3
 75
     0
 76
     0
 77
     0
 78
     0
281
     0
 65
     1
110
0.0
120
0.0
130
0.0
111
1.0
121
0.0
131
0.0
112
0.0
122
1.0
132
0.0
 79
     0
146
0.0
  0
VPORT
  5
2B9
330
8
100
AcDbSymbolTableRecord
100
AcDbViewportTableRecord
  2
L6
 70
     0
 10
0.333333
 20
0.5
 11
0.666667
 21
1.0
 12
328.023689
 22
233.120458
 13
0.0
 23
0.0
 14
0.5
 24
0.5
 15
0.5
 25
0.5
 16
0.0
 26
0.0
 36
1.0
 17
0.0
 27
0.0
 37
0.0
 40
207.433333
 41
0.085602
 42
50.0
 43
529.7058019999999
 44
-529.7058019999999
 50
0.0
 51
0.0
 71
     0
 72
   100
 73
     1
 74
     3
 75
     0
 76
     0
 77
     0
 78
     0
281
     0
 65
     1
110
0.0
120
0.0
130
0.0
111
1.0
121
0.0
131
0.0
112
0.0
122
1.0
132
0.0
 79
     0
146
0.0
  0
VPORT
  5
2BA
330
8
100
AcDbSymbolTableRecord
100
AcDbViewportTableRecord
  2
L6
 70
     0
 10
0.333333
 20
0.0
 11
0.666667
 21
0.5
 12
0.0
 22
0.0
 13
0.0
 23
0.0
 14
0.5
 24
0.5
 15
0.5
 25
0.5
 16
0.0
 26
-1.0
 36
0.0
 17
0.0
 27
0.0
 37
0.0
 40
1316.18997
 41
0.013491
 42
50.0
 43
678.00864
 44
-678.00864
 50
0.0
 51
0.0
 71
     0
 72
   100
 73
     1
 74
     3
 75
     0
 76
     0
 77
     0
 78
     0
281
     0
 65
     1
110
0.0
120
0.0
130
0.0
111
1.0
121
0.0
131
0.0
112
0.0
122
1.0
132
0.0
 79
     0
146
0.0
  0
VPORT
  5
2BB
330
8
100
AcDbSymbolTableRecord
100
AcDbViewportTableRecord
  2
L6
 70
     0
 10
0.666667
 20
0.5
 11
1.0
 21
1.0
 12
0.0
 22
0.0
 13
0.0
 23
0.0
 14
0.5
 24
0.5
 15
0.5
 25
0.5
 16
0.5773502691896259
 26
-0.5773502691896259
 36
0.5773502691896259
 17
0.0
 27
0.0
 37
0.0
 40
1292.532264
 41
0.013738
 42
50.0
 43
673.245608
 44
-673.245608
 50
0.0
 51
0.0
 71
     0
 72
   100
 73
     1
 74
     3
 75
     0
 76
     0
 77
     0
 78
     0
281
     0
 65
     1
110
0.0
120
0.0
130
0.0
111
1.0
121
0.0
131
0.0
112
0.0
122
1.0
132
0.0
 79
     0
146
0.0
  0
VPORT
  5
2BC
330
8
100
AcDbSymbolTableRecord
100
AcDbViewportTableRecord
  2
L6
 70
     0
 10
0.666667
 20
0.0
 11
1.0
 21
0.5
 12
0.0
 22
0.0
 13
0.0
 23
0.0
 14
0.5
 24
0.5
 15
0.5
 25
0.5
 16
1.0
 26
0.0
 36
0.0
 17
0.0
 27
0.0
 37
0.0
 40
1316.18997
 41
0.013491
 42
50.0
 43
666.2177989999999
 44
-666.2177989999999
 50
0.0
 51
0.0
 71
     0
 72
   100
 73
     1
 74
     3
 75
     0
 76
     0
 77
     0
 78
     0
281
     0
 65
     1
110
0.0
120
0.0
130
0.0
111
1.0
121
0.0
131
0.0
112
0.0
122
1.0
132
0.0
 79
     0
146
0.0
  0
ENDTAB
  0
TABLE
  2
LTYPE
  5
5
330
0
100
AcDbSymbolTable
 70
     8
  0
LTYPE
  5
14
330
5
100
AcDbSymbolTableRecord
100
AcDbLinetypeTableRecord
  2
ByBlock
 70
     0
  3

 72
    65
 73
     0
 40
0.0
  0
LTYPE
  5
15
330
5
100
AcDbSymbolTableRecord
100
AcDbLinetypeTableRecord
  2
ByLayer
 70
     0
  3

 72
    65
 73
     0
 40
0.0
  0
LTYPE
  5
16
330
5
100
AcDbSymbolTableRecord
100
AcDbLinetypeTableRecord
  2
Continuous
 70
     0
  3
Solid line
 72
    65
 73
     0
 40
0.0
  0
LTYPE
  5
6E
330
5
100
AcDbSymbolTableRecord
100
AcDbLinetypeTableRecord
  2
CENTER
 70
     0
  3
____ _ ____ _ ____ _ ____
 72
    65
 73
     4
 40
47.4
 49
22.0
 74
     4
 75
     0
340
0
 46
0.0
 50
0.0
 44
0.0
 45
0.0
 49
-8.5
 74
     4
 75
     0
340
0
 46
0.0
 50
0.0
 44
0.0
 45
0.0
 49
8.5
 74
     4
 75
     0
340
0
 46
0.0
 50
0.0
 44
0.0
 45
0.0
 49
-8.5
 74
     4
 75
     0
340
0
 46
0.0
 50
0.0
 44
0.0
 45
0.0
  0
LTYPE
  5
6F
330
5
100
AcDbSymbolTableRecord
100
AcDbLinetypeTableRecord
  2
DASHDOT
 70
     0
  3
_._._._._._._._._._._._._._._._.
 72
    65
 73
     4
 40
70.0
 49
31.0
 74
     4
 75
     0
340
0
 46
0.0
 50
0.0
 44
0.0
 45
0.0
 49
-13.0
 74
     4
 75
     0
340
0
 46
0.0
 50
0.0
 44
0.0
 45
0.0
 49
13.0
 74
     4
 75
     0
340
0
 46
0.0
 50
0.0
 44
0.0
 45
0.0
 49
-13.0
 74
     4
 75
     0
340
0
 46
0.0
 50
0.0
 44
0.0
 45
0.0
  0
LTYPE
  5
70
330
5
100
AcDbSymbolTableRecord
100
AcDbLinetypeTableRecord
  2
DASHED
 70
     0
  3
__ __ __ __ __ __ __ __ __
 72
    65
 73
     2
 40
25.72
 49
12.86
 74
     4
 75
     0
340
0
 46
0.0
 50
0.0
 44
0.0
 45
0.0
 49
-12.86
 74
     4
 75
     0
340
0
 46
0.0
 50
0.0
 44
0.0
 45
0.0
  0
LTYPE
  5
71
330
5
100
AcDbSymbolTableRecord
100
AcDbLinetypeTableRecord
  2
DOT
 70
     0
  3
.........................
 72
    65
 73
     2
 40
10.0
 49
0.0
 74
     4
 75
     0
340
0
 46
0.0
 50
0.0
 44
0.0
 45
0.0
 49
-10.0
 74
     4
 75
     0
340
0
 46
0.0
 50
0.0
 44
0.0
 45
0.0
  0
LTYPE
  5
72
330
5
100
AcDbSymbolTableRecord
100
AcDbLinetypeTableRecord
  2
PHANTOM
 70
     0
  3
____ _ _ ____ _ _ _____ _ _ ____
 72
    65
 73
     6
 40
50.5
 49
18.0
 74
     4
 75
     0
340
0
 46
0.0
 50
0.0
 44
0.0
 45
0.0
 49
-6.5
 74
     4
 75
     0
340
0
 46
0.0
 50
0.0
 44
0.0
 45
0.0
 49
6.5
 74
     4
 75
     0
340
0
 46
0.0
 50
0.0
 44
0.0
 45
0.0
 49
-6.5
 74
     4
 75
     0
340
0
 46
0.0
 50
0.0
 44
0.0
 45
0.0
 49
6.5
 74
     4
 75
     0
340
0
 46
0.0
 50
0.0
 44
0.0
 45
0.0
 49
-6.5
 74
     4
 75
     0
340
0
 46
0.0
 50
0.0
 44
0.0
 45
0.0
  0
LTYPE
  5
34C
330
5
100
AcDbSymbolTableRecord
100
AcDbLinetypeTableRecord
  2
CENTER2
 70
     0
  3
Center (.5x) ___ _ ___ _ ___ _ ___ _ ___ _ ___
 72
    65
 73
     4
 40
1.125
 49
0.75
 74
     0
 49
-0.125
 74
     0
 49
0.125
 74
     0
 49
-0.125
 74
     0
  0
ENDTAB
  0
TABLE
  2
LAYER
  5
2
102
{ACAD_XDICTIONARY
360
3B5
102
}
330
0
100
AcDbSymbolTable
 70
    22
  0
LAYER
  5
10
102
{ACAD_XDICTIONARY
360
357
102
}
330
2
100
AcDbSymbolTableRecord
100
AcDbLayerTableRecord
  2
0
 70
     0
 62
     7
  6
Continuous
370
    -3
390
F
  0
LAYER
  5
208
330
2
100
AcDbSymbolTableRecord
100
AcDbLayerTableRecord
  2
Defpoints
 70
     0
 62
     7
  6
Continuous
290
     0
370
    -3
390
F
  0
LAYER
  5
349
102
{ACAD_XDICTIONARY
360
359
102
}
330
2
100
AcDbSymbolTableRecord
100
AcDbLayerTableRecord
  2
1
 70
     0
 62
     4
  6
Continuous
370
    -3
390
F
  0
LAYER
  5
34A
102
{ACAD_XDICTIONARY
360
35B
102
}
330
2
100
AcDbSymbolTableRecord
100
AcDbLayerTableRecord
  2
2
 70
     0
 62
     7
  6
Continuous
370
    -3
390
F
  0
LAYER
  5
34B
102
{ACAD_XDICTIONARY
360
35D
102
}
330
2
100
AcDbSymbolTableRecord
100
AcDbLayerTableRecord
  2
4
 70
     0
 62
     2
  6
CENTER2
370
    -3
390
F
  0
LAYER
  5
34D
102
{ACAD_XDICTIONARY
360
35F
102
}
330
2
100
AcDbSymbolTableRecord
100
AcDbLayerTableRecord
  2
SK1
 70
     0
 62
     4
  6
Continuous
370
    -3
390
F
  0
LAYER
  5
34E
102
{ACAD_XDICTIONARY
360
361
102
}
330
2
100
AcDbSymbolTableRecord
100
AcDbLayerTableRecord
  2
SK2
 70
     0
 62
     7
  6
Continuous
370
    -3
390
F
  0
LAYER
  5
350
102
{ACAD_XDICTIONARY
360
363
102
}
330
2
100
AcDbSymbolTableRecord
100
AcDbLayerTableRecord
  2
SK4
 70
     0
 62
     2
  6
CENTER2
370
    -3
390
F
  0
LAYER
  5
351
102
{ACAD_XDICTIONARY
360
365
102
}
330
2
100
AcDbSymbolTableRecord
100
AcDbLayerTableRecord
  2
SK6
 70
     0
 62
     5
  6
Continuous
370
    -3
390
F
  0
LAYER
  5
352
102
{ACAD_XDICTIONARY
360
367
102
}
330
2
100
AcDbSymbolTableRecord
100
AcDbLayerTableRecord
  2
CUT
 70
     0
 62
     1
  6
Continuous
370
    -3
390
F
  0
LAYER
  5
353
102
{ACAD_XDICTIONARY
360
369
102
}
330
2
100
AcDbSymbolTableRecord
100
AcDbLayerTableRecord
  2
NOCUT
 70
     0
 62
     7
  6
Continuous
370
    -3
390
F
  0
LAYER
  5
354
102
{ACAD_XDICTIONARY
360
36B
102
}
330
2
100
AcDbSymbolTableRecord
100
AcDbLayerTableRecord
  2
80
 70
     0
 62
     6
  6
Continuous
370
    -3
390
F
  0
LAYER
  5
355
102
{ACAD_XDICTIONARY
360
36D
102
}
330
2
100
AcDbSymbolTableRecord
100
AcDbLayerTableRecord
  2
81
 70
     0
 62
     3
  6
Continuous
370
    -3
390
F
  0
ENDTAB
  0
TABLE
  2
STYLE
  5
3
330
0
100
AcDbSymbolTable
 70
     3
  0
STYLE
  5
11
330
3
100
AcDbSymbolTableRecord
100
AcDbTextStyleTableRecord
  2
Standard
 70
     0
 40
0.0
 41
1.0
 50
0.0
 71
     0
 42
0.2
  3
txt
  4

  0
STYLE
  5
1FC
330
3
100
AcDbSymbolTableRecord
100
AcDbTextStyleTableRecord
  2
cesky
 70
     0
 40
0.0
 41
1.0
 50
0.0
 71
     0
 42
0.2
  3
simplex.shx
  4

  0
STYLE
  5
1FD
330
3
100
AcDbSymbolTableRecord
100
AcDbTextStyleTableRecord
  2
DWGDirectTextStyle
 70
     0
 40
0.0
 41
1.0
 50
0.0
 71
     0
 42
0.2
  3
simplex
  4

  0
ENDTAB
  0
TABLE
  2
VIEW
  5
6
330
0
100
AcDbSymbolTable
 70
     1
  0
ENDTAB
  0
TABLE
  2
UCS
  5
7
330
0
100
AcDbSymbolTable
 70
     0
  0
ENDTAB
  0
TABLE
  2
APPID
  5
9
330
0
100
AcDbSymbolTable
 70
     8
  0
APPID
  5
12
330
9
100
AcDbSymbolTableRecord
100
AcDbRegAppTableRecord
  2
ACAD
 70
     0
  0
APPID
  5
204
330
9
100
AcDbSymbolTableRecord
100
AcDbRegAppTableRecord
  2
ACAD_DSTYLE_DIMBREAK
 70
     0
  0
APPID
  5
2BD
330
9
100
AcDbSymbolTableRecord
100
AcDbRegAppTableRecord
  2
ACAD_DSTYLE_DIM_LINETYPE
 70
     0
  0
APPID
  5
2BE
330
9
100
AcDbSymbolTableRecord
100
AcDbRegAppTableRecord
  2
ACAD_DSTYLE_DIM_EXT1_LINETYPE
 70
     0
  0
APPID
  5
2BF
330
9
100
AcDbSymbolTableRecord
100
AcDbRegAppTableRecord
  2
ACAD_DSTYLE_DIM_EXT2_LINETYPE
 70
     0
  0
APPID
  5
2FF
330
9
100
AcDbSymbolTableRecord
100
AcDbRegAppTableRecord
  2
ACAD_MLEADERVER
 70
     0
  0
APPID
  5
372
330
9
100
AcDbSymbolTableRecord
100
AcDbRegAppTableRecord
  2
ACAD_NAV_VCDISPLAY
 70
     0
  0
APPID
  5
3AB
330
9
100
AcDbSymbolTableRecord
100
AcDbRegAppTableRecord
  2
ACAD_EXEMPT_FROM_CAD_STANDARDS
 70
     0
  0
ENDTAB
  0
TABLE
  2
DIMSTYLE
  5
A
330
0
100
AcDbSymbolTable
 70
     2
100
AcDbDimStyleTable
 71
     1
340
27
  0
DIMSTYLE
105
27
330
A
100
AcDbSymbolTableRecord
100
AcDbDimStyleTableRecord
  2
Standard
 70
     0
340
11
1001
ACAD_DSTYLE_DIMBREAK
1070
   391
1040
6.349999999999999
  0
ENDTAB
  0
TABLE
  2
BLOCK_RECORD
  5
1
330
0
100
AcDbSymbolTable
 70
    17
  0
BLOCK_RECORD
  5
1F
102
{ACAD_XDICTIONARY
360
30F
102
}
330
1
100
AcDbSymbolTableRecord
100
AcDbBlockTableRecord
  2
*Model_Space
340
22
  0
BLOCK_RECORD
  5
1B
330
1
100
AcDbSymbolTableRecord
100
AcDbBlockTableRecord
  2
*Paper_Space
340
1E
  0
BLOCK_RECORD
  5
23
330
1
100
AcDbSymbolTableRecord
100
AcDbBlockTableRecord
  2
*Paper_Space0
340
26
  0
BLOCK_RECORD
  5
1FF
330
1
100
AcDbSymbolTableRecord
100
AcDbBlockTableRecord
  2
ASSORTED_DRAFT1
340
0
  0
BLOCK_RECORD
  5
209
330
1
100
AcDbSymbolTableRecord
100
AcDbBlockTableRecord
  2
*D2
340
0
  0
BLOCK_RECORD
  5
215
330
1
100
AcDbSymbolTableRecord
100
AcDbBlockTableRecord
  2
_U0
340
0
  0
BLOCK_RECORD
  5
222
330
1
100
AcDbSymbolTableRecord
100
AcDbBlockTableRecord
  2
*D4
340
0
  0
BLOCK_RECORD
  5
22D
330
1
100
AcDbSymbolTableRecord
100
AcDbBlockTableRecord
  2
_U1
340
0
  0
BLOCK_RECORD
  5
238
330
1
100
AcDbSymbolTableRecord
100
AcDbBlockTableRecord
  2
*D6
340
0
  0
BLOCK_RECORD
  5
244
330
1
100
AcDbSymbolTableRecord
100
AcDbBlockTableRecord
  2
_U2
340
0
  0
BLOCK_RECORD
  5
251
330
1
100
AcDbSymbolTableRecord
100
AcDbBlockTableRecord
  2
*D8
340
0
  0
BLOCK_RECORD
  5
25D
330
1
100
AcDbSymbolTableRecord
100
AcDbBlockTableRecord
  2
_U3
340
0
  0
BLOCK_RECORD
  5
269
330
1
100
AcDbSymbolTableRecord
100
AcDbBlockTableRecord
  2
*D10
340
0
  0
BLOCK_RECORD
  5
275
330
1
100
AcDbSymbolTableRecord
100
AcDbBlockTableRecord
  2
_U4
340
0
  0
BLOCK_RECORD
  5
281
330
1
100
AcDbSymbolTableRecord
100
AcDbBlockTableRecord
  2
*D12
340
0
  0
BLOCK_RECORD
  5
28D
330
1
100
AcDbSymbolTableRecord
100
AcDbBlockTableRecord
  2
_U5
340
0
  0
BLOCK_RECORD
  5
299
330
1
100
AcDbSymbolTableRecord
100
AcDbBlockTableRecord
  2
*D14
340
0
  0
BLOCK_RECORD
  5
2A5
330
1
100
AcDbSymbolTableRecord
100
AcDbBlockTableRecord
  2
_U6
340
0
  0
ENDTAB
  0
ENDSEC
  0
SECTION
  2
BLOCKS
  0
BLOCK
  5
20
330
1F
100
AcDbEntity
  8
0
100
AcDbBlockBegin
  2
*Model_Space
 70
     0
 10
0.0
 20
0.0
 30
0.0
  3
*Model_Space
  1

  0
ENDBLK
  5
21
330
1F
100
AcDbEntity
  8
0
100
AcDbBlockEnd
  0
BLOCK
  5
1C
330
1B
100
AcDbEntity
 67
     1
  8
0
100
AcDbBlockBegin
  2
*Paper_Space
 70
     0
 10
0.0
 20
0.0
 30
0.0
  3
*Paper_Space
  1

  0
ENDBLK
  5
1D
330
1B
100
AcDbEntity
 67
     1
  8
0
100
AcDbBlockEnd
  0
BLOCK
  5
24
330
23
100
AcDbEntity
 67
     1
  8
0
100
AcDbBlockBegin
  2
*Paper_Space0
 70
     0
 10
0.0
 20
0.0
 30
0.0
  3
*Paper_Space0
  1

  0
ENDBLK
  5
25
330
23
100
AcDbEntity
 67
     1
  8
0
100
AcDbBlockEnd
  0
BLOCK
  5
202
330
1FF
100
AcDbEntity
  8
0
100
AcDbBlockBegin
  2
ASSORTED_DRAFT1
 70
     0
 10
0.0
 20
0.0
 30
0.0
  3
ASSORTED_DRAFT1
  1

  0
SOLID
  5
200
330
1FF
100
AcDbEntity
  8
0
 62
   254
370
    13
100
AcDbTrace
 10
270.185042
 20
168.534924
 30
0.0
 11
265.185046
 21
167.42645
 31
0.0
 12
265.1850379999999
 22
169.643397
 32
0.0
 13
270.185042
 23
168.534924
 33
0.0
  0
ENDBLK
  5
203
330
1FF
100
AcDbEntity
  8
0
100
AcDbBlockEnd
  0
BLOCK
  5
20A
330
209
100
AcDbEntity
  8
0
100
AcDbBlockBegin
  2
*D2
 70
     1
 10
0.0
 20
0.0
 30
0.0
  3
*D2
  1

  0
LINE
  5
20C
330
209
100
AcDbEntity
  8
0
 62
    95
370
    -2
100
AcDbLine
 10
277.154842
 20
313.907994
 30
0.0
 11
174.338654
 21
313.907994
 31
0.0
  0
LINE
  5
20D
330
209
100
AcDbEntity
  8
0
 62
    95
370
    -2
100
AcDbLine
 10
277.154842
 20
263.907994
 30
0.0
 11
174.338654
 21
263.907994
 31
0.0
  0
LINE
  5
20E
330
209
100
AcDbEntity
  8
0
 62
    95
370
    -2
100
AcDbLine
 10
175.338654
 20
310.407994
 30
0.0
 11
175.338654
 21
267.407994
 31
0.0
  0
SOLID
  5
20F
330
209
100
AcDbEntity
  8
0
 62
    95
100
AcDbTrace
 10
175.921988
 20
310.407994
 30
0.0
 11
174.755321
 21
310.407994
 31
0.0
 12
175.338654
 22
313.907994
 32
0.0
 13
175.338654
 23
313.907994
 33
0.0
  0
SOLID
  5
210
330
209
100
AcDbEntity
  8
0
 62
    95
100
AcDbTrace
 10
174.755321
 20
267.407994
 30
0.0
 11
175.921988
 21
267.407994
 31
0.0
 12
175.338654
 22
263.907994
 32
0.0
 13
175.338654
 23
263.907994
 33
0.0
  0
MTEXT
  5
211
330
209
100
AcDbEntity
  8
0
 62
    95
370
    13
100
AcDbMText
 10
170.088654
 20
288.907994
 30
0.0
 40
3.5
 41
0.0
 71
     5
 72
     1
  1
\A1;50
  7
cesky
 11
0.0
 21
1.0
 31
0.0
 73
     1
 44
1.0
  0
POINT
  5
212
330
209
100
AcDbEntity
  8
Defpoints
 62
     0
100
AcDbPoint
 10
277.154842
 20
313.907994
 30
0.0
  0
POINT
  5
213
330
209
100
AcDbEntity
  8
Defpoints
 62
     0
100
AcDbPoint
 10
277.154842
 20
263.907994
 30
0.0
  0
POINT
  5
214
330
209
100
AcDbEntity
  8
Defpoints
 62
     0
100
AcDbPoint
 10
175.338654
 20
263.907994
 30
0.0
  0
ENDBLK
  5
20B
330
209
100
AcDbEntity
  8
0
100
AcDbBlockEnd
  0
BLOCK
  5
21D
330
215
100
AcDbEntity
  8
0
100
AcDbBlockBegin
  2
_U0
 70
     0
 10
0.0
 20
0.0
 30
0.0
  3
_U0
  1

  0
ENDBLK
  5
21E
330
215
100
AcDbEntity
  8
0
100
AcDbBlockEnd
  0
BLOCK
  5
223
330
222
100
AcDbEntity
  8
0
100
AcDbBlockBegin
  2
*D4
 70
     1
 10
0.0
 20
0.0
 30
0.0
  3
*D4
  1

  0
LINE
  5
225
330
222
100
AcDbEntity
  8
0
 62
   254
370
    -2
100
AcDbLine
 10
290.52914
 20
288.907994
 30
0.0
 11
486.57124
 21
288.907994
 31
0.0
  0
LINE
  5
226
330
222
100
AcDbEntity
  8
0
 62
   254
370
    -2
100
AcDbLine
 10
330.83929
 20
309.907994
 30
0.0
 11
486.57124
 21
309.907994
 31
0.0
  0
LINE
  5
227
330
222
100
AcDbEntity
  8
0
 62
   254
370
    -2
100
AcDbLine
 10
485.57124
 20
288.907994
 30
0.0
 11
485.57124
 21
309.907994
 31
0.0
  0
SOLID
  5
228
330
222
100
AcDbEntity
  8
0
 62
   254
100
AcDbTrace
 10
486.154573
 20
306.407994
 30
0.0
 11
484.987907
 21
306.407994
 31
0.0
 12
485.57124
 22
309.907994
 32
0.0
 13
485.57124
 23
309.907994
 33
0.0
  0
MTEXT
  5
229
330
222
100
AcDbEntity
  8
0
 62
   254
370
    13
100
AcDbMText
 10
480.32124
 20
279.07466
 30
0.0
 40
3.5
 41
0.0
 71
     5
 72
     1
  1
\A1;42
  7
cesky
 11
0.0
 21
1.0
 31
0.0
 73
     1
 44
1.0
  0
POINT
  5
22A
330
222
100
AcDbEntity
  8
Defpoints
 62
     0
100
AcDbPoint
 10
290.52914
 20
288.907994
 30
0.0
  0
POINT
  5
22B
330
222
100
AcDbEntity
  8
Defpoints
 62
     0
100
AcDbPoint
 10
330.83929
 20
309.907994
 30
0.0
  0
POINT
  5
22C
330
222
100
AcDbEntity
  8
Defpoints
 62
     0
100
AcDbPoint
 10
485.57124
 20
309.907994
 30
0.0
  0
ENDBLK
  5
224
330
222
100
AcDbEntity
  8
0
100
AcDbBlockEnd
  0
BLOCK
  5
233
330
22D
100
AcDbEntity
  8
0
100
AcDbBlockBegin
  2
_U1
 70
     0
 10
0.0
 20
0.0
 30
0.0
  3
_U1
  1

  0
ENDBLK
  5
234
330
22D
100
AcDbEntity
  8
0
100
AcDbBlockEnd
  0
BLOCK
  5
239
330
238
100
AcDbEntity
  8
0
100
AcDbBlockBegin
  2
*D6
 70
     1
 10
0.0
 20
0.0
 30
0.0
  3
*D6
  1

  0
LINE
  5
23B
330
238
100
AcDbEntity
  8
0
 62
    95
370
    -2
100
AcDbLine
 10
206.404842
 20
308.907994
 30
0.0
 11
189.475719
 21
308.907994
 31
0.0
  0
LINE
  5
23C
330
238
100
AcDbEntity
  8
0
 62
    95
370
    -2
100
AcDbLine
 10
206.404842
 20
268.907994
 30
0.0
 11
189.475719
 21
268.907994
 31
0.0
  0
LINE
  5
23D
330
238
100
AcDbEntity
  8
0
 62
    95
370
    -2
100
AcDbLine
 10
190.475719
 20
305.407994
 30
0.0
 11
190.475719
 21
272.407994
 31
0.0
  0
SOLID
  5
23E
330
238
100
AcDbEntity
  8
0
 62
    95
100
AcDbTrace
 10
191.059052
 20
305.407994
 30
0.0
 11
189.892385
 21
305.407994
 31
0.0
 12
190.475719
 22
308.907994
 32
0.0
 13
190.475719
 23
308.907994
 33
0.0
  0
SOLID
  5
23F
330
238
100
AcDbEntity
  8
0
 62
    95
100
AcDbTrace
 10
189.892385
 20
272.407994
 30
0.0
 11
191.059052
 21
272.407994
 31
0.0
 12
190.475719
 22
268.907994
 32
0.0
 13
190.475719
 23
268.907994
 33
0.0
  0
MTEXT
  5
240
330
238
100
AcDbEntity
  8
0
 62
    95
370
    13
100
AcDbMText
 10
185.225719
 20
288.907994
 30
0.0
 40
3.5
 41
0.0
 71
     5
 72
     1
  1
\A1;40
  7
cesky
 11
0.0
 21
1.0
 31
0.0
 73
     1
 44
1.0
  0
POINT
  5
241
330
238
100
AcDbEntity
  8
Defpoints
 62
     0
100
AcDbPoint
 10
206.404842
 20
308.907994
 30
0.0
  0
POINT
  5
242
330
238
100
AcDbEntity
  8
Defpoints
 62
     0
100
AcDbPoint
 10
206.404842
 20
268.907994
 30
0.0
  0
POINT
  5
243
330
238
100
AcDbEntity
  8
Defpoints
 62
     0
100
AcDbPoint
 10
190.475719
 20
268.907994
 30
0.0
  0
ENDBLK
  5
23A
330
238
100
AcDbEntity
  8
0
100
AcDbBlockEnd
  0
BLOCK
  5
24C
330
244
100
AcDbEntity
  8
0
100
AcDbBlockBegin
  2
_U2
 70
     0
 10
0.0
 20
0.0
 30
0.0
  3
_U2
  1

  0
ENDBLK
  5
24D
330
244
100
AcDbEntity
  8
0
100
AcDbBlockEnd
  0
BLOCK
  5
252
330
251
100
AcDbEntity
  8
0
100
AcDbBlockBegin
  2
*D8
 70
     1
 10
0.0
 20
0.0
 30
0.0
  3
*D8
  1

  0
LINE
  5
254
330
251
100
AcDbEntity
  8
0
 62
   254
370
    -2
100
AcDbLine
 10
467.404842
 20
309.907994
 30
0.0
 11
467.404842
 21
334.9472990000001
 31
0.0
  0
LINE
  5
255
330
251
100
AcDbEntity
  8
0
 62
   254
370
    -2
100
AcDbLine
 10
274.404842
 20
288.907994
 30
0.0
 11
274.404842
 21
334.9472990000001
 31
0.0
  0
LINE
  5
256
330
251
100
AcDbEntity
  8
0
 62
   254
370
    -2
100
AcDbLine
 10
463.9048419999999
 20
333.947299
 30
0.0
 11
277.904842
 21
333.947299
 31
0.0
  0
SOLID
  5
257
330
251
100
AcDbEntity
  8
0
 62
   254
100
AcDbTrace
 10
463.9048419999999
 20
333.363965
 30
0.0
 11
463.9048419999999
 21
334.530632
 31
0.0
 12
467.404842
 22
333.947299
 32
0.0
 13
467.404842
 23
333.947299
 33
0.0
  0
SOLID
  5
258
330
251
100
AcDbEntity
  8
0
 62
   254
100
AcDbTrace
 10
277.904842
 20
334.530632
 30
0.0
 11
277.904842
 21
333.363965
 31
0.0
 12
274.404842
 22
333.947299
 32
0.0
 13
274.404842
 23
333.947299
 33
0.0
  0
MTEXT
  5
259
330
251
100
AcDbEntity
  8
0
 62
   254
370
    13
100
AcDbMText
 10
370.904842
 20
339.1972990000001
 30
0.0
 40
3.5
 41
0.0
 71
     5
 72
     1
  1
\A1;193
  7
cesky
 73
     1
 44
1.0
  0
POINT
  5
25A
330
251
100
AcDbEntity
  8
Defpoints
 62
     0
100
AcDbPoint
 10
467.404842
 20
309.907994
 30
0.0
  0
POINT
  5
25B
330
251
100
AcDbEntity
  8
Defpoints
 62
     0
100
AcDbPoint
 10
274.404842
 20
288.907994
 30
0.0
  0
POINT
  5
25C
330
251
100
AcDbEntity
  8
Defpoints
 62
     0
100
AcDbPoint
 10
274.404842
 20
333.947299
 30
0.0
  0
ENDBLK
  5
253
330
251
100
AcDbEntity
  8
0
100
AcDbBlockEnd
  0
BLOCK
  5
264
330
25D
100
AcDbEntity
  8
0
100
AcDbBlockBegin
  2
_U3
 70
     0
 10
0.0
 20
0.0
 30
0.0
  3
_U3
  1

  0
ENDBLK
  5
265
330
25D
100
AcDbEntity
  8
0
100
AcDbBlockEnd
  0
BLOCK
  5
26A
330
269
100
AcDbEntity
  8
0
100
AcDbBlockBegin
  2
*D10
 70
     1
 10
0.0
 20
0.0
 30
0.0
  3
*D10
  1

  0
LINE
  5
26C
330
269
100
AcDbEntity
  8
0
 62
   254
370
    -2
100
AcDbLine
 10
467.404842
 20
311.907994
 30
0.0
 11
467.404842
 21
348.392842
 31
0.0
  0
LINE
  5
26D
330
269
100
AcDbEntity
  8
0
 62
   254
370
    -2
100
AcDbLine
 10
204.404842
 20
306.907994
 30
0.0
 11
204.404842
 21
348.392842
 31
0.0
  0
LINE
  5
26E
330
269
100
AcDbEntity
  8
0
 62
   254
370
    -2
100
AcDbLine
 10
463.9048419999999
 20
347.392842
 30
0.0
 11
207.904842
 21
347.392842
 31
0.0
  0
SOLID
  5
26F
330
269
100
AcDbEntity
  8
0
 62
   254
100
AcDbTrace
 10
463.9048419999999
 20
346.809508
 30
0.0
 11
463.9048419999999
 21
347.976175
 31
0.0
 12
467.404842
 22
347.392842
 32
0.0
 13
467.404842
 23
347.392842
 33
0.0
  0
SOLID
  5
270
330
269
100
AcDbEntity
  8
0
 62
   254
100
AcDbTrace
 10
207.904842
 20
347.976175
 30
0.0
 11
207.904842
 21
346.809508
 31
0.0
 12
204.404842
 22
347.392842
 32
0.0
 13
204.404842
 23
347.392842
 33
0.0
  0
MTEXT
  5
271
330
269
100
AcDbEntity
  8
0
 62
   254
370
    13
100
AcDbMText
 10
335.904842
 20
352.642842
 30
0.0
 40
3.5
 41
0.0
 71
     5
 72
     1
  1
\A1;263
  7
cesky
 73
     1
 44
1.0
  0
POINT
  5
272
330
269
100
AcDbEntity
  8
Defpoints
 62
     0
100
AcDbPoint
 10
467.404842
 20
311.907994
 30
0.0
  0
POINT
  5
273
330
269
100
AcDbEntity
  8
Defpoints
 62
     0
100
AcDbPoint
 10
204.404842
 20
306.907994
 30
0.0
  0
POINT
  5
274
330
269
100
AcDbEntity
  8
Defpoints
 62
     0
100
AcDbPoint
 10
204.404842
 20
347.392842
 30
0.0
  0
ENDBLK
  5
26B
330
269
100
AcDbEntity
  8
0
100
AcDbBlockEnd
  0
BLOCK
  5
27C
330
275
100
AcDbEntity
  8
0
100
AcDbBlockBegin
  2
_U4
 70
     0
 10
0.0
 20
0.0
 30
0.0
  3
_U4
  1

  0
ENDBLK
  5
27D
330
275
100
AcDbEntity
  8
0
100
AcDbBlockEnd
  0
BLOCK
  5
282
330
281
100
AcDbEntity
  8
0
100
AcDbBlockBegin
  2
*D12
 70
     1
 10
0.0
 20
0.0
 30
0.0
  3
*D12
  1

  0
LINE
  5
284
330
281
100
AcDbEntity
  8
0
 62
   254
370
    -2
100
AcDbLine
 10
274.404842
 20
288.907994
 30
0.0
 11
274.404842
 21
334.9472990000001
 31
0.0
  0
LINE
  5
285
330
281
100
AcDbEntity
  8
0
 62
   254
370
    -2
100
AcDbLine
 10
204.404842
 20
303.696669
 30
0.0
 11
204.404842
 21
334.9472990000001
 31
0.0
  0
LINE
  5
286
330
281
100
AcDbEntity
  8
0
 62
   254
370
    -2
100
AcDbLine
 10
270.904842
 20
333.947299
 30
0.0
 11
207.904842
 21
333.947299
 31
0.0
  0
SOLID
  5
287
330
281
100
AcDbEntity
  8
0
 62
   254
100
AcDbTrace
 10
270.904842
 20
333.363965
 30
0.0
 11
270.904842
 21
334.530632
 31
0.0
 12
274.404842
 22
333.947299
 32
0.0
 13
274.404842
 23
333.947299
 33
0.0
  0
SOLID
  5
288
330
281
100
AcDbEntity
  8
0
 62
   254
100
AcDbTrace
 10
207.904842
 20
334.530632
 30
0.0
 11
207.904842
 21
333.363965
 31
0.0
 12
204.404842
 22
333.947299
 32
0.0
 13
204.404842
 23
333.947299
 33
0.0
  0
MTEXT
  5
289
330
281
100
AcDbEntity
  8
0
 62
   254
370
    13
100
AcDbMText
 10
239.404842
 20
339.1972990000001
 30
0.0
 40
3.5
 41
0.0
 71
     5
 72
     1
  1
\A1;70
  7
cesky
 73
     1
 44
1.0
  0
POINT
  5
28A
330
281
100
AcDbEntity
  8
Defpoints
 62
     0
100
AcDbPoint
 10
274.404842
 20
288.907994
 30
0.0
  0
POINT
  5
28B
330
281
100
AcDbEntity
  8
Defpoints
 62
     0
100
AcDbPoint
 10
204.404842
 20
303.696669
 30
0.0
  0
POINT
  5
28C
330
281
100
AcDbEntity
  8
Defpoints
 62
     0
100
AcDbPoint
 10
204.404842
 20
333.947299
 30
0.0
  0
ENDBLK
  5
283
330
281
100
AcDbEntity
  8
0
100
AcDbBlockEnd
  0
BLOCK
  5
294
330
28D
100
AcDbEntity
  8
0
100
AcDbBlockBegin
  2
_U5
 70
     0
 10
0.0
 20
0.0
 30
0.0
  3
_U5
  1

  0
ENDBLK
  5
295
330
28D
100
AcDbEntity
  8
0
100
AcDbBlockEnd
  0
BLOCK
  5
29A
330
299
100
AcDbEntity
  8
0
100
AcDbBlockBegin
  2
*D14
 70
     1
 10
0.0
 20
0.0
 30
0.0
  3
*D14
  1

  0
LINE
  5
29C
330
299
100
AcDbEntity
  8
0
 62
   254
370
    -2
100
AcDbLine
 10
467.404842
 20
309.907994
 30
0.0
 11
467.404842
 21
321.118433
 31
0.0
  0
LINE
  5
29D
330
299
100
AcDbEntity
  8
0
 62
   254
370
    -2
100
AcDbLine
 10
290.934394
 20
309.595323
 30
0.0
 11
290.934394
 21
321.118433
 31
0.0
  0
LINE
  5
29E
330
299
100
AcDbEntity
  8
0
 62
   254
370
    -2
100
AcDbLine
 10
463.9048419999999
 20
320.118433
 30
0.0
 11
294.434394
 21
320.118433
 31
0.0
  0
SOLID
  5
29F
330
299
100
AcDbEntity
  8
0
 62
   254
100
AcDbTrace
 10
463.9048419999999
 20
319.5351
 30
0.0
 11
463.9048419999999
 21
320.701766
 31
0.0
 12
467.404842
 22
320.118433
 32
0.0
 13
467.404842
 23
320.118433
 33
0.0
  0
SOLID
  5
2A0
330
299
100
AcDbEntity
  8
0
 62
   254
100
AcDbTrace
 10
294.434394
 20
320.701766
 30
0.0
 11
294.434394
 21
319.5351
 31
0.0
 12
290.934394
 22
320.118433
 32
0.0
 13
290.934394
 23
320.118433
 33
0.0
  0
MTEXT
  5
2A1
330
299
100
AcDbEntity
  8
0
 62
   254
370
    13
100
AcDbMText
 10
379.169618
 20
325.368433
 30
0.0
 40
3.5
 41
0.0
 71
     5
 72
     1
  1
\A1;176.5
  7
cesky
 73
     1
 44
1.0
  0
POINT
  5
2A2
330
299
100
AcDbEntity
  8
Defpoints
 62
     0
100
AcDbPoint
 10
467.404842
 20
309.907994
 30
0.0
  0
POINT
  5
2A3
330
299
100
AcDbEntity
  8
Defpoints
 62
     0
100
AcDbPoint
 10
290.934394
 20
309.595323
 30
0.0
  0
POINT
  5
2A4
330
299
100
AcDbEntity
  8
Defpoints
 62
     0
100
AcDbPoint
 10
290.934394
 20
320.118433
 30
0.0
  0
ENDBLK
  5
29B
330
299
100
AcDbEntity
  8
0
100
AcDbBlockEnd
  0
BLOCK
  5
2AC
330
2A5
100
AcDbEntity
  8
0
100
AcDbBlockBegin
  2
_U6
 70
     0
 10
0.0
 20
0.0
 30
0.0
  3
_U6
  1

  0
ENDBLK
  5
2AD
330
2A5
100
AcDbEntity
  8
0
100
AcDbBlockEnd
  0
ENDSEC
  0
SECTION
  2
ENTITIES
  0
POINT
  5
73
102
{ACAD_REACTORS
330
356
102
}
330
1F
100
AcDbEntity
  8
80
100
AcDbPoint
 10
274.404842
 20
288.907994
 30
0.0
  0
POINT
  5
76
330
1F
100
AcDbEntity
  8
4
 60
     1
100
AcDbPoint
 10
290.52914
 20
288.907994
 30
0.0
  0
POINT
  5
78
330
1F
100
AcDbEntity
  8
4
 60
     1
100
AcDbPoint
 10
466.536444
 20
288.907994
 30
0.0
  0
POINT
  5
79
330
1F
100
AcDbEntity
  8
SK4
 60
     1
100
AcDbPoint
 10
206.404842
 20
288.907994
 30
0.0
  0
POINT
  5
7A
330
1F
100
AcDbEntity
  8
SK4
 60
     1
100
AcDbPoint
 10
274.404842
 20
288.907994
 30
0.0
  0
POINT
  5
7B
330
1F
100
AcDbEntity
  8
SK6
 60
     1
100
AcDbPoint
 10
274.404842
 20
288.907994
 30
0.0
  0
POINT
  5
7C
330
1F
100
AcDbEntity
  8
SK6
 60
     1
100
AcDbPoint
 10
290.934394
 20
309.595323
 30
0.0
  0
LINE
  5
7D
330
1F
100
AcDbEntity
  8
1
100
AcDbLine
 10
274.404842
 20
313.407994
 30
0.0
 11
274.404842
 21
288.907994
 31
0.0
  0
LINE
  5
7F
330
1F
100
AcDbEntity
  8
1
100
AcDbLine
 10
274.404842
 20
288.907994
 30
0.0
 11
274.404842
 21
264.407994
 31
0.0
  0
LINE
  5
80
330
1F
100
AcDbEntity
  8
1
100
AcDbLine
 10
461.5958589999999
 20
303.205446
 30
0.0
 11
461.5803940000001
 21
303.167783
 31
0.0
  0
LINE
  5
82
330
1F
100
AcDbEntity
  8
1
100
AcDbLine
 10
458.408583
 20
302.974656
 30
0.0
 11
458.409958
 21
302.978007
 31
0.0
  0
LINE
  5
83
330
1F
100
AcDbEntity
  8
1
100
AcDbLine
 10
290.52914
 20
268.407994
 30
0.0
 11
297.318504
 21
268.407994
 31
0.0
  0
LINE
  5
84
330
1F
100
AcDbEntity
  8
1
100
AcDbLine
 10
453.8440379999999
 20
309.407994
 30
0.0
 11
443.103099
 21
309.407994
 31
0.0
  0
LINE
  5
85
330
1F
100
AcDbEntity
  8
1
100
AcDbLine
 10
302.309943
 20
309.407994
 30
0.0
 11
290.52914
 21
309.407994
 31
0.0
  0
LINE
  5
86
330
1F
100
AcDbEntity
  8
1
100
AcDbLine
 10
279.404842
 20
263.907994
 30
0.0
 11
279.404842
 21
267.824873
 31
0.0
  0
LINE
  5
87
330
1F
100
AcDbEntity
  8
1
100
AcDbLine
 10
279.404842
 20
313.907994
 30
0.0
 11
279.404842
 21
276.621511
 31
0.0
  0
LINE
  5
88
330
1F
100
AcDbEntity
  8
1
100
AcDbLine
 10
459.290612
 20
301.747555
 30
0.0
 11
459.324865
 21
301.830974
 31
0.0
  0
LINE
  5
89
330
1F
100
AcDbEntity
  8
1
100
AcDbLine
 10
460.089812
 20
301.686769
 30
0.0
 11
460.0553709999999
 21
301.602894
 31
0.0
  0
LINE
  5
8A
330
1F
100
AcDbEntity
  8
1
100
AcDbLine
 10
458.707589
 20
303.268018
 30
0.0
 11
458.7430359999999
 21
303.354346
 31
0.0
  0
LINE
  5
8B
330
1F
100
AcDbEntity
  8
1
100
AcDbLine
 10
461.3168349999999
 20
302.960748
 30
0.0
 11
461.281387
 21
302.874421
 31
0.0
  0
LINE
  5
8C
330
1F
100
AcDbEntity
  8
1
100
AcDbLine
 10
459.9336049999999
 20
304.539545
 30
0.0
 11
459.968046
 21
304.623421
 31
0.0
  0
LINE
  5
8D
330
1F
100
AcDbEntity
  8
1
100
AcDbLine
 10
460.7105269999999
 20
304.424504
 30
0.0
 11
460.698365
 21
304.394885
 31
0.0
  0
LINE
  5
8E
330
1F
100
AcDbEntity
  8
80
100
AcDbLine
 10
274.404842
 20
287.90842
 30
0.0
 11
274.404842
 21
289.907567
 31
0.0
  0
LINE
  5
8F
330
1F
100
AcDbEntity
  8
81
100
AcDbLine
 10
467.404842
 20
311.907994
 30
0.0
 11
467.404842
 21
307.907994
 31
0.0
  0
LINE
  5
90
330
1F
100
AcDbEntity
  8
81
100
AcDbLine
 10
465.4048419999999
 20
309.907994
 30
0.0
 11
469.4048419999999
 21
309.907994
 31
0.0
  0
LINE
  5
91
330
1F
100
AcDbEntity
  8
SK1
100
AcDbLine
 10
206.404842
 20
268.907994
 30
0.0
 11
274.404842
 21
268.907994
 31
0.0
  0
LINE
  5
92
330
1F
100
AcDbEntity
  8
1
100
AcDbLine
 10
274.904842
 20
263.907994
 30
0.0
 11
279.404842
 21
263.907994
 31
0.0
  0
LINE
  5
93
330
1F
100
AcDbEntity
  8
1
100
AcDbLine
 10
454.024925
 20
297.492096
 30
0.0
 11
453.6276980000001
 21
308.622256
 31
0.0
  0
LINE
  5
95
330
1F
100
AcDbEntity
  8
1
100
AcDbLine
 10
465.96671
 20
297.132521
 30
0.0
 11
454.828482
 21
296.743847
 31
0.0
  0
LINE
  5
96
330
1F
100
AcDbEntity
  8
1
100
AcDbLine
 10
455.83108
 20
298.618415
 30
0.0
 11
455.5103619999999
 21
307.6048140000001
 31
0.0
  0
LINE
  5
97
330
1F
100
AcDbEntity
  8
1
100
AcDbLine
 10
464.823994
 20
298.932227
 30
0.0
 11
455.83108
 21
298.618415
 31
0.0
  0
LINE
  5
98
330
1F
100
AcDbEntity
  8
1
100
AcDbLine
 10
464.5032759999999
 20
307.918626
 30
0.0
 11
464.823994
 21
298.932227
 31
0.0
  0
LINE
  5
99
330
1F
100
AcDbEntity
  8
1
100
AcDbLine
 10
455.5103619999999
 20
307.6048140000001
 30
0.0
 11
464.5032759999999
 21
307.918626
 31
0.0
  0
LINE
  5
9A
330
1F
100
AcDbEntity
  8
1
100
AcDbLine
 10
465.3208769999999
 20
278.770842
 30
0.0
 11
465.562895
 21
278.904995
 31
0.0
  0
LINE
  5
9B
330
1F
100
AcDbEntity
  8
1
100
AcDbLine
 10
466.029945
 20
289.549623
 30
0.0
 11
466.68309
 21
289.157174
 31
0.0
  0
LINE
  5
9C
330
1F
100
AcDbEntity
  8
1
100
AcDbLine
 10
466.5062139999999
 20
277.928159
 30
0.0
 11
465.501887
 21
277.371451
 31
0.0
  0
LINE
  5
9D
330
1F
100
AcDbEntity
  8
1
100
AcDbLine
 10
466.025343
 20
278.426115
 30
0.0
 11
466.5062139999999
 21
277.928159
 31
0.0
  0
LINE
  5
9E
330
1F
100
AcDbEntity
  8
1
100
AcDbLine
 10
467.253269
 20
279.171467
 30
0.0
 11
466.5062139999999
 21
277.928159
 31
0.0
  0
LINE
  5
9F
330
1F
100
AcDbEntity
  8
1
100
AcDbLine
 10
466.185134
 20
288.676303
 30
0.0
 11
466.68309
 21
289.157174
 31
0.0
  0
LINE
  5
A0
330
1F
100
AcDbEntity
  8
1
100
AcDbLine
 10
466.68309
 20
289.157174
 30
0.0
 11
467.404842
 21
287.855099
 31
0.0
  0
LINE
  5
A1
330
1F
100
AcDbEntity
  8
1
100
AcDbLine
 10
466.7331639999999
 20
287.68763
 30
0.0
 11
467.404842
 21
287.855099
 31
0.0
  0
LINE
  5
A2
330
1F
100
AcDbEntity
  8
1
100
AcDbLine
 10
466.587844
 20
279.362274
 30
0.0
 11
467.253269
 21
279.171467
 31
0.0
  0
LINE
  5
A3
330
1F
100
AcDbEntity
  8
1
100
AcDbLine
 10
467.404842
 20
287.855099
 30
0.0
 11
467.253269
 21
279.171467
 31
0.0
  0
LINE
  5
A4
330
1F
100
AcDbEntity
  8
1
100
AcDbLine
 10
466.7331639999999
 20
287.68763
 30
0.0
 11
466.587844
 21
279.362274
 31
0.0
  0
LINE
  5
A5
330
1F
100
AcDbEntity
  8
1
100
AcDbLine
 10
466.7331639999999
 20
287.68763
 30
0.0
 11
466.0872179999999
 21
287.526578
 31
0.0
  0
LINE
  5
A6
330
1F
100
AcDbEntity
  8
1
100
AcDbLine
 10
466.185134
 20
288.676303
 30
0.0
 11
466.7331639999999
 21
287.68763
 31
0.0
  0
LINE
  5
A7
330
1F
100
AcDbEntity
  8
1
100
AcDbLine
 10
466.587844
 20
279.362274
 30
0.0
 11
465.947912
 21
279.545771
 31
0.0
  0
LINE
  5
A8
330
1F
100
AcDbEntity
  8
1
100
AcDbLine
 10
466.587844
 20
279.362274
 30
0.0
 11
466.025343
 21
278.426115
 31
0.0
  0
LINE
  5
A9
330
1F
100
AcDbEntity
  8
1
100
AcDbLine
 10
466.025343
 20
278.426115
 30
0.0
 11
465.562895
 21
278.904995
 31
0.0
  0
LINE
  5
AA
330
1F
100
AcDbEntity
  8
1
100
AcDbLine
 10
466.025343
 20
278.426115
 30
0.0
 11
465.2379739999999
 21
277.989669
 31
0.0
  0
LINE
  5
AB
330
1F
100
AcDbEntity
  8
1
100
AcDbLine
 10
465.562895
 20
278.904995
 30
0.0
 11
465.947912
 21
279.545771
 31
0.0
  0
LINE
  5
AC
330
1F
100
AcDbEntity
  8
1
100
AcDbLine
 10
465.947912
 20
279.545771
 30
0.0
 11
466.0872179999999
 21
287.526578
 31
0.0
  0
LINE
  5
AD
330
1F
100
AcDbEntity
  8
1
100
AcDbLine
 10
466.0872179999999
 20
287.526578
 30
0.0
 11
465.722844
 21
288.183926
 31
0.0
  0
LINE
  5
AE
330
1F
100
AcDbEntity
  8
1
100
AcDbLine
 10
466.185134
 20
288.676303
 30
0.0
 11
465.7228429999999
 21
288.229874
 31
0.0
  0
LINE
  5
AF
330
1F
100
AcDbEntity
  8
1
100
AcDbLine
 10
465.722832
 20
288.954082
 30
0.0
 11
466.185134
 21
288.676303
 31
0.0
  0
LINE
  5
B0
330
1F
100
AcDbEntity
  8
1
100
AcDbLine
 10
447.66338
 20
297.922853
 30
0.0
 11
446.868398
 21
298.376799
 31
0.0
  0
LINE
  5
B1
330
1F
100
AcDbEntity
  8
1
100
AcDbLine
 10
453.9185240000001
 20
309.249931
 30
0.0
 11
453.913315
 21
309.402087
 31
0.0
  0
LINE
  5
B2
330
1F
100
AcDbEntity
  8
1
100
AcDbLine
 10
457.384005
 20
296.62889
 30
0.0
 11
466.081308
 21
296.932386
 31
0.0
  0
LINE
  5
B3
330
1F
100
AcDbEntity
  8
1
100
AcDbLine
 10
466.294842
 20
290.089334
 30
0.0
 11
466.294842
 21
290.289364
 31
0.0
  0
LINE
  5
B4
330
1F
100
AcDbEntity
  8
1
100
AcDbLine
 10
466.082892
 20
296.666672
 30
0.0
 11
466.081308
 21
296.932386
 31
0.0
  0
LINE
  5
B5
330
1F
100
AcDbEntity
  8
1
100
AcDbLine
 10
453.64914
 20
308.815309
 30
0.0
 11
453.630808
 21
309.350839
 31
0.0
  0
LINE
  5
B6
330
1F
100
AcDbEntity
  8
1
100
AcDbLine
 10
466.00957
 20
296.141439
 30
0.0
 11
456.29574
 21
295.802471
 31
0.0
  0
LINE
  5
B7
330
1F
100
AcDbEntity
  8
1
100
AcDbLine
 10
466.00957
 20
296.141439
 30
0.0
 11
463.4444349999999
 21
291.891721
 31
0.0
  0
LINE
  5
B8
330
1F
100
AcDbEntity
  8
1
100
AcDbLine
 10
465.430932
 20
277.486748
 30
0.0
 11
465.2551619999999
 21
277.48956
 31
0.0
  0
LINE
  5
B9
330
1F
100
AcDbEntity
  8
1
100
AcDbLine
 10
465.237996
 20
277.989899
 30
0.0
 11
465.722841
 21
282.557994
 31
0.0
  0
LINE
  5
BA
330
1F
100
AcDbEntity
  8
1
100
AcDbLine
 10
465.722841
 20
282.557994
 30
0.0
 11
465.722841
 21
288.97151
 31
0.0
  0
LINE
  5
BB
330
1F
100
AcDbEntity
  8
1
100
AcDbLine
 10
465.7931109999999
 20
289.470359
 30
0.0
 11
465.96918
 21
289.467286
 31
0.0
  0
LINE
  5
BC
330
1F
100
AcDbEntity
  8
1
100
AcDbLine
 10
466.00957
 20
296.141439
 30
0.0
 11
466.0158379999999
 21
296.143532
 31
0.0
  0
LINE
  5
BD
330
1F
100
AcDbEntity
  8
1
100
AcDbLine
 10
466.123328
 20
296.946413
 30
0.0
 11
457.389237
 21
296.641633
 31
0.0
  0
LINE
  5
BE
330
1F
100
AcDbEntity
  8
1
100
AcDbLine
 10
457.384005
 20
296.62889
 30
0.0
 11
457.389237
 21
296.641633
 31
0.0
  0
LINE
  5
BF
330
1F
100
AcDbEntity
  8
1
100
AcDbLine
 10
465.96918
 20
289.467286
 30
0.0
 11
466.25268
 21
289.851459
 31
0.0
  0
LINE
  5
C0
330
1F
100
AcDbEntity
  8
1
100
AcDbLine
 10
466.25268
 20
290.09007
 30
0.0
 11
466.25268
 21
289.851459
 31
0.0
  0
LINE
  5
C1
330
1F
100
AcDbEntity
  8
1
100
AcDbLine
 10
466.25268
 20
290.09007
 30
0.0
 11
466.294842
 21
290.089334
 31
0.0
  0
LINE
  5
C2
330
1F
100
AcDbEntity
  8
1
100
AcDbLine
 10
466.294842
 20
297.230315
 30
0.0
 11
466.294842
 21
290.289364
 31
0.0
  0
LINE
  5
C3
330
1F
100
AcDbEntity
  8
1
100
AcDbLine
 10
466.123328
 20
296.946413
 30
0.0
 11
466.1219919999999
 21
297.170568
 31
0.0
  0
LINE
  5
C4
330
1F
100
AcDbEntity
  8
1
100
AcDbLine
 10
466.123328
 20
296.946413
 30
0.0
 11
466.081308
 21
296.932386
 31
0.0
  0
LINE
  5
C5
330
1F
100
AcDbEntity
  8
1
100
AcDbLine
 10
464.793001
 20
268.407994
 30
0.0
 11
465.6895309999999
 21
276.854893
 31
0.0
  0
LINE
  5
C6
330
1F
100
AcDbEntity
  8
1
100
AcDbLine
 10
465.6895309999999
 20
276.854893
 30
0.0
 11
465.64744
 21
276.855566
 31
0.0
  0
LINE
  5
C7
330
1F
100
AcDbEntity
  8
1
100
AcDbLine
 10
465.6727219999999
 20
277.093767
 30
0.0
 11
465.64744
 21
276.855566
 31
0.0
  0
LINE
  5
C8
330
1F
100
AcDbEntity
  8
1
100
AcDbLine
 10
465.6727219999999
 20
277.093767
 30
0.0
 11
465.430932
 21
277.486748
 31
0.0
  0
LINE
  5
C9
330
1F
100
AcDbEntity
  8
1
100
AcDbLine
 10
463.5554579999999
 20
282.557994
 30
0.0
 11
465.722841
 21
282.557994
 31
0.0
  0
LINE
  5
CA
330
1F
100
AcDbEntity
  8
SK1
100
AcDbLine
 10
206.404842
 20
308.907994
 30
0.0
 11
206.404842
 21
268.907994
 31
0.0
  0
LINE
  5
CB
330
1F
100
AcDbEntity
  8
SK1
100
AcDbLine
 10
204.404842
 20
306.907994
 30
0.0
 11
204.404842
 21
270.907994
 31
0.0
  0
LINE
  5
D0
330
1F
100
AcDbEntity
  8
80
100
AcDbLine
 10
275.404416
 20
288.907994
 30
0.0
 11
273.405268
 21
288.907994
 31
0.0
  0
LINE
  5
D1
330
1F
100
AcDbEntity
  8
1
100
AcDbLine
 10
453.7256269999999
 20
300.027201
 30
0.0
 11
453.720394
 21
300.014458
 31
0.0
  0
LINE
  5
D2
330
1F
100
AcDbEntity
  8
1
100
AcDbLine
 10
453.7256269999999
 20
300.027201
 30
0.0
 11
453.406445
 21
309.351131
 31
0.0
  0
LINE
  5
D3
330
1F
100
AcDbEntity
  8
1
100
AcDbLine
 10
453.401616
 20
309.326596
 30
0.0
 11
453.720394
 21
300.014458
 31
0.0
  0
LINE
  5
D4
330
1F
100
AcDbEntity
  8
1
100
AcDbLine
 10
464.793001
 20
268.407994
 30
0.0
 11
441.78828
 21
268.407994
 31
0.0
  0
LINE
  5
D5
330
1F
100
AcDbEntity
  8
1
100
AcDbLine
 10
274.904842
 20
263.907994
 30
0.0
 11
274.904842
 21
288.907994
 31
0.0
  0
LINE
  5
D6
330
1F
100
AcDbEntity
  8
1
100
AcDbLine
 10
274.904842
 20
288.907994
 30
0.0
 11
274.904842
 21
313.907994
 31
0.0
  0
LINE
  5
D7
330
1F
100
AcDbEntity
  8
1
100
AcDbLine
 10
456.6904629999999
 20
304.502359
 30
0.0
 11
456.674333
 21
304.463077
 31
0.0
  0
LINE
  5
D8
330
1F
100
AcDbEntity
  8
1
100
AcDbLine
 10
463.334709
 20
301.72823
 30
0.0
 11
463.3508389999999
 21
301.767512
 31
0.0
  0
LINE
  5
D9
330
1F
100
AcDbEntity
  8
SK1
100
AcDbLine
 10
204.404842
 20
270.907994
 30
0.0
 11
206.404842
 21
268.907994
 31
0.0
  0
LINE
  5
DA
330
1F
100
AcDbEntity
  8
SK1
100
AcDbLine
 10
206.404842
 20
308.907994
 30
0.0
 11
204.404842
 21
306.907994
 31
0.0
  0
LINE
  5
DB
330
1F
100
AcDbEntity
  8
SK1
100
AcDbLine
 10
274.404842
 20
308.907994
 30
0.0
 11
206.404842
 21
308.907994
 31
0.0
  0
LINE
  5
DC
330
1F
100
AcDbEntity
  8
1
100
AcDbLine
 10
274.904842
 20
263.907994
 30
0.0
 11
274.404842
 21
264.407994
 31
0.0
  0
LINE
  5
DD
330
1F
100
AcDbEntity
  8
1
100
AcDbLine
 10
274.404842
 20
313.407994
 30
0.0
 11
274.904842
 21
313.907994
 31
0.0
  0
LINE
  5
DE
330
1F
100
AcDbEntity
  8
1
100
AcDbLine
 10
279.404842
 20
313.907994
 30
0.0
 11
274.904842
 21
313.907994
 31
0.0
  0
LINE
  5
DF
330
1F
100
AcDbEntity
  8
1
100
AcDbLine
 10
466.317699
 20
309.065079
 30
0.0
 11
466.714925
 21
297.9349200000001
 31
0.0
  0
LINE
  5
E0
330
1F
100
AcDbEntity
  8
1
100
AcDbLine
 10
454.3759139999999
 20
309.424655
 30
0.0
 11
465.5141419999999
 21
309.813329
 31
0.0
  0
LINE
  5
E1
330
1F
100
AcDbEntity
  8
1
100
AcDbLine
 10
458.6536839999999
 20
303.904295
 30
0.0
 11
458.619845
 21
303.821884
 31
0.0
  0
LINE
  5
E2
330
1F
100
AcDbEntity
  8
1
100
AcDbLine
 10
458.7174339999999
 20
303.846906
 30
0.0
 11
458.6830599999999
 21
303.763191
 31
0.0
  0
LINE
  5
E3
330
1F
100
AcDbEntity
  8
1
100
AcDbLine
 10
461.4730879999999
 20
303.1177879999999
 30
0.0
 11
461.507485
 21
303.201557
 31
0.0
  0
LINE
  5
E4
330
1F
100
AcDbEntity
  8
1
100
AcDbLine
 10
458.765773
 20
302.363609
 30
0.0
 11
458.731454
 21
302.280029
 31
0.0
  0
LINE
  5
E5
330
1F
100
AcDbEntity
  8
1
100
AcDbLine
 10
458.7250459999999
 20
302.343981
 30
0.0
 11
458.6910099999999
 21
302.261091
 31
0.0
  0
LINE
  5
E6
330
1F
100
AcDbEntity
  8
1
100
AcDbLine
 10
460.781709
 20
301.808991
 30
0.0
 11
460.816049
 21
301.892622
 31
0.0
  0
LINE
  5
E7
330
1F
100
AcDbEntity
  8
1
100
AcDbLine
 10
460.820789
 20
301.76484
 30
0.0
 11
460.8547549999999
 21
301.84756
 31
0.0
  0
LINE
  5
E8
330
1F
100
AcDbEntity
  8
1
100
AcDbLine
 10
451.6889919999999
 20
296.298196
 30
0.0
 11
451.7216269999999
 21
295.34434
 31
0.0
  0
LINE
  5
E9
330
1F
100
AcDbEntity
  8
1
100
AcDbLine
 10
451.9190509999999
 20
296.241248
 30
0.0
 11
451.9223509999999
 21
296.249285
 31
0.0
  0
LINE
  5
EA
330
1F
100
AcDbEntity
  8
1
100
AcDbLine
 10
445.377399
 20
299.300042
 30
0.0
 11
447.6849139999999
 21
297.9693669999999
 31
0.0
  0
LINE
  5
EB
330
1F
100
AcDbEntity
  8
1
100
AcDbLine
 10
464.533939
 20
296.112755
 30
0.0
 11
456.287996
 21
295.8250089999999
 31
0.0
  0
LINE
  5
12D
330
1F
100
AcDbEntity
  8
NOCUT
100
AcDbLine
 10
290.52914
 20
309.407994
 30
0.0
 11
465.874376
 21
309.407994
 31
0.0
  0
LINE
  5
12E
330
1F
100
AcDbEntity
  8
NOCUT
100
AcDbLine
 10
465.874376
 20
309.407994
 30
0.0
 11
466.294842
 21
297.474505
 31
0.0
  0
LINE
  5
12F
330
1F
100
AcDbEntity
  8
NOCUT
100
AcDbLine
 10
466.294842
 20
297.474505
 30
0.0
 11
466.294842
 21
288.907994
 31
0.0
  0
LINE
  5
132
330
1F
100
AcDbEntity
  8
NOCUT
100
AcDbLine
 10
274.404842
 20
308.907994
 30
0.0
 11
206.404842
 21
308.907994
 31
0.0
  0
LINE
  5
133
330
1F
100
AcDbEntity
  8
NOCUT
100
AcDbLine
 10
279.404842
 20
313.907994
 30
0.0
 11
274.904842
 21
313.907994
 31
0.0
  0
LINE
  5
134
330
1F
100
AcDbEntity
  8
NOCUT
100
AcDbLine
 10
204.404842
 20
306.907994
 30
0.0
 11
204.404842
 21
288.907994
 31
0.0
  0
LINE
  5
139
330
1F
100
AcDbEntity
  8
NOCUT
100
AcDbLine
 10
204.404842
 20
306.907994
 30
0.0
 11
206.404842
 21
308.907994
 31
0.0
  0
LINE
  5
13A
330
1F
100
AcDbEntity
  8
NOCUT
100
AcDbLine
 10
274.404842
 20
308.907994
 30
0.0
 11
274.404842
 21
313.407994
 31
0.0
  0
LINE
  5
13B
330
1F
100
AcDbEntity
  8
NOCUT
100
AcDbLine
 10
274.404842
 20
313.407994
 30
0.0
 11
274.904842
 21
313.907994
 31
0.0
  0
ARC
  5
144
330
1F
100
AcDbEntity
  8
1
100
AcDbCircle
 10
290.52914
 20
252.407994
 30
0.0
 40
16.0
100
AcDbArc
 50
90.0
 51
134.048626
  0
ARC
  5
145
330
1F
100
AcDbEntity
  8
1
100
AcDbCircle
 10
290.52914
 20
325.407994
 30
0.0
 40
16.0
100
AcDbArc
 50
225.951374
 51
270.0
  0
CIRCLE
  5
146
330
1F
100
AcDbEntity
  8
1
100
AcDbCircle
 10
460.8131369999999
 20
283.804045
 30
0.0
 40
1.35
  0
ARC
  5
147
330
1F
100
AcDbEntity
  8
1
100
AcDbCircle
 10
460.8131369999999
 20
283.804045
 30
0.0
 40
1.75
100
AcDbArc
 50
75.0
 51
345.0
  0
ARC
  5
153
330
1F
100
AcDbEntity
  8
NOCUT
100
AcDbCircle
 10
290.52914
 20
325.407994
 30
0.0
 40
16.0
100
AcDbArc
 50
225.951374
 51
270.0
  0
ELLIPSE
  5
155
330
1F
100
AcDbEntity
  8
1
100
AcDbEllipse
 10
460.167178
 20
303.268521
 30
0.0
 11
-3.607703707055101
 21
1.481375699173194
 31
0.0
210
0.0
220
0.0
230
1.0
 40
0.9989450000000001
 41
0.0
 42
6.283185307179585
  0
ELLIPSE
  5
156
330
1F
100
AcDbEntity
  8
1
100
AcDbEllipse
 10
465.2594679999999
 20
298.511283
 30
0.0
 11
0.5172901286858324
 21
-0.4820220675800663
 31
0.0
210
0.0
220
0.0
230
0.9999999999999998
 40
0.030386
 41
1.582250604268848
 42
2.59915644437752
  0
ELLIPSE
  5
157
330
1F
100
AcDbEntity
  8
1
100
AcDbEllipse
 10
455.0657139999999
 20
308.003415
 30
0.0
 11
0.5172901284648673
 21
-0.4820220673711907
 31
0.0
210
0.0
220
0.0
230
1.0
 40
0.030386
 41
0.5653447636760856
 42
1.582250604161247
  0
ELLIPSE
  5
158
330
1F
100
AcDbEntity
  8
1
100
AcDbEllipse
 10
464.908443
 20
308.346882
 30
0.0
 11
0.4818311451046159
 21
0.5170852370058845
 31
0.0
210
0.0
220
0.0
230
1.0
 40
0.011464
 41
1.540395204027352
 42
2.557301043862788
  0
ELLIPSE
  5
159
330
1F
100
AcDbEntity
  8
1
100
AcDbEllipse
 10
455.148365
 20
293.1912759999999
 30
0.0
 11
-4.626397312732929
 21
-0.1813639307873781
 31
0.0
210
0.0
220
0.0
230
1.0
 40
0.22151
 41
1.839928763706823
 42
4.441049755880317
  0
ELLIPSE
  5
15A
330
1F
100
AcDbEntity
  8
1
100
AcDbEllipse
 10
457.637359
 20
316.572995
 30
0.0
 11
9.26590855098277
 21
19.02423508202866
 31
0.0
210
0.0
220
0.0
230
0.9999999999999998
 40
0.7593
 41
3.091757656091556
 42
3.096567619579188
  0
ELLIPSE
  5
15B
330
1F
100
AcDbEntity
  8
1
100
AcDbEllipse
 10
306.047522
 20
288.9081930000001
 30
0.0
 11
3.804240389295165
 21
20.49212710783527
 31
0.0
210
0.0
220
0.0
230
1.0
 40
0.152382
 41
4.384286593706364
 42
4.394123114058558
  0
ELLIPSE
  5
15C
330
1F
100
AcDbEntity
  8
1
100
AcDbEllipse
 10
454.589366
 20
288.907994
 30
0.0
 11
0.6857831947872634
 21
-20.4999958636472
 31
0.0
210
0.0
220
0.0
230
1.0
 40
0.018861
 41
3.017078378845899
 42
3.116956408842601
  0
ELLIPSE
  5
15D
330
1F
100
AcDbEntity
  8
1
100
AcDbEllipse
 10
455.664464
 20
298.44299
 30
0.0
 11
2.312630581445579
 21
-0.9495998071623043
 31
0.0
210
0.0
220
0.0
230
0.9999999999999998
 40
0.9989450000000001
 41
2.851121146219605
 42
4.499381364634893
  0
ELLIPSE
  5
15E
330
1F
100
AcDbEntity
  8
1
100
AcDbEllipse
 10
454.425095
 20
288.907994
 30
0.0
 11
0.5927356036033075
 21
-20.49983123255796
 31
0.0
210
0.0
220
0.0
230
1.0
 40
0.140335
 41
3.113529718685066
 42
3.21222523120366
  0
ELLIPSE
  5
15F
330
1F
100
AcDbEntity
  8
1
100
AcDbEllipse
 10
269.721048
 20
288.907986
 30
0.0
 11
536.2753791672385
 21
19.99144363917964
 31
0.0
210
0.0
220
0.0
230
1.0
 40
0.008462
 41
5.067698128492363
 42
5.081669396951896
  0
ELLIPSE
  5
160
330
1F
100
AcDbEntity
  8
1
100
AcDbEllipse
 10
465.308147
 20
277.988776
 30
0.0
 11
0.0538770024347239
 21
0.4991611425064575
 31
0.0
210
0.0
220
0.0
230
1.0
 40
0.139171
 41
1.583568179242694
 42
3.154364506043599
  0
ELLIPSE
  5
161
330
1F
100
AcDbEntity
  8
1
100
AcDbEllipse
 10
465.7931109999999
 20
288.970283
 30
0.0
 11
0.0001758288816849
 21
-0.5000776676616179
 31
0.0
210
0.0
220
0.0
230
0.9999999999999998
 40
0.140519
 41
3.139090475969147
 42
4.709886802772837
  0
ELLIPSE
  5
162
330
1F
100
AcDbEntity
  8
1
100
AcDbEllipse
 10
338.62452
 20
288.907994
 30
0.0
 11
85.35449965377067
 21
-15.84566784966558
 31
0.0
210
0.0
220
0.0
230
1.0
 40
0.15238
 41
4.261847521848623
 42
4.371627614548376
  0
ELLIPSE
  5
163
330
1F
100
AcDbEntity
  8
1
100
AcDbEllipse
 10
455.669696
 20
298.455733
 30
0.0
 11
-2.312630581445579
 21
0.9495998071623043
 31
0.0
210
0.0
220
0.0
230
0.9999999999999998
 40
0.9989450000000001
 41
2.718669590387857
 42
2.827974253016888
  0
ELLIPSE
  5
164
330
1F
100
AcDbEntity
  8
1
100
AcDbEllipse
 10
466.012859
 20
296.643294
 30
0.0
 11
0.0003023402397703
 21
0.5003086928709079
 31
0.0
210
0.0
220
0.0
230
0.9999999999999996
 40
0.140105
 41
3.188421814549167
 42
4.759218141333835
  0
ELLIPSE
  5
165
330
1F
100
AcDbEntity
  8
1
100
AcDbEllipse
 10
466.9688129999999
 20
288.907994
 30
0.0
 11
2.218894773113015
 21
20.49768155681069
 31
0.0
210
0.0
220
0.0
230
1.0
 40
0.138944
 41
1.900772571514636
 42
3.156632395651116
  0
ELLIPSE
  5
166
330
1F
100
AcDbEntity
  8
1
100
AcDbEllipse
 10
466.294842
 20
288.907994
 30
0.0
 11
0.0
 21
20.49999999991795
 31
0.0
210
0.0
220
0.0
230
1.0
 40
0.140541
 41
1.424729810964108
 42
1.885732829455306
  0
ELLIPSE
  5
167
330
1F
100
AcDbEntity
  8
1
100
AcDbEllipse
 10
460.004521
 20
303.095654
 30
0.0
 11
3.330188037281633
 21
-1.367423722313719
 31
0.0
210
0.0
220
0.0
230
0.9999999999999998
 40
0.9989450000000001
 41
0.0
 42
6.283185307179585
  0
ELLIPSE
  5
168
330
1F
100
AcDbEntity
  8
1
100
AcDbEllipse
 10
458.616115
 20
303.695462
 30
0.0
 11
-0.0881735944969751
 21
0.0362053624140856
 31
0.0
210
0.0
220
0.0
230
1.0
 40
0.9989450000000001
 41
3.936959087041098
 42
4.613691003921527
  0
ELLIPSE
  5
169
330
1F
100
AcDbEntity
  8
1
100
AcDbEllipse
 10
458.705474
 20
303.86363
 30
0.0
 11
-0.0881735944969749
 21
0.0362053624140856
 31
0.0
210
0.0
220
0.0
230
1.0
 40
0.9989450000000001
 41
0.2717676578529007
 42
1.472098350331734
  0
ELLIPSE
  5
16A
330
1F
100
AcDbEntity
  8
1
100
AcDbEllipse
 10
459.2074889999999
 20
303.804051
 30
0.0
 11
-0.5558587207228108
 21
0.2282436884830616
 31
0.0
210
0.0
220
0.0
230
0.9999999999999998
 40
0.9989450000000001
 41
5.290422920802297
 42
6.554952965032502
  0
ELLIPSE
  5
16B
330
1F
100
AcDbEntity
  8
1
100
AcDbEllipse
 10
459.112626
 20
304.300267
 30
0.0
 11
-0.088173594496977
 21
0.0362053624140864
 31
0.0
210
0.0
220
0.0
230
1.0
 40
0.9989450000000001
 41
4.090092228322973
 42
5.290422920802324
  0
ELLIPSE
  5
16C
330
1F
100
AcDbEntity
  8
1
100
AcDbEllipse
 10
459.274194
 20
304.401197
 30
0.0
 11
-0.088173594496977
 21
0.0362053624140864
 31
0.0
210
0.0
220
0.0
230
1.0
 40
0.9989450000000001
 41
0.9484995747336643
 42
1.62523149161431
  0
ELLIPSE
  5
16D
330
1F
100
AcDbEntity
  8
1
100
AcDbEllipse
 10
459.4402999999999
 20
304.878145
 30
0.0
 11
-0.5558587207228105
 21
0.2282436884830615
 31
0.0
210
0.0
220
0.0
230
0.9999999999999998
 40
0.9989450000000001
 41
1.625231491614186
 42
2.889761535844387
  0
ELLIPSE
  5
16E
330
1F
100
AcDbEntity
  8
1
100
AcDbEllipse
 10
459.845432
 20
304.575751
 30
0.0
 11
-0.0881735944969751
 21
0.0362053624140856
 31
0.0
210
0.0
220
0.0
230
1.0
 40
0.9989450000000001
 41
2.889761535844352
 42
3.566493452724753
  0
ELLIPSE
  5
16F
330
1F
100
AcDbEntity
  8
1
100
AcDbEllipse
 10
460.035916
 20
304.582398
 30
0.0
 11
-0.0881735944969749
 21
0.0362053624140856
 31
0.0
210
0.0
220
0.0
230
1.0
 40
0.9989450000000001
 41
5.507755413835964
 42
6.708086106315089
  0
ELLIPSE
  5
170
330
1F
100
AcDbEntity
  8
1
100
AcDbEllipse
 10
460.2356099999999
 20
304.118214
 30
0.0
 11
-0.5558587207228108
 21
0.2282436884830616
 31
0.0
210
0.0
220
0.0
230
0.9999999999999998
 40
0.9989450000000001
 41
4.243225369605736
 42
5.507755413835873
  0
ELLIPSE
  5
171
330
1F
100
AcDbEntity
  8
1
100
AcDbEllipse
 10
460.6181769999999
 20
304.448096
 30
0.0
 11
-0.088173594496977
 21
0.0362053624140864
 31
0.0
210
0.0
220
0.0
230
1.0
 40
0.9989450000000001
 41
3.042894677126687
 42
4.243225369606252
  0
ELLIPSE
  5
172
330
1F
100
AcDbEntity
  8
1
100
AcDbEllipse
 10
460.7865379999999
 20
304.358679
 30
0.0
 11
-0.088173594496977
 21
0.0362053624140864
 31
0.0
210
0.0
220
0.0
230
1.0
 40
0.9989450000000001
 41
6.184487330716392
 42
6.86121924759713
  0
ELLIPSE
  5
173
330
1F
100
AcDbEntity
  8
1
100
AcDbEllipse
 10
461.283057
 20
304.453103
 30
0.0
 11
-0.5558587207228105
 21
0.2282436884830615
 31
0.0
210
0.0
220
0.0
230
0.9999999999999998
 40
0.9989450000000001
 41
0.5780339404175746
 42
1.842563984647691
  0
ELLIPSE
  5
174
330
1F
100
AcDbEntity
  8
1
100
AcDbEllipse
 10
461.223805
 20
303.951509
 30
0.0
 11
-0.0881735944969751
 21
0.0362053624140856
 31
0.0
210
0.0
220
0.0
230
1.0
 40
0.9989450000000001
 41
1.842563984647588
 42
2.519295901527945
  0
ELLIPSE
  5
175
330
1F
100
AcDbEntity
  8
1
100
AcDbEllipse
 10
461.3249309999999
 20
303.789987
 30
0.0
 11
-0.0881735944969749
 21
0.0362053624140856
 31
0.0
210
0.0
220
0.0
230
1.0
 40
0.9989450000000001
 41
4.46055786263941
 42
5.660888555118397
  0
ELLIPSE
  5
176
330
1F
100
AcDbEntity
  8
1
100
AcDbEllipse
 10
461.022609
 20
303.385383
 30
0.0
 11
-0.5558587207228108
 21
0.2282436884830616
 31
0.0
210
0.0
220
0.0
230
0.9999999999999998
 40
0.9989450000000001
 41
3.196027818409099
 42
4.460557862639295
  0
ELLIPSE
  5
177
330
1F
100
AcDbEntity
  8
1
100
AcDbEllipse
 10
461.5000389999999
 20
303.219048
 30
0.0
 11
-0.088173594496977
 21
0.0362053624140864
 31
0.0
210
0.0
220
0.0
230
1.0
 40
0.9989450000000001
 41
1.995697125930474
 42
3.196027818409206
  0
ELLIPSE
  5
178
330
1F
100
AcDbEntity
  8
1
100
AcDbEllipse
 10
461.506833
 20
303.028702
 30
0.0
 11
-0.088173594496977
 21
0.0362053624140864
 31
0.0
210
0.0
220
0.0
230
1.0
 40
0.9989450000000001
 41
5.137289779519996
 42
5.814021696400732
  0
ELLIPSE
  5
179
330
1F
100
AcDbEntity
  8
1
100
AcDbEllipse
 10
461.8372459999999
 20
302.646177
 30
0.0
 11
-0.5558587207228105
 21
0.2282436884830615
 31
0.0
210
0.0
220
0.0
230
0.9999999999999998
 40
0.9989450000000001
 41
5.814021696400614
 42
7.078551740630811
  0
ELLIPSE
  5
17A
330
1F
100
AcDbEntity
  8
1
100
AcDbEllipse
 10
455.750975
 20
298.653677
 30
0.0
 11
-2.312630581445577
 21
0.9495998071623041
 31
0.0
210
0.0
220
0.0
230
1.0
 40
0.9989450000000001
 41
0.0455535333963891
 42
1.995697066393608
  0
ELLIPSE
  5
17B
330
1F
100
AcDbEntity
  8
1
100
AcDbEllipse
 10
455.750975
 20
298.653677
 30
0.0
 11
-2.312630581445577
 21
0.9495998071623041
 31
0.0
210
0.0
220
0.0
230
1.0
 40
0.9989450000000001
 41
1.995697066393608
 42
2.716594357812536
  0
ELLIPSE
  5
17C
330
1F
100
AcDbEntity
  8
1
100
AcDbEllipse
 10
455.669696
 20
298.455733
 30
0.0
 11
-2.312630581445579
 21
0.9495998071623043
 31
0.0
210
0.0
220
0.0
230
0.9999999999999998
 40
0.9989450000000001
 41
5.873330011916228
 42
5.992713799809405
  0
ELLIPSE
  5
17D
330
1F
100
AcDbEntity
  8
1
100
AcDbEllipse
 10
455.664464
 20
298.44299
 30
0.0
 11
2.312630581445579
 21
-0.9495998071623043
 31
0.0
210
0.0
220
0.0
230
0.9999999999999998
 40
0.9989450000000001
 41
5.680258448756007
 42
5.860262243977639
  0
ELLIPSE
  5
17E
330
1F
100
AcDbEntity
  8
1
100
AcDbEllipse
 10
454.1189019999999
 20
288.907724
 30
0.0
 11
0.6857926180830758
 21
-20.5002650739418
 31
0.0
210
0.0
220
0.0
230
1.0
 40
0.018861
 41
3.215460416924899
 42
3.230104036086291
  0
ELLIPSE
  5
17F
330
1F
100
AcDbEntity
  8
1
100
AcDbEllipse
 10
398.607411
 20
288.909064
 30
0.0
 11
1175.128182779438
 21
-0.8712079658151822
 31
0.0
210
0.0
220
0.0
230
0.9999999999999998
 40
0.017428
 41
1.524164055297244
 42
1.52780755916243
  0
ELLIPSE
  5
180
330
1F
100
AcDbEntity
  8
1
100
AcDbEllipse
 10
455.712659
 20
311.879688
 30
0.0
 11
-14.89334094450952
 21
6.115422758125236
 31
0.0
210
0.0
220
0.0
230
0.9999999999999998
 40
0.9989450000000001
 41
1.437191765291979
 42
1.995697125930215
  0
ELLIPSE
  5
181
330
1F
100
AcDbEntity
  8
1
100
AcDbEllipse
 10
461.3728619999999
 20
302.446978
 30
0.0
 11
-0.0881735944969751
 21
0.0362053624140856
 31
0.0
210
0.0
220
0.0
230
1.0
 40
0.9989450000000001
 41
0.7953664334513057
 42
1.472098350332328
  0
ELLIPSE
  5
182
330
1F
100
AcDbEntity
  8
1
100
AcDbEllipse
 10
461.283503
 20
302.278809
 30
0.0
 11
-0.0881735944969749
 21
0.0362053624140856
 31
0.0
210
0.0
220
0.0
230
1.0
 40
0.9989450000000001
 41
3.413360311442773
 42
4.613691003921823
  0
ELLIPSE
  5
183
330
1F
100
AcDbEntity
  8
1
100
AcDbEllipse
 10
460.781487
 20
302.338389
 30
0.0
 11
-0.5558587207228108
 21
0.2282436884830616
 31
0.0
210
0.0
220
0.0
230
0.9999999999999998
 40
0.9989450000000001
 41
2.148830267212504
 42
3.413360311442673
  0
ELLIPSE
  5
184
330
1F
100
AcDbEntity
  8
1
100
AcDbEllipse
 10
460.87635
 20
301.842172
 30
0.0
 11
-0.088173594496977
 21
0.0362053624140864
 31
0.0
210
0.0
220
0.0
230
1.0
 40
0.9989450000000001
 41
0.9484995747332481
 42
2.148830267212361
  0
ELLIPSE
  5
185
330
1F
100
AcDbEntity
  8
1
100
AcDbEllipse
 10
460.714782
 20
301.741242
 30
0.0
 11
-0.088173594496977
 21
0.0362053624140864
 31
0.0
210
0.0
220
0.0
230
1.0
 40
0.9989450000000001
 41
4.090092228323543
 42
4.76682414520412
  0
ELLIPSE
  5
186
330
1F
100
AcDbEntity
  8
1
100
AcDbEllipse
 10
460.5486769999999
 20
301.264294
 30
0.0
 11
-0.5558587207228105
 21
0.2282436884830615
 31
0.0
210
0.0
220
0.0
230
0.9999999999999998
 40
0.9989450000000001
 41
4.766824145203982
 42
6.031354189434214
  0
ELLIPSE
  5
187
330
1F
100
AcDbEntity
  8
1
100
AcDbEllipse
 10
460.143545
 20
301.566689
 30
0.0
 11
-0.0881735944969751
 21
0.0362053624140856
 31
0.0
210
0.0
220
0.0
230
1.0
 40
0.9989450000000001
 41
6.031354189433852
 42
6.708086106314942
  0
ELLIPSE
  5
188
330
1F
100
AcDbEntity
  8
1
100
AcDbEllipse
 10
459.9530599999999
 20
301.560042
 30
0.0
 11
-0.0881735944969749
 21
0.0362053624140856
 31
0.0
210
0.0
220
0.0
230
1.0
 40
0.9989450000000001
 41
2.366162760245646
 42
3.566493452725011
  0
ELLIPSE
  5
189
330
1F
100
AcDbEntity
  8
1
100
AcDbEllipse
 10
459.753366
 20
302.024225
 30
0.0
 11
-0.5558587207228108
 21
0.2282436884830616
 31
0.0
210
0.0
220
0.0
230
0.9999999999999998
 40
0.9989450000000001
 41
1.101632716015889
 42
2.366162760246063
  0
ELLIPSE
  5
18A
330
1F
100
AcDbEntity
  8
1
100
AcDbEllipse
 10
459.370799
 20
301.694343
 30
0.0
 11
-0.088173594496977
 21
0.0362053624140864
 31
0.0
210
0.0
220
0.0
230
1.0
 40
0.9989450000000001
 41
6.184487330716361
 42
7.384818023195513
  0
ELLIPSE
  5
18B
330
1F
100
AcDbEntity
  8
1
100
AcDbEllipse
 10
459.2024379999999
 20
301.78376
 30
0.0
 11
-0.088173594496977
 21
0.0362053624140864
 31
0.0
210
0.0
220
0.0
230
1.0
 40
0.9989450000000001
 41
3.042894677126568
 42
3.719626594007299
  0
ELLIPSE
  5
18C
330
1F
100
AcDbEntity
  8
1
100
AcDbEllipse
 10
458.705919
 20
301.689336
 30
0.0
 11
-0.5558587207228105
 21
0.2282436884830615
 31
0.0
210
0.0
220
0.0
230
0.9999999999999998
 40
0.9989450000000001
 41
3.719626594007392
 42
4.984156638237529
  0
ELLIPSE
  5
18D
330
1F
100
AcDbEntity
  8
1
100
AcDbEllipse
 10
458.765171
 20
302.190931
 30
0.0
 11
-0.0881735944969751
 21
0.0362053624140856
 31
0.0
210
0.0
220
0.0
230
1.0
 40
0.9989450000000001
 41
4.98415663823746
 42
5.660888555117981
  0
ELLIPSE
  5
18E
330
1F
100
AcDbEntity
  8
1
100
AcDbEllipse
 10
458.664045
 20
302.352452
 30
0.0
 11
-0.0881735944969749
 21
0.0362053624140856
 31
0.0
210
0.0
220
0.0
230
1.0
 40
0.9989450000000001
 41
1.318965209049327
 42
2.519295901528483
  0
ELLIPSE
  5
18F
330
1F
100
AcDbEntity
  8
1
100
AcDbEllipse
 10
458.966367
 20
302.757056
 30
0.0
 11
-0.5558587207228108
 21
0.2282436884830616
 31
0.0
210
0.0
220
0.0
230
0.9999999999999998
 40
0.9989450000000001
 41
0.0544351648193072
 42
1.318965209049508
  0
ELLIPSE
  5
190
330
1F
100
AcDbEntity
  8
1
100
AcDbEllipse
 10
458.4889369999999
 20
302.923391
 30
0.0
 11
-0.088173594496977
 21
0.0362053624140864
 31
0.0
210
0.0
220
0.0
230
1.0
 40
0.9989450000000001
 41
5.137289779519996
 42
6.337620471999014
  0
ELLIPSE
  5
191
330
1F
100
AcDbEntity
  8
1
100
AcDbEllipse
 10
458.482144
 20
303.113738
 30
0.0
 11
-0.088173594496977
 21
0.0362053624140864
 31
0.0
210
0.0
220
0.0
230
1.0
 40
0.9989450000000001
 41
1.99569712593014
 42
2.672429042810806
  0
ELLIPSE
  5
192
330
1F
100
AcDbEntity
  8
1
100
AcDbEllipse
 10
458.1517299999999
 20
303.496262
 30
0.0
 11
-0.5558587207228105
 21
0.2282436884830615
 31
0.0
210
0.0
220
0.0
230
0.9999999999999998
 40
0.9989450000000001
 41
2.672429042810779
 42
3.936959087041017
  0
ELLIPSE
  5
193
330
1F
100
AcDbEntity
  8
1
100
AcDbEllipse
 10
459.9944879999999
 20
303.07122
 30
0.0
 11
1.942609688414285
 21
-0.7976638380163359
 31
0.0
210
0.0
220
0.0
230
1.0
 40
0.9989450000000001
 41
0.0
 42
6.283185307179585
  0
ELLIPSE
  5
194
330
1F
100
AcDbEntity
  8
1
100
AcDbEllipse
 10
460.1898519999999
 20
303.323741
 30
0.0
 11
3.464555922182345
 21
-1.422597133326369
 31
0.0
210
0.0
220
0.0
230
1.0
 40
0.9989450000000001
 41
1.995697163335083
 42
3.400087148066913
  0
ELLIPSE
  5
195
330
1F
100
AcDbEntity
  8
1
100
AcDbEllipse
 10
460.1898519999999
 20
303.323741
 30
0.0
 11
3.464555922182345
 21
-1.422597133326369
 31
0.0
210
0.0
220
0.0
230
1.0
 40
0.9989450000000001
 41
5.439766288912811
 42
6.283185307179585
  0
ELLIPSE
  5
196
330
1F
100
AcDbEntity
  8
1
100
AcDbEllipse
 10
460.1898519999999
 20
303.323741
 30
0.0
 11
3.464555922182345
 21
-1.422597133326369
 31
0.0
210
0.0
220
0.0
230
1.0
 40
0.9989450000000001
 41
0.0
 42
1.995697223836578
  0
ELLIPSE
  5
197
330
1F
100
AcDbEntity
  8
1
100
AcDbEllipse
 10
455.4167389999999
 20
298.167816
 30
0.0
 11
0.4818311447693028
 21
0.51708523665034
 31
0.0
210
0.0
220
0.0
230
1.0
 40
0.011464
 41
0.5234893632087561
 42
1.540395203634037
  0
ELLIPSE
  5
198
330
1F
100
AcDbEntity
  8
1
100
AcDbEllipse
 10
460.1700559999999
 20
303.275529
 30
0.0
 11
3.519580646398673
 21
-1.445191086690215
 31
0.0
210
0.0
220
0.0
230
1.0
 40
0.9989450000000001
 41
1.995697072769075
 42
3.796909553668287
  0
ELLIPSE
  5
199
330
1F
100
AcDbEntity
  8
1
100
AcDbEllipse
 10
460.1700559999999
 20
303.275529
 30
0.0
 11
3.519580646398673
 21
-1.445191086690215
 31
0.0
210
0.0
220
0.0
230
1.0
 40
0.9989450000000001
 41
4.92012723461532
 42
6.283185307179585
  0
ELLIPSE
  5
19A
330
1F
100
AcDbEntity
  8
1
100
AcDbEllipse
 10
460.1700559999999
 20
303.275529
 30
0.0
 11
3.519580646398673
 21
-1.445191086690215
 31
0.0
210
0.0
220
0.0
230
1.0
 40
0.9989450000000001
 41
0.0
 42
1.995697250526299
  0
ELLIPSE
  5
19B
330
1F
100
AcDbEntity
  8
1
100
AcDbEllipse
 10
460.0206509999999
 20
303.134936
 30
0.0
 11
-3.330188037281633
 21
1.367423722313719
 31
0.0
210
0.0
220
0.0
230
0.9999999999999998
 40
0.9989450000000001
 41
3.141494897191503
 42
5.922688047952392
  0
ELLIPSE
  5
19C
330
1F
100
AcDbEntity
  8
1
100
AcDbEllipse
 10
460.0206509999999
 20
303.134936
 30
0.0
 11
-3.330188037281633
 21
1.367423722313719
 31
0.0
210
0.0
220
0.0
230
0.9999999999999998
 40
0.9989450000000001
 41
5.922688047952396
 42
6.283185307179585
  0
SPLINE
  5
1A2
330
1F
100
AcDbEntity
  8
1
100
AcDbSpline
210
0.0
220
0.0
230
1.0
 70
     8
 71
     3
 72
    36
 73
    32
 74
     0
 42
0.000000001
 43
0.0000000001
 40
0.0
 40
0.0
 40
0.0
 40
0.0
 40
0.1249999999999082
 40
0.1249999999999082
 40
0.1874999999998299
 40
0.1874999999998299
 40
0.2187499999997921
 40
0.2187499999997921
 40
0.2499999999997543
 40
0.2499999999997543
 40
0.374999999999738
 40
0.374999999999738
 40
0.4062499999997479
 40
0.4062499999997479
 40
0.4374999999997577
 40
0.4374999999997577
 40
0.4999999999997716
 40
0.4999999999997716
 40
0.6249999999997589
 40
0.6249999999997589
 40
0.6562499999997772
 40
0.6562499999997772
 40
0.6874999999997956
 40
0.7499999999998323
 40
0.812499999999869
 40
0.812499999999869
 40
0.8437499999998923
 40
0.8437499999998923
 40
0.8749999999999154
 40
0.8749999999999154
 40
1.0
 40
1.0
 40
1.0
 40
1.0
 10
454.3759139212701
 20
309.4246547894369
 30
0.0
 10
454.324742277338
 20
309.4228691307348
 30
0.0
 10
454.2746347625983
 20
309.415956777608
 30
0.0
 10
454.2009784156319
 20
309.3983379145965
 30
0.0
 10
454.1766791542118
 20
309.3912467750915
 30
0.0
 10
454.1406157163986
 20
309.3787530483675
 30
0.0
 10
454.1286285924018
 20
309.3742658379125
 30
0.0
 10
454.1049418436194
 20
309.3647232702675
 30
0.0
 10
454.0932617401008
 20
309.359677866291
 30
0.0
 10
454.0356595424976
 20
309.3331105240669
 30
0.0
 10
453.9921089544669
 20
309.3076069962427
 30
0.0
 10
453.9407916375691
 20
309.2704877874262
 30
0.0
 10
453.930685673071
 20
309.2627995162705
 30
0.0
 10
453.9107935762071
 20
309.2468859986129
 30
0.0
 10
453.9009864380783
 20
309.2386407190967
 30
0.0
 10
453.8723372872489
 20
309.213338266075
 30
0.0
 10
453.8541911286058
 20
309.1956636354194
 30
0.0
 10
453.8025311560821
 20
309.1402895440832
 30
0.0
 10
453.7717684814722
 20
309.1002630300088
 30
0.0
 10
453.7380587786333
 20
309.0462174752987
 30
0.0
 10
453.7315465235948
 20
309.0351853981297
 30
0.0
 10
453.719142040281
 20
309.0129472772537
 30
0.0
 10
453.7014158653083
 20
308.9792540265228
 30
0.0
 10
453.6761958617725
 20
308.921448461648
 30
0.0
 10
453.6605929160534
 20
308.873458663499
 30
0.0
 10
453.6506429868055
 20
308.8367975422645
 30
0.0
 10
453.6476189298959
 20
308.8244655005113
 30
0.0
 10
453.6421691802217
 20
308.7995730462255
 30
0.0
 10
453.639741801686
 20
308.786994308729
 30
0.0
 10
453.6292314330362
 20
308.7241020874015
 30
0.0
 10
453.6258734236101
 20
308.6733854893771
 30
0.0
 10
453.6276982124581
 20
308.6222555009037
 30
0.0
  0
SPLINE
  5
1A3
330
1F
100
AcDbEntity
  8
1
100
AcDbSpline
210
0.0
220
0.0
230
1.0
 70
     8
 71
     3
 72
    36
 73
    32
 74
     0
 42
0.000000001
 43
0.0000000001
 40
0.0
 40
0.0
 40
0.0
 40
0.0
 40
0.124999999999877
 40
0.124999999999877
 40
0.1874999999998177
 40
0.1874999999998177
 40
0.2187499999998012
 40
0.2187499999998012
 40
0.2499999999997847
 40
0.2499999999997847
 40
0.3749999999998048
 40
0.3749999999998048
 40
0.4062499999998426
 40
0.4062499999998426
 40
0.4374999999998802
 40
0.4374999999998802
 40
0.4999999999999525
 40
0.4999999999999525
 40
0.6250000000000999
 40
0.6250000000000999
 40
0.6562500000001512
 40
0.6562500000001512
 40
0.6875000000002025
 40
0.7500000000002418
 40
0.812500000000281
 40
0.812500000000281
 40
0.8437500000002678
 40
0.8437500000002678
 40
0.8750000000002543
 40
0.8750000000002543
 40
1.0
 40
1.0
 40
1.0
 40
1.0
 10
454.0249247893012
 20
297.4920963504588
 30
0.0
 10
454.0267497418341
 20
297.4409617755919
 30
0.0
 10
454.0337044517699
 20
297.3908867292385
 30
0.0
 10
454.0513911817551
 20
297.3172725784261
 30
0.0
 10
454.0585056713974
 20
297.2929862891952
 30
0.0
 10
454.0710355328151
 20
297.2569406431842
 30
0.0
 10
454.0755350053636
 20
297.2449591849757
 30
0.0
 10
454.0851023108737
 20
297.2212831306901
 30
0.0
 10
454.090160168665
 20
297.2096080486153
 30
0.0
 10
454.1167901949983
 20
297.1520293651948
 30
0.0
 10
454.1423451860301
 20
297.1084925375977
 30
0.0
 10
454.179530346378
 20
297.0571861934953
 30
0.0
 10
454.1872318897213
 20
297.0470821092696
 30
0.0
 10
454.2031721180306
 20
297.0271931347302
 30
0.0
 10
454.2114308666428
 20
297.0173872395559
 30
0.0
 10
454.2367735799484
 20
296.9887408179345
 30
0.0
 10
454.2544749496607
 20
296.9705951655097
 30
0.0
 10
454.3099289633975
 20
296.918932883911
 30
0.0
 10
454.3500083689488
 20
296.8881636039758
 30
0.0
 10
454.4041195347556
 20
296.8544391095331
 30
0.0
 10
454.4151647313318
 20
296.847923558478
 30
0.0
 10
454.4374287618904
 20
296.8355118889087
 30
0.0
 10
454.471160476597
 20
296.8177740246375
 30
0.0
 10
454.5290281813525
 20
296.792530071128
 30
0.0
 10
454.5770656111956
 20
296.7769032398668
 30
0.0
 10
454.6137616591171
 20
296.766933585746
 30
0.0
 10
454.6261052100068
 20
296.7639026515351
 30
0.0
 10
454.6510204103788
 20
296.7584385289396
 30
0.0
 10
454.6636103998451
 20
296.7560036424576
 30
0.0
 10
454.7265576735878
 20
296.745454514804
 30
0.0
 10
454.7773148706172
 20
296.7420614102539
 30
0.0
 10
454.8284819248311
 20
296.7438469087954
 30
0.0
  0
SPLINE
  5
1A4
330
1F
100
AcDbEntity
  8
1
100
AcDbSpline
210
0.0
220
0.0
230
1.0
 70
     8
 71
     3
 72
    36
 73
    32
 74
     0
 42
0.000000001
 43
0.0000000001
 40
0.0
 40
0.0
 40
0.0
 40
0.0
 40
0.1249999999999929
 40
0.1249999999999929
 40
0.1875000000000227
 40
0.1875000000000227
 40
0.2187500000000376
 40
0.2187500000000376
 40
0.2500000000000526
 40
0.2500000000000526
 40
0.3750000000002416
 40
0.3750000000002416
 40
0.4062500000002493
 40
0.4062500000002493
 40
0.4375000000002568
 40
0.4375000000002568
 40
0.5000000000002692
 40
0.5000000000002692
 40
0.625000000000247
 40
0.625000000000247
 40
0.6562500000002317
 40
0.6562500000002317
 40
0.6875000000002162
 40
0.7500000000001853
 40
0.8125000000001543
 40
0.8125000000001543
 40
0.84375000000013
 40
0.84375000000013
 40
0.8750000000001058
 40
0.8750000000001058
 40
1.0
 40
1.0
 40
1.0
 40
1.0
 10
465.9667096784981
 20
297.1325206308947
 30
0.0
 10
466.0178813224304
 20
297.1343062895966
 30
0.0
 10
466.0679888371698
 20
297.1412186427235
 30
0.0
 10
466.1416451841362
 20
297.1588375057349
 30
0.0
 10
466.1659444455562
 20
297.1659286452399
 30
0.0
 10
466.2020078833696
 20
297.178422371964
 30
0.0
 10
466.2139950073663
 20
297.182909582419
 30
0.0
 10
466.2376817561487
 20
297.192452150064
 30
0.0
 10
466.2493618596672
 20
297.1974975540405
 30
0.0
 10
466.3069640572707
 20
297.2240648962646
 30
0.0
 10
466.3505146453013
 20
297.2495684240887
 30
0.0
 10
466.401831962199
 20
297.2866876329053
 30
0.0
 10
466.4119379266971
 20
297.294375904061
 30
0.0
 10
466.4318300235608
 20
297.3102894217186
 30
0.0
 10
466.4416371616899
 20
297.3185347012347
 30
0.0
 10
466.4702863125191
 20
297.3438371542565
 30
0.0
 10
466.4884324711623
 20
297.3615117849121
 30
0.0
 10
466.5400924436861
 20
297.4168858762483
 30
0.0
 10
466.570855118296
 20
297.4569123903227
 30
0.0
 10
466.6045648211349
 20
297.5109579450328
 30
0.0
 10
466.6110770761733
 20
297.5219900222018
 30
0.0
 10
466.6234815594871
 20
297.5442281430778
 30
0.0
 10
466.64120773446
 20
297.5779213938086
 30
0.0
 10
466.6664277379957
 20
297.6357269586835
 30
0.0
 10
466.6820306837148
 20
297.6837167568324
 30
0.0
 10
466.6919806129627
 20
297.7203778780669
 30
0.0
 10
466.6950046698723
 20
297.7327099198202
 30
0.0
 10
466.7004544195465
 20
297.7576023741059
 30
0.0
 10
466.7028817980821
 20
297.7701811116025
 30
0.0
 10
466.713392166732
 20
297.8330733329299
 30
0.0
 10
466.7167501761581
 20
297.8837899309543
 30
0.0
 10
466.7149253873101
 20
297.9349199194277
 30
0.0
  0
SPLINE
  5
1A5
330
1F
100
AcDbEntity
  8
1
100
AcDbSpline
210
0.0
220
0.0
230
1.0
 70
     8
 71
     3
 72
    11
 73
     7
 74
     0
 42
0.000000001
 43
0.0000000001
 40
0.0
 40
0.0
 40
0.0
 40
0.0
 40
0.4999999999999983
 40
0.4999999999999983
 40
0.7499999999999992
 40
1.0
 40
1.0
 40
1.0
 40
1.0
 10
302.0941053905477
 20
268.4696560833549
 30
0.0
 10
302.554134608838
 20
268.4800182044543
 30
0.0
 10
303.0183760845484
 20
268.4890255079527
 30
0.0
 10
303.7210286087929
 20
268.4983357299558
 30
0.0
 10
304.1915654855304
 20
268.503169331604
 30
0.0
 10
304.6663578984568
 20
268.5048471226777
 30
0.0
 10
304.9048419452957
 20
268.5048471226777
 30
0.0
  0
SPLINE
  5
1A6
330
1F
100
AcDbEntity
  8
1
100
AcDbSpline
210
0.0
220
0.0
230
1.0
 70
     8
 71
     3
 72
    10
 73
     6
 74
     0
 42
0.000000001
 43
0.0000000001
 40
0.0
 40
0.0
 40
0.0
 40
0.0
 40
0.5
 40
0.5
 40
1.0
 40
1.0
 40
1.0
 40
1.0
 10
318.1597953326332
 20
268.9003259671549
 30
0.0
 10
315.9519090123073
 20
268.8084585419181
 30
0.0
 10
313.7436634567603
 20
268.7295107649665
 30
0.0
 10
309.325648827371
 20
268.5977066861651
 30
0.0
 10
307.1158776392089
 20
268.5448636474277
 30
0.0
 10
304.9048419452957
 20
268.5048471226777
 30
0.0
  0
SPLINE
  5
1A7
330
1F
100
AcDbEntity
  8
1
100
AcDbSpline
210
0.0
220
0.0
230
1.0
 70
     8
 71
     3
 72
    15
 73
    11
 74
     0
 42
0.000000001
 43
0.0000000001
 40
0.0
 40
0.0
 40
0.0
 40
0.0
 40
0.2499999999999902
 40
0.2499999999999902
 40
0.3749999999999853
 40
0.3749999999999853
 40
0.4374999999999851
 40
0.4374999999999851
 40
0.4999999999999849
 40
1.0
 40
1.0
 40
1.0
 40
1.0
 10
304.904841945424
 20
309.4057779562651
 30
0.0
 10
304.7074684461566
 20
309.4057779562651
 30
0.0
 10
304.509669561532
 20
309.4058556160118
 30
0.0
 10
304.2123228088764
 20
309.4060727019126
 30
0.0
 10
304.1130991100185
 20
309.406161467241
 30
0.0
 10
303.9640996871534
 20
309.4063138663694
 30
0.0
 10
303.9143779357902
 20
309.4063678835117
 30
0.0
 10
303.8150524016667
 20
309.4064809006393
 30
0.0
 10
303.3685974840306
 20
309.4070082941767
 30
0.0
 10
302.9266968762672
 20
309.4077157311208
 30
0.0
 10
302.537433634893
 20
309.4079266487957
 30
0.0
  0
SPLINE
  5
1A8
330
1F
100
AcDbEntity
  8
1
100
AcDbSpline
210
0.0
220
0.0
230
1.0
 70
     8
 71
     3
 72
     8
 73
     4
 74
     0
 42
0.000000001
 43
0.0000000001
 40
0.0
 40
0.0
 40
0.0
 40
0.0
 40
1.0
 40
1.0
 40
1.0
 40
1.0
 10
302.5374336348932
 20
309.4079266487957
 30
0.0
 10
302.4612948405176
 20
309.4079679036993
 30
0.0
 10
302.3852060026963
 20
309.4079911427493
 30
0.0
 10
302.3091666473044
 20
309.4079943300898
 30
0.0
  0
SPLINE
  5
1A9
330
1F
100
AcDbEntity
  8
1
100
AcDbSpline
210
0.0
220
0.0
230
1.0
 70
     8
 71
     3
 72
    10
 73
     6
 74
     0
 42
0.000000001
 43
0.0000000001
 40
0.0
 40
0.0
 40
0.0
 40
0.0
 40
0.5
 40
0.5
 40
1.0
 40
1.0
 40
1.0
 40
1.0
 10
456.3496367955535
 20
294.227186293145
 30
0.0
 10
456.0784769414694
 20
294.2332516690935
 30
0.0
 10
455.8057283110504
 20
294.2443044351394
 30
0.0
 10
455.257378492157
 20
294.2771694709573
 30
0.0
 10
454.9817760162757
 20
294.2989788833822
 30
0.0
 10
454.7048419452957
 20
294.3265198863564
 30
0.0
  0
SPLINE
  5
1AA
330
1F
100
AcDbEntity
  8
1
100
AcDbSpline
210
0.0
220
0.0
230
1.0
 70
     8
 71
     3
 72
    10
 73
     6
 74
     0
 42
0.000000001
 43
0.0000000001
 40
0.0
 40
0.0
 40
0.0
 40
0.0
 40
0.5
 40
0.5
 40
1.0
 40
1.0
 40
1.0
 40
1.0
 10
454.7048419452957
 20
292.1935182435423
 30
0.0
 10
454.9934441278814
 20
292.1843607737811
 30
0.0
 10
455.2805259382354
 20
292.1847350034266
 30
0.0
 10
455.8514231412214
 20
292.2041766857797
 30
0.0
 10
456.1352401998305
 20
292.2232443980576
 30
0.0
 10
456.4172297793083
 20
292.2515958380119
 30
0.0
  0
SPLINE
  5
1AB
330
1F
100
AcDbEntity
  8
1
100
AcDbSpline
210
0.0
220
0.0
230
1.0
 70
    24
 71
     3
 72
    22
 73
    18
 74
     0
 42
0.000000001
 43
0.0000000001
 40
0.0
 40
0.0
 40
0.0
 40
0.0
 40
0.1253513791905186
 40
0.1253513791905186
 40
0.2507027583810372
 40
0.2507027583810372
 40
0.3760541375715558
 40
0.3760541375715558
 40
0.5014055167620745
 40
0.5014055167620745
 40
0.626756895952593
 40
0.626756895952593
 40
0.7521082751431117
 40
0.7521082751431117
 40
0.8774596543336302
 40
0.8774596543336302
 40
1.0
 40
1.0
 40
1.0
 40
1.0
 10
454.7048419452957
 20
294.3265198863564
 30
0.0
 10
454.7048419452957
 20
294.0867261571051
 30
0.0
 10
454.7048419452957
 20
293.8636219496499
 30
0.0
 10
454.7048419452957
 20
293.4529824150466
 30
0.0
 10
454.7048419452957
 20
293.2654477488869
 30
0.0
 10
454.7048419452957
 20
292.9277893295305
 30
0.0
 10
454.7048419452957
 20
292.7776661198478
 30
0.0
 10
454.7048419452957
 20
292.5163052061504
 30
0.0
 10
454.7048419452957
 20
292.405067922837
 30
0.0
 10
454.7048419452957
 20
292.2225715315784
 30
0.0
 10
454.7048419452957
 20
292.1513127173895
 30
0.0
 10
454.7048419452957
 20
292.0494732791667
 30
0.0
 10
454.7048419452957
 20
292.018892819059
 30
0.0
 10
454.7048419452957
 20
291.9987105735138
 30
0.0
 10
454.7048419452957
 20
292.0091088205629
 30
0.0
 10
454.7048419452957
 20
292.0700904747628
 30
0.0
 10
454.7048419452957
 20
292.1197673963968
 30
0.0
 10
454.7048419452957
 20
292.188741084599
 30
0.0
  0
SPLINE
  5
1AC
330
1F
100
AcDbEntity
  8
1
100
AcDbSpline
210
0.0
220
0.0
230
1.0
 70
     8
 71
     3
 72
    22
 73
    18
 74
     0
 42
0.000000001
 43
0.0000000001
 40
0.0
 40
0.0
 40
0.0
 40
0.0
 40
0.1250000000000001
 40
0.1250000000000001
 40
0.2500000000000002
 40
0.2500000000000002
 40
0.3750000000000001
 40
0.3750000000000001
 40
0.5000000000000001
 40
0.5000000000000001
 40
0.6250000000000001
 40
0.6250000000000001
 40
0.75
 40
0.75
 40
0.875
 40
0.875
 40
1.0
 40
1.0
 40
1.0
 40
1.0
 10
447.7361552288068
 20
297.724374360501
 30
0.0
 10
448.0105065040505
 20
297.5155932045766
 30
0.0
 10
448.2861307036965
 20
297.3161640551326
 30
0.0
 10
448.840304693158
 20
296.9347284326871
 30
0.0
 10
449.1188542431546
 20
296.7527244593878
 30
0.0
 10
449.6793526365348
 20
296.405270333957
 30
0.0
 10
449.9613011187726
 20
296.2398215224953
 30
0.0
 10
450.5291740737239
 20
295.924957227563
 30
0.0
 10
450.8150979395542
 20
295.7755422068469
 30
0.0
 10
451.3916153586484
 20
295.4925471806522
 30
0.0
 10
451.6822078882376
 20
295.3589668216293
 30
0.0
 10
452.2688970293588
 20
295.1077634062952
 30
0.0
 10
452.5649918655864
 20
294.9901390351317
 30
0.0
 10
453.1637010741106
 20
294.7713146953926
 30
0.0
 10
453.4663120355428
 20
294.6701119474648
 30
0.0
 10
454.0793233180158
 20
294.4850016285433
 30
0.0
 10
454.3897100798751
 20
294.401087165335
 30
0.0
 10
454.7048419452957
 20
294.3265198863564
 30
0.0
  0
SPLINE
  5
1AD
330
1F
100
AcDbEntity
  8
1
100
AcDbSpline
210
0.0
220
0.0
230
1.0
 70
     9
 71
     3
 72
   179
 73
   175
 74
     0
 42
0.000000001
 43
0.0000000001
 40
0.0
 40
0.0
 40
0.0
 40
0.0
 40
0.0156249999999997
 40
0.0312499999999995
 40
0.0468749999999992
 40
0.0468749999999992
 40
0.0546874999999995
 40
0.0546874999999995
 40
0.0624999999999998
 40
0.0624999999999998
 40
0.0781250000000003
 40
0.0781250000000003
 40
0.0937500000000008
 40
0.0937500000000008
 40
0.1015625000000011
 40
0.1015625000000011
 40
0.1093750000000013
 40
0.1093750000000013
 40
0.1250000000000026
 40
0.1250000000000026
 40
0.1328125000000028
 40
0.1328125000000028
 40
0.1406250000000031
 40
0.1484375000000033
 40
0.1484375000000033
 40
0.1562500000000036
 40
0.1562500000000036
 40
0.171875000000005
 40
0.171875000000005
 40
0.1875000000000064
 40
0.1875000000000064
 40
0.2031250000000078
 40
0.2031250000000078
 40
0.2109375000000085
 40
0.2109375000000085
 40
0.2187500000000092
 40
0.2265625000000099
 40
0.2265625000000099
 40
0.2343750000000106
 40
0.2343750000000106
 40
0.250000000000012
 40
0.250000000000012
 40
0.2578125000000125
 40
0.2578125000000125
 40
0.2656250000000129
 40
0.2656250000000129
 40
0.2812500000000134
 40
0.2812500000000134
 40
0.2968750000000138
 40
0.2968750000000138
 40
0.3046875000000138
 40
0.3046875000000138
 40
0.3125000000000138
 40
0.3125000000000138
 40
0.328125000000014
 40
0.3437500000000141
 40
0.3437500000000141
 40
0.3515625000000143
 40
0.3515625000000143
 40
0.3593750000000145
 40
0.3593750000000145
 40
0.375000000000015
 40
0.375000000000015
 40
0.3828125000000153
 40
0.3828125000000153
 40
0.3906250000000155
 40
0.3906250000000155
 40
0.4062500000000161
 40
0.4062500000000161
 40
0.4140625000000164
 40
0.4140625000000164
 40
0.4218750000000166
 40
0.4218750000000166
 40
0.4375000000000174
 40
0.4375000000000174
 40
0.4453125000000177
 40
0.4453125000000177
 40
0.453125000000018
 40
0.4609375000000183
 40
0.4609375000000183
 40
0.4687500000000185
 40
0.4687500000000185
 40
0.4843750000000192
 40
0.4843750000000192
 40
0.4921875000000189
 40
0.4921875000000189
 40
0.5000000000000188
 40
0.5000000000000188
 40
0.5156250000000177
 40
0.5156250000000177
 40
0.5234375000000168
 40
0.5234375000000168
 40
0.5312500000000158
 40
0.539062500000015
 40
0.539062500000015
 40
0.5468750000000141
 40
0.5468750000000141
 40
0.5625000000000109
 40
0.5625000000000109
 40
0.5703125000000089
 40
0.5703125000000089
 40
0.5781250000000068
 40
0.5781250000000068
 40
0.5937500000000037
 40
0.5937500000000037
 40
0.6015625000000026
 40
0.6015625000000026
 40
0.6093750000000015
 40
0.6171875000000004
 40
0.6171875000000004
 40
0.6249999999999992
 40
0.6249999999999992
 40
0.6406249999999978
 40
0.6406249999999978
 40
0.6484374999999978
 40
0.6484374999999978
 40
0.6562499999999978
 40
0.6562499999999978
 40
0.671874999999997
 40
0.671874999999997
 40
0.6796874999999964
 40
0.6796874999999964
 40
0.6874999999999958
 40
0.6953124999999954
 40
0.6953124999999954
 40
0.7031249999999949
 40
0.7031249999999949
 40
0.718749999999994
 40
0.7343749999999929
 40
0.7343749999999929
 40
0.7499999999999921
 40
0.7499999999999921
 40
0.7656249999999912
 40
0.7656249999999912
 40
0.7734374999999908
 40
0.7734374999999908
 40
0.7812499999999903
 40
0.7812499999999903
 40
0.7968749999999897
 40
0.7968749999999897
 40
0.8046874999999895
 40
0.8046874999999895
 40
0.8124999999999895
 40
0.8124999999999895
 40
0.8281249999999895
 40
0.8281249999999895
 40
0.8437499999999896
 40
0.8437499999999896
 40
0.8515624999999898
 40
0.8515624999999898
 40
0.85937499999999
 40
0.85937499999999
 40
0.87499999999999
 40
0.87499999999999
 40
0.8828124999999904
 40
0.8828124999999904
 40
0.8906249999999905
 40
0.8906249999999905
 40
0.9062499999999912
 40
0.9218749999999921
 40
0.9218749999999921
 40
0.9296874999999927
 40
0.9296874999999927
 40
0.9374999999999932
 40
0.9374999999999932
 40
0.9531249999999948
 40
0.9531249999999948
 40
0.9609374999999955
 40
0.9609374999999955
 40
0.9687499999999966
 40
0.9687499999999966
 40
0.9843749999999982
 40
0.9843749999999982
 40
1.0
 40
1.0
 40
1.0
 40
1.0
 10
464.6951398940968
 20
280.9316881221814
 30
0.0
 10
464.6841022159777
 20
280.933821116131
 30
0.0
 10
464.6613576414952
 20
280.9301500426164
 30
0.0
 10
464.6252835100997
 20
280.9014298249527
 30
0.0
 10
464.5999259959632
 20
280.86676876771
 30
0.0
 10
464.5804014568853
 20
280.8347669288928
 30
0.0
 10
464.5737957601756
 20
280.823071581473
 30
0.0
 10
464.5604758603044
 20
280.7977461074311
 30
0.0
 10
464.5537724392908
 20
280.7841403204026
 30
0.0
 10
464.5335322551587
 20
280.740504485704
 30
0.0
 10
464.519865897212
 20
280.7076630422908
 30
0.0
 10
464.492182255632
 20
280.634367266936
 30
0.0
 10
464.4782634624814
 20
280.5941688867886
 30
0.0
 10
464.4573148149151
 20
280.5286984928575
 30
0.0
 10
464.4503177514319
 20
280.5060049157437
 30
0.0
 10
464.4362950412889
 20
280.4588639609205
 30
0.0
 10
464.429269508989
 20
280.4344138147535
 30
0.0
 10
464.4082700655449
 20
280.3588456205724
 30
0.0
 10
464.3943330048792
 20
280.3053835619829
 30
0.0
 10
464.373521419217
 20
280.2205580461705
 30
0.0
 10
464.3665910375063
 20
280.1914696170049
 30
0.0
 10
464.3528314039758
 20
280.1320321121254
 30
0.0
 10
464.3391623123543
 20
280.0712953703818
 30
0.0
 10
464.3256731955522
 20
280.0079760685654
 30
0.0
 10
464.3122741849579
 20
279.9433637820101
 30
0.0
 10
464.3056117809676
 20
279.9103704123844
 30
0.0
 10
464.2858191602476
 20
279.8097316957534
 30
0.0
 10
464.2729171174598
 20
279.7406148188587
 30
0.0
 10
464.2476926812183
 20
279.5983766600168
 30
0.0
 10
464.2353451097238
 20
279.525082885411
 30
0.0
 10
464.2114836881659
 20
279.3759951115607
 30
0.0
 10
464.1999431651738
 20
279.3000664870648
 30
0.0
 10
464.1832166203739
 20
279.1841001418888
 30
0.0
 10
464.1777427103261
 20
279.1451233619147
 30
0.0
 10
464.1670480075976
 20
279.0668990828439
 30
0.0
 10
464.1565917458424
 20
278.988303454193
 30
0.0
 10
464.1466090637198
 20
278.9089702694275
 30
0.0
 10
464.1368632571517
 20
278.8292681730758
 30
0.0
 10
464.1321045935504
 20
278.7891937434946
 30
0.0
 10
464.1182547538018
 20
278.6690187555332
 30
0.0
 10
464.1095675758364
 20
278.5888024683629
 30
0.0
 10
464.0973473442368
 20
278.4683301525026
 30
0.0
 10
464.0934045838291
 20
278.4280975944441
 30
0.0
 10
464.0858168033898
 20
278.3478563108275
 30
0.0
 10
464.0821731208612
 20
278.3078662788557
 30
0.0
 10
464.0716880747748
 20
278.1882839938603
 30
0.0
 10
464.0652896920535
 20
278.1090519400121
 30
0.0
 10
464.0536893646868
 20
277.9517299181556
 30
0.0
 10
464.0485266806237
 20
277.8741777233359
 30
0.0
 10
464.0417242310553
 20
277.7594871857667
 30
0.0
 10
464.0396139631794
 20
277.7215304629616
 30
0.0
 10
464.0357088034193
 20
277.6461655744635
 30
0.0
 10
464.033918458931
 20
277.6088360674779
 30
0.0
 10
464.029052544082
 20
277.4984429288221
 30
0.0
 10
464.0238851999562
 20
277.3550488416916
 30
0.0
 10
464.0212949485965
 20
277.2190642966914
 30
0.0
 10
464.0203217222214
 20
277.1198632422424
 30
0.0
 10
464.0201591671826
 20
277.08726157878
 30
0.0
 10
464.0201616891326
 20
277.0230002448444
 30
0.0
 10
464.0203274361982
 20
276.9912873344384
 30
0.0
 10
464.0213206387188
 20
276.8979976483843
 30
0.0
 10
464.0226386077132
 20
276.8384083503542
 30
0.0
 10
464.0255918811478
 20
276.7529006392656
 30
0.0
 10
464.0267393121278
 20
276.725045245751
 30
0.0
 10
464.0293624007029
 20
276.6706376010131
 30
0.0
 10
464.0308379482188
 20
276.6441003251293
 30
0.0
 10
464.0357344281696
 20
276.5668540149943
 30
0.0
 10
464.0396303467237
 20
276.5183657719837
 30
0.0
 10
464.046423609211
 20
276.4501568192239
 30
0.0
 10
464.0488494823653
 20
276.4281522120437
 30
0.0
 10
464.0540075799599
 20
276.3857864793937
 30
0.0
 10
464.0567363414804
 20
276.3654484727904
 30
0.0
 10
464.0653696107298
 20
276.3069568796021
 30
0.0
 10
464.0717200397284
 20
276.2713197185539
 30
0.0
 10
464.0821484915951
 20
276.2229587104824
 30
0.0
 10
464.0857749098233
 20
276.2076963662001
 30
0.0
 10
464.0932920061096
 20
276.1790398866217
 30
0.0
 10
464.1010822936208
 20
276.1522080069906
 30
0.0
 10
464.1094188585745
 20
276.1290246259288
 30
0.0
 10
464.1180304655764
 20
276.1076782061651
 30
0.0
 10
464.1224794210897
 20
276.0979131229743
 30
0.0
 10
464.1362020223098
 20
276.0714916983794
 30
0.0
 10
464.1458317317765
 20
276.0577248564538
 30
0.0
 10
464.1609994474243
 20
276.0428552555386
 30
0.0
 10
464.1661760918382
 20
276.0388638758715
 30
0.0
 10
464.1767736910162
 20
276.0328340622893
 30
0.0
 10
464.1821873593007
 20
276.0308024145413
 30
0.0
 10
464.1987117118159
 20
276.0276775006694
 30
0.0
 10
464.2101283858197
 20
276.0295325282928
 30
0.0
 10
464.2278605347366
 20
276.0382862499114
 30
0.0
 10
464.2338803549759
 20
276.0422088618857
 30
0.0
 10
464.2460656380491
 20
276.052026350356
 30
0.0
 10
464.258404932374
 20
276.0638153340958
 30
0.0
 10
464.2710518924868
 20
276.0795427420668
 30
0.0
 10
464.2838536404723
 20
276.0972515868259
 30
0.0
 10
464.2903373042891
 20
276.1071057389409
 30
0.0
 10
464.3099877583284
 20
276.1396209909674
 30
0.0
 10
464.323290666958
 20
276.1651175502839
 30
0.0
 10
464.3435486421957
 20
276.2090863842134
 30
0.0
 10
464.350351995305
 20
276.2246984080314
 30
0.0
 10
464.3640611759062
 20
276.2578544026352
 30
0.0
 10
464.3709544991566
 20
276.27537008042
 30
0.0
 10
464.3916790849607
 20
276.3305401243654
 30
0.0
 10
464.4055833499622
 20
276.370879171665
 30
0.0
 10
464.4265725673903
 20
276.436767104075
 30
0.0
 10
464.4335953670068
 20
276.4596446561004
 30
0.0
 10
464.4476066328381
 20
276.5069456924595
 30
0.0
 10
464.4616024590608
 20
276.5558495772045
 30
0.0
 10
464.4755675027495
 20
276.6079491216331
 30
0.0
 10
464.4895170883802
 20
276.6616534297454
 30
0.0
 10
464.4964940513073
 20
276.689349344913
 30
0.0
 10
464.5173084735997
 20
276.7744870568691
 30
0.0
 10
464.5310348287485
 20
276.8339813278104
 30
0.0
 10
464.5514006602766
 20
276.9273047436951
 30
0.0
 10
464.5581575563241
 20
276.9591215328271
 30
0.0
 10
464.571570971351
 20
277.0240085552214
 30
0.0
 10
464.5782114151889
 20
277.0569994560702
 30
0.0
 10
464.5979358441736
 20
277.1575987271057
 30
0.0
 10
464.6108234114181
 20
277.2268296623884
 30
0.0
 10
464.6297603828929
 20
277.3339339467366
 30
0.0
 10
464.6359911628969
 20
277.3700921618156
 30
0.0
 10
464.6482596146435
 20
277.443130270073
 30
0.0
 10
464.6603450351173
 20
277.5169468860921
 30
0.0
 10
464.6720662061571
 20
277.5923128057221
 30
0.0
 10
464.6836048093742
 20
277.6684552618679
 30
0.0
 10
464.6892831423501
 20
277.7069223975715
 30
0.0
 10
464.7059062669338
 20
277.8225269670554
 30
0.0
 10
464.727072340045
 20
277.9778394100809
 30
0.0
 10
464.7463050404474
 20
278.1354240653596
 30
0.0
 10
464.76457432181
 20
278.2941409868266
 30
0.0
 10
464.7732324141714
 20
278.374116037022
 30
0.0
 10
464.7895395709596
 20
278.5350211278455
 30
0.0
 10
464.7971015168582
 20
278.6150848528123
 30
0.0
 10
464.8075724529106
 20
278.734607373804
 30
0.0
 10
464.8109171654245
 20
278.7743525262469
 30
0.0
 10
464.8173147972408
 20
278.8536510648466
 30
0.0
 10
464.8203659360494
 20
278.893187831816
 30
0.0
 10
464.8290360653431
 20
279.0108984237885
 30
0.0
 10
464.8341896763831
 20
279.0883782086407
 30
0.0
 10
464.8409868549462
 20
279.2031172438124
 30
0.0
 10
464.8430990356891
 20
279.2411632827926
 30
0.0
 10
464.8469940906636
 20
279.3164476104665
 30
0.0
 10
464.848778137469
 20
279.3536986117019
 30
0.0
 10
464.8536439858895
 20
279.4642880574896
 30
0.0
 10
464.8562411608856
 20
279.5364848162749
 30
0.0
 10
464.8601333166596
 20
279.6776899790526
 30
0.0
 10
464.8614151643634
 20
279.7462096267274
 30
0.0
 10
464.8623537588186
 20
279.8459028553764
 30
0.0
 10
464.8625023012978
 20
279.8786186395308
 30
0.0
 10
464.8624692782886
 20
279.9430150350471
 30
0.0
 10
464.8622872025648
 20
279.9746857913934
 30
0.0
 10
464.8612488162353
 20
280.0676795203648
 30
0.0
 10
464.8599018504883
 20
280.1271479454853
 30
0.0
 10
464.8568995933823
 20
280.2125604716493
 30
0.0
 10
464.8557322124848
 20
280.2404480389862
 30
0.0
 10
464.8530828333688
 20
280.2946269422503
 30
0.0
 10
464.851601272078
 20
280.3209302008668
 30
0.0
 10
464.8466935005327
 20
280.3975191233215
 30
0.0
 10
464.8389169149021
 20
280.4934588188315
 30
0.0
 10
464.8287019444771
 20
280.5771780775589
 30
0.0
 10
464.8201109786072
 20
280.6353079596274
 30
0.0
 10
464.8170921011426
 20
280.6539066610473
 30
0.0
 10
464.8107379608029
 20
280.6895184372403
 30
0.0
 10
464.8073983255367
 20
280.7065462482959
 30
0.0
 10
464.7969749263876
 20
280.7548381542156
 30
0.0
 10
464.7894670983972
 20
280.7834479664921
 30
0.0
 10
464.7773637658871
 20
280.8209646665156
 30
0.0
 10
464.7731875930364
 20
280.8325719910046
 30
0.0
 10
464.7645556265949
 20
280.8539488678796
 30
0.0
 10
464.7601189056891
 20
280.8636719006536
 30
0.0
 10
464.7464501175194
 20
280.8899734680722
 30
0.0
 10
464.7368602681136
 20
280.9036912148351
 30
0.0
 10
464.716724446909
 20
280.9234816555959
 30
0.0
 10
464.7061775722161
 20
280.9295551282316
 30
0.0
 10
464.6951398940968
 20
280.9316881221814
 30
0.0
  0
SPLINE
  5
1AE
330
1F
100
AcDbEntity
  8
1
100
AcDbSpline
210
0.0
220
0.0
230
1.0
 70
     8
 71
     3
 72
    22
 73
    18
 74
     0
 42
0.000000001
 43
0.0000000001
 40
0.0
 40
0.0
 40
0.0
 40
0.0
 40
0.125
 40
0.125
 40
0.25
 40
0.25
 40
0.375
 40
0.375
 40
0.5
 40
0.5
 40
0.625
 40
0.625
 40
0.75
 40
0.75
 40
0.875
 40
0.875
 40
1.0
 40
1.0
 40
1.0
 40
1.0
 10
299.2830250759297
 20
284.0995836815247
 30
0.0
 10
298.9296085175831
 20
284.1925157743403
 30
0.0
 10
298.5741263412343
 20
284.2789225774252
 30
0.0
 10
297.8584107808973
 20
284.4364991390386
 30
0.0
 10
297.4981786702128
 20
284.5076724803903
 30
0.0
 10
296.7724188296797
 20
284.6328459086553
 30
0.0
 10
296.4068924147683
 20
284.6868498013772
 30
0.0
 10
295.6700337880024
 20
284.7758806182911
 30
0.0
 10
295.3017941001278
 20
284.8105282550601
 30
0.0
 10
294.5657969449432
 20
284.8593248488618
 30
0.0
 10
294.1980247738716
 20
284.8734794392747
 30
0.0
 10
293.4629468690385
 20
284.880656582588
 30
0.0
 10
293.0956410604917
 20
284.8736823837972
 30
0.0
 10
292.3615102387752
 20
284.8379656703995
 30
0.0
 10
291.9946851554692
 20
284.8092261548119
 30
0.0
 10
291.2615331902018
 20
284.7292509192837
 30
0.0
 10
290.8952062323333
 20
284.6780183687936
 30
0.0
 10
290.5291396759602
 20
284.6150825660846
 30
0.0
  0
SPLINE
  5
1AF
330
1F
100
AcDbEntity
  8
1
100
AcDbSpline
210
0.0
220
0.0
230
1.0
 70
     8
 71
     3
 72
     8
 73
     4
 74
     0
 42
0.000000001
 43
0.0000000001
 40
0.0
 40
0.0
 40
0.0
 40
0.0
 40
1.0
 40
1.0
 40
1.0
 40
1.0
 10
307.7776710269759
 20
281.7558881835653
 30
0.0
 10
307.7783019573873
 20
281.822535926444
 30
0.0
 10
307.7789333006895
 20
281.8891849354226
 30
0.0
 10
307.7795650577
 20
281.9558352130084
 30
0.0
  0
SPLINE
  5
1B0
330
1F
100
AcDbEntity
  8
1
100
AcDbSpline
210
0.0
220
0.0
230
1.0
 70
     8
 71
     3
 72
     8
 73
     4
 74
     0
 42
0.000000001
 43
0.0000000001
 40
0.0
 40
0.0
 40
0.0
 40
0.0
 40
1.0
 40
1.0
 40
1.0
 40
1.0
 10
446.8683980474768
 20
298.3767988189161
 30
0.0
 10
446.4523732948257
 20
298.6296882311046
 30
0.0
 10
446.0313945016653
 20
298.8848314609187
 30
0.0
 10
445.6056994854329
 20
299.1421203144247
 30
0.0
  0
SPLINE
  5
1B1
330
1F
100
AcDbEntity
  8
1
100
AcDbSpline
210
0.0
220
0.0
230
1.0
 70
     8
 71
     3
 72
    22
 73
    18
 74
     0
 42
0.000000001
 43
0.0000000001
 40
0.0
 40
0.0
 40
0.0
 40
0.0
 40
0.125
 40
0.125
 40
0.25
 40
0.25
 40
0.375
 40
0.375
 40
0.5
 40
0.5
 40
0.625
 40
0.625
 40
0.75
 40
0.75
 40
0.875
 40
0.875
 40
1.0
 40
1.0
 40
1.0
 40
1.0
 10
290.5291396759393
 20
268.6041564854856
 30
0.0
 10
290.9968125490594
 20
268.5723934475322
 30
0.0
 10
291.4671152369017
 20
268.54565245828
 30
0.0
 10
292.4120216913348
 20
268.5003028140543
 30
0.0
 10
292.8866238764383
 20
268.4816986734125
 30
0.0
 10
293.8393080583014
 20
268.4512437160527
 30
0.0
 10
294.3173874415713
 20
268.4393971288944
 30
0.0
 10
295.2764073456285
 20
268.4214723147648
 30
0.0
 10
295.757345123159
 20
268.4153987848712
 30
0.0
 10
296.721750062351
 20
268.4082975733252
 30
0.0
 10
297.2052155673375
 20
268.4072750563555
 30
0.0
 10
298.1747019291656
 20
268.4096670556188
 30
0.0
 10
298.6607231801706
 20
268.4130863917156
 30
0.0
 10
299.6357267576796
 20
268.4237133828485
 30
0.0
 10
300.1247115955455
 20
268.4309242920813
 30
0.0
 10
301.1063834342062
 20
268.4483199650201
 30
0.0
 10
301.5990741359066
 20
268.458505544205
 30
0.0
 10
302.0941053905477
 20
268.4696560833548
 30
0.0
  0
SPLINE
  5
1B2
330
1F
100
AcDbEntity
  8
1
100
AcDbSpline
210
0.0
220
0.0
230
1.0
 70
     8
 71
     3
 72
    47
 73
    43
 74
     0
 42
0.000000001
 43
0.0000000001
 40
0.0
 40
0.0
 40
0.0
 40
0.0
 40
0.1249999999999698
 40
0.1249999999999698
 40
0.2499999999999397
 40
0.2499999999999397
 40
0.3749999999999095
 40
0.3749999999999095
 40
0.4374999999999147
 40
0.4374999999999147
 40
0.49999999999992
 40
0.49999999999992
 40
0.5624999999999253
 40
0.5624999999999253
 40
0.6249999999999304
 40
0.6249999999999304
 40
0.6874999999999356
 40
0.6874999999999356
 40
0.7499999999999409
 40
0.7499999999999409
 40
0.7656249999999457
 40
0.7656249999999457
 40
0.7812499999999503
 40
0.7812499999999503
 40
0.8124999999999699
 40
0.8124999999999699
 40
0.8281249999999806
 40
0.8281249999999806
 40
0.8437499999999914
 40
0.8437499999999914
 40
0.8750000000000214
 40
0.8750000000000214
 40
0.8906250000000245
 40
0.8906250000000245
 40
0.9062500000000271
 40
0.9062500000000271
 40
0.9375000000000007
 40
0.9375000000000007
 40
0.9531249999999872
 40
0.9531249999999872
 40
0.968749999999974
 40
1.0
 40
1.0
 40
1.0
 40
1.0
 10
445.6056994854356
 20
299.1421203144233
 30
0.0
 10
445.5644268517651
 20
299.1670653764826
 30
0.0
 10
445.5241143196952
 20
299.1931008504384
 30
0.0
 10
445.4455677038981
 20
299.2475467851712
 30
0.0
 10
445.4073309555578
 20
299.2759542408083
 30
0.0
 10
445.3332473745691
 20
299.3355091964656
 30
0.0
 10
445.2973936507861
 20
299.3666489675925
 30
0.0
 10
445.2458527334378
 20
299.4159265952673
 30
0.0
 10
445.2290483929645
 20
299.4327834763615
 30
0.0
 10
445.1963215373526
 20
299.467506724684
 30
0.0
 10
445.1803735825354
 20
299.4854047078439
 30
0.0
 10
445.1497951155715
 20
299.5221251874556
 30
0.0
 10
445.1351382566694
 20
299.5409689389917
 30
0.0
 10
445.1073893323331
 20
299.5798485960095
 30
0.0
 10
445.0942524231776
 20
299.5999589007413
 30
0.0
 10
445.0703256382531
 20
299.6412121460048
 30
0.0
 10
445.0595080799762
 20
299.6623661704047
 30
0.0
 10
445.040951519237
 20
299.7060815200447
 30
0.0
 10
445.0331873368969
 20
299.7286316314842
 30
0.0
 10
445.026361451741
 20
299.7581256894125
 30
0.0
 10
445.0251434850098
 20
299.7640912668047
 30
0.0
 10
445.0230437630723
 20
299.7761746021135
 30
0.0
 10
445.0221611966088
 20
299.7823084799683
 30
0.0
 10
445.020119564214
 20
299.8007228645292
 30
0.0
 10
445.0195476383973
 20
299.8130773036849
 30
0.0
 10
445.0201406784113
 20
299.8317506226241
 30
0.0
 10
445.0205812184613
 20
299.8379987672042
 30
0.0
 10
445.0220095367659
 20
299.8505480829344
 30
0.0
 10
445.0229999458135
 20
299.8568414814339
 30
0.0
 10
445.0268075150429
 20
299.8754450354016
 30
0.0
 10
445.0304685813134
 20
299.8875939617488
 30
0.0
 10
445.0378448866812
 20
299.905389748509
 30
0.0
 10
445.0406184542178
 20
299.9112502526839
 30
0.0
 10
445.0468386283266
 20
299.9228181928394
 30
0.0
 10
445.0502581977738
 20
299.9284680060636
 30
0.0
 10
445.0612673905773
 20
299.9447772664894
 30
0.0
 10
445.0696623663366
 20
299.9549053026639
 30
0.0
 10
445.083719349666
 20
299.9690628480027
 30
0.0
 10
445.088674385853
 20
299.9736287108612
 30
0.0
 10
445.0988896740403
 20
299.9822889564127
 30
0.0
 10
445.1146897211319
 20
299.9946025246403
 30
0.0
 10
445.1317674507036
 20
300.0051035623291
 30
0.0
 10
445.1436240009207
 20
300.0114354635614
 30
0.0
  0
SPLINE
  5
1B3
330
1F
100
AcDbEntity
  8
1
100
AcDbSpline
210
0.0
220
0.0
230
1.0
 70
     8
 71
     3
 72
     8
 73
     4
 74
     0
 42
0.000000001
 43
0.0000000001
 40
0.0
 40
0.0
 40
0.0
 40
0.0
 40
1.0
 40
1.0
 40
1.0
 40
1.0
 10
446.8683980474766
 20
298.3767988189159
 30
0.0
 10
447.1627845577871
 20
298.1580173051764
 30
0.0
 10
447.4521272072785
 20
297.9405195145443
 30
0.0
 10
447.7361552287946
 20
297.7243743605102
 30
0.0
  0
SPLINE
  5
1B4
330
1F
100
AcDbEntity
  8
1
100
AcDbSpline
210
0.0
220
0.0
230
1.0
 70
     8
 71
     3
 72
    30
 73
    26
 74
     0
 42
0.000000001
 43
0.0000000001
 40
0.0
 40
0.0
 40
0.0
 40
0.0
 40
0.0078470265240704
 40
0.0078470265240704
 40
0.0980427513855188
 40
0.0980427513855188
 40
0.1882384762469669
 40
0.1882384762469669
 40
0.2784342011084153
 40
0.2784342011084153
 40
0.3686299259698634
 40
0.3686299259698634
 40
0.4588256508313119
 40
0.4588256508313119
 40
0.5490213756927599
 40
0.5490213756927599
 40
0.6392171005542084
 40
0.6392171005542084
 40
0.7294128254156562
 40
0.7294128254156562
 40
0.819608550277104
 40
0.819608550277104
 40
0.909804275138552
 40
0.909804275138552
 40
1.0
 40
1.0
 40
1.0
 40
1.0
 10
360.9845148236051
 20
273.3770628418769
 30
0.0
 10
360.8718125259916
 20
273.3612995093886
 30
0.0
 10
360.7591064663666
 20
273.3455869813084
 30
0.0
 10
359.3508801038379
 20
273.1499050593511
 30
0.0
 10
358.054852573079
 20
272.9765717551583
 30
0.0
 10
355.4625995044316
 20
272.6404278513534
 30
0.0
 10
354.1663755393697
 20
272.4776150714057
 30
0.0
 10
351.5745461379348
 20
272.1602717927332
 30
0.0
 10
350.2789419733028
 20
272.0057400885574
 30
0.0
 10
347.6891152568105
 20
271.7033845031145
 30
0.0
 10
346.3948937403838
 20
271.5555601815473
 30
0.0
 10
343.8085074815573
 20
271.2657351184184
 30
0.0
 10
342.5163435438934
 20
271.1237347021475
 30
0.0
 10
339.9346321031577
 20
270.8453651596051
 30
0.0
 10
338.6450851812812
 20
270.7089971252267
 30
0.0
 10
336.0690311711106
 20
270.4423707393548
 30
0.0
 10
334.7825244475336
 20
270.3121142214897
 30
0.0
 10
332.2128238105485
 20
270.0588159252937
 30
0.0
 10
330.9296300532092
 20
269.9357766520446
 30
0.0
 10
328.3666701237749
 20
269.6985791577584
 30
0.0
 10
327.0869039097466
 20
269.584423989454
 30
0.0
 10
324.5307539742867
 20
269.3671383690379
 30
0.0
 10
323.2543700282469
 20
269.2640113440517
 30
0.0
 10
320.7047837319432
 20
269.071305106202
 30
0.0
 10
319.4315809951266
 20
268.9817294852966
 30
0.0
 10
318.1597953326335
 20
268.9003259671543
 30
0.0
  0
SPLINE
  5
1B5
330
1F
100
AcDbEntity
  8
1
100
AcDbSpline
210
0.0
220
0.0
230
1.0
 70
     8
 71
     3
 72
    34
 73
    30
 74
     0
 42
0.000000001
 43
0.0000000001
 40
0.0
 40
0.0
 40
0.0
 40
0.0
 40
0.0718029720175338
 40
0.0718029720175338
 40
0.1436059440350675
 40
0.1436059440350675
 40
0.2154089160526013
 40
0.2154089160526013
 40
0.287211888070135
 40
0.287211888070135
 40
0.3590148600876689
 40
0.3590148600876689
 40
0.4308178321052026
 40
0.4308178321052026
 40
0.5026208041227364
 40
0.5026208041227364
 40
0.5744237761402701
 40
0.5744237761402701
 40
0.6462267481578038
 40
0.6462267481578038
 40
0.7180297201753377
 40
0.7180297201753377
 40
0.7898326921928715
 40
0.7898326921928715
 40
0.8616356642104051
 40
0.8616356642104051
 40
0.933438636227939
 40
0.933438636227939
 40
1.0
 40
1.0
 40
1.0
 40
1.0
 10
318.1597953326337
 20
268.9003259671508
 30
0.0
 10
318.98551775413
 20
269.058933600042
 30
0.0
 10
319.8123334207839
 20
269.2186720073296
 30
0.0
 10
321.4683828975356
 20
269.5387416837941
 30
0.0
 10
322.2976170434994
 20
269.6990712689486
 30
0.0
 10
323.9586974116733
 20
270.0186323294833
 30
0.0
 10
324.7905439830928
 20
270.1778616477845
 30
0.0
 10
326.4569944580707
 20
270.4935689139812
 30
0.0
 10
327.291598699683
 20
270.6500442478409
 30
0.0
 10
328.9636506765108
 20
270.9586997100212
 30
0.0
 10
329.8010987012487
 20
271.1108768868711
 30
0.0
 10
331.4788557388155
 20
271.4095857015429
 30
0.0
 10
332.319164944549
 20
271.5561143068248
 30
0.0
 10
334.002585739701
 20
271.8424600542166
 30
0.0
 10
334.8456973748042
 20
271.9822744741837
 30
0.0
 10
336.5345845531359
 20
272.2544982992658
 30
0.0
 10
337.3803599560143
 20
272.3869057564196
 30
0.0
 10
339.0743576122863
 20
272.6440663526023
 30
0.0
 10
339.9226681907407
 20
272.7688307641145
 30
0.0
 10
341.6206949082933
 20
273.0108374641729
 30
0.0
 10
342.4704808125838
 20
273.1280920913839
 30
0.0
 10
344.1713471056549
 20
273.355854627153
 30
0.0
 10
345.0224270592971
 20
273.4663645470166
 30
0.0
 10
346.7256022584821
 20
273.6818328301596
 30
0.0
 10
347.5776970582109
 20
273.786794068254
 30
0.0
 10
349.2826083388343
 20
273.9927280843215
 30
0.0
 10
350.1354244112497
 20
274.0937040911756
 30
0.0
 10
351.7792121540592
 20
274.2862123666361
 30
0.0
 10
352.5701535227816
 20
274.3778985921617
 30
0.0
 10
353.3611646180098
 20
274.4694633972907
 30
0.0
  0
SPLINE
  5
1B6
330
1F
100
AcDbEntity
  8
1
100
AcDbSpline
210
0.0
220
0.0
230
1.0
 70
     8
 71
     3
 72
    42
 73
    38
 74
     0
 42
0.000000001
 43
0.0000000001
 40
0.0
 40
0.0
 40
0.0
 40
0.0
 40
0.0625000000000002
 40
0.0625000000000002
 40
0.1250000000000005
 40
0.1250000000000005
 40
0.1875000000000007
 40
0.1875000000000007
 40
0.2500000000000009
 40
0.2500000000000009
 40
0.3750000000000016
 40
0.3750000000000016
 40
0.4375000000000019
 40
0.4375000000000019
 40
0.4531250000000022
 40
0.4531250000000022
 40
0.4687500000000023
 40
0.5000000000000023
 40
0.5000000000000023
 40
0.5625000000000018
 40
0.5625000000000018
 40
0.6250000000000014
 40
0.6250000000000014
 40
0.6875000000000009
 40
0.6875000000000009
 40
0.7500000000000005
 40
0.7500000000000005
 40
0.7812500000000005
 40
0.7968750000000004
 40
0.7968750000000004
 40
0.8125000000000003
 40
0.8125000000000003
 40
0.8750000000000001
 40
0.8750000000000001
 40
0.9375
 40
0.9375
 40
1.0
 40
1.0
 40
1.0
 40
1.0
 10
279.4048419452957
 20
276.6215108269052
 30
0.0
 10
279.5607095215945
 20
276.8748937705663
 30
0.0
 10
279.7215927634176
 20
277.1229240922614
 30
0.0
 10
280.0532062097269
 20
277.6089348544206
 30
0.0
 10
280.2239374350461
 20
277.8469128038203
 30
0.0
 10
280.5751970115005
 20
278.3132460250486
 30
0.0
 10
280.7557257877028
 20
278.5415999256329
 30
0.0
 10
281.1266408323302
 20
278.9889480218915
 30
0.0
 10
281.3170271394843
 20
279.2079415135245
 30
0.0
 10
281.9032187163712
 20
279.8510750097454
 30
0.0
 10
282.3139956873094
 20
280.2614269795249
 30
0.0
 10
282.9621270514396
 20
280.8490375124924
 30
0.0
 10
283.1835127946102
 20
281.0402402392144
 30
0.0
 10
283.4672580754341
 20
281.2732583169387
 30
0.0
 10
283.5243933209039
 20
281.3195903288735
 30
0.0
 10
283.6391966095264
 20
281.4115068899889
 30
0.0
 10
283.8121238205434
 20
281.5482012342792
 30
0.0
 10
283.9872250490599
 20
281.6813606359125
 30
0.0
 10
284.3403532650835
 20
281.9429692513779
 30
0.0
 10
284.579669905372
 20
282.1111001906037
 30
0.0
 10
285.066315582088
 20
282.4347016702615
 30
0.0
 10
285.3136439838743
 20
282.5901729932369
 30
0.0
 10
285.8166383363989
 20
282.8881618835123
 30
0.0
 10
286.0723033210076
 20
283.030680795717
 30
0.0
 10
286.5924288019054
 20
283.3022569070451
 30
0.0
 10
286.8568878449158
 20
283.431316244153
 30
0.0
 10
287.2606428165545
 20
283.6142286517516
 30
0.0
 10
287.4642890786088
 20
283.703012295477
 30
0.0
 10
287.6706996012707
 20
283.7876424104622
 30
0.0
 10
287.8089350659432
 20
283.8431205671032
 30
0.0
 10
287.8783976418145
 20
283.8704005621103
 30
0.0
 10
288.2269804153941
 20
284.0042667322156
 30
0.0
 10
288.5083567196609
 20
284.1026780584149
 30
0.0
 10
289.0763497339825
 20
284.281411379552
 30
0.0
 10
289.362965686867
 20
284.3617360473366
 30
0.0
 10
289.9417639174609
 20
284.5031939947181
 30
0.0
 10
290.2339450377022
 20
284.5643313811136
 30
0.0
 10
290.5291396759602
 20
284.6150825660843
 30
0.0
  0
SPLINE
  5
1B7
330
1F
100
AcDbEntity
  8
1
100
AcDbSpline
210
0.0
220
0.0
230
1.0
 70
     8
 71
     3
 72
    16
 73
    12
 74
     0
 42
0.000000001
 43
0.0000000001
 40
0.0
 40
0.0
 40
0.0
 40
0.0
 40
0.2499999999999997
 40
0.2499999999999997
 40
0.4999999999999994
 40
0.4999999999999994
 40
0.7499999999999992
 40
0.7499999999999992
 40
0.8749999999999996
 40
0.8749999999999996
 40
1.0
 40
1.0
 40
1.0
 40
1.0
 10
457.0314221153652
 20
296.3508169016164
 30
0.0
 10
456.9734075413626
 20
296.3129936083351
 30
0.0
 10
456.9144381738153
 20
296.27785718581
 30
0.0
 10
456.7944853815934
 20
296.2126413627741
 30
0.0
 10
456.7335035435455
 20
296.182564066383
 30
0.0
 10
456.6094005414651
 20
296.1273530542231
 30
0.0
 10
456.5462805749412
 20
296.1022196296286
 30
0.0
 10
456.4498536486748
 20
296.0682634335903
 30
0.0
 10
456.4173975266125
 20
296.0575645593331
 30
0.0
 10
456.352142950326
 20
296.037517940148
 30
0.0
 10
456.3193140069943
 20
296.0281584045718
 30
0.0
 10
456.2862634802753
 20
296.0194656116002
 30
0.0
  0
SPLINE
  5
1B8
330
1F
100
AcDbEntity
  8
1
100
AcDbSpline
210
0.0
220
0.0
230
1.0
 70
     8
 71
     3
 72
    28
 73
    24
 74
     0
 42
0.000000001
 43
0.0000000001
 40
0.0
 40
0.0
 40
0.0
 40
0.0
 40
0.1250000000000078
 40
0.2500000000000157
 40
0.3750000000000235
 40
0.3750000000000235
 40
0.4062500000000188
 40
0.4062500000000188
 40
0.4375000000000139
 40
0.4375000000000139
 40
0.5000000000000132
 40
0.5000000000000132
 40
0.6250000000000209
 40
0.6250000000000209
 40
0.6875000000000203
 40
0.6875000000000203
 40
0.7187500000000199
 40
0.7187500000000199
 40
0.7500000000000196
 40
0.7500000000000196
 40
0.8750000000000097
 40
0.8750000000000097
 40
1.0
 40
1.0
 40
1.0
 40
1.0
 10
456.2856058220136
 20
295.8021163185767
 30
0.0
 10
455.9122444850307
 20
295.7890319280129
 30
0.0
 10
455.1676361529113
 20
295.7886799224216
 30
0.0
 10
454.0569561989573
 20
295.8642257801304
 30
0.0
 10
453.3206457445159
 20
295.9651282277375
 30
0.0
 10
452.8617613532218
 20
296.0441556749047
 30
0.0
 10
452.7700500330796
 20
296.0607602418826
 30
0.0
 10
452.586759191212
 20
296.0955754495719
 30
0.0
 10
452.4952305098913
 20
296.1137773771998
 30
0.0
 10
452.221468662712
 20
296.1706653640746
 30
0.0
 10
452.0398745344761
 20
296.2116675838142
 30
0.0
 10
451.4978165415674
 20
296.3438403964357
 30
0.0
 10
451.1400737685677
 20
296.4441664930978
 30
0.0
 10
450.6088960052407
 20
296.6129095640791
 30
0.0
 10
450.4327436429274
 20
296.6722022505585
 30
0.0
 10
450.169882004213
 20
296.7657250476018
 30
0.0
 10
450.0824483636724
 20
296.7976792106325
 30
0.0
 10
449.9083247837524
 20
296.8630115414709
 30
0.0
 10
449.8216192790046
 20
296.8963943472315
 30
0.0
 10
449.3898659604288
 20
297.066874002322
 30
0.0
 10
449.0501342390381
 20
297.2146555813251
 30
0.0
 10
448.3819333189658
 20
297.532762545369
 30
0.0
 10
448.0534641031749
 20
297.7030883868794
 30
0.0
 10
447.7306694494818
 20
297.8847113166632
 30
0.0
  0
SPLINE
  5
1B9
330
1F
100
AcDbEntity
  8
1
100
AcDbSpline
210
0.0
220
0.0
230
1.0
 70
     8
 71
     3
 72
    24
 73
    20
 74
     0
 42
0.000000001
 43
0.0000000001
 40
0.0
 40
0.0
 40
0.0
 40
0.0
 40
0.1249999999999969
 40
0.1249999999999969
 40
0.1874999999999906
 40
0.1874999999999906
 40
0.2499999999999843
 40
0.2499999999999843
 40
0.3749999999999716
 40
0.3749999999999716
 40
0.4374999999999705
 40
0.4374999999999705
 40
0.499999999999969
 40
0.499999999999969
 40
0.6249999999999769
 40
0.7499999999999845
 40
0.8749999999999921
 40
0.8749999999999921
 40
1.0
 40
1.0
 40
1.0
 40
1.0
 10
448.8542349481996
 20
293.3329457681015
 30
0.0
 10
449.1430925593514
 20
293.1798277118772
 30
0.0
 10
449.4372753404526
 20
293.0359991413864
 30
0.0
 10
449.8865663723718
 20
292.8344512275181
 30
0.0
 10
450.0378057981752
 20
292.7695819607062
 30
0.0
 10
450.3419606042086
 20
292.6450428086566
 30
0.0
 10
450.4949376964531
 20
292.5853393655028
 30
0.0
 10
450.9565491487297
 20
292.4139086941717
 30
0.0
 10
451.2678607828241
 20
292.3098537201508
 30
0.0
 10
451.7401602654148
 20
292.1691746114859
 30
0.0
 10
451.8984828168119
 20
292.1248506248543
 30
0.0
 10
452.2169115831838
 20
292.0413727289892
 30
0.0
 10
452.3771587104446
 20
292.0021925847044
 30
0.0
 10
452.8582535336757
 20
291.8929756614168
 30
0.0
 10
453.5019597317086
 20
291.7691489068171
 30
0.0
 10
454.4741146674642
 20
291.6476507283344
 30
0.0
 10
455.1265841761
 20
291.6092880226954
 30
0.0
 10
455.7812533842865
 20
291.5924314855809
 30
0.0
 10
456.109687758046
 20
291.5947555741599
 30
0.0
 10
456.4392471642984
 20
291.6080773362761
 30
0.0
  0
SPLINE
  5
1BA
330
1F
100
AcDbEntity
  8
1
100
AcDbSpline
210
0.0
220
0.0
230
1.0
 70
     8
 71
     3
 72
     8
 73
     4
 74
     0
 42
0.000000001
 43
0.0000000001
 40
0.0
 40
0.0
 40
0.0
 40
0.0
 40
1.0
 40
1.0
 40
1.0
 40
1.0
 10
456.2856058220136
 20
295.8021163185767
 30
0.0
 10
456.2889833369474
 20
295.8022346830675
 30
0.0
 10
456.2923613659042
 20
295.8023528133543
 30
0.0
 10
456.2957399093498
 20
295.8024707092247
 30
0.0
  0
SPLINE
  5
1BB
330
1F
100
AcDbEntity
  8
1
100
AcDbSpline
210
0.0
220
0.0
230
1.0
 70
     8
 71
     3
 72
    26
 73
    22
 74
     0
 42
0.000000001
 43
0.0000000001
 40
0.0
 40
0.0
 40
0.0
 40
0.0
 40
0.125000000000006
 40
0.125000000000006
 40
0.250000000000012
 40
0.250000000000012
 40
0.3750000000000181
 40
0.3750000000000181
 40
0.4062500000000225
 40
0.4062500000000225
 40
0.437500000000027
 40
0.437500000000027
 40
0.5000000000000236
 40
0.5000000000000236
 40
0.6250000000000177
 40
0.6250000000000177
 40
0.7500000000000118
 40
0.7500000000000118
 40
0.875000000000006
 40
0.875000000000006
 40
1.0
 40
1.0
 40
1.0
 40
1.0
 10
454.7048419452958
 20
292.1935182435423
 30
0.0
 10
454.442168436351
 20
292.2011172619133
 30
0.0
 10
454.1822597004029
 20
292.2134528307914
 30
0.0
 10
453.6670067635707
 20
292.2479036094135
 30
0.0
 10
453.4116671640882
 20
292.2700172422464
 30
0.0
 10
452.9048956896836
 20
292.3243018629967
 30
0.0
 10
452.6534665019836
 20
292.3564717863527
 30
0.0
 10
452.3413293028695
 20
292.4031526588858
 30
0.0
 10
452.2790096944531
 20
292.4128123309744
 30
0.0
 10
452.1545800886993
 20
292.4327836162568
 30
0.0
 10
452.0924672563929
 20
292.4430961517045
 30
0.0
 10
451.9068039347626
 20
292.4749533995649
 30
0.0
 10
451.7838029827792
 20
292.4974372322974
 30
0.0
 10
451.4170053732159
 20
292.5686278802534
 30
0.0
 10
451.1754093676284
 20
292.6210719141236
 30
0.0
 10
450.6975875265518
 20
292.7359836300938
 30
0.0
 10
450.4613630378742
 20
292.7984511968194
 30
0.0
 10
449.9939180331954
 20
292.9335292938175
 30
0.0
 10
449.7626983415296
 20
293.0061396992601
 30
0.0
 10
449.3049960292018
 20
293.1616894228072
 30
0.0
 10
449.0785507908439
 20
293.2445832621486
 30
0.0
 10
448.8542349481996
 20
293.3329457681015
 30
0.0
  0
SPLINE
  5
1BC
330
1F
100
AcDbEntity
  8
1
100
AcDbSpline
210
0.0
220
0.0
230
1.0
 70
     8
 71
     3
 72
    32
 73
    28
 74
     0
 42
0.000000001
 43
0.0000000001
 40
0.0
 40
0.0
 40
0.0
 40
0.0
 40
0.124999999999987
 40
0.124999999999987
 40
0.2499999999999741
 40
0.2499999999999741
 40
0.2812499999999902
 40
0.2812499999999902
 40
0.3125000000000062
 40
0.3125000000000062
 40
0.3750000000000384
 40
0.3750000000000384
 40
0.5000000000001029
 40
0.5000000000001029
 40
0.5625000000001162
 40
0.5625000000001162
 40
0.6250000000001294
 40
0.6250000000001294
 40
0.7500000000001198
 40
0.7500000000001198
 40
0.8750000000001101
 40
0.8750000000001101
 40
0.9062500000000907
 40
0.9062500000000907
 40
0.9375000000000714
 40
0.9375000000000714
 40
1.0
 40
1.0
 40
1.0
 40
1.0
 10
456.2862634802751
 20
296.0194656116001
 30
0.0
 10
456.1998768468992
 20
295.9967446085177
 30
0.0
 10
456.1128217008754
 20
295.9787638788792
 30
0.0
 10
455.9370827792035
 20
295.9522654375766
 30
0.0
 10
455.8483942742404
 20
295.9437502229601
 30
0.0
 10
455.7363257082585
 20
295.939294471716
 30
0.0
 10
455.7138518268827
 20
295.9387137081335
 30
0.0
 10
455.6687804675068
 20
295.9381833271374
 30
0.0
 10
455.6461488245428
 20
295.9382352150151
 30
0.0
 10
455.5785703037017
 20
295.9393409968239
 30
0.0
 10
455.533806970838
 20
295.9413389397636
 30
0.0
 10
455.4003318763438
 20
295.9510004250887
 30
0.0
 10
455.3124365200437
 20
295.9623179033321
 30
0.0
 10
455.1819174970789
 20
295.9863640621591
 30
0.0
 10
455.138631125258
 20
295.995561042037
 30
0.0
 10
455.0524466243435
 20
296.0163196810439
 30
0.0
 10
455.009462845932
 20
296.0279106875947
 30
0.0
 10
454.8821298044251
 20
296.0659252290869
 30
0.0
 10
454.7991170083178
 20
296.0956208685359
 30
0.0
 10
454.6362821330795
 20
296.163600299913
 30
0.0
 10
454.5564652661676
 20
296.2018829742559
 30
0.0
 10
454.4584530174768
 20
296.255331402834
 30
0.0
 10
454.4389387134473
 20
296.2663021176027
 30
0.0
 10
454.4000807715241
 20
296.2888168334465
 30
0.0
 10
454.3807066675074
 20
296.300379956768
 30
0.0
 10
454.3231166575133
 20
296.3357724788683
 30
0.0
 10
454.285420097567
 20
296.3603068219141
 30
0.0
 10
454.2484131757431
 20
296.3857559236709
 30
0.0
  0
SPLINE
  5
1BD
330
1F
100
AcDbEntity
  8
1
100
AcDbSpline
210
0.0
220
0.0
230
1.0
 70
     8
 71
     3
 72
     8
 73
     4
 74
     0
 42
0.000000001
 43
0.0000000001
 40
0.0
 40
0.0
 40
0.0
 40
0.0
 40
1.0
 40
1.0
 40
1.0
 40
1.0
 10
449.2291498819038
 20
304.8951592302889
 30
0.0
 10
449.1884759403575
 20
306.3743455268004
 30
0.0
 10
449.1543436962426
 20
307.8536807891659
 30
0.0
 10
449.1243344961724
 20
309.3331099404314
 30
0.0
  0
SPLINE
  5
1BE
330
1F
100
AcDbEntity
  8
1
100
AcDbSpline
210
0.0
220
0.0
230
1.0
 70
     8
 71
     3
 72
    48
 73
    44
 74
     0
 42
0.000000001
 43
0.0000000001
 40
0.0
 40
0.0
 40
0.0
 40
0.0
 40
0.0574250602385838
 40
0.0574250602385838
 40
0.1148501204771676
 40
0.1148501204771676
 40
0.1722751807157513
 40
0.1722751807157513
 40
0.2297002409543351
 40
0.2297002409543351
 40
0.2440565060139813
 40
0.2440565060139813
 40
0.2584127710736275
 40
0.2584127710736275
 40
0.2871253011929199
 40
0.2871253011929199
 40
0.3445503614315047
 40
0.3445503614315047
 40
0.4019754216700895
 40
0.4019754216700895
 40
0.4306879517893819
 40
0.4306879517893819
 40
0.4594004819086743
 40
0.4594004819086743
 40
0.5742506023858418
 40
0.5742506023858418
 40
0.6316756626244255
 40
0.6316756626244255
 40
0.689100722863009
 40
0.689100722863009
 40
0.7465257831015927
 40
0.7465257831015927
 40
0.8039508433401765
 40
0.8039508433401765
 40
0.8613759035787602
 40
0.8613759035787602
 40
0.8900884336980517
 40
0.8900884336980517
 40
0.9188009638173431
 40
0.9188009638173431
 40
0.9762260240559269
 40
0.9762260240559269
 40
1.0
 40
1.0
 40
1.0
 40
1.0
 10
449.1243344961726
 20
309.3331099404315
 30
0.0
 10
447.695380222759
 20
309.3716509016297
 30
0.0
 10
446.260753676704
 20
309.3934783049917
 30
0.0
 10
443.3799743150121
 20
309.411959008523
 30
0.0
 10
441.933825358189
 20
309.4086284453203
 30
0.0
 10
439.0305424759721
 20
309.3838921177854
 30
0.0
 10
437.5734115363851
 20
309.3624954291182
 30
0.0
 10
434.6493179531471
 20
309.3071524571114
 30
0.0
 10
433.1823578995753
 20
309.2732104304517
 30
0.0
 10
431.3435651133412
 20
309.2252896106855
 30
0.0
 10
430.9755531099465
 20
309.21542634908
 30
0.0
 10
430.2390530360301
 20
309.1951824145428
 30
0.0
 10
429.8705368647336
 20
309.1848009258312
 30
0.0
 10
428.7645383740426
 20
309.1529369612979
 30
0.0
 10
428.0266838750681
 20
309.1307411042617
 30
0.0
 10
425.8118118336624
 20
309.0615692100115
 30
0.0
 10
424.3334776008358
 20
309.0120662092478
 30
0.0
 10
421.3748935143907
 20
308.9063590832912
 30
0.0
 10
419.8946457914168
 20
308.8501542517292
 30
0.0
 10
417.6742094515316
 20
308.7595069185101
 30
0.0
 10
416.9340716406101
 20
308.7281941606286
 30
0.0
 10
415.4539158693377
 20
308.6632007666355
 30
0.0
 10
414.7138838138072
 20
308.6295396904919
 30
0.0
 10
411.0139466532918
 20
308.4553469160056
 30
0.0
 10
408.0547171731441
 20
308.2971594861326
 30
0.0
 10
403.6168421771752
 20
308.030164585876
 30
0.0
 10
402.1377967664585
 20
307.9362178888819
 30
0.0
 10
399.1804410821877
 20
307.7382360558171
 30
0.0
 10
397.702087797313
 20
307.6341990410402
 30
0.0
 10
394.7459779792027
 20
307.4158550852862
 30
0.0
 10
393.2682204189139
 20
307.3015508937968
 30
0.0
 10
390.3132548874889
 20
307.0624813677655
 30
0.0
 10
388.8360453345439
 20
306.9377216792322
 30
0.0
 10
385.8821739213301
 20
306.6774124285511
 30
0.0
 10
384.4055099326316
 20
306.5418722627532
 30
0.0
 10
382.1909990401517
 20
306.3299532237274
 30
0.0
 10
381.4529105843486
 20
306.257875045862
 30
0.0
 10
379.9769254040517
 20
306.1106922583727
 30
0.0
 10
379.2390064865048
 20
306.0355716156227
 30
0.0
 10
377.0257709948844
 20
305.8055306419959
 30
0.0
 10
375.5510021025568
 20
305.6459514489819
 30
0.0
 10
373.4666048013831
 20
305.4114444696897
 30
0.0
 10
372.8564343292197
 20
305.3417075375849
 30
0.0
 10
372.2463667280193
 20
305.2709095236281
 30
0.0
  0
SPLINE
  5
1BF
330
1F
100
AcDbEntity
  8
1
100
AcDbSpline
210
0.0
220
0.0
230
1.0
 70
    28
 71
     4
 72
    13
 73
     8
 74
     0
 42
0.000000001
 43
0.0000000001
 40
0.0
 40
0.0
 40
0.0
 40
0.0
 40
0.0
 40
0.3818224127277215
 40
0.3818224127277215
 40
0.3818224127277215
 40
1.0
 40
1.0
 40
1.0
 40
1.0
 40
1.0
 10
304.9048419452957
 20
282.6652341226713
 30
0.0
 41
0.997138250010429
 10
304.9048419452957
 20
281.4973055238326
 30
0.0
 41
0.9976146717286363
 10
304.9048419452959
 20
280.1988448714797
 30
0.0
 41
0.9991920231989583
 10
304.9048419452957
 20
278.8325041618663
 30
0.0
 41
1.001498006703475
 10
304.9048419452957
 20
275.3082971836207
 30
0.0
 41
1.001498006703475
 10
304.9048419452957
 20
272.8633642156914
 30
0.0
 41
0.995453513808234
 10
304.9048419452957
 20
270.5044213312733
 30
0.0
 41
0.9962428473583798
 10
304.9048419452957
 20
268.5048471226777
 30
0.0
 41
0.9984520715885452
  0
SPLINE
  5
1C0
330
1F
100
AcDbEntity
  8
1
100
AcDbSpline
210
0.0
220
0.0
230
1.0
 70
     8
 71
     3
 72
    69
 73
    65
 74
     0
 42
0.000000001
 43
0.0000000001
 40
0.0
 40
0.0
 40
0.0
 40
0.0
 40
0.03125
 40
0.03125
 40
0.0624999999999999
 40
0.0624999999999999
 40
0.0937499999999999
 40
0.0937499999999999
 40
0.1249999999999998
 40
0.1249999999999998
 40
0.1562499999999998
 40
0.1562499999999998
 40
0.1718749999999998
 40
0.1718749999999998
 40
0.1874999999999998
 40
0.1874999999999998
 40
0.2187499999999996
 40
0.2187499999999996
 40
0.2499999999999995
 40
0.2499999999999995
 40
0.2812499999999994
 40
0.2812499999999994
 40
0.3124999999999994
 40
0.3124999999999994
 40
0.3437499999999993
 40
0.3437499999999993
 40
0.3749999999999993
 40
0.3749999999999993
 40
0.3906249999999994
 40
0.3906249999999994
 40
0.4062499999999997
 40
0.4062499999999997
 40
0.4374999999999999
 40
0.4374999999999999
 40
0.4687500000000001
 40
0.4687500000000001
 40
0.5000000000000002
 40
0.5000000000000002
 40
0.5312500000000005
 40
0.5312500000000005
 40
0.5625000000000006
 40
0.5625000000000006
 40
0.5937500000000008
 40
0.5937500000000008
 40
0.6250000000000009
 40
0.6250000000000009
 40
0.6875000000000018
 40
0.6875000000000018
 40
0.7187500000000022
 40
0.7187500000000022
 40
0.7500000000000023
 40
0.7500000000000023
 40
0.8125000000000021
 40
0.8125000000000021
 40
0.8437500000000019
 40
0.8437500000000019
 40
0.8750000000000014
 40
0.8750000000000014
 40
0.9062500000000012
 40
0.9375000000000007
 40
0.9375000000000007
 40
0.9687500000000003
 40
0.9687500000000003
 40
1.0
 40
1.0
 40
1.0
 40
1.0
 10
307.7776710269759
 20
281.7558881835653
 30
0.0
 10
309.1715777908807
 20
281.4976056709552
 30
0.0
 10
310.5660264845951
 20
281.244506841821
 30
0.0
 10
313.3558373307001
 20
280.7475027963742
 30
0.0
 10
314.7511991501844
 20
280.5035958652249
 30
0.0
 10
317.542639275371
 20
280.0237714684394
 30
0.0
 10
318.938717259007
 20
279.7878524309202
 30
0.0
 10
321.7313766969474
 20
279.32282233806
 30
0.0
 10
323.1279578454392
 20
279.0937098613941
 30
0.0
 10
325.9214039882054
 20
278.6411789748135
 30
0.0
 10
327.3182686928425
 20
278.4177592800936
 30
0.0
 10
329.413615653604
 20
278.0861459184447
 30
0.0
 10
330.1120730029049
 20
277.9761951249094
 30
0.0
 10
331.5089782295507
 20
277.7573551882156
 30
0.0
 10
332.2074544134155
 20
277.6484616217102
 30
0.0
 10
334.3026147742788
 20
277.3232534753138
 30
0.0
 10
335.6989458496568
 20
277.1084180588462
 30
0.0
 10
338.4905048207283
 20
276.6820071673519
 30
0.0
 10
339.8857323959433
 20
276.4704306995436
 30
0.0
 10
342.6748799463555
 20
276.050069408386
 30
0.0
 10
344.0687995752205
 20
275.8412836460229
 30
0.0
 10
346.8551511428338
 20
275.4262783303374
 30
0.0
 10
348.2475826975953
 20
275.2200579050835
 30
0.0
 10
351.0308132667331
 20
274.8102279330743
 30
0.0
 10
352.4216118497052
 20
274.6066176260733
 30
0.0
 10
355.2014790607199
 20
274.2023473586491
 30
0.0
 10
356.5905472047845
 20
274.0016868350277
 30
0.0
 10
358.6728247581726
 20
273.7033996835677
 30
0.0
 10
359.3666970223594
 20
273.6044237540574
 30
0.0
 10
360.7540035800106
 20
273.4074906558213
 30
0.0
 10
361.4474259490768
 20
273.3094960700798
 30
0.0
 10
363.5271544997046
 20
273.0175763903862
 30
0.0
 10
364.9129837247918
 20
272.8259418428769
 30
0.0
 10
367.6847438415164
 20
272.4533603309094
 30
0.0
 10
369.0706756272048
 20
272.2724070018124
 30
0.0
 10
371.843711590321
 20
271.9241050574358
 30
0.0
 10
373.2308140743127
 20
271.7567424028803
 30
0.0
 10
376.006921841947
 20
271.4370319754373
 30
0.0
 10
377.3959223670423
 20
271.2846649231416
 30
0.0
 10
380.1763117907082
 20
270.9953599363068
 30
0.0
 10
381.5677489609719
 20
270.8585211005336
 30
0.0
 10
384.3527877804053
 20
270.5988216615314
 30
0.0
 10
385.746512633373
 20
270.47591985906
 30
0.0
 10
388.5347218776067
 20
270.2430411019889
 30
0.0
 10
389.9293222852819
 20
270.1330645123369
 30
0.0
 10
394.1146783668599
 20
269.8214914006474
 30
0.0
 10
396.9069939597786
 20
269.6382841592466
 30
0.0
 10
401.0992422945411
 20
269.3969604908143
 30
0.0
 10
402.4972885471482
 20
269.3220985596699
 30
0.0
 10
405.2947212518924
 20
269.1829054017649
 30
0.0
 10
406.6941078302783
 20
269.1185731796306
 30
0.0
 10
410.8943330216243
 20
268.9403339479413
 30
0.0
 10
413.6972426673485
 20
268.8411647618474
 30
0.0
 10
417.9056907354778
 20
268.7177011752676
 30
0.0
 10
419.3092642157841
 20
268.6807723289311
 30
0.0
 10
422.117254272174
 20
268.6145763058174
 30
0.0
 10
423.5216072558914
 20
268.5853089806109
 30
0.0
 10
426.3308556894832
 20
268.5338095832931
 30
0.0
 10
429.140647709192
 20
268.4893461859978
 30
0.0
 10
431.9511484619318
 20
268.4580408651241
 30
0.0
 10
434.7617891064809
 20
268.4330293058953
 30
0.0
 10
436.1671789460884
 20
268.4236699426056
 30
0.0
 10
438.9778622606974
 20
268.4111522080747
 30
0.0
 10
440.3831549278631
 20
268.4079935137005
 30
0.0
 10
441.7882795854604
 20
268.4079935137005
 30
0.0
  0
SPLINE
  5
1C1
330
1F
100
AcDbEntity
  8
1
100
AcDbSpline
210
0.0
220
0.0
230
1.0
 70
     8
 71
     3
 72
    72
 73
    68
 74
     0
 42
0.000000001
 43
0.0000000001
 40
0.0
 40
0.0
 40
0.0
 40
0.0
 40
0.0625000000000006
 40
0.0625000000000006
 40
0.1250000000000012
 40
0.1250000000000012
 40
0.1562500000000014
 40
0.1562500000000014
 40
0.1875000000000017
 40
0.1875000000000017
 40
0.2500000000000022
 40
0.2500000000000022
 40
0.2812500000000024
 40
0.2812500000000024
 40
0.3125000000000027
 40
0.3125000000000027
 40
0.3750000000000031
 40
0.3750000000000031
 40
0.3906250000000033
 40
0.3906250000000033
 40
0.4062500000000034
 40
0.4062500000000034
 40
0.4375000000000034
 40
0.4375000000000034
 40
0.4687500000000034
 40
0.4687500000000034
 40
0.5000000000000034
 40
0.5000000000000034
 40
0.5312500000000034
 40
0.5312500000000034
 40
0.5625000000000032
 40
0.5625000000000032
 40
0.5937500000000032
 40
0.5937500000000032
 40
0.6250000000000032
 40
0.6250000000000032
 40
0.6562500000000031
 40
0.6562500000000031
 40
0.6875000000000031
 40
0.6875000000000031
 40
0.7187500000000031
 40
0.7187500000000031
 40
0.7500000000000031
 40
0.7500000000000031
 40
0.7812500000000031
 40
0.7812500000000031
 40
0.812500000000003
 40
0.812500000000003
 40
0.843750000000003
 40
0.843750000000003
 40
0.8593750000000026
 40
0.8593750000000026
 40
0.8750000000000023
 40
0.8750000000000023
 40
0.8906250000000021
 40
0.8906250000000021
 40
0.9062500000000017
 40
0.9062500000000017
 40
0.9218750000000014
 40
0.9218750000000014
 40
0.9375000000000012
 40
0.9375000000000012
 40
0.9531250000000007
 40
0.9531250000000007
 40
0.9687500000000005
 40
0.9687500000000005
 40
1.0
 40
1.0
 40
1.0
 40
1.0
 10
304.9048419452956
 20
309.4057779562651
 30
0.0
 10
307.9063192285636
 20
309.3975293959634
 30
0.0
 10
310.9067576857919
 20
309.3662016425038
 30
0.0
 10
316.9060931366145
 20
309.2558200556737
 30
0.0
 10
319.9049962353735
 20
309.1767422411421
 30
0.0
 10
324.4029135104733
 20
309.0215195475574
 30
0.0
 10
325.9022221050644
 20
308.9636807614684
 30
0.0
 10
328.9003692212557
 20
308.8358032025739
 30
0.0
 10
330.399222739681
 20
308.7657643456098
 30
0.0
 10
334.8953564862558
 20
308.537435908813
 30
0.0
 10
337.8922072220821
 20
308.3608901141627
 30
0.0
 10
342.3876426631533
 20
308.0607159865714
 30
0.0
 10
343.8861486014618
 20
307.9547765456581
 30
0.0
 10
346.8833889928093
 20
307.7314509358383
 30
0.0
 10
348.3820870892884
 20
307.6140672723827
 30
0.0
 10
352.8778823473493
 20
307.2454104483863
 30
0.0
 10
355.8749751708272
 20
306.9775927389096
 30
0.0
 10
359.6220099555372
 20
306.6176464938289
 30
0.0
 10
360.3714499108397
 20
306.5443999455272
 30
0.0
 10
361.8704138017491
 20
306.3954561846086
 30
0.0
 10
362.619937966944
 20
306.3197608164522
 30
0.0
 10
364.8685486718578
 20
306.0887745575545
 30
0.0
 10
366.3677061558902
 20
305.9295606940171
 30
0.0
 10
369.3656679872565
 20
305.5998491975831
 30
0.0
 10
370.8643354027528
 20
305.4293628120564
 30
0.0
 10
373.861040748653
 20
305.0768953090402
 30
0.0
 10
375.3590804183066
 20
304.8949135591306
 30
0.0
 10
378.3547498254491
 20
304.5199171522032
 30
0.0
 10
379.8523732849761
 20
304.326875955173
 30
0.0
 10
382.8476311726739
 20
303.9310366685211
 30
0.0
 10
384.3452955378978
 20
303.7283400361226
 30
0.0
 10
387.3411657854642
 20
303.3151309159777
 30
0.0
 10
388.8394333171482
 20
303.1046086541334
 30
0.0
 10
391.8361923414008
 20
302.6770097029646
 30
0.0
 10
393.3347360690829
 20
302.4599245590804
 30
0.0
 10
396.3322645313978
 20
302.0198364819247
 30
0.0
 10
397.8312482665856
 20
301.7968322334501
 30
0.0
 10
400.8296477335297
 20
301.3450672594169
 30
0.0
 10
402.3290628149483
 20
301.1163059192953
 30
0.0
 10
405.3282218510524
 20
300.6527297931731
 30
0.0
 10
406.8279655119048
 20
300.4179155636598
 30
0.0
 10
409.8275986607959
 20
299.941481117653
 30
0.0
 10
411.3274123858996
 20
299.6998749734678
 30
0.0
 10
414.3265096853313
 20
299.2086790669371
 30
0.0
 10
415.8258331914255
 20
298.9590881031302
 30
0.0
 10
418.8236671365306
 20
298.4500704860991
 30
0.0
 10
420.3221939502744
 20
298.1904851470459
 30
0.0
 10
423.318211075392
 20
297.6614477129609
 30
0.0
 10
424.8156924537343
 20
297.3919721077192
 30
0.0
 10
427.0615930433743
 20
296.9823357640509
 30
0.0
 10
427.8101774461015
 20
296.8449081199374
 30
0.0
 10
429.3073866595964
 20
296.5689278148993
 30
0.0
 10
430.0560113292307
 20
296.4303741496552
 30
0.0
 10
431.5534861206137
 20
296.1530238842436
 30
0.0
 10
432.3023434162898
 20
296.0142253325713
 30
0.0
 10
433.800403678041
 20
295.7375590988807
 30
0.0
 10
434.5496188026626
 20
295.5996892440183
 30
0.0
 10
436.0486882167182
 20
295.3263109456324
 30
0.0
 10
436.7985427422105
 20
295.1908035388673
 30
0.0
 10
438.2992043469728
 20
294.9238495199656
 30
0.0
 10
439.0500118517755
 20
294.7924050460578
 30
0.0
 10
440.5529269765204
 20
294.5354932721025
 30
0.0
 10
441.305035162801
 20
294.4100290065068
 30
0.0
 10
442.8109182371734
 20
294.1671321972919
 30
0.0
 10
443.5647827884921
 20
294.0496909599815
 30
0.0
 10
445.8280334217268
 20
293.7127575346425
 30
0.0
 10
447.3394212676754
 20
293.5086612857436
 30
0.0
 10
448.8542349481996
 20
293.3329457681015
 30
0.0
  0
SPLINE
  5
1C2
330
1F
100
AcDbEntity
  8
1
100
AcDbSpline
210
0.0
220
0.0
230
1.0
 70
     8
 71
     3
 72
    44
 73
    40
 74
     0
 42
0.000000001
 43
0.0000000001
 40
0.0
 40
0.0
 40
0.0
 40
0.0
 40
0.0312499999999984
 40
0.0312499999999984
 40
0.0624999999999967
 40
0.124999999999993
 40
0.124999999999993
 40
0.2499999999999853
 40
0.2499999999999853
 40
0.3749999999999776
 40
0.3749999999999776
 40
0.4374999999999735
 40
0.4374999999999735
 40
0.4999999999999693
 40
0.4999999999999693
 40
0.5624999999999652
 40
0.5624999999999652
 40
0.5937499999999673
 40
0.5937499999999673
 40
0.6249999999999693
 40
0.6249999999999693
 40
0.6874999999999732
 40
0.6874999999999732
 40
0.7499999999999771
 40
0.7499999999999771
 40
0.7812499999999796
 40
0.7812499999999796
 40
0.7968749999999804
 40
0.7968749999999804
 40
0.8124999999999811
 40
0.8749999999999873
 40
0.8749999999999873
 40
0.9374999999999937
 40
0.9374999999999937
 40
0.9531249999999948
 40
0.9531249999999948
 40
0.968749999999996
 40
0.968749999999996
 40
1.0
 40
1.0
 40
1.0
 40
1.0
 10
445.1436240009206
 20
300.0114354635614
 30
0.0
 10
445.204960550108
 20
300.0441917851118
 30
0.0
 10
445.2661430671228
 20
300.0773823758713
 30
0.0
 10
445.3878954597429
 20
300.1445077250141
 30
0.0
 10
445.5696434914973
 20
300.2463315821635
 30
0.0
 10
445.7486606834796
 20
300.3516779580131
 30
0.0
 10
446.1027772797876
 20
300.567424276173
 30
0.0
 10
446.333652998439
 20
300.7179652466595
 30
0.0
 10
446.7830953569634
 20
301.0349247065631
 30
0.0
 10
447.0016780503858
 20
301.2013224884569
 30
0.0
 10
447.3182481017998
 20
301.4655002114405
 30
0.0
 10
447.4218792818452
 20
301.5560001689418
 30
0.0
 10
447.6248723850829
 20
301.7425070116133
 30
0.0
 10
447.7242359236805
 20
301.8385118130674
 30
0.0
 10
447.9180743949048
 20
302.0368272439936
 30
0.0
 10
448.0125519407732
 20
302.139134502638
 30
0.0
 10
448.1499888160239
 20
302.2981154581274
 30
0.0
 10
448.1951674417818
 20
302.3521365707791
 30
0.0
 10
448.2833472128437
 20
302.4614068708582
 30
0.0
 10
448.3263935034083
 20
302.5167012965193
 30
0.0
 10
448.4522273547884
 20
302.6846724710019
 30
0.0
 10
448.5317191229927
 20
302.7994312878591
 30
0.0
 10
448.6807866612554
 20
303.0352132061379
 30
0.0
 10
448.7503667553884
 20
303.1562335758898
 30
0.0
 10
448.8462044310202
 20
303.3431543889224
 30
0.0
 10
448.8767251595416
 20
303.4063616523846
 30
0.0
 10
448.9201967823682
 20
303.502631520924
 30
0.0
 10
448.9343061814058
 20
303.5349781205624
 30
0.0
 10
448.9615798116888
 20
303.5998244638776
 30
0.0
 10
449.0274952847521
 20
303.7625322640279
 30
0.0
 10
449.0818991950751
 20
303.9282437527707
 30
0.0
 10
449.1530297839879
 20
304.1975349774535
 30
0.0
 10
449.180640267617
 20
304.3342562223634
 30
0.0
 10
449.2042669190163
 20
304.5079983585192
 30
0.0
 10
449.2084469940651
 20
304.542889058086
 30
0.0
 10
449.2156890868696
 20
304.6129621896292
 30
0.0
 10
449.2187533536815
 20
304.6481849278899
 30
0.0
 10
449.2262001384238
 20
304.753898359421
 30
0.0
 10
449.2288474928523
 20
304.8244767789951
 30
0.0
 10
449.2291498819038
 20
304.8951592302889
 30
0.0
  0
SPLINE
  5
1C3
330
1F
100
AcDbEntity
  8
1
100
AcDbSpline
210
0.0
220
0.0
230
1.0
 70
     8
 71
     3
 72
    36
 73
    32
 74
     0
 42
0.000000001
 43
0.0000000001
 40
0.0
 40
0.0
 40
0.0
 40
0.0
 40
0.0624999999999997
 40
0.0624999999999997
 40
0.1249999999999993
 40
0.1249999999999993
 40
0.187499999999999
 40
0.187499999999999
 40
0.2499999999999987
 40
0.2499999999999987
 40
0.374999999999998
 40
0.374999999999998
 40
0.4374999999999977
 40
0.4374999999999977
 40
0.4687499999999976
 40
0.4687499999999976
 40
0.4999999999999973
 40
0.4999999999999973
 40
0.6249999999999978
 40
0.6249999999999978
 40
0.7499999999999982
 40
0.7499999999999982
 40
0.8124999999999985
 40
0.8124999999999985
 40
0.8749999999999989
 40
0.8749999999999989
 40
0.9062499999999992
 40
0.9062499999999992
 40
0.9374999999999996
 40
0.9374999999999996
 40
1.0
 40
1.0
 40
1.0
 40
1.0
 10
290.5291396759393
 20
268.6041564854856
 30
0.0
 10
290.2340948509626
 20
268.6241951075916
 30
0.0
 10
289.9435784854694
 20
268.638450387056
 30
0.0
 10
289.3707735545925
 20
268.6572426591338
 30
0.0
 10
289.0884876877288
 20
268.6617762328875
 30
0.0
 10
288.5315626694932
 20
268.6626620487334
 30
0.0
 10
288.2569252434932
 20
268.6590119069414
 30
0.0
 10
287.7148913409174
 20
268.6448506909828
 30
0.0
 10
287.4474960011032
 20
268.6343378459027
 30
0.0
 10
286.6557632946195
 20
268.5942549847845
 30
0.0
 10
286.1418378622292
 20
268.5561715430197
 30
0.0
 10
285.3910564660458
 20
268.4881331678116
 30
0.0
 10
285.1441583047174
 20
268.4636251842608
 30
0.0
 10
284.7788512108337
 20
268.4248345389364
 30
0.0
 10
284.6578283925841
 20
268.4115550589718
 30
0.0
 10
284.4181666619629
 20
268.3845178254201
 30
0.0
 10
284.2994798911828
 20
268.3707556912228
 30
0.0
 10
283.7117047211113
 20
268.3010377187168
 30
0.0
 10
283.2595435198257
 20
268.2423535690123
 30
0.0
 10
282.3905933943161
 20
268.1270501608371
 30
0.0
 10
281.9738099102949
 20
268.0703819078844
 30
0.0
 10
281.3754562051085
 20
267.9934786213971
 30
0.0
 10
281.1804833744345
 20
267.9692054555513
 30
0.0
 10
280.7996443580945
 20
267.9247158442413
 30
0.0
 10
280.6137777414894
 20
267.9044957241377
 30
0.0
 10
280.3419781233966
 20
267.8784023311197
 30
0.0
 10
280.2525456139812
 20
267.8704130561117
 30
0.0
 10
280.0760525013694
 20
267.8560868107634
 30
0.0
 10
279.9889646098373
 20
267.8497479423878
 30
0.0
 10
279.7315020960364
 20
267.8336192793285
 30
0.0
 10
279.5653491651442
 20
267.8267229337119
 30
0.0
 10
279.4048419452957
 20
267.8248726870697
 30
0.0
  0
SPLINE
  5
1C4
330
1F
100
AcDbEntity
  8
1
100
AcDbSpline
210
0.0
220
0.0
230
1.0
 70
     8
 71
     3
 72
    43
 73
    39
 74
     0
 42
0.000000001
 43
0.0000000001
 40
0.0
 40
0.0
 40
0.0
 40
0.0
 40
0.0625
 40
0.1249999999999999
 40
0.1874999999999999
 40
0.1874999999999999
 40
0.2499999999999998
 40
0.2499999999999998
 40
0.2656249999999997
 40
0.2656249999999997
 40
0.2812499999999995
 40
0.2812499999999995
 40
0.3124999999999994
 40
0.3124999999999994
 40
0.3749999999999996
 40
0.4374999999999999
 40
0.5
 40
0.5
 40
0.53125
 40
0.5468750000000001
 40
0.5468750000000001
 40
0.5625000000000001
 40
0.5625000000000001
 40
0.6250000000000002
 40
0.6250000000000002
 40
0.6875000000000005
 40
0.6875000000000005
 40
0.7500000000000006
 40
0.7500000000000006
 40
0.7812500000000007
 40
0.7812500000000007
 40
0.8125000000000003
 40
0.8125000000000003
 40
0.8750000000000003
 40
0.8750000000000003
 40
0.9375
 40
0.9375
 40
1.0
 40
1.0
 40
1.0
 40
1.0
 10
279.4048419452957
 20
276.6215108269052
 30
0.0
 10
279.2593052266203
 20
276.4220777271516
 30
0.0
 10
278.9851488116028
 20
276.0201259983968
 30
0.0
 10
278.6243512636994
 20
275.4090413745595
 30
0.0
 10
278.417688251665
 20
274.9968104180358
 30
0.0
 10
278.2283238036752
 20
274.5823951409058
 30
0.0
 10
278.1422894988349
 20
274.3740953463147
 30
0.0
 10
278.0459547072589
 20
274.1124653574666
 30
0.0
 10
278.0272488808403
 20
274.0600764485224
 30
0.0
 10
277.9909724768503
 20
273.9551749541803
 30
0.0
 10
277.9733877127285
 20
273.9026154987423
 30
0.0
 10
277.9225676563452
 20
273.7454216797029
 30
0.0
 10
277.8912026199871
 20
273.6411007962918
 30
0.0
 10
277.8045559925089
 20
273.3295886677294
 30
0.0
 10
277.7088722017675
 20
272.9181076846011
 30
0.0
 10
277.6239960043694
 20
272.3128774779796
 30
0.0
 10
277.6064769476487
 20
271.9176299669293
 30
0.0
 10
277.6081812266667
 20
271.6243753134335
 30
0.0
 10
277.6127475238286
 20
271.4785432339845
 30
0.0
 10
277.6229520389766
 20
271.3339213159832
 30
0.0
 10
277.6310176384044
 20
271.2377775743887
 30
0.0
 10
277.6356734312895
 20
271.189948063679
 30
0.0
 10
277.6619932728165
 20
270.9524271133474
 30
0.0
 10
277.6928037134853
 20
270.7671733935474
 30
0.0
 10
277.7731606797413
 20
270.4057533468799
 30
0.0
 10
277.8227088608166
 20
270.229587633987
 30
0.0
 10
277.9400576050071
 20
269.8859861210631
 30
0.0
 10
278.0078591956702
 20
269.718550771346
 30
0.0
 10
278.1230717897289
 20
269.4737249299882
 30
0.0
 10
278.1637295124915
 20
269.3931713048454
 30
0.0
 10
278.2495429916256
 20
269.2341422605808
 30
0.0
 10
278.2947129768477
 20
269.1556436714312
 30
0.0
 10
278.4368891463789
 20
268.9233647303301
 30
0.0
 10
278.5397581319237
 20
268.7740834791168
 30
0.0
 10
278.7609552975931
 20
268.4858743360132
 30
0.0
 10
278.8792850192676
 20
268.3469475499164
 30
0.0
 10
279.1309135996037
 20
268.0787839672309
 30
0.0
 10
279.2642135021512
 20
267.9495479751461
 30
0.0
 10
279.4048419452952
 20
267.8248726870694
 30
0.0
  0
SPLINE
  5
1C5
330
1F
100
AcDbEntity
  8
1
100
AcDbSpline
210
0.0
220
0.0
230
1.0
 70
     9
 71
     3
 72
   135
 73
   131
 74
     0
 42
0.000000001
 43
0.0000000001
 40
0.0
 40
0.0
 40
0.0
 40
0.0
 40
0.0312499999999684
 40
0.0312499999999684
 40
0.0468749999999518
 40
0.0468749999999518
 40
0.0546874999999436
 40
0.0546874999999436
 40
0.0624999999999354
 40
0.0624999999999354
 40
0.0937499999999098
 40
0.0937499999999098
 40
0.1093749999998946
 40
0.1093749999998946
 40
0.1171874999998899
 40
0.1171874999998899
 40
0.1249999999998853
 40
0.1249999999998853
 40
0.1562499999998722
 40
0.1562499999998722
 40
0.1640624999998708
 40
0.1640624999998708
 40
0.1718749999998694
 40
0.1718749999998694
 40
0.1874999999998745
 40
0.2031249999998795
 40
0.2031249999998795
 40
0.2109374999998777
 40
0.2109374999998777
 40
0.2187499999998759
 40
0.2187499999998759
 40
0.2499999999998599
 40
0.2499999999998599
 40
0.2656249999998564
 40
0.2656249999998564
 40
0.2734374999998592
 40
0.2734374999998592
 40
0.2812499999998618
 40
0.2812499999998618
 40
0.3124999999998637
 40
0.3124999999998637
 40
0.3203124999998582
 40
0.3203124999998582
 40
0.3281249999998525
 40
0.3281249999998525
 40
0.3437499999998411
 40
0.3593749999998297
 40
0.3593749999998297
 40
0.3671874999998239
 40
0.3671874999998239
 40
0.3749999999998184
 40
0.3749999999998184
 40
0.4062499999998018
 40
0.4062499999998018
 40
0.4218749999997911
 40
0.4218749999997911
 40
0.4296874999997856
 40
0.4296874999997856
 40
0.4374999999997801
 40
0.4374999999997801
 40
0.4687499999997587
 40
0.4687499999997587
 40
0.476562499999754
 40
0.476562499999754
 40
0.4843749999997494
 40
0.4843749999997494
 40
0.4999999999997395
 40
0.4999999999997395
 40
0.5312499999997201
 40
0.5312499999997201
 40
0.5390624999997142
 40
0.5390624999997142
 40
0.5468749999997085
 40
0.5468749999997085
 40
0.562499999999697
 40
0.5781249999996855
 40
0.5781249999996855
 40
0.5859374999996801
 40
0.5859374999996801
 40
0.5937499999996746
 40
0.5937499999996746
 40
0.6249999999996567
 40
0.6249999999996567
 40
0.6406249999996446
 40
0.6406249999996446
 40
0.6484374999996417
 40
0.6484374999996417
 40
0.6562499999996391
 40
0.6562499999996391
 40
0.6874999999996211
 40
0.6874999999996211
 40
0.6953124999996208
 40
0.6953124999996208
 40
0.7031249999996204
 40
0.7031249999996204
 40
0.7187499999996197
 40
0.7187499999996197
 40
0.7499999999996181
 40
0.7499999999996181
 40
0.7578124999996244
 40
0.7578124999996244
 40
0.7656249999996307
 40
0.7656249999996307
 40
0.7812499999996433
 40
0.796874999999656
 40
0.796874999999656
 40
0.8124999999996685
 40
0.8124999999996685
 40
0.8437499999997021
 40
0.8437499999997021
 40
0.8515624999997122
 40
0.8515624999997122
 40
0.8593749999997221
 40
0.8593749999997221
 40
0.8749999999997491
 40
0.8749999999997491
 40
0.9062499999998083
 40
0.9062499999998083
 40
0.9140624999998268
 40
0.9140624999998268
 40
0.9218749999998452
 40
0.9218749999998452
 40
0.9374999999998776
 40
0.9531249999999104
 40
0.9531249999999104
 40
0.9609374999999253
 40
0.9609374999999253
 40
0.9687499999999403
 40
0.9687499999999403
 40
1.0
 40
1.0
 40
1.0
 40
1.0
 10
459.363358210799
 20
283.8293513132517
 30
0.0
 10
459.3650042343494
 20
283.9236519393012
 30
0.0
 10
459.3757418872486
 20
284.0164824496032
 30
0.0
 10
459.4051174393499
 20
284.1535645708997
 30
0.0
 10
459.4171362447416
 20
284.1988952490961
 30
0.0
 10
459.4386000114552
 20
284.2663260327513
 30
0.0
 10
459.4463281915467
 20
284.2887085745598
 30
0.0
 10
459.4629605885776
 20
284.3332791623053
 30
0.0
 10
459.4718099862533
 20
284.355317530397
 30
0.0
 10
459.5185766098651
 20
284.4640267822507
 30
0.0
 10
459.5640867040174
 20
284.5465699504668
 30
0.0
 10
459.6444884525778
 20
284.6636977575853
 30
0.0
 10
459.6733253409946
 20
284.7016183288958
 30
0.0
 10
459.7197669249647
 20
284.7567353375555
 30
0.0
 10
459.735701646816
 20
284.7747174692386
 30
0.0
 10
459.7683041650945
 20
284.8097270455087
 30
0.0
 10
459.7849969207193
 20
284.8267842786853
 30
0.0
 10
459.8703942037054
 20
284.9098569413158
 30
0.0
 10
459.9448434679779
 20
284.9692957076203
 30
0.0
 10
460.0457456463185
 20
285.0345686339302
 30
0.0
 10
460.0663216552436
 20
285.0471678816997
 30
0.0
 10
460.1082842342503
 20
285.0714321876632
 30
0.0
 10
460.1295077932956
 20
285.0830022602464
 30
0.0
 10
460.1937962905804
 20
285.1160047143447
 30
0.0
 10
460.2812420376887
 20
285.1555107777049
 30
0.0
 10
460.3720794777912
 20
285.1861744264785
 30
0.0
 10
460.4414934876211
 20
285.205815296287
 30
0.0
 10
460.4648462041795
 20
285.2118017641684
 30
0.0
 10
460.5119883456078
 20
285.2226341284161
 30
0.0
 10
460.5358375890868
 20
285.227490216962
 30
0.0
 10
460.6554724557768
 20
285.2487218540808
 30
0.0
 10
460.7513750619689
 20
285.2559144739991
 30
0.0
 10
460.8955111952601
 20
285.2525011242737
 30
0.0
 10
460.9436039693966
 20
285.2489784642115
 30
0.0
 10
461.0158162716634
 20
285.2400152368243
 30
0.0
 10
461.0399459234179
 20
285.236401964804
 30
0.0
 10
461.087699538551
 20
285.2280197907106
 30
0.0
 10
461.1113812282868
 20
285.2232461410249
 30
0.0
 10
461.2288318662989
 20
285.1965193197075
 30
0.0
 10
461.3197556615951
 20
285.1660738089574
 30
0.0
 10
461.4296071475174
 20
285.1166935031493
 30
0.0
 10
461.4513855145966
 20
285.1062460635966
 30
0.0
 10
461.4945509138179
 20
285.0841871296164
 30
0.0
 10
461.5158375851576
 20
285.0726243076658
 30
0.0
 10
461.5784608401901
 20
285.0365630829243
 30
0.0
 10
461.6589767682507
 20
284.9846724409085
 30
0.0
 10
461.7336807167887
 20
284.9253751957651
 30
0.0
 10
461.7875224607112
 20
284.8781234760468
 30
0.0
 10
461.8051046906283
 20
284.861908950163
 30
0.0
 10
461.8395300063231
 20
284.8285416747872
 30
0.0
 10
461.8564115743122
 20
284.8113471585569
 30
0.0
 10
461.9384662571791
 20
284.723492852067
 30
0.0
 10
461.9959938472788
 20
284.6480186015111
 30
0.0
 10
462.0706838265406
 20
284.5274483872716
 30
0.0
 10
462.0936326178263
 20
284.4860225984118
 30
0.0
 10
462.1250800239013
 20
284.4220030418107
 30
0.0
 10
462.1350855752918
 20
284.40029786511
 30
0.0
 10
462.153905089587
 20
284.3566808931853
 30
0.0
 10
462.1627394258239
 20
284.3347338572627
 30
0.0
 10
462.2040949607881
 20
284.2243231917961
 30
0.0
 10
462.2282449002907
 20
284.1338527381139
 30
0.0
 10
462.2474337056202
 20
284.0181578156763
 30
0.0
 10
462.2507167524618
 20
283.9948872742257
 30
0.0
 10
462.2561582170057
 20
283.9480799238249
 30
0.0
 10
462.2583151137998
 20
283.9245183156243
 30
0.0
 10
462.2630332367071
 20
283.8541631643561
 30
0.0
 10
462.2638794460065
 20
283.8074638186058
 30
0.0
 10
462.2597326777376
 20
283.6679605888995
 30
0.0
 10
462.2481161979232
 20
283.5757472149873
 30
0.0
 10
462.2222841467466
 20
283.4614750759398
 30
0.0
 10
462.2165346055457
 20
283.4386354338177
 30
0.0
 10
462.2040053241815
 20
283.3935157603268
 30
0.0
 10
462.1972156082814
 20
283.3711831789801
 30
0.0
 10
462.1752966739379
 20
283.3048548625662
 30
0.0
 10
462.1419454251331
 20
283.2181993500989
 30
0.0
 10
462.1004312512498
 20
283.1350526419513
 30
0.0
 10
462.0661790177623
 20
283.0740242194281
 30
0.0
 10
462.0542412487728
 20
283.0539037271884
 30
0.0
 10
462.0293039309096
 20
283.0141148527782
 30
0.0
 10
462.0162664354267
 20
282.994393807366
 30
0.0
 10
461.9489153850917
 20
282.8977394340284
 30
0.0
 10
461.8882293724986
 20
282.8265655310818
 30
0.0
 10
461.7871090493737
 20
282.7288353184485
 30
0.0
 10
461.7517083896499
 20
282.6977744541985
 30
0.0
 10
461.6959667548265
 20
282.6535345787576
 30
0.0
 10
461.6769144061741
 20
282.6391586336693
 30
0.0
 10
461.6380352135307
 20
282.6113109372359
 30
0.0
 10
461.6183146944613
 20
282.5979129592911
 30
0.0
 10
461.5183274964802
 20
282.5335100853081
 30
0.0
 10
461.4339473338604
 20
282.4901900460251
 30
0.0
 10
461.3228934988886
 20
282.4463934054156
 30
0.0
 10
461.3004012609777
 20
282.4381565388902
 30
0.0
 10
461.2548409736886
 20
282.4227502073279
 30
0.0
 10
461.2317382450296
 20
282.4155709755719
 30
0.0
 10
461.1617645668874
 20
282.3957449599348
 30
0.0
 10
461.114804512076
 20
282.3849605446891
 30
0.0
 10
460.9730174357927
 20
282.35969181175
 30
0.0
 10
460.8772922602496
 20
282.3522219945266
 30
0.0
 10
460.7560872830287
 20
282.3549651968773
 30
0.0
 10
460.7316992498504
 20
282.3561306126568
 30
0.0
 10
460.6832822849226
 20
282.3596676601824
 30
0.0
 10
460.6592172581288
 20
282.3620364037362
 30
0.0
 10
460.5874435992147
 20
282.3709065212336
 30
0.0
 10
460.4928671396095
 20
282.3874283252759
 30
0.0
 10
460.4004905490979
 20
282.4131693134019
 30
0.0
 10
460.3092243554571
 20
282.4435729245553
 30
0.0
 10
460.2639627781323
 20
282.4612103386825
 30
0.0
 10
460.1327084361428
 20
282.5200240694382
 30
0.0
 10
460.050380944883
 20
282.5672323975344
 30
0.0
 10
459.9537074663373
 20
282.6359515920788
 30
0.0
 10
459.9346875001696
 20
282.6501854701356
 30
0.0
 10
459.8972829024311
 20
282.6796444477616
 30
0.0
 10
459.8788699937968
 20
282.6948977629791
 30
0.0
 10
459.8251455849386
 20
282.741676463957
 30
0.0
 10
459.7911677465388
 20
282.7743469356352
 30
0.0
 10
459.6945374248382
 20
282.8766635881437
 30
0.0
 10
459.6371380171196
 20
282.9505743588601
 30
0.0
 10
459.5742569059528
 20
283.0502345740995
 30
0.0
 10
459.5621688485385
 20
283.0704738248004
 30
0.0
 10
459.5391125968808
 20
283.1112897656289
 30
0.0
 10
459.5281189329778
 20
283.1319063669604
 30
0.0
 10
459.4967132336845
 20
283.1943731761615
 30
0.0
 10
459.4590323307344
 20
283.279304829454
 30
0.0
 10
459.429626289225
 20
283.3674970344861
 30
0.0
 10
459.4107224677872
 20
283.4348884811713
 30
0.0
 10
459.4049472391072
 20
283.4575605297567
 30
0.0
 10
459.3944685427828
 20
283.5033296508365
 30
0.0
 10
459.3897779343333
 20
283.5263815133556
 30
0.0
 10
459.3692029688483
 20
283.6417437844869
 30
0.0
 10
459.3617121872485
 20
283.7350506872017
 30
0.0
 10
459.363358210799
 20
283.8293513132517
 30
0.0
  0
SPLINE
  5
1CC
330
1F
100
AcDbEntity
  8
1
100
AcDbSpline
210
0.0
220
0.0
230
1.0
 70
     8
 71
     3
 72
    24
 73
    20
 74
     0
 42
0.000000001
 43
0.0000000001
 40
0.0
 40
0.0
 40
0.0
 40
0.0
 40
0.1249999999998712
 40
0.1249999999998712
 40
0.2499999999997423
 40
0.2499999999997423
 40
0.3124999999997247
 40
0.3124999999997247
 40
0.3749999999997071
 40
0.3749999999997071
 40
0.4999999999997657
 40
0.4999999999997657
 40
0.6249999999998244
 40
0.6249999999998244
 40
0.7499999999998829
 40
0.7499999999998829
 40
0.8749999999999413
 40
0.8749999999999413
 40
1.0
 40
1.0
 40
1.0
 40
1.0
 10
458.8109148370979
 20
302.3696950747452
 30
0.0
 10
458.8420627642414
 20
302.3663883612452
 30
0.0
 10
458.8726937378153
 20
302.3606777010804
 30
0.0
 10
458.9329694297377
 20
302.3444500595088
 30
0.0
 10
458.9626145735115
 20
302.3339354270634
 30
0.0
 10
459.006319355357
 20
302.31426045738
 30
0.0
 10
459.0206663390941
 20
302.3070840291862
 30
0.0
 10
459.0485729714233
 20
302.2916744598134
 30
0.0
 10
459.062186743889
 20
302.2834174758155
 30
0.0
 10
459.1020119590381
 20
302.2569889954627
 30
0.0
 10
459.1272516845633
 20
302.2371367915076
 30
0.0
 10
459.1747314026753
 20
302.1929123707361
 30
0.0
 10
459.1962807803715
 20
302.1691949344688
 30
0.0
 10
459.2352499142505
 20
302.1187288973242
 30
0.0
 10
459.2526744237933
 20
302.0919694472343
 30
0.0
 10
459.2832976331213
 20
302.0353927976651
 30
0.0
 10
459.2960536861085
 20
302.0064031722645
 30
0.0
 10
459.3168643324037
 20
301.9470915689396
 30
0.0
 10
459.3249164101895
 20
301.9167689310647
 30
0.0
 10
459.3306207574953
 20
301.8857597731068
 30
0.0
  0
SPLINE
  5
1CD
330
1F
100
AcDbEntity
  8
1
100
AcDbSpline
210
0.0
220
0.0
230
1.0
 70
     8
 71
     3
 72
    18
 73
    14
 74
     0
 42
0.000000001
 43
0.0000000001
 40
0.0
 40
0.0
 40
0.0
 40
0.0
 40
0.2500000000001189
 40
0.2500000000001189
 40
0.3750000000001812
 40
0.3750000000001812
 40
0.5000000000002434
 40
0.5000000000002434
 40
0.6250000000003056
 40
0.6250000000003056
 40
0.7500000000003678
 40
0.7500000000003678
 40
1.0
 40
1.0
 40
1.0
 40
1.0
 10
460.9278587084376
 20
301.8305050187749
 30
0.0
 10
460.9181299352877
 20
301.8287111085409
 30
0.0
 10
460.9082388605084
 20
301.8285038280983
 30
0.0
 10
460.8939852971616
 20
301.8303713864427
 30
0.0
 10
460.8893000753512
 20
301.8313536502124
 30
0.0
 10
460.8800633067973
 20
301.834042723236
 30
0.0
 10
460.8755594605885
 20
301.8357414786628
 30
0.0
 10
460.8669750161753
 20
301.8397328326159
 30
0.0
 10
460.8628613809223
 20
301.8420347594449
 30
0.0
 10
460.8549866773996
 20
301.8472416344691
 30
0.0
 10
460.8511995624871
 20
301.8501735765956
 30
0.0
 10
460.8406756508487
 20
301.8596458883616
 30
0.0
 10
460.8346959476654
 20
301.8668616023094
 30
0.0
 10
460.8297613698623
 20
301.8749843234731
 30
0.0
  0
SPLINE
  5
1CE
330
1F
100
AcDbEntity
  8
1
100
AcDbSpline
210
0.0
220
0.0
230
1.0
 70
     8
 71
     3
 72
    10
 73
     6
 74
     0
 42
0.000000001
 43
0.0000000001
 40
0.0
 40
0.0
 40
0.0
 40
0.0
 40
0.5
 40
0.5
 40
1.0
 40
1.0
 40
1.0
 40
1.0
 10
460.7806715913605
 20
301.9153598862133
 30
0.0
 10
460.7910259305161
 20
301.9116023998848
 30
0.0
 10
460.8004207601488
 20
301.9061800113103
 30
0.0
 10
460.8171401938315
 20
301.8923584298095
 30
0.0
 10
460.8241271922353
 20
301.8842586435218
 30
0.0
 10
460.8297613698623
 20
301.8749843234731
 30
0.0
  0
SPLINE
  5
1CF
330
1F
100
AcDbEntity
  8
1
100
AcDbSpline
210
0.0
220
0.0
230
1.0
 70
     8
 71
     3
 72
    24
 73
    20
 74
     0
 42
0.000000001
 43
0.0000000001
 40
0.0
 40
0.0
 40
0.0
 40
0.0
 40
0.125
 40
0.125
 40
0.25
 40
0.25
 40
0.3125
 40
0.3125
 40
0.375
 40
0.375
 40
0.5
 40
0.5
 40
0.625
 40
0.625
 40
0.75
 40
0.75
 40
0.875
 40
0.875
 40
1.0
 40
1.0
 40
1.0
 40
1.0
 10
460.1017372601844
 20
301.7078975264758
 30
0.0
 10
460.1205559712056
 20
301.7332505369418
 30
0.0
 10
460.1411649285353
 20
301.7569478838049
 30
0.0
 10
460.1859763002916
 20
301.8010720385205
 30
0.0
 10
460.2101769420082
 20
301.821500396924
 30
0.0
 10
460.2494073513548
 20
301.849518917636
 30
0.0
 10
460.2628960980267
 20
301.8583555429665
 30
0.0
 10
460.2903670428109
 20
301.8748146697957
 30
0.0
 10
460.304397269766
 20
301.8824720503276
 30
0.0
 10
460.3473729790676
 20
301.9037291684027
 30
0.0
 10
460.3772463689288
 20
301.9156408550866
 30
0.0
 10
460.4392830697198
 20
301.9345876687197
 30
0.0
 10
460.4705352654444
 20
301.9413533965126
 30
0.0
 10
460.5334877358926
 20
301.9497779837045
 30
0.0
 10
460.565200257145
 20
301.9514354996248
 30
0.0
 10
460.6290525341089
 20
301.9495479028261
 30
0.0
 10
460.6602622823102
 20
301.9460350686185
 30
0.0
 10
460.7214097496518
 20
301.9342631663222
 30
0.0
 10
460.7513467309836
 20
301.9260015853405
 30
0.0
 10
460.7806715913607
 20
301.9153598862133
 30
0.0
  0
SPLINE
  5
1D0
330
1F
100
AcDbEntity
  8
1
100
AcDbSpline
210
0.0
220
0.0
230
1.0
 70
     8
 71
     3
 72
    27
 73
    23
 74
     0
 42
0.000000001
 43
0.0000000001
 40
0.0
 40
0.0
 40
0.0
 40
0.0
 40
0.1328218893487476
 40
0.1328218893487476
 40
0.1992328340231618
 40
0.1992328340231618
 40
0.265643778697576
 40
0.265643778697576
 40
0.3984656680463984
 40
0.3984656680463984
 40
0.4648766127207807
 40
0.4648766127207807
 40
0.5312875573951632
 40
0.5312875573951632
 40
0.6641094467439208
 40
0.6641094467439208
 40
0.7305203914182997
 40
0.7305203914182997
 40
0.7969313360926785
 40
0.7969313360926785
 40
0.9297532254414388
 40
1.0
 40
1.0
 40
1.0
 40
1.0
 10
458.6406717122868
 20
302.3580572319379
 30
0.0
 10
458.6151718406784
 20
302.376836085893
 30
0.0
 10
458.5913968804783
 20
302.3974721982402
 30
0.0
 10
458.5582858339646
 20
302.431163932283
 30
0.0
 10
458.5476759867804
 20
302.4428528835618
 30
0.0
 10
458.5273284504441
 20
302.4671653566268
 30
0.0
 10
458.5175678243713
 20
302.4798287804037
 30
0.0
 10
458.490072797713
 20
302.5186288444206
 30
0.0
 10
458.4739622519882
 20
302.5457294010462
 30
0.0
 10
458.45307362014
 20
302.5882002043768
 30
0.0
 10
458.4466594787183
 20
302.6026618908418
 30
0.0
 10
458.4349511241939
 20
302.6322070782066
 30
0.0
 10
458.4296374560929
 20
302.6473623249755
 30
0.0
 10
458.4156422138849
 20
302.6930998674429
 30
0.0
 10
458.4088435462536
 20
302.7240036370542
 30
0.0
 10
458.4023279708666
 20
302.7709587681733
 30
0.0
 10
458.4007728115619
 20
302.7867108744828
 30
0.0
 10
458.3989118270877
 20
302.8184184960118
 30
0.0
 10
458.3986077524624
 20
302.8344331663928
 30
0.0
 10
458.3996177962233
 20
302.8823705568223
 30
0.0
 10
458.4045043956642
 20
302.9305116697774
 30
0.0
 10
458.4150276790539
 20
302.9775981549723
 30
0.0
 10
458.4193529811927
 20
302.9937581183808
 30
0.0
  0
SPLINE
  5
1D1
330
1F
100
AcDbEntity
  8
1
100
AcDbSpline
210
0.0
220
0.0
230
1.0
 70
     8
 71
     3
 72
    21
 73
    17
 74
     0
 42
0.000000001
 43
0.0000000001
 40
0.0
 40
0.0
 40
0.0
 40
0.0
 40
0.0947160770629289
 40
0.0947160770629289
 40
0.185244469356595
 40
0.185244469356595
 40
0.2757728616502611
 40
0.2757728616502611
 40
0.4568296462376935
 40
0.4568296462376935
 40
0.5473580385314097
 40
0.5473580385314097
 40
0.6378864308251259
 40
0.6378864308251259
 40
0.8189432154125629
 40
1.0
 40
1.0
 40
1.0
 40
1.0
 10
461.3393268379201
 20
302.1262989905569
 30
0.0
 10
461.3312578453522
 20
302.1118472579193
 30
0.0
 10
461.3226067914919
 20
302.0977577527602
 30
0.0
 10
461.3045582176867
 20
302.0709042512611
 30
0.0
 10
461.2952081600489
 20
302.0581107183062
 30
0.0
 10
461.2754268445203
 20
302.0331965023788
 30
0.0
 10
461.2649431664693
 20
302.0210231555683
 30
0.0
 10
461.2323103348978
 20
301.9860726202787
 30
0.0
 10
461.2089677520661
 20
301.9647859272535
 30
0.0
 10
461.171645310607
 20
301.9357853187205
 30
0.0
 10
461.1588178870174
 20
301.926609050242
 30
0.0
 10
461.1323800177718
 20
301.9092505218904
 30
0.0
 10
461.118717819605
 20
301.9010405103601
 30
0.0
 10
461.0768876507206
 20
301.8781477693065
 30
0.0
 10
461.0194724862747
 20
301.852513679167
 30
0.0
 10
460.9589304700941
 20
301.8362344103814
 30
0.0
 10
460.9278587084376
 20
301.8305050187749
 30
0.0
  0
SPLINE
  5
1D2
330
1F
100
AcDbEntity
  8
1
100
AcDbSpline
210
0.0
220
0.0
230
1.0
 70
     8
 71
     3
 72
    20
 73
    16
 74
     0
 42
0.000000001
 43
0.0000000001
 40
0.0
 40
0.0
 40
0.0
 40
0.0
 40
0.1991190692498561
 40
0.1991190692498561
 40
0.3982381384997122
 40
0.3982381384997122
 40
0.4977976731246269
 40
0.4977976731246269
 40
0.5973572077495417
 40
0.5973572077495417
 40
0.7964762769993819
 40
0.7964762769993819
 40
0.9955953462492219
 40
0.9955953462492219
 40
1.0
 40
1.0
 40
1.0
 40
1.0
 10
458.7382386742153
 20
303.817215052842
 30
0.0
 10
458.7507208559326
 20
303.7889272673191
 30
0.0
 10
458.7608823979646
 20
303.7598583984965
 30
0.0
 10
458.7765952288967
 20
303.7001105043789
 30
0.0
 10
458.7821487359152
 20
303.6694323241013
 30
0.0
 10
458.7867588672411
 20
303.6220685912083
 30
0.0
 10
458.7876570542229
 20
303.6061537025868
 30
0.0
 10
458.7881616899762
 20
303.5744535588816
 30
0.0
 10
458.7877742716162
 20
303.558610115687
 30
0.0
 10
458.7846940427205
 20
303.5110959683965
 30
0.0
 10
458.7800851264137
 20
303.4793907790397
 30
0.0
 10
458.7655275035364
 20
303.4162200742589
 30
0.0
 10
458.755800147056
 20
303.3856776403868
 30
0.0
 10
458.7434952834345
 20
303.3554644201319
 30
0.0
 10
458.7432278474135
 20
303.3548110225992
 30
0.0
 10
458.7429592765101
 20
303.3541581015917
 30
0.0
  0
SPLINE
  5
1D3
330
1F
100
AcDbEntity
  8
1
100
AcDbSpline
210
0.0
220
0.0
230
1.0
 70
     8
 71
     3
 72
    10
 73
     6
 74
     0
 42
0.000000001
 43
0.0000000001
 40
0.0
 40
0.0
 40
0.0
 40
0.0
 40
0.5
 40
0.5
 40
1.0
 40
1.0
 40
1.0
 40
1.0
 10
458.69498902275
 20
303.8628233285389
 30
0.0
 10
458.7045514043347
 20
303.857947185424
 30
0.0
 10
458.7130775336139
 20
303.8516070188623
 30
0.0
 10
458.7278836917928
 20
303.8360516722873
 30
0.0
 10
458.733831188266
 20
303.8272035324246
 30
0.0
 10
458.7382386742153
 20
303.817215052842
 30
0.0
  0
SPLINE
  5
1D4
330
1F
100
AcDbEntity
  8
1
100
AcDbSpline
210
0.0
220
0.0
230
1.0
 70
     8
 71
     3
 72
    20
 73
    16
 74
     0
 42
0.000000001
 43
0.0000000001
 40
0.0
 40
0.0
 40
0.0
 40
0.0
 40
0.1250000000000162
 40
0.1250000000000162
 40
0.2500000000000325
 40
0.2500000000000325
 40
0.3750000000000487
 40
0.3750000000000487
 40
0.500000000000065
 40
0.500000000000065
 40
0.6250000000000813
 40
0.6250000000000813
 40
0.7500000000000976
 40
0.7500000000000976
 40
1.0
 40
1.0
 40
1.0
 40
1.0
 10
458.69498902275
 20
303.8628233285389
 30
0.0
 10
458.6908055358763
 20
303.8649566130701
 30
0.0
 10
458.686811711852
 20
303.8673813391789
 30
0.0
 10
458.6792010032396
 20
303.8728097020291
 30
0.0
 10
458.6755824042662
 20
303.8758217035913
 30
0.0
 10
458.6688955926927
 20
303.8822863843798
 30
0.0
 10
458.6658035214938
 20
303.885754044791
 30
0.0
 10
458.6601307420385
 20
303.8931671527807
 30
0.0
 10
458.6575334606658
 20
303.8971465130412
 30
0.0
 10
458.6530004696511
 20
303.905412967189
 30
0.0
 10
458.6510564719809
 20
303.9096994802769
 30
0.0
 10
458.6478201327248
 20
303.9185811886759
 30
0.0
 10
458.6465218398323
 20
303.9232075834489
 30
0.0
 10
458.6437241456565
 20
303.9373654130296
 30
0.0
 10
458.6433139576753
 20
303.9469701887405
 30
0.0
 10
458.6444512638341
 20
303.9567487791367
 30
0.0
  0
SPLINE
  5
1D5
330
1F
100
AcDbEntity
  8
1
100
AcDbSpline
210
0.0
220
0.0
230
1.0
 70
     8
 71
     3
 72
    12
 73
     8
 74
     0
 42
0.000000001
 43
0.0000000001
 40
0.0
 40
0.0
 40
0.0
 40
0.0
 40
0.3283799852566414
 40
0.3283799852566414
 40
0.6641899926283206
 40
0.6641899926283206
 40
1.0
 40
1.0
 40
1.0
 40
1.0
 10
461.3170494222909
 20
302.9612712498549
 30
0.0
 10
461.3288284227933
 20
302.9899066380478
 30
0.0
 10
461.3427823293546
 20
303.0175063785241
 30
0.0
 10
461.375465058871
 20
303.0711537121145
 30
0.0
 10
461.3938098298258
 20
303.0963649406605
 30
0.0
 10
461.4338984310569
 20
303.1432999059914
 30
0.0
 10
461.4556440159362
 20
303.1650217397302
 30
0.0
 10
461.4791119311671
 20
303.1850176176792
 30
0.0
  0
SPLINE
  5
1D6
330
1F
100
AcDbEntity
  8
1
100
AcDbSpline
210
0.0
220
0.0
230
1.0
 70
     8
 71
     3
 72
    10
 73
     6
 74
     0
 42
0.000000001
 43
0.0000000001
 40
0.0
 40
0.0
 40
0.0
 40
0.0
 40
0.5
 40
0.5
 40
1.0
 40
1.0
 40
1.0
 40
1.0
 10
461.4791119311671
 20
303.1850176176792
 30
0.0
 10
461.4873986173808
 20
303.1920783030661
 30
0.0
 10
461.4966304444078
 20
303.1974715320126
 30
0.0
 10
461.5166233303346
 20
303.2049762272327
 30
0.0
 10
461.5269587924208
 20
303.2069438204667
 30
0.0
 10
461.5376308009411
 20
303.2071524263179
 30
0.0
  0
SPLINE
  5
1D7
330
1F
100
AcDbEntity
  8
1
100
AcDbSpline
210
0.0
220
0.0
230
1.0
 70
     8
 71
     3
 72
    16
 73
    12
 74
     0
 42
0.000000001
 43
0.0000000001
 40
0.0
 40
0.0
 40
0.0
 40
0.0
 40
0.0408779280917569
 40
0.0408779280917569
 40
0.2327023424734094
 40
0.2327023424734094
 40
0.424526756855062
 40
0.424526756855062
 40
0.6163511712367145
 40
0.6163511712367145
 40
1.0
 40
1.0
 40
1.0
 40
1.0
 10
461.6027771122004
 20
303.2355170575976
 30
0.0
 10
461.6020752078098
 20
303.2347888366579
 30
0.0
 10
461.6013607803933
 20
303.2340714918705
 30
0.0
 10
461.5972224450318
 20
303.2300499449107
 30
0.0
 10
461.5935638289916
 20
303.2270107373663
 30
0.0
 10
461.5859487057733
 20
303.2215976664095
 30
0.0
 10
461.5819676481769
 20
303.2191995121349
 30
0.0
 10
461.5736645983626
 20
303.215011041936
 30
0.0
 10
461.5693066228466
 20
303.2132116476873
 30
0.0
 10
461.5560645571307
 20
303.2088765082116
 30
0.0
 10
461.5469774757983
 20
303.2073351258596
 30
0.0
 10
461.5376308009411
 20
303.2071524263179
 30
0.0
  0
SPLINE
  5
1D8
330
1F
100
AcDbEntity
  8
1
100
AcDbSpline
210
0.0
220
0.0
230
1.0
 70
    12
 71
     2
 72
     6
 73
     3
 74
     0
 42
0.000000001
 43
0.0000000001
 40
0.0
 40
0.0
 40
0.0
 40
1.0
 40
1.0
 40
1.0
 10
453.4064446567001
 20
309.3511309722575
 30
0.0
 41
0.5000087657029346
 10
453.5186265741539
 20
309.3509852411265
 30
0.0
 41
0.4999912342970655
 10
453.6308078031793
 20
309.3508391370279
 30
0.0
 41
0.5000087657029346
  0
SPLINE
  5
1D9
330
1F
100
AcDbEntity
  8
1
100
AcDbSpline
210
0.0
220
0.0
230
1.0
 70
     8
 71
     3
 72
    36
 73
    32
 74
     0
 42
0.000000001
 43
0.0000000001
 40
0.0
 40
0.0
 40
0.0
 40
0.0
 40
0.1250000000001625
 40
0.1250000000001625
 40
0.1875000000002437
 40
0.1875000000002437
 40
0.2187500000002731
 40
0.2187500000002731
 40
0.2500000000003026
 40
0.2500000000003026
 40
0.3750000000003761
 40
0.3750000000003761
 40
0.4062500000003828
 40
0.4062500000003828
 40
0.4375000000003896
 40
0.4375000000003896
 40
0.5000000000004027
 40
0.5000000000004027
 40
0.6250000000004291
 40
0.6250000000004291
 40
0.6562500000004535
 40
0.6562500000004535
 40
0.6875000000004781
 40
0.7500000000004615
 40
0.8125000000004453
 40
0.8125000000004453
 40
0.8437500000004041
 40
0.8437500000004041
 40
0.8750000000003629
 40
0.8750000000003629
 40
1.0
 40
1.0
 40
1.0
 40
1.0
 10
466.3176988104668
 20
309.0650790698727
 30
0.0
 10
466.315873857934
 20
309.1162136447395
 30
0.0
 10
466.3089191479982
 20
309.1662886910929
 30
0.0
 10
466.2912324180132
 20
309.2399028419054
 30
0.0
 10
466.2841179283707
 20
309.2641891311363
 30
0.0
 10
466.2715880669529
 20
309.3002347771472
 30
0.0
 10
466.2670885944047
 20
309.3122162353558
 30
0.0
 10
466.2575212888946
 20
309.3358922896414
 30
0.0
 10
466.2524634311033
 20
309.3475673717161
 30
0.0
 10
466.2258334047696
 20
309.4051460551366
 30
0.0
 10
466.200278413738
 20
309.4486828827337
 30
0.0
 10
466.1630932533903
 20
309.4999892268361
 30
0.0
 10
466.1553917100468
 20
309.5100933110618
 30
0.0
 10
466.1394514817374
 20
309.5299822856012
 30
0.0
 10
466.1311927331253
 20
309.5397881807755
 30
0.0
 10
466.1058500198198
 20
309.5684346023969
 30
0.0
 10
466.0881486501073
 20
309.5865802548217
 30
0.0
 10
466.0326946363706
 20
309.6382425364204
 30
0.0
 10
465.992615230819
 20
309.6690118163557
 30
0.0
 10
465.9385040650123
 20
309.7027363107985
 30
0.0
 10
465.9274588684361
 20
309.7092518618534
 30
0.0
 10
465.9051948378777
 20
309.7216635314228
 30
0.0
 10
465.8714631231712
 20
309.739401395694
 30
0.0
 10
465.8135954184158
 20
309.7646453492034
 30
0.0
 10
465.7655579885725
 20
309.7802721804645
 30
0.0
 10
465.7288619406508
 20
309.7902418345855
 30
0.0
 10
465.7165183897613
 20
309.7932727687963
 30
0.0
 10
465.6916031893893
 20
309.7987368913919
 30
0.0
 10
465.6790131999231
 20
309.8011717778738
 30
0.0
 10
465.6160659261805
 20
309.8117209055275
 30
0.0
 10
465.565308729151
 20
309.8151140100776
 30
0.0
 10
465.5141416749371
 20
309.813328511536
 30
0.0
  0
SPLINE
  5
1DA
330
1F
100
AcDbEntity
  8
1
100
AcDbSpline
210
0.0
220
0.0
230
1.0
 70
     8
 71
     3
 72
    10
 73
     6
 74
     0
 42
0.000000001
 43
0.0000000001
 40
0.0
 40
0.0
 40
0.0
 40
0.0
 40
0.9463015555619939
 40
0.9463015555619939
 40
1.0
 40
1.0
 40
1.0
 40
1.0
 10
458.6444512638341
 20
303.9567487791367
 30
0.0
 10
458.6480889924263
 20
303.9880260720619
 30
0.0
 10
458.6541834238951
 20
304.0187594516468
 30
0.0
 10
458.6631788786309
 20
304.0506653419644
 30
0.0
 10
458.6636697423798
 20
304.0523768896633
 30
0.0
 10
458.6641684457908
 20
304.0540866835831
 30
0.0
  0
SPLINE
  5
1DB
330
1F
100
AcDbEntity
  8
1
100
AcDbSpline
210
0.0
220
0.0
230
1.0
 70
     8
 71
     3
 72
    10
 73
     6
 74
     0
 42
0.000000001
 43
0.0000000001
 40
0.0
 40
0.0
 40
0.0
 40
0.0
 40
0.7320070510387186
 40
0.7320070510387186
 40
1.0
 40
1.0
 40
1.0
 40
1.0
 10
459.9747916831891
 20
304.6528716336747
 30
0.0
 10
459.9743556448886
 20
304.645553680948
 30
0.0
 10
459.9730432713246
 20
304.6383277086323
 30
0.0
 10
459.9700440940966
 20
304.6286233788868
 30
0.0
 10
459.9691322331116
 20
304.6260695247748
 30
0.0
 10
459.9681105541915
 20
304.6235631295789
 30
0.0
  0
SPLINE
  5
1DC
330
1F
100
AcDbEntity
  8
1
100
AcDbSpline
210
0.0
220
0.0
230
1.0
 70
     8
 71
     3
 72
    27
 73
    23
 74
     0
 42
0.000000001
 43
0.0000000001
 40
0.0
 40
0.0
 40
0.0
 40
0.0
 40
0.1249999999999608
 40
0.1249999999999608
 40
0.1874999999999948
 40
0.1874999999999948
 40
0.2500000000000289
 40
0.2500000000000289
 40
0.3750000000000961
 40
0.3750000000000961
 40
0.4375000000000754
 40
0.4375000000000754
 40
0.5000000000000546
 40
0.5000000000000546
 40
0.6250000000001189
 40
0.6250000000001189
 40
0.6875000000001002
 40
0.6875000000001002
 40
0.7500000000000816
 40
0.7500000000000816
 40
0.8750000000000406
 40
1.0
 40
1.0
 40
1.0
 40
1.0
 10
460.0243321769348
 20
301.5544138893338
 30
0.0
 10
459.9951146721328
 20
301.541720405831
 30
0.0
 10
459.9651754891056
 20
301.5314529745201
 30
0.0
 10
459.919205216088
 20
301.5196352471497
 30
0.0
 10
459.9037040480135
 20
301.5162959790395
 30
0.0
 10
459.8723396171292
 20
301.5108417380992
 30
0.0
 10
459.8564302903783
 20
301.5087268917046
 30
0.0
 10
459.8089141426185
 20
301.504336918233
 30
0.0
 10
459.7773027200051
 20
301.5039522801781
 30
0.0
 10
459.7299836698232
 20
301.507127731472
 30
0.0
 10
459.7142270716207
 20
301.5088145309504
 30
0.0
 10
459.6827474371801
 20
301.5134703912324
 30
0.0
 10
459.6669525497246
 20
301.5164585392096
 30
0.0
 10
459.6203247983056
 20
301.5272455396316
 30
0.0
 10
459.5901733500136
 20
301.5368374685086
 30
0.0
 10
459.54630472119
 20
301.5547174994622
 30
0.0
 10
459.5319093670234
 20
301.5612623424662
 30
0.0
 10
459.5035797087563
 20
301.5755368452109
 30
0.0
 10
459.4895951524778
 20
301.5832977025152
 30
0.0
 10
459.4487141089953
 20
301.6081927101177
 30
0.0
 10
459.3975906831262
 20
301.6452881619081
 30
0.0
 10
459.3529473875161
 20
301.689840871925
 30
0.0
 10
459.3322969050275
 20
301.7140356167641
 30
0.0
  0
SPLINE
  5
1DD
330
1F
100
AcDbEntity
  8
1
100
AcDbSpline
210
0.0
220
0.0
230
1.0
 70
     8
 71
     3
 72
    18
 73
    14
 74
     0
 42
0.000000001
 43
0.0000000001
 40
0.0
 40
0.0
 40
0.0
 40
0.0
 40
0.2725720667246128
 40
0.2725720667246128
 40
0.4088581000869189
 40
0.4088581000869189
 40
0.5451441334492251
 40
0.5451441334492251
 40
0.6814301668115314
 40
0.6814301668115314
 40
0.8177162001738375
 40
0.8177162001738375
 40
1.0
 40
1.0
 40
1.0
 40
1.0
 10
459.3322969050275
 20
301.7140356167641
 30
0.0
 10
459.3258309689282
 20
301.7216113077511
 30
0.0
 10
459.3206457755819
 20
301.7301367879437
 30
0.0
 10
459.3150333349732
 20
301.7435270775151
 30
0.0
 10
459.3135047741776
 20
301.7481163659078
 30
0.0
 10
459.3111372862429
 20
301.7575478423286
 30
0.0
 10
459.3103155928038
 20
301.7623442943789
 30
0.0
 10
459.3093961369852
 20
301.7718708777118
 30
0.0
 10
459.3092896591518
 20
301.7766345922612
 30
0.0
 10
459.309772658239
 20
301.7861621531328
 30
0.0
 10
459.3103721184124
 20
301.7909624994072
 30
0.0
 10
459.3125558871776
 20
301.8018831455979
 30
0.0
 10
459.3143856788585
 20
301.8079332197518
 30
0.0
 10
459.3167986183958
 20
301.8137833028535
 30
0.0
  0
SPLINE
  5
1DE
330
1F
100
AcDbEntity
  8
1
100
AcDbSpline
210
0.0
220
0.0
230
1.0
 70
     8
 71
     3
 72
     8
 73
     4
 74
     0
 42
0.000000001
 43
0.0000000001
 40
0.0
 40
0.0
 40
0.0
 40
0.0
 40
1.0
 40
1.0
 40
1.0
 40
1.0
 10
460.0458490792639
 20
301.5673566695534
 30
0.0
 10
460.0393136881646
 20
301.5621417690524
 30
0.0
 10
460.0321523313963
 20
301.55781133899
 30
0.0
 10
460.0243321769348
 20
301.5544138893338
 30
0.0
  0
SPLINE
  5
1DF
330
1F
100
AcDbEntity
  8
1
100
AcDbSpline
210
0.0
220
0.0
230
1.0
 70
     8
 71
     3
 72
    10
 73
     6
 74
     0
 42
0.000000001
 43
0.0000000001
 40
0.0
 40
0.0
 40
0.0
 40
0.0
 40
0.584824158408053
 40
0.584824158408053
 40
1.0
 40
1.0
 40
1.0
 40
1.0
 10
459.3306207574953
 20
301.8857597731068
 30
0.0
 10
459.3326348483595
 20
301.8748110600633
 30
0.0
 10
459.3327357050163
 20
301.8638482112868
 30
0.0
 10
459.3298288162541
 20
301.8453467097161
 30
0.0
 10
459.3277577501834
 20
301.8379628311474
 30
0.0
 10
459.32483046039
 20
301.8308729727227
 30
0.0
  0
SPLINE
  5
1E0
330
1F
100
AcDbEntity
  8
1
100
AcDbSpline
210
0.0
220
0.0
230
1.0
 70
     8
 71
     3
 72
     8
 73
     4
 74
     0
 42
0.000000001
 43
0.0000000001
 40
0.0
 40
0.0
 40
0.0
 40
0.0
 40
1.0
 40
1.0
 40
1.0
 40
1.0
 10
460.0897526270826
 20
301.6866410861979
 30
0.0
 10
460.0928127930352
 20
301.6941466443697
 30
0.0
 10
460.0967938277096
 20
301.7012376178812
 30
0.0
 10
460.1017372601844
 20
301.7078975264758
 30
0.0
  0
SPLINE
  5
1E1
330
1F
100
AcDbEntity
  8
1
100
AcDbSpline
210
0.0
220
0.0
230
1.0
 70
     8
 71
     3
 72
    20
 73
    16
 74
     0
 42
0.000000001
 43
0.0000000001
 40
0.0
 40
0.0
 40
0.0
 40
0.0
 40
0.125
 40
0.125
 40
0.25
 40
0.25
 40
0.375
 40
0.375
 40
0.5
 40
0.5
 40
0.625
 40
0.625
 40
0.75
 40
0.75
 40
1.0
 40
1.0
 40
1.0
 40
1.0
 10
458.7488031605085
 20
302.3549687369434
 30
0.0
 10
458.7447872830207
 20
302.3524059970565
 30
0.0
 10
458.7406139714955
 20
302.3501533162517
 30
0.0
 10
458.7319546719974
 20
302.3462640816084
 30
0.0
 10
458.7274610119061
 20
302.3446304230715
 30
0.0
 10
458.7183709499226
 20
302.3420604512739
 30
0.0
 10
458.7137491336315
 20
302.3411109451444
 30
0.0
 10
458.7043500068928
 20
302.3398941325684
 30
0.0
 10
458.6995345615225
 20
302.3396294336917
 30
0.0
 10
458.6899754143698
 20
302.3398275075742
 30
0.0
 10
458.685227230491
 20
302.3402827830412
 30
0.0
 10
458.6757950774829
 20
302.3419127801374
 30
0.0
 10
458.6710803818589
 20
302.3430980736985
 30
0.0
 10
458.6572586048048
 20
302.3477437672239
 30
0.0
 10
458.6486446274494
 20
302.3521857431817
 30
0.0
 10
458.6406717122868
 20
302.3580572319379
 30
0.0
  0
SPLINE
  5
1E2
330
1F
100
AcDbEntity
  8
1
100
AcDbSpline
210
0.0
220
0.0
230
1.0
 70
     8
 71
     3
 72
    10
 73
     6
 74
     0
 42
0.000000001
 43
0.0000000001
 40
0.0
 40
0.0
 40
0.0
 40
0.0
 40
0.5
 40
0.5
 40
1.0
 40
1.0
 40
1.0
 40
1.0
 10
458.7488031605085
 20
302.3549687369434
 30
0.0
 10
458.7579825551393
 20
302.3608265851545
 30
0.0
 10
458.7679084334226
 20
302.3650538377308
 30
0.0
 10
458.7891225880325
 20
302.3701248248078
 30
0.0
 10
458.7999168057568
 20
302.3708626432496
 30
0.0
 10
458.8109148370979
 20
302.3696950747452
 30
0.0
  0
LINE
  5
1F9
330
1F
100
AcDbEntity
  8
4
100
AcDbLine
 10
267.52914
 20
288.907994
 30
0.0
 11
471.336444
 21
288.907994
 31
0.0
  0
LINE
  5
1FA
330
1F
100
AcDbEntity
  8
SK4
100
AcDbLine
 10
200.904842
 20
288.907994
 30
0.0
 11
277.404842
 21
288.907994
 31
0.0
  0
MTEXT
  5
1FB
330
1F
100
AcDbEntity
  8
SK6
100
AcDbMText
 10
304.314982
 20
248.747444
 30
0.0
 40
3.5
 41
0.0
 71
     7
 72
     5
  1
\W0.7147;804D-42-168-S40
  7
cesky
 73
     2
 44
0.8433729999999998
  0
MTEXT
  5
311
330
1F
100
AcDbEntity
  8
2
100
AcDbMText
 10
485.383823
 20
288.891267
 30
0.0
 40
3.5
 41
0.0
 71
     7
 72
     5
  1
\W0.7045;42
  7
cesky
 11
0.0000000000000001
 21
1.0
 31
0.0
 73
     2
 44
0.8433729999999998
  0
MTEXT
  5
312
330
1F
100
AcDbEntity
  8
2
100
AcDbMText
 10
485.383823
 20
282.153767
 30
0.0
 40
3.5
 41
0.0
 71
     7
 72
     5
  1
\W3.0115;\H2.63;%%c\H3.50;
  7
cesky
 11
0.0000000000000001
 21
1.0
 31
0.0
 73
     2
 44
0.8433729999999998
  0
LINE
  5
313
330
1F
100
AcDbEntity
  8
2
100
AcDbLine
 10
469.4048419999999
 20
309.907994
 30
0.0
 11
486.57124
 21
309.907994
 31
0.0
  0
LINE
  5
314
330
1F
100
AcDbEntity
  8
2
100
AcDbLine
 10
485.57124
 20
309.907994
 30
0.0
 11
485.57124
 21
281.996267
 31
0.0
  0
SOLID
  5
315
330
1F
100
AcDbEntity
  8
2
100
AcDbTrace
 10
485.57124
 20
309.907994
 30
0.0
 11
486.1883839999999
 21
306.407996
 31
0.0
 12
484.9540949999999
 22
306.407991
 32
0.0
 13
484.9540949999999
 23
306.407991
 33
0.0
  0
MTEXT
  5
316
330
1F
100
AcDbEntity
  8
2
100
AcDbMText
 10
367.827842
 20
333.821465
 30
0.0
 40
3.5
 41
0.0
 71
     7
 72
     5
  1
\W0.7809;193
  7
cesky
 73
     2
 44
0.8433729999999998
  0
LINE
  5
317
330
1F
100
AcDbEntity
  8
2
100
AcDbLine
 10
467.404842
 20
309.907994
 30
0.0
 11
467.404842
 21
334.9472990000001
 31
0.0
  0
LINE
  5
318
330
1F
100
AcDbEntity
  8
2
100
AcDbLine
 10
274.404842
 20
289.907567
 30
0.0
 11
274.404842
 21
334.9472990000001
 31
0.0
  0
LINE
  5
319
330
1F
100
AcDbEntity
  8
2
100
AcDbLine
 10
467.404842
 20
333.947299
 30
0.0
 11
274.404842
 21
333.947299
 31
0.0
  0
SOLID
  5
31A
330
1F
100
AcDbEntity
  8
2
100
AcDbTrace
 10
467.404842
 20
333.947299
 30
0.0
 11
463.904844
 21
333.330154
 31
0.0
 12
463.90484
 22
334.5644430000001
 32
0.0
 13
463.90484
 23
334.5644430000001
 33
0.0
  0
SOLID
  5
31B
330
1F
100
AcDbEntity
  8
2
100
AcDbTrace
 10
274.404842
 20
333.947299
 30
0.0
 11
277.90484
 21
334.5644430000001
 31
0.0
 12
277.904844
 22
333.330154
 32
0.0
 13
277.904844
 23
333.330154
 33
0.0
  0
MTEXT
  5
31C
330
1F
100
AcDbEntity
  8
2
100
AcDbMText
 10
332.827842
 20
347.267008
 30
0.0
 40
3.5
 41
0.0
 71
     7
 72
     5
  1
\W0.7231;263
  7
cesky
 73
     2
 44
0.8433729999999998
  0
LINE
  5
31D
330
1F
100
AcDbEntity
  8
2
100
AcDbLine
 10
467.404842
 20
311.907994
 30
0.0
 11
467.404842
 21
348.392842
 31
0.0
  0
LINE
  5
31E
330
1F
100
AcDbEntity
  8
2
100
AcDbLine
 10
204.404842
 20
306.907994
 30
0.0
 11
204.404842
 21
348.392842
 31
0.0
  0
LINE
  5
31F
330
1F
100
AcDbEntity
  8
2
100
AcDbLine
 10
467.404842
 20
347.392842
 30
0.0
 11
204.404842
 21
347.392842
 31
0.0
  0
SOLID
  5
320
330
1F
100
AcDbEntity
  8
2
100
AcDbTrace
 10
467.404842
 20
347.392842
 30
0.0
 11
463.904844
 21
346.775697
 31
0.0
 12
463.90484
 22
348.009986
 32
0.0
 13
463.90484
 23
348.009986
 33
0.0
  0
SOLID
  5
321
330
1F
100
AcDbEntity
  8
2
100
AcDbTrace
 10
204.404842
 20
347.392842
 30
0.0
 11
207.90484
 21
348.009986
 31
0.0
 12
207.904844
 22
346.775697
 32
0.0
 13
207.904844
 23
346.775697
 33
0.0
  0
MTEXT
  5
322
330
1F
100
AcDbEntity
  8
2
100
AcDbMText
 10
237.590342
 20
333.821465
 30
0.0
 40
3.5
 41
0.0
 71
     7
 72
     5
  1
\W0.7045;70
  7
cesky
 73
     2
 44
0.8433729999999998
  0
LINE
  5
323
330
1F
100
AcDbEntity
  8
2
100
AcDbLine
 10
274.404842
 20
288.907994
 30
0.0
 11
274.404842
 21
334.9472990000001
 31
0.0
  0
LINE
  5
324
330
1F
100
AcDbEntity
  8
2
100
AcDbLine
 10
204.404842
 20
306.907994
 30
0.0
 11
204.404842
 21
334.9472990000001
 31
0.0
  0
LINE
  5
325
330
1F
100
AcDbEntity
  8
2
100
AcDbLine
 10
274.404842
 20
333.947299
 30
0.0
 11
204.404842
 21
333.947299
 31
0.0
  0
SOLID
  5
326
330
1F
100
AcDbEntity
  8
2
100
AcDbTrace
 10
274.404842
 20
333.947299
 30
0.0
 11
270.904844
 21
333.330154
 31
0.0
 12
270.90484
 22
334.5644430000001
 32
0.0
 13
270.90484
 23
334.5644430000001
 33
0.0
  0
SOLID
  5
327
330
1F
100
AcDbEntity
  8
2
100
AcDbTrace
 10
204.404842
 20
333.947299
 30
0.0
 11
207.90484
 21
334.5644430000001
 31
0.0
 12
207.904844
 22
333.330154
 32
0.0
 13
207.904844
 23
333.330154
 33
0.0
  0
MTEXT
  5
328
330
1F
100
AcDbEntity
  8
2
100
AcDbMText
 10
373.567618
 20
319.9926
 30
0.0
 40
3.5
 41
0.0
 71
     7
 72
     5
  1
\W0.8654;176,5
  7
cesky
 73
     2
 44
0.8433729999999998
  0
LINE
  5
329
330
1F
100
AcDbEntity
  8
2
100
AcDbLine
 10
467.404842
 20
311.907994
 30
0.0
 11
467.404842
 21
321.118433
 31
0.0
  0
LINE
  5
32A
330
1F
100
AcDbEntity
  8
2
100
AcDbLine
 10
290.934394
 20
309.595323
 30
0.0
 11
290.934394
 21
321.118433
 31
0.0
  0
LINE
  5
32B
330
1F
100
AcDbEntity
  8
2
100
AcDbLine
 10
467.404842
 20
320.118433
 30
0.0
 11
290.934394
 21
320.118433
 31
0.0
  0
SOLID
  5
32C
330
1F
100
AcDbEntity
  8
2
100
AcDbTrace
 10
467.404842
 20
320.118433
 30
0.0
 11
463.904844
 21
319.501288
 31
0.0
 12
463.90484
 22
320.735577
 32
0.0
 13
463.90484
 23
320.735577
 33
0.0
  0
SOLID
  5
32D
330
1F
100
AcDbEntity
  8
2
100
AcDbTrace
 10
290.934394
 20
320.118433
 30
0.0
 11
294.434392
 21
320.735577
 31
0.0
 12
294.4343970000001
 22
319.501288
 32
0.0
 13
294.4343970000001
 23
319.501288
 33
0.0
  0
MTEXT
  5
32E
330
1F
100
AcDbEntity
  8
SK2
100
AcDbMText
 10
175.151238
 20
290.434244
 30
0.0
 40
3.5
 41
0.0
 71
     7
 72
     5
  1
\W0.7045;50
  7
cesky
 11
0.0000000000000001
 21
1.0
 31
0.0
 73
     2
 44
0.8433729999999998
  0
MTEXT
  5
32F
330
1F
100
AcDbEntity
  8
SK2
100
AcDbMText
 10
175.151238
 20
283.696744
 30
0.0
 40
3.5
 41
0.0
 71
     7
 72
     5
  1
\W3.0115;\H2.63;%%c\H3.50;
  7
cesky
 11
0.0000000000000001
 21
1.0
 31
0.0
 73
     2
 44
0.8433729999999998
  0
LINE
  5
330
330
1F
100
AcDbEntity
  8
SK2
100
AcDbLine
 10
274.904842
 20
313.907994
 30
0.0
 11
174.338654
 21
313.907994
 31
0.0
  0
LINE
  5
331
330
1F
100
AcDbEntity
  8
SK2
100
AcDbLine
 10
274.904842
 20
263.907994
 30
0.0
 11
174.338654
 21
263.907994
 31
0.0
  0
LINE
  5
332
330
1F
100
AcDbEntity
  8
SK2
100
AcDbLine
 10
175.338654
 20
313.907994
 30
0.0
 11
175.338654
 21
263.907994
 31
0.0
  0
SOLID
  5
333
330
1F
100
AcDbEntity
  8
SK2
100
AcDbTrace
 10
175.338654
 20
313.907994
 30
0.0
 11
175.955799
 21
310.407996
 31
0.0
 12
174.72151
 22
310.407991
 32
0.0
 13
174.72151
 23
310.407991
 33
0.0
  0
SOLID
  5
334
330
1F
100
AcDbEntity
  8
SK2
100
AcDbTrace
 10
175.338654
 20
263.907994
 30
0.0
 11
174.72151
 21
267.4079910000001
 31
0.0
 12
175.955799
 22
267.407996
 32
0.0
 13
175.955799
 23
267.407996
 33
0.0
  0
MTEXT
  5
335
330
1F
100
AcDbEntity
  8
SK2
100
AcDbMText
 10
190.288302
 20
290.434244
 30
0.0
 40
3.5
 41
0.0
 71
     7
 72
     5
  1
\W0.7045;40
  7
cesky
 11
0.0000000000000001
 21
1.0
 31
0.0
 73
     2
 44
0.8433729999999998
  0
MTEXT
  5
336
330
1F
100
AcDbEntity
  8
SK2
100
AcDbMText
 10
190.288302
 20
283.696744
 30
0.0
 40
3.5
 41
0.0
 71
     7
 72
     5
  1
\W3.0115;\H2.63;%%c\H3.50;
  7
cesky
 11
0.0000000000000001
 21
1.0
 31
0.0
 73
     2
 44
0.8433729999999998
  0
LINE
  5
337
330
1F
100
AcDbEntity
  8
SK2
100
AcDbLine
 10
206.404842
 20
308.907994
 30
0.0
 11
189.475719
 21
308.907994
 31
0.0
  0
LINE
  5
338
330
1F
100
AcDbEntity
  8
SK2
100
AcDbLine
 10
206.404842
 20
268.907994
 30
0.0
 11
189.475719
 21
268.907994
 31
0.0
  0
LINE
  5
339
330
1F
100
AcDbEntity
  8
SK2
100
AcDbLine
 10
190.475719
 20
308.907994
 30
0.0
 11
190.475719
 21
268.907994
 31
0.0
  0
SOLID
  5
33A
330
1F
100
AcDbEntity
  8
SK2
100
AcDbTrace
 10
190.475719
 20
308.907994
 30
0.0
 11
191.092863
 21
305.407996
 31
0.0
 12
189.858574
 22
305.407991
 32
0.0
 13
189.858574
 23
305.407991
 33
0.0
  0
SOLID
  5
33B
330
1F
100
AcDbEntity
  8
SK2
100
AcDbTrace
 10
190.475719
 20
268.907994
 30
0.0
 11
189.858574
 21
272.407991
 31
0.0
 12
191.092863
 22
272.407996
 32
0.0
 13
191.092863
 23
272.407996
 33
0.0
  0
LINE
  5
33C
330
1F
100
AcDbEntity
  8
CUT
100
AcDbLine
 10
466.6582019085116
 20
299.6353437962193
 30
0.0
 11
467.2532685852162
 21
298.6450339436931
 31
0.0
  0
LINE
  5
33D
330
1F
100
AcDbEntity
  8
CUT
100
AcDbLine
 10
466.3176988104668
 20
309.1581537918868
 30
0.0
 11
466.6582019085116
 21
299.6353437962193
 31
0.0
  0
LINE
  5
33F
330
1F
100
AcDbEntity
  8
CUT
100
AcDbLine
 10
454.3759139212701
 20
309.4988217272324
 30
0.0
 11
465.5141416749371
 21
309.9047368144429
 31
0.0
  0
LINE
  5
341
330
1F
100
AcDbEntity
  8
CUT
100
AcDbLine
 10
467.2532685852162
 20
298.6450339436931
 30
0.0
 11
467.4048419452957
 21
289.9656265947038
 31
0.0
  0
LINE
  5
342
330
1F
100
AcDbEntity
  8
CUT
100
AcDbLine
 10
467.404842
 20
289.965627
 30
0.0
 11
467.404842
 21
288.907994
 31
0.0
  0
LINE
  5
343
330
1F
100
AcDbEntity
  8
CUT
100
AcDbLine
 10
467.404842
 20
288.907994
 30
0.0
 11
453.6276980000001
 21
288.907994
 31
0.0
  0
LINE
  5
344
330
1F
100
AcDbEntity
  8
CUT
100
AcDbLine
 10
453.6276980000001
 20
288.907994
 30
0.0
 11
453.6276980000001
 21
308.695323
 31
0.0
  0
LINE
  5
345
330
1F
100
AcDbEntity
  8
CUT
100
AcDbLine
 10
465.5141416749371
 20
309.9047368144429
 30
0.0
 11
465.5141416749371
 21
309.9047368144429
 31
0.0
  0
ARC
  5
346
330
1F
100
AcDbEntity
  8
CUT
100
AcDbCircle
 10
465.5378010935875
 20
309.1244706852436
 30
0.0
 40
0.7806247500985993
100
AcDbArc
 50
2.473018195554834
 51
91.73680434639827
  0
LINE
  5
347
330
1F
100
AcDbEntity
  8
CUT
100
AcDbLine
 10
453.6276982124581
 20
308.6953226633192
 30
0.0
 11
453.6276982124581
 21
308.6953226633192
 31
0.0
  0
ARC
  5
348
330
1F
100
AcDbEntity
  8
CUT
100
AcDbCircle
 10
454.4095357759306
 20
308.7173956194412
 30
0.0
 40
0.7821490849247154
100
AcDbArc
 50
92.46370440005776
 51
181.6171535350665
  0
LINE
  5
3AA
330
1F
100
AcDbEntity
  8
NOCUT
370
    13
100
AcDbLine
 10
466.294842
 20
288.907994
 30
0.0
 11
204.404842
 21
288.907994
 31
0.0
  0
ENDSEC
  0
SECTION
  2
OBJECTS
  0
DICTIONARY
  5
C
330
0
100
AcDbDictionary
281
     1
  3
ACAD_CIP_PREVIOUS_PRODUCT_INFO
350
30E
  3
ACAD_COLOR
350
309
  3
ACAD_DETAILVIEWSTYLE
350
305
  3
ACAD_GROUP
350
D
  3
ACAD_LAYOUT
350
1A
  3
ACAD_MATERIAL
350
43
  3
ACAD_MLEADERSTYLE
350
6B
  3
ACAD_MLINESTYLE
350
17
  3
ACAD_PLOTSETTINGS
350
19
  3
ACAD_PLOTSTYLENAME
350
E
  3
ACAD_SCALELIST
350
47
  3
ACAD_SECTIONVIEWSTYLE
350
306
  3
ACAD_TABLESTYLE
350
69
  3
ACAD_VISUALSTYLE
350
2A
  3
ACDB_RECOMPOSE_DATA
350
3BC
  3
AcDbVariableDictionary
350
2C2
  3
AcDsDecomposeData
350
3C2
  0
DICTIONARY
  5
3B5
330
2
100
AcDbDictionary
280
     1
281
     1
  3
ACAD_LAYERSTATES
360
3B6
  0
DICTIONARY
  5
357
330
10
100
AcDbDictionary
280
     1
281
     1
  3
ADSK_XREC_LAYER_RECONCILED
360
358
  0
DICTIONARY
  5
359
330
349
100
AcDbDictionary
280
     1
281
     1
  3
ADSK_XREC_LAYER_RECONCILED
360
35A
  0
DICTIONARY
  5
35B
330
34A
100
AcDbDictionary
280
     1
281
     1
  3
ADSK_XREC_LAYER_RECONCILED
360
35C
  0
DICTIONARY
  5
35D
330
34B
100
AcDbDictionary
280
     1
281
     1
  3
ADSK_XREC_LAYER_RECONCILED
360
35E
  0
DICTIONARY
  5
35F
330
34D
100
AcDbDictionary
280
     1
281
     1
  3
ADSK_XREC_LAYER_RECONCILED
360
360
  0
DICTIONARY
  5
361
330
34E
100
AcDbDictionary
280
     1
281
     1
  3
ADSK_XREC_LAYER_RECONCILED
360
362
  0
DICTIONARY
  5
363
330
350
100
AcDbDictionary
280
     1
281
     1
  3
ADSK_XREC_LAYER_RECONCILED
360
364
  0
DICTIONARY
  5
365
330
351
100
AcDbDictionary
280
     1
281
     1
  3
ADSK_XREC_LAYER_RECONCILED
360
366
  0
DICTIONARY
  5
367
330
352
100
AcDbDictionary
280
     1
281
     1
  3
ADSK_XREC_LAYER_RECONCILED
360
368
  0
DICTIONARY
  5
369
330
353
100
AcDbDictionary
280
     1
281
     1
  3
ADSK_XREC_LAYER_RECONCILED
360
36A
  0
DICTIONARY
  5
36B
330
354
100
AcDbDictionary
280
     1
281
     1
  3
ADSK_XREC_LAYER_RECONCILED
360
36C
  0
DICTIONARY
  5
36D
330
355
100
AcDbDictionary
280
     1
281
     1
  3
ADSK_XREC_LAYER_RECONCILED
360
36E
  0
DICTIONARY
  5
30F
330
1F
100
AcDbDictionary
280
     1
281
     1
  3
ACAD_SORTENTS
360
310
  0
XRECORD
  5
30E
102
{ACAD_REACTORS
330
C
102
}
330
C
100
AcDbXrecord
280
     1
300
ACD
300
2019
300
87084ACD_2019_0F
  0
DICTIONARY
  5
309
102
{ACAD_REACTORS
330
C
102
}
330
C
100
AcDbDictionary
281
     1
  0
DICTIONARY
  5
305
102
{ACAD_REACTORS
330
C
102
}
330
C
100
AcDbDictionary
281
     1
  3
Metric50
350
30B
  0
DICTIONARY
  5
D
102
{ACAD_REACTORS
330
C
102
}
330
C
100
AcDbDictionary
281
     1
  3
NULOVY_BOD
350
356
  0
DICTIONARY
  5
1A
102
{ACAD_REACTORS
330
C
102
}
330
C
100
AcDbDictionary
281
     1
  3
Layout1
350
1E
  3
Layout2
350
26
  3
Model
350
22
  0
DICTIONARY
  5
43
102
{ACAD_REACTORS
330
C
102
}
330
C
100
AcDbDictionary
281
     1
  3
ByBlock
350
45
  3
ByLayer
350
44
  3
Global
350
46
  0
DICTIONARY
  5
6B
102
{ACAD_REACTORS
330
C
102
}
330
C
100
AcDbDictionary
281
     1
  3
Standard
350
6C
  0
DICTIONARY
  5
17
102
{ACAD_REACTORS
330
C
102
}
330
C
100
AcDbDictionary
281
     1
  3
Standard
350
18
  0
DICTIONARY
  5
19
102
{ACAD_REACTORS
330
C
102
}
330
C
100
AcDbDictionary
281
     1
  0
ACDBDICTIONARYWDFLT
  5
E
102
{ACAD_REACTORS
330
C
102
}
330
C
100
AcDbDictionary
281
     1
  3
Normal
350
F
100
AcDbDictionaryWithDefault
340
F
  0
DICTIONARY
  5
47
102
{ACAD_REACTORS
330
C
102
}
330
C
100
AcDbDictionary
281
     1
  3
A0
350
48
  3
A1
350
49
  3
A2
350
4A
  3
A3
350
4B
  3
A4
350
4C
  3
A5
350
4D
  3
A6
350
4E
  3
A7
350
4F
  3
A8
350
50
  3
A9
350
51
  3
B0
350
52
  3
B1
350
53
  3
B2
350
54
  3
B3
350
55
  3
B4
350
56
  3
B5
350
57
  3
B6
350
58
  3
B7
350
59
  3
B8
350
5A
  3
B9
350
5B
  3
C0
350
5C
  3
C1
350
5D
  3
C2
350
5E
  3
C3
350
5F
  3
C4
350
60
  3
C5
350
61
  3
C6
350
62
  3
C7
350
63
  3
C8
350
64
  3
C9
350
65
  3
D0
350
66
  3
D1
350
67
  3
D2
350
68
  0
DICTIONARY
  5
306
102
{ACAD_REACTORS
330
C
102
}
330
C
100
AcDbDictionary
281
     1
  3
Metric50
350
30A
  0
DICTIONARY
  5
69
102
{ACAD_REACTORS
330
C
102
}
330
C
100
AcDbDictionary
281
     1
  3
Standard
350
6A
  0
DICTIONARY
  5
2A
102
{ACAD_REACTORS
330
C
102
}
330
C
100
AcDbDictionary
281
     1
  3
2dWireframe
350
2F
  3
Basic
350
32
  3
Brighten
350
36
  3
ColorChange
350
3A
  3
Conceptual
350
34
  3
Dim
350
35
  3
EdgeColorOff
350
3D
  3
Facepattern
350
39
  3
Flat
350
2B
  3
FlatWithEdges
350
2C
  3
Gouraud
350
2D
  3
GouraudWithEdges
350
2E
  3
Hidden
350
31
  3
JitterOff
350
3B
  3
Linepattern
350
38
  3
OverhangOff
350
3C
  3
Realistic
350
33
  3
Shaded
350
42
  3
Shaded with edges
350
41
  3
Shades of Gray
350
3E
  3
Sketchy
350
3F
  3
Thicken
350
37
  3
Wireframe
350
30
  3
X-Ray
350
40
  0
XRECORD
  5
3BC
102
{ACAD_REACTORS
330
C
102
}
330
C
100
AcDbXrecord
280
     1
 90
        1
330
6A
  0
DICTIONARY
  5
2C2
102
{ACAD_REACTORS
330
C
102
}
330
C
100
AcDbDictionary
281
     1
  3
CANNOSCALE
350
2C3
  3
CMLEADERSTYLE
350
304
  3
CTABLESTYLE
350
303
  3
CVIEWDETAILSTYLE
350
36F
  3
CVIEWSECTIONSTYLE
350
370
  3
MSLTSCALE
350
2C4
  3
XCLIPFRAME
350
371
  0
DICTIONARY
  5
3C2
102
{ACAD_REACTORS
330
C
102
}
330
C
100
AcDbDictionary
281
     1
  3
AcDsRecords
350
3C4
  3
AcDsSchemas
350
3C3
1001
ACAD
1070
     2
  0
DICTIONARY
  5
3B6
102
{ACAD_REACTORS
330
3B5
102
}
330
3B5
100
AcDbDictionary
281
     1
  0
XRECORD
  5
358
102
{ACAD_REACTORS
330
357
102
}
330
357
100
AcDbXrecord
280
     1
290
     1
  0
XRECORD
  5
35A
102
{ACAD_REACTORS
330
359
102
}
330
359
100
AcDbXrecord
280
     1
290
     1
  0
XRECORD
  5
35C
102
{ACAD_REACTORS
330
35B
102
}
330
35B
100
AcDbXrecord
280
     1
290
     1
  0
XRECORD
  5
35E
102
{ACAD_REACTORS
330
35D
102
}
330
35D
100
AcDbXrecord
280
     1
290
     1
  0
XRECORD
  5
360
102
{ACAD_REACTORS
330
35F
102
}
330
35F
100
AcDbXrecord
280
     1
290
     1
  0
XRECORD
  5
362
102
{ACAD_REACTORS
330
361
102
}
330
361
100
AcDbXrecord
280
     1
290
     1
  0
XRECORD
  5
364
102
{ACAD_REACTORS
330
363
102
}
330
363
100
AcDbXrecord
280
     1
290
     1
  0
XRECORD
  5
366
102
{ACAD_REACTORS
330
365
102
}
330
365
100
AcDbXrecord
280
     1
290
     1
  0
XRECORD
  5
368
102
{ACAD_REACTORS
330
367
102
}
330
367
100
AcDbXrecord
280
     1
290
     1
  0
XRECORD
  5
36A
102
{ACAD_REACTORS
330
369
102
}
330
369
100
AcDbXrecord
280
     1
290
     1
  0
XRECORD
  5
36C
102
{ACAD_REACTORS
330
36B
102
}
330
36B
100
AcDbXrecord
280
     1
290
     1
  0
XRECORD
  5
36E
102
{ACAD_REACTORS
330
36D
102
}
330
36D
100
AcDbXrecord
280
     1
290
     1
  0
SORTENTSTABLE
  5
310
102
{ACAD_REACTORS
330
30F
102
}
330
30F
100
AcDbSortentsTable
330
1F
331
311
  5
318
331
312
  5
319
331
313
  5
31A
331
314
  5
31B
331
315
  5
31C
331
316
  5
324
331
317
  5
325
331
318
  5
326
331
319
  5
327
331
31A
  5
328
331
31B
  5
329
331
31C
  5
32A
331
31D
  5
32B
331
31E
  5
32C
331
31F
  5
32D
331
320
  5
32E
331
321
  5
32F
331
322
  5
330
331
323
  5
331
331
324
  5
332
331
325
  5
333
331
326
  5
334
331
327
  5
335
331
328
  5
336
331
329
  5
337
331
32A
  5
338
331
32B
  5
339
331
32C
  5
33A
331
32D
  5
33B
331
32E
  5
235
331
32F
  5
311
331
330
  5
312
331
331
  5
313
331
332
  5
314
331
333
  5
316
331
334
  5
317
331
335
  5
31D
331
336
  5
31E
331
337
  5
31F
331
338
  5
320
331
339
  5
321
331
33A
  5
322
331
33B
  5
323
331
33F
  5
342
331
341
  5
345
331
342
  5
346
331
343
  5
347
331
344
  5
348
331
345
  5
33F
331
346
  5
341
331
347
  5
343
331
348
  5
344
  0
ACDBDETAILVIEWSTYLE
  5
30B
102
{ACAD_XDICTIONARY
360
3F8
102
}
102
{ACAD_REACTORS
330
305
102
}
330
305
100
AcDbModelDocViewStyle
 70
     0
  3
Metric50
290
     0
100
AcDbDetailViewStyle
 70
     0
 71
     0
 90
        3
 71
     1
340
11
 62
   256
 40
5.0
340
0
 62
   256
 40
5.0
300

 40
0.0
280
     1
 71
     2
340
16
 90
       25
 62
   256
 71
     3
340
11
 62
   256
 40
5.0
 90
        0
 40
15.0
 90
        1
300
%<\AcVar ViewDetailId>% (%<\AcVar ViewScale \f "%sn">%)
 71
     4
340
16
 90
       25
 62
   256
340
16
 90
       25
 62
   256
280
     0
  0
GROUP
  5
356
102
{ACAD_REACTORS
330
D
102
}
330
D
100
AcDbGroup
300

 70
     0
 71
     1
340
73
  0
LAYOUT
  5
1E
102
{ACAD_REACTORS
330
1A
102
}
330
1A
100
AcDbPlotSettings
  1

  2
none_device
  4

  6

 40
0.0
 41
0.0
 42
0.0
 43
0.0
 44
0.0
 45
0.0
 46
0.0
 47
0.0
 48
0.0
 49
0.0
140
0.0
141
0.0
142
1.0
143
1.0
 70
   688
 72
     0
 73
     0
 74
     5
  7

 75
    16
147
1.0
 76
     0
 77
     2
 78
   300
148
0.0
149
0.0
100
AcDbLayout
  1
Layout1
 70
     1
 71
     1
 10
-0.5
 20
-0.5
 11
5.0
 21
5.0
 12
0.0
 22
0.0
 32
0.0
 14
-0.5
 24
-0.5
 34
-0.5
 15
5.0
 25
5.0
 35
5.0
146
0.0
 13
0.0
 23
0.0
 33
0.0
 16
1.0
 26
0.0
 36
0.0
 17
0.0
 27
1.0
 37
0.0
 76
     0
330
1B
  0
LAYOUT
  5
26
102
{ACAD_REACTORS
330
1A
102
}
330
1A
100
AcDbPlotSettings
  1

  2
none_device
  4

  6

 40
0.0
 41
0.0
 42
0.0
 43
0.0
 44
0.0
 45
0.0
 46
0.0
 47
0.0
 48
0.0
 49
0.0
140
0.0
141
0.0
142
1.0
143
1.0
 70
   688
 72
     0
 73
     0
 74
     5
  7

 75
    16
147
1.0
 76
     0
 77
     2
 78
   300
148
0.0
149
0.0
100
AcDbLayout
  1
Layout2
 70
     1
 71
     2
 10
0.0
 20
0.0
 11
0.0
 21
0.0
 12
0.0
 22
0.0
 32
0.0
 14
0.0
 24
0.0
 34
0.0
 15
0.0
 25
0.0
 35
0.0
146
0.0
 13
0.0
 23
0.0
 33
0.0
 16
1.0
 26
0.0
 36
0.0
 17
0.0
 27
1.0
 37
0.0
 76
     0
330
23
  0
LAYOUT
  5
22
102
{ACAD_REACTORS
330
1A
102
}
330
1A
100
AcDbPlotSettings
  1

  2
none_device
  4
Letter_(8.50_x_11.00_Inches)
  6

 40
6.349999999999999
 41
6.349999999999999
 42
6.350005
 43
6.350005
 44
215.9
 45
279.4
 46
0.0
 47
0.0
 48
0.0
 49
0.0
140
0.0
141
0.0
142
1.0
143
1.0
 70
  1712
 72
     0
 73
     0
 74
     0
  7

 75
     0
147
1.0
 76
     0
 77
     2
 78
   300
148
0.0
149
0.0
100
AcDbLayout
  1
Model
 70
     1
 71
     0
 10
-0.5
 20
-0.5
 11
5.0
 21
5.0
 12
0.0
 22
0.0
 32
0.0
 14
-0.5
 24
-0.5
 34
-0.5
 15
5.0
 25
5.0
 35
5.0
146
0.0
 13
0.0
 23
0.0
 33
0.0
 16
1.0
 26
0.0
 36
0.0
 17
0.0
 27
1.0
 37
0.0
 76
     0
330
1F
331
29
  0
MATERIAL
  5
45
102
{ACAD_XDICTIONARY
360
2F8
102
}
102
{ACAD_REACTORS
330
43
102
}
330
43
100
AcDbMaterial
  1
ByBlock
  0
MATERIAL
  5
44
102
{ACAD_XDICTIONARY
360
2F6
102
}
102
{ACAD_REACTORS
330
43
102
}
330
43
100
AcDbMaterial
  1
ByLayer
  0
MATERIAL
  5
46
102
{ACAD_XDICTIONARY
360
2FA
102
}
102
{ACAD_REACTORS
330
43
102
}
330
43
100
AcDbMaterial
  1
Global
  0
MLEADERSTYLE
  5
6C
102
{ACAD_REACTORS
330
6B
102
}
330
6B
100
AcDbMLeaderStyle
170
     2
171
     1
172
     0
 90
        2
 40
0.0
 41
0.0
173
     1
 91
-1056964608
340
14
 92
       -2
290
     1
 42
0.09
291
     1
 43
0.36
  3
Standard
 44
0.18
300

342
11
174
     1
178
     6
175
     1
176
     0
 93
-1056964608
 45
0.18
292
     0
297
     0
 46
0.18
 94
-1056964608
 47
1.0
 49
1.0
140
1.0
293
     1
141
0.0
294
     1
177
     0
142
1.0
295
     0
296
     0
143
0.125
1001
ACAD_MLEADERVER
1070
     2
  0
MLINESTYLE
  5
18
102
{ACAD_REACTORS
330
17
102
}
330
17
100
AcDbMlineStyle
  2
STANDARD
 70
     0
  3

 62
   256
 51
90.0
 52
90.0
 71
     2
 49
0.5
 62
   256
  6
BYLAYER
 49
-0.5
 62
   256
  6
BYLAYER
  0
ACDBPLACEHOLDER
  5
F
102
{ACAD_REACTORS
330
E
102
}
330
E
  0
SCALE
  5
48
102
{ACAD_REACTORS
330
47
102
}
330
47
100
AcDbScale
 70
     0
300
1:1
140
1.0
141
1.0
290
     1
  0
SCALE
  5
49
102
{ACAD_REACTORS
330
47
102
}
330
47
100
AcDbScale
 70
     0
300
1:2
140
1.0
141
2.0
290
     0
  0
SCALE
  5
4A
102
{ACAD_REACTORS
330
47
102
}
330
47
100
AcDbScale
 70
     0
300
1:4
140
1.0
141
4.0
290
     0
  0
SCALE
  5
4B
102
{ACAD_REACTORS
330
47
102
}
330
47
100
AcDbScale
 70
     0
300
1:5
140
1.0
141
5.0
290
     0
  0
SCALE
  5
4C
102
{ACAD_REACTORS
330
47
102
}
330
47
100
AcDbScale
 70
     0
300
1:8
140
1.0
141
8.0
290
     0
  0
SCALE
  5
4D
102
{ACAD_REACTORS
330
47
102
}
330
47
100
AcDbScale
 70
     0
300
1:10
140
1.0
141
10.0
290
     0
  0
SCALE
  5
4E
102
{ACAD_REACTORS
330
47
102
}
330
47
100
AcDbScale
 70
     0
300
1:16
140
1.0
141
16.0
290
     0
  0
SCALE
  5
4F
102
{ACAD_REACTORS
330
47
102
}
330
47
100
AcDbScale
 70
     0
300
1:20
140
1.0
141
20.0
290
     0
  0
SCALE
  5
50
102
{ACAD_REACTORS
330
47
102
}
330
47
100
AcDbScale
 70
     0
300
1:30
140
1.0
141
30.0
290
     0
  0
SCALE
  5
51
102
{ACAD_REACTORS
330
47
102
}
330
47
100
AcDbScale
 70
     0
300
1:40
140
1.0
141
40.0
290
     0
  0
SCALE
  5
52
102
{ACAD_REACTORS
330
47
102
}
330
47
100
AcDbScale
 70
     0
300
1:50
140
1.0
141
50.0
290
     0
  0
SCALE
  5
53
102
{ACAD_REACTORS
330
47
102
}
330
47
100
AcDbScale
 70
     0
300
1:100
140
1.0
141
100.0
290
     0
  0
SCALE
  5
54
102
{ACAD_REACTORS
330
47
102
}
330
47
100
AcDbScale
 70
     0
300
2:1
140
2.0
141
1.0
290
     0
  0
SCALE
  5
55
102
{ACAD_REACTORS
330
47
102
}
330
47
100
AcDbScale
 70
     0
300
4:1
140
4.0
141
1.0
290
     0
  0
SCALE
  5
56
102
{ACAD_REACTORS
330
47
102
}
330
47
100
AcDbScale
 70
     0
300
8:1
140
8.0
141
1.0
290
     0
  0
SCALE
  5
57
102
{ACAD_REACTORS
330
47
102
}
330
47
100
AcDbScale
 70
     0
300
10:1
140
10.0
141
1.0
290
     0
  0
SCALE
  5
58
102
{ACAD_REACTORS
330
47
102
}
330
47
100
AcDbScale
 70
     0
300
100:1
140
100.0
141
1.0
290
     0
  0
SCALE
  5
59
102
{ACAD_REACTORS
330
47
102
}
330
47
100
AcDbScale
 70
     0
300
1/128" = 1'-0"
140
0.007812
141
12.0
290
     0
  0
SCALE
  5
5A
102
{ACAD_REACTORS
330
47
102
}
330
47
100
AcDbScale
 70
     0
300
1/64" = 1'-0"
140
0.015625
141
12.0
290
     0
  0
SCALE
  5
5B
102
{ACAD_REACTORS
330
47
102
}
330
47
100
AcDbScale
 70
     0
300
1/32" = 1'-0"
140
0.03125
141
12.0
290
     0
  0
SCALE
  5
5C
102
{ACAD_REACTORS
330
47
102
}
330
47
100
AcDbScale
 70
     0
300
1/16" = 1'-0"
140
0.0625
141
12.0
290
     0
  0
SCALE
  5
5D
102
{ACAD_REACTORS
330
47
102
}
330
47
100
AcDbScale
 70
     0
300
3/32" = 1'-0"
140
0.09375
141
12.0
290
     0
  0
SCALE
  5
5E
102
{ACAD_REACTORS
330
47
102
}
330
47
100
AcDbScale
 70
     0
300
1/8" = 1'-0"
140
0.125
141
12.0
290
     0
  0
SCALE
  5
5F
102
{ACAD_REACTORS
330
47
102
}
330
47
100
AcDbScale
 70
     0
300
3/16" = 1'-0"
140
0.1875
141
12.0
290
     0
  0
SCALE
  5
60
102
{ACAD_REACTORS
330
47
102
}
330
47
100
AcDbScale
 70
     0
300
1/4" = 1'-0"
140
0.25
141
12.0
290
     0
  0
SCALE
  5
61
102
{ACAD_REACTORS
330
47
102
}
330
47
100
AcDbScale
 70
     0
300
3/8" = 1'-0"
140
0.375
141
12.0
290
     0
  0
SCALE
  5
62
102
{ACAD_REACTORS
330
47
102
}
330
47
100
AcDbScale
 70
     0
300
1/2" = 1'-0"
140
0.5
141
12.0
290
     0
  0
SCALE
  5
63
102
{ACAD_REACTORS
330
47
102
}
330
47
100
AcDbScale
 70
     0
300
3/4" = 1'-0"
140
0.75
141
12.0
290
     0
  0
SCALE
  5
64
102
{ACAD_REACTORS
330
47
102
}
330
47
100
AcDbScale
 70
     0
300
1" = 1'-0"
140
1.0
141
12.0
290
     0
  0
SCALE
  5
65
102
{ACAD_REACTORS
330
47
102
}
330
47
100
AcDbScale
 70
     0
300
1-1/2" = 1'-0"
140
1.5
141
12.0
290
     0
  0
SCALE
  5
66
102
{ACAD_REACTORS
330
47
102
}
330
47
100
AcDbScale
 70
     0
300
3" = 1'-0"
140
3.0
141
12.0
290
     0
  0
SCALE
  5
67
102
{ACAD_REACTORS
330
47
102
}
330
47
100
AcDbScale
 70
     0
300
6" = 1'-0"
140
6.0
141
12.0
290
     0
  0
SCALE
  5
68
102
{ACAD_REACTORS
330
47
102
}
330
47
100
AcDbScale
 70
     0
300
1'-0" = 1'-0"
140
12.0
141
12.0
290
     0
  0
ACDBSECTIONVIEWSTYLE
  5
30A
102
{ACAD_XDICTIONARY
360
3F6
102
}
102
{ACAD_REACTORS
330
306
102
}
330
306
100
AcDbModelDocViewStyle
 70
     0
  3
Metric50
290
     0
100
AcDbSectionViewStyle
 70
     0
 71
     0
 90
      102
 71
     1
340
11
 62
   256
 40
5.0
340
0
340
0
 62
   256
 40
5.0
300
I, O, Q, S, X, Z
 40
10.0
 90
        0
 40
2.5
 90
        0
 71
     2
340
16
 90
       25
 62
   256
340
16
 90
       50
 62
   256
 40
5.0
 40
2.5
 40
5.0
 71
     3
340
11
 62
   256
 40
5.0
 90
        0
 40
15.0
 90
        1
300
%<\AcVar ViewSectionStartId>%-%<\AcVar ViewSectionEndId>% (%<\AcVar ViewScale \f "%sn">%)
 71
     4
 62
   256
 62
   257
300
ANSI31
 40
1.0
 90
        0
290
     0
290
     0
 90
        6
 40
0.0
 40
1.570796326794896
 40
0.2617993877991494
 40
1.308996938995747
 40
-0.2617993877991494
 40
1.832595714594046
  0
TABLESTYLE
  5
6A
102
{ACAD_XDICTIONARY
360
2FC
102
}
102
{ACAD_REACTORS
330
69
102
}
330
69
100
AcDbTableStyle
  3
Standard
 70
     0
 71
     0
 40
0.06
 41
0.06
280
     0
281
     0
  7
Standard
140
0.18
170
     2
 62
     0
 63
     7
283
     0
274
    -2
284
     1
 64
     0
275
    -2
285
     1
 65
     0
276
    -2
286
     1
 66
     0
277
    -2
287
     1
 67
     0
278
    -2
288
     1
 68
     0
279
    -2
289
     1
 69
     0
  7
Standard
140
0.25
170
     5
 62
     0
 63
     7
283
     0
274
    -2
284
     1
 64
     0
275
    -2
285
     1
 65
     0
276
    -2
286
     1
 66
     0
277
    -2
287
     1
 67
     0
278
    -2
288
     1
 68
     0
279
    -2
289
     1
 69
     0
  7
Standard
140
0.18
170
     5
 62
     0
 63
     7
283
     0
274
    -2
284
     1
 64
     0
275
    -2
285
     1
 65
     0
276
    -2
286
     1
 66
     0
277
    -2
287
     1
 67
     0
278
    -2
288
     1
 68
     0
279
    -2
289
     1
 69
     0
  0
VISUALSTYLE
  5
2F
102
{ACAD_XDICTIONARY
360
3CD
102
}
102
{ACAD_REACTORS
330
2A
102
}
330
2A
100
AcDbVisualStyle
  2

 70
     4
 71
     0
 72
     2
 73
     0
 90
        0
 40
-0.6
 41
-30.0
 62
     5
 63
     7
421
 16777215
 74
     1
 91
        4
 64
     7
 65
   257
 75
     1
175
     1
 42
1.0
 92
        0
 66
   257
 43
1.0
 76
     1
 77
     6
 78
     2
 67
     7
 79
     5
170
     0
171
     0
290
     0
174
     0
 93
        1
 44
0.0
173
     0
291
     0
 45
0.0
1001
ACAD
1000
AcDbSavedByObjectVersion
1070
     0
  0
VISUALSTYLE
  5
32
102
{ACAD_XDICTIONARY
360
3D3
102
}
102
{ACAD_REACTORS
330
2A
102
}
330
2A
100
AcDbVisualStyle
  2

 70
     7
 71
     1
 72
     0
 73
     1
 90
        0
 40
-0.6
 41
-30.0
 62
     5
 63
     7
421
 16777215
 74
     0
 91
        4
 64
     7
 65
   257
 75
     1
175
     1
 42
1.0
 92
        8
 66
     7
 43
1.0
 76
     1
 77
     6
 78
     2
 67
     7
 79
     5
170
     0
171
     0
290
     0
174
     0
 93
        1
 44
0.0
173
     0
291
     1
 45
0.0
1001
ACAD
1000
AcDbSavedByObjectVersion
1070
     0
  0
VISUALSTYLE
  5
36
102
{ACAD_XDICTIONARY
360
3DB
102
}
102
{ACAD_REACTORS
330
2A
102
}
330
2A
100
AcDbVisualStyle
  2

 70
    12
 71
     2
 72
     2
 73
     0
 90
        0
 40
-0.6
 41
-30.0
 62
     5
 63
     7
421
 16777215
 74
     1
 91
        4
 64
     7
 65
   257
 75
     1
175
     1
 42
1.0
 92
        8
 66
     7
 43
1.0
 76
     1
 77
     6
 78
     2
 67
     7
 79
     5
170
     0
171
     0
290
     0
174
     0
 93
        1
 44
50.0
173
     0
291
     1
 45
0.0
1001
ACAD
1000
AcDbSavedByObjectVersion
1070
     0
  0
VISUALSTYLE
  5
3A
102
{ACAD_XDICTIONARY
360
3E3
102
}
102
{ACAD_REACTORS
330
2A
102
}
330
2A
100
AcDbVisualStyle
  2

 70
    16
 71
     2
 72
     2
 73
     3
 90
        0
 40
-0.6
 41
-30.0
 62
     5
 63
     8
421
  8421504
 74
     1
 91
        4
 64
     7
 65
   257
 75
     1
175
     1
 42
1.0
 92
        8
 66
     8
424
  8421504
 43
1.0
 76
     1
 77
     6
 78
     2
 67
     7
 79
     5
170
     0
171
     0
290
     0
174
     0
 93
        1
 44
0.0
173
     0
291
     1
 45
0.0
1001
ACAD
1000
AcDbSavedByObjectVersion
1070
     0
  0
VISUALSTYLE
  5
34
102
{ACAD_XDICTIONARY
360
3D7
102
}
102
{ACAD_REACTORS
330
2A
102
}
330
2A
100
AcDbVisualStyle
  2

 70
     9
 71
     3
 72
     2
 73
     0
 90
        0
 40
-0.6
 41
-30.0
 62
     5
 63
     7
421
 16777215
 74
     2
 91
        2
 64
     7
 65
   257
 75
     1
175
     1
 42
179.0
 92
        8
 66
     7
 43
1.0
 76
     1
 77
     6
 78
     2
 67
     7
 79
     3
170
     0
171
     0
290
     0
174
     0
 93
        1
 44
0.0
173
     0
291
     0
 45
0.0
1001
ACAD
1000
AcDbSavedByObjectVersion
1070
     0
  0
VISUALSTYLE
  5
35
102
{ACAD_XDICTIONARY
360
3D9
102
}
102
{ACAD_REACTORS
330
2A
102
}
330
2A
100
AcDbVisualStyle
  2

 70
    11
 71
     2
 72
     2
 73
     0
 90
        0
 40
-0.6
 41
-30.0
 62
     5
 63
     7
421
 16777215
 74
     1
 91
        4
 64
     7
 65
   257
 75
     1
175
     1
 42
1.0
 92
        8
 66
     7
 43
1.0
 76
     1
 77
     6
 78
     2
 67
     7
 79
     5
170
     0
171
     0
290
     0
174
     0
 93
        1
 44
-50.0
173
     0
291
     1
 45
0.0
1001
ACAD
1000
AcDbSavedByObjectVersion
1070
     0
  0
VISUALSTYLE
  5
3D
102
{ACAD_XDICTIONARY
360
3E9
102
}
102
{ACAD_REACTORS
330
2A
102
}
330
2A
100
AcDbVisualStyle
  2

 70
    22
 71
     2
 72
     2
 73
     0
 90
        0
 40
-0.6
 41
-30.0
 62
     5
 63
     7
421
 16777215
 74
     1
 91
        4
 64
     7
 65
   257
 75
     1
175
     1
 42
1.0
 92
        8
 66
     7
 43
1.0
 76
     1
 77
     6
 78
     2
 67
     7
 79
     5
170
     0
171
     0
290
     0
174
     0
 93
        1
 44
0.0
173
     0
291
     1
 45
0.0
1001
ACAD
1000
AcDbSavedByObjectVersion
1070
     0
  0
VISUALSTYLE
  5
39
102
{ACAD_XDICTIONARY
360
3E1
102
}
102
{ACAD_REACTORS
330
2A
102
}
330
2A
100
AcDbVisualStyle
  2

 70
    15
 71
     2
 72
     2
 73
     0
 90
        0
 40
-0.6
 41
-30.0
 62
     5
 63
     7
421
 16777215
 74
     1
 91
        4
 64
     7
 65
   257
 75
     1
175
     1
 42
1.0
 92
        8
 66
     7
 43
1.0
 76
     1
 77
     6
 78
     2
 67
     7
 79
     5
170
     0
171
     0
290
     0
174
     0
 93
        1
 44
0.0
173
     0
291
     1
 45
0.0
1001
ACAD
1000
AcDbSavedByObjectVersion
1070
     0
  0
VISUALSTYLE
  5
2B
102
{ACAD_XDICTIONARY
360
3C5
102
}
102
{ACAD_REACTORS
330
2A
102
}
330
2A
100
AcDbVisualStyle
  2

 70
     0
 71
     2
 72
     1
 73
     1
 90
        2
 40
-0.6
 41
30.0
 62
     5
 63
     7
421
 16777215
 74
     0
 91
        0
 64
     7
 65
   257
 75
     1
175
     1
 42
1.0
 92
        8
 66
     7
 43
1.0
 76
     1
 77
     6
 78
     2
 67
     7
 79
     5
170
     0
171
     0
290
     0
174
     0
 93
       13
 44
0.0
173
     0
291
     1
 45
0.0
1001
ACAD
1000
AcDbSavedByObjectVersion
1070
     0
  0
VISUALSTYLE
  5
2C
102
{ACAD_XDICTIONARY
360
3C7
102
}
102
{ACAD_REACTORS
330
2A
102
}
330
2A
100
AcDbVisualStyle
  2

 70
     1
 71
     2
 72
     1
 73
     1
 90
        2
 40
-0.6
 41
30.0
 62
     5
 63
     7
421
 16777215
 74
     1
 91
        0
 64
     7
 65
   257
 75
     1
175
     1
 42
1.0
 92
        0
 66
   257
 43
1.0
 76
     1
 77
     6
 78
     2
 67
     7
 79
     5
170
     0
171
     0
290
     0
174
     0
 93
       13
 44
0.0
173
     0
291
     1
 45
0.0
1001
ACAD
1000
AcDbSavedByObjectVersion
1070
     0
  0
VISUALSTYLE
  5
2D
102
{ACAD_XDICTIONARY
360
3C9
102
}
102
{ACAD_REACTORS
330
2A
102
}
330
2A
100
AcDbVisualStyle
  2

 70
     2
 71
     2
 72
     2
 73
     1
 90
        2
 40
-0.6
 41
30.0
 62
     5
 63
     7
421
 16777215
 74
     0
 91
        0
 64
     7
 65
   257
 75
     1
175
     1
 42
1.0
 92
        0
 66
     7
 43
1.0
 76
     1
 77
     6
 78
     2
 67
     7
 79
     5
170
     0
171
     0
290
     0
174
     0
 93
       13
 44
0.0
173
     0
291
     1
 45
0.0
1001
ACAD
1000
AcDbSavedByObjectVersion
1070
     0
  0
VISUALSTYLE
  5
2E
102
{ACAD_XDICTIONARY
360
3CB
102
}
102
{ACAD_REACTORS
330
2A
102
}
330
2A
100
AcDbVisualStyle
  2

 70
     3
 71
     2
 72
     2
 73
     1
 90
        2
 40
-0.6
 41
30.0
 62
     5
 63
     7
421
 16777215
 74
     1
 91
        0
 64
     7
 65
   257
 75
     1
175
     1
 42
1.0
 92
        0
 66
   257
 43
1.0
 76
     1
 77
     6
 78
     2
 67
     7
 79
     5
170
     0
171
     0
290
     0
174
     0
 93
       13
 44
0.0
173
     0
291
     1
 45
0.0
1001
ACAD
1000
AcDbSavedByObjectVersion
1070
     0
  0
VISUALSTYLE
  5
31
102
{ACAD_XDICTIONARY
360
3D1
102
}
102
{ACAD_REACTORS
330
2A
102
}
330
2A
100
AcDbVisualStyle
  2

 70
     6
 71
     1
 72
     2
 73
     2
 90
        0
 40
-0.6
 41
-30.0
 62
     5
 63
     7
421
 16777215
 74
     2
 91
        2
 64
     7
 65
   257
 75
     2
175
     1
 42
40.0
 92
        0
 66
   257
 43
1.0
 76
     1
 77
     6
 78
     2
 67
     7
 79
     3
170
     0
171
     0
290
     0
174
     0
 93
        1
 44
0.0
173
     0
291
     0
 45
0.0
1001
ACAD
1000
AcDbSavedByObjectVersion
1070
     0
  0
VISUALSTYLE
  5
3B
102
{ACAD_XDICTIONARY
360
3E5
102
}
102
{ACAD_REACTORS
330
2A
102
}
330
2A
100
AcDbVisualStyle
  2

 70
    20
 71
     2
 72
     2
 73
     0
 90
        0
 40
-0.6
 41
-30.0
 62
     5
 63
     7
421
 16777215
 74
     1
 91
        4
 64
     7
 65
   257
 75
     1
175
     1
 42
1.0
 92
       10
 66
     7
 43
1.0
 76
     1
 77
     6
 78
     2
 67
     7
 79
     5
170
     0
171
     0
290
     0
174
     0
 93
        1
 44
0.0
173
     0
291
     1
 45
0.0
1001
ACAD
1000
AcDbSavedByObjectVersion
1070
     0
  0
VISUALSTYLE
  5
38
102
{ACAD_XDICTIONARY
360
3DF
102
}
102
{ACAD_REACTORS
330
2A
102
}
330
2A
100
AcDbVisualStyle
  2

 70
    14
 71
     2
 72
     2
 73
     0
 90
        0
 40
-0.6
 41
-30.0
 62
     5
 63
     7
421
 16777215
 74
     1
 91
        4
 64
     7
 65
   257
 75
     7
175
     7
 42
1.0
 92
        8
 66
     7
 43
1.0
 76
     1
 77
     6
 78
     2
 67
     7
 79
     5
170
     0
171
     0
290
     0
174
     0
 93
        1
 44
0.0
173
     0
291
     1
 45
0.0
1001
ACAD
1000
AcDbSavedByObjectVersion
1070
     0
  0
VISUALSTYLE
  5
3C
102
{ACAD_XDICTIONARY
360
3E7
102
}
102
{ACAD_REACTORS
330
2A
102
}
330
2A
100
AcDbVisualStyle
  2

 70
    21
 71
     2
 72
     2
 73
     0
 90
        0
 40
-0.6
 41
-30.0
 62
     5
 63
     7
421
 16777215
 74
     1
 91
        4
 64
     7
 65
   257
 75
     1
175
     1
 42
1.0
 92
        9
 66
     7
 43
1.0
 76
     1
 77
     6
 78
     2
 67
     7
 79
     5
170
     0
171
     0
290
     0
174
     0
 93
        1
 44
0.0
173
     0
291
     1
 45
0.0
1001
ACAD
1000
AcDbSavedByObjectVersion
1070
     0
  0
VISUALSTYLE
  5
33
102
{ACAD_XDICTIONARY
360
3D5
102
}
102
{ACAD_REACTORS
330
2A
102
}
330
2A
100
AcDbVisualStyle
  2

 70
     8
 71
     2
 72
     3
 73
     0
 90
        2
 40
-0.6
 41
30.0
 62
     5
 63
     7
421
 16777215
 74
     0
 91
        0
 64
     7
 65
   257
 75
     1
175
     1
 42
1.0
 92
        8
 66
   257
 43
1.0
 76
     1
 77
     6
 78
     2
 67
     7
 79
     3
170
     0
171
     0
290
     0
174
     0
 93
       13
 44
0.0
173
     0
291
     0
 45
0.0
1001
ACAD
1000
AcDbSavedByObjectVersion
1070
     0
  0
VISUALSTYLE
  5
42
102
{ACAD_XDICTIONARY
360
3F3
102
}
102
{ACAD_REACTORS
330
2A
102
}
330
2A
100
AcDbVisualStyle
  2

 70
    27
 71
     2
 72
     2
 73
     1
 90
        2
 40
-0.6
 41
30.0
 62
     5
 63
     7
421
 16777215
 74
     0
 91
        4
 64
     7
 65
   257
 75
     1
175
     1
 42
1.0
 92
        8
 66
   257
 43
1.0
 76
     1
 77
     6
 78
     2
 67
     8
425
  7895160
 79
     3
170
     0
171
     0
290
     0
174
     0
 93
        5
 44
0.0
173
     0
291
     0
 45
0.0
1001
ACAD
1000
AcDbSavedByObjectVersion
1070
     0
  0
VISUALSTYLE
  5
41
102
{ACAD_XDICTIONARY
360
3F1
102
}
102
{ACAD_REACTORS
330
2A
102
}
330
2A
100
AcDbVisualStyle
  2

 70
    26
 71
     2
 72
     2
 73
     1
 90
        2
 40
-0.6
 41
30.0
 62
     5
 63
     7
421
 16777215
 74
     1
 91
        2
 64
     7
 65
   257
 75
     2
175
     1
 42
1.0
 92
        8
 66
   257
 43
1.0
 76
     1
 77
     6
 78
     2
 67
     7
 79
     3
170
     0
171
     0
290
     0
174
     0
 93
        5
 44
0.0
173
     0
291
     0
 45
0.0
1001
ACAD
1000
AcDbSavedByObjectVersion
1070
     0
  0
VISUALSTYLE
  5
3E
102
{ACAD_XDICTIONARY
360
3EB
102
}
102
{ACAD_REACTORS
330
2A
102
}
330
2A
100
AcDbVisualStyle
  2

 70
    23
 71
     2
 72
     2
 73
     3
 90
        0
 40
-0.6
 41
-30.0
 62
     5
 63
     7
421
 16777215
 74
     2
 91
        2
 64
     7
 65
     7
 75
     1
175
     1
 42
40.0
 92
        8
 66
     7
 43
1.0
 76
     1
 77
     6
 78
     2
 67
     7
 79
     3
170
     0
171
     0
290
     0
174
     0
 93
        1
 44
0.0
173
     0
291
     0
 45
0.0
1001
ACAD
1000
AcDbSavedByObjectVersion
1070
     0
  0
VISUALSTYLE
  5
3F
102
{ACAD_XDICTIONARY
360
3ED
102
}
102
{ACAD_REACTORS
330
2A
102
}
330
2A
100
AcDbVisualStyle
  2

 70
    24
 71
     1
 72
     2
 73
     2
 90
        0
 40
-0.6
 41
-30.0
 62
     5
 63
     7
421
 16777215
 74
     2
 91
        2
 64
     7
 65
     7
 75
     1
175
     1
 42
40.0
 92
       11
 66
     7
 43
1.0
 76
     1
 77
     6
 78
     2
 67
     7
 79
     6
170
     0
171
     0
290
     0
174
     0
 93
        1
 44
0.0
173
     0
291
     0
 45
0.0
1001
ACAD
1000
AcDbSavedByObjectVersion
1070
     0
  0
VISUALSTYLE
  5
37
102
{ACAD_XDICTIONARY
360
3DD
102
}
102
{ACAD_REACTORS
330
2A
102
}
330
2A
100
AcDbVisualStyle
  2

 70
    13
 71
     2
 72
     2
 73
     0
 90
        0
 40
-0.6
 41
-30.0
 62
     5
 63
     7
421
 16777215
 74
     1
 91
        4
 64
     7
 65
   257
 75
     1
175
     1
 42
1.0
 92
       12
 66
     7
 43
1.0
 76
     1
 77
     6
 78
     2
 67
     7
 79
     5
170
     0
171
     0
290
     0
174
     0
 93
        1
 44
0.0
173
     0
291
     1
 45
0.0
1001
ACAD
1000
AcDbSavedByObjectVersion
1070
     0
  0
VISUALSTYLE
  5
30
102
{ACAD_XDICTIONARY
360
3CF
102
}
102
{ACAD_REACTORS
330
2A
102
}
330
2A
100
AcDbVisualStyle
  2

 70
     5
 71
     0
 72
     2
 73
     0
 90
        0
 40
-0.6
 41
-30.0
 62
     5
 63
     7
421
 16777215
 74
     1
 91
        4
 64
     7
 65
   257
 75
     1
175
     1
 42
1.0
 92
        0
 66
   257
 43
1.0
 76
     1
 77
     6
 78
     2
 67
     7
 79
     3
170
     0
171
     0
290
     0
174
     0
 93
        1
 44
0.0
173
     0
291
     0
 45
0.0
1001
ACAD
1000
AcDbSavedByObjectVersion
1070
     0
  0
VISUALSTYLE
  5
40
102
{ACAD_XDICTIONARY
360
3EF
102
}
102
{ACAD_REACTORS
330
2A
102
}
330
2A
100
AcDbVisualStyle
  2

 70
    25
 71
     2
 72
     2
 73
     1
 90
        1
 40
0.5
 41
-30.0
 62
     5
 63
     7
421
 16777215
 74
     1
 91
        0
 64
     7
 65
   257
 75
     1
175
     1
 42
1.0
 92
        8
 66
     7
 43
1.0
 76
     1
 77
     6
 78
     2
 67
     7
 79
     3
170
     0
171
     0
290
     0
174
     0
 93
       13
 44
0.0
173
     0
291
     0
 45
0.0
1001
ACAD
1000
AcDbSavedByObjectVersion
1070
     0
  0
DICTIONARYVAR
  5
2C3
102
{ACAD_REACTORS
330
2C2
102
}
330
2C2
100
DictionaryVariables
280
     0
  1
1:1
  0
DICTIONARYVAR
  5
304
102
{ACAD_REACTORS
330
2C2
102
}
330
2C2
100
DictionaryVariables
280
     0
  1
STANDARD
  0
DICTIONARYVAR
  5
303
102
{ACAD_REACTORS
330
2C2
102
}
330
2C2
100
DictionaryVariables
280
     0
  1
STANDARD
  0
DICTIONARYVAR
  5
36F
102
{ACAD_REACTORS
330
2C2
102
}
330
2C2
100
DictionaryVariables
280
     0
  1
Metric50
  0
DICTIONARYVAR
  5
370
102
{ACAD_REACTORS
330
2C2
102
}
330
2C2
100
DictionaryVariables
280
     0
  1
Metric50
  0
DICTIONARYVAR
  5
2C4
102
{ACAD_REACTORS
330
2C2
102
}
330
2C2
100
DictionaryVariables
280
     0
  1
1
  0
DICTIONARYVAR
  5
371
102
{ACAD_REACTORS
330
2C2
102
}
330
2C2
100
DictionaryVariables
280
     0
  1
2
  0
DICTIONARY
  5
3C4
102
{ACAD_REACTORS
330
3C2
102
}
330
3C2
100
AcDbDictionary
281
     1
  0
DICTIONARY
  5
3C3
102
{ACAD_REACTORS
330
3C2
102
}
330
3C2
100
AcDbDictionary
281
     1
  3
2358902734672
350
3BD
  3
2358902734688
350
3BE
  3
2358902734704
350
3BF
  3
2359270490112
350
3C0
  3
2359270490128
350
3C1
  0
DICTIONARY
  5
3F8
330
30B
100
AcDbDictionary
280
     1
281
     1
  3
ACAD_XREC_ROUNDTRIP
360
3F9
  0
DICTIONARY
  5
2F8
330
45
100
AcDbDictionary
280
     1
281
     1
  3
ACAD_XREC_ROUNDTRIP
360
2F9
  0
DICTIONARY
  5
2F6
330
44
100
AcDbDictionary
280
     1
281
     1
  3
ACAD_XREC_ROUNDTRIP
360
2F7
  0
DICTIONARY
  5
2FA
330
46
100
AcDbDictionary
280
     1
281
     1
  3
ACAD_XREC_ROUNDTRIP
360
2FB
  0
DICTIONARY
  5
3F6
330
30A
100
AcDbDictionary
280
     1
281
     1
  3
ACAD_XREC_ROUNDTRIP
360
3F7
  0
DICTIONARY
  5
2FC
330
6A
100
AcDbDictionary
280
     1
281
     1
  3
ACAD_ROUNDTRIP_2008_TABLESTYLE_CELLSTYLEMAP
360
3BB
  3
ACAD_XREC_ROUNDTRIP
360
3F5
  0
DICTIONARY
  5
3CD
330
2F
100
AcDbDictionary
280
     1
281
     1
  3
ACAD_XREC_ROUNDTRIP
360
3CE
  0
DICTIONARY
  5
3D3
330
32
100
AcDbDictionary
280
     1
281
     1
  3
ACAD_XREC_ROUNDTRIP
360
3D4
  0
DICTIONARY
  5
3DB
330
36
100
AcDbDictionary
280
     1
281
     1
  3
ACAD_XREC_ROUNDTRIP
360
3DC
  0
DICTIONARY
  5
3E3
330
3A
100
AcDbDictionary
280
     1
281
     1
  3
ACAD_XREC_ROUNDTRIP
360
3E4
  0
DICTIONARY
  5
3D7
330
34
100
AcDbDictionary
280
     1
281
     1
  3
ACAD_XREC_ROUNDTRIP
360
3D8
  0
DICTIONARY
  5
3D9
330
35
100
AcDbDictionary
280
     1
281
     1
  3
ACAD_XREC_ROUNDTRIP
360
3DA
  0
DICTIONARY
  5
3E9
330
3D
100
AcDbDictionary
280
     1
281
     1
  3
ACAD_XREC_ROUNDTRIP
360
3EA
  0
DICTIONARY
  5
3E1
330
39
100
AcDbDictionary
280
     1
281
     1
  3
ACAD_XREC_ROUNDTRIP
360
3E2
  0
DICTIONARY
  5
3C5
330
2B
100
AcDbDictionary
280
     1
281
     1
  3
ACAD_XREC_ROUNDTRIP
360
3C6
  0
DICTIONARY
  5
3C7
330
2C
100
AcDbDictionary
280
     1
281
     1
  3
ACAD_XREC_ROUNDTRIP
360
3C8
  0
DICTIONARY
  5
3C9
330
2D
100
AcDbDictionary
280
     1
281
     1
  3
ACAD_XREC_ROUNDTRIP
360
3CA
  0
DICTIONARY
  5
3CB
330
2E
100
AcDbDictionary
280
     1
281
     1
  3
ACAD_XREC_ROUNDTRIP
360
3CC
  0
DICTIONARY
  5
3D1
330
31
100
AcDbDictionary
280
     1
281
     1
  3
ACAD_XREC_ROUNDTRIP
360
3D2
  0
DICTIONARY
  5
3E5
330
3B
100
AcDbDictionary
280
     1
281
     1
  3
ACAD_XREC_ROUNDTRIP
360
3E6
  0
DICTIONARY
  5
3DF
330
38
100
AcDbDictionary
280
     1
281
     1
  3
ACAD_XREC_ROUNDTRIP
360
3E0
  0
DICTIONARY
  5
3E7
330
3C
100
AcDbDictionary
280
     1
281
     1
  3
ACAD_XREC_ROUNDTRIP
360
3E8
  0
DICTIONARY
  5
3D5
330
33
100
AcDbDictionary
280
     1
281
     1
  3
ACAD_XREC_ROUNDTRIP
360
3D6
  0
DICTIONARY
  5
3F3
330
42
100
AcDbDictionary
280
     1
281
     1
  3
ACAD_XREC_ROUNDTRIP
360
3F4
  0
DICTIONARY
  5
3F1
330
41
100
AcDbDictionary
280
     1
281
     1
  3
ACAD_XREC_ROUNDTRIP
360
3F2
  0
DICTIONARY
  5
3EB
330
3E
100
AcDbDictionary
280
     1
281
     1
  3
ACAD_XREC_ROUNDTRIP
360
3EC
  0
DICTIONARY
  5
3ED
330
3F
100
AcDbDictionary
280
     1
281
     1
  3
ACAD_XREC_ROUNDTRIP
360
3EE
  0
DICTIONARY
  5
3DD
330
37
100
AcDbDictionary
280
     1
281
     1
  3
ACAD_XREC_ROUNDTRIP
360
3DE
  0
DICTIONARY
  5
3CF
330
30
100
AcDbDictionary
280
     1
281
     1
  3
ACAD_XREC_ROUNDTRIP
360
3D0
  0
DICTIONARY
  5
3EF
330
40
100
AcDbDictionary
280
     1
281
     1
  3
ACAD_XREC_ROUNDTRIP
360
3F0
  0
XRECORD
  5
3BD
102
{ACAD_REACTORS
330
3C3
102
}
330
3C3
100
AcDbXrecord
280
     1
  1
AcDb_Thumbnail_Schema
102
{ATTRRECORD
341
3BE
  2
AcDbDs::TreatedAsObjectData
280
     1
291
     1
102
ATTRRECORD}
102
{ATTRRECORD
341
3BF
  2
AcDbDs::Legacy
280
     1
291
     1
102
ATTRRECORD}
  2
AcDbDs::ID
280
    10
 91
        8
102
{ATTRRECORD
341
3C0
  2
AcDs:Indexable
280
     1
291
     1
102
ATTRRECORD}
102
{ATTRRECORD
341
3C1
  2
AcDbDs::HandleAttribute
280
     7
282
     1
102
ATTRRECORD}
  2
Thumbnail_Data
280
    15
 91
        0
  0
XRECORD
  5
3BE
102
{ACAD_REACTORS
330
3C3
102
}
330
3C3
100
AcDbXrecord
280
     1
  1
AcDbDs::TreatedAsObjectDataSchema
  2
AcDbDs::TreatedAsObjectData
280
     1
 91
        0
  0
XRECORD
  5
3BF
102
{ACAD_REACTORS
330
3C3
102
}
330
3C3
100
AcDbXrecord
280
     1
  1
AcDbDs::LegacySchema
  2
AcDbDs::Legacy
280
     1
 91
        0
  0
XRECORD
  5
3C0
102
{ACAD_REACTORS
330
3C3
102
}
330
3C3
100
AcDbXrecord
280
     1
  1
AcDbDs::IndexedPropertySchema
  2
AcDs:Indexable
280
     1
 91
        0
  0
XRECORD
  5
3C1
102
{ACAD_REACTORS
330
3C3
102
}
330
3C3
100
AcDbXrecord
280
     1
  1
AcDbDs::HandleAttributeSchema
  2
AcDbDs::HandleAttribute
280
     7
 91
        1
284
     1
  0
XRECORD
  5
3F9
102
{ACAD_REACTORS
330
3F8
102
}
330
3F8
100
AcDbXrecord
280
     1
102
DISPLAYNAME
  1
Metric50
102
FLAGS
 90
        0
  0
XRECORD
  5
2F9
102
{ACAD_REACTORS
330
2F8
102
}
330
2F8
100
AcDbXrecord
280
     1
102
MATERIAL
148
0.0
149
0.0
149
0.0
 93
        0
 94
      127
282
     0
 72
     1
 77
     1
171
     1
175
     1
179
     1
273
     0
  0
XRECORD
  5
2F7
102
{ACAD_REACTORS
330
2F6
102
}
330
2F6
100
AcDbXrecord
280
     1
102
MATERIAL
148
0.0
149
0.0
149
0.0
 93
        0
 94
      127
282
     0
 72
     1
 77
     1
171
     1
175
     1
179
     1
273
     0
  0
XRECORD
  5
2FB
102
{ACAD_REACTORS
330
2FA
102
}
330
2FA
100
AcDbXrecord
280
     1
102
MATERIAL
148
0.0
149
0.0
149
0.0
 93
        0
 94
      127
282
     0
 72
     1
 77
     1
171
     1
175
     1
179
     1
273
     0
  0
XRECORD
  5
3F7
102
{ACAD_REACTORS
330
3F6
102
}
330
3F6
100
AcDbXrecord
280
     1
102
DISPLAYNAME
  1
Metric50
102
FLAGS
 90
        0
  0
CELLSTYLEMAP
  5
3BB
102
{ACAD_REACTORS
330
2FC
102
}
330
2FC
100
AcDbCellStyleMap
 90
        3
300
CELLSTYLE
  1
TABLEFORMAT_BEGIN
 90
        5
170
     1
 91
        0
 92
    32768
 62
   257
 93
        1
300
CONTENTFORMAT
  1
CONTENTFORMAT_BEGIN
 90
        0
 91
        0
 92
        4
 93
        0
300

 40
0.0
140
1.0
 94
        5
 62
     0
340
11
144
0.25
309
CONTENTFORMAT_END
171
     1
301
MARGIN
  1
CELLMARGIN_BEGIN
 40
0.06
 40
0.06
 40
0.06
 40
0.06
 40
0.18
 40
0.18
309
CELLMARGIN_END
 94
        6
 95
        1
302
GRIDFORMAT
  1
GRIDFORMAT_BEGIN
 90
        0
 91
        1
 62
     0
 92
       -2
340
14
 93
        0
 40
0.045
309
GRIDFORMAT_END
 95
        2
302
GRIDFORMAT
  1
GRIDFORMAT_BEGIN
 90
        0
 91
        1
 62
     0
 92
       -2
340
14
 93
        0
 40
0.045
309
GRIDFORMAT_END
 95
        4
302
GRIDFORMAT
  1
GRIDFORMAT_BEGIN
 90
        0
 91
        1
 62
     0
 92
       -2
340
14
 93
        0
 40
0.045
309
GRIDFORMAT_END
 95
        8
302
GRIDFORMAT
  1
GRIDFORMAT_BEGIN
 90
        0
 91
        1
 62
     0
 92
       -2
340
14
 93
        0
 40
0.045
309
GRIDFORMAT_END
 95
       16
302
GRIDFORMAT
  1
GRIDFORMAT_BEGIN
 90
        0
 91
        1
 62
     0
 92
       -2
340
14
 93
        0
 40
0.045
309
GRIDFORMAT_END
 95
       32
302
GRIDFORMAT
  1
GRIDFORMAT_BEGIN
 90
        0
 91
        1
 62
     0
 92
       -2
340
14
 93
        0
 40
0.045
309
GRIDFORMAT_END
309
TABLEFORMAT_END
  1
CELLSTYLE_BEGIN
 90
        1
 91
        1
300
_TITLE
309
CELLSTYLE_END
300
CELLSTYLE
  1
TABLEFORMAT_BEGIN
 90
        5
170
     1
 91
        0
 92
        0
 62
   257
 93
        1
300
CONTENTFORMAT
  1
CONTENTFORMAT_BEGIN
 90
        0
 91
        0
 92
        4
 93
        0
300

 40
0.0
140
1.0
 94
        5
 62
     0
340
11
144
0.18
309
CONTENTFORMAT_END
171
     1
301
MARGIN
  1
CELLMARGIN_BEGIN
 40
0.06
 40
0.06
 40
0.06
 40
0.06
 40
0.18
 40
0.18
309
CELLMARGIN_END
 94
        6
 95
        1
302
GRIDFORMAT
  1
GRIDFORMAT_BEGIN
 90
        0
 91
        1
 62
     0
 92
       -2
340
14
 93
        0
 40
0.045
309
GRIDFORMAT_END
 95
        2
302
GRIDFORMAT
  1
GRIDFORMAT_BEGIN
 90
        0
 91
        1
 62
     0
 92
       -2
340
14
 93
        0
 40
0.045
309
GRIDFORMAT_END
 95
        4
302
GRIDFORMAT
  1
GRIDFORMAT_BEGIN
 90
        0
 91
        1
 62
     0
 92
       -2
340
14
 93
        0
 40
0.045
309
GRIDFORMAT_END
 95
        8
302
GRIDFORMAT
  1
GRIDFORMAT_BEGIN
 90
        0
 91
        1
 62
     0
 92
       -2
340
14
 93
        0
 40
0.045
309
GRIDFORMAT_END
 95
       16
302
GRIDFORMAT
  1
GRIDFORMAT_BEGIN
 90
        0
 91
        1
 62
     0
 92
       -2
340
14
 93
        0
 40
0.045
309
GRIDFORMAT_END
 95
       32
302
GRIDFORMAT
  1
GRIDFORMAT_BEGIN
 90
        0
 91
        1
 62
     0
 92
       -2
340
14
 93
        0
 40
0.045
309
GRIDFORMAT_END
309
TABLEFORMAT_END
  1
CELLSTYLE_BEGIN
 90
        2
 91
        1
300
_HEADER
309
CELLSTYLE_END
300
CELLSTYLE
  1
TABLEFORMAT_BEGIN
 90
        5
170
     1
 91
        0
 92
        0
 62
   257
 93
        1
300
CONTENTFORMAT
  1
CONTENTFORMAT_BEGIN
 90
        0
 91
        0
 92
        4
 93
        0
300

 40
0.0
140
1.0
 94
        2
 62
     0
340
11
144
0.18
309
CONTENTFORMAT_END
171
     1
301
MARGIN
  1
CELLMARGIN_BEGIN
 40
0.06
 40
0.06
 40
0.06
 40
0.06
 40
0.18
 40
0.18
309
CELLMARGIN_END
 94
        6
 95
        1
302
GRIDFORMAT
  1
GRIDFORMAT_BEGIN
 90
        0
 91
        1
 62
     0
 92
       -2
340
14
 93
        0
 40
0.045
309
GRIDFORMAT_END
 95
        2
302
GRIDFORMAT
  1
GRIDFORMAT_BEGIN
 90
        0
 91
        1
 62
     0
 92
       -2
340
14
 93
        0
 40
0.045
309
GRIDFORMAT_END
 95
        4
302
GRIDFORMAT
  1
GRIDFORMAT_BEGIN
 90
        0
 91
        1
 62
     0
 92
       -2
340
14
 93
        0
 40
0.045
309
GRIDFORMAT_END
 95
        8
302
GRIDFORMAT
  1
GRIDFORMAT_BEGIN
 90
        0
 91
        1
 62
     0
 92
       -2
340
14
 93
        0
 40
0.045
309
GRIDFORMAT_END
 95
       16
302
GRIDFORMAT
  1
GRIDFORMAT_BEGIN
 90
        0
 91
        1
 62
     0
 92
       -2
340
14
 93
        0
 40
0.045
309
GRIDFORMAT_END
 95
       32
302
GRIDFORMAT
  1
GRIDFORMAT_BEGIN
 90
        0
 91
        1
 62
     0
 92
       -2
340
14
 93
        0
 40
0.045
309
GRIDFORMAT_END
309
TABLEFORMAT_END
  1
CELLSTYLE_BEGIN
 90
        3
 91
        2
300
_DATA
309
CELLSTYLE_END
  0
XRECORD
  5
3F5
102
{ACAD_REACTORS
330
2FC
102
}
330
2FC
100
AcDbXrecord
280
     1
102
ACAD_ROUNDTRIP_PRE2007_TABLESTYLE
 90
        4
 91
        0
  1

 92
        4
 93
        0
  2

 94
        4
 95
        0
  3

  0
XRECORD
  5
3CE
102
{ACAD_REACTORS
330
3CD
102
}
330
3CD
100
AcDbXrecord
280
     1
102
RTVSPost2010Prop28
280
     1
102
RTVSPost2010PropOp28
 70
     1
102
RTVSPost2010Prop29
280
     1
102
RTVSPost2010PropOp29
 70
     1
102
RTVSPost2010Prop30
280
     0
102
RTVSPost2010PropOp30
 70
     1
102
RTVSPost2010Prop31
280
     0
102
RTVSPost2010PropOp31
 70
     1
102
RTVSPost2010Prop32
280
     0
102
RTVSPost2010PropOp32
 70
     1
102
RTVSPost2010Prop33
280
     0
102
RTVSPost2010PropOp33
 70
     1
102
RTVSPost2010Prop34
280
     0
102
RTVSPost2010PropOp34
 70
     1
102
RTVSPost2010Prop35
280
     0
102
RTVSPost2010PropOp35
 70
     1
102
RTVSPost2010Prop36
280
     0
102
RTVSPost2010PropOp36
 70
     1
102
RTVSPost2010Prop37
 90
       50
102
RTVSPost2010PropOp37
 70
     1
102
RTVSPost2010Prop38
140
0.0
102
RTVSPost2010PropOp38
 70
     1
102
RTVSPost2010Prop39
140
1.0
102
RTVSPost2010PropOp39
 70
     1
102
RTVSPost2010Prop40
 90
        0
102
RTVSPost2010PropOp40
 70
     1
102
RTVSPost2010Prop41ColorIndex
 90
       18
102
RTVSPost2010Prop41ColorRGB
 90
        0
102
RTVSPost2010PropOp41
 70
     1
102
RTVSPost2010Prop42
 90
       50
102
RTVSPost2010PropOp42
 70
     1
102
RTVSPost2010Prop43
 90
        3
102
RTVSPost2010PropOp43
 70
     1
102
RTVSPost2010Prop44ColorIndex
 90
        5
102
RTVSPost2010Prop44ColorRGB
 90
      255
102
RTVSPost2010PropOp44
 70
     1
102
RTVSPost2010Prop45
280
     0
102
RTVSPost2010PropOp45
 70
     1
102
RTVSPost2010Prop46
 90
       50
102
RTVSPost2010PropOp46
 70
     1
102
RTVSPost2010Prop47
 90
       50
102
RTVSPost2010PropOp47
 70
     1
102
RTVSPost2010Prop48
 90
       50
102
RTVSPost2010PropOp48
 70
     1
102
RTVSPost2010Prop49
280
     0
102
RTVSPost2010PropOp49
 70
     1
102
RTVSPost2010Prop50
 90
       50
102
RTVSPost2010PropOp50
 70
     1
102
RTVSPost2010Prop51ColorIndex
 90
      256
102
RTVSPost2010Prop51ColorRGB
 90
-16777216
102
RTVSPost2010PropOp51
 70
     0
102
RTVSPost2010Prop52
140
1.0
102
RTVSPost2010PropOp52
 70
     0
102
RTVSPost2010Prop53
 90
        2
102
RTVSPost2010PropOp53
 70
     1
102
RTVSPost2010Prop54
  1
strokes_ogs.tif
102
RTVSPost2010PropOp54
 70
     1
102
RTVSPost2010Prop55
280
     0
102
RTVSPost2010PropOp55
 70
     1
102
RTVSPost2010Prop56
140
1.0
102
RTVSPost2010PropOp56
 70
     1
102
RTVSPost2010Prop57
140
1.0
102
RTVSPost2010PropOp57
 70
     1
102
RTVSPropertyOp0
 70
     1
102
RTVSPropertyOp1
 70
     1
102
RTVSPropertyOp2
 70
     1
102
RTVSPropertyOp3
 70
     1
102
RTVSPropertyOp4
 70
     1
102
RTVSPropertyOp5
 70
     1
102
RTVSPropertyOp6
 70
     1
102
RTVSPropertyOp7
 70
     1
102
RTVSPropertyOp8
 70
     1
102
RTVSPropertyOp9
 70
     1
102
RTVSPropertyOp10
 70
     1
102
RTVSPropertyOp11
 70
     1
102
RTVSPropertyOp12
 70
     1
102
RTVSPropertyOp13
 70
     1
102
RTVSPropertyOp14
 70
     1
102
RTVSPropertyOp15
 70
     1
102
RTVSPropertyOp16
 70
     1
102
RTVSPropertyOp17
 70
     1
102
RTVSPropertyOp18
 70
     1
102
RTVSPropertyOp19
 70
     1
102
RTVSPropertyOp20
 70
     1
102
RTVSPropertyOp21
 70
     1
102
RTVSPropertyOp22
 70
     1
102
RTVSPropertyOp23
 70
     1
102
RTVSPropertyOp24
 70
     1
102
RTVSPropertyOp25
 70
     1
102
RTVSPropertyOp26
 70
     1
102
RTVSPropertyOp27
 70
     1
102
RTVSPropertyOp28
 70
     1
102
RTVSPropertyOp29
 70
     1
102
RTVSPropertyOp30
 70
     1
102
RTVSPropertyOp31
 70
     1
102
RTVSPropertyOp32
 70
     1
102
RTVSPropertyOp33
 70
     1
102
RTVSPropertyOp34
 70
     1
102
RTVSPropertyOp35
 70
     1
102
RTVSPropertyOp36
 70
     1
102
RTVSPropertyOp37
 70
     1
102
RTVSPropertyOp38
 70
     1
102
RTVSPropertyOp39
 70
     1
102
RTVSPropertyOp40
 70
     1
102
RTVSPropertyOp41
 70
     1
102
RTVSPropertyOp42
 70
     1
102
RTVSPropertyOp43
 70
     1
102
RTVSPropertyOp44
 70
     1
102
RTVSPropertyOp45
 70
     1
102
RTVSPropertyOp46
 70
     1
102
RTVSPropertyOp47
 70
     1
102
RTVSPropertyOp48
 70
     1
102
RTVSPropertyOp49
 70
     1
102
RTVSPropertyOp50
 70
     1
102
RTVSPropertyOp51
 70
     0
102
RTVSPropertyOp52
 70
     0
102
RTVSPropertyOp53
 70
     1
102
RTVSPropertyOp54
 70
     1
102
RTVSPropertyOp55
 70
     1
102
RTVSPropertyOp56
 70
     1
102
RTVSPropertyOp57
 70
     1
102
RTVSPropertyOp58
 70
     1
102
RTVSPropertyOp59
 70
     1
102
RTVSPropertyOp60
 70
     1
102
RTVSPropertyOp61
 70
     1
102
RTVSPropertyOp62
 70
     1
  0
XRECORD
  5
3D4
102
{ACAD_REACTORS
330
3D3
102
}
330
3D3
100
AcDbXrecord
280
     1
102
RTVSPost2010Prop28
280
     0
102
RTVSPost2010PropOp28
 70
     1
102
RTVSPost2010Prop29
280
     1
102
RTVSPost2010PropOp29
 70
     1
102
RTVSPost2010Prop30
280
     1
102
RTVSPost2010PropOp30
 70
     1
102
RTVSPost2010Prop31
280
     0
102
RTVSPost2010PropOp31
 70
     1
102
RTVSPost2010Prop32
280
     0
102
RTVSPost2010PropOp32
 70
     1
102
RTVSPost2010Prop33
280
     0
102
RTVSPost2010PropOp33
 70
     1
102
RTVSPost2010Prop34
280
     0
102
RTVSPost2010PropOp34
 70
     1
102
RTVSPost2010Prop35
280
     0
102
RTVSPost2010PropOp35
 70
     1
102
RTVSPost2010Prop36
280
     0
102
RTVSPost2010PropOp36
 70
     1
102
RTVSPost2010Prop37
 90
       50
102
RTVSPost2010PropOp37
 70
     1
102
RTVSPost2010Prop38
140
0.0
102
RTVSPost2010PropOp38
 70
     1
102
RTVSPost2010Prop39
140
1.0
102
RTVSPost2010PropOp39
 70
     1
102
RTVSPost2010Prop40
 90
        0
102
RTVSPost2010PropOp40
 70
     1
102
RTVSPost2010Prop41ColorIndex
 90
       18
102
RTVSPost2010Prop41ColorRGB
 90
        0
102
RTVSPost2010PropOp41
 70
     1
102
RTVSPost2010Prop42
 90
       50
102
RTVSPost2010PropOp42
 70
     1
102
RTVSPost2010Prop43
 90
        3
102
RTVSPost2010PropOp43
 70
     1
102
RTVSPost2010Prop44ColorIndex
 90
        5
102
RTVSPost2010Prop44ColorRGB
 90
      255
102
RTVSPost2010PropOp44
 70
     1
102
RTVSPost2010Prop45
280
     0
102
RTVSPost2010PropOp45
 70
     1
102
RTVSPost2010Prop46
 90
       50
102
RTVSPost2010PropOp46
 70
     1
102
RTVSPost2010Prop47
 90
       50
102
RTVSPost2010PropOp47
 70
     1
102
RTVSPost2010Prop48
 90
       50
102
RTVSPost2010PropOp48
 70
     1
102
RTVSPost2010Prop49
280
     0
102
RTVSPost2010PropOp49
 70
     1
102
RTVSPost2010Prop50
 90
       50
102
RTVSPost2010PropOp50
 70
     1
102
RTVSPost2010Prop51ColorIndex
 90
      256
102
RTVSPost2010Prop51ColorRGB
 90
-16777216
102
RTVSPost2010PropOp51
 70
     0
102
RTVSPost2010Prop52
140
1.0
102
RTVSPost2010PropOp52
 70
     0
102
RTVSPost2010Prop53
 90
        2
102
RTVSPost2010PropOp53
 70
     1
102
RTVSPost2010Prop54
  1
strokes_ogs.tif
102
RTVSPost2010PropOp54
 70
     1
102
RTVSPost2010Prop55
280
     0
102
RTVSPost2010PropOp55
 70
     1
102
RTVSPost2010Prop56
140
1.0
102
RTVSPost2010PropOp56
 70
     1
102
RTVSPost2010Prop57
140
1.0
102
RTVSPost2010PropOp57
 70
     1
102
RTVSPropertyOp0
 70
     1
102
RTVSPropertyOp1
 70
     1
102
RTVSPropertyOp2
 70
     1
102
RTVSPropertyOp3
 70
     1
102
RTVSPropertyOp4
 70
     1
102
RTVSPropertyOp5
 70
     1
102
RTVSPropertyOp6
 70
     1
102
RTVSPropertyOp7
 70
     1
102
RTVSPropertyOp8
 70
     1
102
RTVSPropertyOp9
 70
     1
102
RTVSPropertyOp10
 70
     1
102
RTVSPropertyOp11
 70
     1
102
RTVSPropertyOp12
 70
     1
102
RTVSPropertyOp13
 70
     1
102
RTVSPropertyOp14
 70
     1
102
RTVSPropertyOp15
 70
     1
102
RTVSPropertyOp16
 70
     1
102
RTVSPropertyOp17
 70
     1
102
RTVSPropertyOp18
 70
     1
102
RTVSPropertyOp19
 70
     1
102
RTVSPropertyOp20
 70
     1
102
RTVSPropertyOp21
 70
     1
102
RTVSPropertyOp22
 70
     1
102
RTVSPropertyOp23
 70
     1
102
RTVSPropertyOp24
 70
     1
102
RTVSPropertyOp25
 70
     1
102
RTVSPropertyOp26
 70
     1
102
RTVSPropertyOp27
 70
     1
102
RTVSPropertyOp28
 70
     1
102
RTVSPropertyOp29
 70
     1
102
RTVSPropertyOp30
 70
     1
102
RTVSPropertyOp31
 70
     1
102
RTVSPropertyOp32
 70
     1
102
RTVSPropertyOp33
 70
     1
102
RTVSPropertyOp34
 70
     1
102
RTVSPropertyOp35
 70
     1
102
RTVSPropertyOp36
 70
     1
102
RTVSPropertyOp37
 70
     1
102
RTVSPropertyOp38
 70
     1
102
RTVSPropertyOp39
 70
     1
102
RTVSPropertyOp40
 70
     1
102
RTVSPropertyOp41
 70
     1
102
RTVSPropertyOp42
 70
     1
102
RTVSPropertyOp43
 70
     1
102
RTVSPropertyOp44
 70
     1
102
RTVSPropertyOp45
 70
     1
102
RTVSPropertyOp46
 70
     1
102
RTVSPropertyOp47
 70
     1
102
RTVSPropertyOp48
 70
     1
102
RTVSPropertyOp49
 70
     1
102
RTVSPropertyOp50
 70
     1
102
RTVSPropertyOp51
 70
     0
102
RTVSPropertyOp52
 70
     0
102
RTVSPropertyOp53
 70
     1
102
RTVSPropertyOp54
 70
     1
102
RTVSPropertyOp55
 70
     1
102
RTVSPropertyOp56
 70
     1
102
RTVSPropertyOp57
 70
     1
102
RTVSPropertyOp58
 70
     1
102
RTVSPropertyOp59
 70
     1
102
RTVSPropertyOp60
 70
     1
102
RTVSPropertyOp61
 70
     1
102
RTVSPropertyOp62
 70
     1
  0
XRECORD
  5
3DC
102
{ACAD_REACTORS
330
3DB
102
}
330
3DB
100
AcDbXrecord
280
     1
102
RTVSPost2010Prop28
280
     0
102
RTVSPost2010PropOp28
 70
     1
102
RTVSPost2010Prop29
280
     1
102
RTVSPost2010PropOp29
 70
     1
102
RTVSPost2010Prop30
280
     1
102
RTVSPost2010PropOp30
 70
     1
102
RTVSPost2010Prop31
280
     0
102
RTVSPost2010PropOp31
 70
     1
102
RTVSPost2010Prop32
280
     0
102
RTVSPost2010PropOp32
 70
     1
102
RTVSPost2010Prop33
280
     0
102
RTVSPost2010PropOp33
 70
     1
102
RTVSPost2010Prop34
280
     0
102
RTVSPost2010PropOp34
 70
     1
102
RTVSPost2010Prop35
280
     0
102
RTVSPost2010PropOp35
 70
     1
102
RTVSPost2010Prop36
280
     0
102
RTVSPost2010PropOp36
 70
     1
102
RTVSPost2010Prop37
 90
       50
102
RTVSPost2010PropOp37
 70
     1
102
RTVSPost2010Prop38
140
0.0
102
RTVSPost2010PropOp38
 70
     1
102
RTVSPost2010Prop39
140
1.0
102
RTVSPost2010PropOp39
 70
     1
102
RTVSPost2010Prop40
 90
        0
102
RTVSPost2010PropOp40
 70
     1
102
RTVSPost2010Prop41ColorIndex
 90
       18
102
RTVSPost2010Prop41ColorRGB
 90
        0
102
RTVSPost2010PropOp41
 70
     1
102
RTVSPost2010Prop42
 90
       50
102
RTVSPost2010PropOp42
 70
     1
102
RTVSPost2010Prop43
 90
        3
102
RTVSPost2010PropOp43
 70
     1
102
RTVSPost2010Prop44ColorIndex
 90
        5
102
RTVSPost2010Prop44ColorRGB
 90
      255
102
RTVSPost2010PropOp44
 70
     1
102
RTVSPost2010Prop45
280
     0
102
RTVSPost2010PropOp45
 70
     1
102
RTVSPost2010Prop46
 90
       50
102
RTVSPost2010PropOp46
 70
     1
102
RTVSPost2010Prop47
 90
       50
102
RTVSPost2010PropOp47
 70
     1
102
RTVSPost2010Prop48
 90
       50
102
RTVSPost2010PropOp48
 70
     1
102
RTVSPost2010Prop49
280
     0
102
RTVSPost2010PropOp49
 70
     1
102
RTVSPost2010Prop50
 90
       50
102
RTVSPost2010PropOp50
 70
     1
102
RTVSPost2010Prop51ColorIndex
 90
      256
102
RTVSPost2010Prop51ColorRGB
 90
-16777216
102
RTVSPost2010PropOp51
 70
     0
102
RTVSPost2010Prop52
140
1.0
102
RTVSPost2010PropOp52
 70
     0
102
RTVSPost2010Prop53
 90
        2
102
RTVSPost2010PropOp53
 70
     1
102
RTVSPost2010Prop54
  1
strokes_ogs.tif
102
RTVSPost2010PropOp54
 70
     1
102
RTVSPost2010Prop55
280
     0
102
RTVSPost2010PropOp55
 70
     1
102
RTVSPost2010Prop56
140
1.0
102
RTVSPost2010PropOp56
 70
     1
102
RTVSPost2010Prop57
140
1.0
102
RTVSPost2010PropOp57
 70
     1
102
RTVSPropertyOp0
 70
     1
102
RTVSPropertyOp1
 70
     1
102
RTVSPropertyOp2
 70
     1
102
RTVSPropertyOp3
 70
     1
102
RTVSPropertyOp4
 70
     1
102
RTVSPropertyOp5
 70
     1
102
RTVSPropertyOp6
 70
     1
102
RTVSPropertyOp7
 70
     1
102
RTVSPropertyOp8
 70
     1
102
RTVSPropertyOp9
 70
     1
102
RTVSPropertyOp10
 70
     1
102
RTVSPropertyOp11
 70
     1
102
RTVSPropertyOp12
 70
     1
102
RTVSPropertyOp13
 70
     1
102
RTVSPropertyOp14
 70
     1
102
RTVSPropertyOp15
 70
     1
102
RTVSPropertyOp16
 70
     1
102
RTVSPropertyOp17
 70
     1
102
RTVSPropertyOp18
 70
     1
102
RTVSPropertyOp19
 70
     1
102
RTVSPropertyOp20
 70
     1
102
RTVSPropertyOp21
 70
     1
102
RTVSPropertyOp22
 70
     1
102
RTVSPropertyOp23
 70
     1
102
RTVSPropertyOp24
 70
     1
102
RTVSPropertyOp25
 70
     1
102
RTVSPropertyOp26
 70
     1
102
RTVSPropertyOp27
 70
     1
102
RTVSPropertyOp28
 70
     1
102
RTVSPropertyOp29
 70
     1
102
RTVSPropertyOp30
 70
     1
102
RTVSPropertyOp31
 70
     1
102
RTVSPropertyOp32
 70
     1
102
RTVSPropertyOp33
 70
     1
102
RTVSPropertyOp34
 70
     1
102
RTVSPropertyOp35
 70
     1
102
RTVSPropertyOp36
 70
     1
102
RTVSPropertyOp37
 70
     1
102
RTVSPropertyOp38
 70
     1
102
RTVSPropertyOp39
 70
     1
102
RTVSPropertyOp40
 70
     1
102
RTVSPropertyOp41
 70
     1
102
RTVSPropertyOp42
 70
     1
102
RTVSPropertyOp43
 70
     1
102
RTVSPropertyOp44
 70
     1
102
RTVSPropertyOp45
 70
     1
102
RTVSPropertyOp46
 70
     1
102
RTVSPropertyOp47
 70
     1
102
RTVSPropertyOp48
 70
     1
102
RTVSPropertyOp49
 70
     1
102
RTVSPropertyOp50
 70
     1
102
RTVSPropertyOp51
 70
     0
102
RTVSPropertyOp52
 70
     0
102
RTVSPropertyOp53
 70
     1
102
RTVSPropertyOp54
 70
     1
102
RTVSPropertyOp55
 70
     1
102
RTVSPropertyOp56
 70
     1
102
RTVSPropertyOp57
 70
     1
102
RTVSPropertyOp58
 70
     1
102
RTVSPropertyOp59
 70
     1
102
RTVSPropertyOp60
 70
     1
102
RTVSPropertyOp61
 70
     1
102
RTVSPropertyOp62
 70
     1
  0
XRECORD
  5
3E4
102
{ACAD_REACTORS
330
3E3
102
}
330
3E3
100
AcDbXrecord
280
     1
102
RTVSPost2010Prop28
280
     0
102
RTVSPost2010PropOp28
 70
     1
102
RTVSPost2010Prop29
280
     1
102
RTVSPost2010PropOp29
 70
     1
102
RTVSPost2010Prop30
280
     1
102
RTVSPost2010PropOp30
 70
     1
102
RTVSPost2010Prop31
280
     0
102
RTVSPost2010PropOp31
 70
     1
102
RTVSPost2010Prop32
280
     0
102
RTVSPost2010PropOp32
 70
     1
102
RTVSPost2010Prop33
280
     0
102
RTVSPost2010PropOp33
 70
     1
102
RTVSPost2010Prop34
280
     0
102
RTVSPost2010PropOp34
 70
     1
102
RTVSPost2010Prop35
280
     0
102
RTVSPost2010PropOp35
 70
     1
102
RTVSPost2010Prop36
280
     0
102
RTVSPost2010PropOp36
 70
     1
102
RTVSPost2010Prop37
 90
       50
102
RTVSPost2010PropOp37
 70
     1
102
RTVSPost2010Prop38
140
0.0
102
RTVSPost2010PropOp38
 70
     1
102
RTVSPost2010Prop39
140
1.0
102
RTVSPost2010PropOp39
 70
     1
102
RTVSPost2010Prop40
 90
        0
102
RTVSPost2010PropOp40
 70
     1
102
RTVSPost2010Prop41ColorIndex
 90
       18
102
RTVSPost2010Prop41ColorRGB
 90
        0
102
RTVSPost2010PropOp41
 70
     1
102
RTVSPost2010Prop42
 90
       50
102
RTVSPost2010PropOp42
 70
     1
102
RTVSPost2010Prop43
 90
        3
102
RTVSPost2010PropOp43
 70
     1
102
RTVSPost2010Prop44ColorIndex
 90
        5
102
RTVSPost2010Prop44ColorRGB
 90
      255
102
RTVSPost2010PropOp44
 70
     1
102
RTVSPost2010Prop45
280
     0
102
RTVSPost2010PropOp45
 70
     1
102
RTVSPost2010Prop46
 90
       50
102
RTVSPost2010PropOp46
 70
     1
102
RTVSPost2010Prop47
 90
       50
102
RTVSPost2010PropOp47
 70
     1
102
RTVSPost2010Prop48
 90
       50
102
RTVSPost2010PropOp48
 70
     1
102
RTVSPost2010Prop49
280
     0
102
RTVSPost2010PropOp49
 70
     1
102
RTVSPost2010Prop50
 90
       50
102
RTVSPost2010PropOp50
 70
     1
102
RTVSPost2010Prop51ColorIndex
 90
      256
102
RTVSPost2010Prop51ColorRGB
 90
-16777216
102
RTVSPost2010PropOp51
 70
     0
102
RTVSPost2010Prop52
140
1.0
102
RTVSPost2010PropOp52
 70
     0
102
RTVSPost2010Prop53
 90
        2
102
RTVSPost2010PropOp53
 70
     1
102
RTVSPost2010Prop54
  1
strokes_ogs.tif
102
RTVSPost2010PropOp54
 70
     1
102
RTVSPost2010Prop55
280
     0
102
RTVSPost2010PropOp55
 70
     1
102
RTVSPost2010Prop56
140
1.0
102
RTVSPost2010PropOp56
 70
     1
102
RTVSPost2010Prop57
140
1.0
102
RTVSPost2010PropOp57
 70
     1
102
RTVSPropertyOp0
 70
     1
102
RTVSPropertyOp1
 70
     1
102
RTVSPropertyOp2
 70
     1
102
RTVSPropertyOp3
 70
     1
102
RTVSPropertyOp4
 70
     1
102
RTVSPropertyOp5
 70
     1
102
RTVSPropertyOp6
 70
     1
102
RTVSPropertyOp7
 70
     1
102
RTVSPropertyOp8
 70
     1
102
RTVSPropertyOp9
 70
     1
102
RTVSPropertyOp10
 70
     1
102
RTVSPropertyOp11
 70
     1
102
RTVSPropertyOp12
 70
     1
102
RTVSPropertyOp13
 70
     1
102
RTVSPropertyOp14
 70
     1
102
RTVSPropertyOp15
 70
     1
102
RTVSPropertyOp16
 70
     1
102
RTVSPropertyOp17
 70
     1
102
RTVSPropertyOp18
 70
     1
102
RTVSPropertyOp19
 70
     1
102
RTVSPropertyOp20
 70
     1
102
RTVSPropertyOp21
 70
     1
102
RTVSPropertyOp22
 70
     1
102
RTVSPropertyOp23
 70
     1
102
RTVSPropertyOp24
 70
     1
102
RTVSPropertyOp25
 70
     1
102
RTVSPropertyOp26
 70
     1
102
RTVSPropertyOp27
 70
     1
102
RTVSPropertyOp28
 70
     1
102
RTVSPropertyOp29
 70
     1
102
RTVSPropertyOp30
 70
     1
102
RTVSPropertyOp31
 70
     1
102
RTVSPropertyOp32
 70
     1
102
RTVSPropertyOp33
 70
     1
102
RTVSPropertyOp34
 70
     1
102
RTVSPropertyOp35
 70
     1
102
RTVSPropertyOp36
 70
     1
102
RTVSPropertyOp37
 70
     1
102
RTVSPropertyOp38
 70
     1
102
RTVSPropertyOp39
 70
     1
102
RTVSPropertyOp40
 70
     1
102
RTVSPropertyOp41
 70
     1
102
RTVSPropertyOp42
 70
     1
102
RTVSPropertyOp43
 70
     1
102
RTVSPropertyOp44
 70
     1
102
RTVSPropertyOp45
 70
     1
102
RTVSPropertyOp46
 70
     1
102
RTVSPropertyOp47
 70
     1
102
RTVSPropertyOp48
 70
     1
102
RTVSPropertyOp49
 70
     1
102
RTVSPropertyOp50
 70
     1
102
RTVSPropertyOp51
 70
     0
102
RTVSPropertyOp52
 70
     0
102
RTVSPropertyOp53
 70
     1
102
RTVSPropertyOp54
 70
     1
102
RTVSPropertyOp55
 70
     1
102
RTVSPropertyOp56
 70
     1
102
RTVSPropertyOp57
 70
     1
102
RTVSPropertyOp58
 70
     1
102
RTVSPropertyOp59
 70
     1
102
RTVSPropertyOp60
 70
     1
102
RTVSPropertyOp61
 70
     1
102
RTVSPropertyOp62
 70
     1
  0
XRECORD
  5
3D8
102
{ACAD_REACTORS
330
3D7
102
}
330
3D7
100
AcDbXrecord
280
     1
102
RTVSPost2010Prop28
280
     0
102
RTVSPost2010PropOp28
 70
     1
102
RTVSPost2010Prop29
280
     1
102
RTVSPost2010PropOp29
 70
     1
102
RTVSPost2010Prop30
280
     1
102
RTVSPost2010PropOp30
 70
     1
102
RTVSPost2010Prop31
280
     0
102
RTVSPost2010PropOp31
 70
     1
102
RTVSPost2010Prop32
280
     0
102
RTVSPost2010PropOp32
 70
     1
102
RTVSPost2010Prop33
280
     0
102
RTVSPost2010PropOp33
 70
     1
102
RTVSPost2010Prop34
280
     0
102
RTVSPost2010PropOp34
 70
     1
102
RTVSPost2010Prop35
280
     0
102
RTVSPost2010PropOp35
 70
     1
102
RTVSPost2010Prop36
280
     0
102
RTVSPost2010PropOp36
 70
     1
102
RTVSPost2010Prop37
 90
       50
102
RTVSPost2010PropOp37
 70
     1
102
RTVSPost2010Prop38
140
0.0
102
RTVSPost2010PropOp38
 70
     1
102
RTVSPost2010Prop39
140
1.0
102
RTVSPost2010PropOp39
 70
     1
102
RTVSPost2010Prop40
 90
        0
102
RTVSPost2010PropOp40
 70
     1
102
RTVSPost2010Prop41ColorIndex
 90
       18
102
RTVSPost2010Prop41ColorRGB
 90
        0
102
RTVSPost2010PropOp41
 70
     1
102
RTVSPost2010Prop42
 90
       50
102
RTVSPost2010PropOp42
 70
     1
102
RTVSPost2010Prop43
 90
        3
102
RTVSPost2010PropOp43
 70
     1
102
RTVSPost2010Prop44ColorIndex
 90
        5
102
RTVSPost2010Prop44ColorRGB
 90
      255
102
RTVSPost2010PropOp44
 70
     1
102
RTVSPost2010Prop45
280
     0
102
RTVSPost2010PropOp45
 70
     1
102
RTVSPost2010Prop46
 90
       50
102
RTVSPost2010PropOp46
 70
     1
102
RTVSPost2010Prop47
 90
       50
102
RTVSPost2010PropOp47
 70
     1
102
RTVSPost2010Prop48
 90
       50
102
RTVSPost2010PropOp48
 70
     1
102
RTVSPost2010Prop49
280
     0
102
RTVSPost2010PropOp49
 70
     1
102
RTVSPost2010Prop50
 90
       50
102
RTVSPost2010PropOp50
 70
     1
102
RTVSPost2010Prop51ColorIndex
 90
      256
102
RTVSPost2010Prop51ColorRGB
 90
-16777216
102
RTVSPost2010PropOp51
 70
     0
102
RTVSPost2010Prop52
140
1.0
102
RTVSPost2010PropOp52
 70
     0
102
RTVSPost2010Prop53
 90
        2
102
RTVSPost2010PropOp53
 70
     1
102
RTVSPost2010Prop54
  1
strokes_ogs.tif
102
RTVSPost2010PropOp54
 70
     1
102
RTVSPost2010Prop55
280
     0
102
RTVSPost2010PropOp55
 70
     1
102
RTVSPost2010Prop56
140
1.0
102
RTVSPost2010PropOp56
 70
     1
102
RTVSPost2010Prop57
140
1.0
102
RTVSPost2010PropOp57
 70
     1
102
RTVSPropertyOp0
 70
     1
102
RTVSPropertyOp1
 70
     1
102
RTVSPropertyOp2
 70
     1
102
RTVSPropertyOp3
 70
     1
102
RTVSPropertyOp4
 70
     1
102
RTVSPropertyOp5
 70
     1
102
RTVSPropertyOp6
 70
     1
102
RTVSPropertyOp7
 70
     1
102
RTVSPropertyOp8
 70
     1
102
RTVSPropertyOp9
 70
     1
102
RTVSPropertyOp10
 70
     1
102
RTVSPropertyOp11
 70
     1
102
RTVSPropertyOp12
 70
     1
102
RTVSPropertyOp13
 70
     1
102
RTVSPropertyOp14
 70
     1
102
RTVSPropertyOp15
 70
     1
102
RTVSPropertyOp16
 70
     1
102
RTVSPropertyOp17
 70
     1
102
RTVSPropertyOp18
 70
     1
102
RTVSPropertyOp19
 70
     1
102
RTVSPropertyOp20
 70
     1
102
RTVSPropertyOp21
 70
     1
102
RTVSPropertyOp22
 70
     1
102
RTVSPropertyOp23
 70
     1
102
RTVSPropertyOp24
 70
     1
102
RTVSPropertyOp25
 70
     1
102
RTVSPropertyOp26
 70
     1
102
RTVSPropertyOp27
 70
     1
102
RTVSPropertyOp28
 70
     1
102
RTVSPropertyOp29
 70
     1
102
RTVSPropertyOp30
 70
     1
102
RTVSPropertyOp31
 70
     1
102
RTVSPropertyOp32
 70
     1
102
RTVSPropertyOp33
 70
     1
102
RTVSPropertyOp34
 70
     1
102
RTVSPropertyOp35
 70
     1
102
RTVSPropertyOp36
 70
     1
102
RTVSPropertyOp37
 70
     1
102
RTVSPropertyOp38
 70
     1
102
RTVSPropertyOp39
 70
     1
102
RTVSPropertyOp40
 70
     1
102
RTVSPropertyOp41
 70
     1
102
RTVSPropertyOp42
 70
     1
102
RTVSPropertyOp43
 70
     1
102
RTVSPropertyOp44
 70
     1
102
RTVSPropertyOp45
 70
     1
102
RTVSPropertyOp46
 70
     1
102
RTVSPropertyOp47
 70
     1
102
RTVSPropertyOp48
 70
     1
102
RTVSPropertyOp49
 70
     1
102
RTVSPropertyOp50
 70
     1
102
RTVSPropertyOp51
 70
     0
102
RTVSPropertyOp52
 70
     0
102
RTVSPropertyOp53
 70
     1
102
RTVSPropertyOp54
 70
     1
102
RTVSPropertyOp55
 70
     1
102
RTVSPropertyOp56
 70
     1
102
RTVSPropertyOp57
 70
     1
102
RTVSPropertyOp58
 70
     1
102
RTVSPropertyOp59
 70
     1
102
RTVSPropertyOp60
 70
     1
102
RTVSPropertyOp61
 70
     1
102
RTVSPropertyOp62
 70
     1
  0
XRECORD
  5
3DA
102
{ACAD_REACTORS
330
3D9
102
}
330
3D9
100
AcDbXrecord
280
     1
102
RTVSPost2010Prop28
280
     0
102
RTVSPost2010PropOp28
 70
     1
102
RTVSPost2010Prop29
280
     1
102
RTVSPost2010PropOp29
 70
     1
102
RTVSPost2010Prop30
280
     1
102
RTVSPost2010PropOp30
 70
     1
102
RTVSPost2010Prop31
280
     0
102
RTVSPost2010PropOp31
 70
     1
102
RTVSPost2010Prop32
280
     0
102
RTVSPost2010PropOp32
 70
     1
102
RTVSPost2010Prop33
280
     0
102
RTVSPost2010PropOp33
 70
     1
102
RTVSPost2010Prop34
280
     0
102
RTVSPost2010PropOp34
 70
     1
102
RTVSPost2010Prop35
280
     0
102
RTVSPost2010PropOp35
 70
     1
102
RTVSPost2010Prop36
280
     0
102
RTVSPost2010PropOp36
 70
     1
102
RTVSPost2010Prop37
 90
       50
102
RTVSPost2010PropOp37
 70
     1
102
RTVSPost2010Prop38
140
0.0
102
RTVSPost2010PropOp38
 70
     1
102
RTVSPost2010Prop39
140
1.0
102
RTVSPost2010PropOp39
 70
     1
102
RTVSPost2010Prop40
 90
        0
102
RTVSPost2010PropOp40
 70
     1
102
RTVSPost2010Prop41ColorIndex
 90
       18
102
RTVSPost2010Prop41ColorRGB
 90
        0
102
RTVSPost2010PropOp41
 70
     1
102
RTVSPost2010Prop42
 90
       50
102
RTVSPost2010PropOp42
 70
     1
102
RTVSPost2010Prop43
 90
        3
102
RTVSPost2010PropOp43
 70
     1
102
RTVSPost2010Prop44ColorIndex
 90
        5
102
RTVSPost2010Prop44ColorRGB
 90
      255
102
RTVSPost2010PropOp44
 70
     1
102
RTVSPost2010Prop45
280
     0
102
RTVSPost2010PropOp45
 70
     1
102
RTVSPost2010Prop46
 90
       50
102
RTVSPost2010PropOp46
 70
     1
102
RTVSPost2010Prop47
 90
       50
102
RTVSPost2010PropOp47
 70
     1
102
RTVSPost2010Prop48
 90
       50
102
RTVSPost2010PropOp48
 70
     1
102
RTVSPost2010Prop49
280
     0
102
RTVSPost2010PropOp49
 70
     1
102
RTVSPost2010Prop50
 90
       50
102
RTVSPost2010PropOp50
 70
     1
102
RTVSPost2010Prop51ColorIndex
 90
      256
102
RTVSPost2010Prop51ColorRGB
 90
-16777216
102
RTVSPost2010PropOp51
 70
     0
102
RTVSPost2010Prop52
140
1.0
102
RTVSPost2010PropOp52
 70
     0
102
RTVSPost2010Prop53
 90
        2
102
RTVSPost2010PropOp53
 70
     1
102
RTVSPost2010Prop54
  1
strokes_ogs.tif
102
RTVSPost2010PropOp54
 70
     1
102
RTVSPost2010Prop55
280
     0
102
RTVSPost2010PropOp55
 70
     1
102
RTVSPost2010Prop56
140
1.0
102
RTVSPost2010PropOp56
 70
     1
102
RTVSPost2010Prop57
140
1.0
102
RTVSPost2010PropOp57
 70
     1
102
RTVSPropertyOp0
 70
     1
102
RTVSPropertyOp1
 70
     1
102
RTVSPropertyOp2
 70
     1
102
RTVSPropertyOp3
 70
     1
102
RTVSPropertyOp4
 70
     1
102
RTVSPropertyOp5
 70
     1
102
RTVSPropertyOp6
 70
     1
102
RTVSPropertyOp7
 70
     1
102
RTVSPropertyOp8
 70
     1
102
RTVSPropertyOp9
 70
     1
102
RTVSPropertyOp10
 70
     1
102
RTVSPropertyOp11
 70
     1
102
RTVSPropertyOp12
 70
     1
102
RTVSPropertyOp13
 70
     1
102
RTVSPropertyOp14
 70
     1
102
RTVSPropertyOp15
 70
     1
102
RTVSPropertyOp16
 70
     1
102
RTVSPropertyOp17
 70
     1
102
RTVSPropertyOp18
 70
     1
102
RTVSPropertyOp19
 70
     1
102
RTVSPropertyOp20
 70
     1
102
RTVSPropertyOp21
 70
     1
102
RTVSPropertyOp22
 70
     1
102
RTVSPropertyOp23
 70
     1
102
RTVSPropertyOp24
 70
     1
102
RTVSPropertyOp25
 70
     1
102
RTVSPropertyOp26
 70
     1
102
RTVSPropertyOp27
 70
     1
102
RTVSPropertyOp28
 70
     1
102
RTVSPropertyOp29
 70
     1
102
RTVSPropertyOp30
 70
     1
102
RTVSPropertyOp31
 70
     1
102
RTVSPropertyOp32
 70
     1
102
RTVSPropertyOp33
 70
     1
102
RTVSPropertyOp34
 70
     1
102
RTVSPropertyOp35
 70
     1
102
RTVSPropertyOp36
 70
     1
102
RTVSPropertyOp37
 70
     1
102
RTVSPropertyOp38
 70
     1
102
RTVSPropertyOp39
 70
     1
102
RTVSPropertyOp40
 70
     1
102
RTVSPropertyOp41
 70
     1
102
RTVSPropertyOp42
 70
     1
102
RTVSPropertyOp43
 70
     1
102
RTVSPropertyOp44
 70
     1
102
RTVSPropertyOp45
 70
     1
102
RTVSPropertyOp46
 70
     1
102
RTVSPropertyOp47
 70
     1
102
RTVSPropertyOp48
 70
     1
102
RTVSPropertyOp49
 70
     1
102
RTVSPropertyOp50
 70
     1
102
RTVSPropertyOp51
 70
     0
102
RTVSPropertyOp52
 70
     0
102
RTVSPropertyOp53
 70
     1
102
RTVSPropertyOp54
 70
     1
102
RTVSPropertyOp55
 70
     1
102
RTVSPropertyOp56
 70
     1
102
RTVSPropertyOp57
 70
     1
102
RTVSPropertyOp58
 70
     1
102
RTVSPropertyOp59
 70
     1
102
RTVSPropertyOp60
 70
     1
102
RTVSPropertyOp61
 70
     1
102
RTVSPropertyOp62
 70
     1
  0
XRECORD
  5
3EA
102
{ACAD_REACTORS
330
3E9
102
}
330
3E9
100
AcDbXrecord
280
     1
102
RTVSPost2010Prop28
280
     0
102
RTVSPost2010PropOp28
 70
     0
102
RTVSPost2010Prop29
280
     1
102
RTVSPost2010PropOp29
 70
     0
102
RTVSPost2010Prop30
280
     1
102
RTVSPost2010PropOp30
 70
     0
102
RTVSPost2010Prop31
280
     0
102
RTVSPost2010PropOp31
 70
     0
102
RTVSPost2010Prop32
280
     0
102
RTVSPost2010PropOp32
 70
     0
102
RTVSPost2010Prop33
280
     0
102
RTVSPost2010PropOp33
 70
     0
102
RTVSPost2010Prop34
280
     0
102
RTVSPost2010PropOp34
 70
     0
102
RTVSPost2010Prop35
280
     0
102
RTVSPost2010PropOp35
 70
     0
102
RTVSPost2010Prop36
280
     0
102
RTVSPost2010PropOp36
 70
     0
102
RTVSPost2010Prop37
 90
       50
102
RTVSPost2010PropOp37
 70
     0
102
RTVSPost2010Prop38
140
0.0
102
RTVSPost2010PropOp38
 70
     0
102
RTVSPost2010Prop39
140
1.0
102
RTVSPost2010PropOp39
 70
     0
102
RTVSPost2010Prop40
 90
        0
102
RTVSPost2010PropOp40
 70
     0
102
RTVSPost2010Prop41ColorIndex
 90
       18
102
RTVSPost2010Prop41ColorRGB
 90
        0
102
RTVSPost2010PropOp41
 70
     0
102
RTVSPost2010Prop42
 90
       50
102
RTVSPost2010PropOp42
 70
     0
102
RTVSPost2010Prop43
 90
        3
102
RTVSPost2010PropOp43
 70
     0
102
RTVSPost2010Prop44ColorIndex
 90
        5
102
RTVSPost2010Prop44ColorRGB
 90
      255
102
RTVSPost2010PropOp44
 70
     0
102
RTVSPost2010Prop45
280
     0
102
RTVSPost2010PropOp45
 70
     0
102
RTVSPost2010Prop46
 90
       50
102
RTVSPost2010PropOp46
 70
     0
102
RTVSPost2010Prop47
 90
       50
102
RTVSPost2010PropOp47
 70
     0
102
RTVSPost2010Prop48
 90
       50
102
RTVSPost2010PropOp48
 70
     0
102
RTVSPost2010Prop49
280
     0
102
RTVSPost2010PropOp49
 70
     0
102
RTVSPost2010Prop50
 90
       50
102
RTVSPost2010PropOp50
 70
     0
102
RTVSPost2010Prop51ColorIndex
 90
      256
102
RTVSPost2010Prop51ColorRGB
 90
-16777216
102
RTVSPost2010PropOp51
 70
     0
102
RTVSPost2010Prop52
140
1.0
102
RTVSPost2010PropOp52
 70
     0
102
RTVSPost2010Prop53
 90
        2
102
RTVSPost2010PropOp53
 70
     0
102
RTVSPost2010Prop54
  1
strokes_ogs.tif
102
RTVSPost2010PropOp54
 70
     0
102
RTVSPost2010Prop55
280
     0
102
RTVSPost2010PropOp55
 70
     0
102
RTVSPost2010Prop56
140
1.0
102
RTVSPost2010PropOp56
 70
     0
102
RTVSPost2010Prop57
140
1.0
102
RTVSPost2010PropOp57
 70
     0
102
RTVSPropertyOp0
 70
     0
102
RTVSPropertyOp1
 70
     0
102
RTVSPropertyOp2
 70
     0
102
RTVSPropertyOp3
 70
     0
102
RTVSPropertyOp4
 70
     0
102
RTVSPropertyOp5
 70
     0
102
RTVSPropertyOp6
 70
     0
102
RTVSPropertyOp7
 70
     0
102
RTVSPropertyOp8
 70
     0
102
RTVSPropertyOp9
 70
     0
102
RTVSPropertyOp10
 70
     0
102
RTVSPropertyOp11
 70
     0
102
RTVSPropertyOp12
 70
     0
102
RTVSPropertyOp13
 70
     0
102
RTVSPropertyOp14
 70
     2
102
RTVSPropertyOp15
 70
     0
102
RTVSPropertyOp16
 70
     0
102
RTVSPropertyOp17
 70
     0
102
RTVSPropertyOp18
 70
     0
102
RTVSPropertyOp19
 70
     0
102
RTVSPropertyOp20
 70
     0
102
RTVSPropertyOp21
 70
     0
102
RTVSPropertyOp22
 70
     0
102
RTVSPropertyOp23
 70
     0
102
RTVSPropertyOp24
 70
     0
102
RTVSPropertyOp25
 70
     0
102
RTVSPropertyOp26
 70
     0
102
RTVSPropertyOp27
 70
     0
102
RTVSPropertyOp28
 70
     0
102
RTVSPropertyOp29
 70
     0
102
RTVSPropertyOp30
 70
     0
102
RTVSPropertyOp31
 70
     0
102
RTVSPropertyOp32
 70
     0
102
RTVSPropertyOp33
 70
     0
102
RTVSPropertyOp34
 70
     0
102
RTVSPropertyOp35
 70
     0
102
RTVSPropertyOp36
 70
     0
102
RTVSPropertyOp37
 70
     0
102
RTVSPropertyOp38
 70
     0
102
RTVSPropertyOp39
 70
     0
102
RTVSPropertyOp40
 70
     0
102
RTVSPropertyOp41
 70
     0
102
RTVSPropertyOp42
 70
     0
102
RTVSPropertyOp43
 70
     0
102
RTVSPropertyOp44
 70
     0
102
RTVSPropertyOp45
 70
     0
102
RTVSPropertyOp46
 70
     0
102
RTVSPropertyOp47
 70
     0
102
RTVSPropertyOp48
 70
     0
102
RTVSPropertyOp49
 70
     0
102
RTVSPropertyOp50
 70
     0
102
RTVSPropertyOp51
 70
     0
102
RTVSPropertyOp52
 70
     0
102
RTVSPropertyOp53
 70
     0
102
RTVSPropertyOp54
 70
     0
102
RTVSPropertyOp55
 70
     0
102
RTVSPropertyOp56
 70
     0
102
RTVSPropertyOp57
 70
     0
102
RTVSPropertyOp58
 70
     1
102
RTVSPropertyOp59
 70
     1
102
RTVSPropertyOp60
 70
     1
102
RTVSPropertyOp61
 70
     1
102
RTVSPropertyOp62
 70
     1
  0
XRECORD
  5
3E2
102
{ACAD_REACTORS
330
3E1
102
}
330
3E1
100
AcDbXrecord
280
     1
102
RTVSPost2010Prop28
280
     0
102
RTVSPost2010PropOp28
 70
     1
102
RTVSPost2010Prop29
280
     1
102
RTVSPost2010PropOp29
 70
     1
102
RTVSPost2010Prop30
280
     1
102
RTVSPost2010PropOp30
 70
     1
102
RTVSPost2010Prop31
280
     0
102
RTVSPost2010PropOp31
 70
     1
102
RTVSPost2010Prop32
280
     0
102
RTVSPost2010PropOp32
 70
     1
102
RTVSPost2010Prop33
280
     0
102
RTVSPost2010PropOp33
 70
     1
102
RTVSPost2010Prop34
280
     0
102
RTVSPost2010PropOp34
 70
     1
102
RTVSPost2010Prop35
280
     0
102
RTVSPost2010PropOp35
 70
     1
102
RTVSPost2010Prop36
280
     0
102
RTVSPost2010PropOp36
 70
     1
102
RTVSPost2010Prop37
 90
       50
102
RTVSPost2010PropOp37
 70
     1
102
RTVSPost2010Prop38
140
0.0
102
RTVSPost2010PropOp38
 70
     1
102
RTVSPost2010Prop39
140
1.0
102
RTVSPost2010PropOp39
 70
     1
102
RTVSPost2010Prop40
 90
        0
102
RTVSPost2010PropOp40
 70
     1
102
RTVSPost2010Prop41ColorIndex
 90
       18
102
RTVSPost2010Prop41ColorRGB
 90
        0
102
RTVSPost2010PropOp41
 70
     1
102
RTVSPost2010Prop42
 90
       50
102
RTVSPost2010PropOp42
 70
     1
102
RTVSPost2010Prop43
 90
        3
102
RTVSPost2010PropOp43
 70
     1
102
RTVSPost2010Prop44ColorIndex
 90
        5
102
RTVSPost2010Prop44ColorRGB
 90
      255
102
RTVSPost2010PropOp44
 70
     1
102
RTVSPost2010Prop45
280
     0
102
RTVSPost2010PropOp45
 70
     1
102
RTVSPost2010Prop46
 90
       50
102
RTVSPost2010PropOp46
 70
     1
102
RTVSPost2010Prop47
 90
       50
102
RTVSPost2010PropOp47
 70
     1
102
RTVSPost2010Prop48
 90
       50
102
RTVSPost2010PropOp48
 70
     1
102
RTVSPost2010Prop49
280
     0
102
RTVSPost2010PropOp49
 70
     1
102
RTVSPost2010Prop50
 90
       50
102
RTVSPost2010PropOp50
 70
     1
102
RTVSPost2010Prop51ColorIndex
 90
      256
102
RTVSPost2010Prop51ColorRGB
 90
-16777216
102
RTVSPost2010PropOp51
 70
     0
102
RTVSPost2010Prop52
140
1.0
102
RTVSPost2010PropOp52
 70
     0
102
RTVSPost2010Prop53
 90
        2
102
RTVSPost2010PropOp53
 70
     1
102
RTVSPost2010Prop54
  1
strokes_ogs.tif
102
RTVSPost2010PropOp54
 70
     1
102
RTVSPost2010Prop55
280
     0
102
RTVSPost2010PropOp55
 70
     1
102
RTVSPost2010Prop56
140
1.0
102
RTVSPost2010PropOp56
 70
     1
102
RTVSPost2010Prop57
140
1.0
102
RTVSPost2010PropOp57
 70
     1
102
RTVSPropertyOp0
 70
     1
102
RTVSPropertyOp1
 70
     1
102
RTVSPropertyOp2
 70
     1
102
RTVSPropertyOp3
 70
     1
102
RTVSPropertyOp4
 70
     1
102
RTVSPropertyOp5
 70
     1
102
RTVSPropertyOp6
 70
     1
102
RTVSPropertyOp7
 70
     1
102
RTVSPropertyOp8
 70
     1
102
RTVSPropertyOp9
 70
     1
102
RTVSPropertyOp10
 70
     1
102
RTVSPropertyOp11
 70
     1
102
RTVSPropertyOp12
 70
     1
102
RTVSPropertyOp13
 70
     1
102
RTVSPropertyOp14
 70
     1
102
RTVSPropertyOp15
 70
     1
102
RTVSPropertyOp16
 70
     1
102
RTVSPropertyOp17
 70
     1
102
RTVSPropertyOp18
 70
     1
102
RTVSPropertyOp19
 70
     1
102
RTVSPropertyOp20
 70
     1
102
RTVSPropertyOp21
 70
     1
102
RTVSPropertyOp22
 70
     1
102
RTVSPropertyOp23
 70
     1
102
RTVSPropertyOp24
 70
     1
102
RTVSPropertyOp25
 70
     1
102
RTVSPropertyOp26
 70
     1
102
RTVSPropertyOp27
 70
     1
102
RTVSPropertyOp28
 70
     1
102
RTVSPropertyOp29
 70
     1
102
RTVSPropertyOp30
 70
     1
102
RTVSPropertyOp31
 70
     1
102
RTVSPropertyOp32
 70
     1
102
RTVSPropertyOp33
 70
     1
102
RTVSPropertyOp34
 70
     1
102
RTVSPropertyOp35
 70
     1
102
RTVSPropertyOp36
 70
     1
102
RTVSPropertyOp37
 70
     1
102
RTVSPropertyOp38
 70
     1
102
RTVSPropertyOp39
 70
     1
102
RTVSPropertyOp40
 70
     1
102
RTVSPropertyOp41
 70
     1
102
RTVSPropertyOp42
 70
     1
102
RTVSPropertyOp43
 70
     1
102
RTVSPropertyOp44
 70
     1
102
RTVSPropertyOp45
 70
     1
102
RTVSPropertyOp46
 70
     1
102
RTVSPropertyOp47
 70
     1
102
RTVSPropertyOp48
 70
     1
102
RTVSPropertyOp49
 70
     1
102
RTVSPropertyOp50
 70
     1
102
RTVSPropertyOp51
 70
     0
102
RTVSPropertyOp52
 70
     0
102
RTVSPropertyOp53
 70
     1
102
RTVSPropertyOp54
 70
     1
102
RTVSPropertyOp55
 70
     1
102
RTVSPropertyOp56
 70
     1
102
RTVSPropertyOp57
 70
     1
102
RTVSPropertyOp58
 70
     1
102
RTVSPropertyOp59
 70
     1
102
RTVSPropertyOp60
 70
     1
102
RTVSPropertyOp61
 70
     1
102
RTVSPropertyOp62
 70
     1
  0
XRECORD
  5
3C6
102
{ACAD_REACTORS
330
3C5
102
}
330
3C5
100
AcDbXrecord
280
     1
102
RTVSPost2010Prop28
280
     0
102
RTVSPost2010PropOp28
 70
     1
102
RTVSPost2010Prop29
280
     1
102
RTVSPost2010PropOp29
 70
     1
102
RTVSPost2010Prop30
280
     1
102
RTVSPost2010PropOp30
 70
     1
102
RTVSPost2010Prop31
280
     0
102
RTVSPost2010PropOp31
 70
     1
102
RTVSPost2010Prop32
280
     0
102
RTVSPost2010PropOp32
 70
     1
102
RTVSPost2010Prop33
280
     0
102
RTVSPost2010PropOp33
 70
     1
102
RTVSPost2010Prop34
280
     0
102
RTVSPost2010PropOp34
 70
     1
102
RTVSPost2010Prop35
280
     0
102
RTVSPost2010PropOp35
 70
     1
102
RTVSPost2010Prop36
280
     0
102
RTVSPost2010PropOp36
 70
     1
102
RTVSPost2010Prop37
 90
       50
102
RTVSPost2010PropOp37
 70
     1
102
RTVSPost2010Prop38
140
0.0
102
RTVSPost2010PropOp38
 70
     1
102
RTVSPost2010Prop39
140
1.0
102
RTVSPost2010PropOp39
 70
     1
102
RTVSPost2010Prop40
 90
        0
102
RTVSPost2010PropOp40
 70
     1
102
RTVSPost2010Prop41ColorIndex
 90
       18
102
RTVSPost2010Prop41ColorRGB
 90
        0
102
RTVSPost2010PropOp41
 70
     1
102
RTVSPost2010Prop42
 90
       50
102
RTVSPost2010PropOp42
 70
     1
102
RTVSPost2010Prop43
 90
        3
102
RTVSPost2010PropOp43
 70
     1
102
RTVSPost2010Prop44ColorIndex
 90
        5
102
RTVSPost2010Prop44ColorRGB
 90
      255
102
RTVSPost2010PropOp44
 70
     1
102
RTVSPost2010Prop45
280
     0
102
RTVSPost2010PropOp45
 70
     1
102
RTVSPost2010Prop46
 90
       50
102
RTVSPost2010PropOp46
 70
     1
102
RTVSPost2010Prop47
 90
       50
102
RTVSPost2010PropOp47
 70
     1
102
RTVSPost2010Prop48
 90
       50
102
RTVSPost2010PropOp48
 70
     1
102
RTVSPost2010Prop49
280
     0
102
RTVSPost2010PropOp49
 70
     1
102
RTVSPost2010Prop50
 90
       50
102
RTVSPost2010PropOp50
 70
     1
102
RTVSPost2010Prop51ColorIndex
 90
      256
102
RTVSPost2010Prop51ColorRGB
 90
-16777216
102
RTVSPost2010PropOp51
 70
     0
102
RTVSPost2010Prop52
140
1.0
102
RTVSPost2010PropOp52
 70
     0
102
RTVSPost2010Prop53
 90
        2
102
RTVSPost2010PropOp53
 70
     1
102
RTVSPost2010Prop54
  1
strokes_ogs.tif
102
RTVSPost2010PropOp54
 70
     1
102
RTVSPost2010Prop55
280
     0
102
RTVSPost2010PropOp55
 70
     1
102
RTVSPost2010Prop56
140
1.0
102
RTVSPost2010PropOp56
 70
     1
102
RTVSPost2010Prop57
140
1.0
102
RTVSPost2010PropOp57
 70
     1
102
RTVSPropertyOp0
 70
     1
102
RTVSPropertyOp1
 70
     1
102
RTVSPropertyOp2
 70
     1
102
RTVSPropertyOp3
 70
     1
102
RTVSPropertyOp4
 70
     1
102
RTVSPropertyOp5
 70
     1
102
RTVSPropertyOp6
 70
     1
102
RTVSPropertyOp7
 70
     1
102
RTVSPropertyOp8
 70
     1
102
RTVSPropertyOp9
 70
     1
102
RTVSPropertyOp10
 70
     1
102
RTVSPropertyOp11
 70
     1
102
RTVSPropertyOp12
 70
     1
102
RTVSPropertyOp13
 70
     1
102
RTVSPropertyOp14
 70
     1
102
RTVSPropertyOp15
 70
     1
102
RTVSPropertyOp16
 70
     1
102
RTVSPropertyOp17
 70
     1
102
RTVSPropertyOp18
 70
     1
102
RTVSPropertyOp19
 70
     1
102
RTVSPropertyOp20
 70
     1
102
RTVSPropertyOp21
 70
     1
102
RTVSPropertyOp22
 70
     1
102
RTVSPropertyOp23
 70
     1
102
RTVSPropertyOp24
 70
     1
102
RTVSPropertyOp25
 70
     1
102
RTVSPropertyOp26
 70
     1
102
RTVSPropertyOp27
 70
     1
102
RTVSPropertyOp28
 70
     1
102
RTVSPropertyOp29
 70
     1
102
RTVSPropertyOp30
 70
     1
102
RTVSPropertyOp31
 70
     1
102
RTVSPropertyOp32
 70
     1
102
RTVSPropertyOp33
 70
     1
102
RTVSPropertyOp34
 70
     1
102
RTVSPropertyOp35
 70
     1
102
RTVSPropertyOp36
 70
     1
102
RTVSPropertyOp37
 70
     1
102
RTVSPropertyOp38
 70
     1
102
RTVSPropertyOp39
 70
     1
102
RTVSPropertyOp40
 70
     1
102
RTVSPropertyOp41
 70
     1
102
RTVSPropertyOp42
 70
     1
102
RTVSPropertyOp43
 70
     1
102
RTVSPropertyOp44
 70
     1
102
RTVSPropertyOp45
 70
     1
102
RTVSPropertyOp46
 70
     1
102
RTVSPropertyOp47
 70
     1
102
RTVSPropertyOp48
 70
     1
102
RTVSPropertyOp49
 70
     1
102
RTVSPropertyOp50
 70
     1
102
RTVSPropertyOp51
 70
     0
102
RTVSPropertyOp52
 70
     0
102
RTVSPropertyOp53
 70
     1
102
RTVSPropertyOp54
 70
     1
102
RTVSPropertyOp55
 70
     1
102
RTVSPropertyOp56
 70
     1
102
RTVSPropertyOp57
 70
     1
102
RTVSPropertyOp58
 70
     1
102
RTVSPropertyOp59
 70
     1
102
RTVSPropertyOp60
 70
     1
102
RTVSPropertyOp61
 70
     1
102
RTVSPropertyOp62
 70
     1
  0
XRECORD
  5
3C8
102
{ACAD_REACTORS
330
3C7
102
}
330
3C7
100
AcDbXrecord
280
     1
102
RTVSPost2010Prop28
280
     0
102
RTVSPost2010PropOp28
 70
     1
102
RTVSPost2010Prop29
280
     1
102
RTVSPost2010PropOp29
 70
     1
102
RTVSPost2010Prop30
280
     1
102
RTVSPost2010PropOp30
 70
     1
102
RTVSPost2010Prop31
280
     0
102
RTVSPost2010PropOp31
 70
     1
102
RTVSPost2010Prop32
280
     0
102
RTVSPost2010PropOp32
 70
     1
102
RTVSPost2010Prop33
280
     0
102
RTVSPost2010PropOp33
 70
     1
102
RTVSPost2010Prop34
280
     0
102
RTVSPost2010PropOp34
 70
     1
102
RTVSPost2010Prop35
280
     0
102
RTVSPost2010PropOp35
 70
     1
102
RTVSPost2010Prop36
280
     0
102
RTVSPost2010PropOp36
 70
     1
102
RTVSPost2010Prop37
 90
       50
102
RTVSPost2010PropOp37
 70
     1
102
RTVSPost2010Prop38
140
0.0
102
RTVSPost2010PropOp38
 70
     1
102
RTVSPost2010Prop39
140
1.0
102
RTVSPost2010PropOp39
 70
     1
102
RTVSPost2010Prop40
 90
        0
102
RTVSPost2010PropOp40
 70
     1
102
RTVSPost2010Prop41ColorIndex
 90
       18
102
RTVSPost2010Prop41ColorRGB
 90
        0
102
RTVSPost2010PropOp41
 70
     1
102
RTVSPost2010Prop42
 90
       50
102
RTVSPost2010PropOp42
 70
     1
102
RTVSPost2010Prop43
 90
        3
102
RTVSPost2010PropOp43
 70
     1
102
RTVSPost2010Prop44ColorIndex
 90
        5
102
RTVSPost2010Prop44ColorRGB
 90
      255
102
RTVSPost2010PropOp44
 70
     1
102
RTVSPost2010Prop45
280
     0
102
RTVSPost2010PropOp45
 70
     1
102
RTVSPost2010Prop46
 90
       50
102
RTVSPost2010PropOp46
 70
     1
102
RTVSPost2010Prop47
 90
       50
102
RTVSPost2010PropOp47
 70
     1
102
RTVSPost2010Prop48
 90
       50
102
RTVSPost2010PropOp48
 70
     1
102
RTVSPost2010Prop49
280
     0
102
RTVSPost2010PropOp49
 70
     1
102
RTVSPost2010Prop50
 90
       50
102
RTVSPost2010PropOp50
 70
     1
102
RTVSPost2010Prop51ColorIndex
 90
      256
102
RTVSPost2010Prop51ColorRGB
 90
-16777216
102
RTVSPost2010PropOp51
 70
     0
102
RTVSPost2010Prop52
140
1.0
102
RTVSPost2010PropOp52
 70
     0
102
RTVSPost2010Prop53
 90
        2
102
RTVSPost2010PropOp53
 70
     1
102
RTVSPost2010Prop54
  1
strokes_ogs.tif
102
RTVSPost2010PropOp54
 70
     1
102
RTVSPost2010Prop55
280
     0
102
RTVSPost2010PropOp55
 70
     1
102
RTVSPost2010Prop56
140
1.0
102
RTVSPost2010PropOp56
 70
     1
102
RTVSPost2010Prop57
140
1.0
102
RTVSPost2010PropOp57
 70
     1
102
RTVSPropertyOp0
 70
     1
102
RTVSPropertyOp1
 70
     1
102
RTVSPropertyOp2
 70
     1
102
RTVSPropertyOp3
 70
     1
102
RTVSPropertyOp4
 70
     1
102
RTVSPropertyOp5
 70
     1
102
RTVSPropertyOp6
 70
     1
102
RTVSPropertyOp7
 70
     1
102
RTVSPropertyOp8
 70
     1
102
RTVSPropertyOp9
 70
     1
102
RTVSPropertyOp10
 70
     1
102
RTVSPropertyOp11
 70
     1
102
RTVSPropertyOp12
 70
     1
102
RTVSPropertyOp13
 70
     1
102
RTVSPropertyOp14
 70
     1
102
RTVSPropertyOp15
 70
     1
102
RTVSPropertyOp16
 70
     1
102
RTVSPropertyOp17
 70
     1
102
RTVSPropertyOp18
 70
     1
102
RTVSPropertyOp19
 70
     1
102
RTVSPropertyOp20
 70
     1
102
RTVSPropertyOp21
 70
     1
102
RTVSPropertyOp22
 70
     1
102
RTVSPropertyOp23
 70
     1
102
RTVSPropertyOp24
 70
     1
102
RTVSPropertyOp25
 70
     1
102
RTVSPropertyOp26
 70
     1
102
RTVSPropertyOp27
 70
     1
102
RTVSPropertyOp28
 70
     1
102
RTVSPropertyOp29
 70
     1
102
RTVSPropertyOp30
 70
     1
102
RTVSPropertyOp31
 70
     1
102
RTVSPropertyOp32
 70
     1
102
RTVSPropertyOp33
 70
     1
102
RTVSPropertyOp34
 70
     1
102
RTVSPropertyOp35
 70
     1
102
RTVSPropertyOp36
 70
     1
102
RTVSPropertyOp37
 70
     1
102
RTVSPropertyOp38
 70
     1
102
RTVSPropertyOp39
 70
     1
102
RTVSPropertyOp40
 70
     1
102
RTVSPropertyOp41
 70
     1
102
RTVSPropertyOp42
 70
     1
102
RTVSPropertyOp43
 70
     1
102
RTVSPropertyOp44
 70
     1
102
RTVSPropertyOp45
 70
     1
102
RTVSPropertyOp46
 70
     1
102
RTVSPropertyOp47
 70
     1
102
RTVSPropertyOp48
 70
     1
102
RTVSPropertyOp49
 70
     1
102
RTVSPropertyOp50
 70
     1
102
RTVSPropertyOp51
 70
     0
102
RTVSPropertyOp52
 70
     0
102
RTVSPropertyOp53
 70
     1
102
RTVSPropertyOp54
 70
     1
102
RTVSPropertyOp55
 70
     1
102
RTVSPropertyOp56
 70
     1
102
RTVSPropertyOp57
 70
     1
102
RTVSPropertyOp58
 70
     1
102
RTVSPropertyOp59
 70
     1
102
RTVSPropertyOp60
 70
     1
102
RTVSPropertyOp61
 70
     1
102
RTVSPropertyOp62
 70
     1
  0
XRECORD
  5
3CA
102
{ACAD_REACTORS
330
3C9
102
}
330
3C9
100
AcDbXrecord
280
     1
102
RTVSPost2010Prop28
280
     0
102
RTVSPost2010PropOp28
 70
     1
102
RTVSPost2010Prop29
280
     1
102
RTVSPost2010PropOp29
 70
     1
102
RTVSPost2010Prop30
280
     1
102
RTVSPost2010PropOp30
 70
     1
102
RTVSPost2010Prop31
280
     0
102
RTVSPost2010PropOp31
 70
     1
102
RTVSPost2010Prop32
280
     0
102
RTVSPost2010PropOp32
 70
     1
102
RTVSPost2010Prop33
280
     0
102
RTVSPost2010PropOp33
 70
     1
102
RTVSPost2010Prop34
280
     0
102
RTVSPost2010PropOp34
 70
     1
102
RTVSPost2010Prop35
280
     0
102
RTVSPost2010PropOp35
 70
     1
102
RTVSPost2010Prop36
280
     0
102
RTVSPost2010PropOp36
 70
     1
102
RTVSPost2010Prop37
 90
       50
102
RTVSPost2010PropOp37
 70
     1
102
RTVSPost2010Prop38
140
0.0
102
RTVSPost2010PropOp38
 70
     1
102
RTVSPost2010Prop39
140
1.0
102
RTVSPost2010PropOp39
 70
     1
102
RTVSPost2010Prop40
 90
        0
102
RTVSPost2010PropOp40
 70
     1
102
RTVSPost2010Prop41ColorIndex
 90
       18
102
RTVSPost2010Prop41ColorRGB
 90
        0
102
RTVSPost2010PropOp41
 70
     1
102
RTVSPost2010Prop42
 90
       50
102
RTVSPost2010PropOp42
 70
     1
102
RTVSPost2010Prop43
 90
        3
102
RTVSPost2010PropOp43
 70
     1
102
RTVSPost2010Prop44ColorIndex
 90
        5
102
RTVSPost2010Prop44ColorRGB
 90
      255
102
RTVSPost2010PropOp44
 70
     1
102
RTVSPost2010Prop45
280
     0
102
RTVSPost2010PropOp45
 70
     1
102
RTVSPost2010Prop46
 90
       50
102
RTVSPost2010PropOp46
 70
     1
102
RTVSPost2010Prop47
 90
       50
102
RTVSPost2010PropOp47
 70
     1
102
RTVSPost2010Prop48
 90
       50
102
RTVSPost2010PropOp48
 70
     1
102
RTVSPost2010Prop49
280
     0
102
RTVSPost2010PropOp49
 70
     1
102
RTVSPost2010Prop50
 90
       50
102
RTVSPost2010PropOp50
 70
     1
102
RTVSPost2010Prop51ColorIndex
 90
      256
102
RTVSPost2010Prop51ColorRGB
 90
-16777216
102
RTVSPost2010PropOp51
 70
     0
102
RTVSPost2010Prop52
140
1.0
102
RTVSPost2010PropOp52
 70
     0
102
RTVSPost2010Prop53
 90
        2
102
RTVSPost2010PropOp53
 70
     1
102
RTVSPost2010Prop54
  1
strokes_ogs.tif
102
RTVSPost2010PropOp54
 70
     1
102
RTVSPost2010Prop55
280
     0
102
RTVSPost2010PropOp55
 70
     1
102
RTVSPost2010Prop56
140
1.0
102
RTVSPost2010PropOp56
 70
     1
102
RTVSPost2010Prop57
140
1.0
102
RTVSPost2010PropOp57
 70
     1
102
RTVSPropertyOp0
 70
     1
102
RTVSPropertyOp1
 70
     1
102
RTVSPropertyOp2
 70
     1
102
RTVSPropertyOp3
 70
     1
102
RTVSPropertyOp4
 70
     1
102
RTVSPropertyOp5
 70
     1
102
RTVSPropertyOp6
 70
     1
102
RTVSPropertyOp7
 70
     1
102
RTVSPropertyOp8
 70
     1
102
RTVSPropertyOp9
 70
     1
102
RTVSPropertyOp10
 70
     1
102
RTVSPropertyOp11
 70
     1
102
RTVSPropertyOp12
 70
     1
102
RTVSPropertyOp13
 70
     1
102
RTVSPropertyOp14
 70
     1
102
RTVSPropertyOp15
 70
     1
102
RTVSPropertyOp16
 70
     1
102
RTVSPropertyOp17
 70
     1
102
RTVSPropertyOp18
 70
     1
102
RTVSPropertyOp19
 70
     1
102
RTVSPropertyOp20
 70
     1
102
RTVSPropertyOp21
 70
     1
102
RTVSPropertyOp22
 70
     1
102
RTVSPropertyOp23
 70
     1
102
RTVSPropertyOp24
 70
     1
102
RTVSPropertyOp25
 70
     1
102
RTVSPropertyOp26
 70
     1
102
RTVSPropertyOp27
 70
     1
102
RTVSPropertyOp28
 70
     1
102
RTVSPropertyOp29
 70
     1
102
RTVSPropertyOp30
 70
     1
102
RTVSPropertyOp31
 70
     1
102
RTVSPropertyOp32
 70
     1
102
RTVSPropertyOp33
 70
     1
102
RTVSPropertyOp34
 70
     1
102
RTVSPropertyOp35
 70
     1
102
RTVSPropertyOp36
 70
     1
102
RTVSPropertyOp37
 70
     1
102
RTVSPropertyOp38
 70
     1
102
RTVSPropertyOp39
 70
     1
102
RTVSPropertyOp40
 70
     1
102
RTVSPropertyOp41
 70
     1
102
RTVSPropertyOp42
 70
     1
102
RTVSPropertyOp43
 70
     1
102
RTVSPropertyOp44
 70
     1
102
RTVSPropertyOp45
 70
     1
102
RTVSPropertyOp46
 70
     1
102
RTVSPropertyOp47
 70
     1
102
RTVSPropertyOp48
 70
     1
102
RTVSPropertyOp49
 70
     1
102
RTVSPropertyOp50
 70
     1
102
RTVSPropertyOp51
 70
     0
102
RTVSPropertyOp52
 70
     0
102
RTVSPropertyOp53
 70
     1
102
RTVSPropertyOp54
 70
     1
102
RTVSPropertyOp55
 70
     1
102
RTVSPropertyOp56
 70
     1
102
RTVSPropertyOp57
 70
     1
102
RTVSPropertyOp58
 70
     1
102
RTVSPropertyOp59
 70
     1
102
RTVSPropertyOp60
 70
     1
102
RTVSPropertyOp61
 70
     1
102
RTVSPropertyOp62
 70
     1
  0
XRECORD
  5
3CC
102
{ACAD_REACTORS
330
3CB
102
}
330
3CB
100
AcDbXrecord
280
     1
102
RTVSPost2010Prop28
280
     0
102
RTVSPost2010PropOp28
 70
     1
102
RTVSPost2010Prop29
280
     1
102
RTVSPost2010PropOp29
 70
     1
102
RTVSPost2010Prop30
280
     1
102
RTVSPost2010PropOp30
 70
     1
102
RTVSPost2010Prop31
280
     0
102
RTVSPost2010PropOp31
 70
     1
102
RTVSPost2010Prop32
280
     0
102
RTVSPost2010PropOp32
 70
     1
102
RTVSPost2010Prop33
280
     0
102
RTVSPost2010PropOp33
 70
     1
102
RTVSPost2010Prop34
280
     0
102
RTVSPost2010PropOp34
 70
     1
102
RTVSPost2010Prop35
280
     0
102
RTVSPost2010PropOp35
 70
     1
102
RTVSPost2010Prop36
280
     0
102
RTVSPost2010PropOp36
 70
     1
102
RTVSPost2010Prop37
 90
       50
102
RTVSPost2010PropOp37
 70
     1
102
RTVSPost2010Prop38
140
0.0
102
RTVSPost2010PropOp38
 70
     1
102
RTVSPost2010Prop39
140
1.0
102
RTVSPost2010PropOp39
 70
     1
102
RTVSPost2010Prop40
 90
        0
102
RTVSPost2010PropOp40
 70
     1
102
RTVSPost2010Prop41ColorIndex
 90
       18
102
RTVSPost2010Prop41ColorRGB
 90
        0
102
RTVSPost2010PropOp41
 70
     1
102
RTVSPost2010Prop42
 90
       50
102
RTVSPost2010PropOp42
 70
     1
102
RTVSPost2010Prop43
 90
        3
102
RTVSPost2010PropOp43
 70
     1
102
RTVSPost2010Prop44ColorIndex
 90
        5
102
RTVSPost2010Prop44ColorRGB
 90
      255
102
RTVSPost2010PropOp44
 70
     1
102
RTVSPost2010Prop45
280
     0
102
RTVSPost2010PropOp45
 70
     1
102
RTVSPost2010Prop46
 90
       50
102
RTVSPost2010PropOp46
 70
     1
102
RTVSPost2010Prop47
 90
       50
102
RTVSPost2010PropOp47
 70
     1
102
RTVSPost2010Prop48
 90
       50
102
RTVSPost2010PropOp48
 70
     1
102
RTVSPost2010Prop49
280
     0
102
RTVSPost2010PropOp49
 70
     1
102
RTVSPost2010Prop50
 90
       50
102
RTVSPost2010PropOp50
 70
     1
102
RTVSPost2010Prop51ColorIndex
 90
      256
102
RTVSPost2010Prop51ColorRGB
 90
-16777216
102
RTVSPost2010PropOp51
 70
     0
102
RTVSPost2010Prop52
140
1.0
102
RTVSPost2010PropOp52
 70
     0
102
RTVSPost2010Prop53
 90
        2
102
RTVSPost2010PropOp53
 70
     1
102
RTVSPost2010Prop54
  1
strokes_ogs.tif
102
RTVSPost2010PropOp54
 70
     1
102
RTVSPost2010Prop55
280
     0
102
RTVSPost2010PropOp55
 70
     1
102
RTVSPost2010Prop56
140
1.0
102
RTVSPost2010PropOp56
 70
     1
102
RTVSPost2010Prop57
140
1.0
102
RTVSPost2010PropOp57
 70
     1
102
RTVSPropertyOp0
 70
     1
102
RTVSPropertyOp1
 70
     1
102
RTVSPropertyOp2
 70
     1
102
RTVSPropertyOp3
 70
     1
102
RTVSPropertyOp4
 70
     1
102
RTVSPropertyOp5
 70
     1
102
RTVSPropertyOp6
 70
     1
102
RTVSPropertyOp7
 70
     1
102
RTVSPropertyOp8
 70
     1
102
RTVSPropertyOp9
 70
     1
102
RTVSPropertyOp10
 70
     1
102
RTVSPropertyOp11
 70
     1
102
RTVSPropertyOp12
 70
     1
102
RTVSPropertyOp13
 70
     1
102
RTVSPropertyOp14
 70
     1
102
RTVSPropertyOp15
 70
     1
102
RTVSPropertyOp16
 70
     1
102
RTVSPropertyOp17
 70
     1
102
RTVSPropertyOp18
 70
     1
102
RTVSPropertyOp19
 70
     1
102
RTVSPropertyOp20
 70
     1
102
RTVSPropertyOp21
 70
     1
102
RTVSPropertyOp22
 70
     1
102
RTVSPropertyOp23
 70
     1
102
RTVSPropertyOp24
 70
     1
102
RTVSPropertyOp25
 70
     1
102
RTVSPropertyOp26
 70
     1
102
RTVSPropertyOp27
 70
     1
102
RTVSPropertyOp28
 70
     1
102
RTVSPropertyOp29
 70
     1
102
RTVSPropertyOp30
 70
     1
102
RTVSPropertyOp31
 70
     1
102
RTVSPropertyOp32
 70
     1
102
RTVSPropertyOp33
 70
     1
102
RTVSPropertyOp34
 70
     1
102
RTVSPropertyOp35
 70
     1
102
RTVSPropertyOp36
 70
     1
102
RTVSPropertyOp37
 70
     1
102
RTVSPropertyOp38
 70
     1
102
RTVSPropertyOp39
 70
     1
102
RTVSPropertyOp40
 70
     1
102
RTVSPropertyOp41
 70
     1
102
RTVSPropertyOp42
 70
     1
102
RTVSPropertyOp43
 70
     1
102
RTVSPropertyOp44
 70
     1
102
RTVSPropertyOp45
 70
     1
102
RTVSPropertyOp46
 70
     1
102
RTVSPropertyOp47
 70
     1
102
RTVSPropertyOp48
 70
     1
102
RTVSPropertyOp49
 70
     1
102
RTVSPropertyOp50
 70
     1
102
RTVSPropertyOp51
 70
     0
102
RTVSPropertyOp52
 70
     0
102
RTVSPropertyOp53
 70
     1
102
RTVSPropertyOp54
 70
     1
102
RTVSPropertyOp55
 70
     1
102
RTVSPropertyOp56
 70
     1
102
RTVSPropertyOp57
 70
     1
102
RTVSPropertyOp58
 70
     1
102
RTVSPropertyOp59
 70
     1
102
RTVSPropertyOp60
 70
     1
102
RTVSPropertyOp61
 70
     1
102
RTVSPropertyOp62
 70
     1
  0
XRECORD
  5
3D2
102
{ACAD_REACTORS
330
3D1
102
}
330
3D1
100
AcDbXrecord
280
     1
102
RTVSPost2010Prop28
280
     0
102
RTVSPost2010PropOp28
 70
     1
102
RTVSPost2010Prop29
280
     1
102
RTVSPost2010PropOp29
 70
     1
102
RTVSPost2010Prop30
280
     1
102
RTVSPost2010PropOp30
 70
     1
102
RTVSPost2010Prop31
280
     0
102
RTVSPost2010PropOp31
 70
     1
102
RTVSPost2010Prop32
280
     0
102
RTVSPost2010PropOp32
 70
     1
102
RTVSPost2010Prop33
280
     0
102
RTVSPost2010PropOp33
 70
     1
102
RTVSPost2010Prop34
280
     0
102
RTVSPost2010PropOp34
 70
     1
102
RTVSPost2010Prop35
280
     0
102
RTVSPost2010PropOp35
 70
     1
102
RTVSPost2010Prop36
280
     0
102
RTVSPost2010PropOp36
 70
     1
102
RTVSPost2010Prop37
 90
       50
102
RTVSPost2010PropOp37
 70
     1
102
RTVSPost2010Prop38
140
0.0
102
RTVSPost2010PropOp38
 70
     1
102
RTVSPost2010Prop39
140
1.0
102
RTVSPost2010PropOp39
 70
     1
102
RTVSPost2010Prop40
 90
        0
102
RTVSPost2010PropOp40
 70
     1
102
RTVSPost2010Prop41ColorIndex
 90
       18
102
RTVSPost2010Prop41ColorRGB
 90
        0
102
RTVSPost2010PropOp41
 70
     1
102
RTVSPost2010Prop42
 90
       50
102
RTVSPost2010PropOp42
 70
     1
102
RTVSPost2010Prop43
 90
        3
102
RTVSPost2010PropOp43
 70
     1
102
RTVSPost2010Prop44ColorIndex
 90
        5
102
RTVSPost2010Prop44ColorRGB
 90
      255
102
RTVSPost2010PropOp44
 70
     1
102
RTVSPost2010Prop45
280
     0
102
RTVSPost2010PropOp45
 70
     1
102
RTVSPost2010Prop46
 90
       50
102
RTVSPost2010PropOp46
 70
     1
102
RTVSPost2010Prop47
 90
       50
102
RTVSPost2010PropOp47
 70
     1
102
RTVSPost2010Prop48
 90
       50
102
RTVSPost2010PropOp48
 70
     1
102
RTVSPost2010Prop49
280
     0
102
RTVSPost2010PropOp49
 70
     1
102
RTVSPost2010Prop50
 90
       50
102
RTVSPost2010PropOp50
 70
     1
102
RTVSPost2010Prop51ColorIndex
 90
      256
102
RTVSPost2010Prop51ColorRGB
 90
-16777216
102
RTVSPost2010PropOp51
 70
     0
102
RTVSPost2010Prop52
140
1.0
102
RTVSPost2010PropOp52
 70
     0
102
RTVSPost2010Prop53
 90
        2
102
RTVSPost2010PropOp53
 70
     1
102
RTVSPost2010Prop54
  1
strokes_ogs.tif
102
RTVSPost2010PropOp54
 70
     1
102
RTVSPost2010Prop55
280
     0
102
RTVSPost2010PropOp55
 70
     1
102
RTVSPost2010Prop56
140
1.0
102
RTVSPost2010PropOp56
 70
     1
102
RTVSPost2010Prop57
140
1.0
102
RTVSPost2010PropOp57
 70
     1
102
RTVSPropertyOp0
 70
     1
102
RTVSPropertyOp1
 70
     1
102
RTVSPropertyOp2
 70
     1
102
RTVSPropertyOp3
 70
     1
102
RTVSPropertyOp4
 70
     1
102
RTVSPropertyOp5
 70
     1
102
RTVSPropertyOp6
 70
     1
102
RTVSPropertyOp7
 70
     1
102
RTVSPropertyOp8
 70
     1
102
RTVSPropertyOp9
 70
     1
102
RTVSPropertyOp10
 70
     1
102
RTVSPropertyOp11
 70
     1
102
RTVSPropertyOp12
 70
     1
102
RTVSPropertyOp13
 70
     1
102
RTVSPropertyOp14
 70
     1
102
RTVSPropertyOp15
 70
     1
102
RTVSPropertyOp16
 70
     1
102
RTVSPropertyOp17
 70
     1
102
RTVSPropertyOp18
 70
     1
102
RTVSPropertyOp19
 70
     1
102
RTVSPropertyOp20
 70
     1
102
RTVSPropertyOp21
 70
     1
102
RTVSPropertyOp22
 70
     1
102
RTVSPropertyOp23
 70
     1
102
RTVSPropertyOp24
 70
     1
102
RTVSPropertyOp25
 70
     1
102
RTVSPropertyOp26
 70
     1
102
RTVSPropertyOp27
 70
     1
102
RTVSPropertyOp28
 70
     1
102
RTVSPropertyOp29
 70
     1
102
RTVSPropertyOp30
 70
     1
102
RTVSPropertyOp31
 70
     1
102
RTVSPropertyOp32
 70
     1
102
RTVSPropertyOp33
 70
     1
102
RTVSPropertyOp34
 70
     1
102
RTVSPropertyOp35
 70
     1
102
RTVSPropertyOp36
 70
     1
102
RTVSPropertyOp37
 70
     1
102
RTVSPropertyOp38
 70
     1
102
RTVSPropertyOp39
 70
     1
102
RTVSPropertyOp40
 70
     1
102
RTVSPropertyOp41
 70
     1
102
RTVSPropertyOp42
 70
     1
102
RTVSPropertyOp43
 70
     1
102
RTVSPropertyOp44
 70
     1
102
RTVSPropertyOp45
 70
     1
102
RTVSPropertyOp46
 70
     1
102
RTVSPropertyOp47
 70
     1
102
RTVSPropertyOp48
 70
     1
102
RTVSPropertyOp49
 70
     1
102
RTVSPropertyOp50
 70
     1
102
RTVSPropertyOp51
 70
     0
102
RTVSPropertyOp52
 70
     0
102
RTVSPropertyOp53
 70
     1
102
RTVSPropertyOp54
 70
     1
102
RTVSPropertyOp55
 70
     1
102
RTVSPropertyOp56
 70
     1
102
RTVSPropertyOp57
 70
     1
102
RTVSPropertyOp58
 70
     1
102
RTVSPropertyOp59
 70
     1
102
RTVSPropertyOp60
 70
     1
102
RTVSPropertyOp61
 70
     1
102
RTVSPropertyOp62
 70
     1
  0
XRECORD
  5
3E6
102
{ACAD_REACTORS
330
3E5
102
}
330
3E5
100
AcDbXrecord
280
     1
102
RTVSPost2010Prop28
280
     0
102
RTVSPost2010PropOp28
 70
     0
102
RTVSPost2010Prop29
280
     1
102
RTVSPost2010PropOp29
 70
     0
102
RTVSPost2010Prop30
280
     1
102
RTVSPost2010PropOp30
 70
     0
102
RTVSPost2010Prop31
280
     0
102
RTVSPost2010PropOp31
 70
     0
102
RTVSPost2010Prop32
280
     0
102
RTVSPost2010PropOp32
 70
     0
102
RTVSPost2010Prop33
280
     0
102
RTVSPost2010PropOp33
 70
     0
102
RTVSPost2010Prop34
280
     0
102
RTVSPost2010PropOp34
 70
     0
102
RTVSPost2010Prop35
280
     0
102
RTVSPost2010PropOp35
 70
     0
102
RTVSPost2010Prop36
280
     0
102
RTVSPost2010PropOp36
 70
     0
102
RTVSPost2010Prop37
 90
       50
102
RTVSPost2010PropOp37
 70
     0
102
RTVSPost2010Prop38
140
0.0
102
RTVSPost2010PropOp38
 70
     0
102
RTVSPost2010Prop39
140
1.0
102
RTVSPost2010PropOp39
 70
     0
102
RTVSPost2010Prop40
 90
        0
102
RTVSPost2010PropOp40
 70
     0
102
RTVSPost2010Prop41ColorIndex
 90
       18
102
RTVSPost2010Prop41ColorRGB
 90
        0
102
RTVSPost2010PropOp41
 70
     0
102
RTVSPost2010Prop42
 90
       50
102
RTVSPost2010PropOp42
 70
     0
102
RTVSPost2010Prop43
 90
        3
102
RTVSPost2010PropOp43
 70
     0
102
RTVSPost2010Prop44ColorIndex
 90
        5
102
RTVSPost2010Prop44ColorRGB
 90
      255
102
RTVSPost2010PropOp44
 70
     0
102
RTVSPost2010Prop45
280
     0
102
RTVSPost2010PropOp45
 70
     0
102
RTVSPost2010Prop46
 90
       50
102
RTVSPost2010PropOp46
 70
     0
102
RTVSPost2010Prop47
 90
       50
102
RTVSPost2010PropOp47
 70
     0
102
RTVSPost2010Prop48
 90
       50
102
RTVSPost2010PropOp48
 70
     0
102
RTVSPost2010Prop49
280
     0
102
RTVSPost2010PropOp49
 70
     0
102
RTVSPost2010Prop50
 90
       50
102
RTVSPost2010PropOp50
 70
     0
102
RTVSPost2010Prop51ColorIndex
 90
      256
102
RTVSPost2010Prop51ColorRGB
 90
-16777216
102
RTVSPost2010PropOp51
 70
     0
102
RTVSPost2010Prop52
140
1.0
102
RTVSPost2010PropOp52
 70
     0
102
RTVSPost2010Prop53
 90
        2
102
RTVSPost2010PropOp53
 70
     0
102
RTVSPost2010Prop54
  1
strokes_ogs.tif
102
RTVSPost2010PropOp54
 70
     0
102
RTVSPost2010Prop55
280
     0
102
RTVSPost2010PropOp55
 70
     0
102
RTVSPost2010Prop56
140
1.0
102
RTVSPost2010PropOp56
 70
     0
102
RTVSPost2010Prop57
140
1.0
102
RTVSPost2010PropOp57
 70
     0
102
RTVSPropertyOp0
 70
     0
102
RTVSPropertyOp1
 70
     0
102
RTVSPropertyOp2
 70
     0
102
RTVSPropertyOp3
 70
     0
102
RTVSPropertyOp4
 70
     0
102
RTVSPropertyOp5
 70
     0
102
RTVSPropertyOp6
 70
     0
102
RTVSPropertyOp7
 70
     0
102
RTVSPropertyOp8
 70
     0
102
RTVSPropertyOp9
 70
     0
102
RTVSPropertyOp10
 70
     0
102
RTVSPropertyOp11
 70
     0
102
RTVSPropertyOp12
 70
     0
102
RTVSPropertyOp13
 70
     0
102
RTVSPropertyOp14
 70
     2
102
RTVSPropertyOp15
 70
     0
102
RTVSPropertyOp16
 70
     0
102
RTVSPropertyOp17
 70
     0
102
RTVSPropertyOp18
 70
     0
102
RTVSPropertyOp19
 70
     0
102
RTVSPropertyOp20
 70
     0
102
RTVSPropertyOp21
 70
     0
102
RTVSPropertyOp22
 70
     0
102
RTVSPropertyOp23
 70
     0
102
RTVSPropertyOp24
 70
     0
102
RTVSPropertyOp25
 70
     0
102
RTVSPropertyOp26
 70
     0
102
RTVSPropertyOp27
 70
     0
102
RTVSPropertyOp28
 70
     0
102
RTVSPropertyOp29
 70
     0
102
RTVSPropertyOp30
 70
     0
102
RTVSPropertyOp31
 70
     0
102
RTVSPropertyOp32
 70
     0
102
RTVSPropertyOp33
 70
     0
102
RTVSPropertyOp34
 70
     0
102
RTVSPropertyOp35
 70
     0
102
RTVSPropertyOp36
 70
     0
102
RTVSPropertyOp37
 70
     0
102
RTVSPropertyOp38
 70
     0
102
RTVSPropertyOp39
 70
     0
102
RTVSPropertyOp40
 70
     0
102
RTVSPropertyOp41
 70
     0
102
RTVSPropertyOp42
 70
     0
102
RTVSPropertyOp43
 70
     0
102
RTVSPropertyOp44
 70
     0
102
RTVSPropertyOp45
 70
     0
102
RTVSPropertyOp46
 70
     0
102
RTVSPropertyOp47
 70
     0
102
RTVSPropertyOp48
 70
     0
102
RTVSPropertyOp49
 70
     0
102
RTVSPropertyOp50
 70
     0
102
RTVSPropertyOp51
 70
     0
102
RTVSPropertyOp52
 70
     0
102
RTVSPropertyOp53
 70
     0
102
RTVSPropertyOp54
 70
     0
102
RTVSPropertyOp55
 70
     0
102
RTVSPropertyOp56
 70
     0
102
RTVSPropertyOp57
 70
     0
102
RTVSPropertyOp58
 70
     1
102
RTVSPropertyOp59
 70
     1
102
RTVSPropertyOp60
 70
     1
102
RTVSPropertyOp61
 70
     1
102
RTVSPropertyOp62
 70
     1
  0
XRECORD
  5
3E0
102
{ACAD_REACTORS
330
3DF
102
}
330
3DF
100
AcDbXrecord
280
     1
102
RTVSPost2010Prop28
280
     0
102
RTVSPost2010PropOp28
 70
     1
102
RTVSPost2010Prop29
280
     1
102
RTVSPost2010PropOp29
 70
     1
102
RTVSPost2010Prop30
280
     1
102
RTVSPost2010PropOp30
 70
     1
102
RTVSPost2010Prop31
280
     0
102
RTVSPost2010PropOp31
 70
     1
102
RTVSPost2010Prop32
280
     0
102
RTVSPost2010PropOp32
 70
     1
102
RTVSPost2010Prop33
280
     0
102
RTVSPost2010PropOp33
 70
     1
102
RTVSPost2010Prop34
280
     0
102
RTVSPost2010PropOp34
 70
     1
102
RTVSPost2010Prop35
280
     0
102
RTVSPost2010PropOp35
 70
     1
102
RTVSPost2010Prop36
280
     0
102
RTVSPost2010PropOp36
 70
     1
102
RTVSPost2010Prop37
 90
       50
102
RTVSPost2010PropOp37
 70
     1
102
RTVSPost2010Prop38
140
0.0
102
RTVSPost2010PropOp38
 70
     1
102
RTVSPost2010Prop39
140
1.0
102
RTVSPost2010PropOp39
 70
     1
102
RTVSPost2010Prop40
 90
        0
102
RTVSPost2010PropOp40
 70
     1
102
RTVSPost2010Prop41ColorIndex
 90
       18
102
RTVSPost2010Prop41ColorRGB
 90
        0
102
RTVSPost2010PropOp41
 70
     1
102
RTVSPost2010Prop42
 90
       50
102
RTVSPost2010PropOp42
 70
     1
102
RTVSPost2010Prop43
 90
        3
102
RTVSPost2010PropOp43
 70
     1
102
RTVSPost2010Prop44ColorIndex
 90
        5
102
RTVSPost2010Prop44ColorRGB
 90
      255
102
RTVSPost2010PropOp44
 70
     1
102
RTVSPost2010Prop45
280
     0
102
RTVSPost2010PropOp45
 70
     1
102
RTVSPost2010Prop46
 90
       50
102
RTVSPost2010PropOp46
 70
     1
102
RTVSPost2010Prop47
 90
       50
102
RTVSPost2010PropOp47
 70
     1
102
RTVSPost2010Prop48
 90
       50
102
RTVSPost2010PropOp48
 70
     1
102
RTVSPost2010Prop49
280
     0
102
RTVSPost2010PropOp49
 70
     1
102
RTVSPost2010Prop50
 90
       50
102
RTVSPost2010PropOp50
 70
     1
102
RTVSPost2010Prop51ColorIndex
 90
      256
102
RTVSPost2010Prop51ColorRGB
 90
-16777216
102
RTVSPost2010PropOp51
 70
     0
102
RTVSPost2010Prop52
140
1.0
102
RTVSPost2010PropOp52
 70
     0
102
RTVSPost2010Prop53
 90
        2
102
RTVSPost2010PropOp53
 70
     1
102
RTVSPost2010Prop54
  1
strokes_ogs.tif
102
RTVSPost2010PropOp54
 70
     1
102
RTVSPost2010Prop55
280
     0
102
RTVSPost2010PropOp55
 70
     1
102
RTVSPost2010Prop56
140
1.0
102
RTVSPost2010PropOp56
 70
     1
102
RTVSPost2010Prop57
140
1.0
102
RTVSPost2010PropOp57
 70
     1
102
RTVSPropertyOp0
 70
     1
102
RTVSPropertyOp1
 70
     1
102
RTVSPropertyOp2
 70
     1
102
RTVSPropertyOp3
 70
     1
102
RTVSPropertyOp4
 70
     1
102
RTVSPropertyOp5
 70
     1
102
RTVSPropertyOp6
 70
     1
102
RTVSPropertyOp7
 70
     1
102
RTVSPropertyOp8
 70
     1
102
RTVSPropertyOp9
 70
     1
102
RTVSPropertyOp10
 70
     1
102
RTVSPropertyOp11
 70
     1
102
RTVSPropertyOp12
 70
     1
102
RTVSPropertyOp13
 70
     1
102
RTVSPropertyOp14
 70
     1
102
RTVSPropertyOp15
 70
     1
102
RTVSPropertyOp16
 70
     1
102
RTVSPropertyOp17
 70
     1
102
RTVSPropertyOp18
 70
     1
102
RTVSPropertyOp19
 70
     1
102
RTVSPropertyOp20
 70
     1
102
RTVSPropertyOp21
 70
     1
102
RTVSPropertyOp22
 70
     1
102
RTVSPropertyOp23
 70
     1
102
RTVSPropertyOp24
 70
     1
102
RTVSPropertyOp25
 70
     1
102
RTVSPropertyOp26
 70
     1
102
RTVSPropertyOp27
 70
     1
102
RTVSPropertyOp28
 70
     1
102
RTVSPropertyOp29
 70
     1
102
RTVSPropertyOp30
 70
     1
102
RTVSPropertyOp31
 70
     1
102
RTVSPropertyOp32
 70
     1
102
RTVSPropertyOp33
 70
     1
102
RTVSPropertyOp34
 70
     1
102
RTVSPropertyOp35
 70
     1
102
RTVSPropertyOp36
 70
     1
102
RTVSPropertyOp37
 70
     1
102
RTVSPropertyOp38
 70
     1
102
RTVSPropertyOp39
 70
     1
102
RTVSPropertyOp40
 70
     1
102
RTVSPropertyOp41
 70
     1
102
RTVSPropertyOp42
 70
     1
102
RTVSPropertyOp43
 70
     1
102
RTVSPropertyOp44
 70
     1
102
RTVSPropertyOp45
 70
     1
102
RTVSPropertyOp46
 70
     1
102
RTVSPropertyOp47
 70
     1
102
RTVSPropertyOp48
 70
     1
102
RTVSPropertyOp49
 70
     1
102
RTVSPropertyOp50
 70
     1
102
RTVSPropertyOp51
 70
     0
102
RTVSPropertyOp52
 70
     0
102
RTVSPropertyOp53
 70
     1
102
RTVSPropertyOp54
 70
     1
102
RTVSPropertyOp55
 70
     1
102
RTVSPropertyOp56
 70
     1
102
RTVSPropertyOp57
 70
     1
102
RTVSPropertyOp58
 70
     1
102
RTVSPropertyOp59
 70
     1
102
RTVSPropertyOp60
 70
     1
102
RTVSPropertyOp61
 70
     1
102
RTVSPropertyOp62
 70
     1
  0
XRECORD
  5
3E8
102
{ACAD_REACTORS
330
3E7
102
}
330
3E7
100
AcDbXrecord
280
     1
102
RTVSPost2010Prop28
280
     0
102
RTVSPost2010PropOp28
 70
     0
102
RTVSPost2010Prop29
280
     1
102
RTVSPost2010PropOp29
 70
     0
102
RTVSPost2010Prop30
280
     1
102
RTVSPost2010PropOp30
 70
     0
102
RTVSPost2010Prop31
280
     0
102
RTVSPost2010PropOp31
 70
     0
102
RTVSPost2010Prop32
280
     0
102
RTVSPost2010PropOp32
 70
     0
102
RTVSPost2010Prop33
280
     0
102
RTVSPost2010PropOp33
 70
     0
102
RTVSPost2010Prop34
280
     0
102
RTVSPost2010PropOp34
 70
     0
102
RTVSPost2010Prop35
280
     0
102
RTVSPost2010PropOp35
 70
     0
102
RTVSPost2010Prop36
280
     0
102
RTVSPost2010PropOp36
 70
     0
102
RTVSPost2010Prop37
 90
       50
102
RTVSPost2010PropOp37
 70
     0
102
RTVSPost2010Prop38
140
0.0
102
RTVSPost2010PropOp38
 70
     0
102
RTVSPost2010Prop39
140
1.0
102
RTVSPost2010PropOp39
 70
     0
102
RTVSPost2010Prop40
 90
        0
102
RTVSPost2010PropOp40
 70
     0
102
RTVSPost2010Prop41ColorIndex
 90
       18
102
RTVSPost2010Prop41ColorRGB
 90
        0
102
RTVSPost2010PropOp41
 70
     0
102
RTVSPost2010Prop42
 90
       50
102
RTVSPost2010PropOp42
 70
     0
102
RTVSPost2010Prop43
 90
        3
102
RTVSPost2010PropOp43
 70
     0
102
RTVSPost2010Prop44ColorIndex
 90
        5
102
RTVSPost2010Prop44ColorRGB
 90
      255
102
RTVSPost2010PropOp44
 70
     0
102
RTVSPost2010Prop45
280
     0
102
RTVSPost2010PropOp45
 70
     0
102
RTVSPost2010Prop46
 90
       50
102
RTVSPost2010PropOp46
 70
     0
102
RTVSPost2010Prop47
 90
       50
102
RTVSPost2010PropOp47
 70
     0
102
RTVSPost2010Prop48
 90
       50
102
RTVSPost2010PropOp48
 70
     0
102
RTVSPost2010Prop49
280
     0
102
RTVSPost2010PropOp49
 70
     0
102
RTVSPost2010Prop50
 90
       50
102
RTVSPost2010PropOp50
 70
     0
102
RTVSPost2010Prop51ColorIndex
 90
      256
102
RTVSPost2010Prop51ColorRGB
 90
-16777216
102
RTVSPost2010PropOp51
 70
     0
102
RTVSPost2010Prop52
140
1.0
102
RTVSPost2010PropOp52
 70
     0
102
RTVSPost2010Prop53
 90
        2
102
RTVSPost2010PropOp53
 70
     0
102
RTVSPost2010Prop54
  1
strokes_ogs.tif
102
RTVSPost2010PropOp54
 70
     0
102
RTVSPost2010Prop55
280
     0
102
RTVSPost2010PropOp55
 70
     0
102
RTVSPost2010Prop56
140
1.0
102
RTVSPost2010PropOp56
 70
     0
102
RTVSPost2010Prop57
140
1.0
102
RTVSPost2010PropOp57
 70
     0
102
RTVSPropertyOp0
 70
     0
102
RTVSPropertyOp1
 70
     0
102
RTVSPropertyOp2
 70
     0
102
RTVSPropertyOp3
 70
     0
102
RTVSPropertyOp4
 70
     0
102
RTVSPropertyOp5
 70
     0
102
RTVSPropertyOp6
 70
     0
102
RTVSPropertyOp7
 70
     0
102
RTVSPropertyOp8
 70
     0
102
RTVSPropertyOp9
 70
     0
102
RTVSPropertyOp10
 70
     0
102
RTVSPropertyOp11
 70
     0
102
RTVSPropertyOp12
 70
     0
102
RTVSPropertyOp13
 70
     0
102
RTVSPropertyOp14
 70
     2
102
RTVSPropertyOp15
 70
     0
102
RTVSPropertyOp16
 70
     0
102
RTVSPropertyOp17
 70
     0
102
RTVSPropertyOp18
 70
     0
102
RTVSPropertyOp19
 70
     0
102
RTVSPropertyOp20
 70
     0
102
RTVSPropertyOp21
 70
     0
102
RTVSPropertyOp22
 70
     0
102
RTVSPropertyOp23
 70
     0
102
RTVSPropertyOp24
 70
     0
102
RTVSPropertyOp25
 70
     0
102
RTVSPropertyOp26
 70
     0
102
RTVSPropertyOp27
 70
     0
102
RTVSPropertyOp28
 70
     0
102
RTVSPropertyOp29
 70
     0
102
RTVSPropertyOp30
 70
     0
102
RTVSPropertyOp31
 70
     0
102
RTVSPropertyOp32
 70
     0
102
RTVSPropertyOp33
 70
     0
102
RTVSPropertyOp34
 70
     0
102
RTVSPropertyOp35
 70
     0
102
RTVSPropertyOp36
 70
     0
102
RTVSPropertyOp37
 70
     0
102
RTVSPropertyOp38
 70
     0
102
RTVSPropertyOp39
 70
     0
102
RTVSPropertyOp40
 70
     0
102
RTVSPropertyOp41
 70
     0
102
RTVSPropertyOp42
 70
     0
102
RTVSPropertyOp43
 70
     0
102
RTVSPropertyOp44
 70
     0
102
RTVSPropertyOp45
 70
     0
102
RTVSPropertyOp46
 70
     0
102
RTVSPropertyOp47
 70
     0
102
RTVSPropertyOp48
 70
     0
102
RTVSPropertyOp49
 70
     0
102
RTVSPropertyOp50
 70
     0
102
RTVSPropertyOp51
 70
     0
102
RTVSPropertyOp52
 70
     0
102
RTVSPropertyOp53
 70
     0
102
RTVSPropertyOp54
 70
     0
102
RTVSPropertyOp55
 70
     0
102
RTVSPropertyOp56
 70
     0
102
RTVSPropertyOp57
 70
     0
102
RTVSPropertyOp58
 70
     1
102
RTVSPropertyOp59
 70
     1
102
RTVSPropertyOp60
 70
     1
102
RTVSPropertyOp61
 70
     1
102
RTVSPropertyOp62
 70
     1
  0
XRECORD
  5
3D6
102
{ACAD_REACTORS
330
3D5
102
}
330
3D5
100
AcDbXrecord
280
     1
102
RTVSPost2010Prop28
280
     0
102
RTVSPost2010PropOp28
 70
     1
102
RTVSPost2010Prop29
280
     1
102
RTVSPost2010PropOp29
 70
     1
102
RTVSPost2010Prop30
280
     1
102
RTVSPost2010PropOp30
 70
     1
102
RTVSPost2010Prop31
280
     0
102
RTVSPost2010PropOp31
 70
     1
102
RTVSPost2010Prop32
280
     0
102
RTVSPost2010PropOp32
 70
     1
102
RTVSPost2010Prop33
280
     0
102
RTVSPost2010PropOp33
 70
     1
102
RTVSPost2010Prop34
280
     0
102
RTVSPost2010PropOp34
 70
     1
102
RTVSPost2010Prop35
280
     0
102
RTVSPost2010PropOp35
 70
     1
102
RTVSPost2010Prop36
280
     0
102
RTVSPost2010PropOp36
 70
     1
102
RTVSPost2010Prop37
 90
       50
102
RTVSPost2010PropOp37
 70
     1
102
RTVSPost2010Prop38
140
0.0
102
RTVSPost2010PropOp38
 70
     1
102
RTVSPost2010Prop39
140
1.0
102
RTVSPost2010PropOp39
 70
     1
102
RTVSPost2010Prop40
 90
        0
102
RTVSPost2010PropOp40
 70
     1
102
RTVSPost2010Prop41ColorIndex
 90
       18
102
RTVSPost2010Prop41ColorRGB
 90
        0
102
RTVSPost2010PropOp41
 70
     1
102
RTVSPost2010Prop42
 90
       50
102
RTVSPost2010PropOp42
 70
     1
102
RTVSPost2010Prop43
 90
        3
102
RTVSPost2010PropOp43
 70
     1
102
RTVSPost2010Prop44ColorIndex
 90
        5
102
RTVSPost2010Prop44ColorRGB
 90
      255
102
RTVSPost2010PropOp44
 70
     1
102
RTVSPost2010Prop45
280
     0
102
RTVSPost2010PropOp45
 70
     1
102
RTVSPost2010Prop46
 90
       50
102
RTVSPost2010PropOp46
 70
     1
102
RTVSPost2010Prop47
 90
       50
102
RTVSPost2010PropOp47
 70
     1
102
RTVSPost2010Prop48
 90
       50
102
RTVSPost2010PropOp48
 70
     1
102
RTVSPost2010Prop49
280
     0
102
RTVSPost2010PropOp49
 70
     1
102
RTVSPost2010Prop50
 90
       50
102
RTVSPost2010PropOp50
 70
     1
102
RTVSPost2010Prop51ColorIndex
 90
      256
102
RTVSPost2010Prop51ColorRGB
 90
-16777216
102
RTVSPost2010PropOp51
 70
     0
102
RTVSPost2010Prop52
140
1.0
102
RTVSPost2010PropOp52
 70
     0
102
RTVSPost2010Prop53
 90
        2
102
RTVSPost2010PropOp53
 70
     1
102
RTVSPost2010Prop54
  1
strokes_ogs.tif
102
RTVSPost2010PropOp54
 70
     1
102
RTVSPost2010Prop55
280
     0
102
RTVSPost2010PropOp55
 70
     1
102
RTVSPost2010Prop56
140
1.0
102
RTVSPost2010PropOp56
 70
     1
102
RTVSPost2010Prop57
140
1.0
102
RTVSPost2010PropOp57
 70
     1
102
RTVSPropertyOp0
 70
     1
102
RTVSPropertyOp1
 70
     1
102
RTVSPropertyOp2
 70
     1
102
RTVSPropertyOp3
 70
     1
102
RTVSPropertyOp4
 70
     1
102
RTVSPropertyOp5
 70
     1
102
RTVSPropertyOp6
 70
     1
102
RTVSPropertyOp7
 70
     1
102
RTVSPropertyOp8
 70
     1
102
RTVSPropertyOp9
 70
     1
102
RTVSPropertyOp10
 70
     1
102
RTVSPropertyOp11
 70
     1
102
RTVSPropertyOp12
 70
     1
102
RTVSPropertyOp13
 70
     1
102
RTVSPropertyOp14
 70
     1
102
RTVSPropertyOp15
 70
     1
102
RTVSPropertyOp16
 70
     1
102
RTVSPropertyOp17
 70
     1
102
RTVSPropertyOp18
 70
     1
102
RTVSPropertyOp19
 70
     1
102
RTVSPropertyOp20
 70
     1
102
RTVSPropertyOp21
 70
     1
102
RTVSPropertyOp22
 70
     1
102
RTVSPropertyOp23
 70
     1
102
RTVSPropertyOp24
 70
     1
102
RTVSPropertyOp25
 70
     1
102
RTVSPropertyOp26
 70
     1
102
RTVSPropertyOp27
 70
     1
102
RTVSPropertyOp28
 70
     1
102
RTVSPropertyOp29
 70
     1
102
RTVSPropertyOp30
 70
     1
102
RTVSPropertyOp31
 70
     1
102
RTVSPropertyOp32
 70
     1
102
RTVSPropertyOp33
 70
     1
102
RTVSPropertyOp34
 70
     1
102
RTVSPropertyOp35
 70
     1
102
RTVSPropertyOp36
 70
     1
102
RTVSPropertyOp37
 70
     1
102
RTVSPropertyOp38
 70
     1
102
RTVSPropertyOp39
 70
     1
102
RTVSPropertyOp40
 70
     1
102
RTVSPropertyOp41
 70
     1
102
RTVSPropertyOp42
 70
     1
102
RTVSPropertyOp43
 70
     1
102
RTVSPropertyOp44
 70
     1
102
RTVSPropertyOp45
 70
     1
102
RTVSPropertyOp46
 70
     1
102
RTVSPropertyOp47
 70
     1
102
RTVSPropertyOp48
 70
     1
102
RTVSPropertyOp49
 70
     1
102
RTVSPropertyOp50
 70
     1
102
RTVSPropertyOp51
 70
     0
102
RTVSPropertyOp52
 70
     0
102
RTVSPropertyOp53
 70
     1
102
RTVSPropertyOp54
 70
     1
102
RTVSPropertyOp55
 70
     1
102
RTVSPropertyOp56
 70
     1
102
RTVSPropertyOp57
 70
     1
102
RTVSPropertyOp58
 70
     1
102
RTVSPropertyOp59
 70
     1
102
RTVSPropertyOp60
 70
     1
102
RTVSPropertyOp61
 70
     1
102
RTVSPropertyOp62
 70
     1
  0
XRECORD
  5
3F4
102
{ACAD_REACTORS
330
3F3
102
}
330
3F3
100
AcDbXrecord
280
     1
102
RTVSPost2010Prop28
280
     0
102
RTVSPost2010PropOp28
 70
     1
102
RTVSPost2010Prop29
280
     1
102
RTVSPost2010PropOp29
 70
     1
102
RTVSPost2010Prop30
280
     1
102
RTVSPost2010PropOp30
 70
     1
102
RTVSPost2010Prop31
280
     0
102
RTVSPost2010PropOp31
 70
     1
102
RTVSPost2010Prop32
280
     0
102
RTVSPost2010PropOp32
 70
     1
102
RTVSPost2010Prop33
280
     0
102
RTVSPost2010PropOp33
 70
     1
102
RTVSPost2010Prop34
280
     0
102
RTVSPost2010PropOp34
 70
     1
102
RTVSPost2010Prop35
280
     0
102
RTVSPost2010PropOp35
 70
     1
102
RTVSPost2010Prop36
280
     0
102
RTVSPost2010PropOp36
 70
     1
102
RTVSPost2010Prop37
 90
       50
102
RTVSPost2010PropOp37
 70
     1
102
RTVSPost2010Prop38
140
0.0
102
RTVSPost2010PropOp38
 70
     1
102
RTVSPost2010Prop39
140
1.0
102
RTVSPost2010PropOp39
 70
     1
102
RTVSPost2010Prop40
 90
        0
102
RTVSPost2010PropOp40
 70
     1
102
RTVSPost2010Prop41ColorIndex
 90
       18
102
RTVSPost2010Prop41ColorRGB
 90
        0
102
RTVSPost2010PropOp41
 70
     1
102
RTVSPost2010Prop42
 90
       50
102
RTVSPost2010PropOp42
 70
     1
102
RTVSPost2010Prop43
 90
        3
102
RTVSPost2010PropOp43
 70
     1
102
RTVSPost2010Prop44ColorIndex
 90
        5
102
RTVSPost2010Prop44ColorRGB
 90
      255
102
RTVSPost2010PropOp44
 70
     1
102
RTVSPost2010Prop45
280
     0
102
RTVSPost2010PropOp45
 70
     1
102
RTVSPost2010Prop46
 90
       50
102
RTVSPost2010PropOp46
 70
     1
102
RTVSPost2010Prop47
 90
       50
102
RTVSPost2010PropOp47
 70
     1
102
RTVSPost2010Prop48
 90
       50
102
RTVSPost2010PropOp48
 70
     1
102
RTVSPost2010Prop49
280
     0
102
RTVSPost2010PropOp49
 70
     1
102
RTVSPost2010Prop50
 90
       50
102
RTVSPost2010PropOp50
 70
     1
102
RTVSPost2010Prop51ColorIndex
 90
      256
102
RTVSPost2010Prop51ColorRGB
 90
-16777216
102
RTVSPost2010PropOp51
 70
     0
102
RTVSPost2010Prop52
140
1.0
102
RTVSPost2010PropOp52
 70
     0
102
RTVSPost2010Prop53
 90
        2
102
RTVSPost2010PropOp53
 70
     1
102
RTVSPost2010Prop54
  1
strokes_ogs.tif
102
RTVSPost2010PropOp54
 70
     1
102
RTVSPost2010Prop55
280
     0
102
RTVSPost2010PropOp55
 70
     1
102
RTVSPost2010Prop56
140
1.0
102
RTVSPost2010PropOp56
 70
     1
102
RTVSPost2010Prop57
140
1.0
102
RTVSPost2010PropOp57
 70
     1
102
RTVSPropertyOp0
 70
     1
102
RTVSPropertyOp1
 70
     1
102
RTVSPropertyOp2
 70
     1
102
RTVSPropertyOp3
 70
     1
102
RTVSPropertyOp4
 70
     1
102
RTVSPropertyOp5
 70
     1
102
RTVSPropertyOp6
 70
     1
102
RTVSPropertyOp7
 70
     1
102
RTVSPropertyOp8
 70
     1
102
RTVSPropertyOp9
 70
     1
102
RTVSPropertyOp10
 70
     1
102
RTVSPropertyOp11
 70
     1
102
RTVSPropertyOp12
 70
     1
102
RTVSPropertyOp13
 70
     1
102
RTVSPropertyOp14
 70
     1
102
RTVSPropertyOp15
 70
     1
102
RTVSPropertyOp16
 70
     1
102
RTVSPropertyOp17
 70
     1
102
RTVSPropertyOp18
 70
     1
102
RTVSPropertyOp19
 70
     1
102
RTVSPropertyOp20
 70
     1
102
RTVSPropertyOp21
 70
     1
102
RTVSPropertyOp22
 70
     1
102
RTVSPropertyOp23
 70
     1
102
RTVSPropertyOp24
 70
     1
102
RTVSPropertyOp25
 70
     1
102
RTVSPropertyOp26
 70
     1
102
RTVSPropertyOp27
 70
     1
102
RTVSPropertyOp28
 70
     1
102
RTVSPropertyOp29
 70
     1
102
RTVSPropertyOp30
 70
     1
102
RTVSPropertyOp31
 70
     1
102
RTVSPropertyOp32
 70
     1
102
RTVSPropertyOp33
 70
     1
102
RTVSPropertyOp34
 70
     1
102
RTVSPropertyOp35
 70
     1
102
RTVSPropertyOp36
 70
     1
102
RTVSPropertyOp37
 70
     1
102
RTVSPropertyOp38
 70
     1
102
RTVSPropertyOp39
 70
     1
102
RTVSPropertyOp40
 70
     1
102
RTVSPropertyOp41
 70
     1
102
RTVSPropertyOp42
 70
     1
102
RTVSPropertyOp43
 70
     1
102
RTVSPropertyOp44
 70
     1
102
RTVSPropertyOp45
 70
     1
102
RTVSPropertyOp46
 70
     1
102
RTVSPropertyOp47
 70
     1
102
RTVSPropertyOp48
 70
     1
102
RTVSPropertyOp49
 70
     1
102
RTVSPropertyOp50
 70
     1
102
RTVSPropertyOp51
 70
     0
102
RTVSPropertyOp52
 70
     0
102
RTVSPropertyOp53
 70
     1
102
RTVSPropertyOp54
 70
     1
102
RTVSPropertyOp55
 70
     1
102
RTVSPropertyOp56
 70
     1
102
RTVSPropertyOp57
 70
     1
102
RTVSPropertyOp58
 70
     1
102
RTVSPropertyOp59
 70
     1
102
RTVSPropertyOp60
 70
     1
102
RTVSPropertyOp61
 70
     1
102
RTVSPropertyOp62
 70
     1
  0
XRECORD
  5
3F2
102
{ACAD_REACTORS
330
3F1
102
}
330
3F1
100
AcDbXrecord
280
     1
102
RTVSPost2010Prop28
280
     0
102
RTVSPost2010PropOp28
 70
     1
102
RTVSPost2010Prop29
280
     1
102
RTVSPost2010PropOp29
 70
     1
102
RTVSPost2010Prop30
280
     1
102
RTVSPost2010PropOp30
 70
     1
102
RTVSPost2010Prop31
280
     0
102
RTVSPost2010PropOp31
 70
     1
102
RTVSPost2010Prop32
280
     0
102
RTVSPost2010PropOp32
 70
     1
102
RTVSPost2010Prop33
280
     0
102
RTVSPost2010PropOp33
 70
     1
102
RTVSPost2010Prop34
280
     0
102
RTVSPost2010PropOp34
 70
     1
102
RTVSPost2010Prop35
280
     0
102
RTVSPost2010PropOp35
 70
     1
102
RTVSPost2010Prop36
280
     0
102
RTVSPost2010PropOp36
 70
     1
102
RTVSPost2010Prop37
 90
       50
102
RTVSPost2010PropOp37
 70
     1
102
RTVSPost2010Prop38
140
0.0
102
RTVSPost2010PropOp38
 70
     1
102
RTVSPost2010Prop39
140
1.0
102
RTVSPost2010PropOp39
 70
     1
102
RTVSPost2010Prop40
 90
        0
102
RTVSPost2010PropOp40
 70
     1
102
RTVSPost2010Prop41ColorIndex
 90
       18
102
RTVSPost2010Prop41ColorRGB
 90
        0
102
RTVSPost2010PropOp41
 70
     1
102
RTVSPost2010Prop42
 90
       50
102
RTVSPost2010PropOp42
 70
     1
102
RTVSPost2010Prop43
 90
        3
102
RTVSPost2010PropOp43
 70
     1
102
RTVSPost2010Prop44ColorIndex
 90
        5
102
RTVSPost2010Prop44ColorRGB
 90
      255
102
RTVSPost2010PropOp44
 70
     1
102
RTVSPost2010Prop45
280
     0
102
RTVSPost2010PropOp45
 70
     1
102
RTVSPost2010Prop46
 90
       50
102
RTVSPost2010PropOp46
 70
     1
102
RTVSPost2010Prop47
 90
       50
102
RTVSPost2010PropOp47
 70
     1
102
RTVSPost2010Prop48
 90
       50
102
RTVSPost2010PropOp48
 70
     1
102
RTVSPost2010Prop49
280
     0
102
RTVSPost2010PropOp49
 70
     1
102
RTVSPost2010Prop50
 90
       50
102
RTVSPost2010PropOp50
 70
     1
102
RTVSPost2010Prop51ColorIndex
 90
      256
102
RTVSPost2010Prop51ColorRGB
 90
-16777216
102
RTVSPost2010PropOp51
 70
     0
102
RTVSPost2010Prop52
140
1.0
102
RTVSPost2010PropOp52
 70
     0
102
RTVSPost2010Prop53
 90
        2
102
RTVSPost2010PropOp53
 70
     1
102
RTVSPost2010Prop54
  1
strokes_ogs.tif
102
RTVSPost2010PropOp54
 70
     1
102
RTVSPost2010Prop55
280
     0
102
RTVSPost2010PropOp55
 70
     1
102
RTVSPost2010Prop56
140
1.0
102
RTVSPost2010PropOp56
 70
     1
102
RTVSPost2010Prop57
140
1.0
102
RTVSPost2010PropOp57
 70
     1
102
RTVSPropertyOp0
 70
     1
102
RTVSPropertyOp1
 70
     1
102
RTVSPropertyOp2
 70
     1
102
RTVSPropertyOp3
 70
     1
102
RTVSPropertyOp4
 70
     1
102
RTVSPropertyOp5
 70
     1
102
RTVSPropertyOp6
 70
     1
102
RTVSPropertyOp7
 70
     1
102
RTVSPropertyOp8
 70
     1
102
RTVSPropertyOp9
 70
     1
102
RTVSPropertyOp10
 70
     1
102
RTVSPropertyOp11
 70
     1
102
RTVSPropertyOp12
 70
     1
102
RTVSPropertyOp13
 70
     1
102
RTVSPropertyOp14
 70
     1
102
RTVSPropertyOp15
 70
     1
102
RTVSPropertyOp16
 70
     1
102
RTVSPropertyOp17
 70
     1
102
RTVSPropertyOp18
 70
     1
102
RTVSPropertyOp19
 70
     1
102
RTVSPropertyOp20
 70
     1
102
RTVSPropertyOp21
 70
     1
102
RTVSPropertyOp22
 70
     1
102
RTVSPropertyOp23
 70
     1
102
RTVSPropertyOp24
 70
     1
102
RTVSPropertyOp25
 70
     1
102
RTVSPropertyOp26
 70
     1
102
RTVSPropertyOp27
 70
     1
102
RTVSPropertyOp28
 70
     1
102
RTVSPropertyOp29
 70
     1
102
RTVSPropertyOp30
 70
     1
102
RTVSPropertyOp31
 70
     1
102
RTVSPropertyOp32
 70
     1
102
RTVSPropertyOp33
 70
     1
102
RTVSPropertyOp34
 70
     1
102
RTVSPropertyOp35
 70
     1
102
RTVSPropertyOp36
 70
     1
102
RTVSPropertyOp37
 70
     1
102
RTVSPropertyOp38
 70
     1
102
RTVSPropertyOp39
 70
     1
102
RTVSPropertyOp40
 70
     1
102
RTVSPropertyOp41
 70
     1
102
RTVSPropertyOp42
 70
     1
102
RTVSPropertyOp43
 70
     1
102
RTVSPropertyOp44
 70
     1
102
RTVSPropertyOp45
 70
     1
102
RTVSPropertyOp46
 70
     1
102
RTVSPropertyOp47
 70
     1
102
RTVSPropertyOp48
 70
     1
102
RTVSPropertyOp49
 70
     1
102
RTVSPropertyOp50
 70
     1
102
RTVSPropertyOp51
 70
     0
102
RTVSPropertyOp52
 70
     0
102
RTVSPropertyOp53
 70
     1
102
RTVSPropertyOp54
 70
     1
102
RTVSPropertyOp55
 70
     1
102
RTVSPropertyOp56
 70
     1
102
RTVSPropertyOp57
 70
     1
102
RTVSPropertyOp58
 70
     1
102
RTVSPropertyOp59
 70
     1
102
RTVSPropertyOp60
 70
     1
102
RTVSPropertyOp61
 70
     1
102
RTVSPropertyOp62
 70
     1
  0
XRECORD
  5
3EC
102
{ACAD_REACTORS
330
3EB
102
}
330
3EB
100
AcDbXrecord
280
     1
102
RTVSPost2010Prop28
280
     0
102
RTVSPost2010PropOp28
 70
     1
102
RTVSPost2010Prop29
280
     1
102
RTVSPost2010PropOp29
 70
     1
102
RTVSPost2010Prop30
280
     1
102
RTVSPost2010PropOp30
 70
     1
102
RTVSPost2010Prop31
280
     0
102
RTVSPost2010PropOp31
 70
     1
102
RTVSPost2010Prop32
280
     0
102
RTVSPost2010PropOp32
 70
     1
102
RTVSPost2010Prop33
280
     0
102
RTVSPost2010PropOp33
 70
     1
102
RTVSPost2010Prop34
280
     0
102
RTVSPost2010PropOp34
 70
     1
102
RTVSPost2010Prop35
280
     0
102
RTVSPost2010PropOp35
 70
     1
102
RTVSPost2010Prop36
280
     0
102
RTVSPost2010PropOp36
 70
     1
102
RTVSPost2010Prop37
 90
       50
102
RTVSPost2010PropOp37
 70
     1
102
RTVSPost2010Prop38
140
0.0
102
RTVSPost2010PropOp38
 70
     1
102
RTVSPost2010Prop39
140
1.0
102
RTVSPost2010PropOp39
 70
     1
102
RTVSPost2010Prop40
 90
        0
102
RTVSPost2010PropOp40
 70
     1
102
RTVSPost2010Prop41ColorIndex
 90
       18
102
RTVSPost2010Prop41ColorRGB
 90
        0
102
RTVSPost2010PropOp41
 70
     1
102
RTVSPost2010Prop42
 90
       50
102
RTVSPost2010PropOp42
 70
     1
102
RTVSPost2010Prop43
 90
        3
102
RTVSPost2010PropOp43
 70
     1
102
RTVSPost2010Prop44ColorIndex
 90
        5
102
RTVSPost2010Prop44ColorRGB
 90
      255
102
RTVSPost2010PropOp44
 70
     1
102
RTVSPost2010Prop45
280
     0
102
RTVSPost2010PropOp45
 70
     1
102
RTVSPost2010Prop46
 90
       50
102
RTVSPost2010PropOp46
 70
     1
102
RTVSPost2010Prop47
 90
       50
102
RTVSPost2010PropOp47
 70
     1
102
RTVSPost2010Prop48
 90
       50
102
RTVSPost2010PropOp48
 70
     1
102
RTVSPost2010Prop49
280
     0
102
RTVSPost2010PropOp49
 70
     1
102
RTVSPost2010Prop50
 90
       50
102
RTVSPost2010PropOp50
 70
     1
102
RTVSPost2010Prop51ColorIndex
 90
      256
102
RTVSPost2010Prop51ColorRGB
 90
-16777216
102
RTVSPost2010PropOp51
 70
     0
102
RTVSPost2010Prop52
140
1.0
102
RTVSPost2010PropOp52
 70
     0
102
RTVSPost2010Prop53
 90
        2
102
RTVSPost2010PropOp53
 70
     1
102
RTVSPost2010Prop54
  1
strokes_ogs.tif
102
RTVSPost2010PropOp54
 70
     1
102
RTVSPost2010Prop55
280
     0
102
RTVSPost2010PropOp55
 70
     1
102
RTVSPost2010Prop56
140
1.0
102
RTVSPost2010PropOp56
 70
     1
102
RTVSPost2010Prop57
140
1.0
102
RTVSPost2010PropOp57
 70
     1
102
RTVSPropertyOp0
 70
     1
102
RTVSPropertyOp1
 70
     1
102
RTVSPropertyOp2
 70
     1
102
RTVSPropertyOp3
 70
     1
102
RTVSPropertyOp4
 70
     1
102
RTVSPropertyOp5
 70
     1
102
RTVSPropertyOp6
 70
     1
102
RTVSPropertyOp7
 70
     1
102
RTVSPropertyOp8
 70
     1
102
RTVSPropertyOp9
 70
     1
102
RTVSPropertyOp10
 70
     1
102
RTVSPropertyOp11
 70
     1
102
RTVSPropertyOp12
 70
     1
102
RTVSPropertyOp13
 70
     1
102
RTVSPropertyOp14
 70
     1
102
RTVSPropertyOp15
 70
     1
102
RTVSPropertyOp16
 70
     1
102
RTVSPropertyOp17
 70
     1
102
RTVSPropertyOp18
 70
     1
102
RTVSPropertyOp19
 70
     1
102
RTVSPropertyOp20
 70
     1
102
RTVSPropertyOp21
 70
     1
102
RTVSPropertyOp22
 70
     1
102
RTVSPropertyOp23
 70
     1
102
RTVSPropertyOp24
 70
     1
102
RTVSPropertyOp25
 70
     1
102
RTVSPropertyOp26
 70
     1
102
RTVSPropertyOp27
 70
     1
102
RTVSPropertyOp28
 70
     1
102
RTVSPropertyOp29
 70
     1
102
RTVSPropertyOp30
 70
     1
102
RTVSPropertyOp31
 70
     1
102
RTVSPropertyOp32
 70
     1
102
RTVSPropertyOp33
 70
     1
102
RTVSPropertyOp34
 70
     1
102
RTVSPropertyOp35
 70
     1
102
RTVSPropertyOp36
 70
     1
102
RTVSPropertyOp37
 70
     1
102
RTVSPropertyOp38
 70
     1
102
RTVSPropertyOp39
 70
     1
102
RTVSPropertyOp40
 70
     1
102
RTVSPropertyOp41
 70
     1
102
RTVSPropertyOp42
 70
     1
102
RTVSPropertyOp43
 70
     1
102
RTVSPropertyOp44
 70
     1
102
RTVSPropertyOp45
 70
     1
102
RTVSPropertyOp46
 70
     1
102
RTVSPropertyOp47
 70
     1
102
RTVSPropertyOp48
 70
     1
102
RTVSPropertyOp49
 70
     1
102
RTVSPropertyOp50
 70
     1
102
RTVSPropertyOp51
 70
     0
102
RTVSPropertyOp52
 70
     0
102
RTVSPropertyOp53
 70
     1
102
RTVSPropertyOp54
 70
     1
102
RTVSPropertyOp55
 70
     1
102
RTVSPropertyOp56
 70
     1
102
RTVSPropertyOp57
 70
     1
102
RTVSPropertyOp58
 70
     1
102
RTVSPropertyOp59
 70
     1
102
RTVSPropertyOp60
 70
     1
102
RTVSPropertyOp61
 70
     1
102
RTVSPropertyOp62
 70
     1
  0
XRECORD
  5
3EE
102
{ACAD_REACTORS
330
3ED
102
}
330
3ED
100
AcDbXrecord
280
     1
102
RTVSPost2010Prop28
280
     0
102
RTVSPost2010PropOp28
 70
     1
102
RTVSPost2010Prop29
280
     1
102
RTVSPost2010PropOp29
 70
     1
102
RTVSPost2010Prop30
280
     1
102
RTVSPost2010PropOp30
 70
     1
102
RTVSPost2010Prop31
280
     0
102
RTVSPost2010PropOp31
 70
     1
102
RTVSPost2010Prop32
280
     0
102
RTVSPost2010PropOp32
 70
     1
102
RTVSPost2010Prop33
280
     0
102
RTVSPost2010PropOp33
 70
     1
102
RTVSPost2010Prop34
280
     0
102
RTVSPost2010PropOp34
 70
     1
102
RTVSPost2010Prop35
280
     0
102
RTVSPost2010PropOp35
 70
     1
102
RTVSPost2010Prop36
280
     0
102
RTVSPost2010PropOp36
 70
     1
102
RTVSPost2010Prop37
 90
       50
102
RTVSPost2010PropOp37
 70
     1
102
RTVSPost2010Prop38
140
0.0
102
RTVSPost2010PropOp38
 70
     1
102
RTVSPost2010Prop39
140
1.0
102
RTVSPost2010PropOp39
 70
     1
102
RTVSPost2010Prop40
 90
        0
102
RTVSPost2010PropOp40
 70
     1
102
RTVSPost2010Prop41ColorIndex
 90
       18
102
RTVSPost2010Prop41ColorRGB
 90
        0
102
RTVSPost2010PropOp41
 70
     1
102
RTVSPost2010Prop42
 90
       50
102
RTVSPost2010PropOp42
 70
     1
102
RTVSPost2010Prop43
 90
        3
102
RTVSPost2010PropOp43
 70
     1
102
RTVSPost2010Prop44ColorIndex
 90
        5
102
RTVSPost2010Prop44ColorRGB
 90
      255
102
RTVSPost2010PropOp44
 70
     1
102
RTVSPost2010Prop45
280
     0
102
RTVSPost2010PropOp45
 70
     1
102
RTVSPost2010Prop46
 90
       50
102
RTVSPost2010PropOp46
 70
     1
102
RTVSPost2010Prop47
 90
       50
102
RTVSPost2010PropOp47
 70
     1
102
RTVSPost2010Prop48
 90
       50
102
RTVSPost2010PropOp48
 70
     1
102
RTVSPost2010Prop49
280
     0
102
RTVSPost2010PropOp49
 70
     1
102
RTVSPost2010Prop50
 90
       50
102
RTVSPost2010PropOp50
 70
     1
102
RTVSPost2010Prop51ColorIndex
 90
      256
102
RTVSPost2010Prop51ColorRGB
 90
-16777216
102
RTVSPost2010PropOp51
 70
     0
102
RTVSPost2010Prop52
140
1.0
102
RTVSPost2010PropOp52
 70
     0
102
RTVSPost2010Prop53
 90
        2
102
RTVSPost2010PropOp53
 70
     1
102
RTVSPost2010Prop54
  1
strokes_ogs.tif
102
RTVSPost2010PropOp54
 70
     1
102
RTVSPost2010Prop55
280
     0
102
RTVSPost2010PropOp55
 70
     1
102
RTVSPost2010Prop56
140
1.0
102
RTVSPost2010PropOp56
 70
     1
102
RTVSPost2010Prop57
140
1.0
102
RTVSPost2010PropOp57
 70
     1
102
RTVSPropertyOp0
 70
     1
102
RTVSPropertyOp1
 70
     1
102
RTVSPropertyOp2
 70
     1
102
RTVSPropertyOp3
 70
     1
102
RTVSPropertyOp4
 70
     1
102
RTVSPropertyOp5
 70
     1
102
RTVSPropertyOp6
 70
     1
102
RTVSPropertyOp7
 70
     1
102
RTVSPropertyOp8
 70
     1
102
RTVSPropertyOp9
 70
     1
102
RTVSPropertyOp10
 70
     1
102
RTVSPropertyOp11
 70
     1
102
RTVSPropertyOp12
 70
     1
102
RTVSPropertyOp13
 70
     1
102
RTVSPropertyOp14
 70
     1
102
RTVSPropertyOp15
 70
     1
102
RTVSPropertyOp16
 70
     1
102
RTVSPropertyOp17
 70
     1
102
RTVSPropertyOp18
 70
     1
102
RTVSPropertyOp19
 70
     1
102
RTVSPropertyOp20
 70
     1
102
RTVSPropertyOp21
 70
     1
102
RTVSPropertyOp22
 70
     1
102
RTVSPropertyOp23
 70
     1
102
RTVSPropertyOp24
 70
     1
102
RTVSPropertyOp25
 70
     1
102
RTVSPropertyOp26
 70
     1
102
RTVSPropertyOp27
 70
     1
102
RTVSPropertyOp28
 70
     1
102
RTVSPropertyOp29
 70
     1
102
RTVSPropertyOp30
 70
     1
102
RTVSPropertyOp31
 70
     1
102
RTVSPropertyOp32
 70
     1
102
RTVSPropertyOp33
 70
     1
102
RTVSPropertyOp34
 70
     1
102
RTVSPropertyOp35
 70
     1
102
RTVSPropertyOp36
 70
     1
102
RTVSPropertyOp37
 70
     1
102
RTVSPropertyOp38
 70
     1
102
RTVSPropertyOp39
 70
     1
102
RTVSPropertyOp40
 70
     1
102
RTVSPropertyOp41
 70
     1
102
RTVSPropertyOp42
 70
     1
102
RTVSPropertyOp43
 70
     1
102
RTVSPropertyOp44
 70
     1
102
RTVSPropertyOp45
 70
     1
102
RTVSPropertyOp46
 70
     1
102
RTVSPropertyOp47
 70
     1
102
RTVSPropertyOp48
 70
     1
102
RTVSPropertyOp49
 70
     1
102
RTVSPropertyOp50
 70
     1
102
RTVSPropertyOp51
 70
     0
102
RTVSPropertyOp52
 70
     0
102
RTVSPropertyOp53
 70
     1
102
RTVSPropertyOp54
 70
     1
102
RTVSPropertyOp55
 70
     1
102
RTVSPropertyOp56
 70
     1
102
RTVSPropertyOp57
 70
     1
102
RTVSPropertyOp58
 70
     1
102
RTVSPropertyOp59
 70
     1
102
RTVSPropertyOp60
 70
     1
102
RTVSPropertyOp61
 70
     1
102
RTVSPropertyOp62
 70
     1
  0
XRECORD
  5
3DE
102
{ACAD_REACTORS
330
3DD
102
}
330
3DD
100
AcDbXrecord
280
     1
102
RTVSPost2010Prop28
280
     0
102
RTVSPost2010PropOp28
 70
     1
102
RTVSPost2010Prop29
280
     1
102
RTVSPost2010PropOp29
 70
     1
102
RTVSPost2010Prop30
280
     1
102
RTVSPost2010PropOp30
 70
     1
102
RTVSPost2010Prop31
280
     0
102
RTVSPost2010PropOp31
 70
     1
102
RTVSPost2010Prop32
280
     0
102
RTVSPost2010PropOp32
 70
     1
102
RTVSPost2010Prop33
280
     0
102
RTVSPost2010PropOp33
 70
     1
102
RTVSPost2010Prop34
280
     0
102
RTVSPost2010PropOp34
 70
     1
102
RTVSPost2010Prop35
280
     0
102
RTVSPost2010PropOp35
 70
     1
102
RTVSPost2010Prop36
280
     0
102
RTVSPost2010PropOp36
 70
     1
102
RTVSPost2010Prop37
 90
       50
102
RTVSPost2010PropOp37
 70
     1
102
RTVSPost2010Prop38
140
0.0
102
RTVSPost2010PropOp38
 70
     1
102
RTVSPost2010Prop39
140
1.0
102
RTVSPost2010PropOp39
 70
     1
102
RTVSPost2010Prop40
 90
        0
102
RTVSPost2010PropOp40
 70
     1
102
RTVSPost2010Prop41ColorIndex
 90
       18
102
RTVSPost2010Prop41ColorRGB
 90
        0
102
RTVSPost2010PropOp41
 70
     1
102
RTVSPost2010Prop42
 90
       50
102
RTVSPost2010PropOp42
 70
     1
102
RTVSPost2010Prop43
 90
        3
102
RTVSPost2010PropOp43
 70
     1
102
RTVSPost2010Prop44ColorIndex
 90
        5
102
RTVSPost2010Prop44ColorRGB
 90
      255
102
RTVSPost2010PropOp44
 70
     1
102
RTVSPost2010Prop45
280
     0
102
RTVSPost2010PropOp45
 70
     1
102
RTVSPost2010Prop46
 90
       50
102
RTVSPost2010PropOp46
 70
     1
102
RTVSPost2010Prop47
 90
       50
102
RTVSPost2010PropOp47
 70
     1
102
RTVSPost2010Prop48
 90
       50
102
RTVSPost2010PropOp48
 70
     1
102
RTVSPost2010Prop49
280
     0
102
RTVSPost2010PropOp49
 70
     1
102
RTVSPost2010Prop50
 90
       50
102
RTVSPost2010PropOp50
 70
     1
102
RTVSPost2010Prop51ColorIndex
 90
      256
102
RTVSPost2010Prop51ColorRGB
 90
-16777216
102
RTVSPost2010PropOp51
 70
     0
102
RTVSPost2010Prop52
140
1.0
102
RTVSPost2010PropOp52
 70
     0
102
RTVSPost2010Prop53
 90
        2
102
RTVSPost2010PropOp53
 70
     1
102
RTVSPost2010Prop54
  1
strokes_ogs.tif
102
RTVSPost2010PropOp54
 70
     1
102
RTVSPost2010Prop55
280
     0
102
RTVSPost2010PropOp55
 70
     1
102
RTVSPost2010Prop56
140
1.0
102
RTVSPost2010PropOp56
 70
     1
102
RTVSPost2010Prop57
140
1.0
102
RTVSPost2010PropOp57
 70
     1
102
RTVSPropertyOp0
 70
     1
102
RTVSPropertyOp1
 70
     1
102
RTVSPropertyOp2
 70
     1
102
RTVSPropertyOp3
 70
     1
102
RTVSPropertyOp4
 70
     1
102
RTVSPropertyOp5
 70
     1
102
RTVSPropertyOp6
 70
     1
102
RTVSPropertyOp7
 70
     1
102
RTVSPropertyOp8
 70
     1
102
RTVSPropertyOp9
 70
     1
102
RTVSPropertyOp10
 70
     1
102
RTVSPropertyOp11
 70
     1
102
RTVSPropertyOp12
 70
     1
102
RTVSPropertyOp13
 70
     1
102
RTVSPropertyOp14
 70
     1
102
RTVSPropertyOp15
 70
     1
102
RTVSPropertyOp16
 70
     1
102
RTVSPropertyOp17
 70
     1
102
RTVSPropertyOp18
 70
     1
102
RTVSPropertyOp19
 70
     1
102
RTVSPropertyOp20
 70
     1
102
RTVSPropertyOp21
 70
     1
102
RTVSPropertyOp22
 70
     1
102
RTVSPropertyOp23
 70
     1
102
RTVSPropertyOp24
 70
     1
102
RTVSPropertyOp25
 70
     1
102
RTVSPropertyOp26
 70
     1
102
RTVSPropertyOp27
 70
     1
102
RTVSPropertyOp28
 70
     1
102
RTVSPropertyOp29
 70
     1
102
RTVSPropertyOp30
 70
     1
102
RTVSPropertyOp31
 70
     1
102
RTVSPropertyOp32
 70
     1
102
RTVSPropertyOp33
 70
     1
102
RTVSPropertyOp34
 70
     1
102
RTVSPropertyOp35
 70
     1
102
RTVSPropertyOp36
 70
     1
102
RTVSPropertyOp37
 70
     1
102
RTVSPropertyOp38
 70
     1
102
RTVSPropertyOp39
 70
     1
102
RTVSPropertyOp40
 70
     1
102
RTVSPropertyOp41
 70
     1
102
RTVSPropertyOp42
 70
     1
102
RTVSPropertyOp43
 70
     1
102
RTVSPropertyOp44
 70
     1
102
RTVSPropertyOp45
 70
     1
102
RTVSPropertyOp46
 70
     1
102
RTVSPropertyOp47
 70
     1
102
RTVSPropertyOp48
 70
     1
102
RTVSPropertyOp49
 70
     1
102
RTVSPropertyOp50
 70
     1
102
RTVSPropertyOp51
 70
     0
102
RTVSPropertyOp52
 70
     0
102
RTVSPropertyOp53
 70
     1
102
RTVSPropertyOp54
 70
     1
102
RTVSPropertyOp55
 70
     1
102
RTVSPropertyOp56
 70
     1
102
RTVSPropertyOp57
 70
     1
102
RTVSPropertyOp58
 70
     1
102
RTVSPropertyOp59
 70
     1
102
RTVSPropertyOp60
 70
     1
102
RTVSPropertyOp61
 70
     1
102
RTVSPropertyOp62
 70
     1
  0
XRECORD
  5
3D0
102
{ACAD_REACTORS
330
3CF
102
}
330
3CF
100
AcDbXrecord
280
     1
102
RTVSPost2010Prop28
280
     0
102
RTVSPost2010PropOp28
 70
     1
102
RTVSPost2010Prop29
280
     1
102
RTVSPost2010PropOp29
 70
     1
102
RTVSPost2010Prop30
280
     1
102
RTVSPost2010PropOp30
 70
     1
102
RTVSPost2010Prop31
280
     0
102
RTVSPost2010PropOp31
 70
     1
102
RTVSPost2010Prop32
280
     0
102
RTVSPost2010PropOp32
 70
     1
102
RTVSPost2010Prop33
280
     0
102
RTVSPost2010PropOp33
 70
     1
102
RTVSPost2010Prop34
280
     0
102
RTVSPost2010PropOp34
 70
     1
102
RTVSPost2010Prop35
280
     0
102
RTVSPost2010PropOp35
 70
     1
102
RTVSPost2010Prop36
280
     0
102
RTVSPost2010PropOp36
 70
     1
102
RTVSPost2010Prop37
 90
       50
102
RTVSPost2010PropOp37
 70
     1
102
RTVSPost2010Prop38
140
0.0
102
RTVSPost2010PropOp38
 70
     1
102
RTVSPost2010Prop39
140
1.0
102
RTVSPost2010PropOp39
 70
     1
102
RTVSPost2010Prop40
 90
        0
102
RTVSPost2010PropOp40
 70
     1
102
RTVSPost2010Prop41ColorIndex
 90
       18
102
RTVSPost2010Prop41ColorRGB
 90
        0
102
RTVSPost2010PropOp41
 70
     1
102
RTVSPost2010Prop42
 90
       50
102
RTVSPost2010PropOp42
 70
     1
102
RTVSPost2010Prop43
 90
        3
102
RTVSPost2010PropOp43
 70
     1
102
RTVSPost2010Prop44ColorIndex
 90
        5
102
RTVSPost2010Prop44ColorRGB
 90
      255
102
RTVSPost2010PropOp44
 70
     1
102
RTVSPost2010Prop45
280
     0
102
RTVSPost2010PropOp45
 70
     1
102
RTVSPost2010Prop46
 90
       50
102
RTVSPost2010PropOp46
 70
     1
102
RTVSPost2010Prop47
 90
       50
102
RTVSPost2010PropOp47
 70
     1
102
RTVSPost2010Prop48
 90
       50
102
RTVSPost2010PropOp48
 70
     1
102
RTVSPost2010Prop49
280
     0
102
RTVSPost2010PropOp49
 70
     1
102
RTVSPost2010Prop50
 90
       50
102
RTVSPost2010PropOp50
 70
     1
102
RTVSPost2010Prop51ColorIndex
 90
      256
102
RTVSPost2010Prop51ColorRGB
 90
-16777216
102
RTVSPost2010PropOp51
 70
     0
102
RTVSPost2010Prop52
140
1.0
102
RTVSPost2010PropOp52
 70
     0
102
RTVSPost2010Prop53
 90
        2
102
RTVSPost2010PropOp53
 70
     1
102
RTVSPost2010Prop54
  1
strokes_ogs.tif
102
RTVSPost2010PropOp54
 70
     1
102
RTVSPost2010Prop55
280
     0
102
RTVSPost2010PropOp55
 70
     1
102
RTVSPost2010Prop56
140
1.0
102
RTVSPost2010PropOp56
 70
     1
102
RTVSPost2010Prop57
140
1.0
102
RTVSPost2010PropOp57
 70
     1
102
RTVSPropertyOp0
 70
     1
102
RTVSPropertyOp1
 70
     1
102
RTVSPropertyOp2
 70
     1
102
RTVSPropertyOp3
 70
     1
102
RTVSPropertyOp4
 70
     1
102
RTVSPropertyOp5
 70
     1
102
RTVSPropertyOp6
 70
     1
102
RTVSPropertyOp7
 70
     1
102
RTVSPropertyOp8
 70
     1
102
RTVSPropertyOp9
 70
     1
102
RTVSPropertyOp10
 70
     1
102
RTVSPropertyOp11
 70
     1
102
RTVSPropertyOp12
 70
     1
102
RTVSPropertyOp13
 70
     1
102
RTVSPropertyOp14
 70
     1
102
RTVSPropertyOp15
 70
     1
102
RTVSPropertyOp16
 70
     1
102
RTVSPropertyOp17
 70
     1
102
RTVSPropertyOp18
 70
     1
102
RTVSPropertyOp19
 70
     1
102
RTVSPropertyOp20
 70
     1
102
RTVSPropertyOp21
 70
     1
102
RTVSPropertyOp22
 70
     1
102
RTVSPropertyOp23
 70
     1
102
RTVSPropertyOp24
 70
     1
102
RTVSPropertyOp25
 70
     1
102
RTVSPropertyOp26
 70
     1
102
RTVSPropertyOp27
 70
     1
102
RTVSPropertyOp28
 70
     1
102
RTVSPropertyOp29
 70
     1
102
RTVSPropertyOp30
 70
     1
102
RTVSPropertyOp31
 70
     1
102
RTVSPropertyOp32
 70
     1
102
RTVSPropertyOp33
 70
     1
102
RTVSPropertyOp34
 70
     1
102
RTVSPropertyOp35
 70
     1
102
RTVSPropertyOp36
 70
     1
102
RTVSPropertyOp37
 70
     1
102
RTVSPropertyOp38
 70
     1
102
RTVSPropertyOp39
 70
     1
102
RTVSPropertyOp40
 70
     1
102
RTVSPropertyOp41
 70
     1
102
RTVSPropertyOp42
 70
     1
102
RTVSPropertyOp43
 70
     1
102
RTVSPropertyOp44
 70
     1
102
RTVSPropertyOp45
 70
     1
102
RTVSPropertyOp46
 70
     1
102
RTVSPropertyOp47
 70
     1
102
RTVSPropertyOp48
 70
     1
102
RTVSPropertyOp49
 70
     1
102
RTVSPropertyOp50
 70
     1
102
RTVSPropertyOp51
 70
     0
102
RTVSPropertyOp52
 70
     0
102
RTVSPropertyOp53
 70
     1
102
RTVSPropertyOp54
 70
     1
102
RTVSPropertyOp55
 70
     1
102
RTVSPropertyOp56
 70
     1
102
RTVSPropertyOp57
 70
     1
102
RTVSPropertyOp58
 70
     1
102
RTVSPropertyOp59
 70
     1
102
RTVSPropertyOp60
 70
     1
102
RTVSPropertyOp61
 70
     1
102
RTVSPropertyOp62
 70
     1
  0
XRECORD
  5
3F0
102
{ACAD_REACTORS
330
3EF
102
}
330
3EF
100
AcDbXrecord
280
     1
102
RTVSPost2010Prop28
280
     0
102
RTVSPost2010PropOp28
 70
     1
102
RTVSPost2010Prop29
280
     1
102
RTVSPost2010PropOp29
 70
     1
102
RTVSPost2010Prop30
280
     1
102
RTVSPost2010PropOp30
 70
     1
102
RTVSPost2010Prop31
280
     0
102
RTVSPost2010PropOp31
 70
     1
102
RTVSPost2010Prop32
280
     0
102
RTVSPost2010PropOp32
 70
     1
102
RTVSPost2010Prop33
280
     0
102
RTVSPost2010PropOp33
 70
     1
102
RTVSPost2010Prop34
280
     0
102
RTVSPost2010PropOp34
 70
     1
102
RTVSPost2010Prop35
280
     0
102
RTVSPost2010PropOp35
 70
     1
102
RTVSPost2010Prop36
280
     0
102
RTVSPost2010PropOp36
 70
     1
102
RTVSPost2010Prop37
 90
       50
102
RTVSPost2010PropOp37
 70
     1
102
RTVSPost2010Prop38
140
0.0
102
RTVSPost2010PropOp38
 70
     1
102
RTVSPost2010Prop39
140
1.0
102
RTVSPost2010PropOp39
 70
     1
102
RTVSPost2010Prop40
 90
        0
102
RTVSPost2010PropOp40
 70
     1
102
RTVSPost2010Prop41ColorIndex
 90
       18
102
RTVSPost2010Prop41ColorRGB
 90
        0
102
RTVSPost2010PropOp41
 70
     1
102
RTVSPost2010Prop42
 90
       50
102
RTVSPost2010PropOp42
 70
     1
102
RTVSPost2010Prop43
 90
        3
102
RTVSPost2010PropOp43
 70
     1
102
RTVSPost2010Prop44ColorIndex
 90
        5
102
RTVSPost2010Prop44ColorRGB
 90
      255
102
RTVSPost2010PropOp44
 70
     1
102
RTVSPost2010Prop45
280
     0
102
RTVSPost2010PropOp45
 70
     1
102
RTVSPost2010Prop46
 90
       50
102
RTVSPost2010PropOp46
 70
     1
102
RTVSPost2010Prop47
 90
       50
102
RTVSPost2010PropOp47
 70
     1
102
RTVSPost2010Prop48
 90
       50
102
RTVSPost2010PropOp48
 70
     1
102
RTVSPost2010Prop49
280
     0
102
RTVSPost2010PropOp49
 70
     1
102
RTVSPost2010Prop50
 90
       50
102
RTVSPost2010PropOp50
 70
     1
102
RTVSPost2010Prop51ColorIndex
 90
      256
102
RTVSPost2010Prop51ColorRGB
 90
-16777216
102
RTVSPost2010PropOp51
 70
     0
102
RTVSPost2010Prop52
140
1.0
102
RTVSPost2010PropOp52
 70
     0
102
RTVSPost2010Prop53
 90
        2
102
RTVSPost2010PropOp53
 70
     1
102
RTVSPost2010Prop54
  1
strokes_ogs.tif
102
RTVSPost2010PropOp54
 70
     1
102
RTVSPost2010Prop55
280
     0
102
RTVSPost2010PropOp55
 70
     1
102
RTVSPost2010Prop56
140
1.0
102
RTVSPost2010PropOp56
 70
     1
102
RTVSPost2010Prop57
140
1.0
102
RTVSPost2010PropOp57
 70
     1
102
RTVSPropertyOp0
 70
     1
102
RTVSPropertyOp1
 70
     1
102
RTVSPropertyOp2
 70
     1
102
RTVSPropertyOp3
 70
     1
102
RTVSPropertyOp4
 70
     1
102
RTVSPropertyOp5
 70
     1
102
RTVSPropertyOp6
 70
     1
102
RTVSPropertyOp7
 70
     1
102
RTVSPropertyOp8
 70
     1
102
RTVSPropertyOp9
 70
     1
102
RTVSPropertyOp10
 70
     1
102
RTVSPropertyOp11
 70
     1
102
RTVSPropertyOp12
 70
     1
102
RTVSPropertyOp13
 70
     1
102
RTVSPropertyOp14
 70
     1
102
RTVSPropertyOp15
 70
     1
102
RTVSPropertyOp16
 70
     1
102
RTVSPropertyOp17
 70
     1
102
RTVSPropertyOp18
 70
     1
102
RTVSPropertyOp19
 70
     1
102
RTVSPropertyOp20
 70
     1
102
RTVSPropertyOp21
 70
     1
102
RTVSPropertyOp22
 70
     1
102
RTVSPropertyOp23
 70
     1
102
RTVSPropertyOp24
 70
     1
102
RTVSPropertyOp25
 70
     1
102
RTVSPropertyOp26
 70
     1
102
RTVSPropertyOp27
 70
     1
102
RTVSPropertyOp28
 70
     1
102
RTVSPropertyOp29
 70
     1
102
RTVSPropertyOp30
 70
     1
102
RTVSPropertyOp31
 70
     1
102
RTVSPropertyOp32
 70
     1
102
RTVSPropertyOp33
 70
     1
102
RTVSPropertyOp34
 70
     1
102
RTVSPropertyOp35
 70
     1
102
RTVSPropertyOp36
 70
     1
102
RTVSPropertyOp37
 70
     1
102
RTVSPropertyOp38
 70
     1
102
RTVSPropertyOp39
 70
     1
102
RTVSPropertyOp40
 70
     1
102
RTVSPropertyOp41
 70
     1
102
RTVSPropertyOp42
 70
     1
102
RTVSPropertyOp43
 70
     1
102
RTVSPropertyOp44
 70
     1
102
RTVSPropertyOp45
 70
     1
102
RTVSPropertyOp46
 70
     1
102
RTVSPropertyOp47
 70
     1
102
RTVSPropertyOp48
 70
     1
102
RTVSPropertyOp49
 70
     1
102
RTVSPropertyOp50
 70
     1
102
RTVSPropertyOp51
 70
     0
102
RTVSPropertyOp52
 70
     0
102
RTVSPropertyOp53
 70
     1
102
RTVSPropertyOp54
 70
     1
102
RTVSPropertyOp55
 70
     1
102
RTVSPropertyOp56
 70
     1
102
RTVSPropertyOp57
 70
     1
102
RTVSPropertyOp58
 70
     1
102
RTVSPropertyOp59
 70
     1
102
RTVSPropertyOp60
 70
     1
102
RTVSPropertyOp61
 70
     1
102
RTVSPropertyOp62
 70
     1
  0
ENDSEC
  0
EOF
