  0
SECTION
  2
HEADER
  9
$ACADVER
  1
AC1018
  9
$ACADMAINTVER
 70
   104
  9
$DWGCODEPAGE
  3
ANSI_1250
  9
$LASTSAVEDBY
  1
wq7085
  9
$INSBASE
 10
0.0
 20
0.0
 30
0.0
  9
$EXTMIN
 10
170.4845713333333
 20
114.534924
 30
0.0
  9
$EXTMAX
 10
481.8919309999999
 20
351.9336746666668
 30
0.0
  9
$LIMMIN
 10
-0.5
 20
-0.5
  9
$LIMMAX
 10
5.0
 20
5.0
  9
$ORTHOMODE
 70
     1
  9
$REGENMODE
 70
     1
  9
$FILLMODE
 70
     1
  9
$QTEXTMODE
 70
     0
  9
$MIRRTEXT
 70
     1
  9
$LTSCALE
 40
1.0
  9
$ATTMODE
 70
     1
  9
$TEXTSIZE
 40
0.2
  9
$TRACEWID
 40
0.05
  9
$TEXTSTYLE
  7
Standard
  9
$CLAYER
  8
0
  9
$CELTYPE
  6
ByLayer
  9
$CECOLOR
 62
   256
  9
$CELTSCALE
 40
1.0
  9
$DISPSILH
 70
     0
  9
$DIMSCALE
 40
1.0
  9
$DIMASZ
 40
0.18
  9
$DIMEXO
 40
0.0625
  9
$DIMDLI
 40
0.38
  9
$DIMRND
 40
0.0
  9
$DIMDLE
 40
0.0
  9
$DIMEXE
 40
0.18
  9
$DIMTP
 40
0.0
  9
$DIMTM
 40
0.0
  9
$DIMTXT
 40
0.18
  9
$DIMCEN
 40
0.09
  9
$DIMTSZ
 40
0.0
  9
$DIMTOL
 70
     0
  9
$DIMLIM
 70
     0
  9
$DIMTIH
 70
     1
  9
$DIMTOH
 70
     1
  9
$DIMSE1
 70
     0
  9
$DIMSE2
 70
     0
  9
$DIMTAD
 70
     0
  9
$DIMZIN
 70
     0
  9
$DIMBLK
  1

  9
$DIMASO
 70
     1
  9
$DIMSHO
 70
     1
  9
$DIMPOST
  1

  9
$DIMAPOST
  1

  9
$DIMALT
 70
     0
  9
$DIMALTD
 70
     2
  9
$DIMALTF
 40
25.4
  9
$DIMLFAC
 40
1.0
  9
$DIMTOFL
 70
     0
  9
$DIMTVP
 40
0.0
  9
$DIMTIX
 70
     0
  9
$DIMSOXD
 70
     0
  9
$DIMSAH
 70
     0
  9
$DIMBLK1
  1

  9
$DIMBLK2
  1

  9
$DIMSTYLE
  2
Standard
  9
$DIMCLRD
 70
     0
  9
$DIMCLRE
 70
     0
  9
$DIMCLRT
 70
     0
  9
$DIMTFAC
 40
1.0
  9
$DIMGAP
 40
0.09
  9
$DIMJUST
 70
     0
  9
$DIMSD1
 70
     0
  9
$DIMSD2
 70
     0
  9
$DIMTOLJ
 70
     1
  9
$DIMTZIN
 70
     0
  9
$DIMALTZ
 70
     0
  9
$DIMALTTZ
 70
     0
  9
$DIMUPT
 70
     0
  9
$DIMDEC
 70
     4
  9
$DIMTDEC
 70
     4
  9
$DIMALTU
 70
     2
  9
$DIMALTTD
 70
     2
  9
$DIMTXSTY
  7
Standard
  9
$DIMAUNIT
 70
     0
  9
$DIMADEC
 70
     0
  9
$DIMALTRND
 40
0.0
  9
$DIMAZIN
 70
     0
  9
$DIMDSEP
 70
    46
  9
$DIMATFIT
 70
     3
  9
$DIMFRAC
 70
     0
  9
$DIMLDRBLK
  1

  9
$DIMLUNIT
 70
     2
  9
$DIMLWD
 70
    -2
  9
$DIMLWE
 70
    -2
  9
$DIMTMOVE
 70
     0
  9
$LUNITS
 70
     2
  9
$LUPREC
 70
     4
  9
$SKETCHINC
 40
0.1
  9
$FILLETRAD
 40
0.5
  9
$AUNITS
 70
     0
  9
$AUPREC
 70
     0
  9
$MENU
  1
.
  9
$ELEVATION
 40
0.0
  9
$PELEVATION
 40
0.0
  9
$THICKNESS
 40
0.0
  9
$LIMCHECK
 70
     0
  9
$CHAMFERA
 40
0.0
  9
$CHAMFERB
 40
0.0
  9
$CHAMFERC
 40
0.0
  9
$CHAMFERD
 40
0.0
  9
$SKPOLY
 70
     0
  9
$TDCREATE
 40
2459089.510486111
  9
$TDUCREATE
 40
2459089.427159815
  9
$TDUPDATE
 40
2459089.512245371
  9
$TDUUPDATE
 40
2459089.428912037
  9
$TDINDWG
 40
0.0010185301
  9
$TDUSRTIMER
 40
0.0010185301
  9
$USRTIMER
 70
     1
  9
$ANGBASE
 50
0.0
  9
$ANGDIR
 70
     0
  9
$PDMODE
 70
     0
  9
$PDSIZE
 40
0.0
  9
$PLINEWID
 40
0.0
  9
$SPLFRAME
 70
     0
  9
$SPLINETYPE
 70
     6
  9
$SPLINESEGS
 70
     8
  9
$HANDSEED
  5
3C1
  9
$SURFTAB1
 70
     6
  9
$SURFTAB2
 70
     6
  9
$SURFTYPE
 70
     6
  9
$SURFU
 70
     6
  9
$SURFV
 70
     6
  9
$UCSBASE
  2

  9
$UCSNAME
  2

  9
$UCSORG
 10
274.404842
 20
288.907994
 30
0.0
  9
$UCSXDIR
 10
1.0
 20
0.0
 30
0.0
  9
$UCSYDIR
 10
0.0
 20
1.0
 30
0.0
  9
$UCSORTHOREF
  2

  9
$UCSORTHOVIEW
 70
     0
  9
$UCSORGTOP
 10
0.0
 20
0.0
 30
0.0
  9
$UCSORGBOTTOM
 10
0.0
 20
0.0
 30
0.0
  9
$UCSORGLEFT
 10
0.0
 20
0.0
 30
0.0
  9
$UCSORGRIGHT
 10
0.0
 20
0.0
 30
0.0
  9
$UCSORGFRONT
 10
0.0
 20
0.0
 30
0.0
  9
$UCSORGBACK
 10
0.0
 20
0.0
 30
0.0
  9
$PUCSBASE
  2

  9
$PUCSNAME
  2

  9
$PUCSORG
 10
0.0
 20
0.0
 30
0.0
  9
$PUCSXDIR
 10
1.0
 20
0.0
 30
0.0
  9
$PUCSYDIR
 10
0.0
 20
1.0
 30
0.0
  9
$PUCSORTHOREF
  2

  9
$PUCSORTHOVIEW
 70
     0
  9
$PUCSORGTOP
 10
0.0
 20
0.0
 30
0.0
  9
$PUCSORGBOTTOM
 10
0.0
 20
0.0
 30
0.0
  9
$PUCSORGLEFT
 10
0.0
 20
0.0
 30
0.0
  9
$PUCSORGRIGHT
 10
0.0
 20
0.0
 30
0.0
  9
$PUCSORGFRONT
 10
0.0
 20
0.0
 30
0.0
  9
$PUCSORGBACK
 10
0.0
 20
0.0
 30
0.0
  9
$USERI1
 70
     0
  9
$USERI2
 70
     0
  9
$USERI3
 70
     0
  9
$USERI4
 70
     0
  9
$USERI5
 70
     0
  9
$USERR1
 40
0.0
  9
$USERR2
 40
0.0
  9
$USERR3
 40
0.0
  9
$USERR4
 40
0.0
  9
$USERR5
 40
0.0
  9
$WORLDVIEW
 70
     1
  9
$SHADEDGE
 70
     3
  9
$SHADEDIF
 70
    70
  9
$TILEMODE
 70
     1
  9
$MAXACTVP
 70
    64
  9
$PINSBASE
 10
0.0
 20
0.0
 30
0.0
  9
$PLIMCHECK
 70
     0
  9
$PEXTMIN
 10
-0.5
 20
-0.5
 30
-0.5
  9
$PEXTMAX
 10
5.0
 20
5.0
 30
5.0
  9
$PLIMMIN
 10
-0.5
 20
-0.5
  9
$PLIMMAX
 10
5.0
 20
5.0
  9
$UNITMODE
 70
     0
  9
$VISRETAIN
 70
     1
  9
$PLINEGEN
 70
     0
  9
$PSLTSCALE
 70
     1
  9
$TREEDEPTH
 70
  3020
  9
$CMLSTYLE
  2
Standard
  9
$CMLJUST
 70
     0
  9
$CMLSCALE
 40
1.0
  9
$PROXYGRAPHICS
 70
     1
  9
$MEASUREMENT
 70
     1
  9
$CELWEIGHT
370
    13
  9
$ENDCAPS
280
     0
  9
$JOINSTYLE
280
     0
  9
$LWDISPLAY
290
     0
  9
$INSUNITS
 70
     4
  9
$HYPERLINKBASE
  1

  9
$STYLESHEET
  1

  9
$XEDIT
290
     1
  9
$CEPSNTYPE
380
     0
  9
$PSTYLEMODE
290
     1
  9
$FINGERPRINTGUID
  2
{87B390A8-75AE-4437-9400-14D3AA1A607C}
  9
$VERSIONGUID
  2
{53EF64D7-C287-F041-9B93-97B86BCE7EDE}
  9
$EXTNAMES
290
     1
  9
$PSVPSCALE
 40
0.0
  9
$OLESTARTUP
290
     0
  9
$SORTENTS
280
   127
  9
$INDEXCTL
280
     0
  9
$HIDETEXT
280
     1
  9
$XCLIPFRAME
290
     0
  9
$HALOGAP
280
     0
  9
$OBSCOLOR
 70
   257
  9
$OBSLTYPE
280
     0
  9
$INTERSECTIONDISPLAY
280
     0
  9
$INTERSECTIONCOLOR
 70
   257
  9
$DIMASSOC
280
     2
  9
$PROJECTNAME
  1

  0
ENDSEC
  0
SECTION
  2
CLASSES
  0
CLASS
  1
ACDBDICTIONARYWDFLT
  2
AcDbDictionaryWithDefault
  3
ObjectDBX Classes
 90
        0
 91
        1
280
     0
281
     0
  0
CLASS
  1
VISUALSTYLE
  2
AcDbVisualStyle
  3
ObjectDBX Classes
 90
     4095
 91
       24
280
     0
281
     0
  0
CLASS
  1
MATERIAL
  2
AcDbMaterial
  3
ObjectDBX Classes
 90
     1153
 91
        3
280
     0
281
     0
  0
CLASS
  1
SCALE
  2
AcDbScale
  3
ObjectDBX Classes
 90
     1153
 91
       33
280
     0
281
     0
  0
CLASS
  1
TABLESTYLE
  2
AcDbTableStyle
  3
ObjectDBX Classes
 90
     4095
 91
        1
280
     0
281
     0
  0
CLASS
  1
MLEADERSTYLE
  2
AcDbMLeaderStyle
  3
ACDB_MLEADERSTYLE_CLASS
 90
     4095
 91
        1
280
     0
281
     0
  0
CLASS
  1
SUN
  2
AcDbSun
  3
SCENEOE
 90
     1153
 91
        0
280
     0
281
     0
  0
CLASS
  1
DIMASSOC
  2
AcDbDimAssoc
  3
"AcDbDimAssoc|Product Desc:     AcDim ARX App For Dimension|Company:          Autodesk, Inc.|WEB Address:      www.autodesk.com"
 90
        0
 91
        7
280
     0
281
     0
  0
CLASS
  1
DICTIONARYVAR
  2
AcDbDictionaryVar
  3
ObjectDBX Classes
 90
        0
 91
        8
280
     0
281
     0
  0
CLASS
  1
CELLSTYLEMAP
  2
AcDbCellStyleMap
  3
ObjectDBX Classes
 90
     1152
 91
        2
280
     0
281
     0
  0
CLASS
  1
ACDBSECTIONVIEWSTYLE
  2
AcDbSectionViewStyle
  3
ObjectDBX Classes
 90
     1025
 91
        1
280
     0
281
     0
  0
CLASS
  1
ACDBDETAILVIEWSTYLE
  2
AcDbDetailViewStyle
  3
ObjectDBX Classes
 90
     1025
 91
        1
280
     0
281
     0
  0
CLASS
  1
SORTENTSTABLE
  2
AcDbSortentsTable
  3
ObjectDBX Classes
 90
        0
 91
        1
280
     0
281
     0
  0
ENDSEC
  0
SECTION
  2
TABLES
  0
TABLE
  2
VPORT
  5
8
330
0
100
AcDbSymbolTable
 70
    16
  0
VPORT
  5
29
330
8
100
AcDbSymbolTableRecord
100
AcDbViewportTableRecord
  2
*Active
 70
     0
 10
0.0
 20
0.0
 11
1.0
 21
1.0
 12
340.4500910951067
 22
292.4416878346268
 13
0.0
 23
0.0
 14
0.5
 24
0.5
 15
0.5
 25
0.5
 16
0.0
 26
0.0
 36
1.0
 17
0.0
 27
0.0
 37
0.0
 40
217.6900385114828
 41
2.292712066905615
 42
50.0
 43
524.8224709999999
 44
-524.8224709999999
 50
0.0
 51
0.0
 71
     0
 72
   100
 73
     1
 74
     3
 75
     0
 76
     0
 77
     0
 78
     0
281
     0
 65
     1
110
274.404842
120
288.907994
130
0.0
111
1.0
121
0.0
131
0.0
112
0.0
122
1.0
132
0.0
 79
     0
146
0.0
1001
ACAD_NAV_VCDISPLAY
1070
     3
  0
VPORT
  5
2BD
330
8
100
AcDbSymbolTableRecord
100
AcDbViewportTableRecord
  2
L1
 70
     0
 10
0.0
 20
0.0
 11
1.0
 21
1.0
 12
325.684044
 22
233.121951
 13
0.0
 23
0.0
 14
0.5
 24
0.5
 15
0.5
 25
0.5
 16
0.0
 26
0.0
 36
1.0
 17
0.0
 27
0.0
 37
0.0
 40
207.433333
 41
0.085602
 42
50.0
 43
524.8224709999999
 44
-524.8224709999999
 50
0.0
 51
0.0
 71
     0
 72
   100
 73
     1
 74
     3
 75
     0
 76
     0
 77
     0
 78
     0
281
     0
 65
     1
110
0.0
120
0.0
130
0.0
111
1.0
121
0.0
131
0.0
112
0.0
122
1.0
132
0.0
 79
     0
146
0.0
  0
VPORT
  5
2BE
330
8
100
AcDbSymbolTableRecord
100
AcDbViewportTableRecord
  2
L2
 70
     0
 10
0.0
 20
0.0
 11
0.5
 21
1.0
 12
0.0
 22
0.0
 13
0.0
 23
0.0
 14
0.5
 24
0.5
 15
0.5
 25
0.5
 16
0.0
 26
-1.0
 36
0.0
 17
0.0
 27
0.0
 37
0.0
 40
1316.18997
 41
0.013491
 42
50.0
 43
678.00864
 44
-678.00864
 50
0.0
 51
0.0
 71
     0
 72
   100
 73
     1
 74
     3
 75
     0
 76
     0
 77
     0
 78
     0
281
     0
 65
     1
110
0.0
120
0.0
130
0.0
111
1.0
121
0.0
131
0.0
112
0.0
122
1.0
132
0.0
 79
     0
146
0.0
  0
VPORT
  5
2BF
330
8
100
AcDbSymbolTableRecord
100
AcDbViewportTableRecord
  2
L2
 70
     0
 10
0.5
 20
0.0
 11
1.0
 21
1.0
 12
0.0
 22
0.0
 13
0.0
 23
0.0
 14
0.5
 24
0.5
 15
0.5
 25
0.5
 16
1.0
 26
0.0
 36
0.0
 17
0.0
 27
0.0
 37
0.0
 40
1316.18997
 41
0.013491
 42
50.0
 43
666.2177989999999
 44
-666.2177989999999
 50
0.0
 51
0.0
 71
     0
 72
   100
 73
     1
 74
     3
 75
     0
 76
     0
 77
     0
 78
     0
281
     0
 65
     1
110
0.0
120
0.0
130
0.0
111
1.0
121
0.0
131
0.0
112
0.0
122
1.0
132
0.0
 79
     0
146
0.0
  0
VPORT
  5
2C0
330
8
100
AcDbSymbolTableRecord
100
AcDbViewportTableRecord
  2
L3
 70
     0
 10
0.0
 20
0.5
 11
1.0
 21
1.0
 12
325.684044
 22
233.121951
 13
0.0
 23
0.0
 14
0.5
 24
0.5
 15
0.5
 25
0.5
 16
0.0
 26
0.0
 36
1.0
 17
0.0
 27
0.0
 37
0.0
 40
207.433333
 41
0.085602
 42
50.0
 43
524.8224709999999
 44
-524.8224709999999
 50
0.0
 51
0.0
 71
     0
 72
   100
 73
     1
 74
     3
 75
     0
 76
     0
 77
     0
 78
     0
281
     0
 65
     1
110
0.0
120
0.0
130
0.0
111
1.0
121
0.0
131
0.0
112
0.0
122
1.0
132
0.0
 79
     0
146
0.0
  0
VPORT
  5
2C1
330
8
100
AcDbSymbolTableRecord
100
AcDbViewportTableRecord
  2
L3
 70
     0
 10
0.0
 20
0.0
 11
1.0
 21
0.5
 12
0.0
 22
0.0
 13
0.0
 23
0.0
 14
0.5
 24
0.5
 15
0.5
 25
0.5
 16
0.0
 26
-1.0
 36
0.0
 17
0.0
 27
0.0
 37
0.0
 40
1316.18997
 41
0.013491
 42
50.0
 43
678.00864
 44
-678.00864
 50
0.0
 51
0.0
 71
     0
 72
   100
 73
     1
 74
     3
 75
     0
 76
     0
 77
     0
 78
     0
281
     0
 65
     1
110
0.0
120
0.0
130
0.0
111
1.0
121
0.0
131
0.0
112
0.0
122
1.0
132
0.0
 79
     0
146
0.0
  0
VPORT
  5
2C2
330
8
100
AcDbSymbolTableRecord
100
AcDbViewportTableRecord
  2
L4
 70
     0
 10
0.0
 20
0.5
 11
0.5
 21
1.0
 12
325.684044
 22
233.121951
 13
0.0
 23
0.0
 14
0.5
 24
0.5
 15
0.5
 25
0.5
 16
0.0
 26
0.0
 36
1.0
 17
0.0
 27
0.0
 37
0.0
 40
207.433333
 41
0.085602
 42
50.0
 43
524.8224709999999
 44
-524.8224709999999
 50
0.0
 51
0.0
 71
     0
 72
   100
 73
     1
 74
     3
 75
     0
 76
     0
 77
     0
 78
     0
281
     0
 65
     1
110
0.0
120
0.0
130
0.0
111
1.0
121
0.0
131
0.0
112
0.0
122
1.0
132
0.0
 79
     0
146
0.0
  0
VPORT
  5
2C3
330
8
100
AcDbSymbolTableRecord
100
AcDbViewportTableRecord
  2
L4
 70
     0
 10
0.0
 20
0.0
 11
0.5
 21
0.5
 12
0.0
 22
0.0
 13
0.0
 23
0.0
 14
0.5
 24
0.5
 15
0.5
 25
0.5
 16
0.0
 26
-1.0
 36
0.0
 17
0.0
 27
0.0
 37
0.0
 40
1316.18997
 41
0.013491
 42
50.0
 43
678.00864
 44
-678.00864
 50
0.0
 51
0.0
 71
     0
 72
   100
 73
     1
 74
     3
 75
     0
 76
     0
 77
     0
 78
     0
281
     0
 65
     1
110
0.0
120
0.0
130
0.0
111
1.0
121
0.0
131
0.0
112
0.0
122
1.0
132
0.0
 79
     0
146
0.0
  0
VPORT
  5
2C4
330
8
100
AcDbSymbolTableRecord
100
AcDbViewportTableRecord
  2
L4
 70
     0
 10
0.5
 20
0.0
 11
1.0
 21
0.5
 12
0.0
 22
0.0
 13
0.0
 23
0.0
 14
0.5
 24
0.5
 15
0.5
 25
0.5
 16
1.0
 26
0.0
 36
0.0
 17
0.0
 27
0.0
 37
0.0
 40
1316.18997
 41
0.013491
 42
50.0
 43
666.2177989999999
 44
-666.2177989999999
 50
0.0
 51
0.0
 71
     0
 72
   100
 73
     1
 74
     3
 75
     0
 76
     0
 77
     0
 78
     0
281
     0
 65
     1
110
0.0
120
0.0
130
0.0
111
1.0
121
0.0
131
0.0
112
0.0
122
1.0
132
0.0
 79
     0
146
0.0
  0
VPORT
  5
2C5
330
8
100
AcDbSymbolTableRecord
100
AcDbViewportTableRecord
  2
L4
 70
     0
 10
0.5
 20
0.5
 11
1.0
 21
1.0
 12
0.0
 22
0.0
 13
0.0
 23
0.0
 14
0.5
 24
0.5
 15
0.5
 25
0.5
 16
0.5773502691896259
 26
-0.5773502691896259
 36
0.5773502691896259
 17
0.0
 27
0.0
 37
0.0
 40
1292.532264
 41
0.013738
 42
50.0
 43
673.245608
 44
-673.245608
 50
0.0
 51
0.0
 71
     0
 72
   100
 73
     1
 74
     3
 75
     0
 76
     0
 77
     0
 78
     0
281
     0
 65
     1
110
0.0
120
0.0
130
0.0
111
1.0
121
0.0
131
0.0
112
0.0
122
1.0
132
0.0
 79
     0
146
0.0
  0
VPORT
  5
2C6
330
8
100
AcDbSymbolTableRecord
100
AcDbViewportTableRecord
  2
L6
 70
     0
 10
0.0
 20
0.5
 11
0.333333
 21
1.0
 12
0.0
 22
0.0
 13
0.0
 23
0.0
 14
0.5
 24
0.5
 15
0.5
 25
0.5
 16
0.7188730927569434
 26
-0.5850486126764433
 36
0.3754192287502549
 17
0.0
 27
0.0
 37
0.0
 40
1364.064247
 41
0.013018
 42
50.0
 43
706.2613849999999
 44
-706.2613849999999
 50
0.0
 51
0.0
 71
     0
 72
   100
 73
     1
 74
     3
 75
     0
 76
     0
 77
     0
 78
     0
281
     0
 65
     1
110
0.0
120
0.0
130
0.0
111
1.0
121
0.0
131
0.0
112
0.0
122
1.0
132
0.0
 79
     0
146
0.0
  0
VPORT
  5
2C7
330
8
100
AcDbSymbolTableRecord
100
AcDbViewportTableRecord
  2
L6
 70
     0
 10
0.0
 20
0.0
 11
0.333333
 21
0.5
 12
0.0
 22
0.0
 13
0.0
 23
0.0
 14
0.5
 24
0.5
 15
0.5
 25
0.5
 16
-1.0
 26
0.0
 36
0.0
 17
0.0
 27
0.0
 37
0.0
 40
1316.18997
 41
0.013491
 42
50.0
 43
666.2177989999999
 44
-666.2177989999999
 50
0.0
 51
0.0
 71
     0
 72
   100
 73
     1
 74
     3
 75
     0
 76
     0
 77
     0
 78
     0
281
     0
 65
     1
110
0.0
120
0.0
130
0.0
111
1.0
121
0.0
131
0.0
112
0.0
122
1.0
132
0.0
 79
     0
146
0.0
  0
VPORT
  5
2C8
330
8
100
AcDbSymbolTableRecord
100
AcDbViewportTableRecord
  2
L6
 70
     0
 10
0.333333
 20
0.5
 11
0.666667
 21
1.0
 12
325.684044
 22
233.121951
 13
0.0
 23
0.0
 14
0.5
 24
0.5
 15
0.5
 25
0.5
 16
0.0
 26
0.0
 36
1.0
 17
0.0
 27
0.0
 37
0.0
 40
207.433333
 41
0.085602
 42
50.0
 43
524.8224709999999
 44
-524.8224709999999
 50
0.0
 51
0.0
 71
     0
 72
   100
 73
     1
 74
     3
 75
     0
 76
     0
 77
     0
 78
     0
281
     0
 65
     1
110
0.0
120
0.0
130
0.0
111
1.0
121
0.0
131
0.0
112
0.0
122
1.0
132
0.0
 79
     0
146
0.0
  0
VPORT
  5
2C9
330
8
100
AcDbSymbolTableRecord
100
AcDbViewportTableRecord
  2
L6
 70
     0
 10
0.333333
 20
0.0
 11
0.666667
 21
0.5
 12
0.0
 22
0.0
 13
0.0
 23
0.0
 14
0.5
 24
0.5
 15
0.5
 25
0.5
 16
0.0
 26
-1.0
 36
0.0
 17
0.0
 27
0.0
 37
0.0
 40
1316.18997
 41
0.013491
 42
50.0
 43
678.00864
 44
-678.00864
 50
0.0
 51
0.0
 71
     0
 72
   100
 73
     1
 74
     3
 75
     0
 76
     0
 77
     0
 78
     0
281
     0
 65
     1
110
0.0
120
0.0
130
0.0
111
1.0
121
0.0
131
0.0
112
0.0
122
1.0
132
0.0
 79
     0
146
0.0
  0
VPORT
  5
2CA
330
8
100
AcDbSymbolTableRecord
100
AcDbViewportTableRecord
  2
L6
 70
     0
 10
0.666667
 20
0.5
 11
1.0
 21
1.0
 12
0.0
 22
0.0
 13
0.0
 23
0.0
 14
0.5
 24
0.5
 15
0.5
 25
0.5
 16
0.5773502691896259
 26
-0.5773502691896259
 36
0.5773502691896259
 17
0.0
 27
0.0
 37
0.0
 40
1292.532264
 41
0.013738
 42
50.0
 43
673.245608
 44
-673.245608
 50
0.0
 51
0.0
 71
     0
 72
   100
 73
     1
 74
     3
 75
     0
 76
     0
 77
     0
 78
     0
281
     0
 65
     1
110
0.0
120
0.0
130
0.0
111
1.0
121
0.0
131
0.0
112
0.0
122
1.0
132
0.0
 79
     0
146
0.0
  0
VPORT
  5
2CB
330
8
100
AcDbSymbolTableRecord
100
AcDbViewportTableRecord
  2
L6
 70
     0
 10
0.666667
 20
0.0
 11
1.0
 21
0.5
 12
0.0
 22
0.0
 13
0.0
 23
0.0
 14
0.5
 24
0.5
 15
0.5
 25
0.5
 16
1.0
 26
0.0
 36
0.0
 17
0.0
 27
0.0
 37
0.0
 40
1316.18997
 41
0.013491
 42
50.0
 43
666.2177989999999
 44
-666.2177989999999
 50
0.0
 51
0.0
 71
     0
 72
   100
 73
     1
 74
     3
 75
     0
 76
     0
 77
     0
 78
     0
281
     0
 65
     1
110
0.0
120
0.0
130
0.0
111
1.0
121
0.0
131
0.0
112
0.0
122
1.0
132
0.0
 79
     0
146
0.0
  0
ENDTAB
  0
TABLE
  2
LTYPE
  5
5
330
0
100
AcDbSymbolTable
 70
     8
  0
LTYPE
  5
14
330
5
100
AcDbSymbolTableRecord
100
AcDbLinetypeTableRecord
  2
ByBlock
 70
     0
  3

 72
    65
 73
     0
 40
0.0
  0
LTYPE
  5
15
330
5
100
AcDbSymbolTableRecord
100
AcDbLinetypeTableRecord
  2
ByLayer
 70
     0
  3

 72
    65
 73
     0
 40
0.0
  0
LTYPE
  5
16
330
5
100
AcDbSymbolTableRecord
100
AcDbLinetypeTableRecord
  2
Continuous
 70
     0
  3
Solid line
 72
    65
 73
     0
 40
0.0
  0
LTYPE
  5
6E
330
5
100
AcDbSymbolTableRecord
100
AcDbLinetypeTableRecord
  2
CENTER
 70
     0
  3
____ _ ____ _ ____ _ ____
 72
    65
 73
     4
 40
47.4
 49
22.0
 74
     4
 75
     0
340
0
 46
0.0
 50
0.0
 44
0.0
 45
0.0
 49
-8.5
 74
     4
 75
     0
340
0
 46
0.0
 50
0.0
 44
0.0
 45
0.0
 49
8.5
 74
     4
 75
     0
340
0
 46
0.0
 50
0.0
 44
0.0
 45
0.0
 49
-8.5
 74
     4
 75
     0
340
0
 46
0.0
 50
0.0
 44
0.0
 45
0.0
  0
LTYPE
  5
6F
330
5
100
AcDbSymbolTableRecord
100
AcDbLinetypeTableRecord
  2
DASHDOT
 70
     0
  3
_._._._._._._._._._._._._._._._.
 72
    65
 73
     4
 40
70.0
 49
31.0
 74
     4
 75
     0
340
0
 46
0.0
 50
0.0
 44
0.0
 45
0.0
 49
-13.0
 74
     4
 75
     0
340
0
 46
0.0
 50
0.0
 44
0.0
 45
0.0
 49
13.0
 74
     4
 75
     0
340
0
 46
0.0
 50
0.0
 44
0.0
 45
0.0
 49
-13.0
 74
     4
 75
     0
340
0
 46
0.0
 50
0.0
 44
0.0
 45
0.0
  0
LTYPE
  5
70
330
5
100
AcDbSymbolTableRecord
100
AcDbLinetypeTableRecord
  2
DASHED
 70
     0
  3
__ __ __ __ __ __ __ __ __
 72
    65
 73
     2
 40
25.72
 49
12.86
 74
     4
 75
     0
340
0
 46
0.0
 50
0.0
 44
0.0
 45
0.0
 49
-12.86
 74
     4
 75
     0
340
0
 46
0.0
 50
0.0
 44
0.0
 45
0.0
  0
LTYPE
  5
71
330
5
100
AcDbSymbolTableRecord
100
AcDbLinetypeTableRecord
  2
DOT
 70
     0
  3
.........................
 72
    65
 73
     2
 40
10.0
 49
0.0
 74
     4
 75
     0
340
0
 46
0.0
 50
0.0
 44
0.0
 45
0.0
 49
-10.0
 74
     4
 75
     0
340
0
 46
0.0
 50
0.0
 44
0.0
 45
0.0
  0
LTYPE
  5
72
330
5
100
AcDbSymbolTableRecord
100
AcDbLinetypeTableRecord
  2
PHANTOM
 70
     0
  3
____ _ _ ____ _ _ _____ _ _ ____
 72
    65
 73
     6
 40
50.5
 49
18.0
 74
     4
 75
     0
340
0
 46
0.0
 50
0.0
 44
0.0
 45
0.0
 49
-6.5
 74
     4
 75
     0
340
0
 46
0.0
 50
0.0
 44
0.0
 45
0.0
 49
6.5
 74
     4
 75
     0
340
0
 46
0.0
 50
0.0
 44
0.0
 45
0.0
 49
-6.5
 74
     4
 75
     0
340
0
 46
0.0
 50
0.0
 44
0.0
 45
0.0
 49
6.5
 74
     4
 75
     0
340
0
 46
0.0
 50
0.0
 44
0.0
 45
0.0
 49
-6.5
 74
     4
 75
     0
340
0
 46
0.0
 50
0.0
 44
0.0
 45
0.0
  0
LTYPE
  5
35B
330
5
100
AcDbSymbolTableRecord
100
AcDbLinetypeTableRecord
  2
CENTER2
 70
     0
  3
Center (.5x) ___ _ ___ _ ___ _ ___ _ ___ _ ___
 72
    65
 73
     4
 40
1.125
 49
0.75
 74
     0
 49
-0.125
 74
     0
 49
0.125
 74
     0
 49
-0.125
 74
     0
  0
ENDTAB
  0
TABLE
  2
LAYER
  5
2
330
0
100
AcDbSymbolTable
 70
    22
  0
LAYER
  5
10
102
{ACAD_XDICTIONARY
360
36E
102
}
330
2
100
AcDbSymbolTableRecord
100
AcDbLayerTableRecord
  2
0
 70
     0
 62
     7
  6
Continuous
370
    -3
390
F
  0
LAYER
  5
217
330
2
100
AcDbSymbolTableRecord
100
AcDbLayerTableRecord
  2
Defpoints
 70
     0
 62
     7
  6
Continuous
290
     0
370
    -3
390
F
  0
LAYER
  5
358
102
{ACAD_XDICTIONARY
360
370
102
}
330
2
100
AcDbSymbolTableRecord
100
AcDbLayerTableRecord
  2
1
 70
     0
 62
     4
  6
Continuous
370
    -3
390
F
  0
LAYER
  5
359
102
{ACAD_XDICTIONARY
360
372
102
}
330
2
100
AcDbSymbolTableRecord
100
AcDbLayerTableRecord
  2
2
 70
     0
 62
     7
  6
Continuous
370
    -3
390
F
  0
LAYER
  5
35A
102
{ACAD_XDICTIONARY
360
374
102
}
330
2
100
AcDbSymbolTableRecord
100
AcDbLayerTableRecord
  2
4
 70
     0
 62
     2
  6
CENTER2
370
    -3
390
F
  0
LAYER
  5
35C
102
{ACAD_XDICTIONARY
360
376
102
}
330
2
100
AcDbSymbolTableRecord
100
AcDbLayerTableRecord
  2
SK1
 70
     0
 62
     4
  6
Continuous
370
    -3
390
F
  0
LAYER
  5
35D
102
{ACAD_XDICTIONARY
360
378
102
}
330
2
100
AcDbSymbolTableRecord
100
AcDbLayerTableRecord
  2
SK2
 70
     0
 62
     7
  6
Continuous
370
    -3
390
F
  0
LAYER
  5
35F
102
{ACAD_XDICTIONARY
360
37A
102
}
330
2
100
AcDbSymbolTableRecord
100
AcDbLayerTableRecord
  2
SK4
 70
     0
 62
     2
  6
CENTER2
370
    -3
390
F
  0
LAYER
  5
360
102
{ACAD_XDICTIONARY
360
37C
102
}
330
2
100
AcDbSymbolTableRecord
100
AcDbLayerTableRecord
  2
SK6
 70
     0
 62
     5
  6
Continuous
370
    -3
390
F
  0
LAYER
  5
361
102
{ACAD_XDICTIONARY
360
37E
102
}
330
2
100
AcDbSymbolTableRecord
100
AcDbLayerTableRecord
  2
CUT
 70
     0
 62
     1
  6
Continuous
370
    -3
390
F
  0
LAYER
  5
362
102
{ACAD_XDICTIONARY
360
380
102
}
330
2
100
AcDbSymbolTableRecord
100
AcDbLayerTableRecord
  2
NOCUT
 70
     0
 62
     7
  6
Continuous
370
    -3
390
F
  0
LAYER
  5
363
102
{ACAD_XDICTIONARY
360
382
102
}
330
2
100
AcDbSymbolTableRecord
100
AcDbLayerTableRecord
  2
80
 70
     0
 62
     6
  6
Continuous
370
    -3
390
F
  0
LAYER
  5
364
102
{ACAD_XDICTIONARY
360
384
102
}
330
2
100
AcDbSymbolTableRecord
100
AcDbLayerTableRecord
  2
81
 70
     0
 62
     3
  6
Continuous
370
    -3
390
F
  0
ENDTAB
  0
TABLE
  2
STYLE
  5
3
330
0
100
AcDbSymbolTable
 70
     3
  0
STYLE
  5
11
330
3
100
AcDbSymbolTableRecord
100
AcDbTextStyleTableRecord
  2
Standard
 70
     0
 40
0.0
 41
1.0
 50
0.0
 71
     0
 42
0.2
  3
txt
  4

  0
STYLE
  5
210
330
3
100
AcDbSymbolTableRecord
100
AcDbTextStyleTableRecord
  2
cesky
 70
     0
 40
0.0
 41
1.0
 50
0.0
 71
     0
 42
0.2
  3
simplex.shx
  4

  0
STYLE
  5
211
330
3
100
AcDbSymbolTableRecord
100
AcDbTextStyleTableRecord
  2
DWGDirectTextStyle
 70
     0
 40
0.0
 41
1.0
 50
0.0
 71
     0
 42
0.2
  3
simplex
  4

  0
ENDTAB
  0
TABLE
  2
VIEW
  5
6
330
0
100
AcDbSymbolTable
 70
     0
  0
ENDTAB
  0
TABLE
  2
UCS
  5
7
330
0
100
AcDbSymbolTable
 70
     0
  0
ENDTAB
  0
TABLE
  2
APPID
  5
9
330
0
100
AcDbSymbolTable
 70
     8
  0
APPID
  5
12
330
9
100
AcDbSymbolTableRecord
100
AcDbRegAppTableRecord
  2
ACAD
 70
     0
  0
APPID
  5
213
330
9
100
AcDbSymbolTableRecord
100
AcDbRegAppTableRecord
  2
ACAD_DSTYLE_DIMBREAK
 70
     0
  0
APPID
  5
2CC
330
9
100
AcDbSymbolTableRecord
100
AcDbRegAppTableRecord
  2
ACAD_DSTYLE_DIM_LINETYPE
 70
     0
  0
APPID
  5
2CD
330
9
100
AcDbSymbolTableRecord
100
AcDbRegAppTableRecord
  2
ACAD_DSTYLE_DIM_EXT1_LINETYPE
 70
     0
  0
APPID
  5
2CE
330
9
100
AcDbSymbolTableRecord
100
AcDbRegAppTableRecord
  2
ACAD_DSTYLE_DIM_EXT2_LINETYPE
 70
     0
  0
APPID
  5
30E
330
9
100
AcDbSymbolTableRecord
100
AcDbRegAppTableRecord
  2
ACAD_MLEADERVER
 70
     0
  0
APPID
  5
367
330
9
100
AcDbSymbolTableRecord
100
AcDbRegAppTableRecord
  2
ACAD_EXEMPT_FROM_CAD_STANDARDS
 70
     0
  0
APPID
  5
389
330
9
100
AcDbSymbolTableRecord
100
AcDbRegAppTableRecord
  2
ACAD_NAV_VCDISPLAY
 70
     0
  0
ENDTAB
  0
TABLE
  2
DIMSTYLE
  5
A
330
0
100
AcDbSymbolTable
 70
     2
100
AcDbDimStyleTable
 71
     1
340
27
  0
DIMSTYLE
105
27
330
A
100
AcDbSymbolTableRecord
100
AcDbDimStyleTableRecord
  2
Standard
 70
     0
340
11
1001
ACAD_DSTYLE_DIMBREAK
1070
   391
1040
6.349999999999999
  0
ENDTAB
  0
TABLE
  2
BLOCK_RECORD
  5
1
330
0
100
AcDbSymbolTable
 70
    17
  0
BLOCK_RECORD
  5
1F
102
{ACAD_XDICTIONARY
360
31E
102
}
330
1
100
AcDbSymbolTableRecord
100
AcDbBlockTableRecord
  2
*Model_Space
340
22
  0
BLOCK_RECORD
  5
1B
330
1
100
AcDbSymbolTableRecord
100
AcDbBlockTableRecord
  2
*Paper_Space
340
1E
  0
BLOCK_RECORD
  5
23
330
1
100
AcDbSymbolTableRecord
100
AcDbBlockTableRecord
  2
*Paper_Space0
340
26
  0
BLOCK_RECORD
  5
20A
330
1
100
AcDbSymbolTableRecord
100
AcDbBlockTableRecord
  2
ASSORTED_DRAFT1
340
0
  0
BLOCK_RECORD
  5
218
330
1
100
AcDbSymbolTableRecord
100
AcDbBlockTableRecord
  2
*D2
340
0
  0
BLOCK_RECORD
  5
224
330
1
100
AcDbSymbolTableRecord
100
AcDbBlockTableRecord
  2
_U0
340
0
  0
BLOCK_RECORD
  5
230
330
1
100
AcDbSymbolTableRecord
100
AcDbBlockTableRecord
  2
*D4
340
0
  0
BLOCK_RECORD
  5
23B
330
1
100
AcDbSymbolTableRecord
100
AcDbBlockTableRecord
  2
_U1
340
0
  0
BLOCK_RECORD
  5
246
330
1
100
AcDbSymbolTableRecord
100
AcDbBlockTableRecord
  2
*D6
340
0
  0
BLOCK_RECORD
  5
252
330
1
100
AcDbSymbolTableRecord
100
AcDbBlockTableRecord
  2
_U2
340
0
  0
BLOCK_RECORD
  5
25F
330
1
100
AcDbSymbolTableRecord
100
AcDbBlockTableRecord
  2
*D8
340
0
  0
BLOCK_RECORD
  5
26B
330
1
100
AcDbSymbolTableRecord
100
AcDbBlockTableRecord
  2
_U3
340
0
  0
BLOCK_RECORD
  5
278
330
1
100
AcDbSymbolTableRecord
100
AcDbBlockTableRecord
  2
*D10
340
0
  0
BLOCK_RECORD
  5
284
330
1
100
AcDbSymbolTableRecord
100
AcDbBlockTableRecord
  2
_U4
340
0
  0
BLOCK_RECORD
  5
290
330
1
100
AcDbSymbolTableRecord
100
AcDbBlockTableRecord
  2
*D12
340
0
  0
BLOCK_RECORD
  5
29C
330
1
100
AcDbSymbolTableRecord
100
AcDbBlockTableRecord
  2
_U5
340
0
  0
BLOCK_RECORD
  5
2A8
330
1
100
AcDbSymbolTableRecord
100
AcDbBlockTableRecord
  2
*D14
340
0
  0
BLOCK_RECORD
  5
2B4
330
1
100
AcDbSymbolTableRecord
100
AcDbBlockTableRecord
  2
_U6
340
0
  0
ENDTAB
  0
ENDSEC
  0
SECTION
  2
BLOCKS
  0
BLOCK
  5
20
330
1F
100
AcDbEntity
  8
0
100
AcDbBlockBegin
  2
*Model_Space
 70
     0
 10
0.0
 20
0.0
 30
0.0
  3
*Model_Space
  1

  0
ENDBLK
  5
21
330
1F
100
AcDbEntity
  8
0
100
AcDbBlockEnd
  0
BLOCK
  5
1C
330
1B
100
AcDbEntity
 67
     1
  8
0
100
AcDbBlockBegin
  2
*Paper_Space
 70
     0
 10
0.0
 20
0.0
 30
0.0
  3
*Paper_Space
  1

  0
ENDBLK
  5
1D
330
1B
100
AcDbEntity
 67
     1
  8
0
100
AcDbBlockEnd
  0
BLOCK
  5
24
330
23
100
AcDbEntity
 67
     1
  8
0
100
AcDbBlockBegin
  2
*Paper_Space0
 70
     0
 10
0.0
 20
0.0
 30
0.0
  3
*Paper_Space0
  1

  0
ENDBLK
  5
25
330
23
100
AcDbEntity
 67
     1
  8
0
100
AcDbBlockEnd
  0
BLOCK
  5
20D
330
20A
100
AcDbEntity
  8
0
100
AcDbBlockBegin
  2
ASSORTED_DRAFT1
 70
     0
 10
0.0
 20
0.0
 30
0.0
  3
ASSORTED_DRAFT1
  1

  0
SOLID
  5
20B
330
20A
100
AcDbEntity
  8
0
 62
   254
370
    13
100
AcDbTrace
 10
270.185042
 20
168.534924
 30
0.0
 11
265.185046
 21
167.42645
 31
0.0
 12
265.1850379999999
 22
169.643397
 32
0.0
 13
270.185042
 23
168.534924
 33
0.0
  0
ENDBLK
  5
20E
330
20A
100
AcDbEntity
  8
0
100
AcDbBlockEnd
  0
BLOCK
  5
219
330
218
100
AcDbEntity
  8
0
100
AcDbBlockBegin
  2
*D2
 70
     1
 10
0.0
 20
0.0
 30
0.0
  3
*D2
  1

  0
LINE
  5
21B
330
218
100
AcDbEntity
  8
0
 62
   254
370
    -2
100
AcDbLine
 10
463.404842
 20
309.407994
 30
0.0
 11
463.404842
 21
334.9472990000001
 31
0.0
  0
LINE
  5
21C
330
218
100
AcDbEntity
  8
0
 62
   254
370
    -2
100
AcDbLine
 10
274.404842
 20
288.907994
 30
0.0
 11
274.404842
 21
334.9472990000001
 31
0.0
  0
LINE
  5
21D
330
218
100
AcDbEntity
  8
0
 62
   254
370
    -2
100
AcDbLine
 10
459.9048419999999
 20
333.947299
 30
0.0
 11
277.904842
 21
333.947299
 31
0.0
  0
SOLID
  5
21E
330
218
100
AcDbEntity
  8
0
 62
   254
100
AcDbTrace
 10
459.9048419999999
 20
333.363965
 30
0.0
 11
459.9048419999999
 21
334.530632
 31
0.0
 12
463.404842
 22
333.947299
 32
0.0
 13
463.404842
 23
333.947299
 33
0.0
  0
SOLID
  5
21F
330
218
100
AcDbEntity
  8
0
 62
   254
100
AcDbTrace
 10
277.904842
 20
334.530632
 30
0.0
 11
277.904842
 21
333.363965
 31
0.0
 12
274.404842
 22
333.947299
 32
0.0
 13
274.404842
 23
333.947299
 33
0.0
  0
MTEXT
  5
220
330
218
100
AcDbEntity
  8
0
 62
   254
370
    13
100
AcDbMText
 10
368.904842
 20
339.1972990000001
 30
0.0
 40
3.5
 41
0.0
 71
     5
 72
     1
  1
\A1;189
  7
cesky
 73
     1
 44
1.0
  0
POINT
  5
221
330
218
100
AcDbEntity
  8
Defpoints
 62
     0
100
AcDbPoint
 10
463.404842
 20
309.407994
 30
0.0
  0
POINT
  5
222
330
218
100
AcDbEntity
  8
Defpoints
 62
     0
100
AcDbPoint
 10
274.404842
 20
288.907994
 30
0.0
  0
POINT
  5
223
330
218
100
AcDbEntity
  8
Defpoints
 62
     0
100
AcDbPoint
 10
274.404842
 20
333.947299
 30
0.0
  0
ENDBLK
  5
21A
330
218
100
AcDbEntity
  8
0
100
AcDbBlockEnd
  0
BLOCK
  5
22B
330
224
100
AcDbEntity
  8
0
100
AcDbBlockBegin
  2
_U0
 70
     0
 10
0.0
 20
0.0
 30
0.0
  3
_U0
  1

  0
ENDBLK
  5
22C
330
224
100
AcDbEntity
  8
0
100
AcDbBlockEnd
  0
BLOCK
  5
231
330
230
100
AcDbEntity
  8
0
100
AcDbBlockBegin
  2
*D4
 70
     1
 10
0.0
 20
0.0
 30
0.0
  3
*D4
  1

  0
LINE
  5
233
330
230
100
AcDbEntity
  8
0
 62
   254
370
    -2
100
AcDbLine
 10
291.032259
 20
288.907994
 30
0.0
 11
481.8919309999999
 21
288.907994
 31
0.0
  0
LINE
  5
234
330
230
100
AcDbEntity
  8
0
 62
   254
370
    -2
100
AcDbLine
 10
330.83929
 20
309.407994
 30
0.0
 11
481.8919309999999
 21
309.407994
 31
0.0
  0
LINE
  5
235
330
230
100
AcDbEntity
  8
0
 62
   254
370
    -2
100
AcDbLine
 10
480.8919309999999
 20
288.907994
 30
0.0
 11
480.8919309999999
 21
309.407994
 31
0.0
  0
SOLID
  5
236
330
230
100
AcDbEntity
  8
0
 62
   254
100
AcDbTrace
 10
481.475264
 20
305.907994
 30
0.0
 11
480.308598
 21
305.907994
 31
0.0
 12
480.8919309999999
 22
309.407994
 32
0.0
 13
480.8919309999999
 23
309.407994
 33
0.0
  0
MTEXT
  5
237
330
230
100
AcDbEntity
  8
0
 62
   254
370
    13
100
AcDbMText
 10
475.6419309999999
 20
279.82466
 30
0.0
 40
3.5
 41
0.0
 71
     5
 72
     1
  1
\A1;41
  7
cesky
 11
0.0
 21
1.0
 31
0.0
 73
     1
 44
1.0
  0
POINT
  5
238
330
230
100
AcDbEntity
  8
Defpoints
 62
     0
100
AcDbPoint
 10
291.032259
 20
288.907994
 30
0.0
  0
POINT
  5
239
330
230
100
AcDbEntity
  8
Defpoints
 62
     0
100
AcDbPoint
 10
330.83929
 20
309.407994
 30
0.0
  0
POINT
  5
23A
330
230
100
AcDbEntity
  8
Defpoints
 62
     0
100
AcDbPoint
 10
480.8919309999999
 20
309.407994
 30
0.0
  0
ENDBLK
  5
232
330
230
100
AcDbEntity
  8
0
100
AcDbBlockEnd
  0
BLOCK
  5
241
330
23B
100
AcDbEntity
  8
0
100
AcDbBlockBegin
  2
_U1
 70
     0
 10
0.0
 20
0.0
 30
0.0
  3
_U1
  1

  0
ENDBLK
  5
242
330
23B
100
AcDbEntity
  8
0
100
AcDbBlockEnd
  0
BLOCK
  5
247
330
246
100
AcDbEntity
  8
0
100
AcDbBlockBegin
  2
*D6
 70
     1
 10
0.0
 20
0.0
 30
0.0
  3
*D6
  1

  0
LINE
  5
249
330
246
100
AcDbEntity
  8
0
 62
    95
370
    -2
100
AcDbLine
 10
206.404842
 20
308.907994
 30
0.0
 11
189.475719
 21
308.907994
 31
0.0
  0
LINE
  5
24A
330
246
100
AcDbEntity
  8
0
 62
    95
370
    -2
100
AcDbLine
 10
206.404842
 20
268.907994
 30
0.0
 11
189.475719
 21
268.907994
 31
0.0
  0
LINE
  5
24B
330
246
100
AcDbEntity
  8
0
 62
    95
370
    -2
100
AcDbLine
 10
190.475719
 20
305.407994
 30
0.0
 11
190.475719
 21
272.407994
 31
0.0
  0
SOLID
  5
24C
330
246
100
AcDbEntity
  8
0
 62
    95
100
AcDbTrace
 10
191.059052
 20
305.407994
 30
0.0
 11
189.892385
 21
305.407994
 31
0.0
 12
190.475719
 22
308.907994
 32
0.0
 13
190.475719
 23
308.907994
 33
0.0
  0
SOLID
  5
24D
330
246
100
AcDbEntity
  8
0
 62
    95
100
AcDbTrace
 10
189.892385
 20
272.407994
 30
0.0
 11
191.059052
 21
272.407994
 31
0.0
 12
190.475719
 22
268.907994
 32
0.0
 13
190.475719
 23
268.907994
 33
0.0
  0
MTEXT
  5
24E
330
246
100
AcDbEntity
  8
0
 62
    95
370
    13
100
AcDbMText
 10
185.225719
 20
288.907994
 30
0.0
 40
3.5
 41
0.0
 71
     5
 72
     1
  1
\A1;40
  7
cesky
 11
0.0
 21
1.0
 31
0.0
 73
     1
 44
1.0
  0
POINT
  5
24F
330
246
100
AcDbEntity
  8
Defpoints
 62
     0
100
AcDbPoint
 10
206.404842
 20
308.907994
 30
0.0
  0
POINT
  5
250
330
246
100
AcDbEntity
  8
Defpoints
 62
     0
100
AcDbPoint
 10
206.404842
 20
268.907994
 30
0.0
  0
POINT
  5
251
330
246
100
AcDbEntity
  8
Defpoints
 62
     0
100
AcDbPoint
 10
190.475719
 20
268.907994
 30
0.0
  0
ENDBLK
  5
248
330
246
100
AcDbEntity
  8
0
100
AcDbBlockEnd
  0
BLOCK
  5
25A
330
252
100
AcDbEntity
  8
0
100
AcDbBlockBegin
  2
_U2
 70
     0
 10
0.0
 20
0.0
 30
0.0
  3
_U2
  1

  0
ENDBLK
  5
25B
330
252
100
AcDbEntity
  8
0
100
AcDbBlockEnd
  0
BLOCK
  5
260
330
25F
100
AcDbEntity
  8
0
100
AcDbBlockBegin
  2
*D8
 70
     1
 10
0.0
 20
0.0
 30
0.0
  3
*D8
  1

  0
LINE
  5
262
330
25F
100
AcDbEntity
  8
0
 62
    95
370
    -2
100
AcDbLine
 10
277.154842
 20
313.907994
 30
0.0
 11
174.338654
 21
313.907994
 31
0.0
  0
LINE
  5
263
330
25F
100
AcDbEntity
  8
0
 62
    95
370
    -2
100
AcDbLine
 10
277.154842
 20
263.907994
 30
0.0
 11
174.338654
 21
263.907994
 31
0.0
  0
LINE
  5
264
330
25F
100
AcDbEntity
  8
0
 62
    95
370
    -2
100
AcDbLine
 10
175.338654
 20
310.407994
 30
0.0
 11
175.338654
 21
267.407994
 31
0.0
  0
SOLID
  5
265
330
25F
100
AcDbEntity
  8
0
 62
    95
100
AcDbTrace
 10
175.921988
 20
310.407994
 30
0.0
 11
174.755321
 21
310.407994
 31
0.0
 12
175.338654
 22
313.907994
 32
0.0
 13
175.338654
 23
313.907994
 33
0.0
  0
SOLID
  5
266
330
25F
100
AcDbEntity
  8
0
 62
    95
100
AcDbTrace
 10
174.755321
 20
267.407994
 30
0.0
 11
175.921988
 21
267.407994
 31
0.0
 12
175.338654
 22
263.907994
 32
0.0
 13
175.338654
 23
263.907994
 33
0.0
  0
MTEXT
  5
267
330
25F
100
AcDbEntity
  8
0
 62
    95
370
    13
100
AcDbMText
 10
170.088654
 20
288.907994
 30
0.0
 40
3.5
 41
0.0
 71
     5
 72
     1
  1
\A1;50
  7
cesky
 11
0.0
 21
1.0
 31
0.0
 73
     1
 44
1.0
  0
POINT
  5
268
330
25F
100
AcDbEntity
  8
Defpoints
 62
     0
100
AcDbPoint
 10
277.154842
 20
313.907994
 30
0.0
  0
POINT
  5
269
330
25F
100
AcDbEntity
  8
Defpoints
 62
     0
100
AcDbPoint
 10
277.154842
 20
263.907994
 30
0.0
  0
POINT
  5
26A
330
25F
100
AcDbEntity
  8
Defpoints
 62
     0
100
AcDbPoint
 10
175.338654
 20
263.907994
 30
0.0
  0
ENDBLK
  5
261
330
25F
100
AcDbEntity
  8
0
100
AcDbBlockEnd
  0
BLOCK
  5
273
330
26B
100
AcDbEntity
  8
0
100
AcDbBlockBegin
  2
_U3
 70
     0
 10
0.0
 20
0.0
 30
0.0
  3
_U3
  1

  0
ENDBLK
  5
274
330
26B
100
AcDbEntity
  8
0
100
AcDbBlockEnd
  0
BLOCK
  5
279
330
278
100
AcDbEntity
  8
0
100
AcDbBlockBegin
  2
*D10
 70
     1
 10
0.0
 20
0.0
 30
0.0
  3
*D10
  1

  0
LINE
  5
27B
330
278
100
AcDbEntity
  8
0
 62
   254
370
    -2
100
AcDbLine
 10
463.404842
 20
311.407994
 30
0.0
 11
463.404842
 21
348.392842
 31
0.0
  0
LINE
  5
27C
330
278
100
AcDbEntity
  8
0
 62
   254
370
    -2
100
AcDbLine
 10
204.404842
 20
306.907994
 30
0.0
 11
204.404842
 21
348.392842
 31
0.0
  0
LINE
  5
27D
330
278
100
AcDbEntity
  8
0
 62
   254
370
    -2
100
AcDbLine
 10
459.9048419999999
 20
347.392842
 30
0.0
 11
207.904842
 21
347.392842
 31
0.0
  0
SOLID
  5
27E
330
278
100
AcDbEntity
  8
0
 62
   254
100
AcDbTrace
 10
459.9048419999999
 20
346.809508
 30
0.0
 11
459.9048419999999
 21
347.976175
 31
0.0
 12
463.404842
 22
347.392842
 32
0.0
 13
463.404842
 23
347.392842
 33
0.0
  0
SOLID
  5
27F
330
278
100
AcDbEntity
  8
0
 62
   254
100
AcDbTrace
 10
207.904842
 20
347.976175
 30
0.0
 11
207.904842
 21
346.809508
 31
0.0
 12
204.404842
 22
347.392842
 32
0.0
 13
204.404842
 23
347.392842
 33
0.0
  0
MTEXT
  5
280
330
278
100
AcDbEntity
  8
0
 62
   254
370
    13
100
AcDbMText
 10
333.904842
 20
352.642842
 30
0.0
 40
3.5
 41
0.0
 71
     5
 72
     1
  1
\A1;259
  7
cesky
 73
     1
 44
1.0
  0
POINT
  5
281
330
278
100
AcDbEntity
  8
Defpoints
 62
     0
100
AcDbPoint
 10
463.404842
 20
311.407994
 30
0.0
  0
POINT
  5
282
330
278
100
AcDbEntity
  8
Defpoints
 62
     0
100
AcDbPoint
 10
204.404842
 20
306.907994
 30
0.0
  0
POINT
  5
283
330
278
100
AcDbEntity
  8
Defpoints
 62
     0
100
AcDbPoint
 10
204.404842
 20
347.392842
 30
0.0
  0
ENDBLK
  5
27A
330
278
100
AcDbEntity
  8
0
100
AcDbBlockEnd
  0
BLOCK
  5
28B
330
284
100
AcDbEntity
  8
0
100
AcDbBlockBegin
  2
_U4
 70
     0
 10
0.0
 20
0.0
 30
0.0
  3
_U4
  1

  0
ENDBLK
  5
28C
330
284
100
AcDbEntity
  8
0
100
AcDbBlockEnd
  0
BLOCK
  5
291
330
290
100
AcDbEntity
  8
0
100
AcDbBlockBegin
  2
*D12
 70
     1
 10
0.0
 20
0.0
 30
0.0
  3
*D12
  1

  0
LINE
  5
293
330
290
100
AcDbEntity
  8
0
 62
   254
370
    -2
100
AcDbLine
 10
274.404842
 20
288.907994
 30
0.0
 11
274.404842
 21
334.9472990000001
 31
0.0
  0
LINE
  5
294
330
290
100
AcDbEntity
  8
0
 62
   254
370
    -2
100
AcDbLine
 10
204.404842
 20
303.696669
 30
0.0
 11
204.404842
 21
334.9472990000001
 31
0.0
  0
LINE
  5
295
330
290
100
AcDbEntity
  8
0
 62
   254
370
    -2
100
AcDbLine
 10
270.904842
 20
333.947299
 30
0.0
 11
207.904842
 21
333.947299
 31
0.0
  0
SOLID
  5
296
330
290
100
AcDbEntity
  8
0
 62
   254
100
AcDbTrace
 10
270.904842
 20
333.363965
 30
0.0
 11
270.904842
 21
334.530632
 31
0.0
 12
274.404842
 22
333.947299
 32
0.0
 13
274.404842
 23
333.947299
 33
0.0
  0
SOLID
  5
297
330
290
100
AcDbEntity
  8
0
 62
   254
100
AcDbTrace
 10
207.904842
 20
334.530632
 30
0.0
 11
207.904842
 21
333.363965
 31
0.0
 12
204.404842
 22
333.947299
 32
0.0
 13
204.404842
 23
333.947299
 33
0.0
  0
MTEXT
  5
298
330
290
100
AcDbEntity
  8
0
 62
   254
370
    13
100
AcDbMText
 10
239.404842
 20
339.1972990000001
 30
0.0
 40
3.5
 41
0.0
 71
     5
 72
     1
  1
\A1;70
  7
cesky
 73
     1
 44
1.0
  0
POINT
  5
299
330
290
100
AcDbEntity
  8
Defpoints
 62
     0
100
AcDbPoint
 10
274.404842
 20
288.907994
 30
0.0
  0
POINT
  5
29A
330
290
100
AcDbEntity
  8
Defpoints
 62
     0
100
AcDbPoint
 10
204.404842
 20
303.696669
 30
0.0
  0
POINT
  5
29B
330
290
100
AcDbEntity
  8
Defpoints
 62
     0
100
AcDbPoint
 10
204.404842
 20
333.947299
 30
0.0
  0
ENDBLK
  5
292
330
290
100
AcDbEntity
  8
0
100
AcDbBlockEnd
  0
BLOCK
  5
2A3
330
29C
100
AcDbEntity
  8
0
100
AcDbBlockBegin
  2
_U5
 70
     0
 10
0.0
 20
0.0
 30
0.0
  3
_U5
  1

  0
ENDBLK
  5
2A4
330
29C
100
AcDbEntity
  8
0
100
AcDbBlockEnd
  0
BLOCK
  5
2A9
330
2A8
100
AcDbEntity
  8
0
100
AcDbBlockBegin
  2
*D14
 70
     1
 10
0.0
 20
0.0
 30
0.0
  3
*D14
  1

  0
LINE
  5
2AB
330
2A8
100
AcDbEntity
  8
0
 62
   254
370
    -2
100
AcDbLine
 10
463.404842
 20
309.407994
 30
0.0
 11
463.404842
 21
321.118433
 31
0.0
  0
LINE
  5
2AC
330
2A8
100
AcDbEntity
  8
0
 62
   254
370
    -2
100
AcDbLine
 10
291.424966
 20
309.119984
 30
0.0
 11
291.424966
 21
321.118433
 31
0.0
  0
LINE
  5
2AD
330
2A8
100
AcDbEntity
  8
0
 62
   254
370
    -2
100
AcDbLine
 10
459.9048419999999
 20
320.118433
 30
0.0
 11
294.924966
 21
320.118433
 31
0.0
  0
SOLID
  5
2AE
330
2A8
100
AcDbEntity
  8
0
 62
   254
100
AcDbTrace
 10
459.9048419999999
 20
319.5351
 30
0.0
 11
459.9048419999999
 21
320.701766
 31
0.0
 12
463.404842
 22
320.118433
 32
0.0
 13
463.404842
 23
320.118433
 33
0.0
  0
SOLID
  5
2AF
330
2A8
100
AcDbEntity
  8
0
 62
   254
100
AcDbTrace
 10
294.924966
 20
320.701766
 30
0.0
 11
294.924966
 21
319.5351
 31
0.0
 12
291.424966
 22
320.118433
 32
0.0
 13
291.424966
 23
320.118433
 33
0.0
  0
MTEXT
  5
2B0
330
2A8
100
AcDbEntity
  8
0
 62
   254
370
    13
100
AcDbMText
 10
377.414904
 20
325.368433
 30
0.0
 40
3.5
 41
0.0
 71
     5
 72
     1
  1
\A1;172
  7
cesky
 73
     1
 44
1.0
  0
POINT
  5
2B1
330
2A8
100
AcDbEntity
  8
Defpoints
 62
     0
100
AcDbPoint
 10
463.404842
 20
309.407994
 30
0.0
  0
POINT
  5
2B2
330
2A8
100
AcDbEntity
  8
Defpoints
 62
     0
100
AcDbPoint
 10
291.424966
 20
309.119984
 30
0.0
  0
POINT
  5
2B3
330
2A8
100
AcDbEntity
  8
Defpoints
 62
     0
100
AcDbPoint
 10
291.424966
 20
320.118433
 30
0.0
  0
ENDBLK
  5
2AA
330
2A8
100
AcDbEntity
  8
0
100
AcDbBlockEnd
  0
BLOCK
  5
2BB
330
2B4
100
AcDbEntity
  8
0
100
AcDbBlockBegin
  2
_U6
 70
     0
 10
0.0
 20
0.0
 30
0.0
  3
_U6
  1

  0
ENDBLK
  5
2BC
330
2B4
100
AcDbEntity
  8
0
100
AcDbBlockEnd
  0
ENDSEC
  0
SECTION
  2
ENTITIES
  0
POINT
  5
73
102
{ACAD_REACTORS
330
365
102
}
330
1F
100
AcDbEntity
  8
80
100
AcDbPoint
 10
274.404842
 20
288.907994
 30
0.0
  0
POINT
  5
76
330
1F
100
AcDbEntity
  8
4
 60
     1
100
AcDbPoint
 10
291.032259
 20
288.907994
 30
0.0
  0
POINT
  5
78
330
1F
100
AcDbEntity
  8
4
 60
     1
100
AcDbPoint
 10
462.6775079999999
 20
288.907994
 30
0.0
  0
POINT
  5
79
330
1F
100
AcDbEntity
  8
SK4
 60
     1
100
AcDbPoint
 10
206.404842
 20
288.907994
 30
0.0
  0
POINT
  5
7A
330
1F
100
AcDbEntity
  8
SK4
 60
     1
100
AcDbPoint
 10
274.404842
 20
288.907994
 30
0.0
  0
POINT
  5
7B
330
1F
100
AcDbEntity
  8
SK6
 60
     1
100
AcDbPoint
 10
274.404842
 20
288.907994
 30
0.0
  0
POINT
  5
7C
330
1F
100
AcDbEntity
  8
SK6
 60
     1
100
AcDbPoint
 10
291.424966
 20
309.119984
 30
0.0
  0
LINE
  5
7D
330
1F
100
AcDbEntity
  8
1
100
AcDbLine
 10
462.1168679999999
 20
296.622099
 30
0.0
 11
450.978688
 21
296.23355
 31
0.0
  0
LINE
  5
7F
330
1F
100
AcDbEntity
  8
1
100
AcDbLine
 10
451.9810559999999
 20
298.10586
 30
0.0
 11
451.659241
 21
307.089374
 31
0.0
  0
LINE
  5
80
330
1F
100
AcDbEntity
  8
1
100
AcDbLine
 10
460.9739309999999
 20
298.419571
 30
0.0
 11
451.9810559999999
 21
298.10586
 31
0.0
  0
LINE
  5
81
330
1F
100
AcDbEntity
  8
1
100
AcDbLine
 10
460.652116
 20
307.403085
 30
0.0
 11
460.9739309999999
 21
298.419571
 31
0.0
  0
LINE
  5
82
330
1F
100
AcDbEntity
  8
1
100
AcDbLine
 10
451.659241
 20
307.089374
 30
0.0
 11
460.652116
 21
307.403085
 31
0.0
  0
LINE
  5
83
330
1F
100
AcDbEntity
  8
1
100
AcDbLine
 10
462.1351989999999
 20
289.48638
 30
0.0
 11
462.68309
 21
289.157174
 31
0.0
  0
LINE
  5
84
330
1F
100
AcDbEntity
  8
1
100
AcDbLine
 10
462.5062139999999
 20
277.928159
 30
0.0
 11
461.612441
 21
277.432733
 31
0.0
  0
LINE
  5
85
330
1F
100
AcDbEntity
  8
1
100
AcDbLine
 10
462.0253429999999
 20
278.426115
 30
0.0
 11
462.5062139999999
 21
277.928159
 31
0.0
  0
LINE
  5
86
330
1F
100
AcDbEntity
  8
1
100
AcDbLine
 10
463.253269
 20
279.171467
 30
0.0
 11
462.5062139999999
 21
277.928159
 31
0.0
  0
LINE
  5
87
330
1F
100
AcDbEntity
  8
1
100
AcDbLine
 10
462.185134
 20
288.676303
 30
0.0
 11
462.68309
 21
289.157174
 31
0.0
  0
LINE
  5
88
330
1F
100
AcDbEntity
  8
1
100
AcDbLine
 10
462.68309
 20
289.157174
 30
0.0
 11
463.404842
 21
287.855099
 31
0.0
  0
LINE
  5
89
330
1F
100
AcDbEntity
  8
1
100
AcDbLine
 10
462.733164
 20
287.68763
 30
0.0
 11
463.404842
 21
287.855099
 31
0.0
  0
LINE
  5
8A
330
1F
100
AcDbEntity
  8
1
100
AcDbLine
 10
462.587844
 20
279.362274
 30
0.0
 11
463.253269
 21
279.171467
 31
0.0
  0
LINE
  5
8B
330
1F
100
AcDbEntity
  8
1
100
AcDbLine
 10
463.404842
 20
287.855099
 30
0.0
 11
463.253269
 21
279.171467
 31
0.0
  0
LINE
  5
8C
330
1F
100
AcDbEntity
  8
1
100
AcDbLine
 10
462.733164
 20
287.68763
 30
0.0
 11
462.587844
 21
279.362274
 31
0.0
  0
LINE
  5
8D
330
1F
100
AcDbEntity
  8
1
100
AcDbLine
 10
462.733164
 20
287.68763
 30
0.0
 11
462.0872179999999
 21
287.526578
 31
0.0
  0
LINE
  5
8E
330
1F
100
AcDbEntity
  8
1
100
AcDbLine
 10
462.185134
 20
288.676303
 30
0.0
 11
462.733164
 21
287.68763
 31
0.0
  0
LINE
  5
8F
330
1F
100
AcDbEntity
  8
1
100
AcDbLine
 10
462.587844
 20
279.362274
 30
0.0
 11
461.947912
 21
279.545771
 31
0.0
  0
LINE
  5
90
330
1F
100
AcDbEntity
  8
1
100
AcDbLine
 10
462.587844
 20
279.362274
 30
0.0
 11
462.0253429999999
 21
278.426115
 31
0.0
  0
LINE
  5
91
330
1F
100
AcDbEntity
  8
1
100
AcDbLine
 10
462.0253429999999
 20
278.426115
 30
0.0
 11
461.562895
 21
278.904995
 31
0.0
  0
LINE
  5
92
330
1F
100
AcDbEntity
  8
1
100
AcDbLine
 10
462.0253429999999
 20
278.426115
 30
0.0
 11
461.397351
 21
278.078013
 31
0.0
  0
LINE
  5
93
330
1F
100
AcDbEntity
  8
1
100
AcDbLine
 10
461.562895
 20
278.904995
 30
0.0
 11
461.947912
 21
279.545771
 31
0.0
  0
LINE
  5
94
330
1F
100
AcDbEntity
  8
1
100
AcDbLine
 10
461.947912
 20
279.545771
 30
0.0
 11
462.0872179999999
 21
287.526578
 31
0.0
  0
LINE
  5
95
330
1F
100
AcDbEntity
  8
1
100
AcDbLine
 10
462.0872179999999
 20
287.526578
 30
0.0
 11
461.8728429999999
 21
287.913321
 31
0.0
  0
LINE
  5
96
330
1F
100
AcDbEntity
  8
1
100
AcDbLine
 10
462.185134
 20
288.676303
 30
0.0
 11
461.872845
 21
288.374729
 31
0.0
  0
LINE
  5
97
330
1F
100
AcDbEntity
  8
1
100
AcDbLine
 10
461.872837
 20
288.86395
 30
0.0
 11
462.185134
 21
288.676303
 31
0.0
  0
LINE
  5
98
330
1F
100
AcDbEntity
  8
1
100
AcDbLine
 10
461.943111
 20
289.467741
 30
0.0
 11
462.11918
 21
289.464668
 31
0.0
  0
LINE
  5
9A
330
1F
100
AcDbEntity
  8
1
100
AcDbLine
 10
462.152454
 20
295.630671
 30
0.0
 11
462.161834
 21
295.634271
 31
0.0
  0
LINE
  5
9B
330
1F
100
AcDbEntity
  8
1
100
AcDbLine
 10
462.2685709999999
 20
296.437276
 30
0.0
 11
453.539457
 21
296.132766
 31
0.0
  0
LINE
  5
9C
330
1F
100
AcDbEntity
  8
1
100
AcDbLine
 10
453.534225
 20
296.117931
 30
0.0
 11
453.539457
 21
296.132766
 31
0.0
  0
LINE
  5
9D
330
1F
100
AcDbEntity
  8
1
100
AcDbLine
 10
462.11918
 20
289.464668
 30
0.0
 11
462.40268
 21
289.848841
 31
0.0
  0
LINE
  5
9E
330
1F
100
AcDbEntity
  8
1
100
AcDbLine
 10
462.40268
 20
290.087451
 30
0.0
 11
462.40268
 21
289.848841
 31
0.0
  0
LINE
  5
9F
330
1F
100
AcDbEntity
  8
1
100
AcDbLine
 10
462.40268
 20
290.087451
 30
0.0
 11
462.444842
 21
290.086715
 31
0.0
  0
LINE
  5
A0
330
1F
100
AcDbEntity
  8
1
100
AcDbLine
 10
462.444842
 20
296.719812
 30
0.0
 11
462.444842
 21
290.286746
 31
0.0
  0
LINE
  5
A1
330
1F
100
AcDbEntity
  8
1
100
AcDbLine
 10
462.2685709999999
 20
296.437276
 30
0.0
 11
462.267016
 21
296.661352
 31
0.0
  0
LINE
  5
A2
330
1F
100
AcDbEntity
  8
1
100
AcDbLine
 10
462.2685709999999
 20
296.437276
 30
0.0
 11
462.226566
 21
296.421158
 31
0.0
  0
LINE
  5
A3
330
1F
100
AcDbEntity
  8
1
100
AcDbLine
 10
460.99607
 20
268.907994
 30
0.0
 11
461.8392769999999
 21
276.852497
 31
0.0
  0
LINE
  5
A4
330
1F
100
AcDbEntity
  8
1
100
AcDbLine
 10
461.8392769999999
 20
276.852497
 30
0.0
 11
461.7971859999999
 21
276.85317
 31
0.0
  0
LINE
  5
A5
330
1F
100
AcDbEntity
  8
1
100
AcDbLine
 10
461.8224679999999
 20
277.091371
 30
0.0
 11
461.7971859999999
 21
276.85317
 31
0.0
  0
LINE
  5
A6
330
1F
100
AcDbEntity
  8
1
100
AcDbLine
 10
461.8224679999999
 20
277.091371
 30
0.0
 11
461.580678
 21
277.484351
 31
0.0
  0
LINE
  5
A7
330
1F
100
AcDbEntity
  8
1
100
AcDbLine
 10
461.060545
 20
282.557994
 30
0.0
 11
461.872841
 21
282.557994
 31
0.0
  0
LINE
  5
A8
330
1F
100
AcDbEntity
  8
SK1
100
AcDbLine
 10
206.404842
 20
308.907994
 30
0.0
 11
206.404842
 21
268.907994
 31
0.0
  0
LINE
  5
A9
330
1F
100
AcDbEntity
  8
SK1
100
AcDbLine
 10
204.404842
 20
306.907994
 30
0.0
 11
204.404842
 21
270.907994
 31
0.0
  0
LINE
  5
AA
330
1F
100
AcDbEntity
  8
1
100
AcDbLine
 10
449.8754329999999
 20
299.517247
 30
0.0
 11
449.8702009999999
 21
299.502412
 31
0.0
  0
LINE
  5
AB
330
1F
100
AcDbEntity
  8
1
100
AcDbLine
 10
449.8754329999999
 20
299.517247
 30
0.0
 11
449.555046
 21
308.840117
 31
0.0
  0
LINE
  5
AC
330
1F
100
AcDbEntity
  8
1
100
AcDbLine
 10
449.55023
 20
308.81316
 30
0.0
 11
449.8702009999999
 21
299.502412
 31
0.0
  0
LINE
  5
AD
330
1F
100
AcDbEntity
  8
1
100
AcDbLine
 10
460.99607
 20
268.907994
 30
0.0
 11
438.9564589999999
 21
268.907994
 31
0.0
  0
LINE
  5
AE
330
1F
100
AcDbEntity
  8
1
100
AcDbLine
 10
274.404842
 20
313.407994
 30
0.0
 11
274.404842
 21
288.907994
 31
0.0
  0
LINE
  5
AF
330
1F
100
AcDbEntity
  8
1
100
AcDbLine
 10
274.404842
 20
288.907994
 30
0.0
 11
274.404842
 21
264.407994
 31
0.0
  0
LINE
  5
B0
330
1F
100
AcDbEntity
  8
1
100
AcDbLine
 10
461.48025
 20
278.859184
 30
0.0
 11
461.562895
 21
278.904995
 31
0.0
  0
LINE
  5
B1
330
1F
100
AcDbEntity
  8
1
100
AcDbLine
 10
291.032259
 20
268.907994
 30
0.0
 11
296.388272
 21
268.907994
 31
0.0
  0
LINE
  5
B2
330
1F
100
AcDbEntity
  8
1
100
AcDbLine
 10
450.009645
 20
308.907994
 30
0.0
 11
439.778801
 21
308.907994
 31
0.0
  0
LINE
  5
B3
330
1F
100
AcDbEntity
  8
1
100
AcDbLine
 10
279.404842
 20
263.907994
 30
0.0
 11
279.71855
 21
264.221702
 31
0.0
  0
LINE
  5
B4
330
1F
100
AcDbEntity
  8
1
100
AcDbLine
 10
284.404842
 20
308.844925
 30
0.0
 11
284.404842
 21
283.622979
 31
0.0
  0
LINE
  5
B5
330
1F
100
AcDbEntity
  8
81
100
AcDbLine
 10
463.404842
 20
311.407994
 30
0.0
 11
463.404842
 21
307.407994
 31
0.0
  0
LINE
  5
B6
330
1F
100
AcDbEntity
  8
SK1
100
AcDbLine
 10
206.404842
 20
268.907994
 30
0.0
 11
274.404842
 21
268.907994
 31
0.0
  0
LINE
  5
B7
330
1F
100
AcDbEntity
  8
80
100
AcDbLine
 10
274.404842
 20
287.90842
 30
0.0
 11
274.404842
 21
289.907567
 31
0.0
  0
LINE
  5
B8
330
1F
100
AcDbEntity
  8
81
100
AcDbLine
 10
461.4048419999999
 20
309.407994
 30
0.0
 11
465.4048419999999
 21
309.407994
 31
0.0
  0
LINE
  5
B9
330
1F
100
AcDbEntity
  8
1
100
AcDbLine
 10
274.904842
 20
263.907994
 30
0.0
 11
279.404842
 21
263.907994
 31
0.0
  0
LINE
  5
BA
330
1F
100
AcDbEntity
  8
1
100
AcDbLine
 10
301.202533
 20
308.907994
 30
0.0
 11
291.032259
 21
308.907994
 31
0.0
  0
LINE
  5
BB
330
1F
100
AcDbEntity
  8
1
100
AcDbLine
 10
279.404842
 20
263.907994
 30
0.0
 11
279.404842
 21
267.81784
 31
0.0
  0
LINE
  5
BC
330
1F
100
AcDbEntity
  8
1
100
AcDbLine
 10
279.404842
 20
313.907994
 30
0.0
 11
279.404842
 21
276.676758
 31
0.0
  0
LINE
  5
BD
330
1F
100
AcDbEntity
  8
1
100
AcDbLine
 10
279.71855
 20
313.594285
 30
0.0
 11
279.404842
 21
313.907994
 31
0.0
  0
LINE
  5
BE
330
1F
100
AcDbEntity
  8
1
100
AcDbLine
 10
274.904842
 20
263.907994
 30
0.0
 11
274.904842
 21
288.907994
 31
0.0
  0
LINE
  5
BF
330
1F
100
AcDbEntity
  8
1
100
AcDbLine
 10
274.904842
 20
288.907994
 30
0.0
 11
274.904842
 21
313.907994
 31
0.0
  0
LINE
  5
C0
330
1F
100
AcDbEntity
  8
1
100
AcDbLine
 10
455.441915
 20
301.234925
 30
0.0
 11
455.4761980000001
 21
301.332123
 31
0.0
  0
LINE
  5
C2
330
1F
100
AcDbEntity
  8
1
100
AcDbLine
 10
456.2376819999999
 20
301.178903
 30
0.0
 11
456.2032679999999
 21
301.081335
 31
0.0
  0
LINE
  5
C3
330
1F
100
AcDbEntity
  8
1
100
AcDbLine
 10
454.867786
 20
302.778707
 30
0.0
 11
454.903276
 21
302.879328
 31
0.0
  0
LINE
  5
C4
330
1F
100
AcDbEntity
  8
1
100
AcDbLine
 10
457.45554
 20
302.429269
 30
0.0
 11
457.4200499999999
 21
302.328648
 31
0.0
  0
LINE
  5
C5
330
1F
100
AcDbEntity
  8
1
100
AcDbLine
 10
456.0845669999999
 20
304.02602
 30
0.0
 11
456.118981
 21
304.123588
 31
0.0
  0
LINE
  5
C6
330
1F
100
AcDbEntity
  8
1
100
AcDbLine
 10
456.861968
 20
303.917925
 30
0.0
 11
456.8459209999999
 21
303.872429
 31
0.0
  0
LINE
  5
C7
330
1F
100
AcDbEntity
  8
1
100
AcDbLine
 10
452.7750759999999
 20
303.825325
 30
0.0
 11
452.7589459999999
 21
303.779595
 31
0.0
  0
LINE
  5
C8
330
1F
100
AcDbEntity
  8
1
100
AcDbLine
 10
459.5489559999999
 20
301.384649
 30
0.0
 11
459.5650849999999
 21
301.430379
 31
0.0
  0
LINE
  5
C9
330
1F
100
AcDbEntity
  8
SK1
100
AcDbLine
 10
204.404842
 20
270.907994
 30
0.0
 11
206.404842
 21
268.907994
 31
0.0
  0
LINE
  5
CA
330
1F
100
AcDbEntity
  8
SK1
100
AcDbLine
 10
206.404842
 20
308.907994
 30
0.0
 11
204.404842
 21
306.907994
 31
0.0
  0
LINE
  5
CB
330
1F
100
AcDbEntity
  8
SK1
100
AcDbLine
 10
274.404842
 20
308.907994
 30
0.0
 11
206.404842
 21
308.907994
 31
0.0
  0
LINE
  5
CC
330
1F
100
AcDbEntity
  8
1
100
AcDbLine
 10
274.904842
 20
263.907994
 30
0.0
 11
274.404842
 21
264.407994
 31
0.0
  0
LINE
  5
CD
330
1F
100
AcDbEntity
  8
1
100
AcDbLine
 10
274.404842
 20
313.407994
 30
0.0
 11
274.904842
 21
313.907994
 31
0.0
  0
LINE
  5
CE
330
1F
100
AcDbEntity
  8
1
100
AcDbLine
 10
279.404842
 20
313.907994
 30
0.0
 11
274.904842
 21
313.907994
 31
0.0
  0
LINE
  5
D3
330
1F
100
AcDbEntity
  8
80
100
AcDbLine
 10
275.404416
 20
288.907994
 30
0.0
 11
273.405268
 21
288.907994
 31
0.0
  0
LINE
  5
D4
330
1F
100
AcDbEntity
  8
1
100
AcDbLine
 10
454.8019609999999
 20
303.402222
 30
0.0
 11
454.7681339999999
 21
303.306318
 31
0.0
  0
LINE
  5
D5
330
1F
100
AcDbEntity
  8
1
100
AcDbLine
 10
454.867091
 20
303.342582
 30
0.0
 11
454.832715
 21
303.245119
 31
0.0
  0
LINE
  5
D6
330
1F
100
AcDbEntity
  8
1
100
AcDbLine
 10
457.623108
 20
302.600453
 30
0.0
 11
457.6575
 21
302.697958
 31
0.0
  0
LINE
  5
D7
330
1F
100
AcDbEntity
  8
1
100
AcDbLine
 10
454.915898
 20
301.860272
 30
0.0
 11
454.881576
 21
301.762963
 31
0.0
  0
LINE
  5
D8
330
1F
100
AcDbEntity
  8
1
100
AcDbLine
 10
454.872587
 20
301.8397109999999
 30
0.0
 11
454.8385639999999
 21
301.743251
 31
0.0
  0
LINE
  5
D9
330
1F
100
AcDbEntity
  8
1
100
AcDbLine
 10
456.9316019999999
 20
301.291547
 30
0.0
 11
456.9659389999999
 21
301.388896
 31
0.0
  0
LINE
  5
DA
330
1F
100
AcDbEntity
  8
1
100
AcDbLine
 10
456.969174
 20
301.248595
 30
0.0
 11
457.003148
 21
301.344917
 31
0.0
  0
LINE
  5
DB
330
1F
100
AcDbEntity
  8
1
100
AcDbLine
 10
447.689215
 20
295.780942
 30
0.0
 11
447.7245579999999
 21
294.747949
 31
0.0
  0
LINE
  5
DC
330
1F
100
AcDbEntity
  8
1
100
AcDbLine
 10
447.886205
 20
295.732089
 30
0.0
 11
447.889974
 21
295.742775
 31
0.0
  0
LINE
  5
DD
330
1F
100
AcDbEntity
  8
1
100
AcDbLine
 10
441.3831219999999
 20
298.784618
 30
0.0
 11
443.685709
 21
297.457305
 31
0.0
  0
LINE
  5
DE
330
1F
100
AcDbEntity
  8
1
100
AcDbLine
 10
460.6811599999999
 20
295.607039
 30
0.0
 11
452.2880530000001
 21
295.31425
 31
0.0
  0
LINE
  5
DF
330
1F
100
AcDbEntity
  8
1
100
AcDbLine
 10
452.7750759999999
 20
303.825325
 30
0.0
 11
452.774967
 21
303.825018
 31
0.0
  0
LINE
  5
E0
330
1F
100
AcDbEntity
  8
1
100
AcDbLine
 10
462.4664
 20
308.550825
 30
0.0
 11
462.864985
 21
297.42424
 31
0.0
  0
LINE
  5
E1
330
1F
100
AcDbEntity
  8
1
100
AcDbLine
 10
450.5245719999999
 20
308.910286
 30
0.0
 11
461.6627509999999
 21
309.298834
 31
0.0
  0
LINE
  5
E2
330
1F
100
AcDbEntity
  8
1
100
AcDbLine
 10
450.17504
 20
296.981559
 30
0.0
 11
449.776454
 21
308.108144
 31
0.0
  0
LINE
  5
E3
330
1F
100
AcDbEntity
  8
1
100
AcDbLine
 10
443.662576
 20
297.402065
 30
0.0
 11
442.8405579999999
 21
297.870647
 31
0.0
  0
LINE
  5
E4
330
1F
100
AcDbEntity
  8
1
100
AcDbLine
 10
459.779462
 20
282.557994
 30
0.0
 11
460.4736219999999
 21
282.557994
 31
0.0
  0
LINE
  5
E5
330
1F
100
AcDbEntity
  8
1
100
AcDbLine
 10
450.0677379999999
 20
308.735963
 30
0.0
 11
450.061944
 21
308.904549
 31
0.0
  0
LINE
  5
E6
330
1F
100
AcDbEntity
  8
1
100
AcDbLine
 10
453.534225
 20
296.117931
 30
0.0
 11
462.226566
 21
296.421158
 31
0.0
  0
LINE
  5
E7
330
1F
100
AcDbEntity
  8
1
100
AcDbLine
 10
462.444842
 20
290.086715
 30
0.0
 11
462.444842
 21
290.286746
 31
0.0
  0
LINE
  5
E8
330
1F
100
AcDbEntity
  8
1
100
AcDbLine
 10
462.228374
 20
296.16072
 30
0.0
 11
462.226566
 21
296.421158
 31
0.0
  0
LINE
  5
E9
330
1F
100
AcDbEntity
  8
1
100
AcDbLine
 10
449.79792
 20
308.3012
 30
0.0
 11
449.779411
 21
308.839795
 31
0.0
  0
LINE
  5
EA
330
1F
100
AcDbEntity
  8
1
100
AcDbLine
 10
462.152454
 20
295.630671
 30
0.0
 11
452.2958860000001
 21
295.286831
 31
0.0
  0
LINE
  5
EB
330
1F
100
AcDbEntity
  8
1
100
AcDbLine
 10
462.152454
 20
295.630671
 30
0.0
 11
459.657683
 21
291.497407
 31
0.0
  0
LINE
  5
EC
330
1F
100
AcDbEntity
  8
1
100
AcDbLine
 10
461.580678
 20
277.484351
 30
0.0
 11
461.404908
 21
277.487164
 31
0.0
  0
LINE
  5
ED
330
1F
100
AcDbEntity
  8
1
100
AcDbLine
 10
461.387742
 20
277.987503
 30
0.0
 11
461.872841
 21
282.557994
 31
0.0
  0
LINE
  5
EE
330
1F
100
AcDbEntity
  8
1
100
AcDbLine
 10
461.872841
 20
282.557994
 30
0.0
 11
461.872841
 21
288.968891
 31
0.0
  0
LINE
  5
131
330
1F
100
AcDbEntity
  8
NOCUT
100
AcDbLine
 10
274.404842
 20
308.907994
 30
0.0
 11
206.404842
 21
308.907994
 31
0.0
  0
LINE
  5
132
330
1F
100
AcDbEntity
  8
NOCUT
100
AcDbLine
 10
279.404842
 20
313.907994
 30
0.0
 11
274.904842
 21
313.907994
 31
0.0
  0
LINE
  5
136
330
1F
100
AcDbEntity
  8
NOCUT
100
AcDbLine
 10
204.404842
 20
306.907994
 30
0.0
 11
204.404842
 21
288.907994
 31
0.0
  0
LINE
  5
137
330
1F
100
AcDbEntity
  8
NOCUT
100
AcDbLine
 10
204.404842
 20
306.907994
 30
0.0
 11
206.404842
 21
308.907994
 31
0.0
  0
LINE
  5
138
330
1F
100
AcDbEntity
  8
NOCUT
100
AcDbLine
 10
274.404842
 20
308.907994
 30
0.0
 11
274.404842
 21
313.407994
 31
0.0
  0
LINE
  5
139
330
1F
100
AcDbEntity
  8
NOCUT
100
AcDbLine
 10
274.404842
 20
313.407994
 30
0.0
 11
274.904842
 21
313.907994
 31
0.0
  0
LINE
  5
13A
330
1F
100
AcDbEntity
  8
NOCUT
100
AcDbLine
 10
279.404842
 20
313.907994
 30
0.0
 11
279.71855
 21
313.594285
 31
0.0
  0
LINE
  5
13B
330
1F
100
AcDbEntity
  8
NOCUT
100
AcDbLine
 10
462.0245549999999
 20
308.907994
 30
0.0
 11
462.444842
 21
296.975902
 31
0.0
  0
LINE
  5
13C
330
1F
100
AcDbEntity
  8
NOCUT
100
AcDbLine
 10
462.444842
 20
296.975902
 30
0.0
 11
462.444842
 21
288.907994
 31
0.0
  0
LINE
  5
13F
330
1F
100
AcDbEntity
  8
NOCUT
100
AcDbLine
 10
291.032259
 20
308.907994
 30
0.0
 11
462.0245549999999
 21
308.907994
 31
0.0
  0
ARC
  5
148
330
1F
100
AcDbEntity
  8
1
100
AcDbCircle
 10
291.032259
 20
252.907994
 30
0.0
 40
16.0
100
AcDbArc
 50
90.0
 51
135.0
  0
ARC
  5
149
330
1F
100
AcDbEntity
  8
1
100
AcDbCircle
 10
291.032259
 20
324.907994
 30
0.0
 40
16.0
100
AcDbArc
 50
225.0
 51
270.0
  0
ARC
  5
14A
330
1F
100
AcDbEntity
  8
1
100
AcDbCircle
 10
456.8131369999999
 20
283.804045
 30
0.0
 40
1.75
100
AcDbArc
 50
75.0
 51
345.0
  0
CIRCLE
  5
14B
330
1F
100
AcDbEntity
  8
1
100
AcDbCircle
 10
456.8131369999999
 20
283.804045
 30
0.0
 40
1.35
  0
ARC
  5
15B
330
1F
100
AcDbEntity
  8
NOCUT
100
AcDbCircle
 10
291.032259
 20
324.907994
 30
0.0
 40
16.0
100
AcDbArc
 50
225.0
 51
270.0
  0
ELLIPSE
  5
15C
330
1F
100
AcDbEntity
  8
1
100
AcDbEllipse
 10
456.316586
 20
302.754472
 30
0.0
 11
-3.677921936877201
 21
1.297262589546717
 31
0.0
210
0.0
220
0.0
230
1.0
 40
0.9986239999999998
 41
0.0
 42
6.283185307179585
  0
ELLIPSE
  5
15D
330
1F
100
AcDbEntity
  8
1
100
AcDbEllipse
 10
461.4094549999999
 20
297.996925
 30
0.0
 11
0.5172967687809848
 21
-0.4819691095453735
 31
0.0
210
0.0
220
0.0
230
0.9999999999999998
 40
0.033998
 41
1.585610887813006
 42
2.602516728108116
  0
ELLIPSE
  5
15E
330
1F
100
AcDbEntity
  8
1
100
AcDbEllipse
 10
451.214543
 20
307.486009
 30
0.0
 11
0.5172967686990733
 21
-0.4819691094696372
 31
0.0
210
0.0
220
0.0
230
1.0
 40
0.033998
 41
0.568705047412263
 42
1.58561088783953
  0
ELLIPSE
  5
15F
330
1F
100
AcDbEntity
  8
1
100
AcDbEllipse
 10
461.057229
 20
307.829365
 30
0.0
 11
0.4817434593124544
 21
0.517054578705272
 31
0.0
210
0.0
220
0.0
230
1.0
 40
0.01483
 41
1.536779664562113
 42
2.553685504972366
  0
ELLIPSE
  5
160
330
1F
100
AcDbEntity
  8
1
100
AcDbEllipse
 10
456.1539509999999
 20
302.582122
 30
0.0
 11
3.395004864809725
 21
-1.197473159581583
 31
0.0
210
0.0
220
0.0
230
1.0
 40
0.9986239999999998
 41
0.0
 42
6.283185307179585
  0
ELLIPSE
  5
161
330
1F
100
AcDbEntity
  8
1
100
AcDbEllipse
 10
454.7654679999999
 20
303.177719
 30
0.0
 11
-0.0898897536456661
 21
0.0317055708602405
 31
0.0
210
0.0
220
0.0
230
1.0
 40
0.998624
 41
3.886489476375068
 42
4.563221393255619
  0
ELLIPSE
  5
162
330
1F
100
AcDbEntity
  8
1
100
AcDbEllipse
 10
454.854807
 20
303.345833
 30
0.0
 11
-0.0898897536456659
 21
0.0317055708602405
 31
0.0
210
0.0
220
0.0
230
0.9999999999999998
 40
0.998624
 41
0.2212980471866254
 42
1.42162873966576
  0
ELLIPSE
  5
163
330
1F
100
AcDbEntity
  8
1
100
AcDbEllipse
 10
455.356829
 20
303.286273
 30
0.0
 11
-0.5666776289729544
 21
0.1998763706833382
 31
0.0
210
0.0
220
0.0
230
0.9999999999999998
 40
0.9986239999999998
 41
5.239953310136215
 42
6.504483354366392
  0
ELLIPSE
  5
164
330
1F
100
AcDbEntity
  8
1
100
AcDbEllipse
 10
455.2619059999999
 20
303.78233
 30
0.0
 11
-0.089889753645668
 21
0.0317055708602412
 31
0.0
210
0.0
220
0.0
230
0.9999999999999998
 40
0.9986239999999998
 41
4.039622617657164
 42
5.239953310136264
  0
ELLIPSE
  5
165
330
1F
100
AcDbEntity
  8
1
100
AcDbEllipse
 10
455.423461
 20
303.883228
 30
0.0
 11
-0.089889753645668
 21
0.0317055708602412
 31
0.0
210
0.0
220
0.0
230
0.9999999999999998
 40
0.9986239999999998
 41
0.8980299640671379
 42
1.57476188094789
  0
ELLIPSE
  5
166
330
1F
100
AcDbEntity
  8
1
100
AcDbEllipse
 10
455.5895089999999
 20
304.360023
 30
0.0
 11
-0.5666776289729542
 21
0.1998763706833381
 31
0.0
210
0.0
220
0.0
230
0.9999999999999998
 40
0.9986239999999998
 41
1.574761880948108
 42
2.839291925178288
  0
ELLIPSE
  5
167
330
1F
100
AcDbEntity
  8
1
100
AcDbEllipse
 10
455.994678
 20
304.057725
 30
0.0
 11
-0.0898897536456661
 21
0.0317055708602405
 31
0.0
210
0.0
220
0.0
230
1.0
 40
0.998624
 41
2.839291925178188
 42
3.516023842059044
  0
ELLIPSE
  5
168
330
1F
100
AcDbEntity
  8
1
100
AcDbEllipse
 10
456.185161
 20
304.06437
 30
0.0
 11
-0.0898897536456659
 21
0.0317055708602405
 31
0.0
210
0.0
220
0.0
230
0.9999999999999998
 40
0.998624
 41
5.457285803170075
 42
6.657616495648697
  0
ELLIPSE
  5
169
330
1F
100
AcDbEntity
  8
1
100
AcDbEllipse
 10
456.3849119999999
 20
303.600336
 30
0.0
 11
-0.5666776289729544
 21
0.1998763706833382
 31
0.0
210
0.0
220
0.0
230
0.9999999999999998
 40
0.9986239999999998
 41
4.192755758939573
 42
5.457285803169802
  0
ELLIPSE
  5
16A
330
1F
100
AcDbEntity
  8
1
100
AcDbEllipse
 10
456.7674379999999
 20
303.930112
 30
0.0
 11
-0.089889753645668
 21
0.0317055708602412
 31
0.0
210
0.0
220
0.0
230
0.9999999999999998
 40
0.9986239999999998
 41
2.992425066460356
 42
4.192755758939556
  0
ELLIPSE
  5
16B
330
1F
100
AcDbEntity
  8
1
100
AcDbEllipse
 10
456.935811
 20
303.840723
 30
0.0
 11
-0.089889753645668
 21
0.0317055708602412
 31
0.0
210
0.0
220
0.0
230
0.9999999999999998
 40
0.9986239999999998
 41
6.134017720050445
 42
6.810749636931226
  0
ELLIPSE
  5
16C
330
1F
100
AcDbEntity
  8
1
100
AcDbEllipse
 10
457.4323179999999
 20
303.935117
 30
0.0
 11
-0.5666776289729542
 21
0.1998763706833381
 31
0.0
210
0.0
220
0.0
230
0.9999999999999998
 40
0.9986239999999998
 41
0.5275643297515279
 42
1.792094373981766
  0
ELLIPSE
  5
16D
330
1F
100
AcDbEntity
  8
1
100
AcDbEllipse
 10
457.3731269999999
 20
303.433684
 30
0.0
 11
-0.0898897536456661
 21
0.0317055708602405
 31
0.0
210
0.0
220
0.0
230
1.0
 40
0.998624
 41
1.7920943739819
 42
2.468826290862051
  0
ELLIPSE
  5
16E
330
1F
100
AcDbEntity
  8
1
100
AcDbEllipse
 10
457.474273
 20
303.272214
 30
0.0
 11
-0.0898897536456659
 21
0.0317055708602405
 31
0.0
210
0.0
220
0.0
230
0.9999999999999998
 40
0.998624
 41
4.410088251973343
 42
5.610418944451729
  0
ELLIPSE
  5
16F
330
1F
100
AcDbEntity
  8
1
100
AcDbEllipse
 10
457.172
 20
302.86774
 30
0.0
 11
-0.5666776289729544
 21
0.1998763706833382
 31
0.0
210
0.0
220
0.0
230
0.9999999999999998
 40
0.9986239999999998
 41
3.145558207743001
 42
4.410088251973228
  0
ELLIPSE
  5
170
330
1F
100
AcDbEntity
  8
1
100
AcDbEllipse
 10
457.6494509999999
 20
302.701459
 30
0.0
 11
-0.089889753645668
 21
0.0317055708602412
 31
0.0
210
0.0
220
0.0
230
0.9999999999999998
 40
0.9986239999999998
 41
1.945227515264138
 42
3.145558207743123
  0
ELLIPSE
  5
171
330
1F
100
AcDbEntity
  8
1
100
AcDbEllipse
 10
457.656267
 20
302.511173
 30
0.0
 11
-0.089889753645668
 21
0.0317055708602412
 31
0.0
210
0.0
220
0.0
230
0.9999999999999998
 40
0.9986239999999998
 41
5.086820168853708
 42
5.763552085734606
  0
ELLIPSE
  5
172
330
1F
100
AcDbEntity
  8
1
100
AcDbEllipse
 10
457.986727
 20
302.128772
 30
0.0
 11
-0.5666776289729542
 21
0.1998763706833381
 31
0.0
210
0.0
220
0.0
230
0.9999999999999998
 40
0.9986239999999998
 41
5.763552085734517
 42
7.028082129964704
  0
ELLIPSE
  5
173
330
1F
100
AcDbEntity
  8
1
100
AcDbEllipse
 10
457.5223679999999
 20
301.929636
 30
0.0
 11
-0.0898897536456661
 21
0.0317055708602405
 31
0.0
210
0.0
220
0.0
230
1.0
 40
0.998624
 41
0.7448968227851824
 42
1.421628739665826
  0
ELLIPSE
  5
174
330
1F
100
AcDbEntity
  8
1
100
AcDbEllipse
 10
451.162711
 20
292.729687
 30
0.0
 11
-3.589946898031727
 21
-0.1408967337083818
 31
0.0
210
0.0
220
0.0
230
1.0
 40
0.22151
 41
1.916139383708993
 42
4.364818964081548
  0
ELLIPSE
  5
175
330
1F
100
AcDbEntity
  8
1
100
AcDbEllipse
 10
338.734124
 20
288.907994
 30
0.0
 11
83.27268263906946
 21
-15.45918815030264
 31
0.0
210
0.0
220
0.0
230
0.9999999999999998
 40
0.15238
 41
4.256068159256502
 42
4.360523845845245
  0
ELLIPSE
  5
176
330
1F
100
AcDbEntity
  8
1
100
AcDbEllipse
 10
451.819695
 20
297.946283
 30
0.0
 11
-2.357642267228975
 21
0.8315785830427675
 31
0.0
210
0.0
220
0.0
230
1.0
 40
0.9986239999999998
 41
2.66819997972175
 42
2.776747666076894
  0
ELLIPSE
  5
177
330
1F
100
AcDbEntity
  8
1
100
AcDbEllipse
 10
462.1583659999999
 20
296.133857
 30
0.0
 11
0.0003016037624936
 21
0.5003084758631413
 31
0.0
210
0.0
220
0.0
230
1.0
 40
0.140101
 41
3.195395734395857
 42
4.766192061177755
  0
ELLIPSE
  5
178
330
1F
100
AcDbEntity
  8
1
100
AcDbEllipse
 10
463.1188129999999
 20
288.907994
 30
0.0
 11
2.16477538840423
 21
19.99773810421187
 31
0.0
210
0.0
220
0.0
230
1.0
 40
0.138944
 41
1.908927975893918
 42
3.156632395651097
  0
ELLIPSE
  5
179
330
1F
100
AcDbEntity
  8
1
100
AcDbEllipse
 10
462.444842
 20
288.907994
 30
0.0
 11
0.0
 21
19.99999999938382
 31
0.0
210
0.0
220
0.0
230
1.0
 40
0.140541
 41
1.440961195578565
 42
1.893888233843319
  0
ELLIPSE
  5
17A
330
1F
100
AcDbEntity
  8
1
100
AcDbEllipse
 10
451.900974
 20
298.1767200000001
 30
0.0
 11
-2.357642267228975
 21
0.8315785830427671
 31
0.0
210
0.0
220
0.0
230
1.0
 40
0.9986239999999998
 41
0.0520252572636132
 42
1.945227431237595
  0
ELLIPSE
  5
17B
330
1F
100
AcDbEntity
  8
1
100
AcDbEllipse
 10
451.900974
 20
298.1767200000001
 30
0.0
 11
-2.357642267228975
 21
0.8315785830427671
 31
0.0
210
0.0
220
0.0
230
1.0
 40
0.9986239999999998
 41
1.945227431237596
 42
2.645311779347058
  0
ELLIPSE
  5
17C
330
1F
100
AcDbEntity
  8
1
100
AcDbEllipse
 10
451.819695
 20
297.946283
 30
0.0
 11
-2.357642267228975
 21
0.8315785830427675
 31
0.0
210
0.0
220
0.0
230
1.0
 40
0.9986239999999998
 41
5.822888314034118
 42
5.942244189143298
  0
ELLIPSE
  5
17D
330
1F
100
AcDbEntity
  8
1
100
AcDbEllipse
 10
451.814462
 20
297.931448
 30
0.0
 11
2.357642267228976
 21
-0.8315785830427662
 31
0.0
210
0.0
220
0.0
230
1.0
 40
0.9986239999999998
 41
5.633791355463652
 42
5.809792633311543
  0
ELLIPSE
  5
17E
330
1F
100
AcDbEntity
  8
1
100
AcDbEllipse
 10
450.252866
 20
288.907932
 30
0.0
 11
0.668852947606053
 21
-20.00005706620708
 31
0.0
210
0.0
220
0.0
230
1.0
 40
0.0191
 41
3.223364138806878
 42
3.238374609230201
  0
ELLIPSE
  5
17F
330
1F
100
AcDbEntity
  8
1
100
AcDbEllipse
 10
394.605908
 20
288.908389
 30
0.0
 11
1146.484770611867
 21
-0.9894628066740875
 31
0.0
210
0.0
220
0.0
230
0.9999999999999998
 40
0.017423
 41
1.522868837621113
 42
1.525898064646211
  0
ELLIPSE
  5
180
330
1F
100
AcDbEntity
  8
1
100
AcDbEllipse
 10
451.710688
 20
311.360279
 30
0.0
 11
-15.1832162009546
 21
5.35536607479542
 31
0.0
210
0.0
220
0.0
230
0.9999999999999998
 40
0.998624
 41
1.386722154625863
 42
1.9452275152641
  0
ELLIPSE
  5
181
330
1F
100
AcDbEntity
  8
1
100
AcDbEllipse
 10
456.1700799999999
 20
302.627852
 30
0.0
 11
-3.395004864809725
 21
1.197473159581584
 31
0.0
210
0.0
220
0.0
230
0.9999999999999998
 40
0.9986239999999998
 41
3.141585274248861
 42
5.872218228534566
  0
ELLIPSE
  5
182
330
1F
100
AcDbEntity
  8
1
100
AcDbEllipse
 10
456.1700799999999
 20
302.627852
 30
0.0
 11
-3.395004864809725
 21
1.197473159581584
 31
0.0
210
0.0
220
0.0
230
0.9999999999999998
 40
0.9986239999999998
 41
5.872218228534568
 42
6.283185307179585
  0
ELLIPSE
  5
183
330
1F
100
AcDbEntity
  8
1
100
AcDbEllipse
 10
457.4330289999999
 20
301.761521
 30
0.0
 11
-0.0898897536456659
 21
0.0317055708602405
 31
0.0
210
0.0
220
0.0
230
0.9999999999999998
 40
0.998624
 41
3.362890700776723
 42
4.563221393255915
  0
ELLIPSE
  5
184
330
1F
100
AcDbEntity
  8
1
100
AcDbEllipse
 10
456.9310059999999
 20
301.821082
 30
0.0
 11
-0.5666776289729544
 21
0.1998763706833382
 31
0.0
210
0.0
220
0.0
230
0.9999999999999998
 40
0.9986239999999998
 41
2.098360656546422
 42
3.362890700776576
  0
ELLIPSE
  5
185
330
1F
100
AcDbEntity
  8
1
100
AcDbEllipse
 10
457.02593
 20
301.325024
 30
0.0
 11
-0.089889753645668
 21
0.0317055708602412
 31
0.0
210
0.0
220
0.0
230
0.9999999999999998
 40
0.9986239999999998
 41
0.8980299640673711
 42
2.09836065654647
  0
ELLIPSE
  5
186
330
1F
100
AcDbEntity
  8
1
100
AcDbEllipse
 10
456.8643739999999
 20
301.224127
 30
0.0
 11
-0.089889753645668
 21
0.0317055708602412
 31
0.0
210
0.0
220
0.0
230
0.9999999999999998
 40
0.9986239999999998
 41
4.039622617657396
 42
4.71635453453798
  0
ELLIPSE
  5
187
330
1F
100
AcDbEntity
  8
1
100
AcDbEllipse
 10
456.6983269999999
 20
300.747332
 30
0.0
 11
-0.5666776289729542
 21
0.1998763706833381
 31
0.0
210
0.0
220
0.0
230
0.9999999999999998
 40
0.9986239999999998
 41
4.716354534537948
 42
5.980884578768058
  0
ELLIPSE
  5
188
330
1F
100
AcDbEntity
  8
1
100
AcDbEllipse
 10
456.2931579999999
 20
301.049629
 30
0.0
 11
-0.0898897536456661
 21
0.0317055708602405
 31
0.0
210
0.0
220
0.0
230
1.0
 40
0.998624
 41
5.980884578767606
 42
6.657616495648806
  0
ELLIPSE
  5
189
330
1F
100
AcDbEntity
  8
1
100
AcDbEllipse
 10
456.102674
 20
301.042984
 30
0.0
 11
-0.0898897536456659
 21
0.0317055708602405
 31
0.0
210
0.0
220
0.0
230
0.9999999999999998
 40
0.998624
 41
2.315693149579944
 42
3.516023842058904
  0
ELLIPSE
  5
18A
330
1F
100
AcDbEntity
  8
1
100
AcDbEllipse
 10
455.902923
 20
301.507019
 30
0.0
 11
-0.5666776289729544
 21
0.1998763706833382
 31
0.0
210
0.0
220
0.0
230
0.9999999999999998
 40
0.9986239999999998
 41
1.051163105349791
 42
2.315693149580029
  0
ELLIPSE
  5
18B
330
1F
100
AcDbEntity
  8
1
100
AcDbEllipse
 10
455.5203969999999
 20
301.1772430000001
 30
0.0
 11
-0.089889753645668
 21
0.0317055708602412
 31
0.0
210
0.0
220
0.0
230
0.9999999999999998
 40
0.9986239999999998
 41
6.134017720050637
 42
7.334348412529423
  0
ELLIPSE
  5
18C
330
1F
100
AcDbEntity
  8
1
100
AcDbEllipse
 10
455.352025
 20
301.266631
 30
0.0
 11
-0.089889753645668
 21
0.0317055708602412
 31
0.0
210
0.0
220
0.0
230
0.9999999999999998
 40
0.9986239999999998
 41
2.992425066460607
 42
3.669156983341283
  0
ELLIPSE
  5
18D
330
1F
100
AcDbEntity
  8
1
100
AcDbEllipse
 10
454.855517
 20
301.172237
 30
0.0
 11
-0.5666776289729542
 21
0.1998763706833381
 31
0.0
210
0.0
220
0.0
230
0.9999999999999998
 40
0.9986239999999998
 41
3.669156983341321
 42
4.933687027571558
  0
ELLIPSE
  5
18E
330
1F
100
AcDbEntity
  8
1
100
AcDbEllipse
 10
454.914708
 20
301.673671
 30
0.0
 11
-0.0898897536456661
 21
0.0317055708602405
 31
0.0
210
0.0
220
0.0
230
1.0
 40
0.998624
 41
4.93368702757205
 42
5.610418944452566
  0
ELLIPSE
  5
18F
330
1F
100
AcDbEntity
  8
1
100
AcDbEllipse
 10
454.8135629999999
 20
301.835141
 30
0.0
 11
-0.0898897536456659
 21
0.0317055708602405
 31
0.0
210
0.0
220
0.0
230
0.9999999999999998
 40
0.998624
 41
1.268495598383309
 42
2.468826290862121
  0
ELLIPSE
  5
190
330
1F
100
AcDbEntity
  8
1
100
AcDbEllipse
 10
455.1158349999999
 20
302.239615
 30
0.0
 11
-0.5666776289729544
 21
0.1998763706833382
 31
0.0
210
0.0
220
0.0
230
0.9999999999999998
 40
0.9986239999999998
 41
0.0039655541532078
 42
1.26849559838336
  0
ELLIPSE
  5
191
330
1F
100
AcDbEntity
  8
1
100
AcDbEllipse
 10
454.6383849999999
 20
302.405896
 30
0.0
 11
-0.089889753645668
 21
0.0317055708602412
 31
0.0
210
0.0
220
0.0
230
0.9999999999999998
 40
0.9986239999999998
 41
5.086820168854099
 42
6.287150861332617
  0
ELLIPSE
  5
192
330
1F
100
AcDbEntity
  8
1
100
AcDbEllipse
 10
454.6315679999999
 20
302.596182
 30
0.0
 11
-0.089889753645668
 21
0.0317055708602412
 31
0.0
210
0.0
220
0.0
230
0.9999999999999998
 40
0.9986239999999998
 41
1.94522751526436
 42
2.62195943214485
  0
ELLIPSE
  5
193
330
1F
100
AcDbEntity
  8
1
100
AcDbEllipse
 10
454.301108
 20
302.978583
 30
0.0
 11
-0.5666776289729542
 21
0.1998763706833381
 31
0.0
210
0.0
220
0.0
230
0.9999999999999998
 40
0.9986239999999998
 41
2.621959432144747
 42
3.886489476374893
  0
ELLIPSE
  5
194
330
1F
100
AcDbEntity
  8
1
100
AcDbEllipse
 10
456.1439179999999
 20
302.553677
 30
0.0
 11
1.98041950447234
 21
-0.698526009755924
 31
0.0
210
0.0
220
0.0
230
1.0
 40
0.9986239999999998
 41
0.0
 42
6.283185307179585
  0
ELLIPSE
  5
195
330
1F
100
AcDbEntity
  8
1
100
AcDbEllipse
 10
456.3392599999999
 20
302.818757
 30
0.0
 11
3.531988007444661
 21
-1.245789330883938
 31
0.0
210
0.0
220
0.0
230
1.0
 40
0.9986239999999998
 41
1.945227552038378
 42
3.356097206659879
  0
ELLIPSE
  5
196
330
1F
100
AcDbEntity
  8
1
100
AcDbEllipse
 10
456.3392599999999
 20
302.818757
 30
0.0
 11
3.531988007444661
 21
-1.245789330883938
 31
0.0
210
0.0
220
0.0
230
1.0
 40
0.9986239999999998
 41
5.419043491545747
 42
6.283185307179585
  0
ELLIPSE
  5
197
330
1F
100
AcDbEntity
  8
1
100
AcDbEllipse
 10
456.3392599999999
 20
302.818757
 30
0.0
 11
3.531988007444661
 21
-1.245789330883938
 31
0.0
210
0.0
220
0.0
230
1.0
 40
0.9986239999999998
 41
0.0
 42
1.508938775396913
  0
ELLIPSE
  5
198
330
1F
100
AcDbEntity
  8
1
100
AcDbEllipse
 10
456.3392599999999
 20
302.818757
 30
0.0
 11
3.531988007444661
 21
-1.245789330883938
 31
0.0
210
0.0
220
0.0
230
1.0
 40
0.9986239999999998
 41
1.63254085945862
 42
1.945227552038378
  0
ELLIPSE
  5
199
330
1F
100
AcDbEntity
  8
1
100
AcDbEllipse
 10
451.5667689999999
 20
297.653569
 30
0.0
 11
0.4817434591956803
 21
0.5170545785754995
 31
0.0
210
0.0
220
0.0
230
1.0
 40
0.01483
 41
0.5198738242656092
 42
1.536779664856773
  0
ELLIPSE
  5
19A
330
1F
100
AcDbEntity
  8
1
100
AcDbEllipse
 10
456.3194639999999
 20
302.762632
 30
0.0
 11
3.588083700633127
 21
-1.265575189707758
 31
0.0
210
0.0
220
0.0
230
1.0
 40
0.9986239999999998
 41
1.945227451328575
 42
3.745261875445966
  0
ELLIPSE
  5
19B
330
1F
100
AcDbEntity
  8
1
100
AcDbEllipse
 10
456.3194639999999
 20
302.762632
 30
0.0
 11
3.588083700633127
 21
-1.265575189707758
 31
0.0
210
0.0
220
0.0
230
1.0
 40
0.9986239999999998
 41
4.874566385899286
 42
6.283185307179585
  0
ELLIPSE
  5
19C
330
1F
100
AcDbEntity
  8
1
100
AcDbEllipse
 10
456.3194639999999
 20
302.762632
 30
0.0
 11
3.588083700633127
 21
-1.265575189707758
 31
0.0
210
0.0
220
0.0
230
1.0
 40
0.9986239999999998
 41
0.0
 42
1.945227440221053
  0
ELLIPSE
  5
19D
330
1F
100
AcDbEntity
  8
1
100
AcDbEllipse
 10
453.735398
 20
317.097364
 30
0.0
 11
9.077531874357838
 21
20.20119819845666
 31
0.0
210
0.0
220
0.0
230
1.0
 40
0.724841
 41
3.072067042357169
 42
3.076926775249192
  0
ELLIPSE
  5
19E
330
1F
100
AcDbEntity
  8
1
100
AcDbEllipse
 10
306.041247
 20
288.908022
 30
0.0
 11
3.711427304118345
 21
19.99204835276908
 31
0.0
210
0.0
220
0.0
230
1.0
 40
0.15238
 41
4.395183911207126
 42
4.405230739529013
  0
ELLIPSE
  5
19F
330
1F
100
AcDbEntity
  8
1
100
AcDbEllipse
 10
450.7233389999999
 20
288.907993
 30
0.0
 11
0.6688508038868193
 21
-19.99999620019056
 31
0.0
210
0.0
220
0.0
230
0.9999999999999998
 40
0.0191
 41
3.019983653440008
 42
3.122394582026904
  0
ELLIPSE
  5
1A0
330
1F
100
AcDbEntity
  8
1
100
AcDbEllipse
 10
451.814462
 20
297.931448
 30
0.0
 11
2.357642267228976
 21
-0.8315785830427662
 31
0.0
210
0.0
220
0.0
230
1.0
 40
0.9986239999999998
 41
2.800651535553503
 42
4.460046922625398
  0
ELLIPSE
  5
1A1
330
1F
100
AcDbEntity
  8
1
100
AcDbEllipse
 10
450.5593519999999
 20
288.907994
 30
0.0
 11
0.5607882322610424
 21
-19.99984469816804
 31
0.0
210
0.0
220
0.0
230
0.9999999999999998
 40
0.140543
 41
3.119092585514587
 42
3.220258069666836
  0
ELLIPSE
  5
1A2
330
1F
100
AcDbEntity
  8
1
100
AcDbEllipse
 10
278.812775
 20
288.907988
 30
0.0
 11
522.5875689204189
 21
19.50384760792397
 31
0.0
210
0.0
220
0.0
230
1.0
 40
0.008472
 41
5.050746710885958
 42
5.065437574599589
  0
ELLIPSE
  5
1A3
330
1F
100
AcDbEntity
  8
1
100
AcDbEllipse
 10
461.4578929999999
 20
277.98638
 30
0.0
 11
0.0538770024348413
 21
0.4991611425064823
 31
0.0
210
0.0
220
0.0
230
1.0
 40
0.139171
 41
1.583568179242804
 42
3.154364506042906
  0
ELLIPSE
  5
1A4
330
1F
100
AcDbEntity
  8
1
100
AcDbEllipse
 10
461.943111
 20
288.967665
 30
0.0
 11
0.0001758288826046
 21
-0.5000776676690121
 31
0.0
210
0.0
220
0.0
230
1.0
 40
0.140519
 41
3.139090475970854
 42
4.709886802757826
  0
SPLINE
  5
1AA
330
1F
100
AcDbEntity
  8
1
100
AcDbSpline
210
0.0
220
0.0
230
1.0
 70
     8
 71
     3
 72
    36
 73
    32
 74
     0
 42
0.000000001
 43
0.0000000001
 40
0.0
 40
0.0
 40
0.0
 40
0.0
 40
0.1249999999997096
 40
0.1249999999997096
 40
0.1874999999995977
 40
0.1874999999995977
 40
0.2187499999995418
 40
0.2187499999995418
 40
0.2499999999994859
 40
0.2499999999994859
 40
0.3749999999994507
 40
0.3749999999994507
 40
0.4062499999994577
 40
0.4062499999994577
 40
0.4374999999994647
 40
0.4374999999994647
 40
0.4999999999995267
 40
0.4999999999995267
 40
0.6249999999996945
 40
0.6249999999996945
 40
0.6562499999997347
 40
0.6562499999997347
 40
0.6874999999997749
 40
0.749999999999821
 40
0.8124999999998671
 40
0.8124999999998671
 40
0.8437499999998879
 40
0.8437499999998879
 40
0.874999999999909
 40
0.874999999999909
 40
1.0
 40
1.0
 40
1.0
 40
1.0
 10
462.1168676944104
 20
296.6220986167723
 30
0.0
 10
462.1680391152712
 20
296.6238837020636
 30
0.0
 10
462.2181457810047
 20
296.6307938354958
 30
0.0
 10
462.2917999692446
 20
296.6484070407382
 30
0.0
 10
462.316098362357
 20
296.6554959031366
 30
0.0
 10
462.3521602709796
 20
296.6679856178753
 30
0.0
 10
462.3641468458515
 20
296.6724713873973
 30
0.0
 10
462.3878324270334
 20
296.6820108907332
 30
0.0
 10
462.3995119132939
 20
296.6870546745296
 30
0.0
 10
462.4571108610139
 20
296.7136134854491
 30
0.0
 10
462.5006583304453
 20
296.7391088235808
 30
0.0
 10
462.5519711095493
 20
296.7762161126776
 30
0.0
 10
462.5620761342136
 20
296.7839019149756
 30
0.0
 10
462.5819662858692
 20
296.7998103224847
 30
0.0
 10
462.5917724161751
 20
296.8080529542768
 30
0.0
 10
462.6204184744207
 20
296.8333472821752
 30
0.0
 10
462.6385624729708
 20
296.8510162371537
 30
0.0
 10
462.690215678497
 20
296.9063725467624
 30
0.0
 10
462.7209734623069
 20
296.9463862075232
 30
0.0
 10
462.7546765621407
 20
297.0004144071255
 30
0.0
 10
462.7611874693736
 20
297.0114429416741
 30
0.0
 10
462.7735892358933
 20
297.033673921445
 30
0.0
 10
462.7913112947219
 20
297.0673563525996
 30
0.0
 10
462.816524236937
 20
297.1251433549523
 30
0.0
 10
462.8321213209173
 20
297.173117742618
 30
0.0
 10
462.8420667723666
 20
297.2097670912337
 30
0.0
 10
462.8450893230691
 20
297.2220951729219
 30
0.0
 10
462.8505360325006
 20
297.2469796337431
 30
0.0
 10
462.852961874763
 20
297.2595543319556
 30
0.0
 10
462.863464562384
 20
297.3224263573339
 30
0.0
 10
462.8668163782925
 20
297.373126669245
 30
0.0
 10
462.8649853459544
 20
297.4242402388572
 30
0.0
  0
SPLINE
  5
1AB
330
1F
100
AcDbEntity
  8
1
100
AcDbSpline
210
0.0
220
0.0
230
1.0
 70
     8
 71
     3
 72
    18
 73
    14
 74
     0
 42
0.000000001
 43
0.0000000001
 40
0.0
 40
0.0
 40
0.0
 40
0.0
 40
0.2499999999999971
 40
0.2499999999999971
 40
0.3749999999999929
 40
0.3749999999999929
 40
0.4999999999999887
 40
0.4999999999999887
 40
0.6249999999999845
 40
0.6249999999999845
 40
0.7499999999999803
 40
0.7499999999999803
 40
1.0
 40
1.0
 40
1.0
 40
1.0
 10
457.0774496691426
 20
301.3268289533777
 30
0.0
 10
457.0677211234677
 20
301.3250456505968
 30
0.0
 10
457.0578300849133
 20
301.3248518069255
 30
0.0
 10
457.0435763124908
 20
301.3267424068908
 30
0.0
 10
457.0388909775244
 20
301.3277328703058
 30
0.0
 10
457.0296538951361
 20
301.3304394110142
 30
0.0
 10
457.0251498491664
 20
301.3321473545701
 30
0.0
 10
457.0165649331597
 20
301.3361575479145
 30
0.0
 10
457.0124510249865
 20
301.3384691878893
 30
0.0
 10
457.004575702539
 20
301.3436960853699
 30
0.0
 10
457.0007882383968
 20
301.3466384205441
 30
0.0
 10
456.9902631966081
 20
301.3561420016348
 30
0.0
 10
456.9842826302706
 20
301.3633787915952
 30
0.0
 10
456.9793470788603
 20
301.3715228449167
 30
0.0
  0
SPLINE
  5
1AC
330
1F
100
AcDbEntity
  8
1
100
AcDbSpline
210
0.0
220
0.0
230
1.0
 70
     8
 71
     3
 72
    10
 73
     6
 74
     0
 42
0.000000001
 43
0.0000000001
 40
0.0
 40
0.0
 40
0.0
 40
0.0
 40
0.5
 40
0.5
 40
1.0
 40
1.0
 40
1.0
 40
1.0
 10
456.9302524873562
 20
301.4120368418284
 30
0.0
 10
456.9406072682781
 20
301.4082589684248
 30
0.0
 10
456.9500027412508
 20
301.4028142693779
 30
0.0
 10
456.9667238225902
 20
301.3889453459013
 30
0.0
 10
456.9737117895925
 20
301.3808215214904
 30
0.0
 10
456.9793470788603
 20
301.3715228449167
 30
0.0
  0
SPLINE
  5
1AD
330
1F
100
AcDbEntity
  8
1
100
AcDbSpline
210
0.0
220
0.0
230
1.0
 70
     8
 71
     3
 72
    24
 73
    20
 74
     0
 42
0.000000001
 43
0.0000000001
 40
0.0
 40
0.0
 40
0.0
 40
0.0
 40
0.1249999999999323
 40
0.1249999999999323
 40
0.2499999999998644
 40
0.2499999999998644
 40
0.3124999999998758
 40
0.3124999999998758
 40
0.374999999999887
 40
0.374999999999887
 40
0.4999999999999096
 40
0.4999999999999096
 40
0.6249999999999324
 40
0.6249999999999324
 40
0.7499999999999548
 40
0.7499999999999548
 40
0.8749999999999772
 40
0.8749999999999772
 40
1.0
 40
1.0
 40
1.0
 40
1.0
 10
456.2513435567407
 20
301.204641102401
 30
0.0
 10
456.2701592154481
 20
301.2300471278314
 30
0.0
 10
456.2907653184681
 20
301.2537926430833
 30
0.0
 10
456.3355713715544
 20
301.2980019812564
 30
0.0
 10
456.3597695487271
 20
301.3184673619275
 30
0.0
 10
456.3989965731638
 20
301.3465311847106
 30
0.0
 10
456.4124842514224
 20
301.3553810841242
 30
0.0
 10
456.4399532042302
 20
301.3718626279558
 30
0.0
 10
456.4539825034091
 20
301.3795292084647
 30
0.0
 10
456.4969556336825
 20
301.400807698522
 30
0.0
 10
456.5268275733083
 20
301.4127253406205
 30
0.0
 10
456.5888619543261
 20
301.431666035831
 30
0.0
 10
456.6201133135232
 20
301.4384198081526
 30
0.0
 10
456.6830647211367
 20
301.4468041672421
 30
0.0
 10
456.7147770162355
 20
301.4484333985296
 30
0.0
 10
456.7786294635334
 20
301.4464739212192
 30
0.0
 10
456.8098396051868
 20
301.4429185767175
 30
0.0
 10
456.8709884300932
 20
301.4310510162346
 30
0.0
 10
456.900926375838
 20
301.4227362798533
 30
0.0
 10
456.9302524873562
 20
301.4120368418284
 30
0.0
  0
SPLINE
  5
1AE
330
1F
100
AcDbEntity
  8
1
100
AcDbSpline
210
0.0
220
0.0
230
1.0
 70
     8
 71
     3
 72
    27
 73
    23
 74
     0
 42
0.000000001
 43
0.0000000001
 40
0.0
 40
0.0
 40
0.0
 40
0.0
 40
0.1358119458610259
 40
0.1358119458610259
 40
0.2037179187915414
 40
0.2037179187915414
 40
0.271623891722057
 40
0.271623891722057
 40
0.4074358375830142
 40
0.4074358375830142
 40
0.4753418105134928
 40
0.4753418105134928
 40
0.5432477834439712
 40
0.5432477834439712
 40
0.67905972930497
 40
0.67905972930497
 40
0.7469657022354692
 40
0.7469657022354692
 40
0.8148716751659685
 40
0.8148716751659685
 40
0.9506836210269673
 40
1.0
 40
1.0
 40
1.0
 40
1.0
 10
454.7901984759552
 20
301.8542117589813
 30
0.0
 10
454.7646962898657
 20
301.8729525421535
 30
0.0
 10
454.7409187912621
 20
301.8935540794946
 30
0.0
 10
454.7078036068342
 20
301.9271987678294
 30
0.0
 10
454.6971923250401
 20
301.9388728449547
 30
0.0
 10
454.6768418066886
 20
301.9631571709482
 30
0.0
 10
454.6670796283278
 20
301.975807292434
 30
0.0
 10
454.6395798481683
 20
302.0145704502368
 30
0.0
 10
454.6234659856491
 20
302.0416501664492
 30
0.0
 10
454.6025721604972
 20
302.0840951112547
 30
0.0
 10
454.5961562514523
 20
302.0985490839358
 30
0.0
 10
454.5844442871532
 20
302.1280806789417
 30
0.0
 10
454.5791287681443
 20
302.1432300280345
 30
0.0
 10
454.5651279421683
 20
302.1889529337458
 30
0.0
 10
454.5583255045161
 20
302.2198509265389
 30
0.0
 10
454.5518042050205
 20
302.2668032356477
 30
0.0
 10
454.5502471261118
 20
302.2825553808598
 30
0.0
 10
454.548382279009
 20
302.314265086586
 30
0.0
 10
454.5480762541583
 20
302.3302818144043
 30
0.0
 10
454.5490804623298
 20
302.3782284444079
 30
0.0
 10
454.5534320486997
 20
302.421164037115
 30
0.0
 10
454.5622644536388
 20
302.4632686470928
 30
0.0
 10
454.5649386973122
 20
302.4744252120838
 30
0.0
  0
SPLINE
  5
1AF
330
1F
100
AcDbEntity
  8
1
100
AcDbSpline
210
0.0
220
0.0
230
1.0
 70
     8
 71
     3
 72
    21
 73
    17
 74
     0
 42
0.000000001
 43
0.0000000001
 40
0.0
 40
0.0
 40
0.0
 40
0.0
 40
0.124362081925085
 40
0.124362081925085
 40
0.2119258737325942
 40
0.2119258737325942
 40
0.2994896655401034
 40
0.2994896655401034
 40
0.474617249155018
 40
0.474617249155018
 40
0.5621810409624724
 40
0.5621810409624724
 40
0.6497448327699268
 40
0.6497448327699268
 40
0.8248724163849633
 40
1.0
 40
1.0
 40
1.0
 40
1.0
 10
457.4973091123921
 20
301.638001123199
 30
0.0
 10
457.4869239702551
 20
301.6180280855889
 30
0.0
 10
457.4754630207748
 20
301.5987263512463
 30
0.0
 10
457.4541196473156
 20
301.5669652723234
 30
0.0
 10
457.444771150577
 20
301.5541727777654
 30
0.0
 10
457.4249928763007
 20
301.5292624574438
 30
0.0
 10
457.4145106850427
 20
301.5170919886784
 30
0.0
 10
457.3818821246458
 20
301.4821527271077
 30
0.0
 10
457.3585421465828
 20
301.4608770166861
 30
0.0
 10
457.3212232592679
 20
301.4318979770401
 30
0.0
 10
457.3083969612743
 20
301.4227297524541
 30
0.0
 10
457.281961223456
 20
301.4053890643639
 30
0.0
 10
457.2683000345379
 20
301.3971888891815
 30
0.0
 10
457.2264726835905
 20
301.374328132874
 30
0.0
 10
457.1690606851523
 20
301.3487427572616
 30
0.0
 10
457.1085207042894
 20
301.3325244668929
 30
0.0
 10
457.0774496691426
 20
301.3268289533777
 30
0.0
  0
SPLINE
  5
1B0
330
1F
100
AcDbEntity
  8
1
100
AcDbSpline
210
0.0
220
0.0
230
1.0
 70
     8
 71
     3
 72
    18
 73
    14
 74
     0
 42
0.000000001
 43
0.0000000001
 40
0.0
 40
0.0
 40
0.0
 40
0.0
 40
0.2127774583455773
 40
0.2127774583455773
 40
0.4255549166911543
 40
0.4255549166911543
 40
0.531943645863943
 40
0.531943645863943
 40
0.6383323750367314
 40
0.6383323750367314
 40
0.8511098333822973
 40
0.8511098333822973
 40
1.0
 40
1.0
 40
1.0
 40
1.0
 10
454.8875875280386
 20
303.3132812847527
 30
0.0
 10
454.9000732083361
 20
303.2850637390228
 30
0.0
 10
454.9102383405571
 20
303.2560599827573
 30
0.0
 10
454.9259585398664
 20
303.1964306274891
 30
0.0
 10
454.9315158249753
 20
303.1658058809321
 30
0.0
 10
454.9361317799878
 20
303.1185116570939
 30
0.0
 10
454.9370319222882
 20
303.1026179906423
 30
0.0
 10
454.9375404496132
 20
303.0709557288227
 30
0.0
 10
454.937154974662
 20
303.0551290322046
 30
0.0
 10
454.9340805691638
 20
303.0076583408038
 30
0.0
 10
454.9294755322184
 20
302.9759731132068
 30
0.0
 10
454.917109959006
 20
302.9223032490524
 30
0.0
 10
454.9108203573468
 20
302.9007143252347
 30
0.0
 10
454.9033788323351
 20
302.8796108913781
 30
0.0
  0
SPLINE
  5
1B1
330
1F
100
AcDbEntity
  8
1
100
AcDbSpline
210
0.0
220
0.0
230
1.0
 70
     8
 71
     3
 72
    10
 73
     6
 74
     0
 42
0.000000001
 43
0.0000000001
 40
0.0
 40
0.0
 40
0.0
 40
0.0
 40
0.5
 40
0.5
 40
1.0
 40
1.0
 40
1.0
 40
1.0
 10
454.844332198831
 20
303.3587235151493
 30
0.0
 10
454.8538951952503
 20
303.3538762734957
 30
0.0
 10
454.8624221178172
 20
303.3475649059313
 30
0.0
 10
454.8772302126062
 20
303.3320663817582
 30
0.0
 10
454.8831788067328
 20
303.3232449625092
 30
0.0
 10
454.8875875280386
 20
303.3132812847527
 30
0.0
  0
SPLINE
  5
1B2
330
1F
100
AcDbEntity
  8
1
100
AcDbSpline
210
0.0
220
0.0
230
1.0
 70
     8
 71
     3
 72
    20
 73
    16
 74
     0
 42
0.000000001
 43
0.0000000001
 40
0.0
 40
0.0
 40
0.0
 40
0.0
 40
0.1249999999999999
 40
0.1249999999999999
 40
0.2499999999999998
 40
0.2499999999999998
 40
0.3749999999999998
 40
0.3749999999999998
 40
0.4999999999999998
 40
0.4999999999999998
 40
0.6249999999999997
 40
0.6249999999999997
 40
0.7499999999999997
 40
0.7499999999999997
 40
1.0
 40
1.0
 40
1.0
 40
1.0
 10
454.844332198831
 20
303.3587235151493
 30
0.0
 10
454.8401484429708
 20
303.3608441554575
 30
0.0
 10
454.8361543144109
 20
303.3632562223248
 30
0.0
 10
454.8285429261108
 20
303.3686592337461
 30
0.0
 10
454.8249239509542
 20
303.3716585265064
 30
0.0
 10
454.8182363336661
 20
303.3780983463957
 30
0.0
 10
454.8151438310559
 20
303.3815537783619
 30
0.0
 10
454.8094701307928
 20
303.3889428262017
 30
0.0
 10
454.8068723558258
 20
303.3929102654645
 30
0.0
 10
454.8023383407756
 20
303.4011538502671
 30
0.0
 10
454.8003938127233
 20
303.4054293975792
 30
0.0
 10
454.7971563757065
 20
303.414290100415
 30
0.0
 10
454.7958575115879
 20
303.4189063933585
 30
0.0
 10
454.7930580710802
 20
303.4330358189576
 30
0.0
 10
454.7926467005906
 20
303.4426245011916
 30
0.0
 10
454.7937828050893
 20
303.4523899343729
 30
0.0
  0
SPLINE
  5
1B3
330
1F
100
AcDbEntity
  8
1
100
AcDbSpline
210
0.0
220
0.0
230
1.0
 70
     8
 71
     3
 72
    14
 73
    10
 74
     0
 42
0.000000001
 43
0.0000000001
 40
0.0
 40
0.0
 40
0.0
 40
0.0
 40
0.0909779694665331
 40
0.0909779694665331
 40
0.3939853129776885
 40
0.3939853129776885
 40
0.6969926564888443
 40
0.6969926564888443
 40
1.0
 40
1.0
 40
1.0
 40
1.0
 10
457.4555673305119
 20
302.4293523391823
 30
0.0
 10
457.4587404408126
 20
302.4383509650585
 30
0.0
 10
457.4621214876521
 20
302.447248445804
 30
0.0
 10
457.4776481470787
 20
302.4853497063252
 30
0.0
 10
457.4918632953762
 20
302.5135620025183
 30
0.0
 10
457.5249049517346
 20
302.5677195606613
 30
0.0
 10
457.5432466098034
 20
302.5928790551899
 30
0.0
 10
457.583329401755
 20
302.6396995104322
 30
0.0
 10
457.6050722904669
 20
302.6613585603997
 30
0.0
 10
457.6285377161469
 20
302.6812868608214
 30
0.0
  0
SPLINE
  5
1B4
330
1F
100
AcDbEntity
  8
1
100
AcDbSpline
210
0.0
220
0.0
230
1.0
 70
     8
 71
     3
 72
    10
 73
     6
 74
     0
 42
0.000000001
 43
0.0000000001
 40
0.0
 40
0.0
 40
0.0
 40
0.0
 40
0.5
 40
0.5
 40
1.0
 40
1.0
 40
1.0
 40
1.0
 10
457.6285377161469
 20
302.6812868608214
 30
0.0
 10
457.6368235232827
 20
302.6883236841073
 30
0.0
 10
457.6460546729355
 20
302.6936911351977
 30
0.0
 10
457.6660466019636
 20
302.7011416332836
 30
0.0
 10
457.6763818029554
 20
302.7030819550006
 30
0.0
 10
457.6870537646295
 20
302.7032631619592
 30
0.0
  0
SPLINE
  5
1B5
330
1F
100
AcDbEntity
  8
1
100
AcDbSpline
210
0.0
220
0.0
230
1.0
 70
     8
 71
     3
 72
    16
 73
    12
 74
     0
 42
0.000000001
 43
0.0000000001
 40
0.0
 40
0.0
 40
0.0
 40
0.0
 40
0.0631184670963442
 40
0.0631184670963442
 40
0.2504947736768897
 40
0.2504947736768897
 40
0.437871080257435
 40
0.437871080257435
 40
0.6252473868379802
 40
0.6252473868379802
 40
1.0
 40
1.0
 40
1.0
 40
1.0
 10
457.7534064973868
 20
302.7327247789613
 30
0.0
 10
457.752320107208
 20
302.7315570191301
 30
0.0
 10
457.7512024443814
 20
302.7304164724978
 30
0.0
 10
457.7466424915228
 20
302.7259983461956
 30
0.0
 10
457.7429842542102
 20
302.7229698502965
 30
0.0
 10
457.7353698077124
 20
302.7175786396666
 30
0.0
 10
457.7313890511269
 20
302.7151917078137
 30
0.0
 10
457.7230865297287
 20
302.7110262758275
 30
0.0
 10
457.7187287827991
 20
302.7092387931755
 30
0.0
 10
457.7054872732797
 20
302.7049393597885
 30
0.0
 10
457.6964003984584
 20
302.7034218652173
 30
0.0
 10
457.6870537646295
 20
302.7032631619592
 30
0.0
  0
SPLINE
  5
1B6
330
1F
100
AcDbEntity
  8
1
100
AcDbSpline
210
0.0
220
0.0
230
1.0
 70
     8
 71
     3
 72
    10
 73
     6
 74
     0
 42
0.000000001
 43
0.0000000001
 40
0.0
 40
0.0
 40
0.0
 40
0.0
 40
0.5
 40
0.5
 40
1.0
 40
1.0
 40
1.0
 40
1.0
 10
452.3561535982119
 20
293.5253380093445
 30
0.0
 10
452.0861472918276
 20
293.5363736564548
 30
0.0
 10
451.8132482470632
 20
293.5516386908948
 30
0.0
 10
451.262577551089
 20
293.592169238289
 30
0.0
 10
450.9847997803516
 20
293.6174260678909
 30
0.0
 10
450.7048419452957
 20
293.6482817686002
 30
0.0
  0
SPLINE
  5
1B7
330
1F
100
AcDbEntity
  8
1
100
AcDbSpline
210
0.0
220
0.0
230
1.0
 70
     8
 71
     3
 72
    10
 73
     6
 74
     0
 42
0.000000001
 43
0.0000000001
 40
0.0
 40
0.0
 40
0.0
 40
0.0
 40
0.5
 40
0.5
 40
1.0
 40
1.0
 40
1.0
 40
1.0
 10
450.7048419452957
 20
291.9469670271741
 30
0.0
 10
450.9938595692719
 20
291.9410153409676
 30
0.0
 10
451.2804592806835
 20
291.9450160056267
 30
0.0
 10
451.8482279748944
 20
291.9724898452137
 30
0.0
 10
452.1294044223684
 20
291.9959617563593
 30
0.0
 10
452.4073451907431
 20
292.029123225356
 30
0.0
  0
SPLINE
  5
1B8
330
1F
100
AcDbEntity
  8
1
100
AcDbSpline
210
0.0
220
0.0
230
1.0
 70
    24
 71
     3
 72
    14
 73
    10
 74
     0
 42
0.000000001
 43
0.0000000001
 40
0.0
 40
0.0
 40
0.0
 40
0.0
 40
0.2520087430503675
 40
0.2520087430503675
 40
0.5040174861007351
 40
0.5040174861007351
 40
0.7560262291511025
 40
0.7560262291511025
 40
1.0
 40
1.0
 40
1.0
 40
1.0
 10
450.7048419452957
 20
293.6482817686002
 30
0.0
 10
450.7048419452957
 20
293.3151166338062
 30
0.0
 10
450.7048419452957
 20
293.0259684676863
 30
0.0
 10
450.7048419452957
 20
292.5427703824523
 30
0.0
 10
450.7048419452957
 20
292.3487253000955
 30
0.0
 10
450.7048419452957
 20
292.0604838590958
 30
0.0
 10
450.7048419452956
 20
291.9662903857165
 30
0.0
 10
450.7048419452957
 20
291.8814339011026
 30
0.0
 10
450.7048419452957
 20
291.8875665185591
 30
0.0
 10
450.7048419452957
 20
291.9414843886705
 30
0.0
  0
SPLINE
  5
1B9
330
1F
100
AcDbEntity
  8
1
100
AcDbSpline
210
0.0
220
0.0
230
1.0
 70
     8
 71
     3
 72
    22
 73
    18
 74
     0
 42
0.000000001
 43
0.0000000001
 40
0.0
 40
0.0
 40
0.0
 40
0.0
 40
0.1249999999999998
 40
0.1249999999999998
 40
0.2499999999999998
 40
0.2499999999999998
 40
0.3749999999999998
 40
0.3749999999999998
 40
0.4999999999999999
 40
0.4999999999999999
 40
0.6249999999999999
 40
0.6249999999999999
 40
0.75
 40
0.75
 40
0.8749999999999998
 40
0.8749999999999998
 40
1.0
 40
1.0
 40
1.0
 40
1.0
 10
443.7366531192821
 20
297.1871869712911
 30
0.0
 10
444.0165029204718
 20
296.9708592347648
 30
0.0
 10
444.2974003286359
 20
296.7643788427396
 30
0.0
 10
444.8615662270722
 20
296.3696474532598
 30
0.0
 10
445.1448356934179
 20
296.1814000271031
 30
0.0
 10
445.7140277118624
 20
295.8221093425234
 30
0.0
 10
445.999951557211
 20
295.6510686583904
 30
0.0
 10
446.5747055740521
 20
295.3255061840787
 30
0.0
 10
446.8635378080221
 20
295.1709865223223
 30
0.0
 10
447.4442850016211
 20
294.8780523345572
 30
0.0
 10
447.7362039206034
 20
294.7396401146135
 30
0.0
 10
448.3231391499878
 20
294.4787148114703
 30
0.0
 10
448.6181640016218
 20
294.3562054150561
 30
0.0
 10
449.210989638685
 20
294.1270034200923
 30
0.0
 10
449.5088577509751
 20
294.0203264480319
 30
0.0
 10
450.1059131881996
 20
293.8226131792212
 30
0.0
 10
450.4051848804756
 20
293.731579226954
 30
0.0
 10
450.7048419452956
 20
293.6482817686002
 30
0.0
  0
SPLINE
  5
1BA
330
1F
100
AcDbEntity
  8
1
100
AcDbSpline
210
0.0
220
0.0
230
1.0
 70
     8
 71
     3
 72
   140
 73
   136
 74
     0
 42
0.000000001
 43
0.0000000001
 40
0.0
 40
0.0
 40
0.0
 40
0.0
 40
0.0156249999999981
 40
0.0156249999999981
 40
0.0234374999999972
 40
0.0234374999999972
 40
0.0312499999999964
 40
0.0312499999999964
 40
0.0624999999999908
 40
0.0937499999999852
 40
0.0937499999999852
 40
0.101562499999984
 40
0.101562499999984
 40
0.1093749999999828
 40
0.124999999999981
 40
0.124999999999981
 40
0.1328124999999798
 40
0.1328124999999798
 40
0.1406249999999785
 40
0.1406249999999785
 40
0.1562499999999756
 40
0.1718749999999728
 40
0.1718749999999728
 40
0.1796874999999713
 40
0.1796874999999713
 40
0.1874999999999699
 40
0.2031249999999664
 40
0.2031249999999664
 40
0.2109374999999648
 40
0.2109374999999648
 40
0.2187499999999631
 40
0.2187499999999631
 40
0.249999999999957
 40
0.249999999999957
 40
0.2578124999999559
 40
0.2578124999999559
 40
0.2656249999999548
 40
0.2812499999999526
 40
0.2812499999999526
 40
0.2890624999999515
 40
0.2890624999999515
 40
0.2968749999999505
 40
0.2968749999999505
 40
0.3124999999999483
 40
0.3281249999999461
 40
0.3281249999999461
 40
0.335937499999945
 40
0.335937499999945
 40
0.3437499999999439
 40
0.3593749999999417
 40
0.3593749999999417
 40
0.3671874999999405
 40
0.3671874999999405
 40
0.3749999999999393
 40
0.3749999999999393
 40
0.4062499999999363
 40
0.4062499999999363
 40
0.4140624999999357
 40
0.4140624999999357
 40
0.4218749999999353
 40
0.4374999999999342
 40
0.4374999999999342
 40
0.445312499999934
 40
0.445312499999934
 40
0.4531249999999338
 40
0.4531249999999338
 40
0.468749999999934
 40
0.4843749999999341
 40
0.4843749999999341
 40
0.4921874999999342
 40
0.4921874999999342
 40
0.4999999999999342
 40
0.5156249999999344
 40
0.5156249999999344
 40
0.5234374999999344
 40
0.5234374999999344
 40
0.5312499999999345
 40
0.5312499999999345
 40
0.5624999999999378
 40
0.5624999999999378
 40
0.5703124999999388
 40
0.5703124999999388
 40
0.5781249999999396
 40
0.5937499999999423
 40
0.5937499999999423
 40
0.609374999999945
 40
0.609374999999945
 40
0.6249999999999478
 40
0.6406249999999507
 40
0.6406249999999507
 40
0.6562499999999533
 40
0.6562499999999533
 40
0.6718749999999561
 40
0.6718749999999561
 40
0.6874999999999588
 40
0.6874999999999588
 40
0.7031249999999617
 40
0.7031249999999617
 40
0.7109374999999623
 40
0.7109374999999623
 40
0.7187499999999631
 40
0.7187499999999631
 40
0.7499999999999667
 40
0.7499999999999667
 40
0.7578124999999682
 40
0.7578124999999682
 40
0.7656249999999698
 40
0.781249999999972
 40
0.781249999999972
 40
0.789062499999973
 40
0.789062499999973
 40
0.7968749999999741
 40
0.7968749999999741
 40
0.812499999999976
 40
0.8281249999999781
 40
0.8281249999999781
 40
0.8437499999999801
 40
0.8437499999999801
 40
0.8593749999999818
 40
0.8593749999999818
 40
0.8749999999999838
 40
0.8749999999999838
 40
0.8906249999999859
 40
0.8906249999999859
 40
0.9062499999999879
 40
0.9062499999999879
 40
0.937499999999992
 40
0.937499999999992
 40
0.9687499999999957
 40
0.9687499999999957
 40
0.9765624999999968
 40
0.9765624999999968
 40
0.9843749999999975
 40
0.9843749999999975
 40
1.0
 40
1.0
 40
1.0
 40
1.0
 10
460.473621616941
 20
282.5579935136939
 30
0.0
 10
460.4650290603226
 20
282.5110308008074
 30
0.0
 10
460.4565673148445
 20
282.4631830243022
 30
0.0
 10
460.4440711256812
 20
282.3900823274061
 30
0.0
 10
460.4399330862433
 20
282.3654604542792
 30
0.0
 10
460.4317607341902
 20
282.3160020578022
 30
0.0
 10
460.4277242448268
 20
282.2911540498241
 30
0.0
 10
460.4077862919385
 20
282.1663293810189
 30
0.0
 10
460.3774438140731
 20
281.9628838629451
 30
0.0
 10
460.3501244445913
 20
281.7522095495215
 30
0.0
 10
460.3340149222166
 20
281.6182304154505
 30
0.0
 10
460.3308388910893
 20
281.591295201222
 30
0.0
 10
460.3246167602462
 20
281.5374691313179
 30
0.0
 10
460.3154673610238
 20
281.4567061682774
 30
0.0
 10
460.3068646367673
 20
281.3758722428767
 30
0.0
 10
460.2986245413729
 20
281.2949912456295
 30
0.0
 10
460.295938330109
 20
281.268023061538
 30
0.0
 10
460.2906871717706
 20
281.2140709523872
 30
0.0
 10
460.288120907405
 20
281.1870718405024
 30
0.0
 10
460.2806297316209
 20
281.1063228739495
 30
0.0
 10
460.2711786332723
 20
280.9991601427069
 30
0.0
 10
460.2627905456939
 20
280.8929919901177
 30
0.0
 10
460.2568990466316
 20
280.8137397198954
 30
0.0
 10
460.2550009546218
 20
280.7873703233688
 30
0.0
 10
460.2513505165963
 20
280.734929624135
 30
0.0
 10
460.2460891010858
 20
280.6566583279661
 30
0.0
 10
460.2414656355921
 20
280.5795476038491
 30
0.0
 10
460.2372662254146
 20
280.503208330059
 30
0.0
 10
460.2359371542498
 20
280.4778905830142
 30
0.0
 10
460.2334209534183
 20
280.4275133118756
 30
0.0
 10
460.2322333275166
 20
280.4024405898523
 30
0.0
 10
460.2266694523972
 20
280.2781291518457
 30
0.0
 10
460.2233956343329
 20
280.1817442689292
 30
0.0
 10
460.2207711318338
 20
280.0650835244006
 30
0.0
 10
460.2203198195488
 20
280.041931301959
 30
0.0
 10
460.219567642481
 20
279.9961600024149
 30
0.0
 10
460.2186638042832
 20
279.9282526760963
 30
0.0
 10
460.218429351978
 20
279.8625812044472
 30
0.0
 10
460.2186412898668
 20
279.7984007465939
 30
0.0
 10
460.2187863929619
 20
279.777255959231
 30
0.0
 10
460.219226254701
 20
279.7354662576904
 30
0.0
 10
460.2195213164359
 20
279.7148110134835
 30
0.0
 10
460.2206285855372
 20
279.6537965779382
 30
0.0
 10
460.2226973105294
 20
279.5748570567933
 30
0.0
 10
460.225945674236
 20
279.5007229052813
 30
0.0
 10
460.2288280536744
 20
279.4469395492242
 30
0.0
 10
460.2298639505167
 20
279.4293062433118
 30
0.0
 10
460.2320782326996
 20
279.3947625602906
 30
0.0
 10
460.2356153515476
 20
279.3439920027712
 30
0.0
 10
460.2397968116159
 20
279.296343045334
 30
0.0
 10
460.2444093265253
 20
279.2507823926433
 30
0.0
 10
460.2460187309621
 20
279.2359438353162
 30
0.0
 10
460.2493822902608
 20
279.2069679840997
 30
0.0
 10
460.2511375229706
 20
279.1928239136114
 30
0.0
 10
460.2602477185135
 20
279.1240974962777
 30
0.0
 10
460.2686190227373
 20
279.0752944428334
 30
0.0
 10
460.2804500470928
 20
279.0220871442968
 30
0.0
 10
460.2828863314116
 20
279.0118323673926
 30
0.0
 10
460.2878801526704
 20
278.9921783843346
 30
0.0
 10
460.295558010865
 20
278.9639559567873
 30
0.0
 10
460.3037953531765
 20
278.9394964265625
 30
0.0
 10
460.3124077034911
 20
278.9175590709072
 30
0.0
 10
460.3153410385846
 20
278.9106673198946
 30
0.0
 10
460.3213337715515
 20
278.8977316726744
 30
0.0
 10
460.3243950016512
 20
278.8916853362603
 30
0.0
 10
460.3337365968083
 20
278.874886784082
 30
0.0
 10
460.3466308346539
 20
278.8560162721228
 30
0.0
 10
460.3604018685227
 20
278.8441947713843
 30
0.0
 10
460.3710629879674
 20
278.8380045491584
 30
0.0
 10
460.3746743940927
 20
278.8363875615645
 30
0.0
 10
460.3819830004272
 20
278.8340616933949
 30
0.0
 10
460.3930829399309
 20
278.831929309715
 30
0.0
 10
460.4045925261782
 20
278.8338518953399
 30
0.0
 10
460.4163766729433
 20
278.8384922725478
 30
0.0
 10
460.4203505194453
 20
278.8404924013541
 30
0.0
 10
460.4283905156324
 20
278.8454063402838
 30
0.0
 10
460.4324584273536
 20
278.8483224044165
 30
0.0
 10
460.4529544555099
 20
278.8651411621872
 30
0.0
 10
460.4699057835343
 20
278.8857568276544
 30
0.0
 10
460.491795014378
 20
278.9205668401942
 30
0.0
 10
460.4962076428582
 20
278.9279831492005
 30
0.0
 10
460.5050699214869
 20
278.9436690552918
 30
0.0
 10
460.5184313031234
 20
278.9684976034306
 30
0.0
 10
460.5319957346056
 20
278.9972091314267
 30
0.0
 10
460.5502629041287
 20
279.0389574720344
 30
0.0
 10
460.5595040313556
 20
279.0616119163138
 30
0.0
 10
460.5780487738274
 20
279.1101183886101
 30
0.0
 10
460.5966701439237
 20
279.1618427288527
 30
0.0
 10
460.6154443006777
 20
279.2199831271654
 30
0.0
 10
460.6342956490811
 20
279.2813650788614
 30
0.0
 10
460.6437072837536
 20
279.3135056776861
 30
0.0
 10
460.6624983889357
 20
279.3806415515015
 30
0.0
 10
460.6718785915764
 20
279.4156392347664
 30
0.0
 10
460.6906082068292
 20
279.4885024887592
 30
0.0
 10
460.6999659469878
 20
279.5264087953349
 30
0.0
 10
460.718511469153
 20
279.6045297409166
 30
0.0
 10
460.7277158898511
 20
279.64480606236
 30
0.0
 10
460.7414204606233
 20
279.7070363061678
 30
0.0
 10
460.7459716265834
 20
279.728082601256
 30
0.0
 10
460.7550398139225
 20
279.7707826601131
 30
0.0
 10
460.7595610368818
 20
279.7924571382243
 30
0.0
 10
460.7820208164424
 20
279.9020605037761
 30
0.0
 10
460.7995139753279
 20
279.9936102351396
 30
0.0
 10
460.8207926960765
 20
280.1128355502267
 30
0.0
 10
460.8250220675462
 20
280.136939717425
 30
0.0
 10
460.833393247347
 20
280.1854662654353
 30
0.0
 10
460.84582664278
 20
280.2587768608055
 30
0.0
 10
460.8578930694636
 20
280.3336364627011
 30
0.0
 10
460.8697159981509
 20
280.409523890496
 30
0.0
 10
460.8736163577998
 20
280.4349911458248
 30
0.0
 10
460.8813356287516
 20
280.4862694569285
 30
0.0
 10
460.8851550084097
 20
280.5120847274802
 30
0.0
 10
460.8964501513611
 20
280.5897675970694
 30
0.0
 10
460.911103959664
 20
280.6941592965508
 30
0.0
 10
460.9249535110984
 20
280.8001630234631
 30
0.0
 10
460.938399895414
 20
280.9069748459974
 30
0.0
 10
460.9448986939386
 20
280.9606073341953
 30
0.0
 10
460.9574168031733
 20
281.0680195719042
 30
0.0
 10
460.9634421181055
 20
281.1218468880492
 30
0.0
 10
460.975026571247
 20
281.2297432394794
 30
0.0
 10
460.9805923668278
 20
281.2838860128995
 30
0.0
 10
460.9911881974831
 20
281.3917320660555
 30
0.0
 10
460.9962258635749
 20
281.445500219258
 30
0.0
 10
461.0057846149651
 20
281.5527291103085
 30
0.0
 10
461.0103095257488
 20
281.6062379201598
 30
0.0
 10
461.023081011953
 20
281.7659964965727
 30
0.0
 10
461.030433447162
 20
281.8702765743064
 30
0.0
 10
461.0429084316966
 20
282.0745653034578
 30
0.0
 10
461.0480306793681
 20
282.1745733770467
 30
0.0
 10
461.0530261444573
 20
282.2968876502116
 30
0.0
 10
461.0539545941252
 20
282.3212151849766
 30
0.0
 10
461.0556687442954
 20
282.3695968133642
 30
0.0
 10
461.0564552854239
 20
282.3936804456928
 30
0.0
 10
461.0585908763794
 20
282.4652730555142
 30
0.0
 10
461.0597158399824
 20
282.5120866376662
 30
0.0
 10
461.060544691153
 20
282.5579935136939
 30
0.0
  0
SPLINE
  5
1BB
330
1F
100
AcDbEntity
  8
1
100
AcDbSpline
210
0.0
220
0.0
230
1.0
 70
     8
 71
     3
 72
    59
 73
    55
 74
     0
 42
0.000000001
 43
0.0000000001
 40
0.0
 40
0.0
 40
0.0
 40
0.0
 40
0.0625000000000077
 40
0.0625000000000077
 40
0.1250000000000153
 40
0.1250000000000153
 40
0.1562500000000184
 40
0.1562500000000184
 40
0.1875000000000214
 40
0.2187500000000245
 40
0.2187500000000245
 40
0.2343750000000255
 40
0.2343750000000255
 40
0.2500000000000266
 40
0.2812500000000277
 40
0.2812500000000277
 40
0.3125000000000288
 40
0.3125000000000288
 40
0.3750000000000299
 40
0.3750000000000299
 40
0.406250000000029
 40
0.406250000000029
 40
0.4375000000000278
 40
0.4687500000000269
 40
0.4687500000000269
 40
0.4843750000000274
 40
0.4843750000000274
 40
0.5000000000000279
 40
0.5000000000000279
 40
0.5625000000000271
 40
0.6250000000000262
 40
0.6250000000000262
 40
0.6406250000000254
 40
0.6406250000000254
 40
0.6562500000000244
 40
0.6562500000000244
 40
0.6875000000000223
 40
0.7187500000000205
 40
0.7187500000000205
 40
0.7500000000000185
 40
0.7500000000000185
 40
0.7812500000000166
 40
0.7812500000000166
 40
0.8125000000000145
 40
0.8125000000000145
 40
0.8750000000000101
 40
0.8750000000000101
 40
0.9062500000000074
 40
0.9062500000000074
 40
0.9375000000000051
 40
0.9375000000000051
 40
0.9687500000000024
 40
0.9687500000000024
 40
1.0
 40
1.0
 40
1.0
 40
1.0
 10
461.060544691153
 20
282.5579935136939
 30
0.0
 10
461.0529006118561
 20
282.6490995652474
 30
0.0
 10
461.0444933215704
 20
282.7365823012145
 30
0.0
 10
461.0261341942576
 20
282.9042150953499
 30
0.0
 10
461.0162766158564
 20
282.9835036979439
 30
0.0
 10
461.0004762405477
 20
283.0956421811094
 30
0.0
 10
460.9950298739148
 20
283.1319464199509
 30
0.0
 10
460.9838518593681
 20
283.2018799313871
 30
0.0
 10
460.972389610599
 20
283.2691525903612
 30
0.0
 10
460.9603597466635
 20
283.331111532355
 30
0.0
 10
460.9511221772298
 20
283.3755664157214
 30
0.0
 10
460.9480044264219
 20
283.3900602764324
 30
0.0
 10
460.9417154811772
 20
283.4182854396542
 30
0.0
 10
460.9321987511065
 20
283.4594965369089
 30
0.0
 10
460.9224330599699
 20
283.4973408839187
 30
0.0
 10
460.9091900022454
 20
283.5447960209177
 30
0.0
 10
460.9024509030806
 20
283.5670411114717
 30
0.0
 10
460.8819375955619
 20
283.6290686031396
 30
0.0
 10
460.8679593304562
 20
283.663903280706
 30
0.0
 10
460.8465351808126
 20
283.7063225185754
 30
0.0
 10
460.8393077415923
 20
283.7188262727569
 30
0.0
 10
460.8248158015583
 20
283.7403231006239
 30
0.0
 10
460.8102613199419
 20
283.7583692302138
 30
0.0
 10
460.7955821812804
 20
283.7695374741534
 30
0.0
 10
460.7845256505731
 20
283.7753107073634
 30
0.0
 10
460.7808322713936
 20
283.7768009536765
 30
0.0
 10
460.7734296272346
 20
283.7789049558203
 30
0.0
 10
460.7697147086578
 20
283.7795183846609
 30
0.0
 10
460.7511935969987
 20
283.7803681462179
 30
0.0
 10
460.7218525776342
 20
283.7676577863514
 30
0.0
 10
460.6930805109374
 20
283.7276036256225
 30
0.0
 10
460.6752796350527
 20
283.693838937322
 30
0.0
 10
460.6717285791153
 20
283.6866477300483
 30
0.0
 10
460.6646449513341
 20
283.6713769720372
 30
0.0
 10
460.6611078102798
 20
283.6632861415965
 30
0.0
 10
460.6505594726137
 20
283.6377445232048
 30
0.0
 10
460.6366898304943
 20
283.6003836216822
 30
0.0
 10
460.6232066944322
 20
283.5564646709793
 30
0.0
 10
460.6099177386862
 20
283.5092509619158
 30
0.0
 10
460.603368396182
 20
283.4839793849444
 30
0.0
 10
460.5905612979982
 20
283.4305121351188
 30
0.0
 10
460.5842910438802
 20
283.4022750460954
 30
0.0
 10
460.572016291687
 20
283.3428033456354
 30
0.0
 10
460.5660043269584
 20
283.3115265643952
 30
0.0
 10
460.5484221247743
 20
283.2134452017539
 30
0.0
 10
460.5373635878485
 20
283.1427670979193
 30
0.0
 10
460.5217613957814
 20
283.0288842456549
 30
0.0
 10
460.5167262205851
 20
282.9896014662669
 30
0.0
 10
460.5070576746026
 20
282.908980663017
 30
0.0
 10
460.5024145726934
 20
282.8675746024603
 30
0.0
 10
460.4935086754257
 20
282.7825828301948
 30
0.0
 10
460.4892401847995
 20
282.7389334884806
 30
0.0
 10
460.4811134137706
 20
282.6497412992686
 30
0.0
 10
460.4772625368157
 20
282.6042899162076
 30
0.0
 10
460.473621616941
 20
282.5579935136939
 30
0.0
  0
SPLINE
  5
1BC
330
1F
100
AcDbEntity
  8
1
100
AcDbSpline
210
0.0
220
0.0
230
1.0
 70
     8
 71
     3
 72
    73
 73
    69
 74
     0
 42
0.000000001
 43
0.0000000001
 40
0.0
 40
0.0
 40
0.0
 40
0.0
 40
0.0312499999999999
 40
0.0312499999999999
 40
0.0624999999999998
 40
0.0624999999999998
 40
0.0937499999999998
 40
0.0937499999999998
 40
0.1249999999999997
 40
0.1249999999999997
 40
0.1562499999999996
 40
0.1562499999999996
 40
0.1874999999999996
 40
0.1874999999999996
 40
0.2187499999999995
 40
0.2187499999999995
 40
0.2499999999999994
 40
0.2499999999999994
 40
0.2812499999999993
 40
0.2812499999999993
 40
0.3124999999999992
 40
0.3124999999999992
 40
0.3437499999999992
 40
0.3437499999999992
 40
0.3749999999999991
 40
0.3749999999999991
 40
0.3906249999999991
 40
0.3906249999999991
 40
0.406249999999999
 40
0.406249999999999
 40
0.421874999999999
 40
0.421874999999999
 40
0.437499999999999
 40
0.437499999999999
 40
0.4687499999999988
 40
0.4687499999999988
 40
0.4999999999999988
 40
0.4999999999999988
 40
0.5312499999999987
 40
0.5312499999999987
 40
0.5624999999999987
 40
0.5624999999999987
 40
0.5937499999999986
 40
0.5937499999999986
 40
0.6249999999999984
 40
0.6249999999999984
 40
0.6406249999999984
 40
0.6406249999999984
 40
0.6562499999999984
 40
0.6562499999999984
 40
0.6874999999999984
 40
0.6874999999999984
 40
0.7187499999999983
 40
0.7187499999999983
 40
0.7499999999999983
 40
0.7499999999999983
 40
0.8124999999999985
 40
0.8124999999999985
 40
0.8437499999999987
 40
0.8437499999999987
 40
0.8749999999999991
 40
0.8749999999999991
 40
0.9062499999999992
 40
0.9374999999999996
 40
0.9374999999999996
 40
0.96875
 40
0.96875
 40
1.0
 40
1.0
 40
1.0
 40
1.0
 10
307.7780230130898
 20
282.1349216432274
 30
0.0
 10
309.1425179957342
 20
281.8807376930266
 30
0.0
 10
310.5075448323757
 20
281.6316186169257
 30
0.0
 10
313.2384886339825
 20
281.14232738222
 30
0.0
 10
314.6044052628583
 20
280.9021535081583
 30
0.0
 10
317.3369295759581
 20
280.429543843388
 30
0.0
 10
318.703536935997
 20
280.1971064825693
 30
0.0
 10
321.4372287609359
 20
279.7387880505648
 30
0.0
 10
322.8043129186112
 20
279.5129055612082
 30
0.0
 10
325.5387389961241
 20
279.0665869449953
 30
0.0
 10
326.9060806252589
 20
278.8461495370354
 30
0.0
 10
329.6408058734062
 20
278.4097234385818
 30
0.0
 10
331.0081892135939
 20
278.193733576867
 30
0.0
 10
333.7427942034533
 20
277.7653538796863
 30
0.0
 10
335.1097676853448
 20
277.553001747907
 30
0.0
 10
337.8428109396533
 20
277.1313156129802
 30
0.0
 10
339.2088864807548
 20
276.9219796547923
 30
0.0
 10
341.939956758896
 20
276.5058754952108
 30
0.0
 10
343.3049511571463
 20
276.2991063451037
 30
0.0
 10
346.0336999636269
 20
275.8879332998653
 30
0.0
 10
347.397454000013
 20
275.6835285237887
 30
0.0
 10
350.1236035957503
 20
275.2771552189269
 30
0.0
 10
351.4859987427148
 20
275.0751859243652
 30
0.0
 10
354.2093645098225
 20
274.6740529936057
 30
0.0
 10
355.5703346750832
 20
274.4748887970025
 30
0.0
 10
357.6107210749179
 20
274.1787628391204
 30
0.0
 10
358.2906722878598
 20
274.0804934532442
 30
0.0
 10
359.6502268448563
 20
273.8849502603218
 30
0.0
 10
360.3298169292207
 20
273.7876337939061
 30
0.0
 10
361.6887744495492
 20
273.594500005207
 30
0.0
 10
362.3681527789199
 20
273.4987039265683
 30
0.0
 10
363.7266040915785
 20
273.3093110856553
 30
0.0
 10
364.4057112373902
 20
273.2157093331615
 30
0.0
 10
366.4429153520079
 20
272.9389346589034
 30
0.0
 10
367.8009059391098
 20
272.7598439063218
 30
0.0
 10
370.5176104323371
 20
272.4151609847239
 30
0.0
 10
371.8763224571988
 20
272.2495529232083
 30
0.0
 10
374.59515567196
 20
271.9330027352905
 30
0.0
 10
375.9552714906922
 20
271.782039790673
 30
0.0
 10
378.6773748174771
 20
271.4950471897337
 30
0.0
 10
380.0393801274324
 20
271.3590377249472
 30
0.0
 10
382.7649746190385
 20
271.1003804384164
 30
0.0
 10
384.1285642153263
 20
270.9777412520336
 30
0.0
 10
386.8572527149969
 20
270.7449868952152
 30
0.0
 10
388.2223552412893
 20
270.6348838282142
 30
0.0
 10
390.2712044032452
 20
270.4787724947148
 30
0.0
 10
390.9543960975327
 20
270.4282413089002
 30
0.0
 10
392.3209554475775
 20
270.3301627494997
 30
0.0
 10
393.0043170901054
 20
270.2826157157554
 30
0.0
 10
395.0546764007797
 20
270.1443687864825
 30
0.0
 10
396.4219492120343
 20
270.0580663851403
 30
0.0
 10
399.1573736200079
 20
269.896689429626
 30
0.0
 10
400.5255258695686
 20
269.8216150527634
 30
0.0
 10
403.2628246939375
 20
269.6820941277843
 30
0.0
 10
404.6319713125908
 20
269.6176462405717
 30
0.0
 10
408.7410115089077
 20
269.4392133362749
 30
0.0
 10
411.4825086228083
 20
269.3401232119308
 30
0.0
 10
415.5981541121085
 20
269.2170175204501
 30
0.0
 10
416.9706001351086
 20
269.1802300076564
 30
0.0
 10
419.7163961023067
 20
269.1142856459131
 30
0.0
 10
421.089747092563
 20
269.0851306062334
 30
0.0
 10
423.8371374478123
 20
269.0338063403335
 30
0.0
 10
426.5852171833008
 20
268.989468360221
 30
0.0
 10
429.3342075661195
 20
268.9581798896631
 30
0.0
 10
432.0833957398433
 20
268.9331471202732
 30
0.0
 10
433.458088201648
 20
268.9237581699246
 30
0.0
 10
436.2073976813832
 20
268.9111814720202
 30
0.0
 10
437.5820137346122
 20
268.9079935137005
 30
0.0
 10
438.9564589943175
 20
268.9079935137005
 30
0.0
  0
SPLINE
  5
1BD
330
1F
100
AcDbEntity
  8
1
100
AcDbSpline
210
0.0
220
0.0
230
1.0
 70
     8
 71
     3
 72
    73
 73
    69
 74
     0
 42
0.000000001
 43
0.0000000001
 40
0.0
 40
0.0
 40
0.0
 40
0.0
 40
0.0625
 40
0.0625
 40
0.125
 40
0.125
 40
0.15625
 40
0.15625
 40
0.1875
 40
0.1875
 40
0.2500000000000002
 40
0.2500000000000002
 40
0.3125000000000003
 40
0.3125000000000003
 40
0.3750000000000005
 40
0.3750000000000005
 40
0.3906250000000004
 40
0.3906250000000004
 40
0.4062500000000003
 40
0.4062500000000003
 40
0.4218750000000002
 40
0.4218750000000002
 40
0.4375000000000001
 40
0.4375000000000001
 40
0.4687499999999999
 40
0.4687499999999999
 40
0.4999999999999997
 40
0.4999999999999997
 40
0.5312499999999995
 40
0.5312499999999995
 40
0.5624999999999992
 40
0.5624999999999992
 40
0.5937499999999991
 40
0.5937499999999991
 40
0.6249999999999988
 40
0.6249999999999988
 40
0.6562499999999986
 40
0.6562499999999986
 40
0.6874999999999984
 40
0.6874999999999984
 40
0.7187499999999984
 40
0.7187499999999984
 40
0.7499999999999986
 40
0.7499999999999986
 40
0.7812499999999987
 40
0.7812499999999987
 40
0.7968749999999987
 40
0.7968749999999987
 40
0.8124999999999985
 40
0.8124999999999985
 40
0.8437499999999987
 40
0.8437499999999987
 40
0.8593749999999987
 40
0.8593749999999987
 40
0.8749999999999987
 40
0.8906249999999987
 40
0.8906249999999987
 40
0.9062499999999987
 40
0.9062499999999987
 40
0.9218749999999987
 40
0.9218749999999987
 40
0.9374999999999987
 40
0.9374999999999987
 40
0.9687499999999994
 40
0.9687499999999994
 40
0.9843749999999998
 40
0.9843749999999998
 40
1.0
 40
1.0
 40
1.0
 40
1.0
 10
304.9048419452956
 20
308.9003336089307
 30
0.0
 10
307.8184370649682
 20
308.8855881212068
 30
0.0
 10
310.7295158070624
 20
308.8491348813579
 30
0.0
 10
316.5487280131456
 20
308.7290244747838
 30
0.0
 10
319.4568728676072
 20
308.6453724566545
 30
0.0
 10
323.8184833958523
 20
308.4836673583
 30
0.0
 10
325.272350942826
 20
308.4237433903497
 30
0.0
 10
328.179391021658
 20
308.2919755654867
 30
0.0
 10
329.6326107209591
 20
308.2201318127647
 30
0.0
 10
333.9916971502526
 20
307.9870340367524
 30
0.0
 10
336.8970038180828
 20
307.8081906769989
 30
0.0
 10
342.7076061010752
 20
307.4061672493871
 30
0.0
 10
345.6129039846341
 20
307.1830204169513
 30
0.0
 10
351.4245581759082
 20
306.6953384526821
 30
0.0
 10
354.3309161528333
 20
306.4308379902184
 30
0.0
 10
357.9648921287802
 20
306.0757641087222
 30
0.0
 10
358.6917375008419
 20
306.0035237776803
 30
0.0
 10
360.1455325770852
 20
305.8566113723936
 30
0.0
 10
360.8724851441347
 20
305.7819481885598
 30
0.0
 10
362.3264445269577
 20
305.6300504891981
 30
0.0
 10
363.0534507115606
 20
305.5528139386608
 30
0.0
 10
364.507475063364
 20
305.3956262800034
 30
0.0
 10
365.2345142013228
 20
305.3156724501228
 30
0.0
 10
367.415306897444
 20
305.0716222497164
 30
0.0
 10
368.8688074358056
 20
304.9033015825988
 30
0.0
 10
371.7751088871369
 20
304.5552133056517
 30
0.0
 10
373.2279115161633
 20
304.37544373708
 30
0.0
 10
376.1331109161225
 20
304.0051363507565
 30
0.0
 10
377.5855076093525
 20
303.8145922923792
 30
0.0
 10
380.4903992457349
 20
303.4243208906895
 30
0.0
 10
381.9429183658868
 20
303.2246779325808
 30
0.0
 10
384.8485712722938
 20
302.8181479670268
 30
0.0
 10
386.3017016450809
 20
302.6112588548829
 30
0.0
 10
389.2082074319069
 20
302.191443549606
 30
0.0
 10
390.6616572143956
 20
301.9785037867734
 30
0.0
 10
393.5690342709945
 20
301.5471115585943
 30
0.0
 10
395.0229602228373
 20
301.3286563311062
 30
0.0
 10
397.9312558307547
 20
300.8862930606531
 30
0.0
 10
399.3856246710831
 20
300.6623834241626
 30
0.0
 10
402.2946905275953
 20
300.2087540616362
 30
0.0
 10
403.7494187463496
 20
299.9790293768178
 30
0.0
 10
406.6588875054878
 20
299.5130415418565
 30
0.0
 10
408.1134880658575
 20
299.2768031895895
 30
0.0
 10
411.0221700148803
 20
298.7966645885307
 30
0.0
 10
412.4762522923047
 20
298.5527698570147
 30
0.0
 10
414.6567322188249
 20
298.1799041856212
 30
0.0
 10
415.3834458761659
 20
298.0544173850433
 30
0.0
 10
416.8366423096669
 20
297.8009903639989
 30
0.0
 10
417.5631267684741
 20
297.6730575365381
 30
0.0
 10
419.7422911291853
 20
297.2857914210226
 30
0.0
 10
421.1946640160526
 20
297.0228979150549
 30
0.0
 10
423.3731160892269
 20
296.6236794568794
 30
0.0
 10
424.0992542324723
 20
296.4898150759882
 30
0.0
 10
425.5516402236527
 20
296.2211759985512
 30
0.0
 10
427.0040543128813
 20
295.9516402410334
 30
0.0
 10
428.4568974323971
 20
295.6821437415642
 30
0.0
 10
429.9101904849918
 20
295.4138507087087
 30
0.0
 10
430.6370621186101
 20
295.2803063734638
 30
0.0
 10
432.0915384927817
 20
295.0158734237978
 30
0.0
 10
432.8191436016243
 20
294.8849864722822
 30
0.0
 10
434.2754104425173
 20
294.6275590744025
 30
0.0
 10
435.0041474462082
 20
294.5010093236419
 30
0.0
 10
437.1916247790146
 20
294.1308101938758
 30
0.0
 10
438.6517603011001
 20
293.8966334116258
 30
0.0
 10
440.8460868211631
 20
293.5756314705555
 30
0.0
 10
441.5782149115871
 20
293.4736678212795
 30
0.0
 10
443.0440460010641
 20
293.2814986581105
 30
0.0
 10
443.7777500753691
 20
293.1913017622217
 30
0.0
 10
444.5123271450707
 20
293.1077055826581
 30
0.0
  0
SPLINE
  5
1BE
330
1F
100
AcDbEntity
  8
1
100
AcDbSpline
210
0.0
220
0.0
230
1.0
 70
     8
 71
     3
 72
    42
 73
    38
 74
     0
 42
0.000000001
 43
0.0000000001
 40
0.0
 40
0.0
 40
0.0
 40
0.0
 40
0.1249999999999913
 40
0.1249999999999913
 40
0.2499999999999825
 40
0.2499999999999825
 40
0.312499999999978
 40
0.312499999999978
 40
0.3437499999999757
 40
0.3437499999999757
 40
0.3749999999999734
 40
0.3749999999999734
 40
0.4374999999999775
 40
0.4374999999999775
 40
0.4999999999999812
 40
0.4999999999999812
 40
0.5624999999999853
 40
0.5624999999999853
 40
0.5937499999999872
 40
0.5937499999999872
 40
0.6249999999999892
 40
0.6249999999999892
 40
0.6874999999999931
 40
0.6874999999999931
 40
0.749999999999997
 40
0.749999999999997
 40
0.812500000000001
 40
0.812500000000001
 40
0.8437500000000003
 40
0.8437500000000003
 40
0.8593750000000007
 40
0.8593750000000007
 40
0.8750000000000007
 40
0.8750000000000007
 40
0.9375000000000003
 40
0.9375000000000003
 40
1.0
 40
1.0
 40
1.0
 40
1.0
 10
441.236018707461
 20
299.4457715141595
 30
0.0
 10
441.5239134001871
 20
299.5848315924368
 30
0.0
 10
441.8080369260506
 20
299.7311007523263
 30
0.0
 10
442.3674255966423
 20
300.0405730331007
 30
0.0
 10
442.6427011118946
 20
300.2037563293638
 30
0.0
 10
443.0475566924096
 20
300.4639346128237
 30
0.0
 10
443.1811601955741
 20
300.5532382691266
 30
0.0
 10
443.3792978156979
 20
300.691528635504
 30
0.0
 10
443.4449651922731
 20
300.7383489707256
 30
0.0
 10
443.5754942410708
 20
300.8335298510413
 30
0.0
 10
443.640416409447
 20
300.8819369086933
 30
0.0
 10
443.8334189235728
 20
301.0292631417698
 30
0.0
 10
443.9595969350762
 20
301.1301650618893
 30
0.0
 10
444.2064114655741
 20
301.3379423068803
 30
0.0
 10
444.3270496471323
 20
301.4448158396049
 30
0.0
 10
444.5620761434632
 20
301.6652998958371
 30
0.0
 10
444.6764670689703
 20
301.7789076051252
 30
0.0
 10
444.8426757297444
 20
301.9551160446949
 30
0.0
 10
444.897180436159
 20
302.0148203772653
 30
0.0
 10
445.0042500971856
 20
302.136319981375
 30
0.0
 10
445.0568708155117
 20
302.1981903807945
 30
0.0
 10
445.2105286998598
 20
302.3858886113891
 30
0.0
 10
445.3076935103908
 20
302.5141425052984
 30
0.0
 10
445.4902037881319
 20
302.777646589075
 30
0.0
 10
445.5755541787063
 20
302.9128938646252
 30
0.0
 10
445.7327754181228
 20
303.1913674430517
 30
0.0
 10
445.8046544995786
 20
303.3345888727468
 30
0.0
 10
445.9006795652843
 20
303.5564020490842
 30
0.0
 10
445.9307170267555
 20
303.6315064176928
 30
0.0
 10
445.9725446487015
 20
303.7460740778857
 30
0.0
 10
445.9859714179493
 20
303.7846543180834
 30
0.0
 10
446.0115439080758
 20
303.8620106848732
 30
0.0
 10
446.0236978989683
 20
303.9008015862007
 30
0.0
 10
446.0812604959712
 20
304.0953278987955
 30
0.0
 10
446.1170624031017
 20
304.2527759871753
 30
0.0
 10
446.1667561857396
 20
304.5715782725547
 30
0.0
 10
446.180652129336
 20
304.7329317442976
 30
0.0
 10
446.1826611744689
 20
304.8964044058869
 30
0.0
  0
SPLINE
  5
1BF
330
1F
100
AcDbEntity
  8
1
100
AcDbSpline
210
0.0
220
0.0
230
1.0
 70
    12
 71
     3
 72
     9
 73
     5
 74
     0
 42
0.000000001
 43
0.0000000001
 40
0.0
 40
0.0
 40
0.0
 40
0.0
 40
0.518223659696382
 40
1.0
 40
1.0
 40
1.0
 40
1.0
 10
380.1982973423362
 20
303.4695903170848
 30
0.0
 41
1.00172899657404
 10
391.6051473101309
 20
304.1936416796127
 30
0.0
 41
1.003138772148479
 10
413.5318903860849
 20
303.7470806277577
 30
0.0
 41
1.01102573359906
 10
435.8190550039489
 20
303.3381871637593
 30
0.0
 41
0.9956782969906116
 10
446.1826611744688
 20
304.8964044058868
 30
0.0
 41
1.001753814705439
  0
SPLINE
  5
1C0
330
1F
100
AcDbEntity
  8
1
100
AcDbSpline
210
0.0
220
0.0
230
1.0
 70
     8
 71
     3
 72
    38
 73
    34
 74
     0
 42
0.000000001
 43
0.0000000001
 40
0.0
 40
0.0
 40
0.0
 40
0.0
 40
0.0625000000000002
 40
0.0625000000000002
 40
0.1250000000000005
 40
0.1250000000000005
 40
0.1875000000000007
 40
0.1875000000000007
 40
0.250000000000001
 40
0.250000000000001
 40
0.3750000000000012
 40
0.3750000000000012
 40
0.4375000000000016
 40
0.4375000000000016
 40
0.4531250000000015
 40
0.4531250000000015
 40
0.4687500000000015
 40
0.4687500000000015
 40
0.5000000000000016
 40
0.5000000000000016
 40
0.6250000000000014
 40
0.6250000000000014
 40
0.7500000000000011
 40
0.7500000000000011
 40
0.812500000000001
 40
0.812500000000001
 40
0.8750000000000007
 40
0.8750000000000007
 40
0.9375000000000005
 40
0.9375000000000005
 40
0.9687500000000003
 40
0.9687500000000003
 40
1.0
 40
1.0
 40
1.0
 40
1.0
 10
291.0322589432654
 20
269.0400801990019
 30
0.0
 10
290.7342062369691
 20
269.0568070368923
 30
0.0
 10
290.4406376760095
 20
269.0674818427948
 30
0.0
 10
289.861650153854
 20
269.0786117701575
 30
0.0
 10
289.5762337583185
 20
269.079063419735
 30
0.0
 10
289.0129719576184
 20
269.0713010670746
 30
0.0
 10
288.7351282024346
 20
269.0630846493373
 30
0.0
 10
288.1866038773061
 20
269.0393061539334
 30
0.0
 10
287.915924401661
 20
269.0237422957837
 30
0.0
 10
287.1142153413847
 20
268.9677533980935
 30
0.0
 10
286.5934744292509
 20
268.9180708767967
 30
0.0
 10
285.8321779223521
 20
268.8308827533721
 30
0.0
 10
285.5817258917067
 20
268.7996975050323
 30
0.0
 10
285.2727938308582
 20
268.7586129868182
 30
0.0
 10
285.2112142352771
 20
268.7502908425151
 30
0.0
 10
285.0884691124332
 20
268.7334495189575
 30
0.0
 10
285.0272970782644
 20
268.7249293037867
 30
0.0
 10
284.8447044315113
 20
268.6991364312527
 30
0.0
 10
284.7241062356602
 20
268.681617992357
 30
0.0
 10
284.1267011009112
 20
268.5926949343689
 30
0.0
 10
283.6666038980439
 20
268.5173062284807
 30
0.0
 10
282.7812149386732
 20
268.3650467420096
 30
0.0
 10
282.3559307609237
 20
268.2881359278664
 30
0.0
 10
281.7442830044472
 20
268.1771889673524
 30
0.0
 10
281.5447877083104
 20
268.1409499652597
 30
0.0
 10
281.1546886829603
 20
268.0710418693964
 30
0.0
 10
280.9640847681473
 20
268.0373701520242
 30
0.0
 10
280.5919478563506
 20
267.9738576259999
 30
0.0
 10
280.4104144526669
 20
267.9440129248415
 30
0.0
 10
280.1451052979417
 20
267.9032724329239
 30
0.0
 10
280.0579115857953
 20
267.8903782719707
 30
0.0
 10
279.8862366517912
 20
267.8662095371568
 30
0.0
 10
279.8017239800247
 20
267.8549299135908
 30
0.0
 10
279.7185504442954
 20
267.8445766267874
 30
0.0
  0
SPLINE
  5
1C1
330
1F
100
AcDbEntity
  8
1
100
AcDbSpline
210
0.0
220
0.0
230
1.0
 70
     8
 71
     3
 72
    44
 73
    40
 74
     0
 42
0.000000001
 43
0.0000000001
 40
0.0
 40
0.0
 40
0.0
 40
0.0
 40
0.0625000000000027
 40
0.1250000000000055
 40
0.1875000000000082
 40
0.1875000000000082
 40
0.2500000000000109
 40
0.2500000000000109
 40
0.2656250000000113
 40
0.2656250000000113
 40
0.2812500000000116
 40
0.2812500000000116
 40
0.3125000000000114
 40
0.3125000000000114
 40
0.3750000000000107
 40
0.4375000000000099
 40
0.5000000000000093
 40
0.5000000000000093
 40
0.5312500000000086
 40
0.5312500000000086
 40
0.5468750000000086
 40
0.5468750000000086
 40
0.5625000000000085
 40
0.6250000000000071
 40
0.6250000000000071
 40
0.6875000000000057
 40
0.6875000000000057
 40
0.7500000000000044
 40
0.7500000000000044
 40
0.7812500000000043
 40
0.7968750000000043
 40
0.7968750000000043
 40
0.812500000000004
 40
0.812500000000004
 40
0.8750000000000026
 40
0.8750000000000026
 40
0.9375000000000012
 40
0.9375000000000012
 40
1.0
 40
1.0
 40
1.0
 40
1.0
 10
279.4048419452957
 20
276.676758115806
 30
0.0
 10
279.2577397003056
 20
276.4760065339908
 30
0.0
 10
278.9806153817945
 20
276.0713222389733
 30
0.0
 10
278.6158477420233
 20
275.4558740063964
 30
0.0
 10
278.4068640094434
 20
275.0405677939409
 30
0.0
 10
278.2153497528507
 20
274.6229972726641
 30
0.0
 10
278.1283259502757
 20
274.4130798672375
 30
0.0
 10
278.0308700983373
 20
274.1493784941452
 30
0.0
 10
278.0119458687401
 20
274.0965728343604
 30
0.0
 10
277.9752445803011
 20
273.9908328832062
 30
0.0
 10
277.957458479498
 20
273.9378667118509
 30
0.0
 10
277.9060653747223
 20
273.7794877906661
 30
0.0
 10
277.8743438954428
 20
273.6743758822649
 30
0.0
 10
277.7867049875612
 20
273.3604888964014
 30
0.0
 10
277.6899029260319
 20
272.945836890605
 30
0.0
 10
277.6039835230212
 20
272.3358512489733
 30
0.0
 10
277.5862157632849
 20
271.9374437861861
 30
0.0
 10
277.5879158988285
 20
271.6418261651424
 30
0.0
 10
277.5909891733295
 20
271.5438182862751
 30
0.0
 10
277.5994059370129
 20
271.3976153602642
 30
0.0
 10
277.6028475103561
 20
271.3489998415403
 30
0.0
 10
277.6110039029261
 20
271.2521072345726
 30
0.0
 10
277.6345221201915
 20
271.0113970372914
 30
0.0
 10
277.6734508588868
 20
270.7781863166425
 30
0.0
 10
277.7546929939769
 20
270.4142103802113
 30
0.0
 10
277.8047937959081
 20
270.2368036356401
 30
0.0
 10
277.9234776708824
 20
269.8907952022281
 30
0.0
 10
277.9920617609108
 20
269.722193964364
 30
0.0
 10
278.1086317679346
 20
269.4756769557144
 30
0.0
 10
278.1703430367837
 20
269.3540153554787
 30
0.0
 10
278.2371863723146
 20
269.2347136821506
 30
0.0
 10
278.2828898698796
 20
269.1557000837183
 30
0.0
 10
278.3063316018345
 20
269.1164226410156
 30
0.0
 10
278.4261260214471
 20
268.9217631179415
 30
0.0
 10
278.5301337101267
 20
268.7716697609068
 30
0.0
 10
278.7537811584211
 20
268.4819519401942
 30
0.0
 10
278.8734224787907
 20
268.3423286035405
 30
0.0
 10
279.1278494550816
 20
268.0728792777995
 30
0.0
 10
279.262636162658
 20
267.9430541077661
 30
0.0
 10
279.4048419453055
 20
267.8178399696109
 30
0.0
  0
SPLINE
  5
1C2
330
1F
100
AcDbEntity
  8
1
100
AcDbSpline
210
0.0
220
0.0
230
1.0
 70
     9
 71
     3
 72
   133
 73
   129
 74
     0
 42
0.000000001
 43
0.0000000001
 40
0.0
 40
0.0
 40
0.0
 40
0.0
 40
0.0312499999999877
 40
0.0312499999999877
 40
0.0468749999999808
 40
0.0468749999999808
 40
0.0546874999999773
 40
0.0546874999999773
 40
0.0624999999999739
 40
0.0624999999999739
 40
0.0937499999999665
 40
0.0937499999999665
 40
0.1093749999999627
 40
0.1093749999999627
 40
0.1171874999999608
 40
0.1171874999999608
 40
0.1249999999999589
 40
0.1249999999999589
 40
0.1562499999999453
 40
0.1562499999999453
 40
0.1640624999999419
 40
0.1640624999999419
 40
0.1718749999999384
 40
0.1718749999999384
 40
0.1874999999999394
 40
0.2031249999999403
 40
0.2031249999999403
 40
0.2109374999999451
 40
0.2109374999999451
 40
0.2187499999999499
 40
0.2187499999999499
 40
0.2499999999999429
 40
0.2499999999999429
 40
0.2656249999999348
 40
0.2656249999999348
 40
0.2734374999999308
 40
0.2734374999999308
 40
0.2812499999999268
 40
0.2812499999999268
 40
0.3124999999999195
 40
0.3124999999999195
 40
0.3203124999999176
 40
0.3203124999999176
 40
0.3281249999999156
 40
0.3281249999999156
 40
0.3437499999999119
 40
0.3593749999999082
 40
0.3593749999999082
 40
0.3671874999999064
 40
0.3671874999999064
 40
0.3749999999999046
 40
0.3749999999999046
 40
0.4062499999999144
 40
0.4062499999999144
 40
0.4218749999999192
 40
0.4218749999999192
 40
0.4296874999999235
 40
0.4296874999999235
 40
0.4374999999999277
 40
0.4374999999999277
 40
0.4687499999999508
 40
0.4687499999999508
 40
0.4765624999999556
 40
0.4765624999999556
 40
0.4843749999999604
 40
0.4843749999999604
 40
0.49999999999997
 40
0.49999999999997
 40
0.5312499999999892
 40
0.5312499999999892
 40
0.5390624999999935
 40
0.5390624999999935
 40
0.5468749999999977
 40
0.5468749999999977
 40
0.5625000000000057
 40
0.5781250000000138
 40
0.5781250000000138
 40
0.5859375000000178
 40
0.5859375000000178
 40
0.5937500000000218
 40
0.5937500000000218
 40
0.6250000000000436
 40
0.6250000000000436
 40
0.6406250000000577
 40
0.6406250000000577
 40
0.6484375000000645
 40
0.6484375000000645
 40
0.6562500000000714
 40
0.6562500000000714
 40
0.687500000000077
 40
0.687500000000077
 40
0.7031250000000798
 40
0.7031250000000798
 40
0.7187500000000825
 40
0.7187500000000825
 40
0.750000000000088
 40
0.750000000000088
 40
0.7578125000000893
 40
0.7578125000000893
 40
0.7656250000000907
 40
0.7656250000000907
 40
0.7812500000000934
 40
0.7968750000000961
 40
0.7968750000000961
 40
0.8125000000000989
 40
0.8125000000000989
 40
0.8437500000000961
 40
0.8437500000000961
 40
0.8515625000000918
 40
0.8515625000000918
 40
0.8593750000000873
 40
0.8593750000000873
 40
0.8750000000000786
 40
0.8750000000000786
 40
0.9062500000000609
 40
0.9062500000000609
 40
0.9140625000000564
 40
0.9140625000000564
 40
0.9218750000000516
 40
0.9218750000000516
 40
0.9375000000000424
 40
0.9531250000000332
 40
0.9531250000000332
 40
0.9609375000000271
 40
0.9609375000000271
 40
0.9687500000000211
 40
0.9687500000000211
 40
1.0
 40
1.0
 40
1.0
 40
1.0
 10
455.363358210799
 20
283.8293513132517
 30
0.0
 10
455.3650029178353
 20
283.9235765162522
 30
0.0
 10
455.3757251503173
 20
284.0163466629467
 30
0.0
 10
455.4050669163987
 20
284.1533575584934
 30
0.0
 10
455.417072621973
 20
284.1986677333375
 30
0.0
 10
455.4385148967458
 20
284.2660723417538
 30
0.0
 10
455.4462356038632
 20
284.2884469225017
 30
0.0
 10
455.4628525698181
 20
284.3330030777468
 30
0.0
 10
455.4716966281321
 20
284.3550414403646
 30
0.0
 10
455.5184317075982
 20
284.4637399099825
 30
0.0
 10
455.5639182206113
 20
284.5462863050593
 30
0.0
 10
455.6442922464794
 20
284.6634309292433
 30
0.0
 10
455.6731211480453
 20
284.7013591274272
 30
0.0
 10
455.7195531998981
 20
284.7564900346251
 30
0.0
 10
455.7354938016588
 20
284.7744869557768
 30
0.0
 10
455.7681024467213
 20
284.8095176657953
 30
0.0
 10
455.7847987670755
 20
284.8265852726935
 30
0.0
 10
455.8702163222848
 20
284.9097087109905
 30
0.0
 10
455.9446895700577
 20
284.9691846296344
 30
0.0
 10
456.0456311664206
 20
285.0344974473861
 30
0.0
 10
456.0662155354828
 20
285.0471043436692
 30
0.0
 10
456.1081958020083
 20
285.0713832185133
 30
0.0
 10
456.1294432346002
 20
285.0829681208356
 30
0.0
 10
456.1937829969529
 20
285.1159999422005
 30
0.0
 10
456.2812984606128
 20
285.1555369258323
 30
0.0
 10
456.3722075099928
 20
285.1862165294247
 30
0.0
 10
456.4416757681427
 20
285.2058639194141
 30
0.0
 10
456.4650466585333
 20
285.211851650286
 30
0.0
 10
456.5122253098888
 20
285.2226847171167
 30
0.0
 10
456.5360904104986
 20
285.2275398583106
 30
0.0
 10
456.6558483855023
 20
285.2487693392021
 30
0.0
 10
456.7518415908253
 20
285.2559397950675
 30
0.0
 10
456.8961020828691
 20
285.2524687903641
 30
0.0
 10
456.944234373009
 20
285.2489227688813
 30
0.0
 10
457.0165029541661
 20
285.2399184912098
 30
0.0
 10
457.0406521989196
 20
285.2362903195057
 30
0.0
 10
457.0884445190277
 20
285.22787631752
 30
0.0
 10
457.1121445307523
 20
285.2230858726219
 30
0.0
 10
457.2296818046082
 20
285.1962710676334
 30
0.0
 10
457.3206591900503
 20
285.1657425621646
 30
0.0
 10
457.4305587103721
 20
285.1162465270201
 30
0.0
 10
457.4523457246114
 20
285.1057753299935
 30
0.0
 10
457.4955264684184
 20
285.0836677086772
 30
0.0
 10
457.5168159443891
 20
285.0720821493261
 30
0.0
 10
457.579448734059
 20
285.0359505982449
 30
0.0
 10
457.6599681197762
 20
284.9839647021066
 30
0.0
 10
457.7346590242497
 20
284.9245723382042
 30
0.0
 10
457.7884848818657
 20
284.8772498554598
 30
0.0
 10
457.8060607971411
 20
284.8610118379535
 30
0.0
 10
457.8404714488487
 20
284.8275978796327
 30
0.0
 10
457.8573462942597
 20
284.8103782453343
 30
0.0
 10
457.9393315539215
 20
284.7224343035708
 30
0.0
 10
457.9967935179689
 20
284.6468972442129
 30
0.0
 10
458.0713725307738
 20
284.5262499949623
 30
0.0
 10
458.094282240799
 20
284.4848014093194
 30
0.0
 10
458.1256682388251
 20
284.4207526879876
 30
0.0
 10
458.1356510430103
 20
284.3990421846754
 30
0.0
 10
458.1544215914166
 20
284.3554256980183
 30
0.0
 10
458.1632317510403
 20
284.3334796619889
 30
0.0
 10
458.2044679189599
 20
284.2230778402548
 30
0.0
 10
458.2285270183819
 20
284.1326266781235
 30
0.0
 10
458.2476098976654
 20
284.0169729214002
 30
0.0
 10
458.2508721529106
 20
283.9937114710979
 30
0.0
 10
458.2562729188821
 20
283.946924086919
 30
0.0
 10
458.2584091542583
 20
283.9233806955773
 30
0.0
 10
458.2630687328488
 20
283.8530850918823
 30
0.0
 10
458.2638802273693
 20
283.8064262180593
 30
0.0
 10
458.2596412379754
 20
283.6670467908618
 30
0.0
 10
458.2479790091446
 20
283.5749191787551
 30
0.0
 10
458.2221092459353
 20
283.4607577883415
 30
0.0
 10
458.2163540270835
 20
283.437944193328
 30
0.0
 10
458.2038166242173
 20
283.3928784034885
 30
0.0
 10
458.1970239334011
 20
283.3705720409287
 30
0.0
 10
458.1750990415488
 20
283.3043202838853
 30
0.0
 10
458.1417477068426
 20
283.2177612871065
 30
0.0
 10
458.1002466229786
 20
283.1347002454569
 30
0.0
 10
458.0660083094646
 20
283.0737319168408
 30
0.0
 10
458.0540758650675
 20
283.0536307613463
 30
0.0
 10
458.0291504283911
 20
283.0138791349781
 30
0.0
 10
458.0161195776452
 20
282.9941761125594
 30
0.0
 10
457.9488004011575
 20
282.8976023711184
 30
0.0
 10
457.8881443823948
 20
282.8264762479361
 30
0.0
 10
457.7870657925351
 20
282.7287970875532
 30
0.0
 10
457.7516785032473
 20
282.6977497735446
 30
0.0
 10
457.6959546510101
 20
282.653525453313
 30
0.0
 10
457.676913217033
 20
282.6391576899141
 30
0.0
 10
457.6380290270416
 20
282.6113065981231
 30
0.0
 10
457.6183056411026
 20
282.5979068417655
 30
0.0
 10
457.5183020569355
 20
282.5334948444769
 30
0.0
 10
457.4339023332801
 20
282.4901666310676
 30
0.0
 10
457.3005935095258
 20
282.43760172793
 30
0.0
 10
457.2549788472049
 20
282.4221511722255
 30
0.0
 10
457.1615888927442
 20
282.3956998854738
 30
0.0
 10
457.1145844806792
 20
282.384912368832
 30
0.0
 10
456.9726688532036
 20
282.3596476891178
 30
0.0
 10
456.8768639570603
 20
282.3521981860679
 30
0.0
 10
456.7555674602179
 20
282.3549854459321
 30
0.0
 10
456.7311591325682
 20
282.3561606697101
 30
0.0
 10
456.682693254445
 20
282.3597203133546
 30
0.0
 10
456.6586054266944
 20
282.3621014622594
 30
0.0
 10
456.5867681168006
 20
282.3710116166166
 30
0.0
 10
456.4921193226108
 20
282.3875938767684
 30
0.0
 10
456.3996937852773
 20
282.4134049282251
 30
0.0
 10
456.3083897946113
 20
282.4438812921762
 30
0.0
 10
456.2631169950167
 20
282.4615559356437
 30
0.0
 10
456.1318535920602
 20
282.5204748769626
 30
0.0
 10
456.0495425437463
 20
282.5677493453351
 30
0.0
 10
455.9529093921883
 20
282.6365391661121
 30
0.0
 10
455.9338984969303
 20
282.6507865737343
 30
0.0
 10
455.8965139003074
 20
282.6802712560145
 30
0.0
 10
455.8781172027421
 20
282.6955325319313
 30
0.0
 10
455.8244489337944
 20
282.7423257460252
 30
0.0
 10
455.7905085737973
 20
282.7750026300204
 30
0.0
 10
455.6939896523998
 20
282.8773293686981
 30
0.0
 10
455.6366631120607
 20
282.9512347340948
 30
0.0
 10
455.5738682059947
 20
283.0508741675015
 30
0.0
 10
455.5618068353749
 20
283.0710922919235
 30
0.0
 10
455.5387938221111
 20
283.1118771535972
 30
0.0
 10
455.5278205041641
 20
283.1324780127472
 30
0.0
 10
455.496472289465
 20
283.1948971652792
 30
0.0
 10
455.458858593314
 20
283.2797642202489
 30
0.0
 10
455.4295031551566
 20
283.3678914052016
 30
0.0
 10
455.4106317330435
 20
283.435234517112
 30
0.0
 10
455.4048663769588
 20
283.4578905250996
 30
0.0
 10
455.3944056672033
 20
283.5036277976463
 30
0.0
 10
455.3897254505052
 20
283.5266527195957
 30
0.0
 10
455.3691916159141
 20
283.6419003304589
 30
0.0
 10
455.3617135037628
 20
283.7351261102512
 30
0.0
 10
455.363358210799
 20
283.8293513132516
 30
0.0
  0
SPLINE
  5
1C3
330
1F
100
AcDbEntity
  8
1
100
AcDbSpline
210
0.0
220
0.0
230
1.0
 70
    12
 71
     2
 72
     6
 73
     3
 74
     0
 42
0.000000001
 43
0.0000000001
 40
0.0
 40
0.0
 40
0.0
 40
1.0
 40
1.0
 40
1.0
 10
449.5550463974393
 20
308.8401172696168
 30
0.0
 41
0.4999998055810568
 10
449.6672288705651
 20
308.8399560907677
 30
0.0
 41
0.5000001944189432
 10
449.7794106228324
 20
308.83979452983
 30
0.0
 41
0.4999998055810568
  0
SPLINE
  5
1C4
330
1F
100
AcDbEntity
  8
1
100
AcDbSpline
210
0.0
220
0.0
230
1.0
 70
     8
 71
     3
 72
    10
 73
     6
 74
     0
 42
0.000000001
 43
0.0000000001
 40
0.0
 40
0.0
 40
0.0
 40
0.0
 40
0.5
 40
0.5
 40
1.0
 40
1.0
 40
1.0
 40
1.0
 10
302.1307070638431
 20
269.0011111872411
 30
0.0
 10
302.5853422223992
 20
269.0134365599372
 30
0.0
 10
303.0438387728062
 20
269.0238370692551
 30
0.0
 10
303.9685160766892
 20
269.038090046323
 30
0.0
 10
304.4346961995745
 20
269.0419441819963
 30
0.0
 10
304.9048419452957
 20
269.0419441819963
 30
0.0
  0
SPLINE
  5
1C5
330
1F
100
AcDbEntity
  8
1
100
AcDbSpline
210
0.0
220
0.0
230
1.0
 70
     8
 71
     3
 72
    10
 73
     6
 74
     0
 42
0.000000001
 43
0.0000000001
 40
0.0
 40
0.0
 40
0.0
 40
0.0
 40
0.5
 40
0.5
 40
1.0
 40
1.0
 40
1.0
 40
1.0
 10
315.4726407984106
 20
269.3719148164155
 30
0.0
 10
313.7122575691704
 20
269.2999317879298
 30
0.0
 10
311.9515717637206
 20
269.2364229665379
 30
0.0
 10
308.4291386626522
 20
269.1264503673119
 30
0.0
 10
306.6673905904125
 20
269.0799911801176
 30
0.0
 10
304.9048419452957
 20
269.0419441819963
 30
0.0
  0
SPLINE
  5
1C6
330
1F
100
AcDbEntity
  8
1
100
AcDbSpline
210
0.0
220
0.0
230
1.0
 70
     8
 71
     3
 72
    14
 73
    10
 74
     0
 42
0.000000001
 43
0.0000000001
 40
0.0
 40
0.0
 40
0.0
 40
0.0
 40
0.2500000000000033
 40
0.2500000000000033
 40
0.3750000000000027
 40
0.3750000000000027
 40
0.5000000000000023
 40
0.5000000000000023
 40
1.0
 40
1.0
 40
1.0
 40
1.0
 10
304.9048419454357
 20
308.9003336089307
 30
0.0
 10
304.7124753602421
 20
308.9003336089306
 30
0.0
 10
304.5197192726281
 20
308.9004695137655
 30
0.0
 10
304.2299919935792
 20
308.9008641987523
 30
0.0
 10
304.1333173385311
 20
308.9010272418241
 30
0.0
 10
303.939768289101
 20
308.9014101264203
 30
0.0
 10
303.842806752046
 20
308.9016302243093
 30
0.0
 10
303.3594011044138
 20
308.9028452152044
 30
0.0
 10
302.9760694556565
 20
308.9042093503829
 30
0.0
 10
302.5960717867903
 20
308.9054505078436
 30
0.0
  0
SPLINE
  5
1C7
330
1F
100
AcDbEntity
  8
1
100
AcDbSpline
210
0.0
220
0.0
230
1.0
 70
     8
 71
     3
 72
     8
 73
     4
 74
     0
 42
0.000000001
 43
0.0000000001
 40
0.0
 40
0.0
 40
0.0
 40
0.0
 40
1.0
 40
1.0
 40
1.0
 40
1.0
 10
302.5960717867903
 20
308.9054505078436
 30
0.0
 10
302.1294685704726
 20
308.9069745384116
 30
0.0
 10
301.664710539094
 20
308.9079891462276
 30
0.0
 10
301.2016987401737
 20
308.9080075612153
 30
0.0
  0
SPLINE
  5
1C8
330
1F
100
AcDbEntity
  8
1
100
AcDbSpline
210
0.0
220
0.0
230
1.0
 70
     8
 71
     3
 72
     8
 73
     4
 74
     0
 42
0.000000001
 43
0.0000000001
 40
0.0
 40
0.0
 40
0.0
 40
0.0
 40
1.0
 40
1.0
 40
1.0
 40
1.0
 10
279.404841945304
 20
267.8178399696206
 30
0.0
 10
279.5076800209715
 20
267.8223166137553
 30
0.0
 10
279.6122928381137
 20
267.8313498778917
 30
0.0
 10
279.7185504442954
 20
267.8445766267874
 30
0.0
  0
SPLINE
  5
1C9
330
1F
100
AcDbEntity
  8
1
100
AcDbSpline
210
0.0
220
0.0
230
1.0
 70
     8
 71
     3
 72
     8
 73
     4
 74
     0
 42
0.000000001
 43
0.0000000001
 40
0.0
 40
0.0
 40
0.0
 40
0.0
 40
1.0
 40
1.0
 40
1.0
 40
1.0
 10
279.7185504442917
 20
277.1743629515916
 30
0.0
 10
279.6121168916237
 20
277.0104053870017
 30
0.0
 10
279.5075177017515
 20
276.8445741672399
 30
0.0
 10
279.4048419452957
 20
276.676758115806
 30
0.0
  0
SPLINE
  5
1D0
330
1F
100
AcDbEntity
  8
1
100
AcDbSpline
210
0.0
220
0.0
230
1.0
 70
     8
 71
     3
 72
     8
 73
     4
 74
     0
 42
0.000000001
 43
0.0000000001
 40
0.0
 40
0.0
 40
0.0
 40
0.0
 40
1.0
 40
1.0
 40
1.0
 40
1.0
 10
454.7937828050893
 20
303.4523899343729
 30
0.0
 10
454.7950623802271
 20
303.4633885753629
 30
0.0
 10
454.7966465723341
 20
303.4743203051745
 30
0.0
 10
454.7985336908018
 20
303.4851852474312
 30
0.0
  0
SPLINE
  5
1D1
330
1F
100
AcDbEntity
  8
1
100
AcDbSpline
210
0.0
220
0.0
230
1.0
 70
     8
 71
     3
 72
    10
 73
     6
 74
     0
 42
0.000000001
 43
0.0000000001
 40
0.0
 40
0.0
 40
0.0
 40
0.0
 40
0.6628244121567995
 40
0.6628244121567995
 40
1.0
 40
1.0
 40
1.0
 40
1.0
 10
456.1218515151464
 20
304.1334400320469
 30
0.0
 10
456.1213479457991
 20
304.1312685303527
 30
0.0
 10
456.1207632135611
 20
304.1291074108158
 30
0.0
 10
456.1197582975636
 20
304.1258638796953
 30
0.0
 10
456.1194002366447
 20
304.1247785441961
 30
0.0
 10
456.1190228192831
 20
304.1237015589646
 30
0.0
  0
SPLINE
  5
1D2
330
1F
100
AcDbEntity
  8
1
100
AcDbSpline
210
0.0
220
0.0
230
1.0
 70
     8
 71
     3
 72
    27
 73
    23
 74
     0
 42
0.000000001
 43
0.0000000001
 40
0.0
 40
0.0
 40
0.0
 40
0.0
 40
0.12500000000017
 40
0.12500000000017
 40
0.1875000000002015
 40
0.1875000000002015
 40
0.2500000000002329
 40
0.2500000000002329
 40
0.3750000000002958
 40
0.3750000000002958
 40
0.4375000000003271
 40
0.4375000000003271
 40
0.5000000000003582
 40
0.5000000000003582
 40
0.6250000000003146
 40
0.6250000000003146
 40
0.6875000000002942
 40
0.6875000000002942
 40
0.7500000000002738
 40
0.7500000000002738
 40
0.8750000000001369
 40
1.0
 40
1.0
 40
1.0
 40
1.0
 10
456.1739569407332
 20
301.050826482316
 30
0.0
 10
456.1447409650163
 20
301.0381050345587
 30
0.0
 10
456.1148030179341
 20
301.0278129520111
 30
0.0
 10
456.0688341655896
 20
301.01596279289
 30
0.0
 10
456.0533333985351
 20
301.0126134764616
 30
0.0
 10
456.0219696216377
 20
301.0071406470708
 30
0.0
 10
456.0060605478301
 20
301.0050172439944
 30
0.0
 10
455.9585449226252
 20
301.0006042335663
 30
0.0
 10
455.9269335410546
 20
301.0002075811246
 30
0.0
 10
455.8796140986592
 20
301.0033697923733
 30
0.0
 10
455.8638572937375
 20
301.0050529803225
 30
0.0
 10
455.8323770907871
 20
301.0097032406809
 30
0.0
 10
455.8165818392201
 20
301.0126893980801
 30
0.0
 10
455.7699527751712
 20
301.0234729850523
 30
0.0
 10
455.7398001616147
 20
301.0330659807286
 30
0.0
 10
455.6959293628117
 20
301.0509525262447
 30
0.0
 10
455.6815332146327
 20
301.0575003647859
 30
0.0
 10
455.653201825154
 20
301.0717825498746
 30
0.0
 10
455.639216327895
 20
301.079548115147
 30
0.0
 10
455.5983322667201
 20
301.1044597615767
 30
0.0
 10
455.547204346109
 20
301.1415837837602
 30
0.0
 10
455.5025556558433
 20
301.1861779379637
 30
0.0
 10
455.4819022446975
 20
301.2103969520194
 30
0.0
  0
SPLINE
  5
1D3
330
1F
100
AcDbEntity
  8
1
100
AcDbSpline
210
0.0
220
0.0
230
1.0
 70
     8
 71
     3
 72
    16
 73
    12
 74
     0
 42
0.000000001
 43
0.0000000001
 40
0.0
 40
0.0
 40
0.0
 40
0.0
 40
0.3587940320755267
 40
0.3587940320755267
 40
0.5381910481133188
 40
0.5381910481133188
 40
0.7175880641511107
 40
0.7175880641511107
 40
0.8969850801889027
 40
0.8969850801889027
 40
1.0
 40
1.0
 40
1.0
 40
1.0
 10
455.4819022446975
 20
301.2103969520194
 30
0.0
 10
455.4754353915972
 20
301.2179802420155
 30
0.0
 10
455.4702491676251
 20
301.2265163546429
 30
0.0
 10
455.4646351100109
 20
301.2399259856544
 30
0.0
 10
455.4631059952829
 20
301.2445223154027
 30
0.0
 10
455.4607373695006
 20
301.2539690943817
 30
0.0
 10
455.4599150976686
 20
301.2587737398126
 30
0.0
 10
455.4589944935779
 20
301.2683173850379
 30
0.0
 10
455.4588874418134
 20
301.2730900221904
 30
0.0
 10
455.4592667142291
 20
301.2806039700452
 30
0.0
 10
455.4595230928638
 20
301.2833570339606
 30
0.0
 10
455.459893116085
 20
301.2860910077983
 30
0.0
  0
SPLINE
  5
1D4
330
1F
100
AcDbEntity
  8
1
100
AcDbSpline
210
0.0
220
0.0
230
1.0
 70
     8
 71
     3
 72
    10
 73
     6
 74
     0
 42
0.000000001
 43
0.0000000001
 40
0.0
 40
0.0
 40
0.0
 40
0.0
 40
0.1325035073455891
 40
0.1325035073455891
 40
1.0
 40
1.0
 40
1.0
 40
1.0
 10
456.2020277538863
 20
301.0695395039417
 30
0.0
 10
456.2009488933369
 20
301.0685051413288
 30
0.0
 10
456.1998443245362
 20
301.0674939962719
 30
0.0
 10
456.1913270495794
 20
301.060057115498
 30
0.0
 10
456.1830915593236
 20
301.054803949107
 30
0.0
 10
456.1739569407332
 20
301.050826482316
 30
0.0
  0
SPLINE
  5
1D5
330
1F
100
AcDbEntity
  8
1
100
AcDbSpline
210
0.0
220
0.0
230
1.0
 70
     8
 71
     3
 72
    10
 73
     6
 74
     0
 42
0.000000001
 43
0.0000000001
 40
0.0
 40
0.0
 40
0.0
 40
0.0
 40
0.6419716905436694
 40
0.6419716905436694
 40
1.0
 40
1.0
 40
1.0
 40
1.0
 10
455.4802054102617
 20
301.3824462339098
 30
0.0
 10
455.4822208218579
 20
301.3714794438108
 30
0.0
 10
455.482322999332
 20
301.3604960640561
 30
0.0
 10
455.4796769066753
 20
301.3436066262043
 30
0.0
 10
455.4781961710281
 20
301.3377430377058
 30
0.0
 10
455.4761859412187
 20
301.3320610812834
 30
0.0
  0
SPLINE
  5
1D6
330
1F
100
AcDbEntity
  8
1
100
AcDbSpline
210
0.0
220
0.0
230
1.0
 70
     8
 71
     3
 72
     8
 73
     4
 74
     0
 42
0.000000001
 43
0.0000000001
 40
0.0
 40
0.0
 40
0.0
 40
0.0
 40
1.0
 40
1.0
 40
1.0
 40
1.0
 10
456.2376435542787
 20
301.1787981478865
 30
0.0
 10
456.24087415763
 20
301.1880148102739
 30
0.0
 10
456.2454169583691
 20
301.1966386555407
 30
0.0
 10
456.2513435567407
 20
301.204641102401
 30
0.0
  0
SPLINE
  5
1D7
330
1F
100
AcDbEntity
  8
1
100
AcDbSpline
210
0.0
220
0.0
230
1.0
 70
     8
 71
     3
 72
    20
 73
    16
 74
     0
 42
0.000000001
 43
0.0000000001
 40
0.0
 40
0.0
 40
0.0
 40
0.0
 40
0.1249999999999983
 40
0.1249999999999983
 40
0.2499999999999968
 40
0.2499999999999968
 40
0.3749999999999951
 40
0.3749999999999951
 40
0.4999999999999935
 40
0.4999999999999935
 40
0.6249999999999919
 40
0.6249999999999919
 40
0.7499999999999903
 40
0.7499999999999903
 40
1.0
 40
1.0
 40
1.0
 40
1.0
 10
454.8983304609238
 20
301.8513531257989
 30
0.0
 10
454.8943148878817
 20
301.8487792497113
 30
0.0
 10
454.8901418430136
 20
301.846515411496
 30
0.0
 10
454.8814830017358
 20
301.8426038167282
 30
0.0
 10
454.8769895328458
 20
301.8409589420061
 30
0.0
 10
454.8678997686386
 20
301.8383670114405
 30
0.0
 10
454.8632780604828
 20
301.8374066953426
 30
0.0
 10
454.8538790671321
 20
301.8361685931822
 30
0.0
 10
454.849063646642
 20
301.8358933355934
 30
0.0
 10
454.8395044612068
 20
301.8360711322267
 30
0.0
 10
454.8347562150675
 20
301.836516672359
 30
0.0
 10
454.8253238504388
 20
301.8381279922235
 30
0.0
 10
454.8206090041283
 20
301.8393042878468
 30
0.0
 10
454.8067866433862
 20
301.8439246337488
 30
0.0
 10
454.798172114775
 20
301.8483521736231
 30
0.0
 10
454.7901984759552
 20
301.8542117589813
 30
0.0
  0
SPLINE
  5
1D8
330
1F
100
AcDbEntity
  8
1
100
AcDbSpline
210
0.0
220
0.0
230
1.0
 70
     8
 71
     3
 72
    10
 73
     6
 74
     0
 42
0.000000001
 43
0.0000000001
 40
0.0
 40
0.0
 40
0.0
 40
0.0
 40
0.5
 40
0.5
 40
1.0
 40
1.0
 40
1.0
 40
1.0
 10
454.8983304609238
 20
301.8513531257989
 30
0.0
 10
454.9075091596602
 20
301.8572364288655
 30
0.0
 10
454.9174345406655
 20
301.8614890843369
 30
0.0
 10
454.9386481125031
 20
301.8666102734688
 30
0.0
 10
454.9494422568296
 20
301.8673717343609
 30
0.0
 10
454.9604404457268
 20
301.866226134251
 30
0.0
  0
SPLINE
  5
1D9
330
1F
100
AcDbEntity
  8
1
100
AcDbSpline
210
0.0
220
0.0
230
1.0
 70
     8
 71
     3
 72
    24
 73
    20
 74
     0
 42
0.000000001
 43
0.0000000001
 40
0.0
 40
0.0
 40
0.0
 40
0.0
 40
0.1249999999999482
 40
0.1249999999999482
 40
0.2499999999998963
 40
0.2499999999998963
 40
0.3124999999998691
 40
0.3124999999998691
 40
0.3749999999998418
 40
0.3749999999998418
 40
0.4999999999998734
 40
0.4999999999998734
 40
0.6249999999999051
 40
0.6249999999999051
 40
0.7499999999999368
 40
0.7499999999999368
 40
0.8749999999999683
 40
0.8749999999999683
 40
1.0
 40
1.0
 40
1.0
 40
1.0
 10
454.9604404457268
 20
301.866226134251
 30
0.0
 10
454.9915888190901
 20
301.8629816382451
 30
0.0
 10
455.0222205284897
 20
301.8573285895073
 30
0.0
 10
455.0824982700025
 20
301.8412055110137
 30
0.0
 10
455.1121447272601
 20
301.8307378371636
 30
0.0
 10
455.1558519477826
 20
301.8111234849932
 30
0.0
 10
455.1701998184348
 20
301.8039654734169
 30
0.0
 10
455.1981083503475
 20
301.788588555129
 30
0.0
 10
455.211723138439
 20
301.7803458816766
 30
0.0
 10
455.2515515979312
 20
301.7539540864589
 30
0.0
 10
455.2767937524796
 20
301.7341180380598
 30
0.0
 10
455.3242788663158
 20
301.6899077848349
 30
0.0
 10
455.3458311308458
 20
301.6661881818355
 30
0.0
 10
455.3848063955904
 20
301.6157008275944
 30
0.0
 10
455.4022341504806
 20
301.5889222188099
 30
0.0
 10
455.4328642116798
 20
301.5322912498453
 30
0.0
 10
455.4456237709921
 20
301.5032672949344
 30
0.0
 10
455.4664415840528
 20
301.4438752990681
 30
0.0
 10
455.4744973223539
 20
301.4135065900556
 30
0.0
 10
455.4802054102619
 20
301.3824462339098
 30
0.0
  0
SPLINE
  5
1DA
330
1F
100
AcDbEntity
  8
1
100
AcDbSpline
210
0.0
220
0.0
230
1.0
 70
     8
 71
     3
 72
    36
 73
    32
 74
     0
 42
0.000000001
 43
0.0000000001
 40
0.0
 40
0.0
 40
0.0
 40
0.0
 40
0.1249999999998711
 40
0.1249999999998711
 40
0.1874999999998108
 40
0.1874999999998108
 40
0.2187499999997806
 40
0.2187499999997806
 40
0.2499999999997504
 40
0.2499999999997504
 40
0.3749999999996793
 40
0.3749999999996793
 40
0.4062499999996799
 40
0.4062499999996799
 40
0.4374999999996805
 40
0.4374999999996805
 40
0.4999999999996366
 40
0.4999999999996366
 40
0.6249999999995428
 40
0.6249999999995428
 40
0.6562499999995493
 40
0.6562499999995493
 40
0.6874999999995559
 40
0.7499999999995649
 40
0.8124999999995743
 40
0.8124999999995743
 40
0.843749999999612
 40
0.843749999999612
 40
0.8749999999996497
 40
0.8749999999996497
 40
1.0
 40
1.0
 40
1.0
 40
1.0
 10
462.4663996638262
 20
308.5508252727527
 30
0.0
 10
462.4645684672433
 20
308.6019434272856
 30
0.0
 10
462.4576076431432
 20
308.6520023935408
 30
0.0
 10
462.4399119256006
 20
308.7255929053782
 30
0.0
 10
462.4327944709687
 20
308.7498713957962
 30
0.0
 10
462.4202602091147
 20
308.7859054668298
 30
0.0
 10
462.4157592739082
 20
308.7978830775527
 30
0.0
 10
462.4061890781671
 20
308.821551528984
 30
0.0
 10
462.4011297951851
 20
308.8332228619567
 30
0.0
 10
462.3744927403203
 20
308.890783055711
 30
0.0
 10
462.3489324353541
 20
308.9343059027628
 30
0.0
 10
462.3117410134481
 20
308.9855957713727
 30
0.0
 10
462.3040382370136
 20
308.995696610975
 30
0.0
 10
462.2880955815523
 20
309.0155791987671
 30
0.0
 10
462.2798356363166
 20
309.0253819450725
 30
0.0
 10
462.2544894273773
 20
309.0540191677554
 30
0.0
 10
462.2367858435691
 20
309.0721589932485
 30
0.0
 10
462.1813255266011
 20
309.1238046850561
 30
0.0
 10
462.141242367631
 20
309.1545640843606
 30
0.0
 10
462.0871270889097
 20
309.1882777491942
 30
0.0
 10
462.0760810977788
 20
309.1947912079755
 30
0.0
 10
462.0538155537696
 20
309.2071988919097
 30
0.0
 10
462.0200816763356
 20
309.2249310601982
 30
0.0
 10
461.9622108946238
 20
309.2501669073696
 30
0.0
 10
461.9141715612419
 20
309.265788720543
 30
0.0
 10
461.8774742994879
 20
309.2757551732087
 30
0.0
 10
461.8651303796904
 20
309.2787851341259
 30
0.0
 10
461.8402145145178
 20
309.2842475020825
 30
0.0
 10
461.8276242289533
 20
309.2866816066738
 30
0.0
 10
461.7646756731907
 20
309.2972273467917
 30
0.0
 10
461.7139180667943
 20
309.3006193617481
 30
0.0
 10
461.6627512356317
 20
309.2988344365658
 30
0.0
  0
SPLINE
  5
1DB
330
1F
100
AcDbEntity
  8
1
100
AcDbSpline
210
0.0
220
0.0
230
1.0
 70
     8
 71
     3
 72
    36
 73
    32
 74
     0
 42
0.000000001
 43
0.0000000001
 40
0.0
 40
0.0
 40
0.0
 40
0.0
 40
0.1249999999998303
 40
0.1249999999998303
 40
0.1874999999997131
 40
0.1874999999997131
 40
0.2187499999996544
 40
0.2187499999996544
 40
0.2499999999995958
 40
0.2499999999995958
 40
0.3749999999995509
 40
0.3749999999995509
 40
0.4062499999995536
 40
0.4062499999995536
 40
0.437499999999556
 40
0.437499999999556
 40
0.4999999999996065
 40
0.4999999999996065
 40
0.624999999999748
 40
0.624999999999748
 40
0.656249999999778
 40
0.656249999999778
 40
0.687499999999808
 40
0.7499999999998376
 40
0.8124999999998671
 40
0.8124999999998671
 40
0.8437499999998859
 40
0.8437499999998859
 40
0.8749999999999047
 40
0.8749999999999047
 40
1.0
 40
1.0
 40
1.0
 40
1.0
 10
450.5245720365534
 20
308.9102855253669
 30
0.0
 10
450.4734006156925
 20
308.9085004400756
 30
0.0
 10
450.4232939499591
 20
308.9015903066433
 30
0.0
 10
450.3496397617192
 20
308.883977101401
 30
0.0
 10
450.3253413686066
 20
308.8768882390026
 30
0.0
 10
450.2892794599842
 20
308.8643985242639
 30
0.0
 10
450.2772928851126
 20
308.8599127547419
 30
0.0
 10
450.2536073039306
 20
308.850373251406
 30
0.0
 10
450.24192781767
 20
308.8453294676096
 30
0.0
 10
450.18432886995
 20
308.81877065669
 30
0.0
 10
450.1407814005187
 20
308.7932753185585
 30
0.0
 10
450.0894686214147
 20
308.7561680294617
 30
0.0
 10
450.0793635967501
 20
308.7484822271635
 30
0.0
 10
450.0594734450948
 20
308.7325738196545
 30
0.0
 10
450.0496673147885
 20
308.7243311878623
 30
0.0
 10
450.0210212565431
 20
308.6990368599639
 30
0.0
 10
450.002877257993
 20
308.6813679049855
 30
0.0
 10
449.9512240524668
 20
308.6260115953769
 30
0.0
 10
449.9204662686568
 20
308.585997934616
 30
0.0
 10
449.886763168823
 20
308.5319697350137
 30
0.0
 10
449.8802522615902
 20
308.5209412004652
 30
0.0
 10
449.8678504950706
 20
308.4987102206942
 30
0.0
 10
449.8501284362418
 20
308.4650277895395
 30
0.0
 10
449.824915417678
 20
308.4072408163153
 30
0.0
 10
449.8093184100466
 20
308.3592663995212
 30
0.0
 10
449.7993729585973
 20
308.3226170509054
 30
0.0
 10
449.7963504078947
 20
308.3102889692173
 30
0.0
 10
449.7909036984631
 20
308.2854045083961
 30
0.0
 10
449.7884778562008
 20
308.2728298101836
 30
0.0
 10
449.7779751685798
 20
308.2099577848053
 30
0.0
 10
449.7746233526713
 20
308.1592574728942
 30
0.0
 10
449.7764543850093
 20
308.1081439032819
 30
0.0
  0
SPLINE
  5
1DC
330
1F
100
AcDbEntity
  8
1
100
AcDbSpline
210
0.0
220
0.0
230
1.0
 70
     8
 71
     3
 72
    36
 73
    32
 74
     0
 42
0.000000001
 43
0.0000000001
 40
0.0
 40
0.0
 40
0.0
 40
0.0
 40
0.1249999999999245
 40
0.1249999999999245
 40
0.1874999999998868
 40
0.1874999999998868
 40
0.2187499999998679
 40
0.2187499999998679
 40
0.249999999999851
 40
0.249999999999851
 40
0.3749999999998408
 40
0.3749999999998408
 40
0.4062499999998593
 40
0.4062499999998593
 40
0.4374999999998776
 40
0.4374999999998776
 40
0.4999999999999594
 40
0.4999999999999594
 40
0.625000000000123
 40
0.625000000000123
 40
0.6562500000001351
 40
0.6562500000001351
 40
0.6875000000001473
 40
0.7500000000001714
 40
0.8125000000001953
 40
0.8125000000001953
 40
0.8437500000001742
 40
0.8437500000001742
 40
0.8750000000001529
 40
0.8750000000001529
 40
1.0
 40
1.0
 40
1.0
 40
1.0
 10
450.1750400671376
 20
296.9815588693865
 30
0.0
 10
450.1768712637207
 20
296.9304407148536
 30
0.0
 10
450.1838320878206
 20
296.8803817485984
 30
0.0
 10
450.2015278053631
 20
296.806791236761
 30
0.0
 10
450.2086452599951
 20
296.782512746343
 30
0.0
 10
450.2211795218491
 20
296.7464786753094
 30
0.0
 10
450.2256804570556
 20
296.7345010645865
 30
0.0
 10
450.2352506527968
 20
296.7108326131551
 30
0.0
 10
450.2403099357788
 20
296.6991612801826
 30
0.0
 10
450.2669469906434
 20
296.6416010864281
 30
0.0
 10
450.2925072956096
 20
296.5980782393764
 30
0.0
 10
450.3296987175156
 20
296.5467883707665
 30
0.0
 10
450.3374014939502
 20
296.5366875311641
 30
0.0
 10
450.3533441494115
 20
296.5168049433721
 30
0.0
 10
450.3616040946473
 20
296.5070021970667
 30
0.0
 10
450.3869503035867
 20
296.4783649743838
 30
0.0
 10
450.4046538873947
 20
296.4602251488906
 30
0.0
 10
450.460114204363
 20
296.408579457083
 30
0.0
 10
450.5001973633329
 20
296.3778200577785
 30
0.0
 10
450.5543126420541
 20
296.344106392945
 30
0.0
 10
450.5653586331848
 20
296.3375929341637
 30
0.0
 10
450.5876241771943
 20
296.3251852502294
 30
0.0
 10
450.6213580546281
 20
296.3074530819408
 30
0.0
 10
450.67922883634
 20
296.2822172347695
 30
0.0
 10
450.7272681697222
 20
296.2665954215962
 30
0.0
 10
450.7639654314758
 20
296.2566289689305
 30
0.0
 10
450.7763093512734
 20
296.2535990080132
 30
0.0
 10
450.8012252164461
 20
296.2481366400567
 30
0.0
 10
450.8138155020106
 20
296.2457025354654
 30
0.0
 10
450.8767640577729
 20
296.2351567953475
 30
0.0
 10
450.9275216641696
 20
296.231764780391
 30
0.0
 10
450.9786884953321
 20
296.2335497055734
 30
0.0
  0
SPLINE
  5
1DD
330
1F
100
AcDbEntity
  8
1
100
AcDbSpline
210
0.0
220
0.0
230
1.0
 70
     8
 71
     3
 72
    23
 73
    19
 74
     0
 42
0.000000001
 43
0.0000000001
 40
0.0
 40
0.0
 40
0.0
 40
0.0
 40
0.1249999999999996
 40
0.1249999999999996
 40
0.2499999999999992
 40
0.2499999999999992
 40
0.4999999999999973
 40
0.4999999999999973
 40
0.5312499999999967
 40
0.5312499999999967
 40
0.5624999999999961
 40
0.6249999999999961
 40
0.6249999999999961
 40
0.7499999999999975
 40
0.7499999999999975
 40
0.8749999999999985
 40
0.8749999999999985
 40
1.0
 40
1.0
 40
1.0
 40
1.0
 10
299.9255104500202
 20
284.3293023383862
 30
0.0
 10
299.5676019055597
 20
284.4238304580057
 30
0.0
 10
299.2079736349567
 20
284.5123983771022
 30
0.0
 10
298.4846609849853
 20
284.6752505624422
 30
0.0
 10
298.1209776386075
 20
284.7495379408144
 30
0.0
 10
297.0230461081556
 20
284.9478832149863
 30
0.0
 10
296.2819121515378
 20
285.0473930121481
 30
0.0
 10
295.4356769373847
 20
285.1143203917199
 30
0.0
 10
295.3415393299843
 20
285.1211263400645
 30
0.0
 10
295.1534249978598
 20
285.1334342070661
 30
0.0
 10
294.8713274953803
 20
285.1499536160389
 30
0.0
 10
294.5894538699603
 20
285.160593005071
 30
0.0
 10
294.0260099586425
 20
285.1738995544726
 30
0.0
 10
293.6507850749368
 20
285.1721412475292
 30
0.0
 10
292.9011699199044
 20
285.1466906891714
 30
0.0
 10
292.5267795166236
 20
285.1230017411546
 30
0.0
 10
291.7788624276394
 20
285.0529729694883
 30
0.0
 10
291.4053356077652
 20
285.0066364367501
 30
0.0
 10
291.0322589432849
 20
284.9485428291121
 30
0.0
  0
SPLINE
  5
1DE
330
1F
100
AcDbEntity
  8
1
100
AcDbSpline
210
0.0
220
0.0
230
1.0
 70
     8
 71
     3
 72
     8
 73
     4
 74
     0
 42
0.000000001
 43
0.0000000001
 40
0.0
 40
0.0
 40
0.0
 40
0.0
 40
1.0
 40
1.0
 40
1.0
 40
1.0
 10
307.7780230130898
 20
282.1349216432274
 30
0.0
 10
307.7786704975709
 20
282.20158849505
 30
0.0
 10
307.7793184167871
 20
282.2682566791307
 30
0.0
 10
307.77996677162
 20
282.3349261981711
 30
0.0
  0
SPLINE
  5
1DF
330
1F
100
AcDbEntity
  8
1
100
AcDbSpline
210
0.0
220
0.0
230
1.0
 70
     8
 71
     3
 72
     8
 73
     4
 74
     0
 42
0.000000001
 43
0.0000000001
 40
0.0
 40
0.0
 40
0.0
 40
0.0
 40
1.0
 40
1.0
 40
1.0
 40
1.0
 10
442.8405581072222
 20
297.8706468767649
 30
0.0
 10
442.4336392219628
 20
298.1205750849945
 30
0.0
 10
442.0214703002487
 20
298.3728532722208
 30
0.0
 10
441.6042925383944
 20
298.6273734760952
 30
0.0
  0
SPLINE
  5
1E0
330
1F
100
AcDbEntity
  8
1
100
AcDbSpline
210
0.0
220
0.0
230
1.0
 70
     8
 71
     3
 72
    22
 73
    18
 74
     0
 42
0.000000001
 43
0.0000000001
 40
0.0
 40
0.0
 40
0.0
 40
0.0
 40
0.125
 40
0.125
 40
0.25
 40
0.25
 40
0.375
 40
0.375
 40
0.5
 40
0.5
 40
0.625
 40
0.625
 40
0.75
 40
0.75
 40
0.875
 40
0.875
 40
1.0
 40
1.0
 40
1.0
 40
1.0
 10
291.0322589432654
 20
269.0400801990019
 30
0.0
 10
291.4814089268211
 20
269.0148737210713
 30
0.0
 10
291.9327876965803
 20
268.9941139120143
 30
0.0
 10
292.8392857283337
 20
268.9599330316149
 30
0.0
 10
293.2944037031911
 20
268.9465159958299
 30
0.0
 10
294.2078091268072
 20
268.9258727640598
 30
0.0
 10
294.6660948872933
 20
268.9186504569093
 30
0.0
 10
295.5854584425031
 20
268.9095293242713
 30
0.0
 10
296.0465348096981
 20
268.90763453255
 30
0.0
 10
296.9713451745955
 20
268.908463401913
 30
0.0
 10
297.4350786865628
 20
268.9111910019234
 30
0.0
 10
298.3653431764297
 20
268.9206009427297
 30
0.0
 10
298.8318749852188
 20
268.9272864828217
 30
0.0
 10
299.7681459528354
 20
268.9438800939328
 30
0.0
 10
300.2378870913605
 20
268.9537899282304
 30
0.0
 10
301.1812132935638
 20
268.9759544634613
 30
0.0
 10
301.6548008546769
 20
268.9882091463715
 30
0.0
 10
302.1307070638431
 20
269.001111187241
 30
0.0
  0
SPLINE
  5
1E1
330
1F
100
AcDbEntity
  8
1
100
AcDbSpline
210
0.0
220
0.0
230
1.0
 70
     8
 71
     3
 72
    44
 73
    40
 74
     0
 42
0.000000001
 43
0.0000000001
 40
0.0
 40
0.0
 40
0.0
 40
0.0
 40
0.1249999999999943
 40
0.1249999999999943
 40
0.2499999999999885
 40
0.2499999999999885
 40
0.3749999999999828
 40
0.3749999999999828
 40
0.4999999999999771
 40
0.4999999999999771
 40
0.531249999999949
 40
0.531249999999949
 40
0.5624999999999211
 40
0.5624999999999211
 40
0.6249999999998975
 40
0.6249999999998975
 40
0.6874999999998738
 40
0.6874999999998738
 40
0.7499999999998503
 40
0.7499999999998503
 40
0.7812499999998432
 40
0.7812499999998432
 40
0.8124999999998358
 40
0.8124999999998358
 40
0.8281249999998367
 40
0.8281249999998367
 40
0.8437499999998376
 40
0.8437499999998376
 40
0.8749999999998671
 40
0.8749999999998671
 40
0.8906249999998838
 40
0.8906249999998838
 40
0.9062499999999003
 40
0.9062499999999003
 40
0.9374999999999335
 40
0.9374999999999335
 40
0.9687499999999667
 40
0.9687499999999667
 40
1.0
 40
1.0
 40
1.0
 40
1.0
 10
441.6042925383941
 20
298.627373476095
 30
0.0
 10
441.5657488212315
 20
298.6508890026819
 30
0.0
 10
441.5282461419013
 20
298.6754527950205
 30
0.0
 10
441.4555097465925
 20
298.7268775686804
 30
0.0
 10
441.4202728779176
 20
298.7537353976957
 30
0.0
 10
441.3524296878763
 20
298.8101219985805
 30
0.0
 10
441.3198151170003
 20
298.8396425607251
 30
0.0
 10
441.2579093486048
 20
298.9020575787277
 30
0.0
 10
441.2285914684646
 20
298.9349255425809
 30
0.0
 10
441.1949414296812
 20
298.9790426802469
 30
0.0
 10
441.1883646826567
 20
298.9880210890872
 30
0.0
 10
441.175559763497
 20
299.0063298689396
 30
0.0
 10
441.169317116807
 20
299.015683807422
 30
0.0
 10
441.1513384839628
 20
299.0441222258724
 30
0.0
 10
441.1403239210725
 20
299.063593568893
 30
0.0
 10
441.1208178959165
 20
299.1038605692834
 30
0.0
 10
441.1123003210761
 20
299.1246874182394
 30
0.0
 10
441.0988934367925
 20
299.1680491089747
 30
0.0
 10
441.0941065767006
 20
299.1902018913142
 30
0.0
 10
441.0910424133647
 20
299.2244326120406
 30
0.0
 10
441.0907210610285
 20
299.2360939043388
 30
0.0
 10
441.0918059327829
 20
299.2593903663117
 30
0.0
 10
441.0931990367101
 20
299.2709947244855
 30
0.0
 10
441.0967650940861
 20
299.2883232706999
 30
0.0
 10
441.0982005215621
 20
299.2940864143258
 30
0.0
 10
441.1016085153641
 20
299.3055839877357
 30
0.0
 10
441.1035932596302
 20
299.3113435972057
 30
0.0
 10
441.1102812037183
 20
299.3282273217468
 30
0.0
 10
441.1157333158317
 20
299.3390447630226
 30
0.0
 10
441.1254059433137
 20
299.3546099959381
 30
0.0
 10
441.128879486293
 20
299.3596881393482
 30
0.0
 10
441.1363290551711
 20
299.3696219654305
 30
0.0
 10
441.1403282308128
 20
299.3745021382768
 30
0.0
 10
441.1528785855601
 20
299.3885782424648
 30
0.0
 10
441.1619734769146
 20
299.3972278916706
 30
0.0
 10
441.181420536107
 20
299.4132580169742
 30
0.0
 10
441.1918323763863
 20
299.4206704327674
 30
0.0
 10
441.2133913475247
 20
299.4341463349642
 30
0.0
 10
441.2245480224917
 20
299.4402308967392
 30
0.0
 10
441.2360187074608
 20
299.4457715141594
 30
0.0
  0
SPLINE
  5
1E2
330
1F
100
AcDbEntity
  8
1
100
AcDbSpline
210
0.0
220
0.0
230
1.0
 70
     8
 71
     3
 72
     8
 73
     4
 74
     0
 42
0.000000001
 43
0.0000000001
 40
0.0
 40
0.0
 40
0.0
 40
0.0
 40
1.0
 40
1.0
 40
1.0
 40
1.0
 10
442.8405581072201
 20
297.870646876763
 30
0.0
 10
443.1452878153738
 20
297.6411848050054
 30
0.0
 10
443.4441014110879
 20
297.4133334562321
 30
0.0
 10
443.7366531192723
 20
297.1871869712984
 30
0.0
  0
SPLINE
  5
1E3
330
1F
100
AcDbEntity
  8
1
100
AcDbSpline
210
0.0
220
0.0
230
1.0
 70
     8
 71
     3
 72
    30
 73
    26
 74
     0
 42
0.000000001
 43
0.0000000001
 40
0.0
 40
0.0
 40
0.0
 40
0.0
 40
0.0056946656565084
 40
0.0056946656565084
 40
0.096086059687735
 40
0.096086059687735
 40
0.1864774537189615
 40
0.1864774537189615
 40
0.2768688477501881
 40
0.2768688477501881
 40
0.3672602417814147
 40
0.3672602417814147
 40
0.4576516358126412
 40
0.4576516358126412
 40
0.5480430298438678
 40
0.5480430298438678
 40
0.6384344238750942
 40
0.6384344238750942
 40
0.7288258179063206
 40
0.7288258179063206
 40
0.819217211937547
 40
0.819217211937547
 40
0.9096086059687738
 40
0.9096086059687738
 40
1.0
 40
1.0
 40
1.0
 40
1.0
 10
358.3516721577614
 20
274.0608059764285
 30
0.0
 10
358.2696088755945
 20
274.0491197662506
 30
0.0
 10
358.1875436961219
 20
274.0374603335537
 30
0.0
 10
356.8028271256503
 20
273.8411785872455
 30
0.0
 10
355.4997451779738
 20
273.6630931127893
 30
0.0
 10
352.8936467570763
 20
273.3169615307832
 30
0.0
 10
351.590632036956
 20
273.1489127025068
 30
0.0
 10
348.9855927986772
 20
272.8204395407187
 30
0.0
 10
347.6835697560025
 20
272.6600134144322
 30
0.0
 10
345.0813805282548
 20
272.3451181977726
 30
0.0
 10
343.7812155417753
 20
272.1906482121786
 30
0.0
 10
341.1835109134016
 20
271.8867854715112
 30
0.0
 10
339.885972202378
 20
271.737392718406
 30
0.0
 10
337.2941585403412
 20
271.4436056978562
 30
0.0
 10
335.9998842631243
 20
271.2992123256991
 30
0.0
 10
333.4150837837027
 20
271.0161328834132
 30
0.0
 10
332.1245580081482
 20
270.8774485598616
 30
0.0
 10
329.5475682786616
 20
270.6072437444379
 30
0.0
 10
328.2611045149157
 20
270.4757257443262
 30
0.0
 10
325.6923727792527
 20
270.2219937553313
 30
0.0
 10
324.4101047756815
 20
270.0997828219891
 30
0.0
 10
321.8497164394311
 20
269.8674048011779
 30
0.0
 10
320.5715958747568
 20
269.7572410801124
 30
0.0
 10
318.0192762512352
 20
269.5521995890896
 30
0.0
 10
316.7450767898253
 20
269.4573251851793
 30
0.0
 10
315.4726407984108
 20
269.3719148164151
 30
0.0
  0
SPLINE
  5
1E4
330
1F
100
AcDbEntity
  8
1
100
AcDbSpline
210
0.0
220
0.0
230
1.0
 70
     8
 71
     3
 72
    34
 73
    30
 74
     0
 42
0.000000001
 43
0.0000000001
 40
0.0
 40
0.0
 40
0.0
 40
0.0
 40
0.0735483396160863
 40
0.0735483396160863
 40
0.1470966792321725
 40
0.1470966792321725
 40
0.2206450188482588
 40
0.2206450188482588
 40
0.294193358464345
 40
0.294193358464345
 40
0.3677416980804313
 40
0.3677416980804313
 40
0.4412900376965176
 40
0.4412900376965176
 40
0.5148383773126037
 40
0.5148383773126037
 40
0.58838671692869
 40
0.58838671692869
 40
0.6619350565447763
 40
0.6619350565447763
 40
0.7354833961608626
 40
0.7354833961608626
 40
0.8090317357769487
 40
0.8090317357769487
 40
0.882580075393035
 40
0.882580075393035
 40
0.9561284150091211
 40
0.9561284150091211
 40
1.0
 40
1.0
 40
1.0
 40
1.0
 10
315.472640798411
 20
269.3719148164124
 30
0.0
 10
316.3109956733719
 20
269.5482323566131
 30
0.0
 10
317.1506799449094
 20
269.7255509773642
 30
0.0
 10
318.8329772441337
 20
270.0802263435159
 30
0.0
 10
319.6755906832172
 20
270.2575811781865
 30
0.0
 10
321.3639715859194
 20
270.6103459638093
 30
0.0
 10
322.2097394807426
 20
270.7857534199862
 30
0.0
 10
323.9045964021647
 20
271.132690129815
 30
0.0
 10
324.7536858485851
 20
271.3042163120377
 30
0.0
 10
326.4552819148223
 20
271.6415904701623
 30
0.0
 10
327.3077888943983
 20
271.8074349347896
 30
0.0
 10
329.0162331013133
 20
272.1318784065419
 30
0.0
 10
329.8721705646913
 20
272.2904737784783
 30
0.0
 10
331.5873966497334
 20
272.5991931928271
 30
0.0
 10
332.446685316174
 20
272.7493139760841
 30
0.0
 10
334.1684380835912
 20
273.0403052467939
 30
0.0
 10
335.0309019867951
 20
273.1811734552693
 30
0.0
 10
336.7587349934798
 20
273.4534129709743
 30
0.0
 10
337.6241882320258
 20
273.5847945748624
 30
0.0
 10
339.3565852283116
 20
273.838244403525
 30
0.0
 10
340.2236549414482
 20
273.9603348674738
 30
0.0
 10
341.9592423541002
 20
274.1961928019465
 30
0.0
 10
342.8277595221932
 20
274.3099630271486
 30
0.0
 10
344.565919498302
 20
274.5306382282868
 30
0.0
 10
345.4355617820997
 20
274.6375469591735
 30
0.0
 10
347.1756387813061
 20
274.846366355729
 30
0.0
 10
348.0460730362279
 20
274.9482811009099
 30
0.0
 10
349.4360911826004
 20
275.1087196730619
 30
0.0
 10
349.9555257692243
 20
275.1681601260264
 30
0.0
 10
350.4750095205122
 20
275.2273423439024
 30
0.0
  0
SPLINE
  5
1E5
330
1F
100
AcDbEntity
  8
1
100
AcDbSpline
210
0.0
220
0.0
230
1.0
 70
     8
 71
     3
 72
    42
 73
    38
 74
     0
 42
0.000000001
 43
0.0000000001
 40
0.0
 40
0.0
 40
0.0
 40
0.0
 40
0.0624999999999999
 40
0.0624999999999999
 40
0.1249999999999998
 40
0.1249999999999998
 40
0.1874999999999997
 40
0.1874999999999997
 40
0.2499999999999996
 40
0.2499999999999996
 40
0.3749999999999989
 40
0.3749999999999989
 40
0.4374999999999988
 40
0.4374999999999988
 40
0.4531249999999988
 40
0.4531249999999988
 40
0.4687499999999988
 40
0.499999999999999
 40
0.499999999999999
 40
0.5624999999999992
 40
0.5624999999999992
 40
0.6249999999999993
 40
0.6249999999999993
 40
0.6874999999999996
 40
0.6874999999999996
 40
0.7499999999999999
 40
0.7499999999999999
 40
0.78125
 40
0.796875
 40
0.796875
 40
0.8124999999999998
 40
0.8124999999999998
 40
0.8749999999999998
 40
0.8749999999999998
 40
0.9375
 40
0.9375
 40
1.0
 40
1.0
 40
1.0
 40
1.0
 10
279.7185504442917
 20
277.1743629515916
 30
0.0
 10
279.8799164082517
 20
277.4229421805598
 30
0.0
 10
280.0460917142981
 20
277.6662662876249
 30
0.0
 10
280.3879804208592
 20
278.1429635736572
 30
0.0
 10
280.5636942256125
 20
278.3763350081546
 30
0.0
 10
280.9246781445425
 20
278.8334995877755
 30
0.0
 10
281.1099483347834
 20
279.0572917662085
 30
0.0
 10
281.4901536153739
 20
279.4955287490801
 30
0.0
 10
281.685088532965
 20
279.7099730828942
 30
0.0
 10
282.2846916162096
 20
280.3394497615203
 30
0.0
 10
282.7040984277015
 20
280.740682836963
 30
0.0
 10
283.3648755716762
 20
281.314544158096
 30
0.0
 10
283.5904262564909
 20
281.5011526448325
 30
0.0
 10
283.8793308413526
 20
281.7284115924286
 30
0.0
 10
283.9374922322678
 20
281.7735868182405
 30
0.0
 10
284.0542417300678
 20
281.8631175992873
 30
0.0
 10
284.2300800393647
 20
281.9962441148577
 30
0.0
 10
284.4080689650877
 20
282.1258664900648
 30
0.0
 10
284.7669445459064
 20
282.3804379616221
 30
0.0
 10
285.0100554084137
 20
282.5439266170674
 30
0.0
 10
285.504230919331
 20
282.8583221662166
 30
0.0
 10
285.7552949018817
 20
283.0092299229646
 30
0.0
 10
286.2657176098517
 20
283.2981520187093
 30
0.0
 10
286.5250753396416
 20
283.4361677826443
 30
0.0
 10
287.0525599823801
 20
283.6987784476924
 30
0.0
 10
287.3206854095797
 20
283.8233755808545
 30
0.0
 10
287.7299337574095
 20
283.9996078990081
 30
0.0
 10
287.9363251805389
 20
284.085054745465
 30
0.0
 10
288.1454813868081
 20
284.1663489577345
 30
0.0
 10
288.2855477589946
 20
284.2196028738792
 30
0.0
 10
288.3559165776621
 20
284.2457655559222
 30
0.0
 10
288.708258078368
 20
284.3737784928557
 30
0.0
 10
288.9925592749184
 20
284.4675671513645
 30
0.0
 10
289.5662395204972
 20
284.6371599691086
 30
0.0
 10
289.8556178431601
 20
284.7129668175196
 30
0.0
 10
290.4397755734136
 20
284.8454776310483
 30
0.0
 10
290.7345538784017
 20
284.9021857050203
 30
0.0
 10
291.0322589432849
 20
284.9485428291122
 30
0.0
  0
SPLINE
  5
1E6
330
1F
100
AcDbEntity
  8
1
100
AcDbSpline
210
0.0
220
0.0
230
1.0
 70
     8
 71
     3
 72
    16
 73
    12
 74
     0
 42
0.000000001
 43
0.0000000001
 40
0.0
 40
0.0
 40
0.0
 40
0.0
 40
0.2499999999999812
 40
0.2499999999999812
 40
0.4999999999999626
 40
0.4999999999999626
 40
0.6249999999999917
 40
0.6249999999999917
 40
0.750000000000021
 40
0.750000000000021
 40
1.0
 40
1.0
 40
1.0
 40
1.0
 10
453.1900404958467
 20
295.845423220866
 30
0.0
 10
453.1206005793257
 20
295.7997647717871
 30
0.0
 10
453.0497788953076
 20
295.7579302690734
 30
0.0
 10
452.9051874325573
 20
295.6814227969348
 30
0.0
 10
452.8314213851121
 20
295.6467537076897
 30
0.0
 10
452.718378519927
 20
295.6000525526499
 30
0.0
 10
452.6802977480878
 20
295.5853718879679
 30
0.0
 10
452.6032910082591
 20
295.5578027614383
 30
0.0
 10
452.5643615353607
 20
295.5449173934013
 30
0.0
 10
452.4469576330691
 20
295.5092121288163
 30
0.0
 10
452.3676274918979
 20
295.4892358037767
 30
0.0
 10
452.2869460175413
 20
295.4731885513101
 30
0.0
  0
SPLINE
  5
1E7
330
1F
100
AcDbEntity
  8
1
100
AcDbSpline
210
0.0
220
0.0
230
1.0
 70
     8
 71
     3
 72
    28
 73
    24
 74
     0
 42
0.000000001
 43
0.0000000001
 40
0.0
 40
0.0
 40
0.0
 40
0.0
 40
0.1250000000000165
 40
0.250000000000033
 40
0.3750000000000494
 40
0.3750000000000494
 40
0.4062500000000514
 40
0.4062500000000514
 40
0.4375000000000532
 40
0.4375000000000532
 40
0.5000000000000569
 40
0.5000000000000569
 40
0.6250000000000733
 40
0.6250000000000733
 40
0.6875000000000771
 40
0.6875000000000771
 40
0.7187500000000746
 40
0.7187500000000746
 40
0.750000000000072
 40
0.750000000000072
 40
0.8750000000000358
 40
0.8750000000000358
 40
1.0
 40
1.0
 40
1.0
 40
1.0
 10
452.2852100574795
 20
295.2864571249227
 30
0.0
 10
451.9118554186136
 20
295.273361619941
 30
0.0
 10
451.1672622839984
 20
295.2729379943733
 30
0.0
 10
450.0566103832708
 20
295.3482256328208
 30
0.0
 10
449.3203221467668
 20
295.4488515899872
 30
0.0
 10
448.8614527787353
 20
295.5276716661561
 30
0.0
 10
448.7697445202496
 20
295.5442330270763
 30
0.0
 10
448.5864599172717
 20
295.5789582954581
 30
0.0
 10
448.4949310044982
 20
295.5971141851023
 30
0.0
 10
448.2211720440473
 20
295.6538585109183
 30
0.0
 10
448.0395806577072
 20
295.6947581871803
 30
0.0
 10
447.4975333322676
 20
295.8266023906125
 30
0.0
 10
447.1398009195143
 20
295.926681501456
 30
0.0
 10
446.6086436529956
 20
296.0950086054598
 30
0.0
 10
446.4324989507696
 20
296.1541550411352
 30
0.0
 10
446.1696500710206
 20
296.2474464724972
 30
0.0
 10
446.0822206828924
 20
296.2793215478745
 30
0.0
 10
445.9081045809881
 20
296.3444924304615
 30
0.0
 10
445.8214030995371
 20
296.3777925692453
 30
0.0
 10
445.3896713289092
 20
296.5478489329603
 30
0.0
 10
445.0499614104129
 20
296.6952601331463
 30
0.0
 10
444.3818137333551
 20
297.0125549297589
 30
0.0
 10
444.0533759542431
 20
297.1824390294392
 30
0.0
 10
443.7306180386241
 20
297.3635787664408
 30
0.0
  0
SPLINE
  5
1E8
330
1F
100
AcDbEntity
  8
1
100
AcDbSpline
210
0.0
220
0.0
230
1.0
 70
     8
 71
     3
 72
    27
 73
    23
 74
     0
 42
0.000000001
 43
0.0000000001
 40
0.0
 40
0.0
 40
0.0
 40
0.0
 40
0.125000000000007
 40
0.125000000000007
 40
0.187500000000006
 40
0.187500000000006
 40
0.2187500000000055
 40
0.2187500000000055
 40
0.2500000000000049
 40
0.3750000000000123
 40
0.3750000000000123
 40
0.4375000000000159
 40
0.4687500000000129
 40
0.4687500000000129
 40
0.5000000000000099
 40
0.5000000000000099
 40
0.6250000000000075
 40
0.6250000000000075
 40
0.7500000000000052
 40
0.8750000000000024
 40
0.8750000000000024
 40
1.0
 40
1.0
 40
1.0
 40
1.0
 10
444.5123271450707
 20
293.1077055826581
 30
0.0
 10
444.8113301145921
 20
292.9398759043886
 30
0.0
 10
445.1161362548934
 20
292.7822547167738
 30
0.0
 10
445.5820387908278
 20
292.5613523998076
 30
0.0
 10
445.7387895780086
 20
292.4903081239191
 30
0.0
 10
445.9760992436782
 20
292.3876689901625
 30
0.0
 10
446.0555944124246
 20
292.3540997410412
 30
0.0
 10
446.2150083873122
 20
292.2884028236397
 30
0.0
 10
446.6147629393491
 20
292.1276954197386
 30
0.0
 10
447.0205769679263
 20
291.9845940409198
 30
0.0
 10
447.5133182760544
 20
291.8297582490283
 30
0.0
 10
447.7611313184056
 20
291.7565651045114
 30
0.0
 10
448.0111098530159
 20
291.6897369120068
 30
0.0
 10
448.1782444791484
 20
291.6466045253705
 30
0.0
 10
448.2620870648632
 20
291.6257399639778
 30
0.0
 10
448.6821266790391
 20
291.5250723359846
 30
0.0
 10
449.0193728424024
 20
291.4565524336347
 30
0.0
 10
449.6962333401476
 20
291.3430301517155
 30
0.0
 10
450.3754621564231
 20
291.253026640238
 30
0.0
 10
451.0593826861576
 20
291.2097337966218
 30
0.0
 10
451.7456643162381
 20
291.1899771107763
 30
0.0
 10
452.089985576031
 20
291.1918658358211
 30
0.0
 10
452.4355146594738
 20
291.2057931922836
 30
0.0
  0
SPLINE
  5
1E9
330
1F
100
AcDbEntity
  8
1
100
AcDbSpline
210
0.0
220
0.0
230
1.0
 70
     8
 71
     3
 72
     8
 73
     4
 74
     0
 42
0.000000001
 43
0.0000000001
 40
0.0
 40
0.0
 40
0.0
 40
0.0
 40
1.0
 40
1.0
 40
1.0
 40
1.0
 10
452.2852100574795
 20
295.2864571249227
 30
0.0
 10
452.2887680192816
 20
295.2865819213004
 30
0.0
 10
452.2923265914037
 20
295.2867063996682
 30
0.0
 10
452.2958857744678
 20
295.2868305597018
 30
0.0
  0
SPLINE
  5
1EA
330
1F
100
AcDbEntity
  8
1
100
AcDbSpline
210
0.0
220
0.0
230
1.0
 70
     8
 71
     3
 72
    21
 73
    17
 74
     0
 42
0.000000001
 43
0.0000000001
 40
0.0
 40
0.0
 40
0.0
 40
0.0
 40
0.2499999999999954
 40
0.2499999999999954
 40
0.3124999999999969
 40
0.3124999999999969
 40
0.3749999999999984
 40
0.3749999999999984
 40
0.5000000000000008
 40
0.6250000000000031
 40
0.6250000000000031
 40
0.6875000000000044
 40
0.6875000000000044
 40
0.7500000000000055
 40
0.7500000000000055
 40
1.0
 40
1.0
 40
1.0
 40
1.0
 10
450.7048419452955
 20
291.9469670271741
 30
0.0
 10
450.1540852900685
 20
291.9451499722276
 30
0.0
 10
449.6119576589383
 20
291.9684271226483
 30
0.0
 10
448.9433712765866
 20
292.0282521110353
 30
0.0
 10
448.810109255139
 20
292.0417597417119
 30
0.0
 10
448.5444593746091
 20
292.0718681597461
 30
0.0
 10
448.4120231477026
 20
292.0884756949847
 30
0.0
 10
448.0162978013969
 20
292.1429183640136
 30
0.0
 10
447.4939563387609
 20
292.2276615181374
 30
0.0
 10
446.9814617836783
 20
292.3366658913752
 30
0.0
 10
446.6005599955456
 20
292.4276013457522
 30
0.0
 10
446.4741714502826
 20
292.4594445557796
 30
0.0
 10
446.2225205871546
 20
292.5262200708933
 30
0.0
 10
446.0971985912055
 20
292.5611700859438
 30
0.0
 10
445.4740673471371
 20
292.7435126144647
 30
0.0
 10
444.987634494899
 20
292.9132877352783
 30
0.0
 10
444.5123271450707
 20
293.1077055826581
 30
0.0
  0
SPLINE
  5
1EB
330
1F
100
AcDbEntity
  8
1
100
AcDbSpline
210
0.0
220
0.0
230
1.0
 70
     8
 71
     3
 72
    26
 73
    22
 74
     0
 42
0.000000001
 43
0.0000000001
 40
0.0
 40
0.0
 40
0.0
 40
0.0
 40
0.1250000000000409
 40
0.1250000000000409
 40
0.2500000000000817
 40
0.2500000000000817
 40
0.3125000000001021
 40
0.3125000000001021
 40
0.3750000000001226
 40
0.3750000000001226
 40
0.5000000000001218
 40
0.5000000000001218
 40
0.6250000000001212
 40
0.6250000000001212
 40
0.6875000000001012
 40
0.6875000000001012
 40
0.7500000000000812
 40
0.7500000000000812
 40
0.8750000000000406
 40
0.8750000000000406
 40
1.0
 40
1.0
 40
1.0
 40
1.0
 10
452.2869460175412
 20
295.4731885513101
 30
0.0
 10
452.2064895980062
 20
295.4571860614308
 30
0.0
 10
452.1257547516816
 20
295.4452876280185
 30
0.0
 10
451.9636742833039
 20
295.429676560084
 30
0.0
 10
451.8823274988056
 20
295.4259672067059
 30
0.0
 10
451.7598231169864
 20
295.4266732868106
 30
0.0
 10
451.7189079249244
 20
295.4279547803369
 30
0.0
 10
451.636916719016
 20
295.432642698176
 30
0.0
 10
451.5957566671368
 20
295.4360643930662
 30
0.0
 10
451.4736114312468
 20
295.4493691683812
 30
0.0
 10
451.3934695580826
 20
295.4622884359155
 30
0.0
 10
451.2352332123145
 20
295.4958418653448
 30
0.0
 10
451.1571370500779
 20
295.5164766339258
 30
0.0
 10
451.0412063778337
 20
295.5532140220165
 30
0.0
 10
451.0027018494251
 20
295.5664511546043
 30
0.0
 10
450.9263585556288
 20
295.5947804601765
 30
0.0
 10
450.8886153803127
 20
295.6098333483148
 30
0.0
 10
450.7766046960538
 20
295.6576234502083
 30
0.0
 10
450.7035534008612
 20
295.6929831259588
 30
0.0
 10
450.560433576908
 20
295.7707426529128
 30
0.0
 10
450.4903687473595
 20
295.8131400995537
 30
0.0
 10
450.4216887876859
 20
295.8592348468433
 30
0.0
  0
SPLINE
  5
1EC
330
1F
100
AcDbEntity
  8
1
100
AcDbSpline
210
0.0
220
0.0
230
1.0
 70
     8
 71
     3
 72
     8
 73
     4
 74
     0
 42
0.000000001
 43
0.0000000001
 40
0.0
 40
0.0
 40
0.0
 40
0.0
 40
1.0
 40
1.0
 40
1.0
 40
1.0
 10
446.1826611744688
 20
304.8964044058869
 30
0.0
 10
446.1439162389021
 20
306.2038023927406
 30
0.0
 10
446.1106409188433
 20
307.5113366725541
 30
0.0
 10
446.0810115136712
 20
308.8189618019949
 30
0.0
  0
SPLINE
  5
1ED
330
1F
100
AcDbEntity
  8
1
100
AcDbSpline
210
0.0
220
0.0
230
1.0
 70
     8
 71
     3
 72
    44
 73
    40
 74
     0
 42
0.000000001
 43
0.0000000001
 40
0.0
 40
0.0
 40
0.0
 40
0.0
 40
0.0569557169135952
 40
0.0569557169135952
 40
0.1139114338271903
 40
0.1139114338271903
 40
0.1708671507407855
 40
0.1708671507407855
 40
0.2278228676543806
 40
0.2278228676543806
 40
0.2563007261111782
 40
0.2563007261111782
 40
0.2847785845679758
 40
0.2847785845679758
 40
0.341734301481572
 40
0.341734301481572
 40
0.3986900183951682
 40
0.3986900183951682
 40
0.4271678768519659
 40
0.4271678768519659
 40
0.4556457353087634
 40
0.4556457353087634
 40
0.5695571691359528
 40
0.5695571691359528
 40
0.6265128860495474
 40
0.6265128860495474
 40
0.6834686029631425
 40
0.6834686029631425
 40
0.7404243198767376
 40
0.7404243198767376
 40
0.7973800367903329
 40
0.7973800367903329
 40
0.854335753703928
 40
0.854335753703928
 40
0.9112914706175232
 40
0.9112914706175232
 40
0.9682471875311181
 40
0.9682471875311181
 40
1.0
 40
1.0
 40
1.0
 40
1.0
 10
446.0810115136713
 20
308.818961801995
 30
0.0
 10
444.686039096951
 20
308.8618768262508
 30
0.0
 10
443.2853624449216
 20
308.8872169426727
 30
0.0
 10
440.4723893087905
 20
308.9114109982347
 30
0.0
 10
439.0600964154049
 20
308.910279651961
 30
0.0
 10
436.2243747801271
 20
308.8889815701992
 30
0.0
 10
434.8009485713442
 20
308.8688233217663
 30
0.0
 10
431.9440398177325
 20
308.8153248455848
 30
0.0
 10
430.5105593278271
 20
308.7819889710501
 30
0.0
 10
428.3540025920248
 20
308.7251516631597
 30
0.0
 10
427.6340982963861
 20
308.7050526899162
 30
0.0
 10
426.1924309859128
 20
308.6628821397726
 30
0.0
 10
425.4705750808588
 20
308.6408074537764
 30
0.0
 10
423.3038635576069
 20
308.5719891636086
 30
0.0
 10
421.8575253644657
 20
308.5227020676541
 30
0.0
 10
418.9626880134356
 20
308.4176239592707
 30
0.0
 10
417.5141908073964
 20
308.3618325761192
 30
0.0
 10
415.3412016627572
 20
308.2720824073201
 30
0.0
 10
414.6168383843058
 20
308.2411327137185
 30
0.0
 10
413.1682599676047
 20
308.1768426032686
 30
0.0
 10
412.444027660929
 20
308.1435243751339
 30
0.0
 10
408.8231373699019
 20
307.9710016688861
 30
0.0
 10
405.9272985875256
 20
307.81400062391
 30
0.0
 10
401.5846205007974
 20
307.5486468583528
 30
0.0
 10
400.1371763978426
 20
307.4552163147671
 30
0.0
 10
397.24302250426
 20
307.2582617817071
 30
0.0
 10
395.7962884627538
 20
307.1547372493475
 30
0.0
 10
392.9034280266378
 20
306.9374843459771
 30
0.0
 10
391.4573006107303
 20
306.8237585231014
 30
0.0
 10
388.5655756090017
 20
306.5860126852777
 30
0.0
 10
387.1199764191396
 20
306.4619981391829
 30
0.0
 10
384.2292706541801
 20
306.2034855443862
 30
0.0
 10
382.7841619031988
 20
306.0689967242822
 30
0.0
 10
379.8944971787316
 20
305.7890301456466
 30
0.0
 10
378.4499450590402
 20
305.6435457997372
 30
0.0
 10
375.5615949006022
 20
305.3405161533559
 30
0.0
 10
374.1177293750037
 20
305.1829996167387
 30
0.0
 10
371.8700484140554
 20
304.9282358441469
 30
0.0
 10
371.065699895265
 20
304.8351547408242
 30
0.0
 10
370.2615312612629
 20
304.7402072291865
 30
0.0
  0
SPLINE
  5
1EE
330
1F
100
AcDbEntity
  8
1
100
AcDbSpline
210
0.0
220
0.0
230
1.0
 70
    28
 71
     4
 72
    13
 73
     8
 74
     0
 42
0.000000001
 43
0.0000000001
 40
0.0
 40
0.0
 40
0.0
 40
0.0
 40
0.0
 40
0.4114653929957142
 40
0.4114653929957142
 40
0.4114653929957142
 40
1.0
 40
1.0
 40
1.0
 40
1.0
 40
1.0
 10
304.9048419452957
 20
283.0535351819917
 30
0.0
 41
0.9970400710459003
 10
304.9048419452957
 20
281.8361943042553
 30
0.0
 41
0.9973059545804565
 10
304.9048419452957
 20
280.4603276091321
 30
0.0
 41
0.9988699889613398
 10
304.9048419452957
 20
278.9997180038251
 30
0.0
 41
1.001498006703475
 10
304.9048419452957
 20
275.5085113333645
 30
0.0
 41
1.001498006703475
 10
304.9048419452957
 20
273.2183958825801
 30
0.0
 41
0.9961214321098951
 10
304.9048419452957
 20
270.9839373575152
 30
0.0
 41
0.996172116758642
 10
304.9048419452957
 20
269.0419441819963
 30
0.0
 41
0.9979808846386392
  0
LINE
  5
208
330
1F
100
AcDbEntity
  8
4
100
AcDbLine
 10
268.032259
 20
288.907994
 30
0.0
 11
467.4775079999999
 21
288.907994
 31
0.0
  0
LINE
  5
209
330
1F
100
AcDbEntity
  8
SK4
100
AcDbLine
 10
200.904842
 20
288.907994
 30
0.0
 11
277.404842
 21
288.907994
 31
0.0
  0
MTEXT
  5
20F
330
1F
100
AcDbEntity
  8
SK6
100
AcDbMText
 10
304.314982
 20
248.747444
 30
0.0
 40
3.5
 41
0.0
 71
     7
 72
     5
  1
\W0.7240;804D-41-164-S40
  7
cesky
 73
     2
 44
0.8433729999999998
  0
MTEXT
  5
320
330
1F
100
AcDbEntity
  8
2
100
AcDbMText
 10
365.827842
 20
333.821465
 30
0.0
 40
3.5
 41
0.0
 71
     7
 72
     5
  1
\W0.7969;189
  7
cesky
 73
     2
 44
0.8433729999999998
  0
LINE
  5
321
330
1F
100
AcDbEntity
  8
2
100
AcDbLine
 10
463.404842
 20
309.407994
 30
0.0
 11
463.404842
 21
334.9472990000001
 31
0.0
  0
LINE
  5
322
330
1F
100
AcDbEntity
  8
2
100
AcDbLine
 10
274.404842
 20
289.907567
 30
0.0
 11
274.404842
 21
334.9472990000001
 31
0.0
  0
LINE
  5
323
330
1F
100
AcDbEntity
  8
2
100
AcDbLine
 10
463.404842
 20
333.947299
 30
0.0
 11
274.404842
 21
333.947299
 31
0.0
  0
SOLID
  5
324
330
1F
100
AcDbEntity
  8
2
100
AcDbTrace
 10
463.404842
 20
333.947299
 30
0.0
 11
459.904844
 21
333.330154
 31
0.0
 12
459.90484
 22
334.5644430000001
 32
0.0
 13
459.90484
 23
334.5644430000001
 33
0.0
  0
SOLID
  5
325
330
1F
100
AcDbEntity
  8
2
100
AcDbTrace
 10
274.404842
 20
333.947299
 30
0.0
 11
277.90484
 21
334.5644430000001
 31
0.0
 12
277.904844
 22
333.330154
 32
0.0
 13
277.904844
 23
333.330154
 33
0.0
  0
MTEXT
  5
326
330
1F
100
AcDbEntity
  8
2
100
AcDbMText
 10
480.7045139999999
 20
289.1665319999999
 30
0.0
 40
3.5
 41
0.0
 71
     7
 72
     5
  1
\W0.9581;41
  7
cesky
 11
0.0000000000000001
 21
1.0
 31
0.0
 73
     2
 44
0.8433729999999998
  0
MTEXT
  5
327
330
1F
100
AcDbEntity
  8
2
100
AcDbMText
 10
480.7045139999999
 20
282.429032
 30
0.0
 40
3.5
 41
0.0
 71
     7
 72
     5
  1
\W3.0115;\H2.63;%%c\H3.50;
  7
cesky
 11
0.0000000000000001
 21
1.0
 31
0.0
 73
     2
 44
0.8433729999999998
  0
LINE
  5
328
330
1F
100
AcDbEntity
  8
2
100
AcDbLine
 10
465.4048419999999
 20
309.407994
 30
0.0
 11
481.8919309999999
 21
309.407994
 31
0.0
  0
LINE
  5
329
330
1F
100
AcDbEntity
  8
2
100
AcDbLine
 10
480.8919309999999
 20
309.407994
 30
0.0
 11
480.8919309999999
 21
282.271532
 31
0.0
  0
SOLID
  5
32A
330
1F
100
AcDbEntity
  8
2
100
AcDbTrace
 10
480.8919309999999
 20
309.407994
 30
0.0
 11
481.509076
 21
305.907996
 31
0.0
 12
480.274787
 22
305.907991
 32
0.0
 13
480.274787
 23
305.907991
 33
0.0
  0
MTEXT
  5
32B
330
1F
100
AcDbEntity
  8
2
100
AcDbMText
 10
330.827842
 20
347.267008
 30
0.0
 40
3.5
 41
0.0
 71
     7
 72
     5
  1
\W0.7367;259
  7
cesky
 73
     2
 44
0.8433729999999998
  0
LINE
  5
32C
330
1F
100
AcDbEntity
  8
2
100
AcDbLine
 10
463.404842
 20
311.407994
 30
0.0
 11
463.404842
 21
348.392842
 31
0.0
  0
LINE
  5
32D
330
1F
100
AcDbEntity
  8
2
100
AcDbLine
 10
204.404842
 20
306.907994
 30
0.0
 11
204.404842
 21
348.392842
 31
0.0
  0
LINE
  5
32E
330
1F
100
AcDbEntity
  8
2
100
AcDbLine
 10
463.404842
 20
347.392842
 30
0.0
 11
204.404842
 21
347.392842
 31
0.0
  0
SOLID
  5
32F
330
1F
100
AcDbEntity
  8
2
100
AcDbTrace
 10
463.404842
 20
347.392842
 30
0.0
 11
459.904844
 21
346.775697
 31
0.0
 12
459.90484
 22
348.009986
 32
0.0
 13
459.90484
 23
348.009986
 33
0.0
  0
SOLID
  5
330
330
1F
100
AcDbEntity
  8
2
100
AcDbTrace
 10
204.404842
 20
347.392842
 30
0.0
 11
207.90484
 21
348.009986
 31
0.0
 12
207.904844
 22
346.775697
 32
0.0
 13
207.904844
 23
346.775697
 33
0.0
  0
MTEXT
  5
331
330
1F
100
AcDbEntity
  8
2
100
AcDbMText
 10
237.590342
 20
333.821465
 30
0.0
 40
3.5
 41
0.0
 71
     7
 72
     5
  1
\W0.7045;70
  7
cesky
 73
     2
 44
0.8433729999999998
  0
LINE
  5
332
330
1F
100
AcDbEntity
  8
2
100
AcDbLine
 10
274.404842
 20
288.907994
 30
0.0
 11
274.404842
 21
334.9472990000001
 31
0.0
  0
LINE
  5
333
330
1F
100
AcDbEntity
  8
2
100
AcDbLine
 10
204.404842
 20
306.907994
 30
0.0
 11
204.404842
 21
334.9472990000001
 31
0.0
  0
LINE
  5
334
330
1F
100
AcDbEntity
  8
2
100
AcDbLine
 10
274.404842
 20
333.947299
 30
0.0
 11
204.404842
 21
333.947299
 31
0.0
  0
SOLID
  5
335
330
1F
100
AcDbEntity
  8
2
100
AcDbTrace
 10
274.404842
 20
333.947299
 30
0.0
 11
270.904844
 21
333.330154
 31
0.0
 12
270.90484
 22
334.5644430000001
 32
0.0
 13
270.90484
 23
334.5644430000001
 33
0.0
  0
SOLID
  5
336
330
1F
100
AcDbEntity
  8
2
100
AcDbTrace
 10
204.404842
 20
333.947299
 30
0.0
 11
207.90484
 21
334.5644430000001
 31
0.0
 12
207.904844
 22
333.330154
 32
0.0
 13
207.904844
 23
333.330154
 33
0.0
  0
MTEXT
  5
337
330
1F
100
AcDbEntity
  8
2
100
AcDbMText
 10
374.337904
 20
319.9926
 30
0.0
 40
3.5
 41
0.0
 71
     7
 72
     5
  1
\W0.7809;172
  7
cesky
 73
     2
 44
0.8433729999999998
  0
LINE
  5
338
330
1F
100
AcDbEntity
  8
2
100
AcDbLine
 10
463.404842
 20
311.407994
 30
0.0
 11
463.404842
 21
321.118433
 31
0.0
  0
LINE
  5
339
330
1F
100
AcDbEntity
  8
2
100
AcDbLine
 10
291.424966
 20
309.119984
 30
0.0
 11
291.424966
 21
321.118433
 31
0.0
  0
LINE
  5
33A
330
1F
100
AcDbEntity
  8
2
100
AcDbLine
 10
463.404842
 20
320.118433
 30
0.0
 11
291.424966
 21
320.118433
 31
0.0
  0
SOLID
  5
33B
330
1F
100
AcDbEntity
  8
2
100
AcDbTrace
 10
463.404842
 20
320.118433
 30
0.0
 11
459.904844
 21
319.501288
 31
0.0
 12
459.90484
 22
320.735577
 32
0.0
 13
459.90484
 23
320.735577
 33
0.0
  0
SOLID
  5
33C
330
1F
100
AcDbEntity
  8
2
100
AcDbTrace
 10
291.424966
 20
320.118433
 30
0.0
 11
294.924963
 21
320.735577
 31
0.0
 12
294.924968
 22
319.501288
 32
0.0
 13
294.924968
 23
319.501288
 33
0.0
  0
MTEXT
  5
33D
330
1F
100
AcDbEntity
  8
SK2
100
AcDbMText
 10
190.288302
 20
290.434244
 30
0.0
 40
3.5
 41
0.0
 71
     7
 72
     5
  1
\W0.7045;40
  7
cesky
 11
0.0000000000000001
 21
1.0
 31
0.0
 73
     2
 44
0.8433729999999998
  0
MTEXT
  5
33E
330
1F
100
AcDbEntity
  8
SK2
100
AcDbMText
 10
190.288302
 20
283.696744
 30
0.0
 40
3.5
 41
0.0
 71
     7
 72
     5
  1
\W3.0115;\H2.63;%%c\H3.50;
  7
cesky
 11
0.0000000000000001
 21
1.0
 31
0.0
 73
     2
 44
0.8433729999999998
  0
LINE
  5
33F
330
1F
100
AcDbEntity
  8
SK2
100
AcDbLine
 10
206.404842
 20
308.907994
 30
0.0
 11
189.475719
 21
308.907994
 31
0.0
  0
LINE
  5
340
330
1F
100
AcDbEntity
  8
SK2
100
AcDbLine
 10
206.404842
 20
268.907994
 30
0.0
 11
189.475719
 21
268.907994
 31
0.0
  0
LINE
  5
341
330
1F
100
AcDbEntity
  8
SK2
100
AcDbLine
 10
190.475719
 20
308.907994
 30
0.0
 11
190.475719
 21
268.907994
 31
0.0
  0
SOLID
  5
342
330
1F
100
AcDbEntity
  8
SK2
100
AcDbTrace
 10
190.475719
 20
308.907994
 30
0.0
 11
191.092863
 21
305.407996
 31
0.0
 12
189.858574
 22
305.407991
 32
0.0
 13
189.858574
 23
305.407991
 33
0.0
  0
SOLID
  5
343
330
1F
100
AcDbEntity
  8
SK2
100
AcDbTrace
 10
190.475719
 20
268.907994
 30
0.0
 11
189.858574
 21
272.407991
 31
0.0
 12
191.092863
 22
272.407996
 32
0.0
 13
191.092863
 23
272.407996
 33
0.0
  0
MTEXT
  5
344
330
1F
100
AcDbEntity
  8
SK2
100
AcDbMText
 10
175.151238
 20
290.434244
 30
0.0
 40
3.5
 41
0.0
 71
     7
 72
     5
  1
\W0.7045;50
  7
cesky
 11
0.0000000000000001
 21
1.0
 31
0.0
 73
     2
 44
0.8433729999999998
  0
MTEXT
  5
345
330
1F
100
AcDbEntity
  8
SK2
100
AcDbMText
 10
175.151238
 20
283.696744
 30
0.0
 40
3.5
 41
0.0
 71
     7
 72
     5
  1
\W3.0115;\H2.63;%%c\H3.50;
  7
cesky
 11
0.0000000000000001
 21
1.0
 31
0.0
 73
     2
 44
0.8433729999999998
  0
LINE
  5
346
330
1F
100
AcDbEntity
  8
SK2
100
AcDbLine
 10
274.904842
 20
313.907994
 30
0.0
 11
174.338654
 21
313.907994
 31
0.0
  0
LINE
  5
347
330
1F
100
AcDbEntity
  8
SK2
100
AcDbLine
 10
274.904842
 20
263.907994
 30
0.0
 11
174.338654
 21
263.907994
 31
0.0
  0
LINE
  5
348
330
1F
100
AcDbEntity
  8
SK2
100
AcDbLine
 10
175.338654
 20
313.907994
 30
0.0
 11
175.338654
 21
263.907994
 31
0.0
  0
SOLID
  5
349
330
1F
100
AcDbEntity
  8
SK2
100
AcDbTrace
 10
175.338654
 20
313.907994
 30
0.0
 11
175.955799
 21
310.407996
 31
0.0
 12
174.72151
 22
310.407991
 32
0.0
 13
174.72151
 23
310.407991
 33
0.0
  0
SOLID
  5
34A
330
1F
100
AcDbEntity
  8
SK2
100
AcDbTrace
 10
175.338654
 20
263.907994
 30
0.0
 11
174.72151
 21
267.4079910000001
 31
0.0
 12
175.955799
 22
267.407996
 32
0.0
 13
175.955799
 23
267.407996
 33
0.0
  0
LINE
  5
34B
330
1F
100
AcDbEntity
  8
CUT
100
AcDbLine
 10
462.7985652301886
 20
299.4017503760238
 30
0.0
 11
463.2532685852162
 21
298.6450339436931
 31
0.0
  0
LINE
  5
34C
330
1F
100
AcDbEntity
  8
CUT
100
AcDbLine
 10
462.4663996638262
 20
308.6583195952317
 30
0.0
 11
462.7985652301886
 21
299.4017503760238
 31
0.0
  0
LINE
  5
34E
330
1F
100
AcDbEntity
  8
CUT
100
AcDbLine
 10
450.5245720365534
 20
308.9972312122031
 30
0.0
 11
461.6627512356317
 21
309.4047283049373
 31
0.0
  0
LINE
  5
350
330
1F
100
AcDbEntity
  8
CUT
100
AcDbLine
 10
463.2532685852162
 20
298.6450339436931
 30
0.0
 11
463.4048419452957
 21
289.9656265947038
 31
0.0
  0
LINE
  5
351
330
1F
100
AcDbEntity
  8
CUT
100
AcDbLine
 10
463.404842
 20
289.965627
 30
0.0
 11
463.404842
 21
288.907994
 31
0.0
  0
LINE
  5
352
330
1F
100
AcDbEntity
  8
CUT
100
AcDbLine
 10
463.404842
 20
288.907994
 30
0.0
 11
449.776454
 21
288.907994
 31
0.0
  0
LINE
  5
353
330
1F
100
AcDbEntity
  8
CUT
100
AcDbLine
 10
449.776454
 20
288.907994
 30
0.0
 11
449.776454
 21
308.193668
 31
0.0
  0
LINE
  5
354
330
1F
100
AcDbEntity
  8
CUT
100
AcDbLine
 10
461.6627512356317
 20
309.4047283049373
 30
0.0
 11
461.6627512356317
 21
309.4047283049373
 31
0.0
  0
ARC
  5
355
330
1F
100
AcDbEntity
  8
CUT
100
AcDbCircle
 10
461.6865509754055
 20
308.62450997683
 30
0.0
 40
0.7805812367255277
100
AcDbArc
 50
2.482450973554817
 51
91.74720572773713
  0
LINE
  5
356
330
1F
100
AcDbEntity
  8
CUT
100
AcDbLine
 10
449.7764543850093
 20
308.19366792822
 30
0.0
 11
449.7764543850093
 21
308.19366792822
 31
0.0
  0
ARC
  5
357
330
1F
100
AcDbEntity
  8
CUT
100
AcDbCircle
 10
450.5582844551246
 20
308.2158144229048
 30
0.0
 40
0.7821436733511394
100
AcDbArc
 50
92.47036185265679
 51
181.6225539334274
  0
LINE
  5
366
330
1F
100
AcDbEntity
  8
NOCUT
370
    13
100
AcDbLine
 10
462.444842
 20
288.907994
 30
0.0
 11
204.404842
 21
288.907994
 31
0.0
  0
ENDSEC
  0
SECTION
  2
OBJECTS
  0
DICTIONARY
  5
C
330
0
100
AcDbDictionary
281
     1
  3
ACAD_CIP_PREVIOUS_PRODUCT_INFO
350
31D
  3
ACAD_COLOR
350
318
  3
ACAD_DETAILVIEWSTYLE
350
314
  3
ACAD_GROUP
350
D
  3
ACAD_LAYOUT
350
1A
  3
ACAD_MATERIAL
350
43
  3
ACAD_MLEADERSTYLE
350
6B
  3
ACAD_MLINESTYLE
350
17
  3
ACAD_PLOTSETTINGS
350
19
  3
ACAD_PLOTSTYLENAME
350
E
  3
ACAD_SCALELIST
350
47
  3
ACAD_SECTIONVIEWSTYLE
350
315
  3
ACAD_TABLESTYLE
350
69
  3
ACAD_VISUALSTYLE
350
2A
  3
ACDB_RECOMPOSE_DATA
350
38B
  3
AcDbVariableDictionary
350
2D1
  0
DICTIONARY
  5
36E
330
10
100
AcDbDictionary
280
     1
281
     1
  3
ADSK_XREC_LAYER_RECONCILED
360
36F
  0
DICTIONARY
  5
370
330
358
100
AcDbDictionary
280
     1
281
     1
  3
ADSK_XREC_LAYER_RECONCILED
360
371
  0
DICTIONARY
  5
372
330
359
100
AcDbDictionary
280
     1
281
     1
  3
ADSK_XREC_LAYER_RECONCILED
360
373
  0
DICTIONARY
  5
374
330
35A
100
AcDbDictionary
280
     1
281
     1
  3
ADSK_XREC_LAYER_RECONCILED
360
375
  0
DICTIONARY
  5
376
330
35C
100
AcDbDictionary
280
     1
281
     1
  3
ADSK_XREC_LAYER_RECONCILED
360
377
  0
DICTIONARY
  5
378
330
35D
100
AcDbDictionary
280
     1
281
     1
  3
ADSK_XREC_LAYER_RECONCILED
360
379
  0
DICTIONARY
  5
37A
330
35F
100
AcDbDictionary
280
     1
281
     1
  3
ADSK_XREC_LAYER_RECONCILED
360
37B
  0
DICTIONARY
  5
37C
330
360
100
AcDbDictionary
280
     1
281
     1
  3
ADSK_XREC_LAYER_RECONCILED
360
37D
  0
DICTIONARY
  5
37E
330
361
100
AcDbDictionary
280
     1
281
     1
  3
ADSK_XREC_LAYER_RECONCILED
360
37F
  0
DICTIONARY
  5
380
330
362
100
AcDbDictionary
280
     1
281
     1
  3
ADSK_XREC_LAYER_RECONCILED
360
381
  0
DICTIONARY
  5
382
330
363
100
AcDbDictionary
280
     1
281
     1
  3
ADSK_XREC_LAYER_RECONCILED
360
383
  0
DICTIONARY
  5
384
330
364
100
AcDbDictionary
280
     1
281
     1
  3
ADSK_XREC_LAYER_RECONCILED
360
385
  0
DICTIONARY
  5
31E
330
1F
100
AcDbDictionary
280
     1
281
     1
  3
ACAD_SORTENTS
360
31F
  0
XRECORD
  5
31D
102
{ACAD_REACTORS
330
C
102
}
330
C
100
AcDbXrecord
280
     1
300
ACD
300
2019
300
87084ACD_2019_0F
  0
DICTIONARY
  5
318
102
{ACAD_REACTORS
330
C
102
}
330
C
100
AcDbDictionary
281
     1
  0
DICTIONARY
  5
314
102
{ACAD_REACTORS
330
C
102
}
330
C
100
AcDbDictionary
281
     1
  3
Metric50
350
31A
  0
DICTIONARY
  5
D
102
{ACAD_REACTORS
330
C
102
}
330
C
100
AcDbDictionary
281
     1
  3
NULOVY_BOD
350
365
  0
DICTIONARY
  5
1A
102
{ACAD_REACTORS
330
C
102
}
330
C
100
AcDbDictionary
281
     1
  3
Layout1
350
1E
  3
Layout2
350
26
  3
Model
350
22
  0
DICTIONARY
  5
43
102
{ACAD_REACTORS
330
C
102
}
330
C
100
AcDbDictionary
281
     1
  3
ByBlock
350
45
  3
ByLayer
350
44
  3
Global
350
46
  0
DICTIONARY
  5
6B
102
{ACAD_REACTORS
330
C
102
}
330
C
100
AcDbDictionary
281
     1
  3
Standard
350
6C
  0
DICTIONARY
  5
17
102
{ACAD_REACTORS
330
C
102
}
330
C
100
AcDbDictionary
281
     1
  3
Standard
350
18
  0
DICTIONARY
  5
19
102
{ACAD_REACTORS
330
C
102
}
330
C
100
AcDbDictionary
281
     1
  0
ACDBDICTIONARYWDFLT
  5
E
102
{ACAD_REACTORS
330
C
102
}
330
C
100
AcDbDictionary
281
     1
  3
Normal
350
F
100
AcDbDictionaryWithDefault
340
F
  0
DICTIONARY
  5
47
102
{ACAD_REACTORS
330
C
102
}
330
C
100
AcDbDictionary
281
     1
  3
A0
350
48
  3
A1
350
49
  3
A2
350
4A
  3
A3
350
4B
  3
A4
350
4C
  3
A5
350
4D
  3
A6
350
4E
  3
A7
350
4F
  3
A8
350
50
  3
A9
350
51
  3
B0
350
52
  3
B1
350
53
  3
B2
350
54
  3
B3
350
55
  3
B4
350
56
  3
B5
350
57
  3
B6
350
58
  3
B7
350
59
  3
B8
350
5A
  3
B9
350
5B
  3
C0
350
5C
  3
C1
350
5D
  3
C2
350
5E
  3
C3
350
5F
  3
C4
350
60
  3
C5
350
61
  3
C6
350
62
  3
C7
350
63
  3
C8
350
64
  3
C9
350
65
  3
D0
350
66
  3
D1
350
67
  3
D2
350
68
  0
DICTIONARY
  5
315
102
{ACAD_REACTORS
330
C
102
}
330
C
100
AcDbDictionary
281
     1
  3
Metric50
350
319
  0
DICTIONARY
  5
69
102
{ACAD_REACTORS
330
C
102
}
330
C
100
AcDbDictionary
281
     1
  3
Standard
350
6A
  0
DICTIONARY
  5
2A
102
{ACAD_REACTORS
330
C
102
}
330
C
100
AcDbDictionary
281
     1
  3
2dWireframe
350
2F
  3
Basic
350
32
  3
Brighten
350
36
  3
ColorChange
350
3A
  3
Conceptual
350
34
  3
Dim
350
35
  3
EdgeColorOff
350
3D
  3
Facepattern
350
39
  3
Flat
350
2B
  3
FlatWithEdges
350
2C
  3
Gouraud
350
2D
  3
GouraudWithEdges
350
2E
  3
Hidden
350
31
  3
JitterOff
350
3B
  3
Linepattern
350
38
  3
OverhangOff
350
3C
  3
Realistic
350
33
  3
Shaded
350
42
  3
Shaded with edges
350
41
  3
Shades of Gray
350
3E
  3
Sketchy
350
3F
  3
Thicken
350
37
  3
Wireframe
350
30
  3
X-Ray
350
40
  0
XRECORD
  5
38B
102
{ACAD_REACTORS
330
C
102
}
330
C
100
AcDbXrecord
280
     1
 90
        1
330
6A
  0
DICTIONARY
  5
2D1
102
{ACAD_REACTORS
330
C
102
}
330
C
100
AcDbDictionary
281
     1
  3
CANNOSCALE
350
2D2
  3
CMLEADERSTYLE
350
313
  3
CTABLESTYLE
350
312
  3
CVIEWDETAILSTYLE
350
386
  3
CVIEWSECTIONSTYLE
350
387
  3
MSLTSCALE
350
2D3
  3
XCLIPFRAME
350
388
  0
XRECORD
  5
36F
102
{ACAD_REACTORS
330
36E
102
}
330
36E
100
AcDbXrecord
280
     1
290
     1
  0
XRECORD
  5
371
102
{ACAD_REACTORS
330
370
102
}
330
370
100
AcDbXrecord
280
     1
290
     1
  0
XRECORD
  5
373
102
{ACAD_REACTORS
330
372
102
}
330
372
100
AcDbXrecord
280
     1
290
     1
  0
XRECORD
  5
375
102
{ACAD_REACTORS
330
374
102
}
330
374
100
AcDbXrecord
280
     1
290
     1
  0
XRECORD
  5
377
102
{ACAD_REACTORS
330
376
102
}
330
376
100
AcDbXrecord
280
     1
290
     1
  0
XRECORD
  5
379
102
{ACAD_REACTORS
330
378
102
}
330
378
100
AcDbXrecord
280
     1
290
     1
  0
XRECORD
  5
37B
102
{ACAD_REACTORS
330
37A
102
}
330
37A
100
AcDbXrecord
280
     1
290
     1
  0
XRECORD
  5
37D
102
{ACAD_REACTORS
330
37C
102
}
330
37C
100
AcDbXrecord
280
     1
290
     1
  0
XRECORD
  5
37F
102
{ACAD_REACTORS
330
37E
102
}
330
37E
100
AcDbXrecord
280
     1
290
     1
  0
XRECORD
  5
381
102
{ACAD_REACTORS
330
380
102
}
330
380
100
AcDbXrecord
280
     1
290
     1
  0
XRECORD
  5
383
102
{ACAD_REACTORS
330
382
102
}
330
382
100
AcDbXrecord
280
     1
290
     1
  0
XRECORD
  5
385
102
{ACAD_REACTORS
330
384
102
}
330
384
100
AcDbXrecord
280
     1
290
     1
  0
SORTENTSTABLE
  5
31F
102
{ACAD_REACTORS
330
31E
102
}
330
31E
100
AcDbSortentsTable
330
1F
331
320
  5
243
331
321
  5
25C
331
322
  5
320
331
323
  5
321
331
324
  5
322
331
325
  5
323
331
326
  5
324
331
327
  5
325
331
328
  5
326
331
329
  5
327
331
32A
  5
328
331
32B
  5
339
331
32C
  5
33A
331
32D
  5
33B
331
32E
  5
33C
331
32F
  5
33D
331
330
  5
33E
331
331
  5
33F
331
332
  5
340
331
333
  5
341
331
334
  5
342
331
335
  5
343
331
336
  5
344
331
337
  5
345
331
338
  5
346
331
339
  5
347
331
33A
  5
348
331
33B
  5
349
331
33C
  5
34A
331
33D
  5
32B
331
33E
  5
32C
331
33F
  5
32D
331
340
  5
32E
331
341
  5
32F
331
342
  5
330
331
343
  5
331
331
344
  5
332
331
345
  5
333
331
346
  5
334
331
347
  5
335
331
348
  5
336
331
349
  5
337
331
34A
  5
338
331
34E
  5
351
331
350
  5
354
331
351
  5
355
331
352
  5
356
331
353
  5
357
331
354
  5
34E
331
355
  5
350
331
356
  5
352
331
357
  5
353
  0
ACDBDETAILVIEWSTYLE
  5
31A
102
{ACAD_XDICTIONARY
360
3BF
102
}
102
{ACAD_REACTORS
330
314
102
}
330
314
100
AcDbModelDocViewStyle
 70
     0
  3
Metric50
290
     0
100
AcDbDetailViewStyle
 70
     0
 71
     0
 90
        3
 71
     1
340
11
 62
   256
 40
5.0
340
0
 62
   256
 40
5.0
300

 40
0.0
280
     1
 71
     2
340
16
 90
       25
 62
   256
 71
     3
340
11
 62
   256
 40
5.0
 90
        0
 40
15.0
 90
        1
300
%<\AcVar ViewDetailId>% (%<\AcVar ViewScale \f "%sn">%)
 71
     4
340
16
 90
       25
 62
   256
340
16
 90
       25
 62
   256
280
     0
  0
GROUP
  5
365
102
{ACAD_REACTORS
330
D
102
}
330
D
100
AcDbGroup
300

 70
     0
 71
     1
340
73
  0
LAYOUT
  5
1E
102
{ACAD_REACTORS
330
1A
102
}
330
1A
100
AcDbPlotSettings
  1

  2
none_device
  4

  6

 40
0.0
 41
0.0
 42
0.0
 43
0.0
 44
0.0
 45
0.0
 46
0.0
 47
0.0
 48
0.0
 49
0.0
140
0.0
141
0.0
142
1.0
143
1.0
 70
   688
 72
     0
 73
     0
 74
     5
  7

 75
    16
147
1.0
 76
     0
 77
     2
 78
   300
148
0.0
149
0.0
100
AcDbLayout
  1
Layout1
 70
     1
 71
     1
 10
-0.5
 20
-0.5
 11
5.0
 21
5.0
 12
0.0
 22
0.0
 32
0.0
 14
-0.5
 24
-0.5
 34
-0.5
 15
5.0
 25
5.0
 35
5.0
146
0.0
 13
0.0
 23
0.0
 33
0.0
 16
1.0
 26
0.0
 36
0.0
 17
0.0
 27
1.0
 37
0.0
 76
     0
330
1B
  0
LAYOUT
  5
26
102
{ACAD_REACTORS
330
1A
102
}
330
1A
100
AcDbPlotSettings
  1

  2
none_device
  4

  6

 40
0.0
 41
0.0
 42
0.0
 43
0.0
 44
0.0
 45
0.0
 46
0.0
 47
0.0
 48
0.0
 49
0.0
140
0.0
141
0.0
142
1.0
143
1.0
 70
   688
 72
     0
 73
     0
 74
     5
  7

 75
    16
147
1.0
 76
     0
 77
     2
 78
   300
148
0.0
149
0.0
100
AcDbLayout
  1
Layout2
 70
     1
 71
     2
 10
0.0
 20
0.0
 11
0.0
 21
0.0
 12
0.0
 22
0.0
 32
0.0
 14
0.0
 24
0.0
 34
0.0
 15
0.0
 25
0.0
 35
0.0
146
0.0
 13
0.0
 23
0.0
 33
0.0
 16
1.0
 26
0.0
 36
0.0
 17
0.0
 27
1.0
 37
0.0
 76
     0
330
23
  0
LAYOUT
  5
22
102
{ACAD_REACTORS
330
1A
102
}
330
1A
100
AcDbPlotSettings
  1

  2
none_device
  4
Letter_(8.50_x_11.00_Inches)
  6

 40
6.349999999999999
 41
6.349999999999999
 42
6.350005
 43
6.350005
 44
215.9
 45
279.4
 46
0.0
 47
0.0
 48
0.0
 49
0.0
140
0.0
141
0.0
142
1.0
143
1.0
 70
  1712
 72
     0
 73
     0
 74
     0
  7

 75
     0
147
1.0
 76
     0
 77
     2
 78
   300
148
0.0
149
0.0
100
AcDbLayout
  1
Model
 70
     1
 71
     0
 10
-0.5
 20
-0.5
 11
5.0
 21
5.0
 12
0.0
 22
0.0
 32
0.0
 14
-0.5
 24
-0.5
 34
-0.5
 15
5.0
 25
5.0
 35
5.0
146
0.0
 13
0.0
 23
0.0
 33
0.0
 16
1.0
 26
0.0
 36
0.0
 17
0.0
 27
1.0
 37
0.0
 76
     0
330
1F
331
29
  0
MATERIAL
  5
45
102
{ACAD_XDICTIONARY
360
307
102
}
102
{ACAD_REACTORS
330
43
102
}
330
43
100
AcDbMaterial
  1
ByBlock
  0
MATERIAL
  5
44
102
{ACAD_XDICTIONARY
360
305
102
}
102
{ACAD_REACTORS
330
43
102
}
330
43
100
AcDbMaterial
  1
ByLayer
  0
MATERIAL
  5
46
102
{ACAD_XDICTIONARY
360
309
102
}
102
{ACAD_REACTORS
330
43
102
}
330
43
100
AcDbMaterial
  1
Global
  0
MLEADERSTYLE
  5
6C
102
{ACAD_REACTORS
330
6B
102
}
330
6B
100
AcDbMLeaderStyle
170
     2
171
     1
172
     0
 90
        2
 40
0.0
 41
0.0
173
     1
 91
-1056964608
340
14
 92
       -2
290
     1
 42
0.09
291
     1
 43
0.36
  3
Standard
 44
0.18
300

342
11
174
     1
178
     6
175
     1
176
     0
 93
-1056964608
 45
0.18
292
     0
297
     0
 46
0.18
 94
-1056964608
 47
1.0
 49
1.0
140
1.0
293
     1
141
0.0
294
     1
177
     0
142
1.0
295
     0
296
     0
143
0.125
1001
ACAD_MLEADERVER
1070
     2
  0
MLINESTYLE
  5
18
102
{ACAD_REACTORS
330
17
102
}
330
17
100
AcDbMlineStyle
  2
STANDARD
 70
     0
  3

 62
   256
 51
90.0
 52
90.0
 71
     2
 49
0.5
 62
   256
  6
BYLAYER
 49
-0.5
 62
   256
  6
BYLAYER
  0
ACDBPLACEHOLDER
  5
F
102
{ACAD_REACTORS
330
E
102
}
330
E
  0
SCALE
  5
48
102
{ACAD_REACTORS
330
47
102
}
330
47
100
AcDbScale
 70
     0
300
1:1
140
1.0
141
1.0
290
     1
  0
SCALE
  5
49
102
{ACAD_REACTORS
330
47
102
}
330
47
100
AcDbScale
 70
     0
300
1:2
140
1.0
141
2.0
290
     0
  0
SCALE
  5
4A
102
{ACAD_REACTORS
330
47
102
}
330
47
100
AcDbScale
 70
     0
300
1:4
140
1.0
141
4.0
290
     0
  0
SCALE
  5
4B
102
{ACAD_REACTORS
330
47
102
}
330
47
100
AcDbScale
 70
     0
300
1:5
140
1.0
141
5.0
290
     0
  0
SCALE
  5
4C
102
{ACAD_REACTORS
330
47
102
}
330
47
100
AcDbScale
 70
     0
300
1:8
140
1.0
141
8.0
290
     0
  0
SCALE
  5
4D
102
{ACAD_REACTORS
330
47
102
}
330
47
100
AcDbScale
 70
     0
300
1:10
140
1.0
141
10.0
290
     0
  0
SCALE
  5
4E
102
{ACAD_REACTORS
330
47
102
}
330
47
100
AcDbScale
 70
     0
300
1:16
140
1.0
141
16.0
290
     0
  0
SCALE
  5
4F
102
{ACAD_REACTORS
330
47
102
}
330
47
100
AcDbScale
 70
     0
300
1:20
140
1.0
141
20.0
290
     0
  0
SCALE
  5
50
102
{ACAD_REACTORS
330
47
102
}
330
47
100
AcDbScale
 70
     0
300
1:30
140
1.0
141
30.0
290
     0
  0
SCALE
  5
51
102
{ACAD_REACTORS
330
47
102
}
330
47
100
AcDbScale
 70
     0
300
1:40
140
1.0
141
40.0
290
     0
  0
SCALE
  5
52
102
{ACAD_REACTORS
330
47
102
}
330
47
100
AcDbScale
 70
     0
300
1:50
140
1.0
141
50.0
290
     0
  0
SCALE
  5
53
102
{ACAD_REACTORS
330
47
102
}
330
47
100
AcDbScale
 70
     0
300
1:100
140
1.0
141
100.0
290
     0
  0
SCALE
  5
54
102
{ACAD_REACTORS
330
47
102
}
330
47
100
AcDbScale
 70
     0
300
2:1
140
2.0
141
1.0
290
     0
  0
SCALE
  5
55
102
{ACAD_REACTORS
330
47
102
}
330
47
100
AcDbScale
 70
     0
300
4:1
140
4.0
141
1.0
290
     0
  0
SCALE
  5
56
102
{ACAD_REACTORS
330
47
102
}
330
47
100
AcDbScale
 70
     0
300
8:1
140
8.0
141
1.0
290
     0
  0
SCALE
  5
57
102
{ACAD_REACTORS
330
47
102
}
330
47
100
AcDbScale
 70
     0
300
10:1
140
10.0
141
1.0
290
     0
  0
SCALE
  5
58
102
{ACAD_REACTORS
330
47
102
}
330
47
100
AcDbScale
 70
     0
300
100:1
140
100.0
141
1.0
290
     0
  0
SCALE
  5
59
102
{ACAD_REACTORS
330
47
102
}
330
47
100
AcDbScale
 70
     0
300
1/128" = 1'-0"
140
0.007812
141
12.0
290
     0
  0
SCALE
  5
5A
102
{ACAD_REACTORS
330
47
102
}
330
47
100
AcDbScale
 70
     0
300
1/64" = 1'-0"
140
0.015625
141
12.0
290
     0
  0
SCALE
  5
5B
102
{ACAD_REACTORS
330
47
102
}
330
47
100
AcDbScale
 70
     0
300
1/32" = 1'-0"
140
0.03125
141
12.0
290
     0
  0
SCALE
  5
5C
102
{ACAD_REACTORS
330
47
102
}
330
47
100
AcDbScale
 70
     0
300
1/16" = 1'-0"
140
0.0625
141
12.0
290
     0
  0
SCALE
  5
5D
102
{ACAD_REACTORS
330
47
102
}
330
47
100
AcDbScale
 70
     0
300
3/32" = 1'-0"
140
0.09375
141
12.0
290
     0
  0
SCALE
  5
5E
102
{ACAD_REACTORS
330
47
102
}
330
47
100
AcDbScale
 70
     0
300
1/8" = 1'-0"
140
0.125
141
12.0
290
     0
  0
SCALE
  5
5F
102
{ACAD_REACTORS
330
47
102
}
330
47
100
AcDbScale
 70
     0
300
3/16" = 1'-0"
140
0.1875
141
12.0
290
     0
  0
SCALE
  5
60
102
{ACAD_REACTORS
330
47
102
}
330
47
100
AcDbScale
 70
     0
300
1/4" = 1'-0"
140
0.25
141
12.0
290
     0
  0
SCALE
  5
61
102
{ACAD_REACTORS
330
47
102
}
330
47
100
AcDbScale
 70
     0
300
3/8" = 1'-0"
140
0.375
141
12.0
290
     0
  0
SCALE
  5
62
102
{ACAD_REACTORS
330
47
102
}
330
47
100
AcDbScale
 70
     0
300
1/2" = 1'-0"
140
0.5
141
12.0
290
     0
  0
SCALE
  5
63
102
{ACAD_REACTORS
330
47
102
}
330
47
100
AcDbScale
 70
     0
300
3/4" = 1'-0"
140
0.75
141
12.0
290
     0
  0
SCALE
  5
64
102
{ACAD_REACTORS
330
47
102
}
330
47
100
AcDbScale
 70
     0
300
1" = 1'-0"
140
1.0
141
12.0
290
     0
  0
SCALE
  5
65
102
{ACAD_REACTORS
330
47
102
}
330
47
100
AcDbScale
 70
     0
300
1-1/2" = 1'-0"
140
1.5
141
12.0
290
     0
  0
SCALE
  5
66
102
{ACAD_REACTORS
330
47
102
}
330
47
100
AcDbScale
 70
     0
300
3" = 1'-0"
140
3.0
141
12.0
290
     0
  0
SCALE
  5
67
102
{ACAD_REACTORS
330
47
102
}
330
47
100
AcDbScale
 70
     0
300
6" = 1'-0"
140
6.0
141
12.0
290
     0
  0
SCALE
  5
68
102
{ACAD_REACTORS
330
47
102
}
330
47
100
AcDbScale
 70
     0
300
1'-0" = 1'-0"
140
12.0
141
12.0
290
     0
  0
ACDBSECTIONVIEWSTYLE
  5
319
102
{ACAD_XDICTIONARY
360
3BD
102
}
102
{ACAD_REACTORS
330
315
102
}
330
315
100
AcDbModelDocViewStyle
 70
     0
  3
Metric50
290
     0
100
AcDbSectionViewStyle
 70
     0
 71
     0
 90
      102
 71
     1
340
11
 62
   256
 40
5.0
340
0
340
0
 62
   256
 40
5.0
300
I, O, Q, S, X, Z
 40
10.0
 90
        0
 40
2.5
 90
        0
 71
     2
340
16
 90
       25
 62
   256
340
16
 90
       50
 62
   256
 40
5.0
 40
2.5
 40
5.0
 71
     3
340
11
 62
   256
 40
5.0
 90
        0
 40
15.0
 90
        1
300
%<\AcVar ViewSectionStartId>%-%<\AcVar ViewSectionEndId>% (%<\AcVar ViewScale \f "%sn">%)
 71
     4
 62
   256
 62
   257
300
ANSI31
 40
1.0
 90
        0
290
     0
290
     0
 90
        6
 40
0.0
 40
1.570796326794896
 40
0.2617993877991494
 40
1.308996938995747
 40
-0.2617993877991494
 40
1.832595714594046
  0
TABLESTYLE
  5
6A
102
{ACAD_XDICTIONARY
360
30B
102
}
102
{ACAD_REACTORS
330
69
102
}
330
69
100
AcDbTableStyle
  3
Standard
 70
     0
 71
     0
 40
0.06
 41
0.06
280
     0
281
     0
  7
Standard
140
0.18
170
     2
 62
     0
 63
     7
283
     0
274
    -2
284
     1
 64
     0
275
    -2
285
     1
 65
     0
276
    -2
286
     1
 66
     0
277
    -2
287
     1
 67
     0
278
    -2
288
     1
 68
     0
279
    -2
289
     1
 69
     0
  7
Standard
140
0.25
170
     5
 62
     0
 63
     7
283
     0
274
    -2
284
     1
 64
     0
275
    -2
285
     1
 65
     0
276
    -2
286
     1
 66
     0
277
    -2
287
     1
 67
     0
278
    -2
288
     1
 68
     0
279
    -2
289
     1
 69
     0
  7
Standard
140
0.18
170
     5
 62
     0
 63
     7
283
     0
274
    -2
284
     1
 64
     0
275
    -2
285
     1
 65
     0
276
    -2
286
     1
 66
     0
277
    -2
287
     1
 67
     0
278
    -2
288
     1
 68
     0
279
    -2
289
     1
 69
     0
  0
VISUALSTYLE
  5
2F
102
{ACAD_XDICTIONARY
360
394
102
}
102
{ACAD_REACTORS
330
2A
102
}
330
2A
100
AcDbVisualStyle
  2

 70
     4
 71
     0
 72
     2
 73
     0
 90
        0
 40
-0.6
 41
-30.0
 62
     5
 63
     7
421
 16777215
 74
     1
 91
        4
 64
     7
 65
   257
 75
     1
175
     1
 42
1.0
 92
        0
 66
   257
 43
1.0
 76
     1
 77
     6
 78
     2
 67
     7
 79
     5
170
     0
171
     0
290
     0
174
     0
 93
        1
 44
0.0
173
     0
291
     0
 45
0.0
1001
ACAD
1000
AcDbSavedByObjectVersion
1070
     0
  0
VISUALSTYLE
  5
32
102
{ACAD_XDICTIONARY
360
39A
102
}
102
{ACAD_REACTORS
330
2A
102
}
330
2A
100
AcDbVisualStyle
  2

 70
     7
 71
     1
 72
     0
 73
     1
 90
        0
 40
-0.6
 41
-30.0
 62
     5
 63
     7
421
 16777215
 74
     0
 91
        4
 64
     7
 65
   257
 75
     1
175
     1
 42
1.0
 92
        8
 66
     7
 43
1.0
 76
     1
 77
     6
 78
     2
 67
     7
 79
     5
170
     0
171
     0
290
     0
174
     0
 93
        1
 44
0.0
173
     0
291
     1
 45
0.0
1001
ACAD
1000
AcDbSavedByObjectVersion
1070
     0
  0
VISUALSTYLE
  5
36
102
{ACAD_XDICTIONARY
360
3A2
102
}
102
{ACAD_REACTORS
330
2A
102
}
330
2A
100
AcDbVisualStyle
  2

 70
    12
 71
     2
 72
     2
 73
     0
 90
        0
 40
-0.6
 41
-30.0
 62
     5
 63
     7
421
 16777215
 74
     1
 91
        4
 64
     7
 65
   257
 75
     1
175
     1
 42
1.0
 92
        8
 66
     7
 43
1.0
 76
     1
 77
     6
 78
     2
 67
     7
 79
     5
170
     0
171
     0
290
     0
174
     0
 93
        1
 44
50.0
173
     0
291
     1
 45
0.0
1001
ACAD
1000
AcDbSavedByObjectVersion
1070
     0
  0
VISUALSTYLE
  5
3A
102
{ACAD_XDICTIONARY
360
3AA
102
}
102
{ACAD_REACTORS
330
2A
102
}
330
2A
100
AcDbVisualStyle
  2

 70
    16
 71
     2
 72
     2
 73
     3
 90
        0
 40
-0.6
 41
-30.0
 62
     5
 63
     8
421
  8421504
 74
     1
 91
        4
 64
     7
 65
   257
 75
     1
175
     1
 42
1.0
 92
        8
 66
     8
424
  8421504
 43
1.0
 76
     1
 77
     6
 78
     2
 67
     7
 79
     5
170
     0
171
     0
290
     0
174
     0
 93
        1
 44
0.0
173
     0
291
     1
 45
0.0
1001
ACAD
1000
AcDbSavedByObjectVersion
1070
     0
  0
VISUALSTYLE
  5
34
102
{ACAD_XDICTIONARY
360
39E
102
}
102
{ACAD_REACTORS
330
2A
102
}
330
2A
100
AcDbVisualStyle
  2

 70
     9
 71
     3
 72
     2
 73
     0
 90
        0
 40
-0.6
 41
-30.0
 62
     5
 63
     7
421
 16777215
 74
     2
 91
        2
 64
     7
 65
   257
 75
     1
175
     1
 42
179.0
 92
        8
 66
     7
 43
1.0
 76
     1
 77
     6
 78
     2
 67
     7
 79
     3
170
     0
171
     0
290
     0
174
     0
 93
        1
 44
0.0
173
     0
291
     0
 45
0.0
1001
ACAD
1000
AcDbSavedByObjectVersion
1070
     0
  0
VISUALSTYLE
  5
35
102
{ACAD_XDICTIONARY
360
3A0
102
}
102
{ACAD_REACTORS
330
2A
102
}
330
2A
100
AcDbVisualStyle
  2

 70
    11
 71
     2
 72
     2
 73
     0
 90
        0
 40
-0.6
 41
-30.0
 62
     5
 63
     7
421
 16777215
 74
     1
 91
        4
 64
     7
 65
   257
 75
     1
175
     1
 42
1.0
 92
        8
 66
     7
 43
1.0
 76
     1
 77
     6
 78
     2
 67
     7
 79
     5
170
     0
171
     0
290
     0
174
     0
 93
        1
 44
-50.0
173
     0
291
     1
 45
0.0
1001
ACAD
1000
AcDbSavedByObjectVersion
1070
     0
  0
VISUALSTYLE
  5
3D
102
{ACAD_XDICTIONARY
360
3B0
102
}
102
{ACAD_REACTORS
330
2A
102
}
330
2A
100
AcDbVisualStyle
  2

 70
    22
 71
     2
 72
     2
 73
     0
 90
        0
 40
-0.6
 41
-30.0
 62
     5
 63
     7
421
 16777215
 74
     1
 91
        4
 64
     7
 65
   257
 75
     1
175
     1
 42
1.0
 92
        8
 66
     7
 43
1.0
 76
     1
 77
     6
 78
     2
 67
     7
 79
     5
170
     0
171
     0
290
     0
174
     0
 93
        1
 44
0.0
173
     0
291
     1
 45
0.0
1001
ACAD
1000
AcDbSavedByObjectVersion
1070
     0
  0
VISUALSTYLE
  5
39
102
{ACAD_XDICTIONARY
360
3A8
102
}
102
{ACAD_REACTORS
330
2A
102
}
330
2A
100
AcDbVisualStyle
  2

 70
    15
 71
     2
 72
     2
 73
     0
 90
        0
 40
-0.6
 41
-30.0
 62
     5
 63
     7
421
 16777215
 74
     1
 91
        4
 64
     7
 65
   257
 75
     1
175
     1
 42
1.0
 92
        8
 66
     7
 43
1.0
 76
     1
 77
     6
 78
     2
 67
     7
 79
     5
170
     0
171
     0
290
     0
174
     0
 93
        1
 44
0.0
173
     0
291
     1
 45
0.0
1001
ACAD
1000
AcDbSavedByObjectVersion
1070
     0
  0
VISUALSTYLE
  5
2B
102
{ACAD_XDICTIONARY
360
38C
102
}
102
{ACAD_REACTORS
330
2A
102
}
330
2A
100
AcDbVisualStyle
  2

 70
     0
 71
     2
 72
     1
 73
     1
 90
        2
 40
-0.6
 41
30.0
 62
     5
 63
     7
421
 16777215
 74
     0
 91
        0
 64
     7
 65
   257
 75
     1
175
     1
 42
1.0
 92
        8
 66
     7
 43
1.0
 76
     1
 77
     6
 78
     2
 67
     7
 79
     5
170
     0
171
     0
290
     0
174
     0
 93
       13
 44
0.0
173
     0
291
     1
 45
0.0
1001
ACAD
1000
AcDbSavedByObjectVersion
1070
     0
  0
VISUALSTYLE
  5
2C
102
{ACAD_XDICTIONARY
360
38E
102
}
102
{ACAD_REACTORS
330
2A
102
}
330
2A
100
AcDbVisualStyle
  2

 70
     1
 71
     2
 72
     1
 73
     1
 90
        2
 40
-0.6
 41
30.0
 62
     5
 63
     7
421
 16777215
 74
     1
 91
        0
 64
     7
 65
   257
 75
     1
175
     1
 42
1.0
 92
        0
 66
   257
 43
1.0
 76
     1
 77
     6
 78
     2
 67
     7
 79
     5
170
     0
171
     0
290
     0
174
     0
 93
       13
 44
0.0
173
     0
291
     1
 45
0.0
1001
ACAD
1000
AcDbSavedByObjectVersion
1070
     0
  0
VISUALSTYLE
  5
2D
102
{ACAD_XDICTIONARY
360
390
102
}
102
{ACAD_REACTORS
330
2A
102
}
330
2A
100
AcDbVisualStyle
  2

 70
     2
 71
     2
 72
     2
 73
     1
 90
        2
 40
-0.6
 41
30.0
 62
     5
 63
     7
421
 16777215
 74
     0
 91
        0
 64
     7
 65
   257
 75
     1
175
     1
 42
1.0
 92
        0
 66
     7
 43
1.0
 76
     1
 77
     6
 78
     2
 67
     7
 79
     5
170
     0
171
     0
290
     0
174
     0
 93
       13
 44
0.0
173
     0
291
     1
 45
0.0
1001
ACAD
1000
AcDbSavedByObjectVersion
1070
     0
  0
VISUALSTYLE
  5
2E
102
{ACAD_XDICTIONARY
360
392
102
}
102
{ACAD_REACTORS
330
2A
102
}
330
2A
100
AcDbVisualStyle
  2

 70
     3
 71
     2
 72
     2
 73
     1
 90
        2
 40
-0.6
 41
30.0
 62
     5
 63
     7
421
 16777215
 74
     1
 91
        0
 64
     7
 65
   257
 75
     1
175
     1
 42
1.0
 92
        0
 66
   257
 43
1.0
 76
     1
 77
     6
 78
     2
 67
     7
 79
     5
170
     0
171
     0
290
     0
174
     0
 93
       13
 44
0.0
173
     0
291
     1
 45
0.0
1001
ACAD
1000
AcDbSavedByObjectVersion
1070
     0
  0
VISUALSTYLE
  5
31
102
{ACAD_XDICTIONARY
360
398
102
}
102
{ACAD_REACTORS
330
2A
102
}
330
2A
100
AcDbVisualStyle
  2

 70
     6
 71
     1
 72
     2
 73
     2
 90
        0
 40
-0.6
 41
-30.0
 62
     5
 63
     7
421
 16777215
 74
     2
 91
        2
 64
     7
 65
   257
 75
     2
175
     1
 42
40.0
 92
        0
 66
   257
 43
1.0
 76
     1
 77
     6
 78
     2
 67
     7
 79
     3
170
     0
171
     0
290
     0
174
     0
 93
        1
 44
0.0
173
     0
291
     0
 45
0.0
1001
ACAD
1000
AcDbSavedByObjectVersion
1070
     0
  0
VISUALSTYLE
  5
3B
102
{ACAD_XDICTIONARY
360
3AC
102
}
102
{ACAD_REACTORS
330
2A
102
}
330
2A
100
AcDbVisualStyle
  2

 70
    20
 71
     2
 72
     2
 73
     0
 90
        0
 40
-0.6
 41
-30.0
 62
     5
 63
     7
421
 16777215
 74
     1
 91
        4
 64
     7
 65
   257
 75
     1
175
     1
 42
1.0
 92
       10
 66
     7
 43
1.0
 76
     1
 77
     6
 78
     2
 67
     7
 79
     5
170
     0
171
     0
290
     0
174
     0
 93
        1
 44
0.0
173
     0
291
     1
 45
0.0
1001
ACAD
1000
AcDbSavedByObjectVersion
1070
     0
  0
VISUALSTYLE
  5
38
102
{ACAD_XDICTIONARY
360
3A6
102
}
102
{ACAD_REACTORS
330
2A
102
}
330
2A
100
AcDbVisualStyle
  2

 70
    14
 71
     2
 72
     2
 73
     0
 90
        0
 40
-0.6
 41
-30.0
 62
     5
 63
     7
421
 16777215
 74
     1
 91
        4
 64
     7
 65
   257
 75
     7
175
     7
 42
1.0
 92
        8
 66
     7
 43
1.0
 76
     1
 77
     6
 78
     2
 67
     7
 79
     5
170
     0
171
     0
290
     0
174
     0
 93
        1
 44
0.0
173
     0
291
     1
 45
0.0
1001
ACAD
1000
AcDbSavedByObjectVersion
1070
     0
  0
VISUALSTYLE
  5
3C
102
{ACAD_XDICTIONARY
360
3AE
102
}
102
{ACAD_REACTORS
330
2A
102
}
330
2A
100
AcDbVisualStyle
  2

 70
    21
 71
     2
 72
     2
 73
     0
 90
        0
 40
-0.6
 41
-30.0
 62
     5
 63
     7
421
 16777215
 74
     1
 91
        4
 64
     7
 65
   257
 75
     1
175
     1
 42
1.0
 92
        9
 66
     7
 43
1.0
 76
     1
 77
     6
 78
     2
 67
     7
 79
     5
170
     0
171
     0
290
     0
174
     0
 93
        1
 44
0.0
173
     0
291
     1
 45
0.0
1001
ACAD
1000
AcDbSavedByObjectVersion
1070
     0
  0
VISUALSTYLE
  5
33
102
{ACAD_XDICTIONARY
360
39C
102
}
102
{ACAD_REACTORS
330
2A
102
}
330
2A
100
AcDbVisualStyle
  2

 70
     8
 71
     2
 72
     3
 73
     0
 90
        2
 40
-0.6
 41
30.0
 62
     5
 63
     7
421
 16777215
 74
     0
 91
        0
 64
     7
 65
   257
 75
     1
175
     1
 42
1.0
 92
        8
 66
   257
 43
1.0
 76
     1
 77
     6
 78
     2
 67
     7
 79
     3
170
     0
171
     0
290
     0
174
     0
 93
       13
 44
0.0
173
     0
291
     0
 45
0.0
1001
ACAD
1000
AcDbSavedByObjectVersion
1070
     0
  0
VISUALSTYLE
  5
42
102
{ACAD_XDICTIONARY
360
3BA
102
}
102
{ACAD_REACTORS
330
2A
102
}
330
2A
100
AcDbVisualStyle
  2

 70
    27
 71
     2
 72
     2
 73
     1
 90
        2
 40
-0.6
 41
30.0
 62
     5
 63
     7
421
 16777215
 74
     0
 91
        4
 64
     7
 65
   257
 75
     1
175
     1
 42
1.0
 92
        8
 66
   257
 43
1.0
 76
     1
 77
     6
 78
     2
 67
     8
425
  7895160
 79
     3
170
     0
171
     0
290
     0
174
     0
 93
        5
 44
0.0
173
     0
291
     0
 45
0.0
1001
ACAD
1000
AcDbSavedByObjectVersion
1070
     0
  0
VISUALSTYLE
  5
41
102
{ACAD_XDICTIONARY
360
3B8
102
}
102
{ACAD_REACTORS
330
2A
102
}
330
2A
100
AcDbVisualStyle
  2

 70
    26
 71
     2
 72
     2
 73
     1
 90
        2
 40
-0.6
 41
30.0
 62
     5
 63
     7
421
 16777215
 74
     1
 91
       10
 64
     7
 65
   257
 75
     2
175
     1
 42
1.0
 92
        8
 66
   257
 43
1.0
 76
     1
 77
     6
 78
     2
 67
     7
 79
     3
170
     0
171
     0
290
     0
174
     0
 93
        5
 44
0.0
173
     0
291
     0
 45
0.0
1001
ACAD
1000
AcDbSavedByObjectVersion
1070
     0
  0
VISUALSTYLE
  5
3E
102
{ACAD_XDICTIONARY
360
3B2
102
}
102
{ACAD_REACTORS
330
2A
102
}
330
2A
100
AcDbVisualStyle
  2

 70
    23
 71
     2
 72
     2
 73
     3
 90
        0
 40
-0.6
 41
-30.0
 62
     5
 63
     7
421
 16777215
 74
     2
 91
        2
 64
     7
 65
     7
 75
     1
175
     1
 42
40.0
 92
        8
 66
     7
 43
1.0
 76
     1
 77
     6
 78
     2
 67
     7
 79
     3
170
     0
171
     0
290
     0
174
     0
 93
        1
 44
0.0
173
     0
291
     0
 45
0.0
1001
ACAD
1000
AcDbSavedByObjectVersion
1070
     0
  0
VISUALSTYLE
  5
3F
102
{ACAD_XDICTIONARY
360
3B4
102
}
102
{ACAD_REACTORS
330
2A
102
}
330
2A
100
AcDbVisualStyle
  2

 70
    24
 71
     1
 72
     2
 73
     2
 90
        0
 40
-0.6
 41
-30.0
 62
     5
 63
     7
421
 16777215
 74
     2
 91
        2
 64
     7
 65
     7
 75
     1
175
     1
 42
40.0
 92
       11
 66
     7
 43
1.0
 76
     1
 77
     6
 78
     2
 67
     7
 79
     6
170
     0
171
     0
290
     0
174
     0
 93
        1
 44
0.0
173
     0
291
     0
 45
0.0
1001
ACAD
1000
AcDbSavedByObjectVersion
1070
     0
  0
VISUALSTYLE
  5
37
102
{ACAD_XDICTIONARY
360
3A4
102
}
102
{ACAD_REACTORS
330
2A
102
}
330
2A
100
AcDbVisualStyle
  2

 70
    13
 71
     2
 72
     2
 73
     0
 90
        0
 40
-0.6
 41
-30.0
 62
     5
 63
     7
421
 16777215
 74
     1
 91
        4
 64
     7
 65
   257
 75
     1
175
     1
 42
1.0
 92
       12
 66
     7
 43
1.0
 76
     1
 77
     6
 78
     2
 67
     7
 79
     5
170
     0
171
     0
290
     0
174
     0
 93
        1
 44
0.0
173
     0
291
     1
 45
0.0
1001
ACAD
1000
AcDbSavedByObjectVersion
1070
     0
  0
VISUALSTYLE
  5
30
102
{ACAD_XDICTIONARY
360
396
102
}
102
{ACAD_REACTORS
330
2A
102
}
330
2A
100
AcDbVisualStyle
  2

 70
     5
 71
     0
 72
     2
 73
     0
 90
        0
 40
-0.6
 41
-30.0
 62
     5
 63
     7
421
 16777215
 74
     1
 91
        4
 64
     7
 65
   257
 75
     1
175
     1
 42
1.0
 92
        0
 66
   257
 43
1.0
 76
     1
 77
     6
 78
     2
 67
     7
 79
     3
170
     0
171
     0
290
     0
174
     0
 93
        1
 44
0.0
173
     0
291
     0
 45
0.0
1001
ACAD
1000
AcDbSavedByObjectVersion
1070
     0
  0
VISUALSTYLE
  5
40
102
{ACAD_XDICTIONARY
360
3B6
102
}
102
{ACAD_REACTORS
330
2A
102
}
330
2A
100
AcDbVisualStyle
  2

 70
    25
 71
     2
 72
     2
 73
     1
 90
        1
 40
0.5
 41
-30.0
 62
     5
 63
     7
421
 16777215
 74
     1
 91
        0
 64
     7
 65
   257
 75
     1
175
     1
 42
1.0
 92
        8
 66
     7
 43
1.0
 76
     1
 77
     6
 78
     2
 67
     7
 79
     3
170
     0
171
     0
290
     0
174
     0
 93
       13
 44
0.0
173
     0
291
     0
 45
0.0
1001
ACAD
1000
AcDbSavedByObjectVersion
1070
     0
  0
DICTIONARYVAR
  5
2D2
102
{ACAD_REACTORS
330
2D1
102
}
330
2D1
100
DictionaryVariables
280
     0
  1
1:1
  0
DICTIONARYVAR
  5
313
102
{ACAD_REACTORS
330
2D1
102
}
330
2D1
100
DictionaryVariables
280
     0
  1
STANDARD
  0
DICTIONARYVAR
  5
312
102
{ACAD_REACTORS
330
2D1
102
}
330
2D1
100
DictionaryVariables
280
     0
  1
STANDARD
  0
DICTIONARYVAR
  5
386
102
{ACAD_REACTORS
330
2D1
102
}
330
2D1
100
DictionaryVariables
280
     0
  1
Metric50
  0
DICTIONARYVAR
  5
387
102
{ACAD_REACTORS
330
2D1
102
}
330
2D1
100
DictionaryVariables
280
     0
  1
Metric50
  0
DICTIONARYVAR
  5
2D3
102
{ACAD_REACTORS
330
2D1
102
}
330
2D1
100
DictionaryVariables
280
     0
  1
1
  0
DICTIONARYVAR
  5
388
102
{ACAD_REACTORS
330
2D1
102
}
330
2D1
100
DictionaryVariables
280
     0
  1
2
  0
DICTIONARY
  5
3BF
330
31A
100
AcDbDictionary
280
     1
281
     1
  3
ACAD_XREC_ROUNDTRIP
360
3C0
  0
DICTIONARY
  5
307
330
45
100
AcDbDictionary
280
     1
281
     1
  3
ACAD_XREC_ROUNDTRIP
360
308
  0
DICTIONARY
  5
305
330
44
100
AcDbDictionary
280
     1
281
     1
  3
ACAD_XREC_ROUNDTRIP
360
306
  0
DICTIONARY
  5
309
330
46
100
AcDbDictionary
280
     1
281
     1
  3
ACAD_XREC_ROUNDTRIP
360
30A
  0
DICTIONARY
  5
3BD
330
319
100
AcDbDictionary
280
     1
281
     1
  3
ACAD_XREC_ROUNDTRIP
360
3BE
  0
DICTIONARY
  5
30B
330
6A
100
AcDbDictionary
280
     1
281
     1
  3
ACAD_ROUNDTRIP_2008_TABLESTYLE_CELLSTYLEMAP
360
38A
  3
ACAD_XREC_ROUNDTRIP
360
3BC
  0
DICTIONARY
  5
394
330
2F
100
AcDbDictionary
280
     1
281
     1
  3
ACAD_XREC_ROUNDTRIP
360
395
  0
DICTIONARY
  5
39A
330
32
100
AcDbDictionary
280
     1
281
     1
  3
ACAD_XREC_ROUNDTRIP
360
39B
  0
DICTIONARY
  5
3A2
330
36
100
AcDbDictionary
280
     1
281
     1
  3
ACAD_XREC_ROUNDTRIP
360
3A3
  0
DICTIONARY
  5
3AA
330
3A
100
AcDbDictionary
280
     1
281
     1
  3
ACAD_XREC_ROUNDTRIP
360
3AB
  0
DICTIONARY
  5
39E
330
34
100
AcDbDictionary
280
     1
281
     1
  3
ACAD_XREC_ROUNDTRIP
360
39F
  0
DICTIONARY
  5
3A0
330
35
100
AcDbDictionary
280
     1
281
     1
  3
ACAD_XREC_ROUNDTRIP
360
3A1
  0
DICTIONARY
  5
3B0
330
3D
100
AcDbDictionary
280
     1
281
     1
  3
ACAD_XREC_ROUNDTRIP
360
3B1
  0
DICTIONARY
  5
3A8
330
39
100
AcDbDictionary
280
     1
281
     1
  3
ACAD_XREC_ROUNDTRIP
360
3A9
  0
DICTIONARY
  5
38C
330
2B
100
AcDbDictionary
280
     1
281
     1
  3
ACAD_XREC_ROUNDTRIP
360
38D
  0
DICTIONARY
  5
38E
330
2C
100
AcDbDictionary
280
     1
281
     1
  3
ACAD_XREC_ROUNDTRIP
360
38F
  0
DICTIONARY
  5
390
330
2D
100
AcDbDictionary
280
     1
281
     1
  3
ACAD_XREC_ROUNDTRIP
360
391
  0
DICTIONARY
  5
392
330
2E
100
AcDbDictionary
280
     1
281
     1
  3
ACAD_XREC_ROUNDTRIP
360
393
  0
DICTIONARY
  5
398
330
31
100
AcDbDictionary
280
     1
281
     1
  3
ACAD_XREC_ROUNDTRIP
360
399
  0
DICTIONARY
  5
3AC
330
3B
100
AcDbDictionary
280
     1
281
     1
  3
ACAD_XREC_ROUNDTRIP
360
3AD
  0
DICTIONARY
  5
3A6
330
38
100
AcDbDictionary
280
     1
281
     1
  3
ACAD_XREC_ROUNDTRIP
360
3A7
  0
DICTIONARY
  5
3AE
330
3C
100
AcDbDictionary
280
     1
281
     1
  3
ACAD_XREC_ROUNDTRIP
360
3AF
  0
DICTIONARY
  5
39C
330
33
100
AcDbDictionary
280
     1
281
     1
  3
ACAD_XREC_ROUNDTRIP
360
39D
  0
DICTIONARY
  5
3BA
330
42
100
AcDbDictionary
280
     1
281
     1
  3
ACAD_XREC_ROUNDTRIP
360
3BB
  0
DICTIONARY
  5
3B8
330
41
100
AcDbDictionary
280
     1
281
     1
  3
ACAD_XREC_ROUNDTRIP
360
3B9
  0
DICTIONARY
  5
3B2
330
3E
100
AcDbDictionary
280
     1
281
     1
  3
ACAD_XREC_ROUNDTRIP
360
3B3
  0
DICTIONARY
  5
3B4
330
3F
100
AcDbDictionary
280
     1
281
     1
  3
ACAD_XREC_ROUNDTRIP
360
3B5
  0
DICTIONARY
  5
3A4
330
37
100
AcDbDictionary
280
     1
281
     1
  3
ACAD_XREC_ROUNDTRIP
360
3A5
  0
DICTIONARY
  5
396
330
30
100
AcDbDictionary
280
     1
281
     1
  3
ACAD_XREC_ROUNDTRIP
360
397
  0
DICTIONARY
  5
3B6
330
40
100
AcDbDictionary
280
     1
281
     1
  3
ACAD_XREC_ROUNDTRIP
360
3B7
  0
XRECORD
  5
3C0
102
{ACAD_REACTORS
330
3BF
102
}
330
3BF
100
AcDbXrecord
280
     1
102
DISPLAYNAME
  1
Metric50
102
FLAGS
 90
        0
  0
XRECORD
  5
308
102
{ACAD_REACTORS
330
307
102
}
330
307
100
AcDbXrecord
280
     1
102
MATERIAL
148
0.0
149
0.0
149
0.0
 93
        0
 94
      127
282
     0
 72
     1
 77
     1
171
     1
175
     1
179
     1
273
     0
  0
XRECORD
  5
306
102
{ACAD_REACTORS
330
305
102
}
330
305
100
AcDbXrecord
280
     1
102
MATERIAL
148
0.0
149
0.0
149
0.0
 93
        0
 94
      127
282
     0
 72
     1
 77
     1
171
     1
175
     1
179
     1
273
     0
  0
XRECORD
  5
30A
102
{ACAD_REACTORS
330
309
102
}
330
309
100
AcDbXrecord
280
     1
102
MATERIAL
148
0.0
149
0.0
149
0.0
 93
        0
 94
      127
282
     0
 72
     1
 77
     1
171
     1
175
     1
179
     1
273
     0
  0
XRECORD
  5
3BE
102
{ACAD_REACTORS
330
3BD
102
}
330
3BD
100
AcDbXrecord
280
     1
102
DISPLAYNAME
  1
Metric50
102
FLAGS
 90
        0
  0
CELLSTYLEMAP
  5
38A
102
{ACAD_REACTORS
330
30B
102
}
330
30B
100
AcDbCellStyleMap
 90
        3
300
CELLSTYLE
  1
TABLEFORMAT_BEGIN
 90
        5
170
     1
 91
        0
 92
    32768
 62
   257
 93
        1
300
CONTENTFORMAT
  1
CONTENTFORMAT_BEGIN
 90
        0
 91
        0
 92
        4
 93
        0
300

 40
0.0
140
1.0
 94
        5
 62
     0
340
11
144
0.25
309
CONTENTFORMAT_END
171
     1
301
MARGIN
  1
CELLMARGIN_BEGIN
 40
0.06
 40
0.06
 40
0.06
 40
0.06
 40
0.18
 40
0.18
309
CELLMARGIN_END
 94
        6
 95
        1
302
GRIDFORMAT
  1
GRIDFORMAT_BEGIN
 90
        0
 91
        1
 62
     0
 92
       -2
340
14
 93
        0
 40
0.045
309
GRIDFORMAT_END
 95
        2
302
GRIDFORMAT
  1
GRIDFORMAT_BEGIN
 90
        0
 91
        1
 62
     0
 92
       -2
340
14
 93
        0
 40
0.045
309
GRIDFORMAT_END
 95
        4
302
GRIDFORMAT
  1
GRIDFORMAT_BEGIN
 90
        0
 91
        1
 62
     0
 92
       -2
340
14
 93
        0
 40
0.045
309
GRIDFORMAT_END
 95
        8
302
GRIDFORMAT
  1
GRIDFORMAT_BEGIN
 90
        0
 91
        1
 62
     0
 92
       -2
340
14
 93
        0
 40
0.045
309
GRIDFORMAT_END
 95
       16
302
GRIDFORMAT
  1
GRIDFORMAT_BEGIN
 90
        0
 91
        1
 62
     0
 92
       -2
340
14
 93
        0
 40
0.045
309
GRIDFORMAT_END
 95
       32
302
GRIDFORMAT
  1
GRIDFORMAT_BEGIN
 90
        0
 91
        1
 62
     0
 92
       -2
340
14
 93
        0
 40
0.045
309
GRIDFORMAT_END
309
TABLEFORMAT_END
  1
CELLSTYLE_BEGIN
 90
        1
 91
        1
300
_TITLE
309
CELLSTYLE_END
300
CELLSTYLE
  1
TABLEFORMAT_BEGIN
 90
        5
170
     1
 91
        0
 92
        0
 62
   257
 93
        1
300
CONTENTFORMAT
  1
CONTENTFORMAT_BEGIN
 90
        0
 91
        0
 92
        4
 93
        0
300

 40
0.0
140
1.0
 94
        5
 62
     0
340
11
144
0.18
309
CONTENTFORMAT_END
171
     1
301
MARGIN
  1
CELLMARGIN_BEGIN
 40
0.06
 40
0.06
 40
0.06
 40
0.06
 40
0.18
 40
0.18
309
CELLMARGIN_END
 94
        6
 95
        1
302
GRIDFORMAT
  1
GRIDFORMAT_BEGIN
 90
        0
 91
        1
 62
     0
 92
       -2
340
14
 93
        0
 40
0.045
309
GRIDFORMAT_END
 95
        2
302
GRIDFORMAT
  1
GRIDFORMAT_BEGIN
 90
        0
 91
        1
 62
     0
 92
       -2
340
14
 93
        0
 40
0.045
309
GRIDFORMAT_END
 95
        4
302
GRIDFORMAT
  1
GRIDFORMAT_BEGIN
 90
        0
 91
        1
 62
     0
 92
       -2
340
14
 93
        0
 40
0.045
309
GRIDFORMAT_END
 95
        8
302
GRIDFORMAT
  1
GRIDFORMAT_BEGIN
 90
        0
 91
        1
 62
     0
 92
       -2
340
14
 93
        0
 40
0.045
309
GRIDFORMAT_END
 95
       16
302
GRIDFORMAT
  1
GRIDFORMAT_BEGIN
 90
        0
 91
        1
 62
     0
 92
       -2
340
14
 93
        0
 40
0.045
309
GRIDFORMAT_END
 95
       32
302
GRIDFORMAT
  1
GRIDFORMAT_BEGIN
 90
        0
 91
        1
 62
     0
 92
       -2
340
14
 93
        0
 40
0.045
309
GRIDFORMAT_END
309
TABLEFORMAT_END
  1
CELLSTYLE_BEGIN
 90
        2
 91
        1
300
_HEADER
309
CELLSTYLE_END
300
CELLSTYLE
  1
TABLEFORMAT_BEGIN
 90
        5
170
     1
 91
        0
 92
        0
 62
   257
 93
        1
300
CONTENTFORMAT
  1
CONTENTFORMAT_BEGIN
 90
        0
 91
        0
 92
        4
 93
        0
300

 40
0.0
140
1.0
 94
        2
 62
     0
340
11
144
0.18
309
CONTENTFORMAT_END
171
     1
301
MARGIN
  1
CELLMARGIN_BEGIN
 40
0.06
 40
0.06
 40
0.06
 40
0.06
 40
0.18
 40
0.18
309
CELLMARGIN_END
 94
        6
 95
        1
302
GRIDFORMAT
  1
GRIDFORMAT_BEGIN
 90
        0
 91
        1
 62
     0
 92
       -2
340
14
 93
        0
 40
0.045
309
GRIDFORMAT_END
 95
        2
302
GRIDFORMAT
  1
GRIDFORMAT_BEGIN
 90
        0
 91
        1
 62
     0
 92
       -2
340
14
 93
        0
 40
0.045
309
GRIDFORMAT_END
 95
        4
302
GRIDFORMAT
  1
GRIDFORMAT_BEGIN
 90
        0
 91
        1
 62
     0
 92
       -2
340
14
 93
        0
 40
0.045
309
GRIDFORMAT_END
 95
        8
302
GRIDFORMAT
  1
GRIDFORMAT_BEGIN
 90
        0
 91
        1
 62
     0
 92
       -2
340
14
 93
        0
 40
0.045
309
GRIDFORMAT_END
 95
       16
302
GRIDFORMAT
  1
GRIDFORMAT_BEGIN
 90
        0
 91
        1
 62
     0
 92
       -2
340
14
 93
        0
 40
0.045
309
GRIDFORMAT_END
 95
       32
302
GRIDFORMAT
  1
GRIDFORMAT_BEGIN
 90
        0
 91
        1
 62
     0
 92
       -2
340
14
 93
        0
 40
0.045
309
GRIDFORMAT_END
309
TABLEFORMAT_END
  1
CELLSTYLE_BEGIN
 90
        3
 91
        2
300
_DATA
309
CELLSTYLE_END
  0
XRECORD
  5
3BC
102
{ACAD_REACTORS
330
30B
102
}
330
30B
100
AcDbXrecord
280
     1
102
ACAD_ROUNDTRIP_PRE2007_TABLESTYLE
 90
        4
 91
        0
  1

 92
        4
 93
        0
  2

 94
        4
 95
        0
  3

  0
XRECORD
  5
395
102
{ACAD_REACTORS
330
394
102
}
330
394
100
AcDbXrecord
280
     1
102
RTVSPost2010Prop28
280
     1
102
RTVSPost2010PropOp28
 70
     1
102
RTVSPost2010Prop29
280
     1
102
RTVSPost2010PropOp29
 70
     1
102
RTVSPost2010Prop30
280
     0
102
RTVSPost2010PropOp30
 70
     1
102
RTVSPost2010Prop31
280
     0
102
RTVSPost2010PropOp31
 70
     1
102
RTVSPost2010Prop32
280
     0
102
RTVSPost2010PropOp32
 70
     1
102
RTVSPost2010Prop33
280
     0
102
RTVSPost2010PropOp33
 70
     1
102
RTVSPost2010Prop34
280
     0
102
RTVSPost2010PropOp34
 70
     1
102
RTVSPost2010Prop35
280
     0
102
RTVSPost2010PropOp35
 70
     1
102
RTVSPost2010Prop36
280
     0
102
RTVSPost2010PropOp36
 70
     1
102
RTVSPost2010Prop37
 90
       50
102
RTVSPost2010PropOp37
 70
     1
102
RTVSPost2010Prop38
140
0.0
102
RTVSPost2010PropOp38
 70
     1
102
RTVSPost2010Prop39
140
1.0
102
RTVSPost2010PropOp39
 70
     1
102
RTVSPost2010Prop40
 90
        0
102
RTVSPost2010PropOp40
 70
     1
102
RTVSPost2010Prop41ColorIndex
 90
       18
102
RTVSPost2010Prop41ColorRGB
 90
        0
102
RTVSPost2010PropOp41
 70
     1
102
RTVSPost2010Prop42
 90
       50
102
RTVSPost2010PropOp42
 70
     1
102
RTVSPost2010Prop43
 90
        3
102
RTVSPost2010PropOp43
 70
     1
102
RTVSPost2010Prop44ColorIndex
 90
        5
102
RTVSPost2010Prop44ColorRGB
 90
      255
102
RTVSPost2010PropOp44
 70
     1
102
RTVSPost2010Prop45
280
     0
102
RTVSPost2010PropOp45
 70
     1
102
RTVSPost2010Prop46
 90
       50
102
RTVSPost2010PropOp46
 70
     1
102
RTVSPost2010Prop47
 90
       50
102
RTVSPost2010PropOp47
 70
     1
102
RTVSPost2010Prop48
 90
       50
102
RTVSPost2010PropOp48
 70
     1
102
RTVSPost2010Prop49
280
     0
102
RTVSPost2010PropOp49
 70
     1
102
RTVSPost2010Prop50
 90
       50
102
RTVSPost2010PropOp50
 70
     1
102
RTVSPost2010Prop51ColorIndex
 90
      256
102
RTVSPost2010Prop51ColorRGB
 90
-16777216
102
RTVSPost2010PropOp51
 70
     0
102
RTVSPost2010Prop52
140
1.0
102
RTVSPost2010PropOp52
 70
     0
102
RTVSPost2010Prop53
 90
        2
102
RTVSPost2010PropOp53
 70
     1
102
RTVSPost2010Prop54
  1
strokes_ogs.tif
102
RTVSPost2010PropOp54
 70
     1
102
RTVSPost2010Prop55
280
     0
102
RTVSPost2010PropOp55
 70
     1
102
RTVSPost2010Prop56
140
1.0
102
RTVSPost2010PropOp56
 70
     1
102
RTVSPost2010Prop57
140
1.0
102
RTVSPost2010PropOp57
 70
     1
102
RTVSPropertyOp0
 70
     1
102
RTVSPropertyOp1
 70
     1
102
RTVSPropertyOp2
 70
     1
102
RTVSPropertyOp3
 70
     1
102
RTVSPropertyOp4
 70
     1
102
RTVSPropertyOp5
 70
     1
102
RTVSPropertyOp6
 70
     1
102
RTVSPropertyOp7
 70
     1
102
RTVSPropertyOp8
 70
     1
102
RTVSPropertyOp9
 70
     1
102
RTVSPropertyOp10
 70
     1
102
RTVSPropertyOp11
 70
     1
102
RTVSPropertyOp12
 70
     1
102
RTVSPropertyOp13
 70
     1
102
RTVSPropertyOp14
 70
     1
102
RTVSPropertyOp15
 70
     1
102
RTVSPropertyOp16
 70
     1
102
RTVSPropertyOp17
 70
     1
102
RTVSPropertyOp18
 70
     1
102
RTVSPropertyOp19
 70
     1
102
RTVSPropertyOp20
 70
     1
102
RTVSPropertyOp21
 70
     1
102
RTVSPropertyOp22
 70
     1
102
RTVSPropertyOp23
 70
     1
102
RTVSPropertyOp24
 70
     1
102
RTVSPropertyOp25
 70
     1
102
RTVSPropertyOp26
 70
     1
102
RTVSPropertyOp27
 70
     1
102
RTVSPropertyOp28
 70
     1
102
RTVSPropertyOp29
 70
     1
102
RTVSPropertyOp30
 70
     1
102
RTVSPropertyOp31
 70
     1
102
RTVSPropertyOp32
 70
     1
102
RTVSPropertyOp33
 70
     1
102
RTVSPropertyOp34
 70
     1
102
RTVSPropertyOp35
 70
     1
102
RTVSPropertyOp36
 70
     1
102
RTVSPropertyOp37
 70
     1
102
RTVSPropertyOp38
 70
     1
102
RTVSPropertyOp39
 70
     1
102
RTVSPropertyOp40
 70
     1
102
RTVSPropertyOp41
 70
     1
102
RTVSPropertyOp42
 70
     1
102
RTVSPropertyOp43
 70
     1
102
RTVSPropertyOp44
 70
     1
102
RTVSPropertyOp45
 70
     1
102
RTVSPropertyOp46
 70
     1
102
RTVSPropertyOp47
 70
     1
102
RTVSPropertyOp48
 70
     1
102
RTVSPropertyOp49
 70
     1
102
RTVSPropertyOp50
 70
     1
102
RTVSPropertyOp51
 70
     0
102
RTVSPropertyOp52
 70
     0
102
RTVSPropertyOp53
 70
     1
102
RTVSPropertyOp54
 70
     1
102
RTVSPropertyOp55
 70
     1
102
RTVSPropertyOp56
 70
     1
102
RTVSPropertyOp57
 70
     1
102
RTVSPropertyOp58
 70
     1
102
RTVSPropertyOp59
 70
     1
102
RTVSPropertyOp60
 70
     1
102
RTVSPropertyOp61
 70
     1
102
RTVSPropertyOp62
 70
     1
  0
XRECORD
  5
39B
102
{ACAD_REACTORS
330
39A
102
}
330
39A
100
AcDbXrecord
280
     1
102
RTVSPost2010Prop28
280
     0
102
RTVSPost2010PropOp28
 70
     1
102
RTVSPost2010Prop29
280
     1
102
RTVSPost2010PropOp29
 70
     1
102
RTVSPost2010Prop30
280
     1
102
RTVSPost2010PropOp30
 70
     1
102
RTVSPost2010Prop31
280
     0
102
RTVSPost2010PropOp31
 70
     1
102
RTVSPost2010Prop32
280
     0
102
RTVSPost2010PropOp32
 70
     1
102
RTVSPost2010Prop33
280
     0
102
RTVSPost2010PropOp33
 70
     1
102
RTVSPost2010Prop34
280
     0
102
RTVSPost2010PropOp34
 70
     1
102
RTVSPost2010Prop35
280
     0
102
RTVSPost2010PropOp35
 70
     1
102
RTVSPost2010Prop36
280
     0
102
RTVSPost2010PropOp36
 70
     1
102
RTVSPost2010Prop37
 90
       50
102
RTVSPost2010PropOp37
 70
     1
102
RTVSPost2010Prop38
140
0.0
102
RTVSPost2010PropOp38
 70
     1
102
RTVSPost2010Prop39
140
1.0
102
RTVSPost2010PropOp39
 70
     1
102
RTVSPost2010Prop40
 90
        0
102
RTVSPost2010PropOp40
 70
     1
102
RTVSPost2010Prop41ColorIndex
 90
       18
102
RTVSPost2010Prop41ColorRGB
 90
        0
102
RTVSPost2010PropOp41
 70
     1
102
RTVSPost2010Prop42
 90
       50
102
RTVSPost2010PropOp42
 70
     1
102
RTVSPost2010Prop43
 90
        3
102
RTVSPost2010PropOp43
 70
     1
102
RTVSPost2010Prop44ColorIndex
 90
        5
102
RTVSPost2010Prop44ColorRGB
 90
      255
102
RTVSPost2010PropOp44
 70
     1
102
RTVSPost2010Prop45
280
     0
102
RTVSPost2010PropOp45
 70
     1
102
RTVSPost2010Prop46
 90
       50
102
RTVSPost2010PropOp46
 70
     1
102
RTVSPost2010Prop47
 90
       50
102
RTVSPost2010PropOp47
 70
     1
102
RTVSPost2010Prop48
 90
       50
102
RTVSPost2010PropOp48
 70
     1
102
RTVSPost2010Prop49
280
     0
102
RTVSPost2010PropOp49
 70
     1
102
RTVSPost2010Prop50
 90
       50
102
RTVSPost2010PropOp50
 70
     1
102
RTVSPost2010Prop51ColorIndex
 90
      256
102
RTVSPost2010Prop51ColorRGB
 90
-16777216
102
RTVSPost2010PropOp51
 70
     0
102
RTVSPost2010Prop52
140
1.0
102
RTVSPost2010PropOp52
 70
     0
102
RTVSPost2010Prop53
 90
        2
102
RTVSPost2010PropOp53
 70
     1
102
RTVSPost2010Prop54
  1
strokes_ogs.tif
102
RTVSPost2010PropOp54
 70
     1
102
RTVSPost2010Prop55
280
     0
102
RTVSPost2010PropOp55
 70
     1
102
RTVSPost2010Prop56
140
1.0
102
RTVSPost2010PropOp56
 70
     1
102
RTVSPost2010Prop57
140
1.0
102
RTVSPost2010PropOp57
 70
     1
102
RTVSPropertyOp0
 70
     1
102
RTVSPropertyOp1
 70
     1
102
RTVSPropertyOp2
 70
     1
102
RTVSPropertyOp3
 70
     1
102
RTVSPropertyOp4
 70
     1
102
RTVSPropertyOp5
 70
     1
102
RTVSPropertyOp6
 70
     1
102
RTVSPropertyOp7
 70
     1
102
RTVSPropertyOp8
 70
     1
102
RTVSPropertyOp9
 70
     1
102
RTVSPropertyOp10
 70
     1
102
RTVSPropertyOp11
 70
     1
102
RTVSPropertyOp12
 70
     1
102
RTVSPropertyOp13
 70
     1
102
RTVSPropertyOp14
 70
     1
102
RTVSPropertyOp15
 70
     1
102
RTVSPropertyOp16
 70
     1
102
RTVSPropertyOp17
 70
     1
102
RTVSPropertyOp18
 70
     1
102
RTVSPropertyOp19
 70
     1
102
RTVSPropertyOp20
 70
     1
102
RTVSPropertyOp21
 70
     1
102
RTVSPropertyOp22
 70
     1
102
RTVSPropertyOp23
 70
     1
102
RTVSPropertyOp24
 70
     1
102
RTVSPropertyOp25
 70
     1
102
RTVSPropertyOp26
 70
     1
102
RTVSPropertyOp27
 70
     1
102
RTVSPropertyOp28
 70
     1
102
RTVSPropertyOp29
 70
     1
102
RTVSPropertyOp30
 70
     1
102
RTVSPropertyOp31
 70
     1
102
RTVSPropertyOp32
 70
     1
102
RTVSPropertyOp33
 70
     1
102
RTVSPropertyOp34
 70
     1
102
RTVSPropertyOp35
 70
     1
102
RTVSPropertyOp36
 70
     1
102
RTVSPropertyOp37
 70
     1
102
RTVSPropertyOp38
 70
     1
102
RTVSPropertyOp39
 70
     1
102
RTVSPropertyOp40
 70
     1
102
RTVSPropertyOp41
 70
     1
102
RTVSPropertyOp42
 70
     1
102
RTVSPropertyOp43
 70
     1
102
RTVSPropertyOp44
 70
     1
102
RTVSPropertyOp45
 70
     1
102
RTVSPropertyOp46
 70
     1
102
RTVSPropertyOp47
 70
     1
102
RTVSPropertyOp48
 70
     1
102
RTVSPropertyOp49
 70
     1
102
RTVSPropertyOp50
 70
     1
102
RTVSPropertyOp51
 70
     0
102
RTVSPropertyOp52
 70
     0
102
RTVSPropertyOp53
 70
     1
102
RTVSPropertyOp54
 70
     1
102
RTVSPropertyOp55
 70
     1
102
RTVSPropertyOp56
 70
     1
102
RTVSPropertyOp57
 70
     1
102
RTVSPropertyOp58
 70
     1
102
RTVSPropertyOp59
 70
     1
102
RTVSPropertyOp60
 70
     1
102
RTVSPropertyOp61
 70
     1
102
RTVSPropertyOp62
 70
     1
  0
XRECORD
  5
3A3
102
{ACAD_REACTORS
330
3A2
102
}
330
3A2
100
AcDbXrecord
280
     1
102
RTVSPost2010Prop28
280
     0
102
RTVSPost2010PropOp28
 70
     1
102
RTVSPost2010Prop29
280
     1
102
RTVSPost2010PropOp29
 70
     1
102
RTVSPost2010Prop30
280
     1
102
RTVSPost2010PropOp30
 70
     1
102
RTVSPost2010Prop31
280
     0
102
RTVSPost2010PropOp31
 70
     1
102
RTVSPost2010Prop32
280
     0
102
RTVSPost2010PropOp32
 70
     1
102
RTVSPost2010Prop33
280
     0
102
RTVSPost2010PropOp33
 70
     1
102
RTVSPost2010Prop34
280
     0
102
RTVSPost2010PropOp34
 70
     1
102
RTVSPost2010Prop35
280
     0
102
RTVSPost2010PropOp35
 70
     1
102
RTVSPost2010Prop36
280
     0
102
RTVSPost2010PropOp36
 70
     1
102
RTVSPost2010Prop37
 90
       50
102
RTVSPost2010PropOp37
 70
     1
102
RTVSPost2010Prop38
140
0.0
102
RTVSPost2010PropOp38
 70
     1
102
RTVSPost2010Prop39
140
1.0
102
RTVSPost2010PropOp39
 70
     1
102
RTVSPost2010Prop40
 90
        0
102
RTVSPost2010PropOp40
 70
     1
102
RTVSPost2010Prop41ColorIndex
 90
       18
102
RTVSPost2010Prop41ColorRGB
 90
        0
102
RTVSPost2010PropOp41
 70
     1
102
RTVSPost2010Prop42
 90
       50
102
RTVSPost2010PropOp42
 70
     1
102
RTVSPost2010Prop43
 90
        3
102
RTVSPost2010PropOp43
 70
     1
102
RTVSPost2010Prop44ColorIndex
 90
        5
102
RTVSPost2010Prop44ColorRGB
 90
      255
102
RTVSPost2010PropOp44
 70
     1
102
RTVSPost2010Prop45
280
     0
102
RTVSPost2010PropOp45
 70
     1
102
RTVSPost2010Prop46
 90
       50
102
RTVSPost2010PropOp46
 70
     1
102
RTVSPost2010Prop47
 90
       50
102
RTVSPost2010PropOp47
 70
     1
102
RTVSPost2010Prop48
 90
       50
102
RTVSPost2010PropOp48
 70
     1
102
RTVSPost2010Prop49
280
     0
102
RTVSPost2010PropOp49
 70
     1
102
RTVSPost2010Prop50
 90
       50
102
RTVSPost2010PropOp50
 70
     1
102
RTVSPost2010Prop51ColorIndex
 90
      256
102
RTVSPost2010Prop51ColorRGB
 90
-16777216
102
RTVSPost2010PropOp51
 70
     0
102
RTVSPost2010Prop52
140
1.0
102
RTVSPost2010PropOp52
 70
     0
102
RTVSPost2010Prop53
 90
        2
102
RTVSPost2010PropOp53
 70
     1
102
RTVSPost2010Prop54
  1
strokes_ogs.tif
102
RTVSPost2010PropOp54
 70
     1
102
RTVSPost2010Prop55
280
     0
102
RTVSPost2010PropOp55
 70
     1
102
RTVSPost2010Prop56
140
1.0
102
RTVSPost2010PropOp56
 70
     1
102
RTVSPost2010Prop57
140
1.0
102
RTVSPost2010PropOp57
 70
     1
102
RTVSPropertyOp0
 70
     1
102
RTVSPropertyOp1
 70
     1
102
RTVSPropertyOp2
 70
     1
102
RTVSPropertyOp3
 70
     1
102
RTVSPropertyOp4
 70
     1
102
RTVSPropertyOp5
 70
     1
102
RTVSPropertyOp6
 70
     1
102
RTVSPropertyOp7
 70
     1
102
RTVSPropertyOp8
 70
     1
102
RTVSPropertyOp9
 70
     1
102
RTVSPropertyOp10
 70
     1
102
RTVSPropertyOp11
 70
     1
102
RTVSPropertyOp12
 70
     1
102
RTVSPropertyOp13
 70
     1
102
RTVSPropertyOp14
 70
     1
102
RTVSPropertyOp15
 70
     1
102
RTVSPropertyOp16
 70
     1
102
RTVSPropertyOp17
 70
     1
102
RTVSPropertyOp18
 70
     1
102
RTVSPropertyOp19
 70
     1
102
RTVSPropertyOp20
 70
     1
102
RTVSPropertyOp21
 70
     1
102
RTVSPropertyOp22
 70
     1
102
RTVSPropertyOp23
 70
     1
102
RTVSPropertyOp24
 70
     1
102
RTVSPropertyOp25
 70
     1
102
RTVSPropertyOp26
 70
     1
102
RTVSPropertyOp27
 70
     1
102
RTVSPropertyOp28
 70
     1
102
RTVSPropertyOp29
 70
     1
102
RTVSPropertyOp30
 70
     1
102
RTVSPropertyOp31
 70
     1
102
RTVSPropertyOp32
 70
     1
102
RTVSPropertyOp33
 70
     1
102
RTVSPropertyOp34
 70
     1
102
RTVSPropertyOp35
 70
     1
102
RTVSPropertyOp36
 70
     1
102
RTVSPropertyOp37
 70
     1
102
RTVSPropertyOp38
 70
     1
102
RTVSPropertyOp39
 70
     1
102
RTVSPropertyOp40
 70
     1
102
RTVSPropertyOp41
 70
     1
102
RTVSPropertyOp42
 70
     1
102
RTVSPropertyOp43
 70
     1
102
RTVSPropertyOp44
 70
     1
102
RTVSPropertyOp45
 70
     1
102
RTVSPropertyOp46
 70
     1
102
RTVSPropertyOp47
 70
     1
102
RTVSPropertyOp48
 70
     1
102
RTVSPropertyOp49
 70
     1
102
RTVSPropertyOp50
 70
     1
102
RTVSPropertyOp51
 70
     0
102
RTVSPropertyOp52
 70
     0
102
RTVSPropertyOp53
 70
     1
102
RTVSPropertyOp54
 70
     1
102
RTVSPropertyOp55
 70
     1
102
RTVSPropertyOp56
 70
     1
102
RTVSPropertyOp57
 70
     1
102
RTVSPropertyOp58
 70
     1
102
RTVSPropertyOp59
 70
     1
102
RTVSPropertyOp60
 70
     1
102
RTVSPropertyOp61
 70
     1
102
RTVSPropertyOp62
 70
     1
  0
XRECORD
  5
3AB
102
{ACAD_REACTORS
330
3AA
102
}
330
3AA
100
AcDbXrecord
280
     1
102
RTVSPost2010Prop28
280
     0
102
RTVSPost2010PropOp28
 70
     1
102
RTVSPost2010Prop29
280
     1
102
RTVSPost2010PropOp29
 70
     1
102
RTVSPost2010Prop30
280
     1
102
RTVSPost2010PropOp30
 70
     1
102
RTVSPost2010Prop31
280
     0
102
RTVSPost2010PropOp31
 70
     1
102
RTVSPost2010Prop32
280
     0
102
RTVSPost2010PropOp32
 70
     1
102
RTVSPost2010Prop33
280
     0
102
RTVSPost2010PropOp33
 70
     1
102
RTVSPost2010Prop34
280
     0
102
RTVSPost2010PropOp34
 70
     1
102
RTVSPost2010Prop35
280
     0
102
RTVSPost2010PropOp35
 70
     1
102
RTVSPost2010Prop36
280
     0
102
RTVSPost2010PropOp36
 70
     1
102
RTVSPost2010Prop37
 90
       50
102
RTVSPost2010PropOp37
 70
     1
102
RTVSPost2010Prop38
140
0.0
102
RTVSPost2010PropOp38
 70
     1
102
RTVSPost2010Prop39
140
1.0
102
RTVSPost2010PropOp39
 70
     1
102
RTVSPost2010Prop40
 90
        0
102
RTVSPost2010PropOp40
 70
     1
102
RTVSPost2010Prop41ColorIndex
 90
       18
102
RTVSPost2010Prop41ColorRGB
 90
        0
102
RTVSPost2010PropOp41
 70
     1
102
RTVSPost2010Prop42
 90
       50
102
RTVSPost2010PropOp42
 70
     1
102
RTVSPost2010Prop43
 90
        3
102
RTVSPost2010PropOp43
 70
     1
102
RTVSPost2010Prop44ColorIndex
 90
        5
102
RTVSPost2010Prop44ColorRGB
 90
      255
102
RTVSPost2010PropOp44
 70
     1
102
RTVSPost2010Prop45
280
     0
102
RTVSPost2010PropOp45
 70
     1
102
RTVSPost2010Prop46
 90
       50
102
RTVSPost2010PropOp46
 70
     1
102
RTVSPost2010Prop47
 90
       50
102
RTVSPost2010PropOp47
 70
     1
102
RTVSPost2010Prop48
 90
       50
102
RTVSPost2010PropOp48
 70
     1
102
RTVSPost2010Prop49
280
     0
102
RTVSPost2010PropOp49
 70
     1
102
RTVSPost2010Prop50
 90
       50
102
RTVSPost2010PropOp50
 70
     1
102
RTVSPost2010Prop51ColorIndex
 90
      256
102
RTVSPost2010Prop51ColorRGB
 90
-16777216
102
RTVSPost2010PropOp51
 70
     0
102
RTVSPost2010Prop52
140
1.0
102
RTVSPost2010PropOp52
 70
     0
102
RTVSPost2010Prop53
 90
        2
102
RTVSPost2010PropOp53
 70
     1
102
RTVSPost2010Prop54
  1
strokes_ogs.tif
102
RTVSPost2010PropOp54
 70
     1
102
RTVSPost2010Prop55
280
     0
102
RTVSPost2010PropOp55
 70
     1
102
RTVSPost2010Prop56
140
1.0
102
RTVSPost2010PropOp56
 70
     1
102
RTVSPost2010Prop57
140
1.0
102
RTVSPost2010PropOp57
 70
     1
102
RTVSPropertyOp0
 70
     1
102
RTVSPropertyOp1
 70
     1
102
RTVSPropertyOp2
 70
     1
102
RTVSPropertyOp3
 70
     1
102
RTVSPropertyOp4
 70
     1
102
RTVSPropertyOp5
 70
     1
102
RTVSPropertyOp6
 70
     1
102
RTVSPropertyOp7
 70
     1
102
RTVSPropertyOp8
 70
     1
102
RTVSPropertyOp9
 70
     1
102
RTVSPropertyOp10
 70
     1
102
RTVSPropertyOp11
 70
     1
102
RTVSPropertyOp12
 70
     1
102
RTVSPropertyOp13
 70
     1
102
RTVSPropertyOp14
 70
     1
102
RTVSPropertyOp15
 70
     1
102
RTVSPropertyOp16
 70
     1
102
RTVSPropertyOp17
 70
     1
102
RTVSPropertyOp18
 70
     1
102
RTVSPropertyOp19
 70
     1
102
RTVSPropertyOp20
 70
     1
102
RTVSPropertyOp21
 70
     1
102
RTVSPropertyOp22
 70
     1
102
RTVSPropertyOp23
 70
     1
102
RTVSPropertyOp24
 70
     1
102
RTVSPropertyOp25
 70
     1
102
RTVSPropertyOp26
 70
     1
102
RTVSPropertyOp27
 70
     1
102
RTVSPropertyOp28
 70
     1
102
RTVSPropertyOp29
 70
     1
102
RTVSPropertyOp30
 70
     1
102
RTVSPropertyOp31
 70
     1
102
RTVSPropertyOp32
 70
     1
102
RTVSPropertyOp33
 70
     1
102
RTVSPropertyOp34
 70
     1
102
RTVSPropertyOp35
 70
     1
102
RTVSPropertyOp36
 70
     1
102
RTVSPropertyOp37
 70
     1
102
RTVSPropertyOp38
 70
     1
102
RTVSPropertyOp39
 70
     1
102
RTVSPropertyOp40
 70
     1
102
RTVSPropertyOp41
 70
     1
102
RTVSPropertyOp42
 70
     1
102
RTVSPropertyOp43
 70
     1
102
RTVSPropertyOp44
 70
     1
102
RTVSPropertyOp45
 70
     1
102
RTVSPropertyOp46
 70
     1
102
RTVSPropertyOp47
 70
     1
102
RTVSPropertyOp48
 70
     1
102
RTVSPropertyOp49
 70
     1
102
RTVSPropertyOp50
 70
     1
102
RTVSPropertyOp51
 70
     0
102
RTVSPropertyOp52
 70
     0
102
RTVSPropertyOp53
 70
     1
102
RTVSPropertyOp54
 70
     1
102
RTVSPropertyOp55
 70
     1
102
RTVSPropertyOp56
 70
     1
102
RTVSPropertyOp57
 70
     1
102
RTVSPropertyOp58
 70
     1
102
RTVSPropertyOp59
 70
     1
102
RTVSPropertyOp60
 70
     1
102
RTVSPropertyOp61
 70
     1
102
RTVSPropertyOp62
 70
     1
  0
XRECORD
  5
39F
102
{ACAD_REACTORS
330
39E
102
}
330
39E
100
AcDbXrecord
280
     1
102
RTVSPost2010Prop28
280
     0
102
RTVSPost2010PropOp28
 70
     1
102
RTVSPost2010Prop29
280
     1
102
RTVSPost2010PropOp29
 70
     1
102
RTVSPost2010Prop30
280
     1
102
RTVSPost2010PropOp30
 70
     1
102
RTVSPost2010Prop31
280
     0
102
RTVSPost2010PropOp31
 70
     1
102
RTVSPost2010Prop32
280
     0
102
RTVSPost2010PropOp32
 70
     1
102
RTVSPost2010Prop33
280
     0
102
RTVSPost2010PropOp33
 70
     1
102
RTVSPost2010Prop34
280
     0
102
RTVSPost2010PropOp34
 70
     1
102
RTVSPost2010Prop35
280
     0
102
RTVSPost2010PropOp35
 70
     1
102
RTVSPost2010Prop36
280
     0
102
RTVSPost2010PropOp36
 70
     1
102
RTVSPost2010Prop37
 90
       50
102
RTVSPost2010PropOp37
 70
     1
102
RTVSPost2010Prop38
140
0.0
102
RTVSPost2010PropOp38
 70
     1
102
RTVSPost2010Prop39
140
1.0
102
RTVSPost2010PropOp39
 70
     1
102
RTVSPost2010Prop40
 90
        0
102
RTVSPost2010PropOp40
 70
     1
102
RTVSPost2010Prop41ColorIndex
 90
       18
102
RTVSPost2010Prop41ColorRGB
 90
        0
102
RTVSPost2010PropOp41
 70
     1
102
RTVSPost2010Prop42
 90
       50
102
RTVSPost2010PropOp42
 70
     1
102
RTVSPost2010Prop43
 90
        3
102
RTVSPost2010PropOp43
 70
     1
102
RTVSPost2010Prop44ColorIndex
 90
        5
102
RTVSPost2010Prop44ColorRGB
 90
      255
102
RTVSPost2010PropOp44
 70
     1
102
RTVSPost2010Prop45
280
     0
102
RTVSPost2010PropOp45
 70
     1
102
RTVSPost2010Prop46
 90
       50
102
RTVSPost2010PropOp46
 70
     1
102
RTVSPost2010Prop47
 90
       50
102
RTVSPost2010PropOp47
 70
     1
102
RTVSPost2010Prop48
 90
       50
102
RTVSPost2010PropOp48
 70
     1
102
RTVSPost2010Prop49
280
     0
102
RTVSPost2010PropOp49
 70
     1
102
RTVSPost2010Prop50
 90
       50
102
RTVSPost2010PropOp50
 70
     1
102
RTVSPost2010Prop51ColorIndex
 90
      256
102
RTVSPost2010Prop51ColorRGB
 90
-16777216
102
RTVSPost2010PropOp51
 70
     0
102
RTVSPost2010Prop52
140
1.0
102
RTVSPost2010PropOp52
 70
     0
102
RTVSPost2010Prop53
 90
        2
102
RTVSPost2010PropOp53
 70
     1
102
RTVSPost2010Prop54
  1
strokes_ogs.tif
102
RTVSPost2010PropOp54
 70
     1
102
RTVSPost2010Prop55
280
     0
102
RTVSPost2010PropOp55
 70
     1
102
RTVSPost2010Prop56
140
1.0
102
RTVSPost2010PropOp56
 70
     1
102
RTVSPost2010Prop57
140
1.0
102
RTVSPost2010PropOp57
 70
     1
102
RTVSPropertyOp0
 70
     1
102
RTVSPropertyOp1
 70
     1
102
RTVSPropertyOp2
 70
     1
102
RTVSPropertyOp3
 70
     1
102
RTVSPropertyOp4
 70
     1
102
RTVSPropertyOp5
 70
     1
102
RTVSPropertyOp6
 70
     1
102
RTVSPropertyOp7
 70
     1
102
RTVSPropertyOp8
 70
     1
102
RTVSPropertyOp9
 70
     1
102
RTVSPropertyOp10
 70
     1
102
RTVSPropertyOp11
 70
     1
102
RTVSPropertyOp12
 70
     1
102
RTVSPropertyOp13
 70
     1
102
RTVSPropertyOp14
 70
     1
102
RTVSPropertyOp15
 70
     1
102
RTVSPropertyOp16
 70
     1
102
RTVSPropertyOp17
 70
     1
102
RTVSPropertyOp18
 70
     1
102
RTVSPropertyOp19
 70
     1
102
RTVSPropertyOp20
 70
     1
102
RTVSPropertyOp21
 70
     1
102
RTVSPropertyOp22
 70
     1
102
RTVSPropertyOp23
 70
     1
102
RTVSPropertyOp24
 70
     1
102
RTVSPropertyOp25
 70
     1
102
RTVSPropertyOp26
 70
     1
102
RTVSPropertyOp27
 70
     1
102
RTVSPropertyOp28
 70
     1
102
RTVSPropertyOp29
 70
     1
102
RTVSPropertyOp30
 70
     1
102
RTVSPropertyOp31
 70
     1
102
RTVSPropertyOp32
 70
     1
102
RTVSPropertyOp33
 70
     1
102
RTVSPropertyOp34
 70
     1
102
RTVSPropertyOp35
 70
     1
102
RTVSPropertyOp36
 70
     1
102
RTVSPropertyOp37
 70
     1
102
RTVSPropertyOp38
 70
     1
102
RTVSPropertyOp39
 70
     1
102
RTVSPropertyOp40
 70
     1
102
RTVSPropertyOp41
 70
     1
102
RTVSPropertyOp42
 70
     1
102
RTVSPropertyOp43
 70
     1
102
RTVSPropertyOp44
 70
     1
102
RTVSPropertyOp45
 70
     1
102
RTVSPropertyOp46
 70
     1
102
RTVSPropertyOp47
 70
     1
102
RTVSPropertyOp48
 70
     1
102
RTVSPropertyOp49
 70
     1
102
RTVSPropertyOp50
 70
     1
102
RTVSPropertyOp51
 70
     0
102
RTVSPropertyOp52
 70
     0
102
RTVSPropertyOp53
 70
     1
102
RTVSPropertyOp54
 70
     1
102
RTVSPropertyOp55
 70
     1
102
RTVSPropertyOp56
 70
     1
102
RTVSPropertyOp57
 70
     1
102
RTVSPropertyOp58
 70
     1
102
RTVSPropertyOp59
 70
     1
102
RTVSPropertyOp60
 70
     1
102
RTVSPropertyOp61
 70
     1
102
RTVSPropertyOp62
 70
     1
  0
XRECORD
  5
3A1
102
{ACAD_REACTORS
330
3A0
102
}
330
3A0
100
AcDbXrecord
280
     1
102
RTVSPost2010Prop28
280
     0
102
RTVSPost2010PropOp28
 70
     1
102
RTVSPost2010Prop29
280
     1
102
RTVSPost2010PropOp29
 70
     1
102
RTVSPost2010Prop30
280
     1
102
RTVSPost2010PropOp30
 70
     1
102
RTVSPost2010Prop31
280
     0
102
RTVSPost2010PropOp31
 70
     1
102
RTVSPost2010Prop32
280
     0
102
RTVSPost2010PropOp32
 70
     1
102
RTVSPost2010Prop33
280
     0
102
RTVSPost2010PropOp33
 70
     1
102
RTVSPost2010Prop34
280
     0
102
RTVSPost2010PropOp34
 70
     1
102
RTVSPost2010Prop35
280
     0
102
RTVSPost2010PropOp35
 70
     1
102
RTVSPost2010Prop36
280
     0
102
RTVSPost2010PropOp36
 70
     1
102
RTVSPost2010Prop37
 90
       50
102
RTVSPost2010PropOp37
 70
     1
102
RTVSPost2010Prop38
140
0.0
102
RTVSPost2010PropOp38
 70
     1
102
RTVSPost2010Prop39
140
1.0
102
RTVSPost2010PropOp39
 70
     1
102
RTVSPost2010Prop40
 90
        0
102
RTVSPost2010PropOp40
 70
     1
102
RTVSPost2010Prop41ColorIndex
 90
       18
102
RTVSPost2010Prop41ColorRGB
 90
        0
102
RTVSPost2010PropOp41
 70
     1
102
RTVSPost2010Prop42
 90
       50
102
RTVSPost2010PropOp42
 70
     1
102
RTVSPost2010Prop43
 90
        3
102
RTVSPost2010PropOp43
 70
     1
102
RTVSPost2010Prop44ColorIndex
 90
        5
102
RTVSPost2010Prop44ColorRGB
 90
      255
102
RTVSPost2010PropOp44
 70
     1
102
RTVSPost2010Prop45
280
     0
102
RTVSPost2010PropOp45
 70
     1
102
RTVSPost2010Prop46
 90
       50
102
RTVSPost2010PropOp46
 70
     1
102
RTVSPost2010Prop47
 90
       50
102
RTVSPost2010PropOp47
 70
     1
102
RTVSPost2010Prop48
 90
       50
102
RTVSPost2010PropOp48
 70
     1
102
RTVSPost2010Prop49
280
     0
102
RTVSPost2010PropOp49
 70
     1
102
RTVSPost2010Prop50
 90
       50
102
RTVSPost2010PropOp50
 70
     1
102
RTVSPost2010Prop51ColorIndex
 90
      256
102
RTVSPost2010Prop51ColorRGB
 90
-16777216
102
RTVSPost2010PropOp51
 70
     0
102
RTVSPost2010Prop52
140
1.0
102
RTVSPost2010PropOp52
 70
     0
102
RTVSPost2010Prop53
 90
        2
102
RTVSPost2010PropOp53
 70
     1
102
RTVSPost2010Prop54
  1
strokes_ogs.tif
102
RTVSPost2010PropOp54
 70
     1
102
RTVSPost2010Prop55
280
     0
102
RTVSPost2010PropOp55
 70
     1
102
RTVSPost2010Prop56
140
1.0
102
RTVSPost2010PropOp56
 70
     1
102
RTVSPost2010Prop57
140
1.0
102
RTVSPost2010PropOp57
 70
     1
102
RTVSPropertyOp0
 70
     1
102
RTVSPropertyOp1
 70
     1
102
RTVSPropertyOp2
 70
     1
102
RTVSPropertyOp3
 70
     1
102
RTVSPropertyOp4
 70
     1
102
RTVSPropertyOp5
 70
     1
102
RTVSPropertyOp6
 70
     1
102
RTVSPropertyOp7
 70
     1
102
RTVSPropertyOp8
 70
     1
102
RTVSPropertyOp9
 70
     1
102
RTVSPropertyOp10
 70
     1
102
RTVSPropertyOp11
 70
     1
102
RTVSPropertyOp12
 70
     1
102
RTVSPropertyOp13
 70
     1
102
RTVSPropertyOp14
 70
     1
102
RTVSPropertyOp15
 70
     1
102
RTVSPropertyOp16
 70
     1
102
RTVSPropertyOp17
 70
     1
102
RTVSPropertyOp18
 70
     1
102
RTVSPropertyOp19
 70
     1
102
RTVSPropertyOp20
 70
     1
102
RTVSPropertyOp21
 70
     1
102
RTVSPropertyOp22
 70
     1
102
RTVSPropertyOp23
 70
     1
102
RTVSPropertyOp24
 70
     1
102
RTVSPropertyOp25
 70
     1
102
RTVSPropertyOp26
 70
     1
102
RTVSPropertyOp27
 70
     1
102
RTVSPropertyOp28
 70
     1
102
RTVSPropertyOp29
 70
     1
102
RTVSPropertyOp30
 70
     1
102
RTVSPropertyOp31
 70
     1
102
RTVSPropertyOp32
 70
     1
102
RTVSPropertyOp33
 70
     1
102
RTVSPropertyOp34
 70
     1
102
RTVSPropertyOp35
 70
     1
102
RTVSPropertyOp36
 70
     1
102
RTVSPropertyOp37
 70
     1
102
RTVSPropertyOp38
 70
     1
102
RTVSPropertyOp39
 70
     1
102
RTVSPropertyOp40
 70
     1
102
RTVSPropertyOp41
 70
     1
102
RTVSPropertyOp42
 70
     1
102
RTVSPropertyOp43
 70
     1
102
RTVSPropertyOp44
 70
     1
102
RTVSPropertyOp45
 70
     1
102
RTVSPropertyOp46
 70
     1
102
RTVSPropertyOp47
 70
     1
102
RTVSPropertyOp48
 70
     1
102
RTVSPropertyOp49
 70
     1
102
RTVSPropertyOp50
 70
     1
102
RTVSPropertyOp51
 70
     0
102
RTVSPropertyOp52
 70
     0
102
RTVSPropertyOp53
 70
     1
102
RTVSPropertyOp54
 70
     1
102
RTVSPropertyOp55
 70
     1
102
RTVSPropertyOp56
 70
     1
102
RTVSPropertyOp57
 70
     1
102
RTVSPropertyOp58
 70
     1
102
RTVSPropertyOp59
 70
     1
102
RTVSPropertyOp60
 70
     1
102
RTVSPropertyOp61
 70
     1
102
RTVSPropertyOp62
 70
     1
  0
XRECORD
  5
3B1
102
{ACAD_REACTORS
330
3B0
102
}
330
3B0
100
AcDbXrecord
280
     1
102
RTVSPost2010Prop28
280
     0
102
RTVSPost2010PropOp28
 70
     0
102
RTVSPost2010Prop29
280
     1
102
RTVSPost2010PropOp29
 70
     0
102
RTVSPost2010Prop30
280
     1
102
RTVSPost2010PropOp30
 70
     0
102
RTVSPost2010Prop31
280
     0
102
RTVSPost2010PropOp31
 70
     0
102
RTVSPost2010Prop32
280
     0
102
RTVSPost2010PropOp32
 70
     0
102
RTVSPost2010Prop33
280
     0
102
RTVSPost2010PropOp33
 70
     0
102
RTVSPost2010Prop34
280
     0
102
RTVSPost2010PropOp34
 70
     0
102
RTVSPost2010Prop35
280
     0
102
RTVSPost2010PropOp35
 70
     0
102
RTVSPost2010Prop36
280
     0
102
RTVSPost2010PropOp36
 70
     0
102
RTVSPost2010Prop37
 90
       50
102
RTVSPost2010PropOp37
 70
     0
102
RTVSPost2010Prop38
140
0.0
102
RTVSPost2010PropOp38
 70
     0
102
RTVSPost2010Prop39
140
1.0
102
RTVSPost2010PropOp39
 70
     0
102
RTVSPost2010Prop40
 90
        0
102
RTVSPost2010PropOp40
 70
     0
102
RTVSPost2010Prop41ColorIndex
 90
       18
102
RTVSPost2010Prop41ColorRGB
 90
        0
102
RTVSPost2010PropOp41
 70
     0
102
RTVSPost2010Prop42
 90
       50
102
RTVSPost2010PropOp42
 70
     0
102
RTVSPost2010Prop43
 90
        3
102
RTVSPost2010PropOp43
 70
     0
102
RTVSPost2010Prop44ColorIndex
 90
        5
102
RTVSPost2010Prop44ColorRGB
 90
      255
102
RTVSPost2010PropOp44
 70
     0
102
RTVSPost2010Prop45
280
     0
102
RTVSPost2010PropOp45
 70
     0
102
RTVSPost2010Prop46
 90
       50
102
RTVSPost2010PropOp46
 70
     0
102
RTVSPost2010Prop47
 90
       50
102
RTVSPost2010PropOp47
 70
     0
102
RTVSPost2010Prop48
 90
       50
102
RTVSPost2010PropOp48
 70
     0
102
RTVSPost2010Prop49
280
     0
102
RTVSPost2010PropOp49
 70
     0
102
RTVSPost2010Prop50
 90
       50
102
RTVSPost2010PropOp50
 70
     0
102
RTVSPost2010Prop51ColorIndex
 90
      256
102
RTVSPost2010Prop51ColorRGB
 90
-16777216
102
RTVSPost2010PropOp51
 70
     0
102
RTVSPost2010Prop52
140
1.0
102
RTVSPost2010PropOp52
 70
     0
102
RTVSPost2010Prop53
 90
        2
102
RTVSPost2010PropOp53
 70
     0
102
RTVSPost2010Prop54
  1
strokes_ogs.tif
102
RTVSPost2010PropOp54
 70
     0
102
RTVSPost2010Prop55
280
     0
102
RTVSPost2010PropOp55
 70
     0
102
RTVSPost2010Prop56
140
1.0
102
RTVSPost2010PropOp56
 70
     0
102
RTVSPost2010Prop57
140
1.0
102
RTVSPost2010PropOp57
 70
     0
102
RTVSPropertyOp0
 70
     0
102
RTVSPropertyOp1
 70
     0
102
RTVSPropertyOp2
 70
     0
102
RTVSPropertyOp3
 70
     0
102
RTVSPropertyOp4
 70
     0
102
RTVSPropertyOp5
 70
     0
102
RTVSPropertyOp6
 70
     0
102
RTVSPropertyOp7
 70
     0
102
RTVSPropertyOp8
 70
     0
102
RTVSPropertyOp9
 70
     0
102
RTVSPropertyOp10
 70
     0
102
RTVSPropertyOp11
 70
     0
102
RTVSPropertyOp12
 70
     0
102
RTVSPropertyOp13
 70
     0
102
RTVSPropertyOp14
 70
     2
102
RTVSPropertyOp15
 70
     0
102
RTVSPropertyOp16
 70
     0
102
RTVSPropertyOp17
 70
     0
102
RTVSPropertyOp18
 70
     0
102
RTVSPropertyOp19
 70
     0
102
RTVSPropertyOp20
 70
     0
102
RTVSPropertyOp21
 70
     0
102
RTVSPropertyOp22
 70
     0
102
RTVSPropertyOp23
 70
     0
102
RTVSPropertyOp24
 70
     0
102
RTVSPropertyOp25
 70
     0
102
RTVSPropertyOp26
 70
     0
102
RTVSPropertyOp27
 70
     0
102
RTVSPropertyOp28
 70
     0
102
RTVSPropertyOp29
 70
     0
102
RTVSPropertyOp30
 70
     0
102
RTVSPropertyOp31
 70
     0
102
RTVSPropertyOp32
 70
     0
102
RTVSPropertyOp33
 70
     0
102
RTVSPropertyOp34
 70
     0
102
RTVSPropertyOp35
 70
     0
102
RTVSPropertyOp36
 70
     0
102
RTVSPropertyOp37
 70
     0
102
RTVSPropertyOp38
 70
     0
102
RTVSPropertyOp39
 70
     0
102
RTVSPropertyOp40
 70
     0
102
RTVSPropertyOp41
 70
     0
102
RTVSPropertyOp42
 70
     0
102
RTVSPropertyOp43
 70
     0
102
RTVSPropertyOp44
 70
     0
102
RTVSPropertyOp45
 70
     0
102
RTVSPropertyOp46
 70
     0
102
RTVSPropertyOp47
 70
     0
102
RTVSPropertyOp48
 70
     0
102
RTVSPropertyOp49
 70
     0
102
RTVSPropertyOp50
 70
     0
102
RTVSPropertyOp51
 70
     0
102
RTVSPropertyOp52
 70
     0
102
RTVSPropertyOp53
 70
     0
102
RTVSPropertyOp54
 70
     0
102
RTVSPropertyOp55
 70
     0
102
RTVSPropertyOp56
 70
     0
102
RTVSPropertyOp57
 70
     0
102
RTVSPropertyOp58
 70
     1
102
RTVSPropertyOp59
 70
     1
102
RTVSPropertyOp60
 70
     1
102
RTVSPropertyOp61
 70
     1
102
RTVSPropertyOp62
 70
     1
  0
XRECORD
  5
3A9
102
{ACAD_REACTORS
330
3A8
102
}
330
3A8
100
AcDbXrecord
280
     1
102
RTVSPost2010Prop28
280
     0
102
RTVSPost2010PropOp28
 70
     1
102
RTVSPost2010Prop29
280
     1
102
RTVSPost2010PropOp29
 70
     1
102
RTVSPost2010Prop30
280
     1
102
RTVSPost2010PropOp30
 70
     1
102
RTVSPost2010Prop31
280
     0
102
RTVSPost2010PropOp31
 70
     1
102
RTVSPost2010Prop32
280
     0
102
RTVSPost2010PropOp32
 70
     1
102
RTVSPost2010Prop33
280
     0
102
RTVSPost2010PropOp33
 70
     1
102
RTVSPost2010Prop34
280
     0
102
RTVSPost2010PropOp34
 70
     1
102
RTVSPost2010Prop35
280
     0
102
RTVSPost2010PropOp35
 70
     1
102
RTVSPost2010Prop36
280
     0
102
RTVSPost2010PropOp36
 70
     1
102
RTVSPost2010Prop37
 90
       50
102
RTVSPost2010PropOp37
 70
     1
102
RTVSPost2010Prop38
140
0.0
102
RTVSPost2010PropOp38
 70
     1
102
RTVSPost2010Prop39
140
1.0
102
RTVSPost2010PropOp39
 70
     1
102
RTVSPost2010Prop40
 90
        0
102
RTVSPost2010PropOp40
 70
     1
102
RTVSPost2010Prop41ColorIndex
 90
       18
102
RTVSPost2010Prop41ColorRGB
 90
        0
102
RTVSPost2010PropOp41
 70
     1
102
RTVSPost2010Prop42
 90
       50
102
RTVSPost2010PropOp42
 70
     1
102
RTVSPost2010Prop43
 90
        3
102
RTVSPost2010PropOp43
 70
     1
102
RTVSPost2010Prop44ColorIndex
 90
        5
102
RTVSPost2010Prop44ColorRGB
 90
      255
102
RTVSPost2010PropOp44
 70
     1
102
RTVSPost2010Prop45
280
     0
102
RTVSPost2010PropOp45
 70
     1
102
RTVSPost2010Prop46
 90
       50
102
RTVSPost2010PropOp46
 70
     1
102
RTVSPost2010Prop47
 90
       50
102
RTVSPost2010PropOp47
 70
     1
102
RTVSPost2010Prop48
 90
       50
102
RTVSPost2010PropOp48
 70
     1
102
RTVSPost2010Prop49
280
     0
102
RTVSPost2010PropOp49
 70
     1
102
RTVSPost2010Prop50
 90
       50
102
RTVSPost2010PropOp50
 70
     1
102
RTVSPost2010Prop51ColorIndex
 90
      256
102
RTVSPost2010Prop51ColorRGB
 90
-16777216
102
RTVSPost2010PropOp51
 70
     0
102
RTVSPost2010Prop52
140
1.0
102
RTVSPost2010PropOp52
 70
     0
102
RTVSPost2010Prop53
 90
        2
102
RTVSPost2010PropOp53
 70
     1
102
RTVSPost2010Prop54
  1
strokes_ogs.tif
102
RTVSPost2010PropOp54
 70
     1
102
RTVSPost2010Prop55
280
     0
102
RTVSPost2010PropOp55
 70
     1
102
RTVSPost2010Prop56
140
1.0
102
RTVSPost2010PropOp56
 70
     1
102
RTVSPost2010Prop57
140
1.0
102
RTVSPost2010PropOp57
 70
     1
102
RTVSPropertyOp0
 70
     1
102
RTVSPropertyOp1
 70
     1
102
RTVSPropertyOp2
 70
     1
102
RTVSPropertyOp3
 70
     1
102
RTVSPropertyOp4
 70
     1
102
RTVSPropertyOp5
 70
     1
102
RTVSPropertyOp6
 70
     1
102
RTVSPropertyOp7
 70
     1
102
RTVSPropertyOp8
 70
     1
102
RTVSPropertyOp9
 70
     1
102
RTVSPropertyOp10
 70
     1
102
RTVSPropertyOp11
 70
     1
102
RTVSPropertyOp12
 70
     1
102
RTVSPropertyOp13
 70
     1
102
RTVSPropertyOp14
 70
     1
102
RTVSPropertyOp15
 70
     1
102
RTVSPropertyOp16
 70
     1
102
RTVSPropertyOp17
 70
     1
102
RTVSPropertyOp18
 70
     1
102
RTVSPropertyOp19
 70
     1
102
RTVSPropertyOp20
 70
     1
102
RTVSPropertyOp21
 70
     1
102
RTVSPropertyOp22
 70
     1
102
RTVSPropertyOp23
 70
     1
102
RTVSPropertyOp24
 70
     1
102
RTVSPropertyOp25
 70
     1
102
RTVSPropertyOp26
 70
     1
102
RTVSPropertyOp27
 70
     1
102
RTVSPropertyOp28
 70
     1
102
RTVSPropertyOp29
 70
     1
102
RTVSPropertyOp30
 70
     1
102
RTVSPropertyOp31
 70
     1
102
RTVSPropertyOp32
 70
     1
102
RTVSPropertyOp33
 70
     1
102
RTVSPropertyOp34
 70
     1
102
RTVSPropertyOp35
 70
     1
102
RTVSPropertyOp36
 70
     1
102
RTVSPropertyOp37
 70
     1
102
RTVSPropertyOp38
 70
     1
102
RTVSPropertyOp39
 70
     1
102
RTVSPropertyOp40
 70
     1
102
RTVSPropertyOp41
 70
     1
102
RTVSPropertyOp42
 70
     1
102
RTVSPropertyOp43
 70
     1
102
RTVSPropertyOp44
 70
     1
102
RTVSPropertyOp45
 70
     1
102
RTVSPropertyOp46
 70
     1
102
RTVSPropertyOp47
 70
     1
102
RTVSPropertyOp48
 70
     1
102
RTVSPropertyOp49
 70
     1
102
RTVSPropertyOp50
 70
     1
102
RTVSPropertyOp51
 70
     0
102
RTVSPropertyOp52
 70
     0
102
RTVSPropertyOp53
 70
     1
102
RTVSPropertyOp54
 70
     1
102
RTVSPropertyOp55
 70
     1
102
RTVSPropertyOp56
 70
     1
102
RTVSPropertyOp57
 70
     1
102
RTVSPropertyOp58
 70
     1
102
RTVSPropertyOp59
 70
     1
102
RTVSPropertyOp60
 70
     1
102
RTVSPropertyOp61
 70
     1
102
RTVSPropertyOp62
 70
     1
  0
XRECORD
  5
38D
102
{ACAD_REACTORS
330
38C
102
}
330
38C
100
AcDbXrecord
280
     1
102
RTVSPost2010Prop28
280
     0
102
RTVSPost2010PropOp28
 70
     1
102
RTVSPost2010Prop29
280
     1
102
RTVSPost2010PropOp29
 70
     1
102
RTVSPost2010Prop30
280
     1
102
RTVSPost2010PropOp30
 70
     1
102
RTVSPost2010Prop31
280
     0
102
RTVSPost2010PropOp31
 70
     1
102
RTVSPost2010Prop32
280
     0
102
RTVSPost2010PropOp32
 70
     1
102
RTVSPost2010Prop33
280
     0
102
RTVSPost2010PropOp33
 70
     1
102
RTVSPost2010Prop34
280
     0
102
RTVSPost2010PropOp34
 70
     1
102
RTVSPost2010Prop35
280
     0
102
RTVSPost2010PropOp35
 70
     1
102
RTVSPost2010Prop36
280
     0
102
RTVSPost2010PropOp36
 70
     1
102
RTVSPost2010Prop37
 90
       50
102
RTVSPost2010PropOp37
 70
     1
102
RTVSPost2010Prop38
140
0.0
102
RTVSPost2010PropOp38
 70
     1
102
RTVSPost2010Prop39
140
1.0
102
RTVSPost2010PropOp39
 70
     1
102
RTVSPost2010Prop40
 90
        0
102
RTVSPost2010PropOp40
 70
     1
102
RTVSPost2010Prop41ColorIndex
 90
       18
102
RTVSPost2010Prop41ColorRGB
 90
        0
102
RTVSPost2010PropOp41
 70
     1
102
RTVSPost2010Prop42
 90
       50
102
RTVSPost2010PropOp42
 70
     1
102
RTVSPost2010Prop43
 90
        3
102
RTVSPost2010PropOp43
 70
     1
102
RTVSPost2010Prop44ColorIndex
 90
        5
102
RTVSPost2010Prop44ColorRGB
 90
      255
102
RTVSPost2010PropOp44
 70
     1
102
RTVSPost2010Prop45
280
     0
102
RTVSPost2010PropOp45
 70
     1
102
RTVSPost2010Prop46
 90
       50
102
RTVSPost2010PropOp46
 70
     1
102
RTVSPost2010Prop47
 90
       50
102
RTVSPost2010PropOp47
 70
     1
102
RTVSPost2010Prop48
 90
       50
102
RTVSPost2010PropOp48
 70
     1
102
RTVSPost2010Prop49
280
     0
102
RTVSPost2010PropOp49
 70
     1
102
RTVSPost2010Prop50
 90
       50
102
RTVSPost2010PropOp50
 70
     1
102
RTVSPost2010Prop51ColorIndex
 90
      256
102
RTVSPost2010Prop51ColorRGB
 90
-16777216
102
RTVSPost2010PropOp51
 70
     0
102
RTVSPost2010Prop52
140
1.0
102
RTVSPost2010PropOp52
 70
     0
102
RTVSPost2010Prop53
 90
        2
102
RTVSPost2010PropOp53
 70
     1
102
RTVSPost2010Prop54
  1
strokes_ogs.tif
102
RTVSPost2010PropOp54
 70
     1
102
RTVSPost2010Prop55
280
     0
102
RTVSPost2010PropOp55
 70
     1
102
RTVSPost2010Prop56
140
1.0
102
RTVSPost2010PropOp56
 70
     1
102
RTVSPost2010Prop57
140
1.0
102
RTVSPost2010PropOp57
 70
     1
102
RTVSPropertyOp0
 70
     1
102
RTVSPropertyOp1
 70
     1
102
RTVSPropertyOp2
 70
     1
102
RTVSPropertyOp3
 70
     1
102
RTVSPropertyOp4
 70
     1
102
RTVSPropertyOp5
 70
     1
102
RTVSPropertyOp6
 70
     1
102
RTVSPropertyOp7
 70
     1
102
RTVSPropertyOp8
 70
     1
102
RTVSPropertyOp9
 70
     1
102
RTVSPropertyOp10
 70
     1
102
RTVSPropertyOp11
 70
     1
102
RTVSPropertyOp12
 70
     1
102
RTVSPropertyOp13
 70
     1
102
RTVSPropertyOp14
 70
     1
102
RTVSPropertyOp15
 70
     1
102
RTVSPropertyOp16
 70
     1
102
RTVSPropertyOp17
 70
     1
102
RTVSPropertyOp18
 70
     1
102
RTVSPropertyOp19
 70
     1
102
RTVSPropertyOp20
 70
     1
102
RTVSPropertyOp21
 70
     1
102
RTVSPropertyOp22
 70
     1
102
RTVSPropertyOp23
 70
     1
102
RTVSPropertyOp24
 70
     1
102
RTVSPropertyOp25
 70
     1
102
RTVSPropertyOp26
 70
     1
102
RTVSPropertyOp27
 70
     1
102
RTVSPropertyOp28
 70
     1
102
RTVSPropertyOp29
 70
     1
102
RTVSPropertyOp30
 70
     1
102
RTVSPropertyOp31
 70
     1
102
RTVSPropertyOp32
 70
     1
102
RTVSPropertyOp33
 70
     1
102
RTVSPropertyOp34
 70
     1
102
RTVSPropertyOp35
 70
     1
102
RTVSPropertyOp36
 70
     1
102
RTVSPropertyOp37
 70
     1
102
RTVSPropertyOp38
 70
     1
102
RTVSPropertyOp39
 70
     1
102
RTVSPropertyOp40
 70
     1
102
RTVSPropertyOp41
 70
     1
102
RTVSPropertyOp42
 70
     1
102
RTVSPropertyOp43
 70
     1
102
RTVSPropertyOp44
 70
     1
102
RTVSPropertyOp45
 70
     1
102
RTVSPropertyOp46
 70
     1
102
RTVSPropertyOp47
 70
     1
102
RTVSPropertyOp48
 70
     1
102
RTVSPropertyOp49
 70
     1
102
RTVSPropertyOp50
 70
     1
102
RTVSPropertyOp51
 70
     0
102
RTVSPropertyOp52
 70
     0
102
RTVSPropertyOp53
 70
     1
102
RTVSPropertyOp54
 70
     1
102
RTVSPropertyOp55
 70
     1
102
RTVSPropertyOp56
 70
     1
102
RTVSPropertyOp57
 70
     1
102
RTVSPropertyOp58
 70
     1
102
RTVSPropertyOp59
 70
     1
102
RTVSPropertyOp60
 70
     1
102
RTVSPropertyOp61
 70
     1
102
RTVSPropertyOp62
 70
     1
  0
XRECORD
  5
38F
102
{ACAD_REACTORS
330
38E
102
}
330
38E
100
AcDbXrecord
280
     1
102
RTVSPost2010Prop28
280
     0
102
RTVSPost2010PropOp28
 70
     1
102
RTVSPost2010Prop29
280
     1
102
RTVSPost2010PropOp29
 70
     1
102
RTVSPost2010Prop30
280
     1
102
RTVSPost2010PropOp30
 70
     1
102
RTVSPost2010Prop31
280
     0
102
RTVSPost2010PropOp31
 70
     1
102
RTVSPost2010Prop32
280
     0
102
RTVSPost2010PropOp32
 70
     1
102
RTVSPost2010Prop33
280
     0
102
RTVSPost2010PropOp33
 70
     1
102
RTVSPost2010Prop34
280
     0
102
RTVSPost2010PropOp34
 70
     1
102
RTVSPost2010Prop35
280
     0
102
RTVSPost2010PropOp35
 70
     1
102
RTVSPost2010Prop36
280
     0
102
RTVSPost2010PropOp36
 70
     1
102
RTVSPost2010Prop37
 90
       50
102
RTVSPost2010PropOp37
 70
     1
102
RTVSPost2010Prop38
140
0.0
102
RTVSPost2010PropOp38
 70
     1
102
RTVSPost2010Prop39
140
1.0
102
RTVSPost2010PropOp39
 70
     1
102
RTVSPost2010Prop40
 90
        0
102
RTVSPost2010PropOp40
 70
     1
102
RTVSPost2010Prop41ColorIndex
 90
       18
102
RTVSPost2010Prop41ColorRGB
 90
        0
102
RTVSPost2010PropOp41
 70
     1
102
RTVSPost2010Prop42
 90
       50
102
RTVSPost2010PropOp42
 70
     1
102
RTVSPost2010Prop43
 90
        3
102
RTVSPost2010PropOp43
 70
     1
102
RTVSPost2010Prop44ColorIndex
 90
        5
102
RTVSPost2010Prop44ColorRGB
 90
      255
102
RTVSPost2010PropOp44
 70
     1
102
RTVSPost2010Prop45
280
     0
102
RTVSPost2010PropOp45
 70
     1
102
RTVSPost2010Prop46
 90
       50
102
RTVSPost2010PropOp46
 70
     1
102
RTVSPost2010Prop47
 90
       50
102
RTVSPost2010PropOp47
 70
     1
102
RTVSPost2010Prop48
 90
       50
102
RTVSPost2010PropOp48
 70
     1
102
RTVSPost2010Prop49
280
     0
102
RTVSPost2010PropOp49
 70
     1
102
RTVSPost2010Prop50
 90
       50
102
RTVSPost2010PropOp50
 70
     1
102
RTVSPost2010Prop51ColorIndex
 90
      256
102
RTVSPost2010Prop51ColorRGB
 90
-16777216
102
RTVSPost2010PropOp51
 70
     0
102
RTVSPost2010Prop52
140
1.0
102
RTVSPost2010PropOp52
 70
     0
102
RTVSPost2010Prop53
 90
        2
102
RTVSPost2010PropOp53
 70
     1
102
RTVSPost2010Prop54
  1
strokes_ogs.tif
102
RTVSPost2010PropOp54
 70
     1
102
RTVSPost2010Prop55
280
     0
102
RTVSPost2010PropOp55
 70
     1
102
RTVSPost2010Prop56
140
1.0
102
RTVSPost2010PropOp56
 70
     1
102
RTVSPost2010Prop57
140
1.0
102
RTVSPost2010PropOp57
 70
     1
102
RTVSPropertyOp0
 70
     1
102
RTVSPropertyOp1
 70
     1
102
RTVSPropertyOp2
 70
     1
102
RTVSPropertyOp3
 70
     1
102
RTVSPropertyOp4
 70
     1
102
RTVSPropertyOp5
 70
     1
102
RTVSPropertyOp6
 70
     1
102
RTVSPropertyOp7
 70
     1
102
RTVSPropertyOp8
 70
     1
102
RTVSPropertyOp9
 70
     1
102
RTVSPropertyOp10
 70
     1
102
RTVSPropertyOp11
 70
     1
102
RTVSPropertyOp12
 70
     1
102
RTVSPropertyOp13
 70
     1
102
RTVSPropertyOp14
 70
     1
102
RTVSPropertyOp15
 70
     1
102
RTVSPropertyOp16
 70
     1
102
RTVSPropertyOp17
 70
     1
102
RTVSPropertyOp18
 70
     1
102
RTVSPropertyOp19
 70
     1
102
RTVSPropertyOp20
 70
     1
102
RTVSPropertyOp21
 70
     1
102
RTVSPropertyOp22
 70
     1
102
RTVSPropertyOp23
 70
     1
102
RTVSPropertyOp24
 70
     1
102
RTVSPropertyOp25
 70
     1
102
RTVSPropertyOp26
 70
     1
102
RTVSPropertyOp27
 70
     1
102
RTVSPropertyOp28
 70
     1
102
RTVSPropertyOp29
 70
     1
102
RTVSPropertyOp30
 70
     1
102
RTVSPropertyOp31
 70
     1
102
RTVSPropertyOp32
 70
     1
102
RTVSPropertyOp33
 70
     1
102
RTVSPropertyOp34
 70
     1
102
RTVSPropertyOp35
 70
     1
102
RTVSPropertyOp36
 70
     1
102
RTVSPropertyOp37
 70
     1
102
RTVSPropertyOp38
 70
     1
102
RTVSPropertyOp39
 70
     1
102
RTVSPropertyOp40
 70
     1
102
RTVSPropertyOp41
 70
     1
102
RTVSPropertyOp42
 70
     1
102
RTVSPropertyOp43
 70
     1
102
RTVSPropertyOp44
 70
     1
102
RTVSPropertyOp45
 70
     1
102
RTVSPropertyOp46
 70
     1
102
RTVSPropertyOp47
 70
     1
102
RTVSPropertyOp48
 70
     1
102
RTVSPropertyOp49
 70
     1
102
RTVSPropertyOp50
 70
     1
102
RTVSPropertyOp51
 70
     0
102
RTVSPropertyOp52
 70
     0
102
RTVSPropertyOp53
 70
     1
102
RTVSPropertyOp54
 70
     1
102
RTVSPropertyOp55
 70
     1
102
RTVSPropertyOp56
 70
     1
102
RTVSPropertyOp57
 70
     1
102
RTVSPropertyOp58
 70
     1
102
RTVSPropertyOp59
 70
     1
102
RTVSPropertyOp60
 70
     1
102
RTVSPropertyOp61
 70
     1
102
RTVSPropertyOp62
 70
     1
  0
XRECORD
  5
391
102
{ACAD_REACTORS
330
390
102
}
330
390
100
AcDbXrecord
280
     1
102
RTVSPost2010Prop28
280
     0
102
RTVSPost2010PropOp28
 70
     1
102
RTVSPost2010Prop29
280
     1
102
RTVSPost2010PropOp29
 70
     1
102
RTVSPost2010Prop30
280
     1
102
RTVSPost2010PropOp30
 70
     1
102
RTVSPost2010Prop31
280
     0
102
RTVSPost2010PropOp31
 70
     1
102
RTVSPost2010Prop32
280
     0
102
RTVSPost2010PropOp32
 70
     1
102
RTVSPost2010Prop33
280
     0
102
RTVSPost2010PropOp33
 70
     1
102
RTVSPost2010Prop34
280
     0
102
RTVSPost2010PropOp34
 70
     1
102
RTVSPost2010Prop35
280
     0
102
RTVSPost2010PropOp35
 70
     1
102
RTVSPost2010Prop36
280
     0
102
RTVSPost2010PropOp36
 70
     1
102
RTVSPost2010Prop37
 90
       50
102
RTVSPost2010PropOp37
 70
     1
102
RTVSPost2010Prop38
140
0.0
102
RTVSPost2010PropOp38
 70
     1
102
RTVSPost2010Prop39
140
1.0
102
RTVSPost2010PropOp39
 70
     1
102
RTVSPost2010Prop40
 90
        0
102
RTVSPost2010PropOp40
 70
     1
102
RTVSPost2010Prop41ColorIndex
 90
       18
102
RTVSPost2010Prop41ColorRGB
 90
        0
102
RTVSPost2010PropOp41
 70
     1
102
RTVSPost2010Prop42
 90
       50
102
RTVSPost2010PropOp42
 70
     1
102
RTVSPost2010Prop43
 90
        3
102
RTVSPost2010PropOp43
 70
     1
102
RTVSPost2010Prop44ColorIndex
 90
        5
102
RTVSPost2010Prop44ColorRGB
 90
      255
102
RTVSPost2010PropOp44
 70
     1
102
RTVSPost2010Prop45
280
     0
102
RTVSPost2010PropOp45
 70
     1
102
RTVSPost2010Prop46
 90
       50
102
RTVSPost2010PropOp46
 70
     1
102
RTVSPost2010Prop47
 90
       50
102
RTVSPost2010PropOp47
 70
     1
102
RTVSPost2010Prop48
 90
       50
102
RTVSPost2010PropOp48
 70
     1
102
RTVSPost2010Prop49
280
     0
102
RTVSPost2010PropOp49
 70
     1
102
RTVSPost2010Prop50
 90
       50
102
RTVSPost2010PropOp50
 70
     1
102
RTVSPost2010Prop51ColorIndex
 90
      256
102
RTVSPost2010Prop51ColorRGB
 90
-16777216
102
RTVSPost2010PropOp51
 70
     0
102
RTVSPost2010Prop52
140
1.0
102
RTVSPost2010PropOp52
 70
     0
102
RTVSPost2010Prop53
 90
        2
102
RTVSPost2010PropOp53
 70
     1
102
RTVSPost2010Prop54
  1
strokes_ogs.tif
102
RTVSPost2010PropOp54
 70
     1
102
RTVSPost2010Prop55
280
     0
102
RTVSPost2010PropOp55
 70
     1
102
RTVSPost2010Prop56
140
1.0
102
RTVSPost2010PropOp56
 70
     1
102
RTVSPost2010Prop57
140
1.0
102
RTVSPost2010PropOp57
 70
     1
102
RTVSPropertyOp0
 70
     1
102
RTVSPropertyOp1
 70
     1
102
RTVSPropertyOp2
 70
     1
102
RTVSPropertyOp3
 70
     1
102
RTVSPropertyOp4
 70
     1
102
RTVSPropertyOp5
 70
     1
102
RTVSPropertyOp6
 70
     1
102
RTVSPropertyOp7
 70
     1
102
RTVSPropertyOp8
 70
     1
102
RTVSPropertyOp9
 70
     1
102
RTVSPropertyOp10
 70
     1
102
RTVSPropertyOp11
 70
     1
102
RTVSPropertyOp12
 70
     1
102
RTVSPropertyOp13
 70
     1
102
RTVSPropertyOp14
 70
     1
102
RTVSPropertyOp15
 70
     1
102
RTVSPropertyOp16
 70
     1
102
RTVSPropertyOp17
 70
     1
102
RTVSPropertyOp18
 70
     1
102
RTVSPropertyOp19
 70
     1
102
RTVSPropertyOp20
 70
     1
102
RTVSPropertyOp21
 70
     1
102
RTVSPropertyOp22
 70
     1
102
RTVSPropertyOp23
 70
     1
102
RTVSPropertyOp24
 70
     1
102
RTVSPropertyOp25
 70
     1
102
RTVSPropertyOp26
 70
     1
102
RTVSPropertyOp27
 70
     1
102
RTVSPropertyOp28
 70
     1
102
RTVSPropertyOp29
 70
     1
102
RTVSPropertyOp30
 70
     1
102
RTVSPropertyOp31
 70
     1
102
RTVSPropertyOp32
 70
     1
102
RTVSPropertyOp33
 70
     1
102
RTVSPropertyOp34
 70
     1
102
RTVSPropertyOp35
 70
     1
102
RTVSPropertyOp36
 70
     1
102
RTVSPropertyOp37
 70
     1
102
RTVSPropertyOp38
 70
     1
102
RTVSPropertyOp39
 70
     1
102
RTVSPropertyOp40
 70
     1
102
RTVSPropertyOp41
 70
     1
102
RTVSPropertyOp42
 70
     1
102
RTVSPropertyOp43
 70
     1
102
RTVSPropertyOp44
 70
     1
102
RTVSPropertyOp45
 70
     1
102
RTVSPropertyOp46
 70
     1
102
RTVSPropertyOp47
 70
     1
102
RTVSPropertyOp48
 70
     1
102
RTVSPropertyOp49
 70
     1
102
RTVSPropertyOp50
 70
     1
102
RTVSPropertyOp51
 70
     0
102
RTVSPropertyOp52
 70
     0
102
RTVSPropertyOp53
 70
     1
102
RTVSPropertyOp54
 70
     1
102
RTVSPropertyOp55
 70
     1
102
RTVSPropertyOp56
 70
     1
102
RTVSPropertyOp57
 70
     1
102
RTVSPropertyOp58
 70
     1
102
RTVSPropertyOp59
 70
     1
102
RTVSPropertyOp60
 70
     1
102
RTVSPropertyOp61
 70
     1
102
RTVSPropertyOp62
 70
     1
  0
XRECORD
  5
393
102
{ACAD_REACTORS
330
392
102
}
330
392
100
AcDbXrecord
280
     1
102
RTVSPost2010Prop28
280
     0
102
RTVSPost2010PropOp28
 70
     1
102
RTVSPost2010Prop29
280
     1
102
RTVSPost2010PropOp29
 70
     1
102
RTVSPost2010Prop30
280
     1
102
RTVSPost2010PropOp30
 70
     1
102
RTVSPost2010Prop31
280
     0
102
RTVSPost2010PropOp31
 70
     1
102
RTVSPost2010Prop32
280
     0
102
RTVSPost2010PropOp32
 70
     1
102
RTVSPost2010Prop33
280
     0
102
RTVSPost2010PropOp33
 70
     1
102
RTVSPost2010Prop34
280
     0
102
RTVSPost2010PropOp34
 70
     1
102
RTVSPost2010Prop35
280
     0
102
RTVSPost2010PropOp35
 70
     1
102
RTVSPost2010Prop36
280
     0
102
RTVSPost2010PropOp36
 70
     1
102
RTVSPost2010Prop37
 90
       50
102
RTVSPost2010PropOp37
 70
     1
102
RTVSPost2010Prop38
140
0.0
102
RTVSPost2010PropOp38
 70
     1
102
RTVSPost2010Prop39
140
1.0
102
RTVSPost2010PropOp39
 70
     1
102
RTVSPost2010Prop40
 90
        0
102
RTVSPost2010PropOp40
 70
     1
102
RTVSPost2010Prop41ColorIndex
 90
       18
102
RTVSPost2010Prop41ColorRGB
 90
        0
102
RTVSPost2010PropOp41
 70
     1
102
RTVSPost2010Prop42
 90
       50
102
RTVSPost2010PropOp42
 70
     1
102
RTVSPost2010Prop43
 90
        3
102
RTVSPost2010PropOp43
 70
     1
102
RTVSPost2010Prop44ColorIndex
 90
        5
102
RTVSPost2010Prop44ColorRGB
 90
      255
102
RTVSPost2010PropOp44
 70
     1
102
RTVSPost2010Prop45
280
     0
102
RTVSPost2010PropOp45
 70
     1
102
RTVSPost2010Prop46
 90
       50
102
RTVSPost2010PropOp46
 70
     1
102
RTVSPost2010Prop47
 90
       50
102
RTVSPost2010PropOp47
 70
     1
102
RTVSPost2010Prop48
 90
       50
102
RTVSPost2010PropOp48
 70
     1
102
RTVSPost2010Prop49
280
     0
102
RTVSPost2010PropOp49
 70
     1
102
RTVSPost2010Prop50
 90
       50
102
RTVSPost2010PropOp50
 70
     1
102
RTVSPost2010Prop51ColorIndex
 90
      256
102
RTVSPost2010Prop51ColorRGB
 90
-16777216
102
RTVSPost2010PropOp51
 70
     0
102
RTVSPost2010Prop52
140
1.0
102
RTVSPost2010PropOp52
 70
     0
102
RTVSPost2010Prop53
 90
        2
102
RTVSPost2010PropOp53
 70
     1
102
RTVSPost2010Prop54
  1
strokes_ogs.tif
102
RTVSPost2010PropOp54
 70
     1
102
RTVSPost2010Prop55
280
     0
102
RTVSPost2010PropOp55
 70
     1
102
RTVSPost2010Prop56
140
1.0
102
RTVSPost2010PropOp56
 70
     1
102
RTVSPost2010Prop57
140
1.0
102
RTVSPost2010PropOp57
 70
     1
102
RTVSPropertyOp0
 70
     1
102
RTVSPropertyOp1
 70
     1
102
RTVSPropertyOp2
 70
     1
102
RTVSPropertyOp3
 70
     1
102
RTVSPropertyOp4
 70
     1
102
RTVSPropertyOp5
 70
     1
102
RTVSPropertyOp6
 70
     1
102
RTVSPropertyOp7
 70
     1
102
RTVSPropertyOp8
 70
     1
102
RTVSPropertyOp9
 70
     1
102
RTVSPropertyOp10
 70
     1
102
RTVSPropertyOp11
 70
     1
102
RTVSPropertyOp12
 70
     1
102
RTVSPropertyOp13
 70
     1
102
RTVSPropertyOp14
 70
     1
102
RTVSPropertyOp15
 70
     1
102
RTVSPropertyOp16
 70
     1
102
RTVSPropertyOp17
 70
     1
102
RTVSPropertyOp18
 70
     1
102
RTVSPropertyOp19
 70
     1
102
RTVSPropertyOp20
 70
     1
102
RTVSPropertyOp21
 70
     1
102
RTVSPropertyOp22
 70
     1
102
RTVSPropertyOp23
 70
     1
102
RTVSPropertyOp24
 70
     1
102
RTVSPropertyOp25
 70
     1
102
RTVSPropertyOp26
 70
     1
102
RTVSPropertyOp27
 70
     1
102
RTVSPropertyOp28
 70
     1
102
RTVSPropertyOp29
 70
     1
102
RTVSPropertyOp30
 70
     1
102
RTVSPropertyOp31
 70
     1
102
RTVSPropertyOp32
 70
     1
102
RTVSPropertyOp33
 70
     1
102
RTVSPropertyOp34
 70
     1
102
RTVSPropertyOp35
 70
     1
102
RTVSPropertyOp36
 70
     1
102
RTVSPropertyOp37
 70
     1
102
RTVSPropertyOp38
 70
     1
102
RTVSPropertyOp39
 70
     1
102
RTVSPropertyOp40
 70
     1
102
RTVSPropertyOp41
 70
     1
102
RTVSPropertyOp42
 70
     1
102
RTVSPropertyOp43
 70
     1
102
RTVSPropertyOp44
 70
     1
102
RTVSPropertyOp45
 70
     1
102
RTVSPropertyOp46
 70
     1
102
RTVSPropertyOp47
 70
     1
102
RTVSPropertyOp48
 70
     1
102
RTVSPropertyOp49
 70
     1
102
RTVSPropertyOp50
 70
     1
102
RTVSPropertyOp51
 70
     0
102
RTVSPropertyOp52
 70
     0
102
RTVSPropertyOp53
 70
     1
102
RTVSPropertyOp54
 70
     1
102
RTVSPropertyOp55
 70
     1
102
RTVSPropertyOp56
 70
     1
102
RTVSPropertyOp57
 70
     1
102
RTVSPropertyOp58
 70
     1
102
RTVSPropertyOp59
 70
     1
102
RTVSPropertyOp60
 70
     1
102
RTVSPropertyOp61
 70
     1
102
RTVSPropertyOp62
 70
     1
  0
XRECORD
  5
399
102
{ACAD_REACTORS
330
398
102
}
330
398
100
AcDbXrecord
280
     1
102
RTVSPost2010Prop28
280
     0
102
RTVSPost2010PropOp28
 70
     1
102
RTVSPost2010Prop29
280
     1
102
RTVSPost2010PropOp29
 70
     1
102
RTVSPost2010Prop30
280
     1
102
RTVSPost2010PropOp30
 70
     1
102
RTVSPost2010Prop31
280
     0
102
RTVSPost2010PropOp31
 70
     1
102
RTVSPost2010Prop32
280
     0
102
RTVSPost2010PropOp32
 70
     1
102
RTVSPost2010Prop33
280
     0
102
RTVSPost2010PropOp33
 70
     1
102
RTVSPost2010Prop34
280
     0
102
RTVSPost2010PropOp34
 70
     1
102
RTVSPost2010Prop35
280
     0
102
RTVSPost2010PropOp35
 70
     1
102
RTVSPost2010Prop36
280
     0
102
RTVSPost2010PropOp36
 70
     1
102
RTVSPost2010Prop37
 90
       50
102
RTVSPost2010PropOp37
 70
     1
102
RTVSPost2010Prop38
140
0.0
102
RTVSPost2010PropOp38
 70
     1
102
RTVSPost2010Prop39
140
1.0
102
RTVSPost2010PropOp39
 70
     1
102
RTVSPost2010Prop40
 90
        0
102
RTVSPost2010PropOp40
 70
     1
102
RTVSPost2010Prop41ColorIndex
 90
       18
102
RTVSPost2010Prop41ColorRGB
 90
        0
102
RTVSPost2010PropOp41
 70
     1
102
RTVSPost2010Prop42
 90
       50
102
RTVSPost2010PropOp42
 70
     1
102
RTVSPost2010Prop43
 90
        3
102
RTVSPost2010PropOp43
 70
     1
102
RTVSPost2010Prop44ColorIndex
 90
        5
102
RTVSPost2010Prop44ColorRGB
 90
      255
102
RTVSPost2010PropOp44
 70
     1
102
RTVSPost2010Prop45
280
     0
102
RTVSPost2010PropOp45
 70
     1
102
RTVSPost2010Prop46
 90
       50
102
RTVSPost2010PropOp46
 70
     1
102
RTVSPost2010Prop47
 90
       50
102
RTVSPost2010PropOp47
 70
     1
102
RTVSPost2010Prop48
 90
       50
102
RTVSPost2010PropOp48
 70
     1
102
RTVSPost2010Prop49
280
     0
102
RTVSPost2010PropOp49
 70
     1
102
RTVSPost2010Prop50
 90
       50
102
RTVSPost2010PropOp50
 70
     1
102
RTVSPost2010Prop51ColorIndex
 90
      256
102
RTVSPost2010Prop51ColorRGB
 90
-16777216
102
RTVSPost2010PropOp51
 70
     0
102
RTVSPost2010Prop52
140
1.0
102
RTVSPost2010PropOp52
 70
     0
102
RTVSPost2010Prop53
 90
        2
102
RTVSPost2010PropOp53
 70
     1
102
RTVSPost2010Prop54
  1
strokes_ogs.tif
102
RTVSPost2010PropOp54
 70
     1
102
RTVSPost2010Prop55
280
     0
102
RTVSPost2010PropOp55
 70
     1
102
RTVSPost2010Prop56
140
1.0
102
RTVSPost2010PropOp56
 70
     1
102
RTVSPost2010Prop57
140
1.0
102
RTVSPost2010PropOp57
 70
     1
102
RTVSPropertyOp0
 70
     1
102
RTVSPropertyOp1
 70
     1
102
RTVSPropertyOp2
 70
     1
102
RTVSPropertyOp3
 70
     1
102
RTVSPropertyOp4
 70
     1
102
RTVSPropertyOp5
 70
     1
102
RTVSPropertyOp6
 70
     1
102
RTVSPropertyOp7
 70
     1
102
RTVSPropertyOp8
 70
     1
102
RTVSPropertyOp9
 70
     1
102
RTVSPropertyOp10
 70
     1
102
RTVSPropertyOp11
 70
     1
102
RTVSPropertyOp12
 70
     1
102
RTVSPropertyOp13
 70
     1
102
RTVSPropertyOp14
 70
     1
102
RTVSPropertyOp15
 70
     1
102
RTVSPropertyOp16
 70
     1
102
RTVSPropertyOp17
 70
     1
102
RTVSPropertyOp18
 70
     1
102
RTVSPropertyOp19
 70
     1
102
RTVSPropertyOp20
 70
     1
102
RTVSPropertyOp21
 70
     1
102
RTVSPropertyOp22
 70
     1
102
RTVSPropertyOp23
 70
     1
102
RTVSPropertyOp24
 70
     1
102
RTVSPropertyOp25
 70
     1
102
RTVSPropertyOp26
 70
     1
102
RTVSPropertyOp27
 70
     1
102
RTVSPropertyOp28
 70
     1
102
RTVSPropertyOp29
 70
     1
102
RTVSPropertyOp30
 70
     1
102
RTVSPropertyOp31
 70
     1
102
RTVSPropertyOp32
 70
     1
102
RTVSPropertyOp33
 70
     1
102
RTVSPropertyOp34
 70
     1
102
RTVSPropertyOp35
 70
     1
102
RTVSPropertyOp36
 70
     1
102
RTVSPropertyOp37
 70
     1
102
RTVSPropertyOp38
 70
     1
102
RTVSPropertyOp39
 70
     1
102
RTVSPropertyOp40
 70
     1
102
RTVSPropertyOp41
 70
     1
102
RTVSPropertyOp42
 70
     1
102
RTVSPropertyOp43
 70
     1
102
RTVSPropertyOp44
 70
     1
102
RTVSPropertyOp45
 70
     1
102
RTVSPropertyOp46
 70
     1
102
RTVSPropertyOp47
 70
     1
102
RTVSPropertyOp48
 70
     1
102
RTVSPropertyOp49
 70
     1
102
RTVSPropertyOp50
 70
     1
102
RTVSPropertyOp51
 70
     0
102
RTVSPropertyOp52
 70
     0
102
RTVSPropertyOp53
 70
     1
102
RTVSPropertyOp54
 70
     1
102
RTVSPropertyOp55
 70
     1
102
RTVSPropertyOp56
 70
     1
102
RTVSPropertyOp57
 70
     1
102
RTVSPropertyOp58
 70
     1
102
RTVSPropertyOp59
 70
     1
102
RTVSPropertyOp60
 70
     1
102
RTVSPropertyOp61
 70
     1
102
RTVSPropertyOp62
 70
     1
  0
XRECORD
  5
3AD
102
{ACAD_REACTORS
330
3AC
102
}
330
3AC
100
AcDbXrecord
280
     1
102
RTVSPost2010Prop28
280
     0
102
RTVSPost2010PropOp28
 70
     0
102
RTVSPost2010Prop29
280
     1
102
RTVSPost2010PropOp29
 70
     0
102
RTVSPost2010Prop30
280
     1
102
RTVSPost2010PropOp30
 70
     0
102
RTVSPost2010Prop31
280
     0
102
RTVSPost2010PropOp31
 70
     0
102
RTVSPost2010Prop32
280
     0
102
RTVSPost2010PropOp32
 70
     0
102
RTVSPost2010Prop33
280
     0
102
RTVSPost2010PropOp33
 70
     0
102
RTVSPost2010Prop34
280
     0
102
RTVSPost2010PropOp34
 70
     0
102
RTVSPost2010Prop35
280
     0
102
RTVSPost2010PropOp35
 70
     0
102
RTVSPost2010Prop36
280
     0
102
RTVSPost2010PropOp36
 70
     0
102
RTVSPost2010Prop37
 90
       50
102
RTVSPost2010PropOp37
 70
     0
102
RTVSPost2010Prop38
140
0.0
102
RTVSPost2010PropOp38
 70
     0
102
RTVSPost2010Prop39
140
1.0
102
RTVSPost2010PropOp39
 70
     0
102
RTVSPost2010Prop40
 90
        0
102
RTVSPost2010PropOp40
 70
     0
102
RTVSPost2010Prop41ColorIndex
 90
       18
102
RTVSPost2010Prop41ColorRGB
 90
        0
102
RTVSPost2010PropOp41
 70
     0
102
RTVSPost2010Prop42
 90
       50
102
RTVSPost2010PropOp42
 70
     0
102
RTVSPost2010Prop43
 90
        3
102
RTVSPost2010PropOp43
 70
     0
102
RTVSPost2010Prop44ColorIndex
 90
        5
102
RTVSPost2010Prop44ColorRGB
 90
      255
102
RTVSPost2010PropOp44
 70
     0
102
RTVSPost2010Prop45
280
     0
102
RTVSPost2010PropOp45
 70
     0
102
RTVSPost2010Prop46
 90
       50
102
RTVSPost2010PropOp46
 70
     0
102
RTVSPost2010Prop47
 90
       50
102
RTVSPost2010PropOp47
 70
     0
102
RTVSPost2010Prop48
 90
       50
102
RTVSPost2010PropOp48
 70
     0
102
RTVSPost2010Prop49
280
     0
102
RTVSPost2010PropOp49
 70
     0
102
RTVSPost2010Prop50
 90
       50
102
RTVSPost2010PropOp50
 70
     0
102
RTVSPost2010Prop51ColorIndex
 90
      256
102
RTVSPost2010Prop51ColorRGB
 90
-16777216
102
RTVSPost2010PropOp51
 70
     0
102
RTVSPost2010Prop52
140
1.0
102
RTVSPost2010PropOp52
 70
     0
102
RTVSPost2010Prop53
 90
        2
102
RTVSPost2010PropOp53
 70
     0
102
RTVSPost2010Prop54
  1
strokes_ogs.tif
102
RTVSPost2010PropOp54
 70
     0
102
RTVSPost2010Prop55
280
     0
102
RTVSPost2010PropOp55
 70
     0
102
RTVSPost2010Prop56
140
1.0
102
RTVSPost2010PropOp56
 70
     0
102
RTVSPost2010Prop57
140
1.0
102
RTVSPost2010PropOp57
 70
     0
102
RTVSPropertyOp0
 70
     0
102
RTVSPropertyOp1
 70
     0
102
RTVSPropertyOp2
 70
     0
102
RTVSPropertyOp3
 70
     0
102
RTVSPropertyOp4
 70
     0
102
RTVSPropertyOp5
 70
     0
102
RTVSPropertyOp6
 70
     0
102
RTVSPropertyOp7
 70
     0
102
RTVSPropertyOp8
 70
     0
102
RTVSPropertyOp9
 70
     0
102
RTVSPropertyOp10
 70
     0
102
RTVSPropertyOp11
 70
     0
102
RTVSPropertyOp12
 70
     0
102
RTVSPropertyOp13
 70
     0
102
RTVSPropertyOp14
 70
     2
102
RTVSPropertyOp15
 70
     0
102
RTVSPropertyOp16
 70
     0
102
RTVSPropertyOp17
 70
     0
102
RTVSPropertyOp18
 70
     0
102
RTVSPropertyOp19
 70
     0
102
RTVSPropertyOp20
 70
     0
102
RTVSPropertyOp21
 70
     0
102
RTVSPropertyOp22
 70
     0
102
RTVSPropertyOp23
 70
     0
102
RTVSPropertyOp24
 70
     0
102
RTVSPropertyOp25
 70
     0
102
RTVSPropertyOp26
 70
     0
102
RTVSPropertyOp27
 70
     0
102
RTVSPropertyOp28
 70
     0
102
RTVSPropertyOp29
 70
     0
102
RTVSPropertyOp30
 70
     0
102
RTVSPropertyOp31
 70
     0
102
RTVSPropertyOp32
 70
     0
102
RTVSPropertyOp33
 70
     0
102
RTVSPropertyOp34
 70
     0
102
RTVSPropertyOp35
 70
     0
102
RTVSPropertyOp36
 70
     0
102
RTVSPropertyOp37
 70
     0
102
RTVSPropertyOp38
 70
     0
102
RTVSPropertyOp39
 70
     0
102
RTVSPropertyOp40
 70
     0
102
RTVSPropertyOp41
 70
     0
102
RTVSPropertyOp42
 70
     0
102
RTVSPropertyOp43
 70
     0
102
RTVSPropertyOp44
 70
     0
102
RTVSPropertyOp45
 70
     0
102
RTVSPropertyOp46
 70
     0
102
RTVSPropertyOp47
 70
     0
102
RTVSPropertyOp48
 70
     0
102
RTVSPropertyOp49
 70
     0
102
RTVSPropertyOp50
 70
     0
102
RTVSPropertyOp51
 70
     0
102
RTVSPropertyOp52
 70
     0
102
RTVSPropertyOp53
 70
     0
102
RTVSPropertyOp54
 70
     0
102
RTVSPropertyOp55
 70
     0
102
RTVSPropertyOp56
 70
     0
102
RTVSPropertyOp57
 70
     0
102
RTVSPropertyOp58
 70
     1
102
RTVSPropertyOp59
 70
     1
102
RTVSPropertyOp60
 70
     1
102
RTVSPropertyOp61
 70
     1
102
RTVSPropertyOp62
 70
     1
  0
XRECORD
  5
3A7
102
{ACAD_REACTORS
330
3A6
102
}
330
3A6
100
AcDbXrecord
280
     1
102
RTVSPost2010Prop28
280
     0
102
RTVSPost2010PropOp28
 70
     1
102
RTVSPost2010Prop29
280
     1
102
RTVSPost2010PropOp29
 70
     1
102
RTVSPost2010Prop30
280
     1
102
RTVSPost2010PropOp30
 70
     1
102
RTVSPost2010Prop31
280
     0
102
RTVSPost2010PropOp31
 70
     1
102
RTVSPost2010Prop32
280
     0
102
RTVSPost2010PropOp32
 70
     1
102
RTVSPost2010Prop33
280
     0
102
RTVSPost2010PropOp33
 70
     1
102
RTVSPost2010Prop34
280
     0
102
RTVSPost2010PropOp34
 70
     1
102
RTVSPost2010Prop35
280
     0
102
RTVSPost2010PropOp35
 70
     1
102
RTVSPost2010Prop36
280
     0
102
RTVSPost2010PropOp36
 70
     1
102
RTVSPost2010Prop37
 90
       50
102
RTVSPost2010PropOp37
 70
     1
102
RTVSPost2010Prop38
140
0.0
102
RTVSPost2010PropOp38
 70
     1
102
RTVSPost2010Prop39
140
1.0
102
RTVSPost2010PropOp39
 70
     1
102
RTVSPost2010Prop40
 90
        0
102
RTVSPost2010PropOp40
 70
     1
102
RTVSPost2010Prop41ColorIndex
 90
       18
102
RTVSPost2010Prop41ColorRGB
 90
        0
102
RTVSPost2010PropOp41
 70
     1
102
RTVSPost2010Prop42
 90
       50
102
RTVSPost2010PropOp42
 70
     1
102
RTVSPost2010Prop43
 90
        3
102
RTVSPost2010PropOp43
 70
     1
102
RTVSPost2010Prop44ColorIndex
 90
        5
102
RTVSPost2010Prop44ColorRGB
 90
      255
102
RTVSPost2010PropOp44
 70
     1
102
RTVSPost2010Prop45
280
     0
102
RTVSPost2010PropOp45
 70
     1
102
RTVSPost2010Prop46
 90
       50
102
RTVSPost2010PropOp46
 70
     1
102
RTVSPost2010Prop47
 90
       50
102
RTVSPost2010PropOp47
 70
     1
102
RTVSPost2010Prop48
 90
       50
102
RTVSPost2010PropOp48
 70
     1
102
RTVSPost2010Prop49
280
     0
102
RTVSPost2010PropOp49
 70
     1
102
RTVSPost2010Prop50
 90
       50
102
RTVSPost2010PropOp50
 70
     1
102
RTVSPost2010Prop51ColorIndex
 90
      256
102
RTVSPost2010Prop51ColorRGB
 90
-16777216
102
RTVSPost2010PropOp51
 70
     0
102
RTVSPost2010Prop52
140
1.0
102
RTVSPost2010PropOp52
 70
     0
102
RTVSPost2010Prop53
 90
        2
102
RTVSPost2010PropOp53
 70
     1
102
RTVSPost2010Prop54
  1
strokes_ogs.tif
102
RTVSPost2010PropOp54
 70
     1
102
RTVSPost2010Prop55
280
     0
102
RTVSPost2010PropOp55
 70
     1
102
RTVSPost2010Prop56
140
1.0
102
RTVSPost2010PropOp56
 70
     1
102
RTVSPost2010Prop57
140
1.0
102
RTVSPost2010PropOp57
 70
     1
102
RTVSPropertyOp0
 70
     1
102
RTVSPropertyOp1
 70
     1
102
RTVSPropertyOp2
 70
     1
102
RTVSPropertyOp3
 70
     1
102
RTVSPropertyOp4
 70
     1
102
RTVSPropertyOp5
 70
     1
102
RTVSPropertyOp6
 70
     1
102
RTVSPropertyOp7
 70
     1
102
RTVSPropertyOp8
 70
     1
102
RTVSPropertyOp9
 70
     1
102
RTVSPropertyOp10
 70
     1
102
RTVSPropertyOp11
 70
     1
102
RTVSPropertyOp12
 70
     1
102
RTVSPropertyOp13
 70
     1
102
RTVSPropertyOp14
 70
     1
102
RTVSPropertyOp15
 70
     1
102
RTVSPropertyOp16
 70
     1
102
RTVSPropertyOp17
 70
     1
102
RTVSPropertyOp18
 70
     1
102
RTVSPropertyOp19
 70
     1
102
RTVSPropertyOp20
 70
     1
102
RTVSPropertyOp21
 70
     1
102
RTVSPropertyOp22
 70
     1
102
RTVSPropertyOp23
 70
     1
102
RTVSPropertyOp24
 70
     1
102
RTVSPropertyOp25
 70
     1
102
RTVSPropertyOp26
 70
     1
102
RTVSPropertyOp27
 70
     1
102
RTVSPropertyOp28
 70
     1
102
RTVSPropertyOp29
 70
     1
102
RTVSPropertyOp30
 70
     1
102
RTVSPropertyOp31
 70
     1
102
RTVSPropertyOp32
 70
     1
102
RTVSPropertyOp33
 70
     1
102
RTVSPropertyOp34
 70
     1
102
RTVSPropertyOp35
 70
     1
102
RTVSPropertyOp36
 70
     1
102
RTVSPropertyOp37
 70
     1
102
RTVSPropertyOp38
 70
     1
102
RTVSPropertyOp39
 70
     1
102
RTVSPropertyOp40
 70
     1
102
RTVSPropertyOp41
 70
     1
102
RTVSPropertyOp42
 70
     1
102
RTVSPropertyOp43
 70
     1
102
RTVSPropertyOp44
 70
     1
102
RTVSPropertyOp45
 70
     1
102
RTVSPropertyOp46
 70
     1
102
RTVSPropertyOp47
 70
     1
102
RTVSPropertyOp48
 70
     1
102
RTVSPropertyOp49
 70
     1
102
RTVSPropertyOp50
 70
     1
102
RTVSPropertyOp51
 70
     0
102
RTVSPropertyOp52
 70
     0
102
RTVSPropertyOp53
 70
     1
102
RTVSPropertyOp54
 70
     1
102
RTVSPropertyOp55
 70
     1
102
RTVSPropertyOp56
 70
     1
102
RTVSPropertyOp57
 70
     1
102
RTVSPropertyOp58
 70
     1
102
RTVSPropertyOp59
 70
     1
102
RTVSPropertyOp60
 70
     1
102
RTVSPropertyOp61
 70
     1
102
RTVSPropertyOp62
 70
     1
  0
XRECORD
  5
3AF
102
{ACAD_REACTORS
330
3AE
102
}
330
3AE
100
AcDbXrecord
280
     1
102
RTVSPost2010Prop28
280
     0
102
RTVSPost2010PropOp28
 70
     0
102
RTVSPost2010Prop29
280
     1
102
RTVSPost2010PropOp29
 70
     0
102
RTVSPost2010Prop30
280
     1
102
RTVSPost2010PropOp30
 70
     0
102
RTVSPost2010Prop31
280
     0
102
RTVSPost2010PropOp31
 70
     0
102
RTVSPost2010Prop32
280
     0
102
RTVSPost2010PropOp32
 70
     0
102
RTVSPost2010Prop33
280
     0
102
RTVSPost2010PropOp33
 70
     0
102
RTVSPost2010Prop34
280
     0
102
RTVSPost2010PropOp34
 70
     0
102
RTVSPost2010Prop35
280
     0
102
RTVSPost2010PropOp35
 70
     0
102
RTVSPost2010Prop36
280
     0
102
RTVSPost2010PropOp36
 70
     0
102
RTVSPost2010Prop37
 90
       50
102
RTVSPost2010PropOp37
 70
     0
102
RTVSPost2010Prop38
140
0.0
102
RTVSPost2010PropOp38
 70
     0
102
RTVSPost2010Prop39
140
1.0
102
RTVSPost2010PropOp39
 70
     0
102
RTVSPost2010Prop40
 90
        0
102
RTVSPost2010PropOp40
 70
     0
102
RTVSPost2010Prop41ColorIndex
 90
       18
102
RTVSPost2010Prop41ColorRGB
 90
        0
102
RTVSPost2010PropOp41
 70
     0
102
RTVSPost2010Prop42
 90
       50
102
RTVSPost2010PropOp42
 70
     0
102
RTVSPost2010Prop43
 90
        3
102
RTVSPost2010PropOp43
 70
     0
102
RTVSPost2010Prop44ColorIndex
 90
        5
102
RTVSPost2010Prop44ColorRGB
 90
      255
102
RTVSPost2010PropOp44
 70
     0
102
RTVSPost2010Prop45
280
     0
102
RTVSPost2010PropOp45
 70
     0
102
RTVSPost2010Prop46
 90
       50
102
RTVSPost2010PropOp46
 70
     0
102
RTVSPost2010Prop47
 90
       50
102
RTVSPost2010PropOp47
 70
     0
102
RTVSPost2010Prop48
 90
       50
102
RTVSPost2010PropOp48
 70
     0
102
RTVSPost2010Prop49
280
     0
102
RTVSPost2010PropOp49
 70
     0
102
RTVSPost2010Prop50
 90
       50
102
RTVSPost2010PropOp50
 70
     0
102
RTVSPost2010Prop51ColorIndex
 90
      256
102
RTVSPost2010Prop51ColorRGB
 90
-16777216
102
RTVSPost2010PropOp51
 70
     0
102
RTVSPost2010Prop52
140
1.0
102
RTVSPost2010PropOp52
 70
     0
102
RTVSPost2010Prop53
 90
        2
102
RTVSPost2010PropOp53
 70
     0
102
RTVSPost2010Prop54
  1
strokes_ogs.tif
102
RTVSPost2010PropOp54
 70
     0
102
RTVSPost2010Prop55
280
     0
102
RTVSPost2010PropOp55
 70
     0
102
RTVSPost2010Prop56
140
1.0
102
RTVSPost2010PropOp56
 70
     0
102
RTVSPost2010Prop57
140
1.0
102
RTVSPost2010PropOp57
 70
     0
102
RTVSPropertyOp0
 70
     0
102
RTVSPropertyOp1
 70
     0
102
RTVSPropertyOp2
 70
     0
102
RTVSPropertyOp3
 70
     0
102
RTVSPropertyOp4
 70
     0
102
RTVSPropertyOp5
 70
     0
102
RTVSPropertyOp6
 70
     0
102
RTVSPropertyOp7
 70
     0
102
RTVSPropertyOp8
 70
     0
102
RTVSPropertyOp9
 70
     0
102
RTVSPropertyOp10
 70
     0
102
RTVSPropertyOp11
 70
     0
102
RTVSPropertyOp12
 70
     0
102
RTVSPropertyOp13
 70
     0
102
RTVSPropertyOp14
 70
     2
102
RTVSPropertyOp15
 70
     0
102
RTVSPropertyOp16
 70
     0
102
RTVSPropertyOp17
 70
     0
102
RTVSPropertyOp18
 70
     0
102
RTVSPropertyOp19
 70
     0
102
RTVSPropertyOp20
 70
     0
102
RTVSPropertyOp21
 70
     0
102
RTVSPropertyOp22
 70
     0
102
RTVSPropertyOp23
 70
     0
102
RTVSPropertyOp24
 70
     0
102
RTVSPropertyOp25
 70
     0
102
RTVSPropertyOp26
 70
     0
102
RTVSPropertyOp27
 70
     0
102
RTVSPropertyOp28
 70
     0
102
RTVSPropertyOp29
 70
     0
102
RTVSPropertyOp30
 70
     0
102
RTVSPropertyOp31
 70
     0
102
RTVSPropertyOp32
 70
     0
102
RTVSPropertyOp33
 70
     0
102
RTVSPropertyOp34
 70
     0
102
RTVSPropertyOp35
 70
     0
102
RTVSPropertyOp36
 70
     0
102
RTVSPropertyOp37
 70
     0
102
RTVSPropertyOp38
 70
     0
102
RTVSPropertyOp39
 70
     0
102
RTVSPropertyOp40
 70
     0
102
RTVSPropertyOp41
 70
     0
102
RTVSPropertyOp42
 70
     0
102
RTVSPropertyOp43
 70
     0
102
RTVSPropertyOp44
 70
     0
102
RTVSPropertyOp45
 70
     0
102
RTVSPropertyOp46
 70
     0
102
RTVSPropertyOp47
 70
     0
102
RTVSPropertyOp48
 70
     0
102
RTVSPropertyOp49
 70
     0
102
RTVSPropertyOp50
 70
     0
102
RTVSPropertyOp51
 70
     0
102
RTVSPropertyOp52
 70
     0
102
RTVSPropertyOp53
 70
     0
102
RTVSPropertyOp54
 70
     0
102
RTVSPropertyOp55
 70
     0
102
RTVSPropertyOp56
 70
     0
102
RTVSPropertyOp57
 70
     0
102
RTVSPropertyOp58
 70
     1
102
RTVSPropertyOp59
 70
     1
102
RTVSPropertyOp60
 70
     1
102
RTVSPropertyOp61
 70
     1
102
RTVSPropertyOp62
 70
     1
  0
XRECORD
  5
39D
102
{ACAD_REACTORS
330
39C
102
}
330
39C
100
AcDbXrecord
280
     1
102
RTVSPost2010Prop28
280
     0
102
RTVSPost2010PropOp28
 70
     1
102
RTVSPost2010Prop29
280
     1
102
RTVSPost2010PropOp29
 70
     1
102
RTVSPost2010Prop30
280
     1
102
RTVSPost2010PropOp30
 70
     1
102
RTVSPost2010Prop31
280
     0
102
RTVSPost2010PropOp31
 70
     1
102
RTVSPost2010Prop32
280
     0
102
RTVSPost2010PropOp32
 70
     1
102
RTVSPost2010Prop33
280
     0
102
RTVSPost2010PropOp33
 70
     1
102
RTVSPost2010Prop34
280
     0
102
RTVSPost2010PropOp34
 70
     1
102
RTVSPost2010Prop35
280
     0
102
RTVSPost2010PropOp35
 70
     1
102
RTVSPost2010Prop36
280
     0
102
RTVSPost2010PropOp36
 70
     1
102
RTVSPost2010Prop37
 90
       50
102
RTVSPost2010PropOp37
 70
     1
102
RTVSPost2010Prop38
140
0.0
102
RTVSPost2010PropOp38
 70
     1
102
RTVSPost2010Prop39
140
1.0
102
RTVSPost2010PropOp39
 70
     1
102
RTVSPost2010Prop40
 90
        0
102
RTVSPost2010PropOp40
 70
     1
102
RTVSPost2010Prop41ColorIndex
 90
       18
102
RTVSPost2010Prop41ColorRGB
 90
        0
102
RTVSPost2010PropOp41
 70
     1
102
RTVSPost2010Prop42
 90
       50
102
RTVSPost2010PropOp42
 70
     1
102
RTVSPost2010Prop43
 90
        3
102
RTVSPost2010PropOp43
 70
     1
102
RTVSPost2010Prop44ColorIndex
 90
        5
102
RTVSPost2010Prop44ColorRGB
 90
      255
102
RTVSPost2010PropOp44
 70
     1
102
RTVSPost2010Prop45
280
     0
102
RTVSPost2010PropOp45
 70
     1
102
RTVSPost2010Prop46
 90
       50
102
RTVSPost2010PropOp46
 70
     1
102
RTVSPost2010Prop47
 90
       50
102
RTVSPost2010PropOp47
 70
     1
102
RTVSPost2010Prop48
 90
       50
102
RTVSPost2010PropOp48
 70
     1
102
RTVSPost2010Prop49
280
     0
102
RTVSPost2010PropOp49
 70
     1
102
RTVSPost2010Prop50
 90
       50
102
RTVSPost2010PropOp50
 70
     1
102
RTVSPost2010Prop51ColorIndex
 90
      256
102
RTVSPost2010Prop51ColorRGB
 90
-16777216
102
RTVSPost2010PropOp51
 70
     0
102
RTVSPost2010Prop52
140
1.0
102
RTVSPost2010PropOp52
 70
     0
102
RTVSPost2010Prop53
 90
        2
102
RTVSPost2010PropOp53
 70
     1
102
RTVSPost2010Prop54
  1
strokes_ogs.tif
102
RTVSPost2010PropOp54
 70
     1
102
RTVSPost2010Prop55
280
     0
102
RTVSPost2010PropOp55
 70
     1
102
RTVSPost2010Prop56
140
1.0
102
RTVSPost2010PropOp56
 70
     1
102
RTVSPost2010Prop57
140
1.0
102
RTVSPost2010PropOp57
 70
     1
102
RTVSPropertyOp0
 70
     1
102
RTVSPropertyOp1
 70
     1
102
RTVSPropertyOp2
 70
     1
102
RTVSPropertyOp3
 70
     1
102
RTVSPropertyOp4
 70
     1
102
RTVSPropertyOp5
 70
     1
102
RTVSPropertyOp6
 70
     1
102
RTVSPropertyOp7
 70
     1
102
RTVSPropertyOp8
 70
     1
102
RTVSPropertyOp9
 70
     1
102
RTVSPropertyOp10
 70
     1
102
RTVSPropertyOp11
 70
     1
102
RTVSPropertyOp12
 70
     1
102
RTVSPropertyOp13
 70
     1
102
RTVSPropertyOp14
 70
     1
102
RTVSPropertyOp15
 70
     1
102
RTVSPropertyOp16
 70
     1
102
RTVSPropertyOp17
 70
     1
102
RTVSPropertyOp18
 70
     1
102
RTVSPropertyOp19
 70
     1
102
RTVSPropertyOp20
 70
     1
102
RTVSPropertyOp21
 70
     1
102
RTVSPropertyOp22
 70
     1
102
RTVSPropertyOp23
 70
     1
102
RTVSPropertyOp24
 70
     1
102
RTVSPropertyOp25
 70
     1
102
RTVSPropertyOp26
 70
     1
102
RTVSPropertyOp27
 70
     1
102
RTVSPropertyOp28
 70
     1
102
RTVSPropertyOp29
 70
     1
102
RTVSPropertyOp30
 70
     1
102
RTVSPropertyOp31
 70
     1
102
RTVSPropertyOp32
 70
     1
102
RTVSPropertyOp33
 70
     1
102
RTVSPropertyOp34
 70
     1
102
RTVSPropertyOp35
 70
     1
102
RTVSPropertyOp36
 70
     1
102
RTVSPropertyOp37
 70
     1
102
RTVSPropertyOp38
 70
     1
102
RTVSPropertyOp39
 70
     1
102
RTVSPropertyOp40
 70
     1
102
RTVSPropertyOp41
 70
     1
102
RTVSPropertyOp42
 70
     1
102
RTVSPropertyOp43
 70
     1
102
RTVSPropertyOp44
 70
     1
102
RTVSPropertyOp45
 70
     1
102
RTVSPropertyOp46
 70
     1
102
RTVSPropertyOp47
 70
     1
102
RTVSPropertyOp48
 70
     1
102
RTVSPropertyOp49
 70
     1
102
RTVSPropertyOp50
 70
     1
102
RTVSPropertyOp51
 70
     0
102
RTVSPropertyOp52
 70
     0
102
RTVSPropertyOp53
 70
     1
102
RTVSPropertyOp54
 70
     1
102
RTVSPropertyOp55
 70
     1
102
RTVSPropertyOp56
 70
     1
102
RTVSPropertyOp57
 70
     1
102
RTVSPropertyOp58
 70
     1
102
RTVSPropertyOp59
 70
     1
102
RTVSPropertyOp60
 70
     1
102
RTVSPropertyOp61
 70
     1
102
RTVSPropertyOp62
 70
     1
  0
XRECORD
  5
3BB
102
{ACAD_REACTORS
330
3BA
102
}
330
3BA
100
AcDbXrecord
280
     1
102
RTVSPost2010Prop28
280
     0
102
RTVSPost2010PropOp28
 70
     1
102
RTVSPost2010Prop29
280
     1
102
RTVSPost2010PropOp29
 70
     1
102
RTVSPost2010Prop30
280
     1
102
RTVSPost2010PropOp30
 70
     1
102
RTVSPost2010Prop31
280
     0
102
RTVSPost2010PropOp31
 70
     1
102
RTVSPost2010Prop32
280
     0
102
RTVSPost2010PropOp32
 70
     1
102
RTVSPost2010Prop33
280
     0
102
RTVSPost2010PropOp33
 70
     1
102
RTVSPost2010Prop34
280
     0
102
RTVSPost2010PropOp34
 70
     1
102
RTVSPost2010Prop35
280
     0
102
RTVSPost2010PropOp35
 70
     1
102
RTVSPost2010Prop36
280
     0
102
RTVSPost2010PropOp36
 70
     1
102
RTVSPost2010Prop37
 90
       50
102
RTVSPost2010PropOp37
 70
     1
102
RTVSPost2010Prop38
140
0.0
102
RTVSPost2010PropOp38
 70
     1
102
RTVSPost2010Prop39
140
1.0
102
RTVSPost2010PropOp39
 70
     1
102
RTVSPost2010Prop40
 90
        0
102
RTVSPost2010PropOp40
 70
     1
102
RTVSPost2010Prop41ColorIndex
 90
       18
102
RTVSPost2010Prop41ColorRGB
 90
        0
102
RTVSPost2010PropOp41
 70
     1
102
RTVSPost2010Prop42
 90
       50
102
RTVSPost2010PropOp42
 70
     1
102
RTVSPost2010Prop43
 90
        3
102
RTVSPost2010PropOp43
 70
     1
102
RTVSPost2010Prop44ColorIndex
 90
        5
102
RTVSPost2010Prop44ColorRGB
 90
      255
102
RTVSPost2010PropOp44
 70
     1
102
RTVSPost2010Prop45
280
     0
102
RTVSPost2010PropOp45
 70
     1
102
RTVSPost2010Prop46
 90
       50
102
RTVSPost2010PropOp46
 70
     1
102
RTVSPost2010Prop47
 90
       50
102
RTVSPost2010PropOp47
 70
     1
102
RTVSPost2010Prop48
 90
       50
102
RTVSPost2010PropOp48
 70
     1
102
RTVSPost2010Prop49
280
     0
102
RTVSPost2010PropOp49
 70
     1
102
RTVSPost2010Prop50
 90
       50
102
RTVSPost2010PropOp50
 70
     1
102
RTVSPost2010Prop51ColorIndex
 90
      256
102
RTVSPost2010Prop51ColorRGB
 90
-16777216
102
RTVSPost2010PropOp51
 70
     0
102
RTVSPost2010Prop52
140
1.0
102
RTVSPost2010PropOp52
 70
     0
102
RTVSPost2010Prop53
 90
        2
102
RTVSPost2010PropOp53
 70
     1
102
RTVSPost2010Prop54
  1
strokes_ogs.tif
102
RTVSPost2010PropOp54
 70
     1
102
RTVSPost2010Prop55
280
     0
102
RTVSPost2010PropOp55
 70
     1
102
RTVSPost2010Prop56
140
1.0
102
RTVSPost2010PropOp56
 70
     1
102
RTVSPost2010Prop57
140
1.0
102
RTVSPost2010PropOp57
 70
     1
102
RTVSPropertyOp0
 70
     1
102
RTVSPropertyOp1
 70
     1
102
RTVSPropertyOp2
 70
     1
102
RTVSPropertyOp3
 70
     1
102
RTVSPropertyOp4
 70
     1
102
RTVSPropertyOp5
 70
     1
102
RTVSPropertyOp6
 70
     1
102
RTVSPropertyOp7
 70
     1
102
RTVSPropertyOp8
 70
     1
102
RTVSPropertyOp9
 70
     1
102
RTVSPropertyOp10
 70
     1
102
RTVSPropertyOp11
 70
     1
102
RTVSPropertyOp12
 70
     1
102
RTVSPropertyOp13
 70
     1
102
RTVSPropertyOp14
 70
     1
102
RTVSPropertyOp15
 70
     1
102
RTVSPropertyOp16
 70
     1
102
RTVSPropertyOp17
 70
     1
102
RTVSPropertyOp18
 70
     1
102
RTVSPropertyOp19
 70
     1
102
RTVSPropertyOp20
 70
     1
102
RTVSPropertyOp21
 70
     1
102
RTVSPropertyOp22
 70
     1
102
RTVSPropertyOp23
 70
     1
102
RTVSPropertyOp24
 70
     1
102
RTVSPropertyOp25
 70
     1
102
RTVSPropertyOp26
 70
     1
102
RTVSPropertyOp27
 70
     1
102
RTVSPropertyOp28
 70
     1
102
RTVSPropertyOp29
 70
     1
102
RTVSPropertyOp30
 70
     1
102
RTVSPropertyOp31
 70
     1
102
RTVSPropertyOp32
 70
     1
102
RTVSPropertyOp33
 70
     1
102
RTVSPropertyOp34
 70
     1
102
RTVSPropertyOp35
 70
     1
102
RTVSPropertyOp36
 70
     1
102
RTVSPropertyOp37
 70
     1
102
RTVSPropertyOp38
 70
     1
102
RTVSPropertyOp39
 70
     1
102
RTVSPropertyOp40
 70
     1
102
RTVSPropertyOp41
 70
     1
102
RTVSPropertyOp42
 70
     1
102
RTVSPropertyOp43
 70
     1
102
RTVSPropertyOp44
 70
     1
102
RTVSPropertyOp45
 70
     1
102
RTVSPropertyOp46
 70
     1
102
RTVSPropertyOp47
 70
     1
102
RTVSPropertyOp48
 70
     1
102
RTVSPropertyOp49
 70
     1
102
RTVSPropertyOp50
 70
     1
102
RTVSPropertyOp51
 70
     0
102
RTVSPropertyOp52
 70
     0
102
RTVSPropertyOp53
 70
     1
102
RTVSPropertyOp54
 70
     1
102
RTVSPropertyOp55
 70
     1
102
RTVSPropertyOp56
 70
     1
102
RTVSPropertyOp57
 70
     1
102
RTVSPropertyOp58
 70
     1
102
RTVSPropertyOp59
 70
     1
102
RTVSPropertyOp60
 70
     1
102
RTVSPropertyOp61
 70
     1
102
RTVSPropertyOp62
 70
     1
  0
XRECORD
  5
3B9
102
{ACAD_REACTORS
330
3B8
102
}
330
3B8
100
AcDbXrecord
280
     1
102
RTVSPost2010Prop28
280
     0
102
RTVSPost2010PropOp28
 70
     1
102
RTVSPost2010Prop29
280
     1
102
RTVSPost2010PropOp29
 70
     1
102
RTVSPost2010Prop30
280
     1
102
RTVSPost2010PropOp30
 70
     1
102
RTVSPost2010Prop31
280
     0
102
RTVSPost2010PropOp31
 70
     1
102
RTVSPost2010Prop32
280
     0
102
RTVSPost2010PropOp32
 70
     1
102
RTVSPost2010Prop33
280
     0
102
RTVSPost2010PropOp33
 70
     1
102
RTVSPost2010Prop34
280
     0
102
RTVSPost2010PropOp34
 70
     1
102
RTVSPost2010Prop35
280
     0
102
RTVSPost2010PropOp35
 70
     1
102
RTVSPost2010Prop36
280
     0
102
RTVSPost2010PropOp36
 70
     1
102
RTVSPost2010Prop37
 90
       50
102
RTVSPost2010PropOp37
 70
     1
102
RTVSPost2010Prop38
140
0.0
102
RTVSPost2010PropOp38
 70
     1
102
RTVSPost2010Prop39
140
1.0
102
RTVSPost2010PropOp39
 70
     1
102
RTVSPost2010Prop40
 90
        0
102
RTVSPost2010PropOp40
 70
     1
102
RTVSPost2010Prop41ColorIndex
 90
       18
102
RTVSPost2010Prop41ColorRGB
 90
        0
102
RTVSPost2010PropOp41
 70
     1
102
RTVSPost2010Prop42
 90
       50
102
RTVSPost2010PropOp42
 70
     1
102
RTVSPost2010Prop43
 90
        3
102
RTVSPost2010PropOp43
 70
     1
102
RTVSPost2010Prop44ColorIndex
 90
        5
102
RTVSPost2010Prop44ColorRGB
 90
      255
102
RTVSPost2010PropOp44
 70
     1
102
RTVSPost2010Prop45
280
     0
102
RTVSPost2010PropOp45
 70
     1
102
RTVSPost2010Prop46
 90
       50
102
RTVSPost2010PropOp46
 70
     1
102
RTVSPost2010Prop47
 90
       50
102
RTVSPost2010PropOp47
 70
     1
102
RTVSPost2010Prop48
 90
       50
102
RTVSPost2010PropOp48
 70
     1
102
RTVSPost2010Prop49
280
     0
102
RTVSPost2010PropOp49
 70
     1
102
RTVSPost2010Prop50
 90
       50
102
RTVSPost2010PropOp50
 70
     1
102
RTVSPost2010Prop51ColorIndex
 90
      256
102
RTVSPost2010Prop51ColorRGB
 90
-16777216
102
RTVSPost2010PropOp51
 70
     0
102
RTVSPost2010Prop52
140
1.0
102
RTVSPost2010PropOp52
 70
     0
102
RTVSPost2010Prop53
 90
        2
102
RTVSPost2010PropOp53
 70
     1
102
RTVSPost2010Prop54
  1
strokes_ogs.tif
102
RTVSPost2010PropOp54
 70
     1
102
RTVSPost2010Prop55
280
     0
102
RTVSPost2010PropOp55
 70
     1
102
RTVSPost2010Prop56
140
1.0
102
RTVSPost2010PropOp56
 70
     1
102
RTVSPost2010Prop57
140
1.0
102
RTVSPost2010PropOp57
 70
     1
102
RTVSPropertyOp0
 70
     1
102
RTVSPropertyOp1
 70
     1
102
RTVSPropertyOp2
 70
     1
102
RTVSPropertyOp3
 70
     1
102
RTVSPropertyOp4
 70
     1
102
RTVSPropertyOp5
 70
     1
102
RTVSPropertyOp6
 70
     1
102
RTVSPropertyOp7
 70
     1
102
RTVSPropertyOp8
 70
     1
102
RTVSPropertyOp9
 70
     1
102
RTVSPropertyOp10
 70
     1
102
RTVSPropertyOp11
 70
     1
102
RTVSPropertyOp12
 70
     1
102
RTVSPropertyOp13
 70
     1
102
RTVSPropertyOp14
 70
     1
102
RTVSPropertyOp15
 70
     1
102
RTVSPropertyOp16
 70
     1
102
RTVSPropertyOp17
 70
     1
102
RTVSPropertyOp18
 70
     1
102
RTVSPropertyOp19
 70
     1
102
RTVSPropertyOp20
 70
     1
102
RTVSPropertyOp21
 70
     1
102
RTVSPropertyOp22
 70
     1
102
RTVSPropertyOp23
 70
     1
102
RTVSPropertyOp24
 70
     1
102
RTVSPropertyOp25
 70
     1
102
RTVSPropertyOp26
 70
     1
102
RTVSPropertyOp27
 70
     1
102
RTVSPropertyOp28
 70
     1
102
RTVSPropertyOp29
 70
     1
102
RTVSPropertyOp30
 70
     1
102
RTVSPropertyOp31
 70
     1
102
RTVSPropertyOp32
 70
     1
102
RTVSPropertyOp33
 70
     1
102
RTVSPropertyOp34
 70
     1
102
RTVSPropertyOp35
 70
     1
102
RTVSPropertyOp36
 70
     1
102
RTVSPropertyOp37
 70
     1
102
RTVSPropertyOp38
 70
     1
102
RTVSPropertyOp39
 70
     1
102
RTVSPropertyOp40
 70
     1
102
RTVSPropertyOp41
 70
     1
102
RTVSPropertyOp42
 70
     1
102
RTVSPropertyOp43
 70
     1
102
RTVSPropertyOp44
 70
     1
102
RTVSPropertyOp45
 70
     1
102
RTVSPropertyOp46
 70
     1
102
RTVSPropertyOp47
 70
     1
102
RTVSPropertyOp48
 70
     1
102
RTVSPropertyOp49
 70
     1
102
RTVSPropertyOp50
 70
     1
102
RTVSPropertyOp51
 70
     0
102
RTVSPropertyOp52
 70
     0
102
RTVSPropertyOp53
 70
     1
102
RTVSPropertyOp54
 70
     1
102
RTVSPropertyOp55
 70
     1
102
RTVSPropertyOp56
 70
     1
102
RTVSPropertyOp57
 70
     1
102
RTVSPropertyOp58
 70
     1
102
RTVSPropertyOp59
 70
     1
102
RTVSPropertyOp60
 70
     1
102
RTVSPropertyOp61
 70
     1
102
RTVSPropertyOp62
 70
     1
  0
XRECORD
  5
3B3
102
{ACAD_REACTORS
330
3B2
102
}
330
3B2
100
AcDbXrecord
280
     1
102
RTVSPost2010Prop28
280
     0
102
RTVSPost2010PropOp28
 70
     1
102
RTVSPost2010Prop29
280
     1
102
RTVSPost2010PropOp29
 70
     1
102
RTVSPost2010Prop30
280
     1
102
RTVSPost2010PropOp30
 70
     1
102
RTVSPost2010Prop31
280
     0
102
RTVSPost2010PropOp31
 70
     1
102
RTVSPost2010Prop32
280
     0
102
RTVSPost2010PropOp32
 70
     1
102
RTVSPost2010Prop33
280
     0
102
RTVSPost2010PropOp33
 70
     1
102
RTVSPost2010Prop34
280
     0
102
RTVSPost2010PropOp34
 70
     1
102
RTVSPost2010Prop35
280
     0
102
RTVSPost2010PropOp35
 70
     1
102
RTVSPost2010Prop36
280
     0
102
RTVSPost2010PropOp36
 70
     1
102
RTVSPost2010Prop37
 90
       50
102
RTVSPost2010PropOp37
 70
     1
102
RTVSPost2010Prop38
140
0.0
102
RTVSPost2010PropOp38
 70
     1
102
RTVSPost2010Prop39
140
1.0
102
RTVSPost2010PropOp39
 70
     1
102
RTVSPost2010Prop40
 90
        0
102
RTVSPost2010PropOp40
 70
     1
102
RTVSPost2010Prop41ColorIndex
 90
       18
102
RTVSPost2010Prop41ColorRGB
 90
        0
102
RTVSPost2010PropOp41
 70
     1
102
RTVSPost2010Prop42
 90
       50
102
RTVSPost2010PropOp42
 70
     1
102
RTVSPost2010Prop43
 90
        3
102
RTVSPost2010PropOp43
 70
     1
102
RTVSPost2010Prop44ColorIndex
 90
        5
102
RTVSPost2010Prop44ColorRGB
 90
      255
102
RTVSPost2010PropOp44
 70
     1
102
RTVSPost2010Prop45
280
     0
102
RTVSPost2010PropOp45
 70
     1
102
RTVSPost2010Prop46
 90
       50
102
RTVSPost2010PropOp46
 70
     1
102
RTVSPost2010Prop47
 90
       50
102
RTVSPost2010PropOp47
 70
     1
102
RTVSPost2010Prop48
 90
       50
102
RTVSPost2010PropOp48
 70
     1
102
RTVSPost2010Prop49
280
     0
102
RTVSPost2010PropOp49
 70
     1
102
RTVSPost2010Prop50
 90
       50
102
RTVSPost2010PropOp50
 70
     1
102
RTVSPost2010Prop51ColorIndex
 90
      256
102
RTVSPost2010Prop51ColorRGB
 90
-16777216
102
RTVSPost2010PropOp51
 70
     0
102
RTVSPost2010Prop52
140
1.0
102
RTVSPost2010PropOp52
 70
     0
102
RTVSPost2010Prop53
 90
        2
102
RTVSPost2010PropOp53
 70
     1
102
RTVSPost2010Prop54
  1
strokes_ogs.tif
102
RTVSPost2010PropOp54
 70
     1
102
RTVSPost2010Prop55
280
     0
102
RTVSPost2010PropOp55
 70
     1
102
RTVSPost2010Prop56
140
1.0
102
RTVSPost2010PropOp56
 70
     1
102
RTVSPost2010Prop57
140
1.0
102
RTVSPost2010PropOp57
 70
     1
102
RTVSPropertyOp0
 70
     1
102
RTVSPropertyOp1
 70
     1
102
RTVSPropertyOp2
 70
     1
102
RTVSPropertyOp3
 70
     1
102
RTVSPropertyOp4
 70
     1
102
RTVSPropertyOp5
 70
     1
102
RTVSPropertyOp6
 70
     1
102
RTVSPropertyOp7
 70
     1
102
RTVSPropertyOp8
 70
     1
102
RTVSPropertyOp9
 70
     1
102
RTVSPropertyOp10
 70
     1
102
RTVSPropertyOp11
 70
     1
102
RTVSPropertyOp12
 70
     1
102
RTVSPropertyOp13
 70
     1
102
RTVSPropertyOp14
 70
     1
102
RTVSPropertyOp15
 70
     1
102
RTVSPropertyOp16
 70
     1
102
RTVSPropertyOp17
 70
     1
102
RTVSPropertyOp18
 70
     1
102
RTVSPropertyOp19
 70
     1
102
RTVSPropertyOp20
 70
     1
102
RTVSPropertyOp21
 70
     1
102
RTVSPropertyOp22
 70
     1
102
RTVSPropertyOp23
 70
     1
102
RTVSPropertyOp24
 70
     1
102
RTVSPropertyOp25
 70
     1
102
RTVSPropertyOp26
 70
     1
102
RTVSPropertyOp27
 70
     1
102
RTVSPropertyOp28
 70
     1
102
RTVSPropertyOp29
 70
     1
102
RTVSPropertyOp30
 70
     1
102
RTVSPropertyOp31
 70
     1
102
RTVSPropertyOp32
 70
     1
102
RTVSPropertyOp33
 70
     1
102
RTVSPropertyOp34
 70
     1
102
RTVSPropertyOp35
 70
     1
102
RTVSPropertyOp36
 70
     1
102
RTVSPropertyOp37
 70
     1
102
RTVSPropertyOp38
 70
     1
102
RTVSPropertyOp39
 70
     1
102
RTVSPropertyOp40
 70
     1
102
RTVSPropertyOp41
 70
     1
102
RTVSPropertyOp42
 70
     1
102
RTVSPropertyOp43
 70
     1
102
RTVSPropertyOp44
 70
     1
102
RTVSPropertyOp45
 70
     1
102
RTVSPropertyOp46
 70
     1
102
RTVSPropertyOp47
 70
     1
102
RTVSPropertyOp48
 70
     1
102
RTVSPropertyOp49
 70
     1
102
RTVSPropertyOp50
 70
     1
102
RTVSPropertyOp51
 70
     0
102
RTVSPropertyOp52
 70
     0
102
RTVSPropertyOp53
 70
     1
102
RTVSPropertyOp54
 70
     1
102
RTVSPropertyOp55
 70
     1
102
RTVSPropertyOp56
 70
     1
102
RTVSPropertyOp57
 70
     1
102
RTVSPropertyOp58
 70
     1
102
RTVSPropertyOp59
 70
     1
102
RTVSPropertyOp60
 70
     1
102
RTVSPropertyOp61
 70
     1
102
RTVSPropertyOp62
 70
     1
  0
XRECORD
  5
3B5
102
{ACAD_REACTORS
330
3B4
102
}
330
3B4
100
AcDbXrecord
280
     1
102
RTVSPost2010Prop28
280
     0
102
RTVSPost2010PropOp28
 70
     1
102
RTVSPost2010Prop29
280
     1
102
RTVSPost2010PropOp29
 70
     1
102
RTVSPost2010Prop30
280
     1
102
RTVSPost2010PropOp30
 70
     1
102
RTVSPost2010Prop31
280
     0
102
RTVSPost2010PropOp31
 70
     1
102
RTVSPost2010Prop32
280
     0
102
RTVSPost2010PropOp32
 70
     1
102
RTVSPost2010Prop33
280
     0
102
RTVSPost2010PropOp33
 70
     1
102
RTVSPost2010Prop34
280
     0
102
RTVSPost2010PropOp34
 70
     1
102
RTVSPost2010Prop35
280
     0
102
RTVSPost2010PropOp35
 70
     1
102
RTVSPost2010Prop36
280
     0
102
RTVSPost2010PropOp36
 70
     1
102
RTVSPost2010Prop37
 90
       50
102
RTVSPost2010PropOp37
 70
     1
102
RTVSPost2010Prop38
140
0.0
102
RTVSPost2010PropOp38
 70
     1
102
RTVSPost2010Prop39
140
1.0
102
RTVSPost2010PropOp39
 70
     1
102
RTVSPost2010Prop40
 90
        0
102
RTVSPost2010PropOp40
 70
     1
102
RTVSPost2010Prop41ColorIndex
 90
       18
102
RTVSPost2010Prop41ColorRGB
 90
        0
102
RTVSPost2010PropOp41
 70
     1
102
RTVSPost2010Prop42
 90
       50
102
RTVSPost2010PropOp42
 70
     1
102
RTVSPost2010Prop43
 90
        3
102
RTVSPost2010PropOp43
 70
     1
102
RTVSPost2010Prop44ColorIndex
 90
        5
102
RTVSPost2010Prop44ColorRGB
 90
      255
102
RTVSPost2010PropOp44
 70
     1
102
RTVSPost2010Prop45
280
     0
102
RTVSPost2010PropOp45
 70
     1
102
RTVSPost2010Prop46
 90
       50
102
RTVSPost2010PropOp46
 70
     1
102
RTVSPost2010Prop47
 90
       50
102
RTVSPost2010PropOp47
 70
     1
102
RTVSPost2010Prop48
 90
       50
102
RTVSPost2010PropOp48
 70
     1
102
RTVSPost2010Prop49
280
     0
102
RTVSPost2010PropOp49
 70
     1
102
RTVSPost2010Prop50
 90
       50
102
RTVSPost2010PropOp50
 70
     1
102
RTVSPost2010Prop51ColorIndex
 90
      256
102
RTVSPost2010Prop51ColorRGB
 90
-16777216
102
RTVSPost2010PropOp51
 70
     0
102
RTVSPost2010Prop52
140
1.0
102
RTVSPost2010PropOp52
 70
     0
102
RTVSPost2010Prop53
 90
        2
102
RTVSPost2010PropOp53
 70
     1
102
RTVSPost2010Prop54
  1
strokes_ogs.tif
102
RTVSPost2010PropOp54
 70
     1
102
RTVSPost2010Prop55
280
     0
102
RTVSPost2010PropOp55
 70
     1
102
RTVSPost2010Prop56
140
1.0
102
RTVSPost2010PropOp56
 70
     1
102
RTVSPost2010Prop57
140
1.0
102
RTVSPost2010PropOp57
 70
     1
102
RTVSPropertyOp0
 70
     1
102
RTVSPropertyOp1
 70
     1
102
RTVSPropertyOp2
 70
     1
102
RTVSPropertyOp3
 70
     1
102
RTVSPropertyOp4
 70
     1
102
RTVSPropertyOp5
 70
     1
102
RTVSPropertyOp6
 70
     1
102
RTVSPropertyOp7
 70
     1
102
RTVSPropertyOp8
 70
     1
102
RTVSPropertyOp9
 70
     1
102
RTVSPropertyOp10
 70
     1
102
RTVSPropertyOp11
 70
     1
102
RTVSPropertyOp12
 70
     1
102
RTVSPropertyOp13
 70
     1
102
RTVSPropertyOp14
 70
     1
102
RTVSPropertyOp15
 70
     1
102
RTVSPropertyOp16
 70
     1
102
RTVSPropertyOp17
 70
     1
102
RTVSPropertyOp18
 70
     1
102
RTVSPropertyOp19
 70
     1
102
RTVSPropertyOp20
 70
     1
102
RTVSPropertyOp21
 70
     1
102
RTVSPropertyOp22
 70
     1
102
RTVSPropertyOp23
 70
     1
102
RTVSPropertyOp24
 70
     1
102
RTVSPropertyOp25
 70
     1
102
RTVSPropertyOp26
 70
     1
102
RTVSPropertyOp27
 70
     1
102
RTVSPropertyOp28
 70
     1
102
RTVSPropertyOp29
 70
     1
102
RTVSPropertyOp30
 70
     1
102
RTVSPropertyOp31
 70
     1
102
RTVSPropertyOp32
 70
     1
102
RTVSPropertyOp33
 70
     1
102
RTVSPropertyOp34
 70
     1
102
RTVSPropertyOp35
 70
     1
102
RTVSPropertyOp36
 70
     1
102
RTVSPropertyOp37
 70
     1
102
RTVSPropertyOp38
 70
     1
102
RTVSPropertyOp39
 70
     1
102
RTVSPropertyOp40
 70
     1
102
RTVSPropertyOp41
 70
     1
102
RTVSPropertyOp42
 70
     1
102
RTVSPropertyOp43
 70
     1
102
RTVSPropertyOp44
 70
     1
102
RTVSPropertyOp45
 70
     1
102
RTVSPropertyOp46
 70
     1
102
RTVSPropertyOp47
 70
     1
102
RTVSPropertyOp48
 70
     1
102
RTVSPropertyOp49
 70
     1
102
RTVSPropertyOp50
 70
     1
102
RTVSPropertyOp51
 70
     0
102
RTVSPropertyOp52
 70
     0
102
RTVSPropertyOp53
 70
     1
102
RTVSPropertyOp54
 70
     1
102
RTVSPropertyOp55
 70
     1
102
RTVSPropertyOp56
 70
     1
102
RTVSPropertyOp57
 70
     1
102
RTVSPropertyOp58
 70
     1
102
RTVSPropertyOp59
 70
     1
102
RTVSPropertyOp60
 70
     1
102
RTVSPropertyOp61
 70
     1
102
RTVSPropertyOp62
 70
     1
  0
XRECORD
  5
3A5
102
{ACAD_REACTORS
330
3A4
102
}
330
3A4
100
AcDbXrecord
280
     1
102
RTVSPost2010Prop28
280
     0
102
RTVSPost2010PropOp28
 70
     1
102
RTVSPost2010Prop29
280
     1
102
RTVSPost2010PropOp29
 70
     1
102
RTVSPost2010Prop30
280
     1
102
RTVSPost2010PropOp30
 70
     1
102
RTVSPost2010Prop31
280
     0
102
RTVSPost2010PropOp31
 70
     1
102
RTVSPost2010Prop32
280
     0
102
RTVSPost2010PropOp32
 70
     1
102
RTVSPost2010Prop33
280
     0
102
RTVSPost2010PropOp33
 70
     1
102
RTVSPost2010Prop34
280
     0
102
RTVSPost2010PropOp34
 70
     1
102
RTVSPost2010Prop35
280
     0
102
RTVSPost2010PropOp35
 70
     1
102
RTVSPost2010Prop36
280
     0
102
RTVSPost2010PropOp36
 70
     1
102
RTVSPost2010Prop37
 90
       50
102
RTVSPost2010PropOp37
 70
     1
102
RTVSPost2010Prop38
140
0.0
102
RTVSPost2010PropOp38
 70
     1
102
RTVSPost2010Prop39
140
1.0
102
RTVSPost2010PropOp39
 70
     1
102
RTVSPost2010Prop40
 90
        0
102
RTVSPost2010PropOp40
 70
     1
102
RTVSPost2010Prop41ColorIndex
 90
       18
102
RTVSPost2010Prop41ColorRGB
 90
        0
102
RTVSPost2010PropOp41
 70
     1
102
RTVSPost2010Prop42
 90
       50
102
RTVSPost2010PropOp42
 70
     1
102
RTVSPost2010Prop43
 90
        3
102
RTVSPost2010PropOp43
 70
     1
102
RTVSPost2010Prop44ColorIndex
 90
        5
102
RTVSPost2010Prop44ColorRGB
 90
      255
102
RTVSPost2010PropOp44
 70
     1
102
RTVSPost2010Prop45
280
     0
102
RTVSPost2010PropOp45
 70
     1
102
RTVSPost2010Prop46
 90
       50
102
RTVSPost2010PropOp46
 70
     1
102
RTVSPost2010Prop47
 90
       50
102
RTVSPost2010PropOp47
 70
     1
102
RTVSPost2010Prop48
 90
       50
102
RTVSPost2010PropOp48
 70
     1
102
RTVSPost2010Prop49
280
     0
102
RTVSPost2010PropOp49
 70
     1
102
RTVSPost2010Prop50
 90
       50
102
RTVSPost2010PropOp50
 70
     1
102
RTVSPost2010Prop51ColorIndex
 90
      256
102
RTVSPost2010Prop51ColorRGB
 90
-16777216
102
RTVSPost2010PropOp51
 70
     0
102
RTVSPost2010Prop52
140
1.0
102
RTVSPost2010PropOp52
 70
     0
102
RTVSPost2010Prop53
 90
        2
102
RTVSPost2010PropOp53
 70
     1
102
RTVSPost2010Prop54
  1
strokes_ogs.tif
102
RTVSPost2010PropOp54
 70
     1
102
RTVSPost2010Prop55
280
     0
102
RTVSPost2010PropOp55
 70
     1
102
RTVSPost2010Prop56
140
1.0
102
RTVSPost2010PropOp56
 70
     1
102
RTVSPost2010Prop57
140
1.0
102
RTVSPost2010PropOp57
 70
     1
102
RTVSPropertyOp0
 70
     1
102
RTVSPropertyOp1
 70
     1
102
RTVSPropertyOp2
 70
     1
102
RTVSPropertyOp3
 70
     1
102
RTVSPropertyOp4
 70
     1
102
RTVSPropertyOp5
 70
     1
102
RTVSPropertyOp6
 70
     1
102
RTVSPropertyOp7
 70
     1
102
RTVSPropertyOp8
 70
     1
102
RTVSPropertyOp9
 70
     1
102
RTVSPropertyOp10
 70
     1
102
RTVSPropertyOp11
 70
     1
102
RTVSPropertyOp12
 70
     1
102
RTVSPropertyOp13
 70
     1
102
RTVSPropertyOp14
 70
     1
102
RTVSPropertyOp15
 70
     1
102
RTVSPropertyOp16
 70
     1
102
RTVSPropertyOp17
 70
     1
102
RTVSPropertyOp18
 70
     1
102
RTVSPropertyOp19
 70
     1
102
RTVSPropertyOp20
 70
     1
102
RTVSPropertyOp21
 70
     1
102
RTVSPropertyOp22
 70
     1
102
RTVSPropertyOp23
 70
     1
102
RTVSPropertyOp24
 70
     1
102
RTVSPropertyOp25
 70
     1
102
RTVSPropertyOp26
 70
     1
102
RTVSPropertyOp27
 70
     1
102
RTVSPropertyOp28
 70
     1
102
RTVSPropertyOp29
 70
     1
102
RTVSPropertyOp30
 70
     1
102
RTVSPropertyOp31
 70
     1
102
RTVSPropertyOp32
 70
     1
102
RTVSPropertyOp33
 70
     1
102
RTVSPropertyOp34
 70
     1
102
RTVSPropertyOp35
 70
     1
102
RTVSPropertyOp36
 70
     1
102
RTVSPropertyOp37
 70
     1
102
RTVSPropertyOp38
 70
     1
102
RTVSPropertyOp39
 70
     1
102
RTVSPropertyOp40
 70
     1
102
RTVSPropertyOp41
 70
     1
102
RTVSPropertyOp42
 70
     1
102
RTVSPropertyOp43
 70
     1
102
RTVSPropertyOp44
 70
     1
102
RTVSPropertyOp45
 70
     1
102
RTVSPropertyOp46
 70
     1
102
RTVSPropertyOp47
 70
     1
102
RTVSPropertyOp48
 70
     1
102
RTVSPropertyOp49
 70
     1
102
RTVSPropertyOp50
 70
     1
102
RTVSPropertyOp51
 70
     0
102
RTVSPropertyOp52
 70
     0
102
RTVSPropertyOp53
 70
     1
102
RTVSPropertyOp54
 70
     1
102
RTVSPropertyOp55
 70
     1
102
RTVSPropertyOp56
 70
     1
102
RTVSPropertyOp57
 70
     1
102
RTVSPropertyOp58
 70
     1
102
RTVSPropertyOp59
 70
     1
102
RTVSPropertyOp60
 70
     1
102
RTVSPropertyOp61
 70
     1
102
RTVSPropertyOp62
 70
     1
  0
XRECORD
  5
397
102
{ACAD_REACTORS
330
396
102
}
330
396
100
AcDbXrecord
280
     1
102
RTVSPost2010Prop28
280
     0
102
RTVSPost2010PropOp28
 70
     1
102
RTVSPost2010Prop29
280
     1
102
RTVSPost2010PropOp29
 70
     1
102
RTVSPost2010Prop30
280
     1
102
RTVSPost2010PropOp30
 70
     1
102
RTVSPost2010Prop31
280
     0
102
RTVSPost2010PropOp31
 70
     1
102
RTVSPost2010Prop32
280
     0
102
RTVSPost2010PropOp32
 70
     1
102
RTVSPost2010Prop33
280
     0
102
RTVSPost2010PropOp33
 70
     1
102
RTVSPost2010Prop34
280
     0
102
RTVSPost2010PropOp34
 70
     1
102
RTVSPost2010Prop35
280
     0
102
RTVSPost2010PropOp35
 70
     1
102
RTVSPost2010Prop36
280
     0
102
RTVSPost2010PropOp36
 70
     1
102
RTVSPost2010Prop37
 90
       50
102
RTVSPost2010PropOp37
 70
     1
102
RTVSPost2010Prop38
140
0.0
102
RTVSPost2010PropOp38
 70
     1
102
RTVSPost2010Prop39
140
1.0
102
RTVSPost2010PropOp39
 70
     1
102
RTVSPost2010Prop40
 90
        0
102
RTVSPost2010PropOp40
 70
     1
102
RTVSPost2010Prop41ColorIndex
 90
       18
102
RTVSPost2010Prop41ColorRGB
 90
        0
102
RTVSPost2010PropOp41
 70
     1
102
RTVSPost2010Prop42
 90
       50
102
RTVSPost2010PropOp42
 70
     1
102
RTVSPost2010Prop43
 90
        3
102
RTVSPost2010PropOp43
 70
     1
102
RTVSPost2010Prop44ColorIndex
 90
        5
102
RTVSPost2010Prop44ColorRGB
 90
      255
102
RTVSPost2010PropOp44
 70
     1
102
RTVSPost2010Prop45
280
     0
102
RTVSPost2010PropOp45
 70
     1
102
RTVSPost2010Prop46
 90
       50
102
RTVSPost2010PropOp46
 70
     1
102
RTVSPost2010Prop47
 90
       50
102
RTVSPost2010PropOp47
 70
     1
102
RTVSPost2010Prop48
 90
       50
102
RTVSPost2010PropOp48
 70
     1
102
RTVSPost2010Prop49
280
     0
102
RTVSPost2010PropOp49
 70
     1
102
RTVSPost2010Prop50
 90
       50
102
RTVSPost2010PropOp50
 70
     1
102
RTVSPost2010Prop51ColorIndex
 90
      256
102
RTVSPost2010Prop51ColorRGB
 90
-16777216
102
RTVSPost2010PropOp51
 70
     0
102
RTVSPost2010Prop52
140
1.0
102
RTVSPost2010PropOp52
 70
     0
102
RTVSPost2010Prop53
 90
        2
102
RTVSPost2010PropOp53
 70
     1
102
RTVSPost2010Prop54
  1
strokes_ogs.tif
102
RTVSPost2010PropOp54
 70
     1
102
RTVSPost2010Prop55
280
     0
102
RTVSPost2010PropOp55
 70
     1
102
RTVSPost2010Prop56
140
1.0
102
RTVSPost2010PropOp56
 70
     1
102
RTVSPost2010Prop57
140
1.0
102
RTVSPost2010PropOp57
 70
     1
102
RTVSPropertyOp0
 70
     1
102
RTVSPropertyOp1
 70
     1
102
RTVSPropertyOp2
 70
     1
102
RTVSPropertyOp3
 70
     1
102
RTVSPropertyOp4
 70
     1
102
RTVSPropertyOp5
 70
     1
102
RTVSPropertyOp6
 70
     1
102
RTVSPropertyOp7
 70
     1
102
RTVSPropertyOp8
 70
     1
102
RTVSPropertyOp9
 70
     1
102
RTVSPropertyOp10
 70
     1
102
RTVSPropertyOp11
 70
     1
102
RTVSPropertyOp12
 70
     1
102
RTVSPropertyOp13
 70
     1
102
RTVSPropertyOp14
 70
     1
102
RTVSPropertyOp15
 70
     1
102
RTVSPropertyOp16
 70
     1
102
RTVSPropertyOp17
 70
     1
102
RTVSPropertyOp18
 70
     1
102
RTVSPropertyOp19
 70
     1
102
RTVSPropertyOp20
 70
     1
102
RTVSPropertyOp21
 70
     1
102
RTVSPropertyOp22
 70
     1
102
RTVSPropertyOp23
 70
     1
102
RTVSPropertyOp24
 70
     1
102
RTVSPropertyOp25
 70
     1
102
RTVSPropertyOp26
 70
     1
102
RTVSPropertyOp27
 70
     1
102
RTVSPropertyOp28
 70
     1
102
RTVSPropertyOp29
 70
     1
102
RTVSPropertyOp30
 70
     1
102
RTVSPropertyOp31
 70
     1
102
RTVSPropertyOp32
 70
     1
102
RTVSPropertyOp33
 70
     1
102
RTVSPropertyOp34
 70
     1
102
RTVSPropertyOp35
 70
     1
102
RTVSPropertyOp36
 70
     1
102
RTVSPropertyOp37
 70
     1
102
RTVSPropertyOp38
 70
     1
102
RTVSPropertyOp39
 70
     1
102
RTVSPropertyOp40
 70
     1
102
RTVSPropertyOp41
 70
     1
102
RTVSPropertyOp42
 70
     1
102
RTVSPropertyOp43
 70
     1
102
RTVSPropertyOp44
 70
     1
102
RTVSPropertyOp45
 70
     1
102
RTVSPropertyOp46
 70
     1
102
RTVSPropertyOp47
 70
     1
102
RTVSPropertyOp48
 70
     1
102
RTVSPropertyOp49
 70
     1
102
RTVSPropertyOp50
 70
     1
102
RTVSPropertyOp51
 70
     0
102
RTVSPropertyOp52
 70
     0
102
RTVSPropertyOp53
 70
     1
102
RTVSPropertyOp54
 70
     1
102
RTVSPropertyOp55
 70
     1
102
RTVSPropertyOp56
 70
     1
102
RTVSPropertyOp57
 70
     1
102
RTVSPropertyOp58
 70
     1
102
RTVSPropertyOp59
 70
     1
102
RTVSPropertyOp60
 70
     1
102
RTVSPropertyOp61
 70
     1
102
RTVSPropertyOp62
 70
     1
  0
XRECORD
  5
3B7
102
{ACAD_REACTORS
330
3B6
102
}
330
3B6
100
AcDbXrecord
280
     1
102
RTVSPost2010Prop28
280
     0
102
RTVSPost2010PropOp28
 70
     1
102
RTVSPost2010Prop29
280
     1
102
RTVSPost2010PropOp29
 70
     1
102
RTVSPost2010Prop30
280
     1
102
RTVSPost2010PropOp30
 70
     1
102
RTVSPost2010Prop31
280
     0
102
RTVSPost2010PropOp31
 70
     1
102
RTVSPost2010Prop32
280
     0
102
RTVSPost2010PropOp32
 70
     1
102
RTVSPost2010Prop33
280
     0
102
RTVSPost2010PropOp33
 70
     1
102
RTVSPost2010Prop34
280
     0
102
RTVSPost2010PropOp34
 70
     1
102
RTVSPost2010Prop35
280
     0
102
RTVSPost2010PropOp35
 70
     1
102
RTVSPost2010Prop36
280
     0
102
RTVSPost2010PropOp36
 70
     1
102
RTVSPost2010Prop37
 90
       50
102
RTVSPost2010PropOp37
 70
     1
102
RTVSPost2010Prop38
140
0.0
102
RTVSPost2010PropOp38
 70
     1
102
RTVSPost2010Prop39
140
1.0
102
RTVSPost2010PropOp39
 70
     1
102
RTVSPost2010Prop40
 90
        0
102
RTVSPost2010PropOp40
 70
     1
102
RTVSPost2010Prop41ColorIndex
 90
       18
102
RTVSPost2010Prop41ColorRGB
 90
        0
102
RTVSPost2010PropOp41
 70
     1
102
RTVSPost2010Prop42
 90
       50
102
RTVSPost2010PropOp42
 70
     1
102
RTVSPost2010Prop43
 90
        3
102
RTVSPost2010PropOp43
 70
     1
102
RTVSPost2010Prop44ColorIndex
 90
        5
102
RTVSPost2010Prop44ColorRGB
 90
      255
102
RTVSPost2010PropOp44
 70
     1
102
RTVSPost2010Prop45
280
     0
102
RTVSPost2010PropOp45
 70
     1
102
RTVSPost2010Prop46
 90
       50
102
RTVSPost2010PropOp46
 70
     1
102
RTVSPost2010Prop47
 90
       50
102
RTVSPost2010PropOp47
 70
     1
102
RTVSPost2010Prop48
 90
       50
102
RTVSPost2010PropOp48
 70
     1
102
RTVSPost2010Prop49
280
     0
102
RTVSPost2010PropOp49
 70
     1
102
RTVSPost2010Prop50
 90
       50
102
RTVSPost2010PropOp50
 70
     1
102
RTVSPost2010Prop51ColorIndex
 90
      256
102
RTVSPost2010Prop51ColorRGB
 90
-16777216
102
RTVSPost2010PropOp51
 70
     0
102
RTVSPost2010Prop52
140
1.0
102
RTVSPost2010PropOp52
 70
     0
102
RTVSPost2010Prop53
 90
        2
102
RTVSPost2010PropOp53
 70
     1
102
RTVSPost2010Prop54
  1
strokes_ogs.tif
102
RTVSPost2010PropOp54
 70
     1
102
RTVSPost2010Prop55
280
     0
102
RTVSPost2010PropOp55
 70
     1
102
RTVSPost2010Prop56
140
1.0
102
RTVSPost2010PropOp56
 70
     1
102
RTVSPost2010Prop57
140
1.0
102
RTVSPost2010PropOp57
 70
     1
102
RTVSPropertyOp0
 70
     1
102
RTVSPropertyOp1
 70
     1
102
RTVSPropertyOp2
 70
     1
102
RTVSPropertyOp3
 70
     1
102
RTVSPropertyOp4
 70
     1
102
RTVSPropertyOp5
 70
     1
102
RTVSPropertyOp6
 70
     1
102
RTVSPropertyOp7
 70
     1
102
RTVSPropertyOp8
 70
     1
102
RTVSPropertyOp9
 70
     1
102
RTVSPropertyOp10
 70
     1
102
RTVSPropertyOp11
 70
     1
102
RTVSPropertyOp12
 70
     1
102
RTVSPropertyOp13
 70
     1
102
RTVSPropertyOp14
 70
     1
102
RTVSPropertyOp15
 70
     1
102
RTVSPropertyOp16
 70
     1
102
RTVSPropertyOp17
 70
     1
102
RTVSPropertyOp18
 70
     1
102
RTVSPropertyOp19
 70
     1
102
RTVSPropertyOp20
 70
     1
102
RTVSPropertyOp21
 70
     1
102
RTVSPropertyOp22
 70
     1
102
RTVSPropertyOp23
 70
     1
102
RTVSPropertyOp24
 70
     1
102
RTVSPropertyOp25
 70
     1
102
RTVSPropertyOp26
 70
     1
102
RTVSPropertyOp27
 70
     1
102
RTVSPropertyOp28
 70
     1
102
RTVSPropertyOp29
 70
     1
102
RTVSPropertyOp30
 70
     1
102
RTVSPropertyOp31
 70
     1
102
RTVSPropertyOp32
 70
     1
102
RTVSPropertyOp33
 70
     1
102
RTVSPropertyOp34
 70
     1
102
RTVSPropertyOp35
 70
     1
102
RTVSPropertyOp36
 70
     1
102
RTVSPropertyOp37
 70
     1
102
RTVSPropertyOp38
 70
     1
102
RTVSPropertyOp39
 70
     1
102
RTVSPropertyOp40
 70
     1
102
RTVSPropertyOp41
 70
     1
102
RTVSPropertyOp42
 70
     1
102
RTVSPropertyOp43
 70
     1
102
RTVSPropertyOp44
 70
     1
102
RTVSPropertyOp45
 70
     1
102
RTVSPropertyOp46
 70
     1
102
RTVSPropertyOp47
 70
     1
102
RTVSPropertyOp48
 70
     1
102
RTVSPropertyOp49
 70
     1
102
RTVSPropertyOp50
 70
     1
102
RTVSPropertyOp51
 70
     0
102
RTVSPropertyOp52
 70
     0
102
RTVSPropertyOp53
 70
     1
102
RTVSPropertyOp54
 70
     1
102
RTVSPropertyOp55
 70
     1
102
RTVSPropertyOp56
 70
     1
102
RTVSPropertyOp57
 70
     1
102
RTVSPropertyOp58
 70
     1
102
RTVSPropertyOp59
 70
     1
102
RTVSPropertyOp60
 70
     1
102
RTVSPropertyOp61
 70
     1
102
RTVSPropertyOp62
 70
     1
  0
ENDSEC
  0
EOF
