  0
SECTION
  2
HEADER
  9
$ACADVER
  1
AC1018
  9
$ACADMAINTVER
 70
   104
  9
$DWGCODEPAGE
  3
ANSI_1250
  9
$LASTSAVEDBY
  1
wq7085
  9
$INSBASE
 10
0.0
 20
0.0
 30
0.0
  9
$EXTMIN
 10
187.2502013333333
 20
249.9141106666666
 30
0.0
  9
$EXTMAX
 10
477.9384139999999
 20
351.9336746666668
 30
0.0
  9
$LIMMIN
 10
-0.5
 20
-0.5
  9
$LIMMAX
 10
5.0
 20
5.0
  9
$ORTHOMODE
 70
     0
  9
$REGENMODE
 70
     1
  9
$FILLMODE
 70
     1
  9
$QTEXTMODE
 70
     0
  9
$MIRRTEXT
 70
     1
  9
$LTSCALE
 40
1.0
  9
$ATTMODE
 70
     1
  9
$TEXTSIZE
 40
0.2
  9
$TRACEWID
 40
0.05
  9
$TEXTSTYLE
  7
Standard
  9
$CLAYER
  8
0
  9
$CELTYPE
  6
ByLayer
  9
$CECOLOR
 62
   256
  9
$CELTSCALE
 40
1.0
  9
$DISPSILH
 70
     0
  9
$DIMSCALE
 40
1.0
  9
$DIMASZ
 40
0.18
  9
$DIMEXO
 40
0.0625
  9
$DIMDLI
 40
0.38
  9
$DIMRND
 40
0.0
  9
$DIMDLE
 40
0.0
  9
$DIMEXE
 40
0.18
  9
$DIMTP
 40
0.0
  9
$DIMTM
 40
0.0
  9
$DIMTXT
 40
0.18
  9
$DIMCEN
 40
0.09
  9
$DIMTSZ
 40
0.0
  9
$DIMTOL
 70
     0
  9
$DIMLIM
 70
     0
  9
$DIMTIH
 70
     1
  9
$DIMTOH
 70
     1
  9
$DIMSE1
 70
     0
  9
$DIMSE2
 70
     0
  9
$DIMTAD
 70
     0
  9
$DIMZIN
 70
     0
  9
$DIMBLK
  1

  9
$DIMASO
 70
     1
  9
$DIMSHO
 70
     1
  9
$DIMPOST
  1

  9
$DIMAPOST
  1

  9
$DIMALT
 70
     0
  9
$DIMALTD
 70
     2
  9
$DIMALTF
 40
25.4
  9
$DIMLFAC
 40
1.0
  9
$DIMTOFL
 70
     0
  9
$DIMTVP
 40
0.0
  9
$DIMTIX
 70
     0
  9
$DIMSOXD
 70
     0
  9
$DIMSAH
 70
     0
  9
$DIMBLK1
  1

  9
$DIMBLK2
  1

  9
$DIMSTYLE
  2
Standard
  9
$DIMCLRD
 70
     0
  9
$DIMCLRE
 70
     0
  9
$DIMCLRT
 70
     0
  9
$DIMTFAC
 40
1.0
  9
$DIMGAP
 40
0.09
  9
$DIMJUST
 70
     0
  9
$DIMSD1
 70
     0
  9
$DIMSD2
 70
     0
  9
$DIMTOLJ
 70
     1
  9
$DIMTZIN
 70
     0
  9
$DIMALTZ
 70
     0
  9
$DIMALTTZ
 70
     0
  9
$DIMUPT
 70
     0
  9
$DIMDEC
 70
     4
  9
$DIMTDEC
 70
     4
  9
$DIMALTU
 70
     2
  9
$DIMALTTD
 70
     2
  9
$DIMTXSTY
  7
Standard
  9
$DIMAUNIT
 70
     0
  9
$DIMADEC
 70
     0
  9
$DIMALTRND
 40
0.0
  9
$DIMAZIN
 70
     0
  9
$DIMDSEP
 70
    46
  9
$DIMATFIT
 70
     3
  9
$DIMFRAC
 70
     0
  9
$DIMLDRBLK
  1

  9
$DIMLUNIT
 70
     2
  9
$DIMLWD
 70
    -2
  9
$DIMLWE
 70
    -2
  9
$DIMTMOVE
 70
     0
  9
$LUNITS
 70
     2
  9
$LUPREC
 70
     4
  9
$SKETCHINC
 40
0.1
  9
$FILLETRAD
 40
0.5
  9
$AUNITS
 70
     0
  9
$AUPREC
 70
     0
  9
$MENU
  1
.
  9
$ELEVATION
 40
0.0
  9
$PELEVATION
 40
0.0
  9
$THICKNESS
 40
0.0
  9
$LIMCHECK
 70
     0
  9
$CHAMFERA
 40
0.0
  9
$CHAMFERB
 40
0.0
  9
$CHAMFERC
 40
0.0
  9
$CHAMFERD
 40
0.0
  9
$SKPOLY
 70
     0
  9
$TDCREATE
 40
2459089.502476852
  9
$TDUCREATE
 40
2459089.419149491
  9
$TDUPDATE
 40
2459089.503437500
  9
$TDUUPDATE
 40
2459089.420104167
  9
$TDINDWG
 40
0.0002777894
  9
$TDUSRTIMER
 40
0.0002777894
  9
$USRTIMER
 70
     1
  9
$ANGBASE
 50
0.0
  9
$ANGDIR
 70
     0
  9
$PDMODE
 70
     0
  9
$PDSIZE
 40
0.0
  9
$PLINEWID
 40
0.0
  9
$SPLFRAME
 70
     0
  9
$SPLINETYPE
 70
     6
  9
$SPLINESEGS
 70
     8
  9
$HANDSEED
  5
39D
  9
$SURFTAB1
 70
     6
  9
$SURFTAB2
 70
     6
  9
$SURFTYPE
 70
     6
  9
$SURFU
 70
     6
  9
$SURFV
 70
     6
  9
$UCSBASE
  2

  9
$UCSNAME
  2

  9
$UCSORG
 10
274.404842
 20
288.907994
 30
0.0
  9
$UCSXDIR
 10
1.0
 20
0.0
 30
0.0
  9
$UCSYDIR
 10
0.0
 20
1.0
 30
0.0
  9
$UCSORTHOREF
  2

  9
$UCSORTHOVIEW
 70
     0
  9
$UCSORGTOP
 10
0.0
 20
0.0
 30
0.0
  9
$UCSORGBOTTOM
 10
0.0
 20
0.0
 30
0.0
  9
$UCSORGLEFT
 10
0.0
 20
0.0
 30
0.0
  9
$UCSORGRIGHT
 10
0.0
 20
0.0
 30
0.0
  9
$UCSORGFRONT
 10
0.0
 20
0.0
 30
0.0
  9
$UCSORGBACK
 10
0.0
 20
0.0
 30
0.0
  9
$PUCSBASE
  2

  9
$PUCSNAME
  2

  9
$PUCSORG
 10
0.0
 20
0.0
 30
0.0
  9
$PUCSXDIR
 10
1.0
 20
0.0
 30
0.0
  9
$PUCSYDIR
 10
0.0
 20
1.0
 30
0.0
  9
$PUCSORTHOREF
  2

  9
$PUCSORTHOVIEW
 70
     0
  9
$PUCSORGTOP
 10
0.0
 20
0.0
 30
0.0
  9
$PUCSORGBOTTOM
 10
0.0
 20
0.0
 30
0.0
  9
$PUCSORGLEFT
 10
0.0
 20
0.0
 30
0.0
  9
$PUCSORGRIGHT
 10
0.0
 20
0.0
 30
0.0
  9
$PUCSORGFRONT
 10
0.0
 20
0.0
 30
0.0
  9
$PUCSORGBACK
 10
0.0
 20
0.0
 30
0.0
  9
$USERI1
 70
     0
  9
$USERI2
 70
     0
  9
$USERI3
 70
     0
  9
$USERI4
 70
     0
  9
$USERI5
 70
     0
  9
$USERR1
 40
0.0
  9
$USERR2
 40
0.0
  9
$USERR3
 40
0.0
  9
$USERR4
 40
0.0
  9
$USERR5
 40
0.0
  9
$WORLDVIEW
 70
     1
  9
$SHADEDGE
 70
     3
  9
$SHADEDIF
 70
    70
  9
$TILEMODE
 70
     1
  9
$MAXACTVP
 70
    64
  9
$PINSBASE
 10
0.0
 20
0.0
 30
0.0
  9
$PLIMCHECK
 70
     0
  9
$PEXTMIN
 10
-0.5
 20
-0.5
 30
-0.5
  9
$PEXTMAX
 10
5.0
 20
5.0
 30
5.0
  9
$PLIMMIN
 10
-0.5
 20
-0.5
  9
$PLIMMAX
 10
5.0
 20
5.0
  9
$UNITMODE
 70
     0
  9
$VISRETAIN
 70
     1
  9
$PLINEGEN
 70
     0
  9
$PSLTSCALE
 70
     1
  9
$TREEDEPTH
 70
  3020
  9
$CMLSTYLE
  2
Standard
  9
$CMLJUST
 70
     0
  9
$CMLSCALE
 40
1.0
  9
$PROXYGRAPHICS
 70
     1
  9
$MEASUREMENT
 70
     1
  9
$CELWEIGHT
370
    13
  9
$ENDCAPS
280
     0
  9
$JOINSTYLE
280
     0
  9
$LWDISPLAY
290
     0
  9
$INSUNITS
 70
     4
  9
$HYPERLINKBASE
  1

  9
$STYLESHEET
  1

  9
$XEDIT
290
     1
  9
$CEPSNTYPE
380
     0
  9
$PSTYLEMODE
290
     1
  9
$FINGERPRINTGUID
  2
{422763BE-06BC-4610-83EE-C11E351E6017}
  9
$VERSIONGUID
  2
{415F67D9-DADB-F54F-B141-30306813E024}
  9
$EXTNAMES
290
     1
  9
$PSVPSCALE
 40
0.0
  9
$OLESTARTUP
290
     0
  9
$SORTENTS
280
   127
  9
$INDEXCTL
280
     0
  9
$HIDETEXT
280
     1
  9
$XCLIPFRAME
290
     0
  9
$HALOGAP
280
     0
  9
$OBSCOLOR
 70
   257
  9
$OBSLTYPE
280
     0
  9
$INTERSECTIONDISPLAY
280
     0
  9
$INTERSECTIONCOLOR
 70
   257
  9
$DIMASSOC
280
     2
  9
$PROJECTNAME
  1

  0
ENDSEC
  0
SECTION
  2
CLASSES
  0
CLASS
  1
ACDBDICTIONARYWDFLT
  2
AcDbDictionaryWithDefault
  3
ObjectDBX Classes
 90
        0
 91
        1
280
     0
281
     0
  0
CLASS
  1
VISUALSTYLE
  2
AcDbVisualStyle
  3
ObjectDBX Classes
 90
     4095
 91
       24
280
     0
281
     0
  0
CLASS
  1
MATERIAL
  2
AcDbMaterial
  3
ObjectDBX Classes
 90
     1153
 91
        3
280
     0
281
     0
  0
CLASS
  1
SCALE
  2
AcDbScale
  3
ObjectDBX Classes
 90
     1153
 91
       33
280
     0
281
     0
  0
CLASS
  1
TABLESTYLE
  2
AcDbTableStyle
  3
ObjectDBX Classes
 90
     4095
 91
        1
280
     0
281
     0
  0
CLASS
  1
MLEADERSTYLE
  2
AcDbMLeaderStyle
  3
ACDB_MLEADERSTYLE_CLASS
 90
     4095
 91
        1
280
     0
281
     0
  0
CLASS
  1
SUN
  2
AcDbSun
  3
SCENEOE
 90
     1153
 91
        0
280
     0
281
     0
  0
CLASS
  1
DIMASSOC
  2
AcDbDimAssoc
  3
"AcDbDimAssoc|Product Desc:     AcDim ARX App For Dimension|Company:          Autodesk, Inc.|WEB Address:      www.autodesk.com"
 90
        0
 91
        7
280
     0
281
     0
  0
CLASS
  1
DICTIONARYVAR
  2
AcDbDictionaryVar
  3
ObjectDBX Classes
 90
        0
 91
        8
280
     0
281
     0
  0
CLASS
  1
CELLSTYLEMAP
  2
AcDbCellStyleMap
  3
ObjectDBX Classes
 90
     1152
 91
        2
280
     0
281
     0
  0
CLASS
  1
ACDBSECTIONVIEWSTYLE
  2
AcDbSectionViewStyle
  3
ObjectDBX Classes
 90
     1025
 91
        1
280
     0
281
     0
  0
CLASS
  1
ACDBDETAILVIEWSTYLE
  2
AcDbDetailViewStyle
  3
ObjectDBX Classes
 90
     1025
 91
        1
280
     0
281
     0
  0
CLASS
  1
SORTENTSTABLE
  2
AcDbSortentsTable
  3
ObjectDBX Classes
 90
        0
 91
        1
280
     0
281
     0
  0
ENDSEC
  0
SECTION
  2
TABLES
  0
TABLE
  2
VPORT
  5
8
330
0
100
AcDbSymbolTable
 70
    16
  0
VPORT
  5
29
330
8
100
AcDbSymbolTableRecord
100
AcDbViewportTableRecord
  2
*Active
 70
     0
 10
0.0
 20
0.0
 11
1.0
 21
1.0
 12
330.4968952944562
 22
288.9556335616387
 13
0.0
 23
0.0
 14
0.5
 24
0.5
 15
0.5
 25
0.5
 16
0.0
 26
0.0
 36
1.0
 17
0.0
 27
0.0
 37
0.0
 40
214.7249977344809
 41
2.292712066905615
 42
50.0
 43
500.6513759999999
 44
-500.6513759999999
 50
0.0
 51
0.0
 71
     0
 72
   100
 73
     1
 74
     3
 75
     0
 76
     0
 77
     0
 78
     0
281
     0
 65
     1
110
274.404842
120
288.907994
130
0.0
111
1.0
121
0.0
131
0.0
112
0.0
122
1.0
132
0.0
 79
     0
146
0.0
1001
ACAD_NAV_VCDISPLAY
1070
     3
  0
VPORT
  5
2A1
330
8
100
AcDbSymbolTableRecord
100
AcDbViewportTableRecord
  2
L1
 70
     0
 10
0.0
 20
0.0
 11
1.0
 21
1.0
 12
332.090103
 22
235.1638279999999
 13
0.0
 23
0.0
 14
0.5
 24
0.5
 15
0.5
 25
0.5
 16
0.0
 26
0.0
 36
1.0
 17
0.0
 27
0.0
 37
0.0
 40
207.433333
 41
0.085602
 42
50.0
 43
500.6513759999999
 44
-500.6513759999999
 50
0.0
 51
0.0
 71
     0
 72
   100
 73
     1
 74
     3
 75
     0
 76
     0
 77
     0
 78
     0
281
     0
 65
     1
110
0.0
120
0.0
130
0.0
111
1.0
121
0.0
131
0.0
112
0.0
122
1.0
132
0.0
 79
     0
146
0.0
  0
VPORT
  5
2A2
330
8
100
AcDbSymbolTableRecord
100
AcDbViewportTableRecord
  2
L2
 70
     0
 10
0.0
 20
0.0
 11
0.5
 21
1.0
 12
0.0
 22
0.0
 13
0.0
 23
0.0
 14
0.5
 24
0.5
 15
0.5
 25
0.5
 16
0.0
 26
-1.0
 36
0.0
 17
0.0
 27
0.0
 37
0.0
 40
1316.18997
 41
0.013491
 42
50.0
 43
678.00864
 44
-678.00864
 50
0.0
 51
0.0
 71
     0
 72
   100
 73
     1
 74
     3
 75
     0
 76
     0
 77
     0
 78
     0
281
     0
 65
     1
110
0.0
120
0.0
130
0.0
111
1.0
121
0.0
131
0.0
112
0.0
122
1.0
132
0.0
 79
     0
146
0.0
  0
VPORT
  5
2A3
330
8
100
AcDbSymbolTableRecord
100
AcDbViewportTableRecord
  2
L2
 70
     0
 10
0.5
 20
0.0
 11
1.0
 21
1.0
 12
0.0
 22
0.0
 13
0.0
 23
0.0
 14
0.5
 24
0.5
 15
0.5
 25
0.5
 16
1.0
 26
0.0
 36
0.0
 17
0.0
 27
0.0
 37
0.0
 40
1316.18997
 41
0.013491
 42
50.0
 43
666.2177989999999
 44
-666.2177989999999
 50
0.0
 51
0.0
 71
     0
 72
   100
 73
     1
 74
     3
 75
     0
 76
     0
 77
     0
 78
     0
281
     0
 65
     1
110
0.0
120
0.0
130
0.0
111
1.0
121
0.0
131
0.0
112
0.0
122
1.0
132
0.0
 79
     0
146
0.0
  0
VPORT
  5
2A4
330
8
100
AcDbSymbolTableRecord
100
AcDbViewportTableRecord
  2
L3
 70
     0
 10
0.0
 20
0.5
 11
1.0
 21
1.0
 12
332.090103
 22
235.1638279999999
 13
0.0
 23
0.0
 14
0.5
 24
0.5
 15
0.5
 25
0.5
 16
0.0
 26
0.0
 36
1.0
 17
0.0
 27
0.0
 37
0.0
 40
207.433333
 41
0.085602
 42
50.0
 43
500.6513759999999
 44
-500.6513759999999
 50
0.0
 51
0.0
 71
     0
 72
   100
 73
     1
 74
     3
 75
     0
 76
     0
 77
     0
 78
     0
281
     0
 65
     1
110
0.0
120
0.0
130
0.0
111
1.0
121
0.0
131
0.0
112
0.0
122
1.0
132
0.0
 79
     0
146
0.0
  0
VPORT
  5
2A5
330
8
100
AcDbSymbolTableRecord
100
AcDbViewportTableRecord
  2
L3
 70
     0
 10
0.0
 20
0.0
 11
1.0
 21
0.5
 12
0.0
 22
0.0
 13
0.0
 23
0.0
 14
0.5
 24
0.5
 15
0.5
 25
0.5
 16
0.0
 26
-1.0
 36
0.0
 17
0.0
 27
0.0
 37
0.0
 40
1316.18997
 41
0.013491
 42
50.0
 43
678.00864
 44
-678.00864
 50
0.0
 51
0.0
 71
     0
 72
   100
 73
     1
 74
     3
 75
     0
 76
     0
 77
     0
 78
     0
281
     0
 65
     1
110
0.0
120
0.0
130
0.0
111
1.0
121
0.0
131
0.0
112
0.0
122
1.0
132
0.0
 79
     0
146
0.0
  0
VPORT
  5
2A6
330
8
100
AcDbSymbolTableRecord
100
AcDbViewportTableRecord
  2
L4
 70
     0
 10
0.0
 20
0.5
 11
0.5
 21
1.0
 12
332.090103
 22
235.1638279999999
 13
0.0
 23
0.0
 14
0.5
 24
0.5
 15
0.5
 25
0.5
 16
0.0
 26
0.0
 36
1.0
 17
0.0
 27
0.0
 37
0.0
 40
207.433333
 41
0.085602
 42
50.0
 43
500.6513759999999
 44
-500.6513759999999
 50
0.0
 51
0.0
 71
     0
 72
   100
 73
     1
 74
     3
 75
     0
 76
     0
 77
     0
 78
     0
281
     0
 65
     1
110
0.0
120
0.0
130
0.0
111
1.0
121
0.0
131
0.0
112
0.0
122
1.0
132
0.0
 79
     0
146
0.0
  0
VPORT
  5
2A7
330
8
100
AcDbSymbolTableRecord
100
AcDbViewportTableRecord
  2
L4
 70
     0
 10
0.0
 20
0.0
 11
0.5
 21
0.5
 12
0.0
 22
0.0
 13
0.0
 23
0.0
 14
0.5
 24
0.5
 15
0.5
 25
0.5
 16
0.0
 26
-1.0
 36
0.0
 17
0.0
 27
0.0
 37
0.0
 40
1316.18997
 41
0.013491
 42
50.0
 43
678.00864
 44
-678.00864
 50
0.0
 51
0.0
 71
     0
 72
   100
 73
     1
 74
     3
 75
     0
 76
     0
 77
     0
 78
     0
281
     0
 65
     1
110
0.0
120
0.0
130
0.0
111
1.0
121
0.0
131
0.0
112
0.0
122
1.0
132
0.0
 79
     0
146
0.0
  0
VPORT
  5
2A8
330
8
100
AcDbSymbolTableRecord
100
AcDbViewportTableRecord
  2
L4
 70
     0
 10
0.5
 20
0.0
 11
1.0
 21
0.5
 12
0.0
 22
0.0
 13
0.0
 23
0.0
 14
0.5
 24
0.5
 15
0.5
 25
0.5
 16
1.0
 26
0.0
 36
0.0
 17
0.0
 27
0.0
 37
0.0
 40
1316.18997
 41
0.013491
 42
50.0
 43
666.2177989999999
 44
-666.2177989999999
 50
0.0
 51
0.0
 71
     0
 72
   100
 73
     1
 74
     3
 75
     0
 76
     0
 77
     0
 78
     0
281
     0
 65
     1
110
0.0
120
0.0
130
0.0
111
1.0
121
0.0
131
0.0
112
0.0
122
1.0
132
0.0
 79
     0
146
0.0
  0
VPORT
  5
2A9
330
8
100
AcDbSymbolTableRecord
100
AcDbViewportTableRecord
  2
L4
 70
     0
 10
0.5
 20
0.5
 11
1.0
 21
1.0
 12
0.0
 22
0.0
 13
0.0
 23
0.0
 14
0.5
 24
0.5
 15
0.5
 25
0.5
 16
0.5773502691896259
 26
-0.5773502691896259
 36
0.5773502691896259
 17
0.0
 27
0.0
 37
0.0
 40
1292.532264
 41
0.013738
 42
50.0
 43
673.245608
 44
-673.245608
 50
0.0
 51
0.0
 71
     0
 72
   100
 73
     1
 74
     3
 75
     0
 76
     0
 77
     0
 78
     0
281
     0
 65
     1
110
0.0
120
0.0
130
0.0
111
1.0
121
0.0
131
0.0
112
0.0
122
1.0
132
0.0
 79
     0
146
0.0
  0
VPORT
  5
2AA
330
8
100
AcDbSymbolTableRecord
100
AcDbViewportTableRecord
  2
L6
 70
     0
 10
0.0
 20
0.5
 11
0.333333
 21
1.0
 12
0.0
 22
0.0
 13
0.0
 23
0.0
 14
0.5
 24
0.5
 15
0.5
 25
0.5
 16
0.7188730927569434
 26
-0.5850486126764433
 36
0.3754192287502549
 17
0.0
 27
0.0
 37
0.0
 40
1364.064247
 41
0.013018
 42
50.0
 43
706.2613849999999
 44
-706.2613849999999
 50
0.0
 51
0.0
 71
     0
 72
   100
 73
     1
 74
     3
 75
     0
 76
     0
 77
     0
 78
     0
281
     0
 65
     1
110
0.0
120
0.0
130
0.0
111
1.0
121
0.0
131
0.0
112
0.0
122
1.0
132
0.0
 79
     0
146
0.0
  0
VPORT
  5
2AB
330
8
100
AcDbSymbolTableRecord
100
AcDbViewportTableRecord
  2
L6
 70
     0
 10
0.0
 20
0.0
 11
0.333333
 21
0.5
 12
0.0
 22
0.0
 13
0.0
 23
0.0
 14
0.5
 24
0.5
 15
0.5
 25
0.5
 16
-1.0
 26
0.0
 36
0.0
 17
0.0
 27
0.0
 37
0.0
 40
1316.18997
 41
0.013491
 42
50.0
 43
666.2177989999999
 44
-666.2177989999999
 50
0.0
 51
0.0
 71
     0
 72
   100
 73
     1
 74
     3
 75
     0
 76
     0
 77
     0
 78
     0
281
     0
 65
     1
110
0.0
120
0.0
130
0.0
111
1.0
121
0.0
131
0.0
112
0.0
122
1.0
132
0.0
 79
     0
146
0.0
  0
VPORT
  5
2AC
330
8
100
AcDbSymbolTableRecord
100
AcDbViewportTableRecord
  2
L6
 70
     0
 10
0.333333
 20
0.5
 11
0.666667
 21
1.0
 12
332.090103
 22
235.1638279999999
 13
0.0
 23
0.0
 14
0.5
 24
0.5
 15
0.5
 25
0.5
 16
0.0
 26
0.0
 36
1.0
 17
0.0
 27
0.0
 37
0.0
 40
207.433333
 41
0.085602
 42
50.0
 43
500.6513759999999
 44
-500.6513759999999
 50
0.0
 51
0.0
 71
     0
 72
   100
 73
     1
 74
     3
 75
     0
 76
     0
 77
     0
 78
     0
281
     0
 65
     1
110
0.0
120
0.0
130
0.0
111
1.0
121
0.0
131
0.0
112
0.0
122
1.0
132
0.0
 79
     0
146
0.0
  0
VPORT
  5
2AD
330
8
100
AcDbSymbolTableRecord
100
AcDbViewportTableRecord
  2
L6
 70
     0
 10
0.333333
 20
0.0
 11
0.666667
 21
0.5
 12
0.0
 22
0.0
 13
0.0
 23
0.0
 14
0.5
 24
0.5
 15
0.5
 25
0.5
 16
0.0
 26
-1.0
 36
0.0
 17
0.0
 27
0.0
 37
0.0
 40
1316.18997
 41
0.013491
 42
50.0
 43
678.00864
 44
-678.00864
 50
0.0
 51
0.0
 71
     0
 72
   100
 73
     1
 74
     3
 75
     0
 76
     0
 77
     0
 78
     0
281
     0
 65
     1
110
0.0
120
0.0
130
0.0
111
1.0
121
0.0
131
0.0
112
0.0
122
1.0
132
0.0
 79
     0
146
0.0
  0
VPORT
  5
2AE
330
8
100
AcDbSymbolTableRecord
100
AcDbViewportTableRecord
  2
L6
 70
     0
 10
0.666667
 20
0.5
 11
1.0
 21
1.0
 12
0.0
 22
0.0
 13
0.0
 23
0.0
 14
0.5
 24
0.5
 15
0.5
 25
0.5
 16
0.5773502691896259
 26
-0.5773502691896259
 36
0.5773502691896259
 17
0.0
 27
0.0
 37
0.0
 40
1292.532264
 41
0.013738
 42
50.0
 43
673.245608
 44
-673.245608
 50
0.0
 51
0.0
 71
     0
 72
   100
 73
     1
 74
     3
 75
     0
 76
     0
 77
     0
 78
     0
281
     0
 65
     1
110
0.0
120
0.0
130
0.0
111
1.0
121
0.0
131
0.0
112
0.0
122
1.0
132
0.0
 79
     0
146
0.0
  0
VPORT
  5
2AF
330
8
100
AcDbSymbolTableRecord
100
AcDbViewportTableRecord
  2
L6
 70
     0
 10
0.666667
 20
0.0
 11
1.0
 21
0.5
 12
0.0
 22
0.0
 13
0.0
 23
0.0
 14
0.5
 24
0.5
 15
0.5
 25
0.5
 16
1.0
 26
0.0
 36
0.0
 17
0.0
 27
0.0
 37
0.0
 40
1316.18997
 41
0.013491
 42
50.0
 43
666.2177989999999
 44
-666.2177989999999
 50
0.0
 51
0.0
 71
     0
 72
   100
 73
     1
 74
     3
 75
     0
 76
     0
 77
     0
 78
     0
281
     0
 65
     1
110
0.0
120
0.0
130
0.0
111
1.0
121
0.0
131
0.0
112
0.0
122
1.0
132
0.0
 79
     0
146
0.0
  0
ENDTAB
  0
TABLE
  2
LTYPE
  5
5
330
0
100
AcDbSymbolTable
 70
     7
  0
LTYPE
  5
14
330
5
100
AcDbSymbolTableRecord
100
AcDbLinetypeTableRecord
  2
ByBlock
 70
     0
  3

 72
    65
 73
     0
 40
0.0
  0
LTYPE
  5
15
330
5
100
AcDbSymbolTableRecord
100
AcDbLinetypeTableRecord
  2
ByLayer
 70
     0
  3

 72
    65
 73
     0
 40
0.0
  0
LTYPE
  5
16
330
5
100
AcDbSymbolTableRecord
100
AcDbLinetypeTableRecord
  2
Continuous
 70
     0
  3
Solid line
 72
    65
 73
     0
 40
0.0
  0
LTYPE
  5
6E
330
5
100
AcDbSymbolTableRecord
100
AcDbLinetypeTableRecord
  2
CENTER
 70
     0
  3
____ _ ____ _ ____ _ ____
 72
    65
 73
     4
 40
47.4
 49
22.0
 74
     4
 75
     0
340
0
 46
0.0
 50
0.0
 44
0.0
 45
0.0
 49
-8.5
 74
     4
 75
     0
340
0
 46
0.0
 50
0.0
 44
0.0
 45
0.0
 49
8.5
 74
     4
 75
     0
340
0
 46
0.0
 50
0.0
 44
0.0
 45
0.0
 49
-8.5
 74
     4
 75
     0
340
0
 46
0.0
 50
0.0
 44
0.0
 45
0.0
  0
LTYPE
  5
6F
330
5
100
AcDbSymbolTableRecord
100
AcDbLinetypeTableRecord
  2
DASHDOT
 70
     0
  3
_._._._._._._._._._._._._._._._.
 72
    65
 73
     4
 40
70.0
 49
31.0
 74
     4
 75
     0
340
0
 46
0.0
 50
0.0
 44
0.0
 45
0.0
 49
-13.0
 74
     4
 75
     0
340
0
 46
0.0
 50
0.0
 44
0.0
 45
0.0
 49
13.0
 74
     4
 75
     0
340
0
 46
0.0
 50
0.0
 44
0.0
 45
0.0
 49
-13.0
 74
     4
 75
     0
340
0
 46
0.0
 50
0.0
 44
0.0
 45
0.0
  0
LTYPE
  5
70
330
5
100
AcDbSymbolTableRecord
100
AcDbLinetypeTableRecord
  2
DASHED
 70
     0
  3
__ __ __ __ __ __ __ __ __
 72
    65
 73
     2
 40
25.72
 49
12.86
 74
     4
 75
     0
340
0
 46
0.0
 50
0.0
 44
0.0
 45
0.0
 49
-12.86
 74
     4
 75
     0
340
0
 46
0.0
 50
0.0
 44
0.0
 45
0.0
  0
LTYPE
  5
71
330
5
100
AcDbSymbolTableRecord
100
AcDbLinetypeTableRecord
  2
DOT
 70
     0
  3
.........................
 72
    65
 73
     2
 40
10.0
 49
0.0
 74
     4
 75
     0
340
0
 46
0.0
 50
0.0
 44
0.0
 45
0.0
 49
-10.0
 74
     4
 75
     0
340
0
 46
0.0
 50
0.0
 44
0.0
 45
0.0
  0
LTYPE
  5
72
330
5
100
AcDbSymbolTableRecord
100
AcDbLinetypeTableRecord
  2
PHANTOM
 70
     0
  3
____ _ _ ____ _ _ _____ _ _ ____
 72
    65
 73
     6
 40
50.5
 49
18.0
 74
     4
 75
     0
340
0
 46
0.0
 50
0.0
 44
0.0
 45
0.0
 49
-6.5
 74
     4
 75
     0
340
0
 46
0.0
 50
0.0
 44
0.0
 45
0.0
 49
6.5
 74
     4
 75
     0
340
0
 46
0.0
 50
0.0
 44
0.0
 45
0.0
 49
-6.5
 74
     4
 75
     0
340
0
 46
0.0
 50
0.0
 44
0.0
 45
0.0
 49
6.5
 74
     4
 75
     0
340
0
 46
0.0
 50
0.0
 44
0.0
 45
0.0
 49
-6.5
 74
     4
 75
     0
340
0
 46
0.0
 50
0.0
 44
0.0
 45
0.0
  0
LTYPE
  5
33F
330
5
100
AcDbSymbolTableRecord
100
AcDbLinetypeTableRecord
  2
CENTER2
 70
     0
  3
Center (.5x) ___ _ ___ _ ___ _ ___ _ ___ _ ___
 72
    65
 73
     4
 40
1.125
 49
0.75
 74
     0
 49
-0.125
 74
     0
 49
0.125
 74
     0
 49
-0.125
 74
     0
  0
ENDTAB
  0
TABLE
  2
LAYER
  5
2
330
0
100
AcDbSymbolTable
 70
    22
  0
LAYER
  5
10
102
{ACAD_XDICTIONARY
360
34A
102
}
330
2
100
AcDbSymbolTableRecord
100
AcDbLayerTableRecord
  2
0
 70
     0
 62
     7
  6
Continuous
370
    -3
390
F
  0
LAYER
  5
1FB
330
2
100
AcDbSymbolTableRecord
100
AcDbLayerTableRecord
  2
Defpoints
 70
     0
 62
     7
  6
Continuous
290
     0
370
    -3
390
F
  0
LAYER
  5
33C
102
{ACAD_XDICTIONARY
360
34C
102
}
330
2
100
AcDbSymbolTableRecord
100
AcDbLayerTableRecord
  2
1
 70
     0
 62
     4
  6
Continuous
370
    -3
390
F
  0
LAYER
  5
33D
102
{ACAD_XDICTIONARY
360
34E
102
}
330
2
100
AcDbSymbolTableRecord
100
AcDbLayerTableRecord
  2
2
 70
     0
 62
     7
  6
Continuous
370
    -3
390
F
  0
LAYER
  5
33E
102
{ACAD_XDICTIONARY
360
350
102
}
330
2
100
AcDbSymbolTableRecord
100
AcDbLayerTableRecord
  2
4
 70
     0
 62
     2
  6
CENTER2
370
    -3
390
F
  0
LAYER
  5
340
102
{ACAD_XDICTIONARY
360
352
102
}
330
2
100
AcDbSymbolTableRecord
100
AcDbLayerTableRecord
  2
SK1
 70
     0
 62
     4
  6
Continuous
370
    -3
390
F
  0
LAYER
  5
341
102
{ACAD_XDICTIONARY
360
354
102
}
330
2
100
AcDbSymbolTableRecord
100
AcDbLayerTableRecord
  2
SK2
 70
     0
 62
     7
  6
Continuous
370
    -3
390
F
  0
LAYER
  5
343
102
{ACAD_XDICTIONARY
360
356
102
}
330
2
100
AcDbSymbolTableRecord
100
AcDbLayerTableRecord
  2
SK4
 70
     0
 62
     2
  6
CENTER2
370
    -3
390
F
  0
LAYER
  5
344
102
{ACAD_XDICTIONARY
360
358
102
}
330
2
100
AcDbSymbolTableRecord
100
AcDbLayerTableRecord
  2
SK6
 70
     0
 62
     5
  6
Continuous
370
    -3
390
F
  0
LAYER
  5
345
102
{ACAD_XDICTIONARY
360
35A
102
}
330
2
100
AcDbSymbolTableRecord
100
AcDbLayerTableRecord
  2
CUT
 70
     0
 62
     1
  6
Continuous
370
    -3
390
F
  0
LAYER
  5
346
102
{ACAD_XDICTIONARY
360
35C
102
}
330
2
100
AcDbSymbolTableRecord
100
AcDbLayerTableRecord
  2
NOCUT
 70
     0
 62
     7
  6
Continuous
370
    -3
390
F
  0
LAYER
  5
347
102
{ACAD_XDICTIONARY
360
35E
102
}
330
2
100
AcDbSymbolTableRecord
100
AcDbLayerTableRecord
  2
80
 70
     0
 62
     6
  6
Continuous
370
    -3
390
F
  0
LAYER
  5
348
102
{ACAD_XDICTIONARY
360
360
102
}
330
2
100
AcDbSymbolTableRecord
100
AcDbLayerTableRecord
  2
81
 70
     0
 62
     3
  6
Continuous
370
    -3
390
F
  0
ENDTAB
  0
TABLE
  2
STYLE
  5
3
330
0
100
AcDbSymbolTable
 70
     3
  0
STYLE
  5
11
330
3
100
AcDbSymbolTableRecord
100
AcDbTextStyleTableRecord
  2
Standard
 70
     0
 40
0.0
 41
1.0
 50
0.0
 71
     0
 42
0.2
  3
txt
  4

  0
STYLE
  5
1EF
330
3
100
AcDbSymbolTableRecord
100
AcDbTextStyleTableRecord
  2
cesky
 70
     0
 40
0.0
 41
1.0
 50
0.0
 71
     0
 42
0.2
  3
simplex.shx
  4

  0
STYLE
  5
1F0
330
3
100
AcDbSymbolTableRecord
100
AcDbTextStyleTableRecord
  2
DWGDirectTextStyle
 70
     0
 40
0.0
 41
1.0
 50
0.0
 71
     0
 42
0.2
  3
simplex
  4

  0
ENDTAB
  0
TABLE
  2
VIEW
  5
6
330
0
100
AcDbSymbolTable
 70
     0
  0
ENDTAB
  0
TABLE
  2
UCS
  5
7
330
0
100
AcDbSymbolTable
 70
     0
  0
ENDTAB
  0
TABLE
  2
APPID
  5
9
330
0
100
AcDbSymbolTable
 70
     7
  0
APPID
  5
12
330
9
100
AcDbSymbolTableRecord
100
AcDbRegAppTableRecord
  2
ACAD
 70
     0
  0
APPID
  5
1F7
330
9
100
AcDbSymbolTableRecord
100
AcDbRegAppTableRecord
  2
ACAD_DSTYLE_DIMBREAK
 70
     0
  0
APPID
  5
2B0
330
9
100
AcDbSymbolTableRecord
100
AcDbRegAppTableRecord
  2
ACAD_DSTYLE_DIM_LINETYPE
 70
     0
  0
APPID
  5
2B1
330
9
100
AcDbSymbolTableRecord
100
AcDbRegAppTableRecord
  2
ACAD_DSTYLE_DIM_EXT1_LINETYPE
 70
     0
  0
APPID
  5
2B2
330
9
100
AcDbSymbolTableRecord
100
AcDbRegAppTableRecord
  2
ACAD_DSTYLE_DIM_EXT2_LINETYPE
 70
     0
  0
APPID
  5
2F2
330
9
100
AcDbSymbolTableRecord
100
AcDbRegAppTableRecord
  2
ACAD_MLEADERVER
 70
     0
  0
APPID
  5
365
330
9
100
AcDbSymbolTableRecord
100
AcDbRegAppTableRecord
  2
ACAD_NAV_VCDISPLAY
 70
     0
  0
ENDTAB
  0
TABLE
  2
DIMSTYLE
  5
A
330
0
100
AcDbSymbolTable
 70
     1
100
AcDbDimStyleTable
 71
     0
  0
DIMSTYLE
105
27
330
A
100
AcDbSymbolTableRecord
100
AcDbDimStyleTableRecord
  2
Standard
 70
     0
340
11
1001
ACAD_DSTYLE_DIMBREAK
1070
   391
1040
6.349999999999999
  0
ENDTAB
  0
TABLE
  2
BLOCK_RECORD
  5
1
330
0
100
AcDbSymbolTable
 70
    16
  0
BLOCK_RECORD
  5
1F
102
{ACAD_XDICTIONARY
360
302
102
}
330
1
100
AcDbSymbolTableRecord
100
AcDbBlockTableRecord
  2
*Model_Space
340
22
  0
BLOCK_RECORD
  5
1B
330
1
100
AcDbSymbolTableRecord
100
AcDbBlockTableRecord
  2
*Paper_Space
340
1E
  0
BLOCK_RECORD
  5
23
330
1
100
AcDbSymbolTableRecord
100
AcDbBlockTableRecord
  2
*Paper_Space0
340
26
  0
BLOCK_RECORD
  5
1F2
330
1
100
AcDbSymbolTableRecord
100
AcDbBlockTableRecord
  2
ASSORTED_DRAFT1
340
0
  0
BLOCK_RECORD
  5
1FC
330
1
100
AcDbSymbolTableRecord
100
AcDbBlockTableRecord
  2
*D2
340
0
  0
BLOCK_RECORD
  5
207
330
1
100
AcDbSymbolTableRecord
100
AcDbBlockTableRecord
  2
_U0
340
0
  0
BLOCK_RECORD
  5
212
330
1
100
AcDbSymbolTableRecord
100
AcDbBlockTableRecord
  2
*D4
340
0
  0
BLOCK_RECORD
  5
21E
330
1
100
AcDbSymbolTableRecord
100
AcDbBlockTableRecord
  2
_U1
340
0
  0
BLOCK_RECORD
  5
22B
330
1
100
AcDbSymbolTableRecord
100
AcDbBlockTableRecord
  2
*D6
340
0
  0
BLOCK_RECORD
  5
237
330
1
100
AcDbSymbolTableRecord
100
AcDbBlockTableRecord
  2
_U2
340
0
  0
BLOCK_RECORD
  5
244
330
1
100
AcDbSymbolTableRecord
100
AcDbBlockTableRecord
  2
*D8
340
0
  0
BLOCK_RECORD
  5
250
330
1
100
AcDbSymbolTableRecord
100
AcDbBlockTableRecord
  2
_U3
340
0
  0
BLOCK_RECORD
  5
25C
330
1
100
AcDbSymbolTableRecord
100
AcDbBlockTableRecord
  2
*D10
340
0
  0
BLOCK_RECORD
  5
268
330
1
100
AcDbSymbolTableRecord
100
AcDbBlockTableRecord
  2
_U4
340
0
  0
BLOCK_RECORD
  5
274
330
1
100
AcDbSymbolTableRecord
100
AcDbBlockTableRecord
  2
*D12
340
0
  0
BLOCK_RECORD
  5
280
330
1
100
AcDbSymbolTableRecord
100
AcDbBlockTableRecord
  2
_U5
340
0
  0
BLOCK_RECORD
  5
28C
330
1
100
AcDbSymbolTableRecord
100
AcDbBlockTableRecord
  2
*D14
340
0
  0
BLOCK_RECORD
  5
298
330
1
100
AcDbSymbolTableRecord
100
AcDbBlockTableRecord
  2
_U6
340
0
  0
ENDTAB
  0
ENDSEC
  0
SECTION
  2
BLOCKS
  0
BLOCK
  5
20
330
1F
100
AcDbEntity
  8
0
100
AcDbBlockBegin
  2
*Model_Space
 70
     0
 10
0.0
 20
0.0
 30
0.0
  3
*Model_Space
  1

  0
ENDBLK
  5
21
330
1F
100
AcDbEntity
  8
0
100
AcDbBlockEnd
  0
BLOCK
  5
1C
330
1B
100
AcDbEntity
 67
     1
  8
0
100
AcDbBlockBegin
  2
*Paper_Space
 70
     0
 10
0.0
 20
0.0
 30
0.0
  3
*Paper_Space
  1

  0
ENDBLK
  5
1D
330
1B
100
AcDbEntity
 67
     1
  8
0
100
AcDbBlockEnd
  0
BLOCK
  5
24
330
23
100
AcDbEntity
 67
     1
  8
0
100
AcDbBlockBegin
  2
*Paper_Space0
 70
     0
 10
0.0
 20
0.0
 30
0.0
  3
*Paper_Space0
  1

  0
ENDBLK
  5
25
330
23
100
AcDbEntity
 67
     1
  8
0
100
AcDbBlockEnd
  0
BLOCK
  5
1F5
330
1F2
100
AcDbEntity
  8
0
100
AcDbBlockBegin
  2
ASSORTED_DRAFT1
 70
     0
 10
0.0
 20
0.0
 30
0.0
  3
ASSORTED_DRAFT1
  1

  0
SOLID
  5
1F3
330
1F2
100
AcDbEntity
  8
0
 62
   254
370
    13
100
AcDbTrace
 10
270.185042
 20
165.534924
 30
0.0
 11
265.185046
 21
164.42645
 31
0.0
 12
265.1850379999999
 22
166.643397
 32
0.0
 13
270.185042
 23
165.534924
 33
0.0
  0
ENDBLK
  5
1F6
330
1F2
100
AcDbEntity
  8
0
100
AcDbBlockEnd
  0
BLOCK
  5
1FD
330
1FC
100
AcDbEntity
  8
0
100
AcDbBlockBegin
  2
*D2
 70
     1
 10
0.0
 20
0.0
 30
0.0
  3
*D2
  1

  0
LINE
  5
1FF
330
1FC
100
AcDbEntity
  8
0
 62
   254
370
    -2
100
AcDbLine
 10
286.168717
 20
288.907994
 30
0.0
 11
477.9384139999999
 21
288.907994
 31
0.0
  0
LINE
  5
200
330
1FC
100
AcDbEntity
  8
0
 62
   254
370
    -2
100
AcDbLine
 10
330.83929
 20
308.907994
 30
0.0
 11
477.9384139999999
 21
308.907994
 31
0.0
  0
LINE
  5
201
330
1FC
100
AcDbEntity
  8
0
 62
   254
370
    -2
100
AcDbLine
 10
476.9384139999999
 20
288.907994
 30
0.0
 11
476.9384139999999
 21
308.907994
 31
0.0
  0
SOLID
  5
202
330
1FC
100
AcDbEntity
  8
0
 62
   254
100
AcDbTrace
 10
477.5217480000001
 20
305.407994
 30
0.0
 11
476.3550809999999
 21
305.407994
 31
0.0
 12
476.9384139999999
 22
308.907994
 32
0.0
 13
476.9384139999999
 23
308.907994
 33
0.0
  0
MTEXT
  5
203
330
1FC
100
AcDbEntity
  8
0
 62
   254
370
    13
100
AcDbMText
 10
471.6884139999999
 20
279.07466
 30
0.0
 40
3.5
 41
0.0
 71
     5
 72
     1
  1
\A1;40
  7
cesky
 11
0.0
 21
1.0
 31
0.0
 73
     1
 44
1.0
  0
POINT
  5
204
330
1FC
100
AcDbEntity
  8
Defpoints
 62
     0
100
AcDbPoint
 10
286.168717
 20
288.907994
 30
0.0
  0
POINT
  5
205
330
1FC
100
AcDbEntity
  8
Defpoints
 62
     0
100
AcDbPoint
 10
330.83929
 20
308.907994
 30
0.0
  0
POINT
  5
206
330
1FC
100
AcDbEntity
  8
Defpoints
 62
     0
100
AcDbPoint
 10
476.9384139999999
 20
308.907994
 30
0.0
  0
ENDBLK
  5
1FE
330
1FC
100
AcDbEntity
  8
0
100
AcDbBlockEnd
  0
BLOCK
  5
20D
330
207
100
AcDbEntity
  8
0
100
AcDbBlockBegin
  2
_U0
 70
     0
 10
0.0
 20
0.0
 30
0.0
  3
_U0
  1

  0
ENDBLK
  5
20E
330
207
100
AcDbEntity
  8
0
100
AcDbBlockEnd
  0
BLOCK
  5
213
330
212
100
AcDbEntity
  8
0
100
AcDbBlockBegin
  2
*D4
 70
     1
 10
0.0
 20
0.0
 30
0.0
  3
*D4
  1

  0
LINE
  5
215
330
212
100
AcDbEntity
  8
0
 62
    95
370
    -2
100
AcDbLine
 10
216.404842
 20
304.907994
 30
0.0
 11
203.66833
 21
304.907994
 31
0.0
  0
LINE
  5
216
330
212
100
AcDbEntity
  8
0
 62
    95
370
    -2
100
AcDbLine
 10
216.404842
 20
272.907994
 30
0.0
 11
203.66833
 21
272.907994
 31
0.0
  0
LINE
  5
217
330
212
100
AcDbEntity
  8
0
 62
    95
370
    -2
100
AcDbLine
 10
204.66833
 20
301.407994
 30
0.0
 11
204.66833
 21
276.407994
 31
0.0
  0
SOLID
  5
218
330
212
100
AcDbEntity
  8
0
 62
    95
100
AcDbTrace
 10
205.251663
 20
301.407994
 30
0.0
 11
204.084996
 21
301.407994
 31
0.0
 12
204.66833
 22
304.907994
 32
0.0
 13
204.66833
 23
304.907994
 33
0.0
  0
SOLID
  5
219
330
212
100
AcDbEntity
  8
0
 62
    95
100
AcDbTrace
 10
204.084996
 20
276.407994
 30
0.0
 11
205.251663
 21
276.407994
 31
0.0
 12
204.66833
 22
272.907994
 32
0.0
 13
204.66833
 23
272.907994
 33
0.0
  0
MTEXT
  5
21A
330
212
100
AcDbEntity
  8
0
 62
    95
370
    13
100
AcDbMText
 10
199.41833
 20
288.907994
 30
0.0
 40
3.5
 41
0.0
 71
     5
 72
     1
  1
\A1;32
  7
cesky
 11
0.0
 21
1.0
 31
0.0
 73
     1
 44
1.0
  0
POINT
  5
21B
330
212
100
AcDbEntity
  8
Defpoints
 62
     0
100
AcDbPoint
 10
216.404842
 20
304.907994
 30
0.0
  0
POINT
  5
21C
330
212
100
AcDbEntity
  8
Defpoints
 62
     0
100
AcDbPoint
 10
216.404842
 20
272.907994
 30
0.0
  0
POINT
  5
21D
330
212
100
AcDbEntity
  8
Defpoints
 62
     0
100
AcDbPoint
 10
204.66833
 20
272.907994
 30
0.0
  0
ENDBLK
  5
214
330
212
100
AcDbEntity
  8
0
100
AcDbBlockEnd
  0
BLOCK
  5
226
330
21E
100
AcDbEntity
  8
0
100
AcDbBlockBegin
  2
_U1
 70
     0
 10
0.0
 20
0.0
 30
0.0
  3
_U1
  1

  0
ENDBLK
  5
227
330
21E
100
AcDbEntity
  8
0
100
AcDbBlockEnd
  0
BLOCK
  5
22C
330
22B
100
AcDbEntity
  8
0
100
AcDbBlockBegin
  2
*D6
 70
     1
 10
0.0
 20
0.0
 30
0.0
  3
*D6
  1

  0
LINE
  5
22E
330
22B
100
AcDbEntity
  8
0
 62
    95
370
    -2
100
AcDbLine
 10
277.154842
 20
309.907994
 30
0.0
 11
191.104285
 21
309.907994
 31
0.0
  0
LINE
  5
22F
330
22B
100
AcDbEntity
  8
0
 62
    95
370
    -2
100
AcDbLine
 10
277.154842
 20
267.907994
 30
0.0
 11
191.104285
 21
267.907994
 31
0.0
  0
LINE
  5
230
330
22B
100
AcDbEntity
  8
0
 62
    95
370
    -2
100
AcDbLine
 10
192.104285
 20
306.407994
 30
0.0
 11
192.104285
 21
271.407994
 31
0.0
  0
SOLID
  5
231
330
22B
100
AcDbEntity
  8
0
 62
    95
100
AcDbTrace
 10
192.687618
 20
306.407994
 30
0.0
 11
191.520952
 21
306.407994
 31
0.0
 12
192.104285
 22
309.907994
 32
0.0
 13
192.104285
 23
309.907994
 33
0.0
  0
SOLID
  5
232
330
22B
100
AcDbEntity
  8
0
 62
    95
100
AcDbTrace
 10
191.520952
 20
271.407994
 30
0.0
 11
192.687618
 21
271.407994
 31
0.0
 12
192.104285
 22
267.907994
 32
0.0
 13
192.104285
 23
267.907994
 33
0.0
  0
MTEXT
  5
233
330
22B
100
AcDbEntity
  8
0
 62
    95
370
    13
100
AcDbMText
 10
186.854285
 20
288.907994
 30
0.0
 40
3.5
 41
0.0
 71
     5
 72
     1
  1
\A1;42
  7
cesky
 11
0.0
 21
1.0
 31
0.0
 73
     1
 44
1.0
  0
POINT
  5
234
330
22B
100
AcDbEntity
  8
Defpoints
 62
     0
100
AcDbPoint
 10
277.154842
 20
309.907994
 30
0.0
  0
POINT
  5
235
330
22B
100
AcDbEntity
  8
Defpoints
 62
     0
100
AcDbPoint
 10
277.154842
 20
267.907994
 30
0.0
  0
POINT
  5
236
330
22B
100
AcDbEntity
  8
Defpoints
 62
     0
100
AcDbPoint
 10
192.104285
 20
267.907994
 30
0.0
  0
ENDBLK
  5
22D
330
22B
100
AcDbEntity
  8
0
100
AcDbBlockEnd
  0
BLOCK
  5
23F
330
237
100
AcDbEntity
  8
0
100
AcDbBlockBegin
  2
_U2
 70
     0
 10
0.0
 20
0.0
 30
0.0
  3
_U2
  1

  0
ENDBLK
  5
240
330
237
100
AcDbEntity
  8
0
100
AcDbBlockEnd
  0
BLOCK
  5
245
330
244
100
AcDbEntity
  8
0
100
AcDbBlockBegin
  2
*D8
 70
     1
 10
0.0
 20
0.0
 30
0.0
  3
*D8
  1

  0
LINE
  5
247
330
244
100
AcDbEntity
  8
0
 62
   254
370
    -2
100
AcDbLine
 10
459.404842
 20
308.907994
 30
0.0
 11
459.404842
 21
334.9472990000001
 31
0.0
  0
LINE
  5
248
330
244
100
AcDbEntity
  8
0
 62
   254
370
    -2
100
AcDbLine
 10
274.404842
 20
288.907994
 30
0.0
 11
274.404842
 21
334.9472990000001
 31
0.0
  0
LINE
  5
249
330
244
100
AcDbEntity
  8
0
 62
   254
370
    -2
100
AcDbLine
 10
455.9048419999999
 20
333.947299
 30
0.0
 11
277.904842
 21
333.947299
 31
0.0
  0
SOLID
  5
24A
330
244
100
AcDbEntity
  8
0
 62
   254
100
AcDbTrace
 10
455.9048419999999
 20
333.363965
 30
0.0
 11
455.9048419999999
 21
334.530632
 31
0.0
 12
459.404842
 22
333.947299
 32
0.0
 13
459.404842
 23
333.947299
 33
0.0
  0
SOLID
  5
24B
330
244
100
AcDbEntity
  8
0
 62
   254
100
AcDbTrace
 10
277.904842
 20
334.530632
 30
0.0
 11
277.904842
 21
333.363965
 31
0.0
 12
274.404842
 22
333.947299
 32
0.0
 13
274.404842
 23
333.947299
 33
0.0
  0
MTEXT
  5
24C
330
244
100
AcDbEntity
  8
0
 62
   254
370
    13
100
AcDbMText
 10
366.904842
 20
339.1972990000001
 30
0.0
 40
3.5
 41
0.0
 71
     5
 72
     1
  1
\A1;185
  7
cesky
 73
     1
 44
1.0
  0
POINT
  5
24D
330
244
100
AcDbEntity
  8
Defpoints
 62
     0
100
AcDbPoint
 10
459.404842
 20
308.907994
 30
0.0
  0
POINT
  5
24E
330
244
100
AcDbEntity
  8
Defpoints
 62
     0
100
AcDbPoint
 10
274.404842
 20
288.907994
 30
0.0
  0
POINT
  5
24F
330
244
100
AcDbEntity
  8
Defpoints
 62
     0
100
AcDbPoint
 10
274.404842
 20
333.947299
 30
0.0
  0
ENDBLK
  5
246
330
244
100
AcDbEntity
  8
0
100
AcDbBlockEnd
  0
BLOCK
  5
257
330
250
100
AcDbEntity
  8
0
100
AcDbBlockBegin
  2
_U3
 70
     0
 10
0.0
 20
0.0
 30
0.0
  3
_U3
  1

  0
ENDBLK
  5
258
330
250
100
AcDbEntity
  8
0
100
AcDbBlockEnd
  0
BLOCK
  5
25D
330
25C
100
AcDbEntity
  8
0
100
AcDbBlockBegin
  2
*D10
 70
     1
 10
0.0
 20
0.0
 30
0.0
  3
*D10
  1

  0
LINE
  5
25F
330
25C
100
AcDbEntity
  8
0
 62
   254
370
    -2
100
AcDbLine
 10
459.404842
 20
310.907994
 30
0.0
 11
459.404842
 21
348.392842
 31
0.0
  0
LINE
  5
260
330
25C
100
AcDbEntity
  8
0
 62
   254
370
    -2
100
AcDbLine
 10
214.404842
 20
302.907994
 30
0.0
 11
214.404842
 21
348.392842
 31
0.0
  0
LINE
  5
261
330
25C
100
AcDbEntity
  8
0
 62
   254
370
    -2
100
AcDbLine
 10
455.9048419999999
 20
347.392842
 30
0.0
 11
217.904842
 21
347.392842
 31
0.0
  0
SOLID
  5
262
330
25C
100
AcDbEntity
  8
0
 62
   254
100
AcDbTrace
 10
455.9048419999999
 20
346.809508
 30
0.0
 11
455.9048419999999
 21
347.976175
 31
0.0
 12
459.404842
 22
347.392842
 32
0.0
 13
459.404842
 23
347.392842
 33
0.0
  0
SOLID
  5
263
330
25C
100
AcDbEntity
  8
0
 62
   254
100
AcDbTrace
 10
217.904842
 20
347.976175
 30
0.0
 11
217.904842
 21
346.809508
 31
0.0
 12
214.404842
 22
347.392842
 32
0.0
 13
214.404842
 23
347.392842
 33
0.0
  0
MTEXT
  5
264
330
25C
100
AcDbEntity
  8
0
 62
   254
370
    13
100
AcDbMText
 10
336.904842
 20
352.642842
 30
0.0
 40
3.5
 41
0.0
 71
     5
 72
     1
  1
\A1;245
  7
cesky
 73
     1
 44
1.0
  0
POINT
  5
265
330
25C
100
AcDbEntity
  8
Defpoints
 62
     0
100
AcDbPoint
 10
459.404842
 20
310.907994
 30
0.0
  0
POINT
  5
266
330
25C
100
AcDbEntity
  8
Defpoints
 62
     0
100
AcDbPoint
 10
214.404842
 20
302.907994
 30
0.0
  0
POINT
  5
267
330
25C
100
AcDbEntity
  8
Defpoints
 62
     0
100
AcDbPoint
 10
214.404842
 20
347.392842
 30
0.0
  0
ENDBLK
  5
25E
330
25C
100
AcDbEntity
  8
0
100
AcDbBlockEnd
  0
BLOCK
  5
26F
330
268
100
AcDbEntity
  8
0
100
AcDbBlockBegin
  2
_U4
 70
     0
 10
0.0
 20
0.0
 30
0.0
  3
_U4
  1

  0
ENDBLK
  5
270
330
268
100
AcDbEntity
  8
0
100
AcDbBlockEnd
  0
BLOCK
  5
275
330
274
100
AcDbEntity
  8
0
100
AcDbBlockBegin
  2
*D12
 70
     1
 10
0.0
 20
0.0
 30
0.0
  3
*D12
  1

  0
LINE
  5
277
330
274
100
AcDbEntity
  8
0
 62
   254
370
    -2
100
AcDbLine
 10
274.404842
 20
288.907994
 30
0.0
 11
274.404842
 21
334.9472990000001
 31
0.0
  0
LINE
  5
278
330
274
100
AcDbEntity
  8
0
 62
   254
370
    -2
100
AcDbLine
 10
214.404842
 20
295.907994
 30
0.0
 11
214.404842
 21
334.9472990000001
 31
0.0
  0
LINE
  5
279
330
274
100
AcDbEntity
  8
0
 62
   254
370
    -2
100
AcDbLine
 10
270.904842
 20
333.947299
 30
0.0
 11
217.904842
 21
333.947299
 31
0.0
  0
SOLID
  5
27A
330
274
100
AcDbEntity
  8
0
 62
   254
100
AcDbTrace
 10
270.904842
 20
333.363965
 30
0.0
 11
270.904842
 21
334.530632
 31
0.0
 12
274.404842
 22
333.947299
 32
0.0
 13
274.404842
 23
333.947299
 33
0.0
  0
SOLID
  5
27B
330
274
100
AcDbEntity
  8
0
 62
   254
100
AcDbTrace
 10
217.904842
 20
334.530632
 30
0.0
 11
217.904842
 21
333.363965
 31
0.0
 12
214.404842
 22
333.947299
 32
0.0
 13
214.404842
 23
333.947299
 33
0.0
  0
MTEXT
  5
27C
330
274
100
AcDbEntity
  8
0
 62
   254
370
    13
100
AcDbMText
 10
244.404842
 20
339.1972990000001
 30
0.0
 40
3.5
 41
0.0
 71
     5
 72
     1
  1
\A1;60
  7
cesky
 73
     1
 44
1.0
  0
POINT
  5
27D
330
274
100
AcDbEntity
  8
Defpoints
 62
     0
100
AcDbPoint
 10
274.404842
 20
288.907994
 30
0.0
  0
POINT
  5
27E
330
274
100
AcDbEntity
  8
Defpoints
 62
     0
100
AcDbPoint
 10
214.404842
 20
295.907994
 30
0.0
  0
POINT
  5
27F
330
274
100
AcDbEntity
  8
Defpoints
 62
     0
100
AcDbPoint
 10
214.404842
 20
333.947299
 30
0.0
  0
ENDBLK
  5
276
330
274
100
AcDbEntity
  8
0
100
AcDbBlockEnd
  0
BLOCK
  5
287
330
280
100
AcDbEntity
  8
0
100
AcDbBlockBegin
  2
_U5
 70
     0
 10
0.0
 20
0.0
 30
0.0
  3
_U5
  1

  0
ENDBLK
  5
288
330
280
100
AcDbEntity
  8
0
100
AcDbBlockEnd
  0
BLOCK
  5
28D
330
28C
100
AcDbEntity
  8
0
100
AcDbBlockBegin
  2
*D14
 70
     1
 10
0.0
 20
0.0
 30
0.0
  3
*D14
  1

  0
LINE
  5
28F
330
28C
100
AcDbEntity
  8
0
 62
   254
370
    -2
100
AcDbLine
 10
459.404842
 20
308.907994
 30
0.0
 11
459.404842
 21
321.118433
 31
0.0
  0
LINE
  5
290
330
28C
100
AcDbEntity
  8
0
 62
   254
370
    -2
100
AcDbLine
 10
287.912901
 20
308.737917
 30
0.0
 11
287.912901
 21
321.118433
 31
0.0
  0
LINE
  5
291
330
28C
100
AcDbEntity
  8
0
 62
   254
370
    -2
100
AcDbLine
 10
455.9048419999999
 20
320.118433
 30
0.0
 11
291.412901
 21
320.118433
 31
0.0
  0
SOLID
  5
292
330
28C
100
AcDbEntity
  8
0
 62
   254
100
AcDbTrace
 10
455.9048419999999
 20
319.5351
 30
0.0
 11
455.9048419999999
 21
320.701766
 31
0.0
 12
459.404842
 22
320.118433
 32
0.0
 13
459.404842
 23
320.118433
 33
0.0
  0
SOLID
  5
293
330
28C
100
AcDbEntity
  8
0
 62
   254
100
AcDbTrace
 10
291.412901
 20
320.701766
 30
0.0
 11
291.412901
 21
319.5351
 31
0.0
 12
287.912901
 22
320.118433
 32
0.0
 13
287.912901
 23
320.118433
 33
0.0
  0
MTEXT
  5
294
330
28C
100
AcDbEntity
  8
0
 62
   254
370
    13
100
AcDbMText
 10
373.658871
 20
325.368433
 30
0.0
 40
3.5
 41
0.0
 71
     5
 72
     1
  1
\A1;171.5
  7
cesky
 73
     1
 44
1.0
  0
POINT
  5
295
330
28C
100
AcDbEntity
  8
Defpoints
 62
     0
100
AcDbPoint
 10
459.404842
 20
308.907994
 30
0.0
  0
POINT
  5
296
330
28C
100
AcDbEntity
  8
Defpoints
 62
     0
100
AcDbPoint
 10
287.912901
 20
308.737917
 30
0.0
  0
POINT
  5
297
330
28C
100
AcDbEntity
  8
Defpoints
 62
     0
100
AcDbPoint
 10
287.912901
 20
320.118433
 30
0.0
  0
ENDBLK
  5
28E
330
28C
100
AcDbEntity
  8
0
100
AcDbBlockEnd
  0
BLOCK
  5
29F
330
298
100
AcDbEntity
  8
0
100
AcDbBlockBegin
  2
_U6
 70
     0
 10
0.0
 20
0.0
 30
0.0
  3
_U6
  1

  0
ENDBLK
  5
2A0
330
298
100
AcDbEntity
  8
0
100
AcDbBlockEnd
  0
ENDSEC
  0
SECTION
  2
ENTITIES
  0
POINT
  5
73
102
{ACAD_REACTORS
330
349
102
}
330
1F
100
AcDbEntity
  8
80
100
AcDbPoint
 10
274.404842
 20
288.907994
 30
0.0
  0
POINT
  5
76
330
1F
100
AcDbEntity
  8
SK4
 60
     1
100
AcDbPoint
 10
216.404842
 20
288.907994
 30
0.0
  0
POINT
  5
78
330
1F
100
AcDbEntity
  8
SK4
 60
     1
100
AcDbPoint
 10
274.404842
 20
288.907994
 30
0.0
  0
POINT
  5
79
330
1F
100
AcDbEntity
  8
4
 60
     1
100
AcDbPoint
 10
286.168717
 20
288.907994
 30
0.0
  0
POINT
  5
7A
330
1F
100
AcDbEntity
  8
4
 60
     1
100
AcDbPoint
 10
458.807157
 20
288.907994
 30
0.0
  0
POINT
  5
7B
330
1F
100
AcDbEntity
  8
SK6
 60
     1
100
AcDbPoint
 10
274.404842
 20
288.907994
 30
0.0
  0
POINT
  5
7C
330
1F
100
AcDbEntity
  8
SK6
 60
     1
100
AcDbPoint
 10
287.912901
 20
308.737917
 30
0.0
  0
LINE
  5
7D
330
1F
100
AcDbEntity
  8
1
100
AcDbLine
 10
446.132923
 20
308.407994
 30
0.0
 11
434.515174
 21
308.407994
 31
0.0
  0
LINE
  5
7F
330
1F
100
AcDbEntity
  8
1
100
AcDbLine
 10
313.222997
 20
308.407994
 30
0.0
 11
286.168717
 21
308.407994
 31
0.0
  0
LINE
  5
80
330
1F
100
AcDbEntity
  8
1
100
AcDbLine
 10
286.168717
 20
269.407994
 30
0.0
 11
308.468794
 21
269.407994
 31
0.0
  0
LINE
  5
81
330
1F
100
AcDbEntity
  8
1
100
AcDbLine
 10
440.5336639999999
 20
296.415583
 30
0.0
 11
439.751728
 21
296.861317
 31
0.0
  0
LINE
  5
82
330
1F
100
AcDbEntity
  8
1
100
AcDbLine
 10
279.404842
 20
309.907994
 30
0.0
 11
279.404842
 21
279.928939
 31
0.0
  0
LINE
  5
83
330
1F
100
AcDbEntity
  8
1
100
AcDbLine
 10
279.404842
 20
267.907994
 30
0.0
 11
279.404842
 21
271.258757
 31
0.0
  0
LINE
  5
84
330
1F
100
AcDbEntity
  8
1
100
AcDbLine
 10
455.993673
 20
282.557994
 30
0.0
 11
456.6356469999999
 21
282.557994
 31
0.0
  0
LINE
  5
85
330
1F
100
AcDbEntity
  8
1
100
AcDbLine
 10
446.207894
 20
308.245968
 30
0.0
 11
446.20254
 21
308.401742
 31
0.0
  0
LINE
  5
86
330
1F
100
AcDbEntity
  8
1
100
AcDbLine
 10
449.674378
 20
295.628003
 30
0.0
 11
458.3836599999999
 21
295.931821
 31
0.0
  0
LINE
  5
87
330
1F
100
AcDbEntity
  8
1
100
AcDbLine
 10
458.5848419999999
 20
290.084272
 30
0.0
 11
458.5848419999999
 21
290.284302
 31
0.0
  0
LINE
  5
88
330
1F
100
AcDbEntity
  8
1
100
AcDbLine
 10
458.385434
 20
295.676271
 30
0.0
 11
458.3836599999999
 21
295.931821
 31
0.0
  0
LINE
  5
89
330
1F
100
AcDbEntity
  8
1
100
AcDbLine
 10
445.938075
 20
307.811238
 30
0.0
 11
445.919628
 21
308.348019
 31
0.0
  0
LINE
  5
8A
330
1F
100
AcDbEntity
  8
81
100
AcDbLine
 10
457.4048419999999
 20
308.907994
 30
0.0
 11
461.4048419999999
 21
308.907994
 31
0.0
  0
LINE
  5
8B
330
1F
100
AcDbEntity
  8
SK1
100
AcDbLine
 10
216.404842
 20
272.907994
 30
0.0
 11
274.404842
 21
272.907994
 31
0.0
  0
LINE
  5
8C
330
1F
100
AcDbEntity
  8
80
100
AcDbLine
 10
274.404842
 20
287.90842
 30
0.0
 11
274.404842
 21
289.907567
 31
0.0
  0
LINE
  5
8D
330
1F
100
AcDbEntity
  8
81
100
AcDbLine
 10
459.404842
 20
310.907994
 30
0.0
 11
459.404842
 21
306.907994
 31
0.0
  0
LINE
  5
8E
330
1F
100
AcDbEntity
  8
1
100
AcDbLine
 10
274.904842
 20
267.907994
 30
0.0
 11
279.404842
 21
267.907994
 31
0.0
  0
LINE
  5
8F
330
1F
100
AcDbEntity
  8
1
100
AcDbLine
 10
456.8382419999999
 20
295.122591
 30
0.0
 11
447.2852389999999
 21
294.78934
 31
0.0
  0
LINE
  5
90
330
1F
100
AcDbEntity
  8
1
100
AcDbLine
 10
448.9152289999999
 20
303.335397
 30
0.0
 11
448.915121
 21
303.33509
 31
0.0
  0
LINE
  5
96
330
1F
100
AcDbEntity
  8
80
100
AcDbLine
 10
275.404416
 20
288.907994
 30
0.0
 11
273.405268
 21
288.907994
 31
0.0
  0
LINE
  5
97
330
1F
100
AcDbEntity
  8
1
100
AcDbLine
 10
274.404842
 20
309.407994
 30
0.0
 11
274.404842
 21
288.907994
 31
0.0
  0
LINE
  5
98
330
1F
100
AcDbEntity
  8
1
100
AcDbLine
 10
274.404842
 20
288.907994
 30
0.0
 11
274.404842
 21
268.407994
 31
0.0
  0
LINE
  5
99
330
1F
100
AcDbEntity
  8
1
100
AcDbLine
 10
450.9421139999999
 20
302.912294
 30
0.0
 11
450.908287
 21
302.81639
 31
0.0
  0
LINE
  5
9A
330
1F
100
AcDbEntity
  8
1
100
AcDbLine
 10
451.007245
 20
302.852654
 30
0.0
 11
450.9728679999999
 21
302.755191
 31
0.0
  0
LINE
  5
9B
330
1F
100
AcDbEntity
  8
1
100
AcDbLine
 10
453.7632610000001
 20
302.110525
 30
0.0
 11
453.797653
 21
302.208031
 31
0.0
  0
LINE
  5
9C
330
1F
100
AcDbEntity
  8
1
100
AcDbLine
 10
451.0560519999999
 20
301.370344
 30
0.0
 11
451.0217289999999
 21
301.273035
 31
0.0
  0
LINE
  5
9D
330
1F
100
AcDbEntity
  8
1
100
AcDbLine
 10
451.0127409999999
 20
301.349783
 30
0.0
 11
450.978718
 21
301.253323
 31
0.0
  0
LINE
  5
9E
330
1F
100
AcDbEntity
  8
1
100
AcDbLine
 10
453.0717559999999
 20
300.80162
 30
0.0
 11
453.1060919999999
 21
300.898968
 31
0.0
  0
LINE
  5
9F
330
1F
100
AcDbEntity
  8
1
100
AcDbLine
 10
453.109328
 20
300.758667
 30
0.0
 11
453.1433019999999
 21
300.85499
 31
0.0
  0
LINE
  5
A0
330
1F
100
AcDbEntity
  8
1
100
AcDbLine
 10
443.694183
 20
295.1458
 30
0.0
 11
443.7197559999999
 21
294.3983740000001
 31
0.0
  0
LINE
  5
A1
330
1F
100
AcDbEntity
  8
1
100
AcDbLine
 10
443.798849
 20
292.086665
 30
0.0
 11
443.830334
 21
291.166429
 31
0.0
  0
LINE
  5
A2
330
1F
100
AcDbEntity
  8
1
100
AcDbLine
 10
443.8395349999999
 20
295.109845
 30
0.0
 11
443.8429
 21
295.119385
 31
0.0
  0
LINE
  5
A3
330
1F
100
AcDbEntity
  8
1
100
AcDbLine
 10
438.2155589999999
 20
297.814836
 30
0.0
 11
440.555161
 21
296.466186
 31
0.0
  0
LINE
  5
A4
330
1F
100
AcDbEntity
  8
1
100
AcDbLine
 10
446.015587
 20
299.027319
 30
0.0
 11
446.010354
 21
299.012484
 31
0.0
  0
LINE
  5
A5
330
1F
100
AcDbEntity
  8
1
100
AcDbLine
 10
446.015587
 20
299.027319
 30
0.0
 11
445.6952639999999
 21
308.348325
 31
0.0
  0
LINE
  5
A6
330
1F
100
AcDbEntity
  8
1
100
AcDbLine
 10
445.690407
 20
308.32256
 30
0.0
 11
446.010354
 21
299.012484
 31
0.0
  0
LINE
  5
A7
330
1F
100
AcDbEntity
  8
1
100
AcDbLine
 10
457.189138
 20
269.407994
 30
0.0
 11
429.403891
 21
269.407994
 31
0.0
  0
LINE
  5
A8
330
1F
100
AcDbEntity
  8
1
100
AcDbLine
 10
274.904842
 20
267.907994
 30
0.0
 11
274.904842
 21
288.907994
 31
0.0
  0
LINE
  5
A9
330
1F
100
AcDbEntity
  8
1
100
AcDbLine
 10
274.904842
 20
288.907994
 30
0.0
 11
274.904842
 21
309.907994
 31
0.0
  0
LINE
  5
AA
330
1F
100
AcDbEntity
  8
1
100
AcDbLine
 10
451.582068
 20
300.744997
 30
0.0
 11
451.6163519999999
 21
300.842195
 31
0.0
  0
LINE
  5
AB
330
1F
100
AcDbEntity
  8
1
100
AcDbLine
 10
452.377836
 20
300.688975
 30
0.0
 11
452.3434219999999
 21
300.591407
 31
0.0
  0
LINE
  5
AC
330
1F
100
AcDbEntity
  8
1
100
AcDbLine
 10
451.0079389999999
 20
302.288779
 30
0.0
 11
451.04343
 21
302.3894
 31
0.0
  0
LINE
  5
AD
330
1F
100
AcDbEntity
  8
1
100
AcDbLine
 10
453.595694
 20
301.939341
 30
0.0
 11
453.5602029999999
 21
301.83872
 31
0.0
  0
LINE
  5
AE
330
1F
100
AcDbEntity
  8
1
100
AcDbLine
 10
452.2247209999999
 20
303.536092
 30
0.0
 11
452.2591349999999
 21
303.63366
 31
0.0
  0
LINE
  5
AF
330
1F
100
AcDbEntity
  8
1
100
AcDbLine
 10
453.002122
 20
303.427997
 30
0.0
 11
452.986074
 21
303.382501
 31
0.0
  0
LINE
  5
B0
330
1F
100
AcDbEntity
  8
1
100
AcDbLine
 10
448.9152289999999
 20
303.335397
 30
0.0
 11
448.8990999999999
 21
303.289667
 31
0.0
  0
LINE
  5
B1
330
1F
100
AcDbEntity
  8
1
100
AcDbLine
 10
455.6891089999999
 20
300.894721
 30
0.0
 11
455.7052389999999
 21
300.940451
 31
0.0
  0
LINE
  5
B2
330
1F
100
AcDbEntity
  8
SK1
100
AcDbLine
 10
214.404842
 20
274.907994
 30
0.0
 11
216.404842
 21
272.907994
 31
0.0
  0
LINE
  5
B3
330
1F
100
AcDbEntity
  8
SK1
100
AcDbLine
 10
216.404842
 20
304.907994
 30
0.0
 11
214.404842
 21
302.907994
 31
0.0
  0
LINE
  5
B4
330
1F
100
AcDbEntity
  8
SK1
100
AcDbLine
 10
274.404842
 20
304.907994
 30
0.0
 11
216.404842
 21
304.907994
 31
0.0
  0
LINE
  5
B5
330
1F
100
AcDbEntity
  8
1
100
AcDbLine
 10
274.904842
 20
267.907994
 30
0.0
 11
274.404842
 21
268.407994
 31
0.0
  0
LINE
  5
B6
330
1F
100
AcDbEntity
  8
1
100
AcDbLine
 10
274.404842
 20
309.407994
 30
0.0
 11
274.904842
 21
309.907994
 31
0.0
  0
LINE
  5
B7
330
1F
100
AcDbEntity
  8
1
100
AcDbLine
 10
279.404842
 20
309.907994
 30
0.0
 11
274.904842
 21
309.907994
 31
0.0
  0
LINE
  5
B8
330
1F
100
AcDbEntity
  8
1
100
AcDbLine
 10
458.6065529999999
 20
308.060897
 30
0.0
 11
459.005139
 21
296.934312
 31
0.0
  0
LINE
  5
BA
330
1F
100
AcDbEntity
  8
1
100
AcDbLine
 10
446.664726
 20
308.420358
 30
0.0
 11
457.802905
 21
308.808906
 31
0.0
  0
LINE
  5
BB
330
1F
100
AcDbEntity
  8
1
100
AcDbLine
 10
446.315194
 20
296.491631
 30
0.0
 11
445.916608
 21
307.618216
 31
0.0
  0
LINE
  5
BC
330
1F
100
AcDbEntity
  8
1
100
AcDbLine
 10
458.257021
 20
296.1321709999999
 30
0.0
 11
447.1188419999999
 21
295.743622
 31
0.0
  0
LINE
  5
BD
330
1F
100
AcDbEntity
  8
1
100
AcDbLine
 10
448.1212099999999
 20
297.615932
 30
0.0
 11
447.799395
 21
306.599446
 31
0.0
  0
LINE
  5
BE
330
1F
100
AcDbEntity
  8
1
100
AcDbLine
 10
457.1140839999999
 20
297.929643
 30
0.0
 11
448.1212099999999
 21
297.615932
 31
0.0
  0
LINE
  5
BF
330
1F
100
AcDbEntity
  8
1
100
AcDbLine
 10
456.79227
 20
306.913157
 30
0.0
 11
457.1140839999999
 21
297.929643
 31
0.0
  0
LINE
  5
C0
330
1F
100
AcDbEntity
  8
1
100
AcDbLine
 10
447.799395
 20
306.599446
 30
0.0
 11
456.79227
 21
306.913157
 31
0.0
  0
LINE
  5
C1
330
1F
100
AcDbEntity
  8
1
100
AcDbLine
 10
458.172887
 20
289.463735
 30
0.0
 11
458.68309
 21
289.157174
 31
0.0
  0
LINE
  5
C2
330
1F
100
AcDbEntity
  8
1
100
AcDbLine
 10
458.5062139999999
 20
277.928159
 30
0.0
 11
457.7020609999999
 21
277.482409
 31
0.0
  0
LINE
  5
C3
330
1F
100
AcDbEntity
  8
1
100
AcDbLine
 10
458.0253429999999
 20
278.426115
 30
0.0
 11
458.5062139999999
 21
277.928159
 31
0.0
  0
LINE
  5
C4
330
1F
100
AcDbEntity
  8
1
100
AcDbLine
 10
459.253269
 20
279.171467
 30
0.0
 11
458.5062139999999
 21
277.928159
 31
0.0
  0
LINE
  5
C5
330
1F
100
AcDbEntity
  8
1
100
AcDbLine
 10
458.185134
 20
288.676303
 30
0.0
 11
458.68309
 21
289.157174
 31
0.0
  0
LINE
  5
C6
330
1F
100
AcDbEntity
  8
1
100
AcDbLine
 10
458.68309
 20
289.157174
 30
0.0
 11
459.404842
 21
287.855099
 31
0.0
  0
LINE
  5
C7
330
1F
100
AcDbEntity
  8
1
100
AcDbLine
 10
458.733164
 20
287.68763
 30
0.0
 11
459.404842
 21
287.855099
 31
0.0
  0
LINE
  5
C8
330
1F
100
AcDbEntity
  8
1
100
AcDbLine
 10
458.587844
 20
279.362274
 30
0.0
 11
459.253269
 21
279.171467
 31
0.0
  0
LINE
  5
C9
330
1F
100
AcDbEntity
  8
1
100
AcDbLine
 10
459.404842
 20
287.855099
 30
0.0
 11
459.253269
 21
279.171467
 31
0.0
  0
LINE
  5
CA
330
1F
100
AcDbEntity
  8
1
100
AcDbLine
 10
458.733164
 20
287.68763
 30
0.0
 11
458.587844
 21
279.362274
 31
0.0
  0
LINE
  5
CB
330
1F
100
AcDbEntity
  8
1
100
AcDbLine
 10
458.733164
 20
287.68763
 30
0.0
 11
458.0872179999999
 21
287.526578
 31
0.0
  0
LINE
  5
CC
330
1F
100
AcDbEntity
  8
1
100
AcDbLine
 10
458.185134
 20
288.676303
 30
0.0
 11
458.733164
 21
287.68763
 31
0.0
  0
LINE
  5
CD
330
1F
100
AcDbEntity
  8
1
100
AcDbLine
 10
458.587844
 20
279.362274
 30
0.0
 11
457.947912
 21
279.545771
 31
0.0
  0
LINE
  5
CE
330
1F
100
AcDbEntity
  8
1
100
AcDbLine
 10
458.587844
 20
279.362274
 30
0.0
 11
458.0253429999999
 21
278.426115
 31
0.0
  0
LINE
  5
CF
330
1F
100
AcDbEntity
  8
1
100
AcDbLine
 10
458.0253429999999
 20
278.426115
 30
0.0
 11
457.6189669999999
 21
278.84693
 31
0.0
  0
LINE
  5
D0
330
1F
100
AcDbEntity
  8
1
100
AcDbLine
 10
458.0253429999999
 20
278.426115
 30
0.0
 11
457.5460839999999
 21
278.160457
 31
0.0
  0
LINE
  5
D1
330
1F
100
AcDbEntity
  8
1
100
AcDbLine
 10
457.638473
 20
279.030777
 30
0.0
 11
457.947912
 21
279.545771
 31
0.0
  0
LINE
  5
D2
330
1F
100
AcDbEntity
  8
1
100
AcDbLine
 10
457.947912
 20
279.545771
 30
0.0
 11
457.9980599999999
 21
282.418737
 31
0.0
  0
LINE
  5
D3
330
1F
100
AcDbEntity
  8
1
100
AcDbLine
 10
458.012842
 20
283.265576
 30
0.0
 11
458.0872179999999
 21
287.526578
 31
0.0
  0
LINE
  5
D4
330
1F
100
AcDbEntity
  8
1
100
AcDbLine
 10
458.0872179999999
 20
287.526578
 30
0.0
 11
458.0128349999999
 21
287.660769
 31
0.0
  0
LINE
  5
D5
330
1F
100
AcDbEntity
  8
1
100
AcDbLine
 10
458.185134
 20
288.676303
 30
0.0
 11
458.0128339999999
 21
288.509916
 31
0.0
  0
LINE
  5
D6
330
1F
100
AcDbEntity
  8
1
100
AcDbLine
 10
458.0128369999999
 20
288.77983
 30
0.0
 11
458.185134
 21
288.676303
 31
0.0
  0
LINE
  5
D7
330
1F
100
AcDbEntity
  8
1
100
AcDbLine
 10
458.309513
 20
295.146222
 30
0.0
 11
447.2930709999999
 21
294.76192
 31
0.0
  0
LINE
  5
D8
330
1F
100
AcDbEntity
  8
1
100
AcDbLine
 10
458.309513
 20
295.146222
 30
0.0
 11
455.8615139999999
 21
291.090448
 31
0.0
  0
LINE
  5
D9
330
1F
100
AcDbEntity
  8
1
100
AcDbLine
 10
457.720441
 20
277.482115
 30
0.0
 11
457.5446699999999
 21
277.484928
 31
0.0
  0
LINE
  5
DA
330
1F
100
AcDbEntity
  8
1
100
AcDbLine
 10
457.527504
 20
277.985266
 30
0.0
 11
458.012841
 21
282.557994
 31
0.0
  0
LINE
  5
DB
330
1F
100
AcDbEntity
  8
1
100
AcDbLine
 10
458.012841
 20
282.557994
 30
0.0
 11
458.012841
 21
288.966448
 31
0.0
  0
LINE
  5
DC
330
1F
100
AcDbEntity
  8
1
100
AcDbLine
 10
458.083111
 20
289.465297
 30
0.0
 11
458.2591799999999
 21
289.462224
 31
0.0
  0
LINE
  5
DD
330
1F
100
AcDbEntity
  8
1
100
AcDbLine
 10
458.309513
 20
295.146222
 30
0.0
 11
458.318894
 21
295.149821
 31
0.0
  0
LINE
  5
DE
330
1F
100
AcDbEntity
  8
1
100
AcDbLine
 10
458.425665
 20
295.947939
 30
0.0
 11
449.679611
 21
295.642838
 31
0.0
  0
LINE
  5
DF
330
1F
100
AcDbEntity
  8
1
100
AcDbLine
 10
449.674378
 20
295.628003
 30
0.0
 11
449.679611
 21
295.642838
 31
0.0
  0
LINE
  5
E0
330
1F
100
AcDbEntity
  8
1
100
AcDbLine
 10
458.2591799999999
 20
289.462224
 30
0.0
 11
458.5426799999999
 21
289.846397
 31
0.0
  0
LINE
  5
E1
330
1F
100
AcDbEntity
  8
1
100
AcDbLine
 10
458.5426799999999
 20
290.085008
 30
0.0
 11
458.5426799999999
 21
289.846397
 31
0.0
  0
LINE
  5
E2
330
1F
100
AcDbEntity
  8
1
100
AcDbLine
 10
458.5426799999999
 20
290.085008
 30
0.0
 11
458.5848419999999
 21
290.084272
 31
0.0
  0
LINE
  5
E3
330
1F
100
AcDbEntity
  8
1
100
AcDbLine
 10
458.5848419999999
 20
296.229796
 30
0.0
 11
458.5848419999999
 21
290.284302
 31
0.0
  0
LINE
  5
E4
330
1F
100
AcDbEntity
  8
1
100
AcDbLine
 10
458.425665
 20
295.947939
 30
0.0
 11
458.4241089999999
 21
296.172015
 31
0.0
  0
LINE
  5
E5
330
1F
100
AcDbEntity
  8
1
100
AcDbLine
 10
458.425665
 20
295.947939
 30
0.0
 11
458.3836599999999
 21
295.931821
 31
0.0
  0
LINE
  5
E6
330
1F
100
AcDbEntity
  8
1
100
AcDbLine
 10
457.189138
 20
269.407994
 30
0.0
 11
457.9790389999999
 21
276.85026
 31
0.0
  0
LINE
  5
E7
330
1F
100
AcDbEntity
  8
1
100
AcDbLine
 10
457.9790389999999
 20
276.85026
 30
0.0
 11
457.936949
 21
276.850934
 31
0.0
  0
LINE
  5
E8
330
1F
100
AcDbEntity
  8
1
100
AcDbLine
 10
457.9622309999999
 20
277.089134
 30
0.0
 11
457.936949
 21
276.850934
 31
0.0
  0
LINE
  5
E9
330
1F
100
AcDbEntity
  8
1
100
AcDbLine
 10
457.9622309999999
 20
277.089134
 30
0.0
 11
457.720441
 21
277.482115
 31
0.0
  0
LINE
  5
EA
330
1F
100
AcDbEntity
  8
1
100
AcDbLine
 10
457.224795
 20
282.557994
 30
0.0
 11
458.012841
 21
282.557994
 31
0.0
  0
LINE
  5
EB
330
1F
100
AcDbEntity
  8
SK1
100
AcDbLine
 10
216.404842
 20
304.907994
 30
0.0
 11
216.404842
 21
272.907994
 31
0.0
  0
LINE
  5
EC
330
1F
100
AcDbEntity
  8
SK1
100
AcDbLine
 10
214.404842
 20
302.907994
 30
0.0
 11
214.404842
 21
274.907994
 31
0.0
  0
LINE
  5
11E
330
1F
100
AcDbEntity
  8
NOCUT
100
AcDbLine
 10
214.404842
 20
302.907994
 30
0.0
 11
214.404842
 21
288.907994
 31
0.0
  0
LINE
  5
11F
330
1F
100
AcDbEntity
  8
NOCUT
100
AcDbLine
 10
274.404842
 20
304.907994
 30
0.0
 11
216.404842
 21
304.907994
 31
0.0
  0
LINE
  5
120
330
1F
100
AcDbEntity
  8
NOCUT
100
AcDbLine
 10
279.404842
 20
309.907994
 30
0.0
 11
274.904842
 21
309.907994
 31
0.0
  0
LINE
  5
121
330
1F
100
AcDbEntity
  8
NOCUT
100
AcDbLine
 10
286.168717
 20
308.407994
 30
0.0
 11
458.1647
 21
308.407994
 31
0.0
  0
LINE
  5
122
330
1F
100
AcDbEntity
  8
NOCUT
100
AcDbLine
 10
274.404842
 20
304.907994
 30
0.0
 11
274.404842
 21
309.407994
 31
0.0
  0
LINE
  5
123
330
1F
100
AcDbEntity
  8
NOCUT
100
AcDbLine
 10
274.404842
 20
309.407994
 30
0.0
 11
274.904842
 21
309.907994
 31
0.0
  0
LINE
  5
124
330
1F
100
AcDbEntity
  8
NOCUT
100
AcDbLine
 10
214.404842
 20
302.907994
 30
0.0
 11
216.404842
 21
304.907994
 31
0.0
  0
LINE
  5
125
330
1F
100
AcDbEntity
  8
NOCUT
100
AcDbLine
 10
458.1647
 20
308.407994
 30
0.0
 11
458.5848419999999
 21
296.480006
 31
0.0
  0
LINE
  5
126
330
1F
100
AcDbEntity
  8
NOCUT
100
AcDbLine
 10
458.5848419999999
 20
296.480006
 30
0.0
 11
458.5848419999999
 21
288.907994
 31
0.0
  0
LINE
  5
127
330
1F
100
AcDbEntity
  8
NOCUT
100
AcDbLine
 10
458.5848419999999
 20
288.907994
 30
0.0
 11
214.404842
 21
288.907994
 31
0.0
  0
ARC
  5
130
330
1F
100
AcDbEntity
  8
1
100
AcDbCircle
 10
286.168717
 20
253.407994
 30
0.0
 40
16.0
100
AcDbArc
 50
90.0
 51
115.007833
  0
ARC
  5
131
330
1F
100
AcDbEntity
  8
1
100
AcDbCircle
 10
286.168717
 20
324.407994
 30
0.0
 40
16.0
100
AcDbArc
 50
244.992167
 51
270.0
  0
CIRCLE
  5
132
330
1F
100
AcDbEntity
  8
1
100
AcDbCircle
 10
452.8131369999999
 20
283.804045
 30
0.0
 40
1.35
  0
ARC
  5
133
330
1F
100
AcDbEntity
  8
1
100
AcDbCircle
 10
452.8131369999999
 20
283.804045
 30
0.0
 40
1.75
100
AcDbArc
 50
75.0
 51
345.0
  0
ARC
  5
13F
330
1F
100
AcDbEntity
  8
NOCUT
100
AcDbCircle
 10
286.168717
 20
324.407994
 30
0.0
 40
16.0
100
AcDbArc
 50
244.992167
 51
270.0
  0
ELLIPSE
  5
140
330
1F
100
AcDbEntity
  8
1
100
AcDbEllipse
 10
243.627753
 20
288.907994
 30
0.0
 11
81.19086553543926
 21
-15.07270844307692
 31
0.0
210
0.0
220
0.0
230
1.0
 40
0.15238
 41
5.362767281756466
 42
5.517556391372964
  0
ELLIPSE
  5
141
330
1F
100
AcDbEntity
  8
1
100
AcDbEllipse
 10
447.0600459999999
 20
292.682004
 30
0.0
 11
-3.702880594615601
 21
-0.1453291081769306
 31
0.0
210
0.0
220
0.0
230
0.9999999999999998
 40
0.22151
 41
1.651814031401278
 42
4.629144316389247
  0
ELLIPSE
  5
142
330
1F
100
AcDbEntity
  8
1
100
AcDbEllipse
 10
448.4117369999999
 20
311.819464
 30
0.0
 11
7.098612389655603
 21
15.80004361004867
 31
0.0
210
0.0
220
0.0
230
1.0
 40
0.7250700000000001
 41
3.071997837403694
 42
3.078206218815654
  0
ELLIPSE
  5
143
330
1F
100
AcDbEntity
  8
1
100
AcDbEllipse
 10
453.943474
 20
288.907994
 30
0.0
 11
33.44445573727404
 21
-19.23804761006466
 31
0.0
210
0.0
220
0.0
230
0.9999999999999998
 40
0.095248
 41
4.202719052436982
 42
4.361718051491746
  0
ELLIPSE
  5
144
330
1F
100
AcDbEntity
  8
1
100
AcDbEllipse
 10
303.852531
 20
288.907457
 30
0.0
 11
3.618568887550626
 21
19.49143098137526
 31
0.0
210
0.0
220
0.0
230
0.9999999999999998
 40
0.152377
 41
4.320049289008573
 42
4.325851249693756
  0
ELLIPSE
  5
145
330
1F
100
AcDbEntity
  8
1
100
AcDbEllipse
 10
446.844782
 20
288.907994
 30
0.0
 11
0.6521295176663367
 21
-19.499995793138
 31
0.0
210
0.0
220
0.0
230
1.0
 40
0.0191
 41
3.010486210029343
 42
3.115630924409916
  0
ELLIPSE
  5
146
330
1F
100
AcDbEntity
  8
1
100
AcDbEllipse
 10
447.9546159999999
 20
297.44152
 30
0.0
 11
2.357642267228976
 21
-0.8315785830427666
 31
0.0
210
0.0
220
0.0
230
1.0
 40
0.9986239999999998
 41
5.637542175042133
 42
5.809792633311543
  0
ELLIPSE
  5
147
330
1F
100
AcDbEntity
  8
1
100
AcDbEllipse
 10
446.6688869999999
 20
288.907994
 30
0.0
 11
0.5467685268787982
 21
-19.49984859472926
 31
0.0
210
0.0
220
0.0
230
0.9999999999999998
 40
0.140543
 41
3.112328928192576
 42
3.216101807581859
  0
ELLIPSE
  5
148
330
1F
100
AcDbEntity
  8
1
100
AcDbEllipse
 10
453.0759639999999
 20
303.350796
 30
0.0
 11
-0.0898897536456678
 21
0.0317055708602418
 31
0.0
210
0.0
220
0.0
230
1.0
 40
0.9986239999999998
 41
6.134017720050252
 42
6.810749636931076
  0
ELLIPSE
  5
149
330
1F
100
AcDbEntity
  8
1
100
AcDbEllipse
 10
453.5724719999999
 20
303.445189
 30
0.0
 11
-0.5666776289729528
 21
0.1998763706833415
 31
0.0
210
0.0
220
0.0
230
1.0
 40
0.9986239999999998
 41
0.5275643297515518
 42
1.792094373981766
  0
ELLIPSE
  5
14A
330
1F
100
AcDbEntity
  8
1
100
AcDbEllipse
 10
453.5132809999999
 20
302.943756
 30
0.0
 11
-0.0898897536456659
 21
0.0317055708602411
 31
0.0
210
0.0
220
0.0
230
0.9999999999999998
 40
0.998624
 41
1.792094373981933
 42
2.46882629086247
  0
ELLIPSE
  5
14B
330
1F
100
AcDbEntity
  8
1
100
AcDbEllipse
 10
453.6144259999999
 20
302.782286
 30
0.0
 11
-0.0898897536456657
 21
0.031705570860241
 31
0.0
210
0.0
220
0.0
230
0.9999999999999998
 40
0.998624
 41
4.410088251973058
 42
5.610418944452332
  0
ELLIPSE
  5
14C
330
1F
100
AcDbEntity
  8
1
100
AcDbEllipse
 10
453.312154
 20
302.377812
 30
0.0
 11
-0.5666776289729532
 21
0.1998763706833416
 31
0.0
210
0.0
220
0.0
230
0.9999999999999998
 40
0.9986239999999998
 41
3.145558207743023
 42
4.410088251973144
  0
ELLIPSE
  5
14D
330
1F
100
AcDbEntity
  8
1
100
AcDbEllipse
 10
453.7896039999999
 20
302.211531
 30
0.0
 11
-0.0898897536456678
 21
0.0317055708602418
 31
0.0
210
0.0
220
0.0
230
1.0
 40
0.9986239999999998
 41
1.945227515264138
 42
3.145558207742971
  0
ELLIPSE
  5
14E
330
1F
100
AcDbEntity
  8
1
100
AcDbEllipse
 10
453.796421
 20
302.021245
 30
0.0
 11
-0.0898897536456678
 21
0.0317055708602418
 31
0.0
210
0.0
220
0.0
230
1.0
 40
0.9986239999999998
 41
5.086820168853653
 42
5.763552085734326
  0
ELLIPSE
  5
14F
330
1F
100
AcDbEntity
  8
1
100
AcDbEllipse
 10
454.126881
 20
301.638844
 30
0.0
 11
-0.5666776289729528
 21
0.1998763706833415
 31
0.0
210
0.0
220
0.0
230
1.0
 40
0.9986239999999998
 41
5.76355208573454
 42
7.028082129964706
  0
ELLIPSE
  5
150
330
1F
100
AcDbEntity
  8
1
100
AcDbEllipse
 10
453.6625209999999
 20
301.439708
 30
0.0
 11
-0.0898897536456659
 21
0.0317055708602411
 31
0.0
210
0.0
220
0.0
230
0.9999999999999998
 40
0.998624
 41
0.7448968227853845
 42
1.421628739665804
  0
ELLIPSE
  5
151
330
1F
100
AcDbEntity
  8
1
100
AcDbEllipse
 10
453.573183
 20
301.271593
 30
0.0
 11
-0.0898897536456657
 21
0.031705570860241
 31
0.0
210
0.0
220
0.0
230
0.9999999999999998
 40
0.998624
 41
3.362890700776789
 42
4.563221393255302
  0
ELLIPSE
  5
152
330
1F
100
AcDbEntity
  8
1
100
AcDbEllipse
 10
453.07116
 20
301.331154
 30
0.0
 11
-0.5666776289729532
 21
0.1998763706833416
 31
0.0
210
0.0
220
0.0
230
0.9999999999999998
 40
0.9986239999999998
 41
2.098360656546474
 42
3.362890700776603
  0
ELLIPSE
  5
153
330
1F
100
AcDbEntity
  8
1
100
AcDbEllipse
 10
453.1660839999999
 20
300.835096
 30
0.0
 11
-0.0898897536456678
 21
0.0317055708602418
 31
0.0
210
0.0
220
0.0
230
1.0
 40
0.9986239999999998
 41
0.898029964067464
 42
2.098360656546395
  0
ELLIPSE
  5
154
330
1F
100
AcDbEntity
  8
1
100
AcDbEllipse
 10
453.004528
 20
300.734199
 30
0.0
 11
-0.0898897536456678
 21
0.0317055708602418
 31
0.0
210
0.0
220
0.0
230
1.0
 40
0.9986239999999998
 41
4.039622617657303
 42
4.71635453453798
  0
ELLIPSE
  5
155
330
1F
100
AcDbEntity
  8
1
100
AcDbEllipse
 10
452.8384809999999
 20
300.257404
 30
0.0
 11
-0.5666776289729528
 21
0.1998763706833415
 31
0.0
210
0.0
220
0.0
230
1.0
 40
0.9986239999999998
 41
4.716354534537948
 42
5.980884578768072
  0
ELLIPSE
  5
156
330
1F
100
AcDbEntity
  8
1
100
AcDbEllipse
 10
452.433312
 20
300.559701
 30
0.0
 11
-0.0898897536456659
 21
0.0317055708602411
 31
0.0
210
0.0
220
0.0
230
0.9999999999999998
 40
0.998624
 41
5.980884578768069
 42
6.657616495648449
  0
ELLIPSE
  5
157
330
1F
100
AcDbEntity
  8
1
100
AcDbEllipse
 10
452.242828
 20
300.553056
 30
0.0
 11
-0.0898897536456657
 21
0.031705570860241
 31
0.0
210
0.0
220
0.0
230
0.9999999999999998
 40
0.998624
 41
2.315693149580046
 42
3.516023842059044
  0
ELLIPSE
  5
158
330
1F
100
AcDbEntity
  8
1
100
AcDbEllipse
 10
452.0430769999999
 20
301.017091
 30
0.0
 11
-0.5666776289729532
 21
0.1998763706833416
 31
0.0
210
0.0
220
0.0
230
0.9999999999999998
 40
0.9986239999999998
 41
1.051163105349822
 42
2.315693149579995
  0
ELLIPSE
  5
159
330
1F
100
AcDbEntity
  8
1
100
AcDbEllipse
 10
451.6605509999999
 20
300.687315
 30
0.0
 11
-0.0898897536456678
 21
0.0317055708602418
 31
0.0
210
0.0
220
0.0
230
1.0
 40
0.9986239999999998
 41
6.134017720050105
 42
7.334348412529349
  0
ELLIPSE
  5
15A
330
1F
100
AcDbEntity
  8
1
100
AcDbEllipse
 10
451.492179
 20
300.776703
 30
0.0
 11
-0.0898897536456678
 21
0.0317055708602418
 31
0.0
210
0.0
220
0.0
230
1.0
 40
0.9986239999999998
 41
2.992425066460651
 42
3.669156983341411
  0
ELLIPSE
  5
15B
330
1F
100
AcDbEntity
  8
1
100
AcDbEllipse
 10
450.9956709999999
 20
300.682309
 30
0.0
 11
-0.5666776289729528
 21
0.1998763706833415
 31
0.0
210
0.0
220
0.0
230
1.0
 40
0.9986239999999998
 41
3.6691569833413
 42
4.933687027571565
  0
ELLIPSE
  5
15C
330
1F
100
AcDbEntity
  8
1
100
AcDbEllipse
 10
451.054862
 20
301.183743
 30
0.0
 11
-0.0898897536456659
 21
0.0317055708602411
 31
0.0
210
0.0
220
0.0
230
0.9999999999999998
 40
0.998624
 41
4.933687027571759
 42
5.610418944452263
  0
ELLIPSE
  5
15D
330
1F
100
AcDbEntity
  8
1
100
AcDbEllipse
 10
450.9537169999999
 20
301.345213
 30
0.0
 11
-0.0898897536456657
 21
0.031705570860241
 31
0.0
210
0.0
220
0.0
230
0.9999999999999998
 40
0.998624
 41
1.268495598383551
 42
2.468826290862539
  0
ELLIPSE
  5
15E
330
1F
100
AcDbEntity
  8
1
100
AcDbEllipse
 10
451.2559889999999
 20
301.749687
 30
0.0
 11
-0.5666776289729532
 21
0.1998763706833416
 31
0.0
210
0.0
220
0.0
230
0.9999999999999998
 40
0.9986239999999998
 41
0.0039655541531843
 42
1.26849559838339
  0
ELLIPSE
  5
15F
330
1F
100
AcDbEntity
  8
1
100
AcDbEllipse
 10
450.7785389999999
 20
301.915968
 30
0.0
 11
-0.0898897536456678
 21
0.0317055708602418
 31
0.0
210
0.0
220
0.0
230
1.0
 40
0.9986239999999998
 41
5.086820168854153
 42
6.287150861332615
  0
ELLIPSE
  5
160
330
1F
100
AcDbEntity
  8
1
100
AcDbEllipse
 10
450.7717219999999
 20
302.106254
 30
0.0
 11
-0.0898897536456678
 21
0.0317055708602418
 31
0.0
210
0.0
220
0.0
230
1.0
 40
0.9986239999999998
 41
1.945227515264138
 42
2.621959432144961
  0
ELLIPSE
  5
161
330
1F
100
AcDbEntity
  8
1
100
AcDbEllipse
 10
450.441262
 20
302.488655
 30
0.0
 11
-0.5666776289729528
 21
0.1998763706833415
 31
0.0
210
0.0
220
0.0
230
1.0
 40
0.9986239999999998
 41
2.621959432144747
 42
3.886489476374861
  0
ELLIPSE
  5
162
330
1F
100
AcDbEntity
  8
1
100
AcDbEllipse
 10
452.2840709999999
 20
302.063749
 30
0.0
 11
1.98041950447234
 21
-0.6985260097559243
 31
0.0
210
0.0
220
0.0
230
1.0
 40
0.9986239999999998
 41
0.0
 42
6.283185307179585
  0
ELLIPSE
  5
163
330
1F
100
AcDbEntity
  8
1
100
AcDbEllipse
 10
452.310234
 20
302.137924
 30
0.0
 11
-3.395004864809717
 21
1.197473159581605
 31
0.0
210
0.0
220
0.0
230
0.9999999999999998
 40
0.9986239999999998
 41
3.141585274248863
 42
5.872218228534567
  0
ELLIPSE
  5
164
330
1F
100
AcDbEntity
  8
1
100
AcDbEllipse
 10
452.310234
 20
302.137924
 30
0.0
 11
-3.395004864809717
 21
1.197473159581605
 31
0.0
210
0.0
220
0.0
230
0.9999999999999998
 40
0.9986239999999998
 41
5.872218228534568
 42
6.283185307179585
  0
ELLIPSE
  5
165
330
1F
100
AcDbEntity
  8
1
100
AcDbEllipse
 10
452.294104
 20
302.092194
 30
0.0
 11
3.395004864809725
 21
-1.197473159581583
 31
0.0
210
0.0
220
0.0
230
1.0
 40
0.9986239999999998
 41
0.0
 42
6.283185307179585
  0
ELLIPSE
  5
166
330
1F
100
AcDbEntity
  8
1
100
AcDbEllipse
 10
450.9056219999999
 20
302.687791
 30
0.0
 11
-0.0898897536456659
 21
0.0317055708602411
 31
0.0
210
0.0
220
0.0
230
0.9999999999999998
 40
0.998624
 41
3.886489476374866
 42
4.563221393255891
  0
ELLIPSE
  5
167
330
1F
100
AcDbEntity
  8
1
100
AcDbEllipse
 10
450.9949599999999
 20
302.855906
 30
0.0
 11
-0.0898897536456657
 21
0.031705570860241
 31
0.0
210
0.0
220
0.0
230
0.9999999999999998
 40
0.998624
 41
0.2212980471869314
 42
1.421628739665193
  0
ELLIPSE
  5
168
330
1F
100
AcDbEntity
  8
1
100
AcDbEllipse
 10
451.496983
 20
302.7963450000001
 30
0.0
 11
-0.5666776289729532
 21
0.1998763706833416
 31
0.0
210
0.0
220
0.0
230
0.9999999999999998
 40
0.9986239999999998
 41
5.239953310136202
 42
6.504483354366371
  0
ELLIPSE
  5
169
330
1F
100
AcDbEntity
  8
1
100
AcDbEllipse
 10
451.402059
 20
303.292402
 30
0.0
 11
-0.0898897536456678
 21
0.0317055708602418
 31
0.0
210
0.0
220
0.0
230
1.0
 40
0.9986239999999998
 41
4.039622617657396
 42
5.239953310136447
  0
ELLIPSE
  5
16A
330
1F
100
AcDbEntity
  8
1
100
AcDbEllipse
 10
451.563615
 20
303.3933
 30
0.0
 11
-0.0898897536456678
 21
0.0317055708602418
 31
0.0
210
0.0
220
0.0
230
1.0
 40
0.9986239999999998
 41
0.8980299640669048
 42
1.57476188094759
  0
ELLIPSE
  5
16B
330
1F
100
AcDbEntity
  8
1
100
AcDbEllipse
 10
451.729662
 20
303.870095
 30
0.0
 11
-0.5666776289729528
 21
0.1998763706833415
 31
0.0
210
0.0
220
0.0
230
1.0
 40
0.9986239999999998
 41
1.574761880948154
 42
2.839291925178316
  0
ELLIPSE
  5
16C
330
1F
100
AcDbEntity
  8
1
100
AcDbEllipse
 10
452.1348309999999
 20
303.567797
 30
0.0
 11
-0.0898897536456659
 21
0.0317055708602411
 31
0.0
210
0.0
220
0.0
230
0.9999999999999998
 40
0.998624
 41
2.839291925178135
 42
3.516023842058904
  0
ELLIPSE
  5
16D
330
1F
100
AcDbEntity
  8
1
100
AcDbEllipse
 10
452.325315
 20
303.574442
 30
0.0
 11
-0.0898897536456657
 21
0.031705570860241
 31
0.0
210
0.0
220
0.0
230
0.9999999999999998
 40
0.998624
 41
5.457285803169855
 42
6.657616495648838
  0
ELLIPSE
  5
16E
330
1F
100
AcDbEntity
  8
1
100
AcDbEllipse
 10
452.525066
 20
303.110408
 30
0.0
 11
-0.5666776289729532
 21
0.1998763706833416
 31
0.0
210
0.0
220
0.0
230
0.9999999999999998
 40
0.9986239999999998
 41
4.192755758939615
 42
5.457285803169752
  0
ELLIPSE
  5
16F
330
1F
100
AcDbEntity
  8
1
100
AcDbEllipse
 10
452.9075919999999
 20
303.440184
 30
0.0
 11
-0.0898897536456678
 21
0.0317055708602418
 31
0.0
210
0.0
220
0.0
230
1.0
 40
0.9986239999999998
 41
2.992425066460505
 42
4.192755758939631
  0
ELLIPSE
  5
170
330
1F
100
AcDbEntity
  8
1
100
AcDbEllipse
 10
447.9598479999999
 20
297.456355
 30
0.0
 11
-2.35764226722897
 21
0.8315785830427818
 31
0.0
210
0.0
220
0.0
230
1.0
 40
0.9986239999999998
 41
5.822888314034125
 42
5.942244189143305
  0
ELLIPSE
  5
171
330
1F
100
AcDbEntity
  8
1
100
AcDbEllipse
 10
447.9546159999999
 20
297.44152
 30
0.0
 11
2.357642267228976
 21
-0.8315785830427666
 31
0.0
210
0.0
220
0.0
230
1.0
 40
0.9986239999999998
 41
2.800651535553506
 42
4.525803034523761
  0
ELLIPSE
  5
172
330
1F
100
AcDbEntity
  8
1
100
AcDbEllipse
 10
446.3742889999999
 20
288.908508
 30
0.0
 11
0.6521114807345048
 21
-19.49948148346816
 31
0.0
210
0.0
220
0.0
230
1.0
 40
0.0191
 41
3.219204030508602
 42
3.234597231858244
  0
ELLIPSE
  5
173
330
1F
100
AcDbEntity
  8
1
100
AcDbEllipse
 10
396.346912
 20
288.911693
 30
0.0
 11
1117.727103875409
 21
-0.9647775082469735
 31
0.0
210
0.0
220
0.0
230
0.9999999999999998
 40
0.017421
 41
1.526650730833958
 42
1.530909542438714
  0
ELLIPSE
  5
174
330
1F
100
AcDbEntity
  8
1
100
AcDbEllipse
 10
446.833024
 20
307.3417790000001
 30
0.0
 11
-11.88251702683402
 21
4.191156058535626
 31
0.0
210
0.0
220
0.0
230
1.0
 40
0.9986239999999998
 41
1.386722154625872
 42
1.945227515264096
  0
ELLIPSE
  5
175
330
1F
100
AcDbEntity
  8
1
100
AcDbEllipse
 10
452.479414
 20
302.328829
 30
0.0
 11
3.531988007444662
 21
-1.245789330883937
 31
0.0
210
0.0
220
0.0
230
0.9999999999999998
 40
0.9986239999999998
 41
1.94522755203838
 42
3.356097206659879
  0
ELLIPSE
  5
176
330
1F
100
AcDbEntity
  8
1
100
AcDbEllipse
 10
452.479414
 20
302.328829
 30
0.0
 11
3.531988007444662
 21
-1.245789330883937
 31
0.0
210
0.0
220
0.0
230
0.9999999999999998
 40
0.9986239999999998
 41
5.419043491545753
 42
6.283185307179585
  0
ELLIPSE
  5
177
330
1F
100
AcDbEntity
  8
1
100
AcDbEllipse
 10
452.479414
 20
302.328829
 30
0.0
 11
3.531988007444662
 21
-1.245789330883937
 31
0.0
210
0.0
220
0.0
230
0.9999999999999998
 40
0.9986239999999998
 41
0.0
 42
1.50893877539691
  0
ELLIPSE
  5
178
330
1F
100
AcDbEntity
  8
1
100
AcDbEllipse
 10
452.479414
 20
302.328829
 30
0.0
 11
3.531988007444662
 21
-1.245789330883937
 31
0.0
210
0.0
220
0.0
230
0.9999999999999998
 40
0.9986239999999998
 41
1.632540859458623
 42
1.94522755203838
  0
ELLIPSE
  5
179
330
1F
100
AcDbEntity
  8
1
100
AcDbEllipse
 10
447.706923
 20
297.163641
 30
0.0
 11
0.4817434592764955
 21
0.5170545786645403
 31
0.0
210
0.0
220
0.0
230
1.0
 40
0.01483
 41
0.5198738242325245
 42
1.536779664698268
  0
ELLIPSE
  5
17A
330
1F
100
AcDbEntity
  8
1
100
AcDbEllipse
 10
452.4596179999999
 20
302.272704
 30
0.0
 11
3.588083700633127
 21
-1.265575189707758
 31
0.0
210
0.0
220
0.0
230
1.0
 40
0.9986239999999998
 41
1.945227451328571
 42
3.745261875445964
  0
ELLIPSE
  5
17B
330
1F
100
AcDbEntity
  8
1
100
AcDbEllipse
 10
452.4596179999999
 20
302.272704
 30
0.0
 11
3.588083700633127
 21
-1.265575189707758
 31
0.0
210
0.0
220
0.0
230
1.0
 40
0.9986239999999998
 41
4.874566385899283
 42
6.283185307179585
  0
ELLIPSE
  5
17C
330
1F
100
AcDbEntity
  8
1
100
AcDbEllipse
 10
452.4596179999999
 20
302.272704
 30
0.0
 11
3.588083700633127
 21
-1.265575189707758
 31
0.0
210
0.0
220
0.0
230
1.0
 40
0.9986239999999998
 41
0.0
 42
1.945227440221053
  0
ELLIPSE
  5
17D
330
1F
100
AcDbEntity
  8
1
100
AcDbEllipse
 10
452.45674
 20
302.264544
 30
0.0
 11
-3.677921936877194
 21
1.297262589546739
 31
0.0
210
0.0
220
0.0
230
1.0
 40
0.9986239999999998
 41
0.0
 42
6.283185307179585
  0
ELLIPSE
  5
17E
330
1F
100
AcDbEntity
  8
1
100
AcDbEllipse
 10
457.549608
 20
297.506997
 30
0.0
 11
0.5172967686900132
 21
-0.4819691094556986
 31
0.0
210
0.0
220
0.0
230
1.0
 40
0.033998
 41
1.585610887656863
 42
2.602516728100931
  0
ELLIPSE
  5
17F
330
1F
100
AcDbEntity
  8
1
100
AcDbEllipse
 10
447.354697
 20
306.996081
 30
0.0
 11
0.5172967686990733
 21
-0.4819691094696372
 31
0.0
210
0.0
220
0.0
230
1.0
 40
0.033998
 41
0.568705047412263
 42
1.58561088783953
  0
ELLIPSE
  5
180
330
1F
100
AcDbEntity
  8
1
100
AcDbEllipse
 10
457.197383
 20
307.339437
 30
0.0
 11
0.4817434593045345
 21
0.5170545786969432
 31
0.0
210
0.0
220
0.0
230
0.9999999999999998
 40
0.01483
 41
1.536779664536898
 42
2.553685504951789
  0
ELLIPSE
  5
181
330
1F
100
AcDbEntity
  8
1
100
AcDbEllipse
 10
288.016515
 20
288.907991
 30
0.0
 11
509.5225902879255
 21
19.01624209404557
 31
0.0
210
0.0
220
0.0
230
1.0
 40
0.008472
 41
5.030284847327001
 42
5.047757982618293
  0
ELLIPSE
  5
182
330
1F
100
AcDbEntity
  8
1
100
AcDbEllipse
 10
457.5976559999999
 20
277.984144
 30
0.0
 11
0.0538770024347206
 21
0.4991611425064401
 31
0.0
210
0.0
220
0.0
230
1.0
 40
0.139171
 41
1.583568179242663
 42
3.154364506043602
  0
ELLIPSE
  5
183
330
1F
100
AcDbEntity
  8
1
100
AcDbEllipse
 10
458.083111
 20
288.965221
 30
0.0
 11
0.0001758288822688
 21
-0.5000776676664213
 31
0.0
210
0.0
220
0.0
230
0.9999999999999998
 40
0.140519
 41
3.139090475969521
 42
4.709886802763091
  0
ELLIPSE
  5
184
330
1F
100
AcDbEntity
  8
1
100
AcDbEllipse
 10
329.300904
 20
288.907994
 30
0.0
 11
81.19086554554654
 21
-15.07270844426791
 31
0.0
210
0.0
220
0.0
230
0.9999999999999998
 40
0.15238
 41
4.284492136946738
 42
4.439916523711214
  0
ELLIPSE
  5
185
330
1F
100
AcDbEntity
  8
1
100
AcDbEllipse
 10
447.9598479999999
 20
297.456355
 30
0.0
 11
-2.35764226722897
 21
0.8315785830427818
 31
0.0
210
0.0
220
0.0
230
1.0
 40
0.9986239999999998
 41
2.668199979721745
 42
2.77674766607689
  0
ELLIPSE
  5
186
330
1F
100
AcDbEntity
  8
1
100
AcDbEllipse
 10
458.3154249999999
 20
295.649408
 30
0.0
 11
0.0003016037636996
 21
0.500308475853071
 31
0.0
210
0.0
220
0.0
230
0.9999999999999996
 40
0.140101
 41
3.195395734393321
 42
4.76619206119915
  0
ELLIPSE
  5
187
330
1F
100
AcDbEntity
  8
1
100
AcDbEllipse
 10
459.258813
 20
288.907994
 30
0.0
 11
2.110656003695865
 21
19.49779465161573
 31
0.0
210
0.0
220
0.0
230
1.0
 40
0.138944
 41
1.917525697829221
 42
3.156632395651086
  0
ELLIPSE
  5
188
330
1F
100
AcDbEntity
  8
1
100
AcDbEllipse
 10
458.5848419999999
 20
288.907994
 30
0.0
 11
0.0
 21
19.49999999934854
 31
0.0
210
0.0
220
0.0
230
1.0
 40
0.140541
 41
1.458640619183791
 42
1.902485955779409
  0
ELLIPSE
  5
189
330
1F
100
AcDbEntity
  8
1
100
AcDbEllipse
 10
448.0411269999999
 20
297.686792
 30
0.0
 11
-2.357642267228969
 21
0.8315785830427813
 31
0.0
210
0.0
220
0.0
230
0.9999999999999998
 40
0.998624
 41
0.0520252572636146
 42
1.945227431237598
  0
ELLIPSE
  5
18A
330
1F
100
AcDbEntity
  8
1
100
AcDbEllipse
 10
448.0411269999999
 20
297.686792
 30
0.0
 11
-2.357642267228969
 21
0.8315785830427813
 31
0.0
210
0.0
220
0.0
230
0.9999999999999998
 40
0.998624
 41
1.945227431237596
 42
2.645311779347061
  0
SPLINE
  5
190
330
1F
100
AcDbEntity
  8
1
100
AcDbSpline
210
0.0
220
0.0
230
1.0
 70
    28
 71
     4
 72
    10
 73
     5
 74
     0
 42
0.000000001
 43
0.0000000001
 40
0.0
 40
0.0
 40
0.0
 40
0.0
 40
0.0
 40
1.0
 40
1.0
 40
1.0
 40
1.0
 40
1.0
 10
302.9048419452957
 20
269.4410730662732
 30
0.0
 41
1.001498006703475
 10
302.9048419452957
 20
269.5588669030452
 30
0.0
 41
1.001498006703475
 10
302.9048419452957
 20
269.6766607398171
 30
0.0
 41
1.001498006703475
 10
302.9048419452957
 20
269.794454576589
 30
0.0
 41
1.001498006703475
 10
302.9048419452957
 20
269.912248413361
 30
0.0
 41
1.001498006703475
  0
SPLINE
  5
191
330
1F
100
AcDbEntity
  8
1
100
AcDbSpline
210
0.0
220
0.0
230
1.0
 70
     8
 71
     3
 72
    10
 73
     6
 74
     0
 42
0.000000001
 43
0.0000000001
 40
0.0
 40
0.0
 40
0.0
 40
0.0
 40
0.5
 40
0.5
 40
1.0
 40
1.0
 40
1.0
 40
1.0
 10
305.4811476234224
 20
269.4211381779202
 30
0.0
 10
306.5775317250871
 20
269.5024277003351
 30
0.0
 10
307.673694944261
 20
269.5884224740799
 30
0.0
 10
309.8661609574572
 20
269.7686328697047
 30
0.0
 10
310.962464527781
 20
269.862845862104
 30
0.0
 10
312.0591140834706
 20
269.9604896916273
 30
0.0
  0
SPLINE
  5
192
330
1F
100
AcDbEntity
  8
1
100
AcDbSpline
210
0.0
220
0.0
230
1.0
 70
     8
 71
     3
 72
     8
 73
     4
 74
     0
 42
0.000000001
 43
0.0000000001
 40
0.0
 40
0.0
 40
0.0
 40
0.0
 40
1.0
 40
1.0
 40
1.0
 40
1.0
 10
305.4811476234221
 20
269.4211381779215
 30
0.0
 10
304.6226892244977
 20
269.4263339011264
 30
0.0
 10
303.7639289283559
 20
269.4330149558925
 30
0.0
 10
302.9048419452957
 20
269.441073066273
 30
0.0
  0
SPLINE
  5
193
330
1F
100
AcDbEntity
  8
1
100
AcDbSpline
210
0.0
220
0.0
230
1.0
 70
     8
 71
     3
 72
    10
 73
     6
 74
     0
 42
0.000000001
 43
0.0000000001
 40
0.0
 40
0.0
 40
0.0
 40
0.0
 40
0.5
 40
0.5
 40
1.0
 40
1.0
 40
1.0
 40
1.0
 10
300.5703883067367
 20
269.4677773910087
 30
0.0
 10
300.9490290541784
 20
269.4578029788193
 30
0.0
 10
301.3326674109074
 20
269.451346601437
 30
0.0
 10
302.1105690056086
 20
269.4429877022616
 30
0.0
 10
302.504832254289
 20
269.4410730662732
 30
0.0
 10
302.9048419452957
 20
269.4410730662732
 30
0.0
  0
SPLINE
  5
194
330
1F
100
AcDbEntity
  8
1
100
AcDbSpline
210
0.0
220
0.0
230
1.0
 70
     8
 71
     3
 72
     8
 73
     4
 74
     0
 42
0.000000001
 43
0.0000000001
 40
0.0
 40
0.0
 40
0.0
 40
0.0
 40
1.0
 40
1.0
 40
1.0
 40
1.0
 10
447.3358543421869
 20
293.5114738045824
 30
0.0
 10
447.1258231709763
 20
293.5071156015664
 30
0.0
 10
446.9154840578577
 20
293.5069949299395
 30
0.0
 10
446.7048419477301
 20
293.5111745394155
 30
0.0
  0
SPLINE
  5
195
330
1F
100
AcDbEntity
  8
1
100
AcDbSpline
210
0.0
220
0.0
230
1.0
 70
    12
 71
     3
 72
     8
 73
     4
 74
     0
 42
0.000000001
 43
0.0000000001
 40
0.0
 40
0.0
 40
0.0
 40
0.0
 40
1.0
 40
1.0
 40
1.0
 40
1.0
 10
302.9048419452957
 20
269.912248413361
 30
0.0
 41
1.001498006703475
 10
306.005774546745
 20
269.9183445994194
 30
0.0
 41
1.001444321532054
 10
309.0542303475398
 20
269.9328503861493
 30
0.0
 41
1.001418429270592
 10
312.0591140834707
 20
269.9604896916273
 30
0.0
 41
1.001410661781614
  0
SPLINE
  5
196
330
1F
100
AcDbEntity
  8
1
100
AcDbSpline
210
0.0
220
0.0
230
1.0
 70
     8
 71
     3
 72
     8
 73
     4
 74
     0
 42
0.000000001
 43
0.0000000001
 40
0.0
 40
0.0
 40
0.0
 40
0.0
 40
1.0
 40
1.0
 40
1.0
 40
1.0
 10
446.704841947975
 20
291.8591589718041
 30
0.0
 10
446.934245200922
 20
291.8574412276758
 30
0.0
 10
447.1632347810581
 20
291.8631387420253
 30
0.0
 10
447.3918026946353
 20
291.8762296573711
 30
0.0
  0
SPLINE
  5
197
330
1F
100
AcDbEntity
  8
1
100
AcDbSpline
210
0.0
220
0.0
230
1.0
 70
    24
 71
     3
 72
    14
 73
    10
 74
     0
 42
0.000000001
 43
0.0000000001
 40
0.0
 40
0.0
 40
0.0
 40
0.0
 40
0.210698190977211
 40
0.4213963819544221
 40
0.6320945729316331
 40
0.6320945729316331
 40
0.8427927639088441
 40
0.8427927639088441
 40
1.0
 40
1.0
 40
1.0
 40
1.0
 10
446.7048419477301
 20
293.5111745394155
 30
0.0
 10
446.7048419477726
 20
293.3296778585294
 30
0.0
 10
446.7048419478503
 20
292.9917697575379
 30
0.0
 10
446.7048419479433
 20
292.5647940509213
 30
0.0
 10
446.7048419479892
 20
292.3360030736177
 30
0.0
 10
446.7048419480266
 20
292.1361875060365
 30
0.0
 10
446.7048419480414
 20
292.0507675266999
 30
0.0
 10
446.7048419480597
 20
291.9275922698442
 30
0.0
 10
446.7048419480651
 20
291.8832417591594
 30
0.0
 10
446.7048419480682
 20
291.8472795394146
 30
0.0
  0
SPLINE
  5
198
330
1F
100
AcDbEntity
  8
1
100
AcDbSpline
210
0.0
220
0.0
230
1.0
 70
     8
 71
     3
 72
    28
 73
    24
 74
     0
 42
0.000000001
 43
0.0000000001
 40
0.0
 40
0.0
 40
0.0
 40
0.0
 40
0.1250000000000031
 40
0.1250000000000031
 40
0.2500000000000062
 40
0.2500000000000062
 40
0.3750000000000093
 40
0.3750000000000093
 40
0.5000000000000125
 40
0.5000000000000125
 40
0.6250000000000156
 40
0.6250000000000156
 40
0.7500000000000187
 40
0.7500000000000187
 40
0.8125000000000202
 40
0.8125000000000202
 40
0.8437500000000168
 40
0.8437500000000168
 40
0.8750000000000135
 40
0.8750000000000135
 40
0.9375000000000067
 40
0.9375000000000067
 40
1.0
 40
1.0
 40
1.0
 40
1.0
 10
440.6067868422688
 20
296.2285732018047
 30
0.0
 10
440.8427935964403
 20
296.0513042969136
 30
0.0
 10
441.0802271891947
 20
295.8827647510461
 30
0.0
 10
441.5581299789047
 20
295.5619678779799
 30
0.0
 10
441.7985969395543
 20
295.4097130367679
 30
0.0
 10
442.2828782796054
 20
295.1207004444403
 30
0.0
 10
442.5266883363061
 20
294.9839431282831
 30
0.0
 10
443.0181936639366
 20
294.7254787430301
 30
0.0
 10
443.2658805998888
 20
294.6037694558703
 30
0.0
 10
443.7660844464021
 20
294.375315872024
 30
0.0
 10
444.0185853485415
 20
294.2685646655326
 30
0.0
 10
444.5301173000326
 20
294.0704304754192
 30
0.0
 10
444.7891181893422
 20
293.9790310579243
 30
0.0
 10
445.1848566712786
 20
293.8543722508558
 30
0.0
 10
445.3179895174561
 20
293.8149004745436
 30
0.0
 10
445.5199877787054
 20
293.7590317635429
 30
0.0
 10
445.5877193524956
 20
293.7409634809993
 30
0.0
 10
445.7237220831197
 20
293.7060704291986
 30
0.0
 10
445.7920309143892
 20
293.6892348336412
 30
0.0
 10
445.9980105795173
 20
293.6406331344837
 30
0.0
 10
446.1367281862764
 20
293.610766309469
 30
0.0
 10
446.4177986343364
 20
293.5566108657287
 30
0.0
 10
446.5601688474412
 20
293.532326254112
 30
0.0
 10
446.7048419452956
 20
293.5111745394638
 30
0.0
  0
SPLINE
  5
199
330
1F
100
AcDbEntity
  8
1
100
AcDbSpline
210
0.0
220
0.0
230
1.0
 70
     8
 71
     3
 72
   125
 73
   121
 74
     0
 42
0.000000001
 43
0.0000000001
 40
0.0
 40
0.0
 40
0.0
 40
0.0
 40
0.0312500000000001
 40
0.0312500000000001
 40
0.0625000000000002
 40
0.0625000000000002
 40
0.0781250000000008
 40
0.0781250000000008
 40
0.0937500000000014
 40
0.0937500000000014
 40
0.109375000000002
 40
0.109375000000002
 40
0.1250000000000026
 40
0.1406250000000032
 40
0.1406250000000032
 40
0.1484375000000033
 40
0.1484375000000033
 40
0.1562500000000035
 40
0.1718750000000033
 40
0.1718750000000033
 40
0.1796875000000032
 40
0.1796875000000032
 40
0.1875000000000031
 40
0.1875000000000031
 40
0.2187500000000019
 40
0.2187500000000019
 40
0.2265625000000018
 40
0.2265625000000018
 40
0.2343750000000017
 40
0.2500000000000021
 40
0.2500000000000021
 40
0.2656250000000024
 40
0.2656250000000024
 40
0.2812500000000027
 40
0.2968750000000031
 40
0.2968750000000031
 40
0.3125000000000034
 40
0.3125000000000034
 40
0.3281250000000037
 40
0.3281250000000037
 40
0.3437500000000039
 40
0.3437500000000039
 40
0.3750000000000039
 40
0.4062500000000038
 40
0.4062500000000038
 40
0.4218750000000038
 40
0.4218750000000038
 40
0.4375000000000039
 40
0.4531250000000039
 40
0.4531250000000039
 40
0.4687500000000039
 40
0.4687500000000039
 40
0.5000000000000055
 40
0.5000000000000055
 40
0.5312500000000071
 40
0.5312500000000071
 40
0.5390625000000071
 40
0.5390625000000071
 40
0.5468750000000071
 40
0.5625000000000058
 40
0.5625000000000058
 40
0.5703125000000047
 40
0.5703125000000047
 40
0.5781250000000036
 40
0.5781250000000036
 40
0.5937500000000022
 40
0.6093750000000004
 40
0.6093750000000004
 40
0.6171874999999993
 40
0.6171874999999993
 40
0.6249999999999984
 40
0.640624999999996
 40
0.640624999999996
 40
0.6484374999999955
 40
0.6484374999999955
 40
0.6562499999999951
 40
0.6562499999999951
 40
0.6874999999999922
 40
0.6874999999999922
 40
0.6953124999999919
 40
0.6953124999999919
 40
0.7031249999999915
 40
0.718749999999991
 40
0.718749999999991
 40
0.7265624999999906
 40
0.7265624999999906
 40
0.7343749999999904
 40
0.7343749999999904
 40
0.7499999999999917
 40
0.7656249999999929
 40
0.7656249999999929
 40
0.7734374999999934
 40
0.7734374999999934
 40
0.7812499999999936
 40
0.7968749999999944
 40
0.7968749999999944
 40
0.8124999999999952
 40
0.8124999999999952
 40
0.8437499999999959
 40
0.8437499999999959
 40
0.8593749999999964
 40
0.8593749999999964
 40
0.8749999999999969
 40
0.8749999999999969
 40
0.8906249999999975
 40
0.8906249999999975
 40
0.9062499999999978
 40
0.9062499999999978
 40
0.9218749999999982
 40
0.9218749999999982
 40
0.9374999999999985
 40
0.9531249999999989
 40
0.9531249999999989
 40
0.9687499999999992
 40
0.9687499999999992
 40
0.9843749999999998
 40
0.9843749999999998
 40
0.9921875
 40
0.9921875
 40
1.0
 40
1.0
 40
1.0
 40
1.0
 10
456.6356474227598
 20
282.5579935136942
 30
0.0
 10
456.6176423115039
 20
282.4648023721018
 30
0.0
 10
456.6001606710988
 20
282.3679037639039
 30
0.0
 10
456.5662740727992
 20
282.166746045838
 30
0.0
 10
456.5500538651293
 20
282.0635863723797
 30
0.0
 10
456.526802964382
 20
281.9049942945289
 30
0.0
 10
456.5192273486148
 20
281.8514358344159
 30
0.0
 10
456.5045503413029
 20
281.7438190936375
 30
0.0
 10
456.4974348915051
 20
281.6896687090606
 30
0.0
 10
456.4836489844696
 20
281.5806856214304
 30
0.0
 10
456.4769707445983
 20
281.525785874753
 30
0.0
 10
456.4640992533125
 20
281.415598427206
 30
0.0
 10
456.451749217953
 20
281.3053471466164
 30
0.0
 10
456.4404324445662
 20
281.1949693812135
 30
0.0
 10
456.432333978159
 20
281.1121384245508
 30
0.0
 10
456.429697100043
 20
281.0844948805711
 30
0.0
 10
456.4245696992527
 20
281.0293619303054
 30
0.0
 10
456.4170956403431
 20
280.9468714228478
 30
0.0
 10
456.4102677942781
 20
280.8650029391685
 30
0.0
 10
456.4038696773302
 20
280.7835480989686
 30
0.0
 10
456.4018086533994
 20
280.7564654840941
 30
0.0
 10
456.3978305215142
 20
280.7024387832525
 30
0.0
 10
456.3959122403791
 20
280.6754762323303
 30
0.0
 10
456.3867143401796
 20
280.5414792257074
 30
0.0
 10
456.3805860418221
 20
280.4365762119237
 30
0.0
 10
456.3744568098134
 20
280.3083037704916
 30
0.0
 10
456.3733077438435
 20
280.2827868225501
 30
0.0
 10
456.3711716665711
 20
280.2322255076424
 30
0.0
 10
456.3682072633953
 20
280.1570229934849
 30
0.0
 10
456.3659569478161
 20
280.0837253809438
 30
0.0
 10
456.3635902816842
 20
279.9876858361379
 30
0.0
 10
456.3627233138318
 20
279.9404298474883
 30
0.0
 10
456.3616351560376
 20
279.8481589507671
 30
0.0
 10
456.3611891469654
 20
279.7580858477177
 30
0.0
 10
456.3620181603698
 20
279.6723765878601
 30
0.0
 10
456.3634885692127
 20
279.5888625435149
 30
0.0
 10
456.3645420777739
 20
279.5483669775578
 30
0.0
 10
456.3672745489948
 20
279.4700486160507
 30
0.0
 10
456.3689540174763
 20
279.4321964921168
 30
0.0
 10
456.3729397674285
 20
279.3591078068776
 30
0.0
 10
456.3752527432746
 20
279.3238050691821
 30
0.0
 10
456.3830600396598
 20
279.2228499983025
 30
0.0
 10
456.3957980063523
 20
279.1007997831403
 30
0.0
 10
456.4130611857
 20
279.0031547346965
 30
0.0
 10
456.427745929223
 20
278.9392907922971
 30
0.0
 10
456.4329434643314
 20
278.9195401207427
 30
0.0
 10
456.4438212960721
 20
278.883616546586
 30
0.0
 10
456.4552001692503
 20
278.8511686192256
 30
0.0
 10
456.4675771935176
 20
278.8256447112656
 30
0.0
 10
456.4804579312172
 20
278.8036149853166
 30
0.0
 10
456.4871338882078
 20
278.7943785742877
 30
0.0
 10
456.5078200487329
 20
278.7720702822459
 30
0.0
 10
456.522509866389
 20
278.7643930899244
 30
0.0
 10
456.5533841575226
 20
278.7636163930975
 30
0.0
 10
456.5695083833637
 20
278.7704676855576
 30
0.0
 10
456.5905243122978
 20
278.7881002794115
 30
0.0
 10
456.5947745640709
 20
278.7920864248313
 30
0.0
 10
456.603336344035
 20
278.8009492282968
 30
0.0
 10
456.6162740824189
 20
278.8155799307818
 30
0.0
 10
456.6294954465136
 20
278.834197918665
 30
0.0
 10
456.6429061443865
 20
278.8554776109652
 30
0.0
 10
456.6474079586395
 20
278.8630148246384
 30
0.0
 10
456.6564751110922
 20
278.8789822884553
 30
0.0
 10
456.66104468564
 20
278.8874209911255
 30
0.0
 10
456.6748096299865
 20
278.9140100673854
 30
0.0
 10
456.6933166423287
 20
278.952853720687
 30
0.0
 10
456.7121296181315
 20
278.9984464418422
 30
0.0
 10
456.7263550423791
 20
279.0351929731502
 30
0.0
 10
456.7311205747848
 20
279.0478799006481
 30
0.0
 10
456.7406627819543
 20
279.0740357134012
 30
0.0
 10
456.7549944473287
 20
279.1144446217272
 30
0.0
 10
456.7693808786511
 20
279.1583600232342
 30
0.0
 10
456.7838038821903
 20
279.2046170299388
 30
0.0
 10
456.7886176504702
 20
279.2204266239312
 30
0.0
 10
456.7982574603543
 20
279.252831634679
 30
0.0
 10
456.8030878939564
 20
279.269442808305
 30
0.0
 10
456.8271965055084
 20
279.3542163893943
 30
0.0
 10
456.8463663311943
 20
279.427569475755
 30
0.0
 10
456.8701817400977
 20
279.5262043169885
 30
0.0
 10
456.8749413309922
 20
279.5462970662424
 30
0.0
 10
456.8844137068516
 20
279.5870473338614
 30
0.0
 10
456.8985599589665
 20
279.6490513008265
 30
0.0
 10
456.9125202899908
 20
279.7136766684246
 30
0.0
 10
456.9263564556457
 20
279.780052709802
 30
0.0
 10
456.9309477993088
 20
279.8024700801938
 30
0.0
 10
456.940088814336
 20
279.8478923809484
 30
0.0
 10
456.9446410525497
 20
279.8709111855657
 30
0.0
 10
456.9581854629381
 20
279.9406000839517
 30
0.0
 10
456.9759753822408
 20
280.0353487609407
 30
0.0
 10
456.9932293809058
 20
280.1337395945001
 30
0.0
 10
457.0059671815771
 20
280.2089102726
 30
0.0
 10
457.0101796133662
 20
280.2341998964001
 30
0.0
 10
457.0185049898663
 20
280.2850481527142
 30
0.0
 10
457.0308558787523
 20
280.3617950131257
 30
0.0
 10
457.0427975109998
 20
280.4399574463856
 30
0.0
 10
457.0583553154373
 20
280.5454343456051
 30
0.0
 10
457.0659654159197
 20
280.5989037129564
 30
0.0
 10
457.088104936298
 20
280.7602220625716
 30
0.0
 10
457.1019665662866
 20
280.8690798621286
 30
0.0
 10
457.1214075611996
 20
281.0343413034694
 30
0.0
 10
457.1276331052291
 20
281.0895168095111
 30
0.0
 10
457.1395564418296
 20
281.199836915788
 30
0.0
 10
457.1452581742342
 20
281.255014971434
 30
0.0
 10
457.1561409433882
 20
281.3654071447997
 30
0.0
 10
457.1613281282238
 20
281.4206985785872
 30
0.0
 10
457.1711079146756
 20
281.5305438565211
 30
0.0
 10
457.1757089793371
 20
281.5851761314479
 30
0.0
 10
457.1843363536181
 20
281.6938628707363
 30
0.0
 10
457.1883648693513
 20
281.74794919536
 30
0.0
 10
457.1958330315054
 20
281.855405596756
 30
0.0
 10
457.2026807327596
 20
281.9616816598282
 30
0.0
 10
457.2083015914699
 20
282.0656238300289
 30
0.0
 10
457.2133077588995
 20
282.1683966377836
 30
0.0
 10
457.2155031431242
 20
282.2192207609621
 30
0.0
 10
457.2192474649991
 20
282.3189622968283
 30
0.0
 10
457.2208014089375
 20
282.3679734416485
 30
0.0
 10
457.2226569235486
 20
282.4402059222001
 30
0.0
 10
457.2231961285901
 20
282.4640691972257
 30
0.0
 10
457.2241154636198
 20
282.5113660260702
 30
0.0
 10
457.2244958109307
 20
282.5348203729262
 30
0.0
 10
457.2247953779409
 20
282.5579935136895
 30
0.0
  0
SPLINE
  5
19A
330
1F
100
AcDbEntity
  8
1
100
AcDbSpline
210
0.0
220
0.0
230
1.0
 70
     8
 71
     3
 72
    59
 73
    55
 74
     0
 42
0.000000001
 43
0.0000000001
 40
0.0
 40
0.0
 40
0.0
 40
0.0
 40
0.0625000000000046
 40
0.0625000000000046
 40
0.1250000000000093
 40
0.1250000000000093
 40
0.1562500000000107
 40
0.1562500000000107
 40
0.1875000000000122
 40
0.2187500000000137
 40
0.2187500000000137
 40
0.2343750000000134
 40
0.2343750000000134
 40
0.250000000000013
 40
0.250000000000013
 40
0.3125000000000135
 40
0.375000000000014
 40
0.375000000000014
 40
0.4062500000000139
 40
0.4062500000000139
 40
0.4375000000000135
 40
0.4687500000000134
 40
0.4687500000000134
 40
0.5000000000000132
 40
0.5000000000000132
 40
0.5312500000000129
 40
0.5312500000000129
 40
0.5625000000000127
 40
0.5625000000000127
 40
0.6250000000000121
 40
0.6250000000000121
 40
0.6562500000000115
 40
0.6562500000000115
 40
0.6875000000000108
 40
0.7187500000000102
 40
0.7187500000000102
 40
0.7500000000000095
 40
0.7500000000000095
 40
0.7812500000000088
 40
0.7812500000000088
 40
0.8125000000000081
 40
0.8125000000000081
 40
0.8750000000000071
 40
0.8750000000000071
 40
0.8906250000000063
 40
0.8906250000000063
 40
0.9062500000000055
 40
0.9375000000000031
 40
0.9375000000000031
 40
0.9531250000000028
 40
0.9531250000000028
 40
0.9687500000000019
 40
0.9687500000000019
 40
1.0
 40
1.0
 40
1.0
 40
1.0
 10
457.2247953779415
 20
282.5579935136897
 30
0.0
 10
457.2167769812422
 20
282.6457256334532
 30
0.0
 10
457.2080328758833
 20
282.7296818885003
 30
0.0
 10
457.1890894417657
 20
282.8900228661082
 30
0.0
 10
457.1789757849334
 20
282.9656765432979
 30
0.0
 10
457.1628635418973
 20
283.072334456894
 30
0.0
 10
457.1573255858525
 20
283.1068026934511
 30
0.0
 10
457.1459912206013
 20
283.1730905926432
 30
0.0
 10
457.1343936711007
 20
283.2367767129261
 30
0.0
 10
457.1222719906856
 20
283.2952813956337
 30
0.0
 10
457.1129827257308
 20
283.3372024793359
 30
0.0
 10
457.1098525521939
 20
283.3508513591308
 30
0.0
 10
457.1035569099192
 20
283.3773646850141
 30
0.0
 10
457.1003876781363
 20
283.3902465702877
 30
0.0
 10
457.084435639605
 20
283.4528026515489
 30
0.0
 10
457.058237138478
 20
283.5410728091998
 30
0.0
 10
457.0307084608394
 20
283.6060592015025
 30
0.0
 10
457.0095473807247
 20
283.6457917918472
 30
0.0
 10
457.0023979905815
 20
283.6575359786831
 30
0.0
 10
456.9880661809473
 20
283.6777392079239
 30
0.0
 10
456.9736690152423
 20
283.6947275058255
 30
0.0
 10
456.9591411959216
 20
283.7052888199946
 30
0.0
 10
456.944547307441
 20
283.712600125247
 30
0.0
 10
456.9372365716238
 20
283.7146170289552
 30
0.0
 10
456.9226417787406
 20
283.7153708597126
 30
0.0
 10
456.9153493875381
 20
283.7141122737914
 30
0.0
 10
456.9007746525262
 20
283.7083120373112
 30
0.0
 10
456.8934814678875
 20
283.7037604612221
 30
0.0
 10
456.8716967603599
 20
283.6851762988438
 30
0.0
 10
456.8573457207174
 20
283.6662956273088
 30
0.0
 10
456.8360783332703
 20
283.6281991535855
 30
0.0
 10
456.8290266854208
 20
283.613846906787
 30
0.0
 10
456.8151076806967
 20
283.5820519307059
 30
0.0
 10
456.8013496950672
 20
283.5471313563342
 30
0.0
 10
456.7879137868874
 20
283.5059588232891
 30
0.0
 10
456.7746408824013
 20
283.4616221682048
 30
0.0
 10
456.7681158435581
 20
283.4379701412362
 30
0.0
 10
456.7553032858064
 20
283.3877763336872
 30
0.0
 10
456.7490130747061
 20
283.361225579453
 30
0.0
 10
456.7366657710281
 20
283.3052040574902
 30
0.0
 10
456.7305983471836
 20
283.2756765231132
 30
0.0
 10
456.71285169379
 20
283.1831822370828
 30
0.0
 10
456.7016158453139
 20
283.1163065228645
 30
0.0
 10
456.6883184568363
 20
283.0261664290516
 30
0.0
 10
456.6856953799834
 20
283.007800829868
 30
0.0
 10
456.680542745306
 20
282.9705400687735
 30
0.0
 10
456.6729474859928
 20
282.9138108353009
 30
0.0
 10
456.6657510723371
 20
282.8545813211092
 30
0.0
 10
456.6588205892998
 20
282.7936847430139
 30
0.0
 10
456.6565547832663
 20
282.7731078314831
 30
0.0
 10
456.6521122927654
 20
282.7313953238048
 30
0.0
 10
456.649933850007
 20
282.710241393546
 30
0.0
 10
456.643552616529
 20
282.6461338982095
 30
0.0
 10
456.639500025733
 20
282.6025053382591
 30
0.0
 10
456.6356474227598
 20
282.5579935136942
 30
0.0
  0
SPLINE
  5
19B
330
1F
100
AcDbEntity
  8
1
100
AcDbSpline
210
0.0
220
0.0
230
1.0
 70
     8
 71
     3
 72
    25
 73
    21
 74
     0
 42
0.000000001
 43
0.0000000001
 40
0.0
 40
0.0
 40
0.0
 40
0.0
 40
0.062500000000001
 40
0.062500000000001
 40
0.0937500000000015
 40
0.0937500000000015
 40
0.1250000000000019
 40
0.2500000000000011
 40
0.2500000000000011
 40
0.5000000000000008
 40
0.5000000000000008
 40
0.6250000000000007
 40
0.6250000000000007
 40
0.6875000000000006
 40
0.6875000000000006
 40
0.7500000000000005
 40
0.7500000000000005
 40
0.8750000000000001
 40
0.8750000000000001
 40
1.0
 40
1.0
 40
1.0
 40
1.0
 10
293.5203844534358
 20
283.9060982963176
 30
0.0
 10
293.3709481967383
 20
283.9447242013059
 30
0.0
 10
293.2205886347539
 20
283.9814644312314
 30
0.0
 10
292.993609139587
 20
284.0336122154748
 30
0.0
 10
292.9176528456665
 20
284.0505124779457
 30
0.0
 10
292.7657605789645
 20
284.0831958195642
 30
0.0
 10
292.3858497299281
 20
284.1621687633535
 30
0.0
 10
292.0050345109715
 20
284.2273817936975
 30
0.0
 10
291.0893165786187
 20
284.3569238913054
 30
0.0
 10
290.4764933473468
 20
284.4073675032998
 30
0.0
 10
289.5536071796802
 20
284.4267633442738
 30
0.0
 10
289.2453691515541
 20
284.4238435065685
 30
0.0
 10
288.7820702734104
 20
284.4049618194633
 30
0.0
 10
288.6274802414861
 20
284.3962497283471
 30
0.0
 10
288.3179799780083
 20
284.3739009575903
 30
0.0
 10
288.1630396162122
 20
284.3602612132664
 30
0.0
 10
287.6979119156902
 20
284.3118202032395
 30
0.0
 10
287.3895845466458
 20
284.2697333715849
 30
0.0
 10
286.776473245279
 20
284.1659164899955
 30
0.0
 10
286.4716889925627
 20
284.1041880434527
 30
0.0
 10
286.1687165745466
 20
284.032487756435
 30
0.0
  0
SPLINE
  5
19C
330
1F
100
AcDbEntity
  8
1
100
AcDbSpline
210
0.0
220
0.0
230
1.0
 70
     8
 71
     3
 72
     8
 73
     4
 74
     0
 42
0.000000001
 43
0.0000000001
 40
0.0
 40
0.0
 40
0.0
 40
0.0
 40
1.0
 40
1.0
 40
1.0
 40
1.0
 10
439.7517279052838
 20
296.8613170097619
 30
0.0
 10
440.0427767817611
 20
296.6489381240131
 30
0.0
 10
440.3280018042991
 20
296.4379736427129
 30
0.0
 10
440.6067868422603
 20
296.2285732018109
 30
0.0
  0
SPLINE
  5
19D
330
1F
100
AcDbEntity
  8
1
100
AcDbSpline
210
0.0
220
0.0
230
1.0
 70
     8
 71
     3
 72
     8
 73
     4
 74
     0
 42
0.000000001
 43
0.0000000001
 40
0.0
 40
0.0
 40
0.0
 40
0.0
 40
1.0
 40
1.0
 40
1.0
 40
1.0
 10
305.2133303945699
 20
280.945392710601
 30
0.0
 10
305.2135892978343
 20
280.981832521263
 30
0.0
 10
305.2138482882384
 20
281.0182726008216
 30
0.0
 10
305.214107365872
 20
281.0547129495533
 30
0.0
  0
SPLINE
  5
19E
330
1F
100
AcDbEntity
  8
1
100
AcDbSpline
210
0.0
220
0.0
230
1.0
 70
     8
 71
     3
 72
     8
 73
     4
 74
     0
 42
0.000000001
 43
0.0000000001
 40
0.0
 40
0.0
 40
0.0
 40
0.0
 40
1.0
 40
1.0
 40
1.0
 40
1.0
 10
439.7517279052843
 20
296.8613170097624
 30
0.0
 10
439.3357586027751
 20
297.1146798969887
 30
0.0
 10
438.9141703874906
 20
297.3704237755649
 30
0.0
 10
438.4875281178235
 20
297.6283092890531
 30
0.0
  0
SPLINE
  5
19F
330
1F
100
AcDbEntity
  8
1
100
AcDbSpline
210
0.0
220
0.0
230
1.0
 70
     8
 71
     3
 72
    14
 73
    10
 74
     0
 42
0.000000001
 43
0.0000000001
 40
0.0
 40
0.0
 40
0.0
 40
0.0
 40
0.25
 40
0.25
 40
0.5
 40
0.5
 40
0.75
 40
0.75
 40
1.0
 40
1.0
 40
1.0
 40
1.0
 10
286.16871657453
 20
270.4172158096234
 30
0.0
 10
286.5571616512048
 20
270.3599600566012
 30
0.0
 10
286.9489026685181
 20
270.3083920808859
 30
0.0
 10
287.7381050419907
 20
270.2142875907951
 30
0.0
 10
288.1355688970989
 20
270.1717563085286
 30
0.0
 10
288.9353372716631
 20
270.0938198020207
 30
0.0
 10
289.3376437910088
 20
270.058417887558
 30
0.0
 10
290.1461362282239
 20
269.9931323808331
 30
0.0
 10
290.5523234596292
 20
269.9632506016202
 30
0.0
 10
290.9599035478458
 20
269.9354350990251
 30
0.0
  0
SPLINE
  5
1A0
330
1F
100
AcDbEntity
  8
1
100
AcDbSpline
210
0.0
220
0.0
230
1.0
 70
     8
 71
     3
 72
    41
 73
    37
 74
     0
 42
0.000000001
 43
0.0000000001
 40
0.0
 40
0.0
 40
0.0
 40
0.0
 40
0.1249999999999974
 40
0.1249999999999974
 40
0.2499999999999949
 40
0.2499999999999949
 40
0.3749999999999923
 40
0.3749999999999923
 40
0.4999999999999898
 40
0.4999999999999898
 40
0.5624999999999885
 40
0.5624999999999885
 40
0.6249999999999872
 40
0.6249999999999872
 40
0.687499999999986
 40
0.687499999999986
 40
0.7499999999999848
 40
0.7499999999999848
 40
0.7812499999999958
 40
0.7812499999999958
 40
0.8125000000000069
 40
0.8125000000000069
 40
0.8437500000000181
 40
0.8437500000000181
 40
0.8750000000000291
 40
0.8750000000000291
 40
0.9062500000000405
 40
0.9062500000000405
 40
0.9218750000000335
 40
0.9218750000000335
 40
0.9375000000000268
 40
0.9531250000000198
 40
0.9531250000000198
 40
0.9687500000000131
 40
0.9687500000000131
 40
1.0
 40
1.0
 40
1.0
 40
1.0
 10
438.4875281178262
 20
297.6283092890518
 30
0.0
 10
438.4414809230894
 20
297.6561426879054
 30
0.0
 10
438.3963286546556
 20
297.6850877330966
 30
0.0
 10
438.3079357696566
 20
297.7453734064594
 30
0.0
 10
438.2646930552551
 20
297.7767114517495
 30
0.0
 10
438.1803691506299
 20
297.8421103121093
 30
0.0
 10
438.1392826537656
 20
297.8761646484417
 30
0.0
 10
438.0597517066968
 20
297.9476038546977
 30
0.0
 10
438.0212160075564
 20
297.9850673386442
 30
0.0
 10
437.9666775198553
 20
298.0440441471996
 30
0.0
 10
437.9490299087312
 20
298.0641835612725
 30
0.0
 10
437.9150381845261
 20
298.1056347061963
 30
0.0
 10
437.8986775762611
 20
298.1269707251863
 30
0.0
 10
437.8679138585114
 20
298.1707456463666
 30
0.0
 10
437.8534705748201
 20
298.1932174029911
 30
0.0
 10
437.8271345572572
 20
298.2397363675722
 30
0.0
 10
437.8152190750344
 20
298.263769939144
 30
0.0
 10
437.8002538314269
 20
298.3016010846922
 30
0.0
 10
437.7957773271502
 20
298.3144774096285
 30
0.0
 10
437.7882253781079
 20
298.3405974441256
 30
0.0
 10
437.7851314176451
 20
298.353876456372
 30
0.0
 10
437.7807477344691
 20
298.3810096925022
 30
0.0
 10
437.7794895718966
 20
298.3947137880757
 30
0.0
 10
437.779384503449
 20
298.4221753820291
 30
0.0
 10
437.7805232387291
 20
298.4359712912789
 30
0.0
 10
437.7860189948999
 20
298.4637332182728
 30
0.0
 10
437.7902932976828
 20
298.4771901797706
 30
0.0
 10
437.7992786080874
 20
298.4965816151364
 30
0.0
 10
437.8027353247898
 20
298.5029621096326
 30
0.0
 10
437.8104068762498
 20
298.5151890204284
 30
0.0
 10
437.8188057691838
 20
298.5268654394634
 30
0.0
 10
437.8285795912736
 20
298.5375006350288
 30
0.0
 10
437.8390075859082
 20
298.547640165121
 30
0.0
 10
437.8445615648614
 20
298.5524661791509
 30
0.0
 10
437.8617572388465
 20
298.5659497435381
 30
0.0
 10
437.8740433442858
 20
298.5737443030271
 30
0.0
 10
437.8869723661126
 20
298.5806049499272
 30
0.0
  0
SPLINE
  5
1A1
330
1F
100
AcDbEntity
  8
1
100
AcDbSpline
210
0.0
220
0.0
230
1.0
 70
     8
 71
     3
 72
    20
 73
    16
 74
     0
 42
0.000000001
 43
0.0000000001
 40
0.0
 40
0.0
 40
0.0
 40
0.0
 40
0.1249999999999999
 40
0.1249999999999999
 40
0.2499999999999998
 40
0.2499999999999998
 40
0.5
 40
0.5
 40
0.75
 40
0.75
 40
0.8750000000000067
 40
0.8750000000000067
 40
0.9375000000000031
 40
0.9375000000000031
 40
1.0
 40
1.0
 40
1.0
 40
1.0
 10
440.7148390296311
 20
293.0704514833757
 30
0.0
 10
440.5255676251432
 20
293.1613131048327
 30
0.0
 10
440.3352699877031
 20
293.2540238099726
 30
0.0
 10
439.9528998426143
 20
293.4426432110535
 30
0.0
 10
439.7608265841967
 20
293.538553259743
 30
0.0
 10
439.1822616280152
 20
293.8305089919982
 30
0.0
 10
438.7934401155433
 20
294.0307525746383
 30
0.0
 10
438.0107671208028
 20
294.4403028235542
 30
0.0
 10
437.6169080243492
 20
294.649623209196
 30
0.0
 10
437.0229174035958
 20
294.9693731616546
 30
0.0
 10
436.8243843327086
 20
295.0769226084012
 30
0.0
 10
436.5258344675168
 20
295.2395986074742
 30
0.0
 10
436.4261926941522
 20
295.294049440804
 30
0.0
 10
436.2266666671981
 20
295.4033880123851
 30
0.0
 10
436.1267556749261
 20
295.4582904925722
 30
0.0
 10
436.0267868546435
 20
295.5133720116823
 30
0.0
  0
SPLINE
  5
1A2
330
1F
100
AcDbEntity
  8
1
100
AcDbSpline
210
0.0
220
0.0
230
1.0
 70
     8
 71
     3
 72
    38
 73
    34
 74
     0
 42
0.000000001
 43
0.0000000001
 40
0.0
 40
0.0
 40
0.0
 40
0.0
 40
0.035447305779521
 40
0.035447305779521
 40
0.0698956162873953
 40
0.0698956162873953
 40
0.1043439267952698
 40
0.1043439267952698
 40
0.1732405478110181
 40
0.1732405478110181
 40
0.2421371688267666
 40
0.2421371688267666
 40
0.3110337898425151
 40
0.3110337898425151
 40
0.3799304108582637
 40
0.3799304108582637
 40
0.4488270318740123
 40
0.4488270318740123
 40
0.5177236528897608
 40
0.5177236528897608
 40
0.5866202739055093
 40
0.5866202739055093
 40
0.6555168949212579
 40
0.6555168949212579
 40
0.7244135159370062
 40
0.7244135159370062
 40
0.7933101369527547
 40
0.7933101369527547
 40
0.8622067579685031
 40
0.8622067579685031
 40
0.9311033789842515
 40
0.9311033789842515
 40
1.0
 40
1.0
 40
1.0
 40
1.0
 10
360.2908069181958
 20
272.9436792585222
 30
0.0
 10
359.6413756581218
 20
272.8607744491489
 30
0.0
 10
358.9919351395565
 20
272.7794750389962
 30
0.0
 10
357.7113012948006
 20
272.6223664474933
 30
0.0
 10
357.0801057017475
 20
272.546475368647
 30
0.0
 10
355.8176583811826
 20
272.3976973633287
 30
0.0
 10
355.1864131107369
 20
272.32479365905
 30
0.0
 10
353.2927006663928
 20
272.1102552709572
 30
0.0
 10
352.0302591574772
 20
271.9727764554089
 30
0.0
 10
349.5058678481496
 20
271.70781319319
 30
0.0
 10
348.2439188677334
 20
271.580329918205
 30
0.0
 10
345.7208558239973
 20
271.3347855812389
 30
0.0
 10
344.4597423938664
 20
271.2167264146537
 30
0.0
 10
341.9385881726164
 20
270.989938413465
 30
0.0
 10
340.6785477856447
 20
270.8812122356667
 30
0.0
 10
338.1596561642467
 20
270.6734103864321
 30
0.0
 10
336.9008050707602
 20
270.5743380737693
 30
0.0
 10
334.3842790446097
 20
270.3864856110068
 30
0.0
 10
333.1266039728345
 20
270.2977093513027
 30
0.0
 10
330.6122874209862
 20
270.1313026211279
 30
0.0
 10
329.3556455289484
 20
270.0536763031264
 30
0.0
 10
326.8431315099598
 20
269.9105132738911
 30
0.0
 10
325.587258731718
 20
269.8449806441537
 30
0.0
 10
323.075913961337
 20
269.7269141500927
 30
0.0
 10
321.8204411356337
 20
269.6743839507191
 30
0.0
 10
319.3094446549456
 20
269.5830792840248
 30
0.0
 10
318.0539200575878
 20
269.5443077604475
 30
0.0
 10
315.5423127197173
 20
269.4810249613447
 30
0.0
 10
314.2862290082854
 20
269.4565156882275
 30
0.0
 10
311.7729694449979
 20
269.4219344990853
 30
0.0
 10
310.5157926707818
 20
269.411863534242
 30
0.0
 10
307.9998149947907
 20
269.4059640412443
 30
0.0
 10
306.7410132846899
 20
269.4101354187277
 30
0.0
 10
305.4811476234223
 20
269.4211381779215
 30
0.0
  0
SPLINE
  5
1A3
330
1F
100
AcDbEntity
  8
1
100
AcDbSpline
210
0.0
220
0.0
230
1.0
 70
     8
 71
     3
 72
    30
 73
    26
 74
     0
 42
0.000000001
 43
0.0000000001
 40
0.0
 40
0.0
 40
0.0
 40
0.0
 40
0.1279836190011945
 40
0.1279836190011945
 40
0.255967238002389
 40
0.255967238002389
 40
0.3839508570035836
 40
0.3839508570035836
 40
0.4479426665041806
 40
0.4479426665041806
 40
0.5119344760047776
 40
0.5119344760047776
 40
0.6399180950059716
 40
0.6399180950059716
 40
0.7039099045065688
 40
0.7039099045065688
 40
0.7679017140071661
 40
0.7679017140071661
 40
0.8318935235077631
 40
0.8318935235077631
 40
0.8958853330083606
 40
0.8958853330083606
 40
0.9598771425089578
 40
0.9598771425089578
 40
1.0
 40
1.0
 40
1.0
 40
1.0
 10
312.0591140834706
 20
269.9604896916273
 30
0.0
 10
313.6237453310515
 20
270.1000566151267
 30
0.0
 10
315.1877038053529
 20
270.2541012118292
 30
0.0
 10
318.3161162491912
 20
270.5874107667269
 30
0.0
 10
319.8805762787307
 20
270.7666689355095
 30
0.0
 10
323.011843984411
 20
271.1444447779202
 30
0.0
 10
324.5786591218183
 20
271.3429408816789
 30
0.0
 10
326.9318805357534
 20
271.6492873887178
 30
0.0
 10
327.7167851639958
 20
271.7528243192387
 30
0.0
 10
329.2877559024422
 20
271.9616744386402
 30
0.0
 10
330.0738754069068
 20
272.0669930462322
 30
0.0
 10
332.4337089718753
 20
272.3839323322853
 30
0.0
 10
334.0089017146293
 20
272.5964683679767
 30
0.0
 10
336.3751523973376
 20
272.9113283119364
 30
0.0
 10
337.1644743931631
 20
273.0156372949741
 30
0.0
 10
338.7442773416391
 20
273.2222491265761
 30
0.0
 10
339.5347583456196
 20
273.324549931377
 30
0.0
 10
341.1168441909361
 20
273.5266781669654
 30
0.0
 10
341.9084489612239
 20
273.6265041664855
 30
0.0
 10
343.4926965964802
 20
273.8235238322846
 30
0.0
 10
344.2853392628052
 20
273.9207169411264
 30
0.0
 10
345.8715303724211
 20
274.1126508708879
 30
0.0
 10
346.665078509046
 20
274.2073920999575
 30
0.0
 10
347.9567788078361
 20
274.3599653267648
 30
0.0
 10
348.4547082886814
 20
274.418383734846
 30
0.0
 10
348.9527453023764
 20
274.4765245772248
 30
0.0
  0
SPLINE
  5
1A4
330
1F
100
AcDbEntity
  8
1
100
AcDbSpline
210
0.0
220
0.0
230
1.0
 70
     8
 71
     3
 72
    25
 73
    21
 74
     0
 42
0.000000001
 43
0.0000000001
 40
0.0
 40
0.0
 40
0.0
 40
0.0
 40
0.1250000000000008
 40
0.1250000000000008
 40
0.2500000000000017
 40
0.2500000000000017
 40
0.3750000000000025
 40
0.3750000000000025
 40
0.5000000000000034
 40
0.5000000000000034
 40
0.6250000000000043
 40
0.6250000000000043
 40
0.656250000000004
 40
0.656250000000004
 40
0.6875000000000039
 40
0.7500000000000032
 40
0.7500000000000032
 40
0.8750000000000015
 40
0.8750000000000015
 40
1.0
 40
1.0
 40
1.0
 40
1.0
 10
279.4048419452957
 20
279.9289393871094
 30
0.0
 10
279.6328567814164
 20
280.1775745564818
 30
0.0
 10
279.8680339907809
 20
280.4166104271871
 30
0.0
 10
280.3521268377125
 20
280.876452195602
 30
0.0
 10
280.6010460505295
 20
281.0972526280331
 30
0.0
 10
281.1125017042536
 20
281.5209410909271
 30
0.0
 10
281.3750387440218
 20
281.7238278533956
 30
0.0
 10
281.9140007113071
 20
282.1114721591314
 30
0.0
 10
282.1904239089043
 20
282.2962316182681
 30
0.0
 10
282.757839166325
 20
282.6468578900352
 30
0.0
 10
283.0488268019025
 20
282.8127301877326
 30
0.0
 10
283.4224051567284
 20
283.0073762262783
 30
0.0
 10
283.4976420200363
 20
283.0456806233343
 30
0.0
 10
283.6485348936128
 20
283.1206987144996
 30
0.0
 10
283.8757119878293
 20
283.2309503117343
 30
0.0
 10
284.1054188993018
 20
283.3343239839677
 30
0.0
 10
284.5682751369928
 20
283.5316962762724
 30
0.0
 10
284.8814247286044
 20
283.6508075316063
 30
0.0
 10
285.5174941265963
 20
283.8623495906249
 30
0.0
 10
285.8404096905256
 20
283.9547919121464
 30
0.0
 10
286.1687165745463
 20
284.0324877564356
 30
0.0
  0
SPLINE
  5
1A5
330
1F
100
AcDbEntity
  8
1
100
AcDbSpline
210
0.0
220
0.0
230
1.0
 70
     8
 71
     3
 72
     8
 73
     4
 74
     0
 42
0.000000001
 43
0.0000000001
 40
0.0
 40
0.0
 40
0.0
 40
0.0
 40
1.0
 40
1.0
 40
1.0
 40
1.0
 10
450.9339364338782
 20
302.9624619903517
 30
0.0
 10
450.935216009016
 20
302.9734606313415
 30
0.0
 10
450.9368002011231
 20
302.9843923611531
 30
0.0
 10
450.9386873195909
 20
302.9952573034099
 30
0.0
  0
SPLINE
  5
1A6
330
1F
100
AcDbEntity
  8
1
100
AcDbSpline
210
0.0
220
0.0
230
1.0
 70
     8
 71
     3
 72
    10
 73
     6
 74
     0
 42
0.000000001
 43
0.0000000001
 40
0.0
 40
0.0
 40
0.0
 40
0.0
 40
0.6628244121441741
 40
0.6628244121441741
 40
1.0
 40
1.0
 40
1.0
 40
1.0
 10
452.2620051439353
 20
303.6435120880255
 30
0.0
 10
452.2615015745881
 20
303.6413405863312
 30
0.0
 10
452.2609168423501
 20
303.6391794667943
 30
0.0
 10
452.2599119263524
 20
303.6359359356739
 30
0.0
 10
452.2595538654336
 20
303.6348506001747
 30
0.0
 10
452.2591764480718
 20
303.6337736149432
 30
0.0
  0
SPLINE
  5
1A7
330
1F
100
AcDbEntity
  8
1
100
AcDbSpline
210
0.0
220
0.0
230
1.0
 70
     8
 71
     3
 72
    27
 73
    23
 74
     0
 42
0.000000001
 43
0.0000000001
 40
0.0
 40
0.0
 40
0.0
 40
0.0
 40
0.1249999999998248
 40
0.1249999999998248
 40
0.1874999999997907
 40
0.1874999999997907
 40
0.2499999999997568
 40
0.2499999999997568
 40
0.3749999999997971
 40
0.3749999999997971
 40
0.4374999999998174
 40
0.4374999999998174
 40
0.4999999999998379
 40
0.4999999999998379
 40
0.6249999999998785
 40
0.6249999999998785
 40
0.6874999999998977
 40
0.6874999999998977
 40
0.7499999999999166
 40
0.7499999999999166
 40
0.8749999999999582
 40
1.0
 40
1.0
 40
1.0
 40
1.0
 10
452.3141105695221
 20
300.5608985382946
 30
0.0
 10
452.2848945938052
 20
300.5481770905374
 30
0.0
 10
452.254956646723
 20
300.5378850079897
 30
0.0
 10
452.2089877943785
 20
300.5260348488686
 30
0.0
 10
452.193487027324
 20
300.5226855324403
 30
0.0
 10
452.1621232504266
 20
300.5172127030495
 30
0.0
 10
452.1462141766188
 20
300.5150892999729
 30
0.0
 10
452.0986985514141
 20
300.5106762895449
 30
0.0
 10
452.0670871698436
 20
300.5102796371033
 30
0.0
 10
452.0197677274481
 20
300.513441848352
 30
0.0
 10
452.0040109225266
 20
300.5151250363012
 30
0.0
 10
451.9725307195761
 20
300.5197752966596
 30
0.0
 10
451.9567354680093
 20
300.5227614540587
 30
0.0
 10
451.9101064039602
 20
300.5335450410309
 30
0.0
 10
451.8799537904036
 20
300.5431380367073
 30
0.0
 10
451.8360829916007
 20
300.5610245822234
 30
0.0
 10
451.8216868434215
 20
300.5675724207646
 30
0.0
 10
451.7933554539428
 20
300.5818546058532
 30
0.0
 10
451.7793699566838
 20
300.5896201711256
 30
0.0
 10
451.738485895509
 20
300.6145318175554
 30
0.0
 10
451.6873579748978
 20
300.6516558397388
 30
0.0
 10
451.6427092846321
 20
300.6962499939423
 30
0.0
 10
451.6220558734864
 20
300.7204690079981
 30
0.0
  0
SPLINE
  5
1A8
330
1F
100
AcDbEntity
  8
1
100
AcDbSpline
210
0.0
220
0.0
230
1.0
 70
     8
 71
     3
 72
    16
 73
    12
 74
     0
 42
0.000000001
 43
0.0000000001
 40
0.0
 40
0.0
 40
0.0
 40
0.0
 40
0.35879403207523
 40
0.35879403207523
 40
0.5381910481128164
 40
0.5381910481128164
 40
0.7175880641504027
 40
0.7175880641504027
 40
0.8969850801879889
 40
0.8969850801879889
 40
1.0
 40
1.0
 40
1.0
 40
1.0
 10
451.6220558734864
 20
300.7204690079981
 30
0.0
 10
451.6155890203862
 20
300.7280522979942
 30
0.0
 10
451.6104027964141
 20
300.7365884106217
 30
0.0
 10
451.6047887387999
 20
300.749998041633
 30
0.0
 10
451.6032596240718
 20
300.7545943713814
 30
0.0
 10
451.6008909982896
 20
300.7640411503602
 30
0.0
 10
451.6000687264576
 20
300.7688457957913
 30
0.0
 10
451.5991481223667
 20
300.7783894410166
 30
0.0
 10
451.5990410706023
 20
300.7831620781689
 30
0.0
 10
451.5994203430181
 20
300.7906760260237
 30
0.0
 10
451.5996767216527
 20
300.7934290899394
 30
0.0
 10
451.6000467448738
 20
300.7961630637771
 30
0.0
  0
SPLINE
  5
1A9
330
1F
100
AcDbEntity
  8
1
100
AcDbSpline
210
0.0
220
0.0
230
1.0
 70
     8
 71
     3
 72
    10
 73
     6
 74
     0
 42
0.000000001
 43
0.0000000001
 40
0.0
 40
0.0
 40
0.0
 40
0.0
 40
0.1325035073272737
 40
0.1325035073272737
 40
1.0
 40
1.0
 40
1.0
 40
1.0
 10
452.3421813826748
 20
300.5796115599198
 30
0.0
 10
452.3411025221254
 20
300.578577197307
 30
0.0
 10
452.3399979533249
 20
300.5775660522504
 30
0.0
 10
452.3314806783684
 20
300.5701291714767
 30
0.0
 10
452.3232451881126
 20
300.5648760050856
 30
0.0
 10
452.3141105695221
 20
300.5608985382946
 30
0.0
  0
SPLINE
  5
1AA
330
1F
100
AcDbEntity
  8
1
100
AcDbSpline
210
0.0
220
0.0
230
1.0
 70
     8
 71
     3
 72
    10
 73
     6
 74
     0
 42
0.000000001
 43
0.0000000001
 40
0.0
 40
0.0
 40
0.0
 40
0.0
 40
0.641971690540747
 40
0.641971690540747
 40
1.0
 40
1.0
 40
1.0
 40
1.0
 10
451.6203590390509
 20
300.8925182898884
 30
0.0
 10
451.6223744506469
 20
300.8815514997895
 30
0.0
 10
451.6224766281208
 20
300.8705681200348
 30
0.0
 10
451.6198305354642
 20
300.8536786821829
 30
0.0
 10
451.6183497998169
 20
300.8478150936842
 30
0.0
 10
451.6163395700076
 20
300.8421331372618
 30
0.0
  0
SPLINE
  5
1AB
330
1F
100
AcDbEntity
  8
1
100
AcDbSpline
210
0.0
220
0.0
230
1.0
 70
     8
 71
     3
 72
     8
 73
     4
 74
     0
 42
0.000000001
 43
0.0000000001
 40
0.0
 40
0.0
 40
0.0
 40
0.0
 40
1.0
 40
1.0
 40
1.0
 40
1.0
 10
452.3777971830677
 20
300.6888702038655
 30
0.0
 10
452.3810277864192
 20
300.6980868662527
 30
0.0
 10
452.385570587158
 20
300.7067107115195
 30
0.0
 10
452.3914971855297
 20
300.7147131583796
 30
0.0
  0
SPLINE
  5
1AC
330
1F
100
AcDbEntity
  8
1
100
AcDbSpline
210
0.0
220
0.0
230
1.0
 70
     8
 71
     3
 72
    20
 73
    16
 74
     0
 42
0.000000001
 43
0.0000000001
 40
0.0
 40
0.0
 40
0.0
 40
0.0
 40
0.1250000000000017
 40
0.1250000000000017
 40
0.2500000000000033
 40
0.2500000000000033
 40
0.3750000000000049
 40
0.3750000000000049
 40
0.5000000000000067
 40
0.5000000000000067
 40
0.6250000000000085
 40
0.6250000000000085
 40
0.75000000000001
 40
0.75000000000001
 40
1.0
 40
1.0
 40
1.0
 40
1.0
 10
451.0384840897128
 20
301.3614251817776
 30
0.0
 10
451.0344685166706
 20
301.3588513056899
 30
0.0
 10
451.0302954718024
 20
301.3565874674747
 30
0.0
 10
451.0216366305249
 20
301.3526758727069
 30
0.0
 10
451.0171431616349
 20
301.3510309979848
 30
0.0
 10
451.0080533974275
 20
301.3484390674192
 30
0.0
 10
451.0034316892716
 20
301.3474787513212
 30
0.0
 10
450.9940326959211
 20
301.3462406491608
 30
0.0
 10
450.9892172754309
 20
301.3459653915721
 30
0.0
 10
450.9796580899958
 20
301.3461431882052
 30
0.0
 10
450.9749098438564
 20
301.3465887283377
 30
0.0
 10
450.9654774792278
 20
301.3482000482022
 30
0.0
 10
450.9607626329173
 20
301.3493763438255
 30
0.0
 10
450.9469402721752
 20
301.3539966897273
 30
0.0
 10
450.938325743564
 20
301.3584242296017
 30
0.0
 10
450.9303521047441
 20
301.3642838149599
 30
0.0
  0
SPLINE
  5
1AD
330
1F
100
AcDbEntity
  8
1
100
AcDbSpline
210
0.0
220
0.0
230
1.0
 70
     8
 71
     3
 72
    10
 73
     6
 74
     0
 42
0.000000001
 43
0.0000000001
 40
0.0
 40
0.0
 40
0.0
 40
0.0
 40
0.5
 40
0.5
 40
1.0
 40
1.0
 40
1.0
 40
1.0
 10
451.0384840897128
 20
301.3614251817776
 30
0.0
 10
451.047662788449
 20
301.3673084848442
 30
0.0
 10
451.0575881694546
 20
301.3715611403156
 30
0.0
 10
451.0788017412921
 20
301.3766823294474
 30
0.0
 10
451.0895958856186
 20
301.3774437903395
 30
0.0
 10
451.1005940745158
 20
301.3762981902296
 30
0.0
  0
SPLINE
  5
1AE
330
1F
100
AcDbEntity
  8
1
100
AcDbSpline
210
0.0
220
0.0
230
1.0
 70
     8
 71
     3
 72
    24
 73
    20
 74
     0
 42
0.000000001
 43
0.0000000001
 40
0.0
 40
0.0
 40
0.0
 40
0.0
 40
0.1250000000001263
 40
0.1250000000001263
 40
0.2500000000002526
 40
0.2500000000002526
 40
0.3125000000002675
 40
0.3125000000002675
 40
0.3750000000002822
 40
0.3750000000002822
 40
0.5000000000002258
 40
0.5000000000002258
 40
0.6250000000001695
 40
0.6250000000001695
 40
0.7500000000001129
 40
0.7500000000001129
 40
0.8750000000000564
 40
0.8750000000000564
 40
1.0
 40
1.0
 40
1.0
 40
1.0
 10
451.1005940745158
 20
301.3762981902296
 30
0.0
 10
451.131742447879
 20
301.3730536942238
 30
0.0
 10
451.1623741572785
 20
301.3674006454859
 30
0.0
 10
451.2226518987914
 20
301.3512775669923
 30
0.0
 10
451.2522983560488
 20
301.3408098931422
 30
0.0
 10
451.2960055765716
 20
301.3211955409718
 30
0.0
 10
451.3103534472235
 20
301.3140375293955
 30
0.0
 10
451.3382619791364
 20
301.2986606111076
 30
0.0
 10
451.3518767672279
 20
301.2904179376552
 30
0.0
 10
451.3917052267201
 20
301.2640261424376
 30
0.0
 10
451.4169473812684
 20
301.2441900940384
 30
0.0
 10
451.4644324951047
 20
301.1999798408135
 30
0.0
 10
451.4859847596347
 20
301.1762602378142
 30
0.0
 10
451.5249600243794
 20
301.1257728835731
 30
0.0
 10
451.5423877792694
 20
301.0989942747885
 30
0.0
 10
451.5730178404687
 20
301.0423633058239
 30
0.0
 10
451.585777399781
 20
301.013339350913
 30
0.0
 10
451.6065952128417
 20
300.9539473550469
 30
0.0
 10
451.6146509511428
 20
300.9235786460343
 30
0.0
 10
451.6203590390509
 20
300.8925182898884
 30
0.0
  0
SPLINE
  5
1AF
330
1F
100
AcDbEntity
  8
1
100
AcDbSpline
210
0.0
220
0.0
230
1.0
 70
     8
 71
     3
 72
    18
 73
    14
 74
     0
 42
0.000000001
 43
0.0000000001
 40
0.0
 40
0.0
 40
0.0
 40
0.0
 40
0.2499999999999888
 40
0.2499999999999888
 40
0.374999999999986
 40
0.374999999999986
 40
0.4999999999999833
 40
0.4999999999999833
 40
0.6249999999999805
 40
0.6249999999999805
 40
0.7499999999999778
 40
0.7499999999999778
 40
1.0
 40
1.0
 40
1.0
 40
1.0
 10
453.2176032979315
 20
300.8369010093562
 30
0.0
 10
453.2078747522565
 20
300.8351177065755
 30
0.0
 10
453.1979837137021
 20
300.8349238629041
 30
0.0
 10
453.1837299412798
 20
300.8368144628695
 30
0.0
 10
453.1790446063134
 20
300.8378049262845
 30
0.0
 10
453.169807523925
 20
300.8405114669928
 30
0.0
 10
453.1653034779553
 20
300.8422194105488
 30
0.0
 10
453.1567185619485
 20
300.8462296038931
 30
0.0
 10
453.1526046537754
 20
300.8485412438679
 30
0.0
 10
453.144729331328
 20
300.8537681413486
 30
0.0
 10
453.1409418671857
 20
300.8567104765227
 30
0.0
 10
453.130416825397
 20
300.8662140576137
 30
0.0
 10
453.1244362590596
 20
300.8734508475738
 30
0.0
 10
453.1195007076491
 20
300.8815949008954
 30
0.0
  0
SPLINE
  5
1B0
330
1F
100
AcDbEntity
  8
1
100
AcDbSpline
210
0.0
220
0.0
230
1.0
 70
     8
 71
     3
 72
    10
 73
     6
 74
     0
 42
0.000000001
 43
0.0000000001
 40
0.0
 40
0.0
 40
0.0
 40
0.0
 40
0.5
 40
0.5
 40
1.0
 40
1.0
 40
1.0
 40
1.0
 10
453.0704061161451
 20
300.922108897807
 30
0.0
 10
453.080760897067
 20
300.9183310244034
 30
0.0
 10
453.0901563700398
 20
300.9128863253565
 30
0.0
 10
453.1068774513791
 20
300.89901740188
 30
0.0
 10
453.1138654183815
 20
300.890893577469
 30
0.0
 10
453.1195007076491
 20
300.8815949008954
 30
0.0
  0
SPLINE
  5
1B1
330
1F
100
AcDbEntity
  8
1
100
AcDbSpline
210
0.0
220
0.0
230
1.0
 70
     8
 71
     3
 72
    24
 73
    20
 74
     0
 42
0.000000001
 43
0.0000000001
 40
0.0
 40
0.0
 40
0.0
 40
0.0
 40
0.1249999999999323
 40
0.1249999999999323
 40
0.2499999999998644
 40
0.2499999999998644
 40
0.3124999999998758
 40
0.3124999999998758
 40
0.374999999999887
 40
0.374999999999887
 40
0.4999999999999096
 40
0.4999999999999096
 40
0.6249999999999324
 40
0.6249999999999324
 40
0.7499999999999548
 40
0.7499999999999548
 40
0.8749999999999772
 40
0.8749999999999772
 40
1.0
 40
1.0
 40
1.0
 40
1.0
 10
452.3914971855297
 20
300.7147131583796
 30
0.0
 10
452.4103128442372
 20
300.74011918381
 30
0.0
 10
452.4309189472567
 20
300.763864699062
 30
0.0
 10
452.4757250003431
 20
300.808074037235
 30
0.0
 10
452.4999231775161
 20
300.8285394179062
 30
0.0
 10
452.5391502019527
 20
300.8566032406893
 30
0.0
 10
452.5526378802113
 20
300.8654531401028
 30
0.0
 10
452.5801068330191
 20
300.8819346839344
 30
0.0
 10
452.5941361321981
 20
300.8896012644433
 30
0.0
 10
452.6371092624713
 20
300.9108797545007
 30
0.0
 10
452.6669812020972
 20
300.9227973965992
 30
0.0
 10
452.7290155831151
 20
300.9417380918096
 30
0.0
 10
452.7602669423121
 20
300.9484918641312
 30
0.0
 10
452.8232183499256
 20
300.9568762232208
 30
0.0
 10
452.8549306450244
 20
300.9585054545083
 30
0.0
 10
452.9187830923223
 20
300.9565459771978
 30
0.0
 10
452.9499932339758
 20
300.9529906326962
 30
0.0
 10
453.0111420588821
 20
300.9411230722132
 30
0.0
 10
453.0410800046271
 20
300.932808335832
 30
0.0
 10
453.0704061161452
 20
300.922108897807
 30
0.0
  0
SPLINE
  5
1B2
330
1F
100
AcDbEntity
  8
1
100
AcDbSpline
210
0.0
220
0.0
230
1.0
 70
     8
 71
     3
 72
    27
 73
    23
 74
     0
 42
0.000000001
 43
0.0000000001
 40
0.0
 40
0.0
 40
0.0
 40
0.0
 40
0.1358119458610232
 40
0.1358119458610232
 40
0.2037179187915374
 40
0.2037179187915374
 40
0.2716238917220516
 40
0.2716238917220516
 40
0.4074358375831483
 40
0.4074358375831483
 40
0.4753418105136964
 40
0.4753418105136964
 40
0.5432477834442448
 40
0.5432477834442448
 40
0.6790597293053138
 40
0.6790597293053138
 40
0.7469657022358485
 40
0.7469657022358485
 40
0.814871675166383
 40
0.814871675166383
 40
0.9506836210274471
 40
1.0
 40
1.0
 40
1.0
 40
1.0
 10
450.9303521047441
 20
301.3642838149599
 30
0.0
 10
450.9048499186546
 20
301.3830245981322
 30
0.0
 10
450.8810724200508
 20
301.4036261354732
 30
0.0
 10
450.8479572356232
 20
301.437270823808
 30
0.0
 10
450.8373459538291
 20
301.4489449009334
 30
0.0
 10
450.8169954354775
 20
301.4732292269268
 30
0.0
 10
450.8072332571166
 20
301.4858793484127
 30
0.0
 10
450.7797334769573
 20
301.5246425062155
 30
0.0
 10
450.763619614438
 20
301.5517222224279
 30
0.0
 10
450.7427257892861
 20
301.5941671672333
 30
0.0
 10
450.7363098802413
 20
301.6086211399144
 30
0.0
 10
450.7245979159421
 20
301.6381527349204
 30
0.0
 10
450.7192823969332
 20
301.6533020840132
 30
0.0
 10
450.7052815709574
 20
301.6990249897245
 30
0.0
 10
450.6984791333049
 20
301.7299229825175
 30
0.0
 10
450.6919578338093
 20
301.7768752916264
 30
0.0
 10
450.6904007549008
 20
301.7926274368384
 30
0.0
 10
450.6885359077978
 20
301.8243371425646
 30
0.0
 10
450.6882298829473
 20
301.840353870383
 30
0.0
 10
450.6892340911188
 20
301.8883005003865
 30
0.0
 10
450.6935856774887
 20
301.9312360930936
 30
0.0
 10
450.7024180824278
 20
301.9733407030713
 30
0.0
 10
450.7050923261011
 20
301.9844972680622
 30
0.0
  0
SPLINE
  5
1B3
330
1F
100
AcDbEntity
  8
1
100
AcDbSpline
210
0.0
220
0.0
230
1.0
 70
     8
 71
     3
 72
    21
 73
    17
 74
     0
 42
0.000000001
 43
0.0000000001
 40
0.0
 40
0.0
 40
0.0
 40
0.0
 40
0.1243620819279937
 40
0.1243620819279937
 40
0.2119258737351924
 40
0.2119258737351924
 40
0.2994896655423915
 40
0.2994896655423915
 40
0.4746172491567892
 40
0.4746172491567892
 40
0.5621810409639911
 40
0.5621810409639911
 40
0.6497448327711929
 40
0.6497448327711929
 40
0.8248724163855964
 40
1.0
 40
1.0
 40
1.0
 40
1.0
 10
453.6374627411817
 20
301.1480731791793
 30
0.0
 10
453.6270775990447
 20
301.1281001415686
 30
0.0
 10
453.6156166495641
 20
301.1087984072255
 30
0.0
 10
453.5942732761046
 20
301.0770373283021
 30
0.0
 10
453.584924779366
 20
301.064244833744
 30
0.0
 10
453.5651465050897
 20
301.0393345134225
 30
0.0
 10
453.5546643138317
 20
301.0271640446569
 30
0.0
 10
453.5220357534348
 20
300.9922247830864
 30
0.0
 10
453.4986957753718
 20
300.9709490726648
 30
0.0
 10
453.4613768880568
 20
300.9419700330187
 30
0.0
 10
453.4485505900633
 20
300.9328018084328
 30
0.0
 10
453.422114852245
 20
300.9154611203424
 30
0.0
 10
453.408453663327
 20
300.9072609451601
 30
0.0
 10
453.3666263123795
 20
300.8844001888527
 30
0.0
 10
453.3092143139413
 20
300.8588148132402
 30
0.0
 10
453.2486743330784
 20
300.8425965228715
 30
0.0
 10
453.2176032979315
 20
300.8369010093562
 30
0.0
  0
SPLINE
  5
1B4
330
1F
100
AcDbEntity
  8
1
100
AcDbSpline
210
0.0
220
0.0
230
1.0
 70
     8
 71
     3
 72
    18
 73
    14
 74
     0
 42
0.000000001
 43
0.0000000001
 40
0.0
 40
0.0
 40
0.0
 40
0.0
 40
0.2127774583459144
 40
0.2127774583459144
 40
0.4255549166918289
 40
0.4255549166918289
 40
0.531943645864772
 40
0.531943645864772
 40
0.6383323750377149
 40
0.6383323750377149
 40
0.8511098333836008
 40
0.8511098333836008
 40
1.0
 40
1.0
 40
1.0
 40
1.0
 10
451.0277411568276
 20
302.8233533407314
 30
0.0
 10
451.040226837125
 20
302.7951357950014
 30
0.0
 10
451.0503919693459
 20
302.766132038736
 30
0.0
 10
451.0661121686554
 20
302.7065026834677
 30
0.0
 10
451.0716694537643
 20
302.6758779369108
 30
0.0
 10
451.0762854087767
 20
302.6285837130725
 30
0.0
 10
451.0771855510772
 20
302.6126900466211
 30
0.0
 10
451.077694078402
 20
302.5810277848013
 30
0.0
 10
451.077308603451
 20
302.5652010881833
 30
0.0
 10
451.0742341979528
 20
302.5177303967824
 30
0.0
 10
451.0696291610073
 20
302.4860451691856
 30
0.0
 10
451.057263587795
 20
302.4323753050312
 30
0.0
 10
451.050973986136
 20
302.4107863812138
 30
0.0
 10
451.0435324611242
 20
302.3896829473575
 30
0.0
  0
SPLINE
  5
1B5
330
1F
100
AcDbEntity
  8
1
100
AcDbSpline
210
0.0
220
0.0
230
1.0
 70
     8
 71
     3
 72
    10
 73
     6
 74
     0
 42
0.000000001
 43
0.0000000001
 40
0.0
 40
0.0
 40
0.0
 40
0.0
 40
0.5
 40
0.5
 40
1.0
 40
1.0
 40
1.0
 40
1.0
 10
450.9844858276198
 20
302.8687955711279
 30
0.0
 10
450.9940488240391
 20
302.8639483294743
 30
0.0
 10
451.0025757466059
 20
302.85763696191
 30
0.0
 10
451.017383841395
 20
302.8421384377368
 30
0.0
 10
451.0233324355218
 20
302.8333170184879
 30
0.0
 10
451.0277411568276
 20
302.8233533407314
 30
0.0
  0
SPLINE
  5
1B6
330
1F
100
AcDbEntity
  8
1
100
AcDbSpline
210
0.0
220
0.0
230
1.0
 70
     8
 71
     3
 72
    20
 73
    16
 74
     0
 42
0.000000001
 43
0.0000000001
 40
0.0
 40
0.0
 40
0.0
 40
0.0
 40
0.125
 40
0.125
 40
0.25
 40
0.25
 40
0.375
 40
0.375
 40
0.5
 40
0.5
 40
0.625
 40
0.625
 40
0.75
 40
0.75
 40
1.0
 40
1.0
 40
1.0
 40
1.0
 10
450.9844858276198
 20
302.8687955711279
 30
0.0
 10
450.9803020717596
 20
302.8709162114362
 30
0.0
 10
450.9763079431997
 20
302.8733282783035
 30
0.0
 10
450.9686965548998
 20
302.8787312897247
 30
0.0
 10
450.9650775797431
 20
302.8817305824849
 30
0.0
 10
450.958389962455
 20
302.8881704023744
 30
0.0
 10
450.9552974598448
 20
302.8916258343406
 30
0.0
 10
450.9496237595818
 20
302.8990148821804
 30
0.0
 10
450.9470259846148
 20
302.9029823214432
 30
0.0
 10
450.9424919695645
 20
302.9112259062457
 30
0.0
 10
450.9405474415122
 20
302.9155014535579
 30
0.0
 10
450.9373100044953
 20
302.9243621563937
 30
0.0
 10
450.9360111403768
 20
302.9289784493371
 30
0.0
 10
450.933211699869
 20
302.9431078749363
 30
0.0
 10
450.9328003293795
 20
302.9526965571703
 30
0.0
 10
450.9339364338782
 20
302.9624619903517
 30
0.0
  0
SPLINE
  5
1B7
330
1F
100
AcDbEntity
  8
1
100
AcDbSpline
210
0.0
220
0.0
230
1.0
 70
     8
 71
     3
 72
    14
 73
    10
 74
     0
 42
0.000000001
 43
0.0000000001
 40
0.0
 40
0.0
 40
0.0
 40
0.0
 40
0.0909779694425397
 40
0.0909779694425397
 40
0.3939853129616929
 40
0.3939853129616929
 40
0.6969926564808465
 40
0.6969926564808465
 40
1.0
 40
1.0
 40
1.0
 40
1.0
 10
453.5957209593036
 20
301.9394243951688
 30
0.0
 10
453.5988940696035
 20
301.9484230210422
 30
0.0
 10
453.602275116442
 20
301.9573205017851
 30
0.0
 10
453.6178017758676
 20
301.9954217623038
 30
0.0
 10
453.6320169241652
 20
302.0236340584968
 30
0.0
 10
453.6650585805236
 20
302.0777916166399
 30
0.0
 10
453.6834002385923
 20
302.1029511111686
 30
0.0
 10
453.723483030544
 20
302.1497715664108
 30
0.0
 10
453.7452259192558
 20
302.1714306163783
 30
0.0
 10
453.7686913449359
 20
302.1913589168002
 30
0.0
  0
SPLINE
  5
1B8
330
1F
100
AcDbEntity
  8
1
100
AcDbSpline
210
0.0
220
0.0
230
1.0
 70
     8
 71
     3
 72
    10
 73
     6
 74
     0
 42
0.000000001
 43
0.0000000001
 40
0.0
 40
0.0
 40
0.0
 40
0.0
 40
0.5
 40
0.5
 40
1.0
 40
1.0
 40
1.0
 40
1.0
 10
453.7686913449359
 20
302.1913589168002
 30
0.0
 10
453.7769771520715
 20
302.198395740086
 30
0.0
 10
453.7862083017244
 20
302.2037631911762
 30
0.0
 10
453.8062002307526
 20
302.2112136892623
 30
0.0
 10
453.8165354317441
 20
302.2131540109793
 30
0.0
 10
453.8272073934185
 20
302.2133352179378
 30
0.0
  0
SPLINE
  5
1B9
330
1F
100
AcDbEntity
  8
1
100
AcDbSpline
210
0.0
220
0.0
230
1.0
 70
     8
 71
     3
 72
    16
 73
    12
 74
     0
 42
0.000000001
 43
0.0000000001
 40
0.0
 40
0.0
 40
0.0
 40
0.0
 40
0.063118467101916
 40
0.063118467101916
 40
0.2504947736817184
 40
0.2504947736817184
 40
0.4378710802615207
 40
0.4378710802615207
 40
0.625247386841323
 40
0.625247386841323
 40
1.0
 40
1.0
 40
1.0
 40
1.0
 10
453.8935601261761
 20
302.2427968349403
 30
0.0
 10
453.8924737359971
 20
302.241629075109
 30
0.0
 10
453.8913560731704
 20
302.2404885284767
 30
0.0
 10
453.8867961203116
 20
302.2360704021743
 30
0.0
 10
453.8831378829989
 20
302.2330419062752
 30
0.0
 10
453.8755234365013
 20
302.2276506956453
 30
0.0
 10
453.8715426799158
 20
302.2252637637923
 30
0.0
 10
453.8632401585176
 20
302.2210983318061
 30
0.0
 10
453.8588824115881
 20
302.2193108491542
 30
0.0
 10
453.8456409020686
 20
302.2150114157672
 30
0.0
 10
453.8365540272474
 20
302.213493921196
 30
0.0
 10
453.8272073934186
 20
302.2133352179378
 30
0.0
  0
SPLINE
  5
1C0
330
1F
100
AcDbEntity
  8
1
100
AcDbSpline
210
0.0
220
0.0
230
1.0
 70
    12
 71
     2
 72
     6
 73
     3
 74
     0
 42
0.000000001
 43
0.0000000001
 40
0.0
 40
0.0
 40
0.0
 40
1.0
 40
1.0
 40
1.0
 10
445.6952640786409
 20
308.3483254785816
 30
0.0
 41
0.5000064396648448
 10
445.8074462366325
 20
308.3481724413755
 30
0.0
 41
0.4999935603351552
 10
445.9196277447849
 20
308.3480190122615
 30
0.0
 41
0.5000064396648448
  0
SPLINE
  5
1C1
330
1F
100
AcDbEntity
  8
1
100
AcDbSpline
210
0.0
220
0.0
230
1.0
 70
     8
 71
     3
 72
    36
 73
    32
 74
     0
 42
0.000000001
 43
0.0000000001
 40
0.0
 40
0.0
 40
0.0
 40
0.0
 40
0.1249999999998649
 40
0.1249999999998649
 40
0.1874999999997931
 40
0.1874999999997931
 40
0.2187499999997572
 40
0.2187499999997572
 40
0.2499999999997214
 40
0.2499999999997214
 40
0.3749999999996275
 40
0.3749999999996275
 40
0.4062499999996226
 40
0.4062499999996226
 40
0.4374999999996174
 40
0.4374999999996174
 40
0.4999999999996522
 40
0.4999999999996522
 40
0.624999999999722
 40
0.624999999999722
 40
0.6562499999997115
 40
0.6562499999997115
 40
0.6874999999997012
 40
0.7499999999996805
 40
0.81249999999966
 40
0.81249999999966
 40
0.8437499999996827
 40
0.8437499999996827
 40
0.8749999999997053
 40
0.8749999999997053
 40
1.0
 40
1.0
 40
1.0
 40
1.0
 10
458.606553292615
 20
308.0608973287313
 30
0.0
 10
458.6047220960321
 20
308.1120154832642
 30
0.0
 10
458.5977612719321
 20
308.1620744495193
 30
0.0
 10
458.5800655543894
 20
308.2356649613568
 30
0.0
 10
458.5729480997577
 20
308.2599434517748
 30
0.0
 10
458.5604138379035
 20
308.2959775228084
 30
0.0
 10
458.5559129026971
 20
308.3079551335313
 30
0.0
 10
458.546342706956
 20
308.3316235849626
 30
0.0
 10
458.5412834239738
 20
308.3432949179352
 30
0.0
 10
458.5146463691093
 20
308.4008551116897
 30
0.0
 10
458.4890860641432
 20
308.4443779587414
 30
0.0
 10
458.4518946422371
 20
308.4956678273513
 30
0.0
 10
458.4441918658026
 20
308.5057686669537
 30
0.0
 10
458.4282492103413
 20
308.5256512547458
 30
0.0
 10
458.4199892651055
 20
308.5354540010512
 30
0.0
 10
458.3946430561663
 20
308.5640912237341
 30
0.0
 10
458.3769394723581
 20
308.5822310492272
 30
0.0
 10
458.3214791553898
 20
308.6338767410349
 30
0.0
 10
458.2813959964199
 20
308.6646361403393
 30
0.0
 10
458.2272807176986
 20
308.6983498051729
 30
0.0
 10
458.2162347265678
 20
308.7048632639542
 30
0.0
 10
458.1939691825585
 20
308.7172709478884
 30
0.0
 10
458.1602353051243
 20
308.7350031161769
 30
0.0
 10
458.1023645234126
 20
308.7602389633483
 30
0.0
 10
458.0543251900307
 20
308.7758607765216
 30
0.0
 10
458.0176279282769
 20
308.7858272291873
 30
0.0
 10
458.0052840084795
 20
308.7888571901046
 30
0.0
 10
457.9803681433066
 20
308.7943195580612
 30
0.0
 10
457.9677778577421
 20
308.7967536626524
 30
0.0
 10
457.9048293019799
 20
308.8072994027704
 30
0.0
 10
457.8540716955833
 20
308.8106914177268
 30
0.0
 10
457.8029048644205
 20
308.8089064925445
 30
0.0
  0
SPLINE
  5
1C2
330
1F
100
AcDbEntity
  8
1
100
AcDbSpline
210
0.0
220
0.0
230
1.0
 70
     8
 71
     3
 72
    36
 73
    32
 74
     0
 42
0.000000001
 43
0.0000000001
 40
0.0
 40
0.0
 40
0.0
 40
0.0
 40
0.1249999999997894
 40
0.1249999999997894
 40
0.1874999999996506
 40
0.1874999999996506
 40
0.2187499999995813
 40
0.2187499999995813
 40
0.2499999999995119
 40
0.2499999999995119
 40
0.374999999999424
 40
0.374999999999424
 40
0.4062499999994146
 40
0.4062499999994146
 40
0.4374999999994053
 40
0.4374999999994053
 40
0.4999999999994318
 40
0.4999999999994318
 40
0.6249999999995318
 40
0.6249999999995318
 40
0.6562499999995585
 40
0.6562499999995585
 40
0.6874999999995853
 40
0.7499999999996693
 40
0.8124999999997532
 40
0.8124999999997532
 40
0.8437499999997911
 40
0.8437499999997911
 40
0.8749999999998289
 40
0.8749999999998289
 40
1.0
 40
1.0
 40
1.0
 40
1.0
 10
446.6647256653423
 20
308.4203575813455
 30
0.0
 10
446.6135542444815
 20
308.4185724960543
 30
0.0
 10
446.563447578748
 20
308.411662362622
 30
0.0
 10
446.4897933905079
 20
308.3940491573796
 30
0.0
 10
446.4654949973956
 20
308.3869602949813
 30
0.0
 10
446.4294330887733
 20
308.3744705802426
 30
0.0
 10
446.4174465139014
 20
308.3699848107205
 30
0.0
 10
446.3937609327195
 20
308.3604453073847
 30
0.0
 10
446.3820814464589
 20
308.3554015235882
 30
0.0
 10
446.3244824987389
 20
308.3288427126687
 30
0.0
 10
446.2809350293075
 20
308.3033473745371
 30
0.0
 10
446.2296222502034
 20
308.2662400854402
 30
0.0
 10
446.2195172255393
 20
308.2585542831422
 30
0.0
 10
446.1996270738836
 20
308.2426458756331
 30
0.0
 10
446.1898209435775
 20
308.234403243841
 30
0.0
 10
446.1611748853322
 20
308.2091089159427
 30
0.0
 10
446.143030886782
 20
308.1914399609642
 30
0.0
 10
446.0913776812557
 20
308.1360836513554
 30
0.0
 10
446.0606198974458
 20
308.0960699905947
 30
0.0
 10
446.0269167976118
 20
308.0420417909923
 30
0.0
 10
446.0204058903791
 20
308.0310132564438
 30
0.0
 10
446.0080041238596
 20
308.0087822766728
 30
0.0
 10
445.9902820650306
 20
307.9750998455182
 30
0.0
 10
445.9650691228157
 20
307.9173128431655
 30
0.0
 10
445.9494720388356
 20
307.8693384554999
 30
0.0
 10
445.9395265873862
 20
307.8326891068841
 30
0.0
 10
445.9365040366836
 20
307.820361025196
 30
0.0
 10
445.9310573272521
 20
307.7954765643747
 30
0.0
 10
445.9286314849898
 20
307.7829018661622
 30
0.0
 10
445.9181287973687
 20
307.7200298407839
 30
0.0
 10
445.9147769814602
 20
307.6693295288729
 30
0.0
 10
445.9166080137983
 20
307.6182159592606
 30
0.0
  0
SPLINE
  5
1C3
330
1F
100
AcDbEntity
  8
1
100
AcDbSpline
210
0.0
220
0.0
230
1.0
 70
     8
 71
     3
 72
    36
 73
    32
 74
     0
 42
0.000000001
 43
0.0000000001
 40
0.0
 40
0.0
 40
0.0
 40
0.0
 40
0.1250000000000564
 40
0.1250000000000564
 40
0.1875000000000836
 40
0.1875000000000836
 40
0.2187500000000972
 40
0.2187500000000972
 40
0.2500000000001107
 40
0.2500000000001107
 40
0.3750000000001038
 40
0.3750000000001038
 40
0.4062500000000825
 40
0.4062500000000825
 40
0.4375000000000611
 40
0.4375000000000611
 40
0.4999999999999716
 40
0.4999999999999716
 40
0.6249999999997914
 40
0.6249999999997914
 40
0.6562499999997758
 40
0.6562499999997758
 40
0.6874999999997601
 40
0.7499999999997288
 40
0.8124999999996976
 40
0.8124999999996976
 40
0.8437499999997147
 40
0.8437499999997147
 40
0.8749999999997317
 40
0.8749999999997317
 40
1.0
 40
1.0
 40
1.0
 40
1.0
 10
446.3151936959266
 20
296.4916309253652
 30
0.0
 10
446.3170248925096
 20
296.4405127708322
 30
0.0
 10
446.3239857166096
 20
296.3904538045771
 30
0.0
 10
446.341681434152
 20
296.3168632927397
 30
0.0
 10
446.348798888784
 20
296.2925848023216
 30
0.0
 10
446.3613331506381
 20
296.256550731288
 30
0.0
 10
446.3658340858446
 20
296.2445731205652
 30
0.0
 10
446.3754042815857
 20
296.2209046691338
 30
0.0
 10
446.3804635645677
 20
296.2092333361612
 30
0.0
 10
446.4071006194325
 20
296.1516731424068
 30
0.0
 10
446.4326609243986
 20
296.1081502953551
 30
0.0
 10
446.4698523463044
 20
296.0568604267452
 30
0.0
 10
446.4775551227391
 20
296.0467595871429
 30
0.0
 10
446.4934977782004
 20
296.0268769993507
 30
0.0
 10
446.5017577234362
 20
296.0170742530453
 30
0.0
 10
446.5271039323754
 20
295.9884370303624
 30
0.0
 10
446.5448075161836
 20
295.9702972048693
 30
0.0
 10
446.6002678331516
 20
295.9186515130617
 30
0.0
 10
446.6403509921216
 20
295.8878921137572
 30
0.0
 10
446.6944662708429
 20
295.8541784489236
 30
0.0
 10
446.7055122619738
 20
295.8476649901423
 30
0.0
 10
446.7277778059831
 20
295.8352573062081
 30
0.0
 10
446.7615116834172
 20
295.8175251379196
 30
0.0
 10
446.819382465129
 20
295.7922892907482
 30
0.0
 10
446.8674217985109
 20
295.7766674775749
 30
0.0
 10
446.9041190602647
 20
295.7667010249092
 30
0.0
 10
446.9164629800623
 20
295.7636710639919
 30
0.0
 10
446.9413788452349
 20
295.7582086960353
 30
0.0
 10
446.9539691307994
 20
295.755774591444
 30
0.0
 10
447.0169176865618
 20
295.7452288513262
 30
0.0
 10
447.0676752929583
 20
295.7418368363697
 30
0.0
 10
447.1188421241211
 20
295.743621761552
 30
0.0
  0
SPLINE
  5
1C4
330
1F
100
AcDbEntity
  8
1
100
AcDbSpline
210
0.0
220
0.0
230
1.0
 70
     8
 71
     3
 72
    36
 73
    32
 74
     0
 42
0.000000001
 43
0.0000000001
 40
0.0
 40
0.0
 40
0.0
 40
0.0
 40
0.124999999999972
 40
0.124999999999972
 40
0.1874999999999249
 40
0.1874999999999249
 40
0.218749999999901
 40
0.218749999999901
 40
0.249999999999877
 40
0.249999999999877
 40
0.3749999999997822
 40
0.3749999999997822
 40
0.4062499999997717
 40
0.4062499999997717
 40
0.4374999999997612
 40
0.4374999999997612
 40
0.4999999999997926
 40
0.4999999999997926
 40
0.6249999999998069
 40
0.6249999999998069
 40
0.6562499999998101
 40
0.6562499999998101
 40
0.6874999999998132
 40
0.749999999999848
 40
0.8124999999998825
 40
0.8124999999998825
 40
0.8437499999999008
 40
0.8437499999999008
 40
0.8749999999999193
 40
0.8749999999999193
 40
1.0
 40
1.0
 40
1.0
 40
1.0
 10
458.2570213231994
 20
296.1321706727509
 30
0.0
 10
458.3081927440601
 20
296.1339557580422
 30
0.0
 10
458.3582994097936
 20
296.1408658914744
 30
0.0
 10
458.4319535980336
 20
296.1584790967169
 30
0.0
 10
458.456251991146
 20
296.1655679591152
 30
0.0
 10
458.4923138997685
 20
296.1780576738539
 30
0.0
 10
458.5043004746403
 20
296.1825434433759
 30
0.0
 10
458.5279860558223
 20
296.1920829467118
 30
0.0
 10
458.5396655420828
 20
296.1971267305083
 30
0.0
 10
458.597264489803
 20
296.2236855414278
 30
0.0
 10
458.6408119592343
 20
296.2491808795594
 30
0.0
 10
458.6921247383381
 20
296.2862881686563
 30
0.0
 10
458.7022297630023
 20
296.2939739709543
 30
0.0
 10
458.7221199146579
 20
296.3098823784633
 30
0.0
 10
458.7319260449642
 20
296.3181250102555
 30
0.0
 10
458.7605721032095
 20
296.3434193381539
 30
0.0
 10
458.7787161017596
 20
296.3610882931323
 30
0.0
 10
458.8303693072858
 20
296.4164446027411
 30
0.0
 10
458.8611270910958
 20
296.4564582635018
 30
0.0
 10
458.8948301909297
 20
296.5104864631042
 30
0.0
 10
458.9013410981626
 20
296.5215149976527
 30
0.0
 10
458.9137428646821
 20
296.5437459774236
 30
0.0
 10
458.931464923511
 20
296.5774284085783
 30
0.0
 10
458.9566779420747
 20
296.6352153818025
 30
0.0
 10
458.9722749497062
 20
296.6831897985967
 30
0.0
 10
458.9822204011555
 20
296.7198391472124
 30
0.0
 10
458.9852429518579
 20
296.7321672289007
 30
0.0
 10
458.9906896612895
 20
296.7570516897218
 30
0.0
 10
458.9931155035517
 20
296.7696263879342
 30
0.0
 10
459.003618191173
 20
296.8324984133125
 30
0.0
 10
459.0069700070816
 20
296.8831987252236
 30
0.0
 10
459.0051389747434
 20
296.9343122948359
 30
0.0
  0
SPLINE
  5
1C5
330
1F
100
AcDbEntity
  8
1
100
AcDbSpline
210
0.0
220
0.0
230
1.0
 70
     8
 71
     3
 72
    34
 73
    30
 74
     0
 42
0.000000001
 43
0.0000000001
 40
0.0
 40
0.0
 40
0.0
 40
0.0
 40
0.0625000000000037
 40
0.0625000000000037
 40
0.1250000000000074
 40
0.1250000000000074
 40
0.2500000000000143
 40
0.2500000000000143
 40
0.2812500000000072
 40
0.2812500000000072
 40
0.3125000000000001
 40
0.3125000000000001
 40
0.3749999999999859
 40
0.3749999999999859
 40
0.499999999999958
 40
0.499999999999958
 40
0.5624999999999253
 40
0.5624999999999253
 40
0.5937499999999087
 40
0.5937499999999087
 40
0.6249999999998924
 40
0.6249999999998924
 40
0.6874999999998975
 40
0.6874999999998975
 40
0.7499999999999025
 40
0.7499999999999025
 40
0.8749999999999513
 40
0.8749999999999513
 40
1.0
 40
1.0
 40
1.0
 40
1.0
 10
449.3380126728473
 20
295.3606572002824
 30
0.0
 10
449.2999622560785
 20
295.3354331106298
 30
0.0
 10
449.261493174766
 20
295.3113667069563
 30
0.0
 10
449.1836865616241
 20
295.2654491693096
 30
0.0
 10
449.1443492909755
 20
295.2435984087175
 30
0.0
 10
449.0249876079722
 20
295.1812823051473
 30
0.0
 10
448.9436199277824
 20
295.1440383064865
 30
0.0
 10
448.8394437556933
 20
295.102811776309
 30
0.0
 10
448.8184846943016
 20
295.0948340949843
 30
0.0
 10
448.7763109756413
 20
295.0794176623077
 30
0.0
 10
448.7550711296761
 20
295.0719707146843
 30
0.0
 10
448.6911862639591
 20
295.050523082292
 30
0.0
 10
448.6483704115796
 20
295.0374084473784
 30
0.0
 10
448.5191604294986
 20
295.0015781659806
 30
0.0
 10
448.432007779018
 20
294.9823577738186
 30
0.0
 10
448.2993386433561
 20
294.9607094305224
 30
0.0
 10
448.2547909606355
 20
294.9546950703934
 30
0.0
 10
448.1874277081411
 20
294.947538965366
 30
0.0
 10
448.1648830434455
 20
294.9454647664948
 30
0.0
 10
448.1196052335811
 20
294.9419520298139
 30
0.0
 10
448.0968394845829
 20
294.9405119743233
 30
0.0
 10
448.0284641977743
 20
294.9371777462143
 30
0.0
 10
447.9832079565239
 20
294.9362860572211
 30
0.0
 10
447.8933107068904
 20
294.9370494456731
 30
0.0
 10
447.8486691556169
 20
294.9387041932478
 30
0.0
 10
447.715560607209
 20
294.9473452975708
 30
0.0
 10
447.6279078669567
 20
294.9579907603471
 30
0.0
 10
447.454101268262
 20
294.9886601992687
 30
0.0
 10
447.3679439677783
 20
295.0086829958142
 30
0.0
 10
447.282236095411
 20
295.0334808117971
 30
0.0
  0
SPLINE
  5
1C6
330
1F
100
AcDbEntity
  8
1
100
AcDbSpline
210
0.0
220
0.0
230
1.0
 70
     8
 71
     3
 72
    27
 73
    23
 74
     0
 42
0.000000001
 43
0.0000000001
 40
0.0
 40
0.0
 40
0.0
 40
0.0
 40
0.1249999999999885
 40
0.249999999999977
 40
0.3749999999999656
 40
0.4062499999999627
 40
0.4062499999999627
 40
0.4374999999999599
 40
0.4374999999999599
 40
0.4999999999999658
 40
0.4999999999999658
 40
0.6249999999999775
 40
0.6249999999999775
 40
0.6874999999999777
 40
0.6874999999999777
 40
0.7187499999999778
 40
0.7187499999999778
 40
0.7499999999999778
 40
0.7499999999999778
 40
0.8749999999999889
 40
0.8749999999999889
 40
1.0
 40
1.0
 40
1.0
 40
1.0
 10
447.2823956729575
 20
294.7615462983992
 30
0.0
 10
446.9907947639553
 20
294.751302744135
 30
0.0
 10
446.409252647601
 20
294.7508895971838
 30
0.0
 10
445.5418320264613
 20
294.8094082818147
 30
0.0
 10
444.8949254900598
 20
294.8974818143259
 30
0.0
 10
444.5368183722563
 20
294.961912646754
 30
0.0
 10
444.393679106556
 20
294.988933500068
 30
0.0
 10
444.3221939064673
 20
295.0030622492518
 30
0.0
 10
444.1083894949308
 20
295.0472198909845
 30
0.0
 10
443.9665690587747
 20
295.0790479328936
 30
0.0
 10
443.5432421237206
 20
295.1816481405997
 30
0.0
 10
443.2638674014838
 20
295.2595282600457
 30
0.0
 10
442.8490649785015
 20
295.390507227179
 30
0.0
 10
442.7115080974371
 20
295.4365287259443
 30
0.0
 10
442.5062439174465
 20
295.5091144248009
 30
0.0
 10
442.4379686580651
 20
295.5339144141035
 30
0.0
 10
442.3019971714981
 20
295.584619035811
 30
0.0
 10
442.2342904826353
 20
295.6105266439923
 30
0.0
 10
441.8971467416678
 20
295.7428265371695
 30
0.0
 10
441.6318736590615
 20
295.8574952752984
 30
0.0
 10
441.1101518647441
 20
296.1042646894666
 30
0.0
 10
440.8537031273178
 20
296.2363658820937
 30
0.0
 10
440.6017023233117
 20
296.3771822224829
 30
0.0
  0
SPLINE
  5
1C7
330
1F
100
AcDbEntity
  8
1
100
AcDbSpline
210
0.0
220
0.0
230
1.0
 70
     8
 71
     3
 72
    28
 73
    24
 74
     0
 42
0.000000001
 43
0.0000000001
 40
0.0
 40
0.0
 40
0.0
 40
0.0
 40
0.1250000000000211
 40
0.1250000000000211
 40
0.2500000000000421
 40
0.2500000000000421
 40
0.2812500000000446
 40
0.2812500000000446
 40
0.3125000000000471
 40
0.3750000000000521
 40
0.3750000000000521
 40
0.5000000000000621
 40
0.5000000000000621
 40
0.5312500000000561
 40
0.5312500000000561
 40
0.5625000000000501
 40
0.5625000000000501
 40
0.6250000000000379
 40
0.6250000000000379
 40
0.7500000000000253
 40
0.8750000000000126
 40
0.8750000000000126
 40
1.0
 40
1.0
 40
1.0
 40
1.0
 10
440.7334961371353
 20
292.52514631325
 30
0.0
 10
440.9822808287404
 20
292.3702676542077
 30
0.0
 10
441.2362684264597
 20
292.2248760257552
 30
0.0
 10
441.7545746969142
 20
291.9531468484279
 30
0.0
 10
442.0188929561091
 20
291.8268083265845
 30
0.0
 10
442.3557907233333
 20
291.6809943292633
 30
0.0
 10
442.4235284815325
 20
291.6524242610254
 30
0.0
 10
442.5594916884371
 20
291.5965715426884
 30
0.0
 10
442.7640883884528
 20
291.5147541311567
 30
0.0
 10
442.9706318032422
 20
291.4388041885493
 30
0.0
 10
443.3863001272528
 20
291.2947080529925
 30
0.0
 10
443.6668507655908
 20
291.2090388556624
 30
0.0
 10
444.0218428875806
 20
291.1150295380982
 30
0.0
 10
444.093056782825
 20
291.0968823247133
 30
0.0
 10
444.235916797444
 20
291.0619025147814
 30
0.0
 10
444.3076041170407
 20
291.045061305801
 30
0.0
 10
444.5227683168319
 20
290.9966391350863
 30
0.0
 10
444.6664787144857
 20
290.9671234256865
 30
0.0
 10
445.0984021701333
 20
290.8867759788138
 30
0.0
 10
445.6764104828182
 20
290.8014891841307
 30
0.0
 10
446.2585847184635
 20
290.7594082391658
 30
0.0
 10
446.8428519139131
 20
290.7390556781227
 30
0.0
 10
447.1360318922503
 20
290.7397425831444
 30
0.0
 10
447.4302826951919
 20
290.7515460350468
 30
0.0
  0
SPLINE
  5
1C8
330
1F
100
AcDbEntity
  8
1
100
AcDbSpline
210
0.0
220
0.0
230
1.0
 70
     8
 71
     3
 72
     8
 73
     4
 74
     0
 42
0.000000001
 43
0.0000000001
 40
0.0
 40
0.0
 40
0.0
 40
0.0
 40
1.0
 40
1.0
 40
1.0
 40
1.0
 10
447.2823956729575
 20
294.7615462983992
 30
0.0
 10
447.285953240592
 20
294.761671271045
 30
0.0
 10
447.2895118462727
 20
294.7617958457973
 30
0.0
 10
447.293071491805
 20
294.7619200219639
 30
0.0
  0
SPLINE
  5
1C9
330
1F
100
AcDbEntity
  8
1
100
AcDbSpline
210
0.0
220
0.0
230
1.0
 70
     8
 71
     3
 72
    29
 73
    25
 74
     0
 42
0.000000001
 43
0.0000000001
 40
0.0
 40
0.0
 40
0.0
 40
0.0
 40
0.0625000000000085
 40
0.125000000000017
 40
0.125000000000017
 40
0.250000000000034
 40
0.250000000000034
 40
0.375000000000051
 40
0.375000000000051
 40
0.5000000000000681
 40
0.5000000000000681
 40
0.5312500000000638
 40
0.5312500000000638
 40
0.5625000000000595
 40
0.5625000000000595
 40
0.6250000000000512
 40
0.6250000000000512
 40
0.7500000000000345
 40
0.7500000000000345
 40
0.8125000000000259
 40
0.8125000000000259
 40
0.8750000000000175
 40
0.8750000000000175
 40
1.0
 40
1.0
 40
1.0
 40
1.0
 10
446.7048419452955
 20
291.8591589718241
 30
0.0
 10
446.5660764293416
 20
291.8583606403057
 30
0.0
 10
446.2914886930964
 20
291.8594943517462
 30
0.0
 10
446.0219268327171
 20
291.8662645321504
 30
0.0
 10
445.6207998439134
 20
291.8808114286664
 30
0.0
 10
445.3576432616888
 20
291.8963641128993
 30
0.0
 10
444.8375876101971
 20
291.940153826297
 30
0.0
 10
444.5806956486713
 20
291.9683933460784
 30
0.0
 10
444.0716666862501
 20
292.0385456500337
 30
0.0
 10
443.8195358998278
 20
292.0804577650788
 30
0.0
 10
443.5067452073802
 20
292.1419996781895
 30
0.0
 10
443.4443067946177
 20
292.1547656598075
 30
0.0
 10
443.3196582836803
 20
292.1812281475991
 30
0.0
 10
443.2574393438566
 20
292.1949274266801
 30
0.0
 10
443.0715887180774
 20
292.2373306097441
 30
0.0
 10
442.9486012186278
 20
292.2673729176905
 30
0.0
 10
442.5822063704422
 20
292.3628893348994
 30
0.0
 10
442.3413563122097
 20
292.4337506716981
 30
0.0
 10
441.9847532422118
 20
292.5511206946121
 30
0.0
 10
441.8666537074172
 20
292.5921060050759
 30
0.0
 10
441.6320488723235
 20
292.6777415834584
 30
0.0
 10
441.5155456052061
 20
292.7223888776097
 30
0.0
 10
441.1683882900762
 20
292.861898404856
 30
0.0
 10
440.9400833286479
 20
292.9623207158782
 30
0.0
 10
440.7148390296312
 20
293.0704514833758
 30
0.0
  0
SPLINE
  5
1CA
330
1F
100
AcDbEntity
  8
1
100
AcDbSpline
210
0.0
220
0.0
230
1.0
 70
     8
 71
     3
 72
    12
 73
     8
 74
     0
 42
0.000000001
 43
0.0000000001
 40
0.0
 40
0.0
 40
0.0
 40
0.0
 40
0.5000000000000599
 40
0.5000000000000599
 40
0.7500000000000299
 40
0.7500000000000299
 40
1.0
 40
1.0
 40
1.0
 40
1.0
 10
447.2822360954103
 20
295.0334808117973
 30
0.0
 10
447.1807343345894
 20
295.0628482656526
 30
0.0
 10
447.0817618230356
 20
295.0983221016111
 30
0.0
 10
446.9366395474026
 20
295.160483918156
 30
0.0
 10
446.8888241524455
 20
295.1827024894383
 30
0.0
 10
446.7942524540418
 20
295.2301752721432
 30
0.0
 10
446.7474966663949
 20
295.2554291408567
 30
0.0
 10
446.7012400822165
 20
295.2822483108462
 30
0.0
  0
SPLINE
  5
1CB
330
1F
100
AcDbEntity
  8
1
100
AcDbSpline
210
0.0
220
0.0
230
1.0
 70
     8
 71
     3
 72
    10
 73
     6
 74
     0
 42
0.000000001
 43
0.0000000001
 40
0.0
 40
0.0
 40
0.0
 40
0.0
 40
0.4999999999999997
 40
0.4999999999999997
 40
1.0
 40
1.0
 40
1.0
 40
1.0
 10
440.7687339172338
 20
301.9978812417463
 30
0.0
 10
440.8046628268223
 20
303.0530167336364
 30
0.0
 10
440.8352743498566
 20
304.1083248295779
 30
0.0
 10
440.8895587142761
 20
306.2191233052137
 30
0.0
 10
440.9131982033643
 20
307.2746067858823
 30
0.0
 10
440.9344257272975
 20
308.3301482764347
 30
0.0
  0
SPLINE
  5
1CC
330
1F
100
AcDbEntity
  8
1
100
AcDbSpline
210
0.0
220
0.0
230
1.0
 70
     8
 71
     3
 72
    47
 73
    43
 74
     0
 42
0.000000001
 43
0.0000000001
 40
0.0
 40
0.0
 40
0.0
 40
0.0
 40
0.0305707558582131
 40
0.0305707558582131
 40
0.0611415117164262
 40
0.0611415117164262
 40
0.0917122675746393
 40
0.1222830234328524
 40
0.1222830234328524
 40
0.1834245351492786
 40
0.1834245351492786
 40
0.1987099130783852
 40
0.1987099130783852
 40
0.2139952910074917
 40
0.2139952910074917
 40
0.2445660468657037
 40
0.2445660468657037
 40
0.3057075585821264
 40
0.3057075585821264
 40
0.3668490702985492
 40
0.3668490702985492
 40
0.4279905820149719
 40
0.4279905820149719
 40
0.4891320937313947
 40
0.4891320937313947
 40
0.5502736054478175
 40
0.5502736054478175
 40
0.61141511716424
 40
0.61141511716424
 40
0.7336981405970845
 40
0.7336981405970845
 40
0.7948396523135069
 40
0.7948396523135069
 40
0.8559811640299292
 40
0.8559811640299292
 40
0.9171226757463516
 40
0.9171226757463516
 40
0.9476934316045626
 40
0.9476934316045626
 40
0.9782641874627733
 40
0.9782641874627733
 40
1.0
 40
1.0
 40
1.0
 40
1.0
 10
440.9344257272975
 20
308.3301482764347
 30
0.0
 10
440.2448367462564
 20
308.3482601977922
 30
0.0
 10
439.554111352702
 20
308.3628226929505
 30
0.0
 10
438.1702587570052
 20
308.3856353995841
 30
0.0
 10
437.4771316469455
 20
308.3938866925008
 30
0.0
 10
436.0884074055456
 20
308.4048687103286
 30
0.0
 10
434.6972132396804
 20
308.4103312447014
 30
0.0
 10
433.3010579407853
 20
308.4062838870623
 30
0.0
 10
431.2031679084352
 20
308.3941481040405
 30
0.0
 10
429.7996769973621
 20
308.3780153152617
 30
0.0
 10
428.039758801318
 20
308.3507930306396
 30
0.0
 10
427.687499119268
 20
308.3449923966621
 30
0.0
 10
426.9824482473118
 20
308.3327396304741
 30
0.0
 10
426.6296277795241
 20
308.3262869085006
 30
0.0
 10
425.5707699366884
 20
308.3060409074835
 30
0.0
 10
424.8642508220818
 20
308.2913618031688
 30
0.0
 10
422.7430372040433
 20
308.2443310418508
 30
0.0
 10
421.3266784709068
 20
308.2090368205847
 30
0.0
 10
418.4907455792803
 20
308.1322731900536
 30
0.0
 10
417.0711747547844
 20
308.0907999282119
 30
0.0
 10
414.2302564361163
 20
308.0018013685738
 30
0.0
 10
412.8089116779211
 20
307.9542724160199
 30
0.0
 10
409.9660066753155
 20
307.8518293948953
 30
0.0
 10
408.5444768287753
 20
307.7968261578144
 30
0.0
 10
405.7013802328921
 20
307.6790923143535
 30
0.0
 10
404.2798620197301
 20
307.6163643677248
 30
0.0
 10
401.4371773011706
 20
307.4829042283171
 30
0.0
 10
400.0159848688591
 20
307.4121702740711
 30
0.0
 10
395.7530283985633
 20
307.1873504858933
 30
0.0
 10
392.9118862417228
 20
307.0207043274233
 30
0.0
 10
388.6520420220709
 20
306.742199813393
 30
0.0
 10
387.2323664903251
 20
306.6445941221317
 30
0.0
 10
384.393919034791
 20
306.4390581984076
 30
0.0
 10
382.9753492723508
 20
306.331147773834
 30
0.0
 10
380.1397394316937
 20
306.1039695517517
 30
0.0
 10
378.7226977148309
 20
305.9847091021871
 30
0.0
 10
376.5985243053174
 20
305.7961545746936
 30
0.0
 10
375.890699613172
 20
305.7316864127978
 30
0.0
 10
374.4755670987367
 20
305.5992705937445
 30
0.0
 10
373.7682552753804
 20
305.5313325170686
 30
0.0
 10
372.5584460149083
 20
305.4121261932718
 30
0.0
 10
372.0558330212389
 20
305.361712530747
 30
0.0
 10
371.5533306513832
 20
305.3104267763984
 30
0.0
  0
SPLINE
  5
1CD
330
1F
100
AcDbEntity
  8
1
100
AcDbSpline
210
0.0
220
0.0
230
1.0
 70
    28
 71
     4
 72
    13
 73
     8
 74
     0
 42
0.000000001
 43
0.0000000001
 40
0.0
 40
0.0
 40
0.0
 40
0.0
 40
0.0
 40
0.185766161989568
 40
0.185766161989568
 40
0.185766161989568
 40
1.0
 40
1.0
 40
1.0
 40
1.0
 40
1.0
 10
302.9048419452958
 20
281.5939444133497
 30
0.0
 41
0.9992682498128429
 10
302.9048419452958
 20
281.049318546524
 30
0.0
 41
1.000053585947912
 10
302.9048419452958
 20
280.4910499904153
 30
0.0
 41
1.000874216331869
 10
302.9048419452958
 20
279.9273258916733
 30
0.0
 41
1.001498006703475
 10
302.9048419452958
 20
276.913366210735
 30
0.0
 41
1.001498006703475
 10
302.9048419452957
 20
274.0170792129495
 30
0.0
 41
0.9895139530756713
 10
302.9048419452958
 20
271.5523959858373
 30
0.0
 41
1.001498006703475
 10
302.9048419452957
 20
269.912248413361
 30
0.0
 41
1.001498006703475
  0
SPLINE
  5
1CE
330
1F
100
AcDbEntity
  8
1
100
AcDbSpline
210
0.0
220
0.0
230
1.0
 70
     8
 71
     3
 72
    58
 73
    54
 74
     0
 42
0.000000001
 43
0.0000000001
 40
0.0
 40
0.0
 40
0.0
 40
0.0
 40
0.0625000000000005
 40
0.0625000000000005
 40
0.1250000000000009
 40
0.1250000000000009
 40
0.1562500000000012
 40
0.1562500000000012
 40
0.1875000000000014
 40
0.1875000000000014
 40
0.2500000000000021
 40
0.2500000000000021
 40
0.3125000000000027
 40
0.3125000000000027
 40
0.343750000000003
 40
0.343750000000003
 40
0.3750000000000033
 40
0.3750000000000033
 40
0.4062500000000037
 40
0.4062500000000037
 40
0.4218750000000037
 40
0.4218750000000037
 40
0.4375000000000037
 40
0.4375000000000037
 40
0.4687500000000037
 40
0.4687500000000037
 40
0.5000000000000035
 40
0.5000000000000035
 40
0.5156250000000035
 40
0.5156250000000035
 40
0.5312500000000035
 40
0.5312500000000035
 40
0.5625000000000035
 40
0.5625000000000035
 40
0.5937500000000035
 40
0.5937500000000035
 40
0.6250000000000035
 40
0.6250000000000035
 40
0.6562500000000036
 40
0.6562500000000036
 40
0.6875000000000036
 40
0.6875000000000036
 40
0.7500000000000035
 40
0.7500000000000035
 40
0.8125000000000033
 40
0.8125000000000033
 40
0.843750000000003
 40
0.843750000000003
 40
0.8750000000000026
 40
0.8750000000000026
 40
0.9375000000000014
 40
0.9375000000000014
 40
1.0
 40
1.0
 40
1.0
 40
1.0
 10
305.2133303945699
 20
280.945392710601
 30
0.0
 10
307.8055949133006
 20
280.5324525304196
 30
0.0
 10
310.3977850708194
 20
280.1266727814544
 30
0.0
 10
315.5816118081464
 20
279.3274183708964
 30
0.0
 10
318.1732450013518
 20
278.933919769666
 30
0.0
 10
322.0598238872433
 20
278.3510725476215
 30
0.0
 10
323.3552038037227
 20
278.1580228758262
 30
0.0
 10
325.9455870949117
 20
277.7741182314816
 30
0.0
 10
327.2403384295336
 20
277.583299608997
 30
0.0
 10
331.1230013098133
 20
277.0139393400145
 30
0.0
 10
333.7093607632169
 20
276.6384259753195
 30
0.0
 10
338.8770332016671
 20
275.8949523885836
 30
0.0
 10
341.4583373016156
 20
275.5269625483755
 30
0.0
 10
345.3260227498934
 20
274.9819023906986
 30
0.0
 10
346.6145422362537
 20
274.8013907010059
 30
0.0
 10
349.1901307880664
 20
274.4432156174779
 30
0.0
 10
350.4771995153368
 20
274.2655517804684
 30
0.0
 10
353.0498971334059
 20
273.9137807658365
 30
0.0
 10
354.3355256850156
 20
273.739673475069
 30
0.0
 10
356.2629369811381
 20
273.4818764701328
 30
0.0
 10
356.9052359436256
 20
273.3965065192665
 30
0.0
 10
358.1895049263591
 20
273.2270279643012
 30
0.0
 10
358.8314759495236
 20
273.1429247016057
 30
0.0
 10
360.7571779615055
 20
272.8934638493801
 30
0.0
 10
362.040706055157
 20
272.731003055169
 30
0.0
 10
364.6085241116733
 20
272.4176345921534
 30
0.0
 10
365.8928144570008
 20
272.2667214028698
 30
0.0
 10
367.8206045590823
 20
272.0508099391345
 30
0.0
 10
368.4633556911796
 20
271.9805795225934
 30
0.0
 10
369.7490992531631
 20
271.8437954514475
 30
0.0
 10
370.3921181874933
 20
271.7772384203452
 30
0.0
 10
372.3217574021914
 20
271.5832382031913
 30
0.0
 10
373.6089626693272
 20
271.4614853363181
 30
0.0
 10
376.1855918872137
 20
271.2334190022067
 30
0.0
 10
377.4750519228977
 20
271.1271571566568
 30
0.0
 10
380.0558987180935
 20
270.9279219716901
 30
0.0
 10
381.3472817132669
 20
270.8349459314973
 30
0.0
 10
383.9317190678178
 20
270.6606443014186
 30
0.0
 10
385.2247751100286
 20
270.5793263165097
 30
0.0
 10
387.8124126988906
 20
270.4271534558175
 30
0.0
 10
389.1069956632413
 20
270.3563034152635
 30
0.0
 10
392.9928910014615
 20
270.158025406985
 30
0.0
 10
395.5863589628838
 20
270.0448386722971
 30
0.0
 10
400.7783379632273
 20
269.8502030321604
 30
0.0
 10
403.3768553391127
 20
269.7687526842849
 30
0.0
 10
407.2776448915377
 20
269.6665708630196
 30
0.0
 10
408.57834395096
 20
269.6358542116155
 30
0.0
 10
411.1800264952375
 20
269.5806267499457
 30
0.0
 10
412.4810760312024
 20
269.556112487318
 30
0.0
 10
416.3847553754952
 20
269.4913380888444
 30
0.0
 10
418.9879251299518
 20
269.4598260089742
 30
0.0
 10
424.1952877165543
 20
269.4181580441955
 30
0.0
 10
426.7994847094512
 20
269.4079935137005
 30
0.0
 10
429.4038910358101
 20
269.4079935137005
 30
0.0
  0
SPLINE
  5
1CF
330
1F
100
AcDbEntity
  8
1
100
AcDbSpline
210
0.0
220
0.0
230
1.0
 70
     8
 71
     3
 72
    70
 73
    66
 74
     0
 42
0.000000001
 43
0.0000000001
 40
0.0
 40
0.0
 40
0.0
 40
0.0
 40
0.0179312200182518
 40
0.0179312200182518
 40
0.0517956607072779
 40
0.0517956607072779
 40
0.085660101396304
 40
0.085660101396304
 40
0.1195245420853302
 40
0.1195245420853302
 40
0.1533889827743563
 40
0.1533889827743563
 40
0.1872534234633824
 40
0.1872534234633824
 40
0.2211178641524082
 40
0.2211178641524082
 40
0.254982304841434
 40
0.254982304841434
 40
0.2888467455304598
 40
0.2888467455304598
 40
0.3227111862194856
 40
0.3227111862194856
 40
0.3565756269085115
 40
0.3565756269085115
 40
0.3904400675975372
 40
0.3904400675975372
 40
0.4243045082865632
 40
0.4243045082865632
 40
0.4581689489755889
 40
0.4581689489755889
 40
0.4920333896646146
 40
0.4920333896646146
 40
0.5258978303536405
 40
0.5258978303536405
 40
0.5597622710426662
 40
0.5597622710426662
 40
0.5936267117316919
 40
0.5936267117316919
 40
0.6274911524207178
 40
0.6274911524207178
 40
0.6613555931097434
 40
0.6613555931097434
 40
0.6952200337987692
 40
0.6952200337987692
 40
0.7290844744877947
 40
0.7290844744877947
 40
0.7629489151768202
 40
0.7629489151768202
 40
0.7968133558658458
 40
0.7968133558658458
 40
0.8306777965548711
 40
0.8306777965548711
 40
0.8645422372438966
 40
0.8645422372438966
 40
0.8984066779329221
 40
0.8984066779329221
 40
0.9322711186219477
 40
0.9322711186219477
 40
0.9492033389664607
 40
0.9492033389664607
 40
0.9661355593109741
 40
0.9661355593109741
 40
0.9830677796554871
 40
0.9830677796554871
 40
1.0
 40
1.0
 40
1.0
 40
1.0
 10
313.2250487265104
 20
308.4079938429014
 30
0.0
 10
313.9618289589233
 20
308.4080042559979
 30
0.0
 10
314.6984945554038
 20
308.406754452444
 30
0.0
 10
316.8260764166272
 20
308.3993872530785
 30
0.0
 10
318.2166978759742
 20
308.3899304046316
 30
0.0
 10
320.9971548961028
 20
308.3611556219539
 30
0.0
 10
322.386851926133
 20
308.3418372216378
 30
0.0
 10
325.1649070512694
 20
308.2927737325439
 30
0.0
 10
326.5533164718054
 20
308.263026439157
 30
0.0
 10
329.3290089602138
 20
308.1925828582895
 30
0.0
 10
330.7162919676439
 20
308.1518847407498
 30
0.0
 10
333.489898218276
 20
308.0591212631944
 30
0.0
 10
334.8762215389968
 20
308.0070541171079
 30
0.0
 10
337.6481318130938
 20
307.89129232649
 30
0.0
 10
339.0337189794073
 20
307.8275961227666
 30
0.0
 10
341.8044327678057
 20
307.688524842498
 30
0.0
 10
343.1895597213564
 20
307.6131485997219
 30
0.0
 10
345.9596730905254
 20
307.4509162543663
 30
0.0
 10
347.3446599308405
 20
307.3640595122157
 30
0.0
 10
350.114845817205
 20
307.1793431454993
 30
0.0
 10
351.5000453533702
 20
307.081483504546
 30
0.0
 10
354.27102828057
 20
306.8755264636042
 30
0.0
 10
355.656834452086
 20
306.7674272553166
 30
0.0
 10
358.4287118414032
 20
306.542093896432
 30
0.0
 10
359.8149039131382
 20
306.4249449340892
 30
0.0
 10
362.5875344377283
 20
306.1813645458902
 30
0.0
 10
363.9739670351112
 20
306.0549172696387
 30
0.0
 10
366.7468713545674
 20
305.7923099335635
 30
0.0
 10
368.133343283443
 20
305.6561472516408
 30
0.0
 10
370.9062320013023
 20
305.3737989703777
 30
0.0
 10
372.2926964192587
 20
305.2276071362783
 30
0.0
 10
375.0651116561359
 20
304.9250905270989
 30
0.0
 10
376.4510848848712
 20
304.7686933791356
 30
0.0
 10
379.2228087863509
 20
304.4462224702798
 30
0.0
 10
380.6085784652116
 20
304.2802050775886
 30
0.0
 10
383.3802261026615
 20
303.9395035435592
 30
0.0
 10
384.7661034645875
 20
303.7648197502252
 30
0.0
 10
387.5381774116497
 20
303.4075479631797
 30
0.0
 10
388.924433428552
 20
303.2249521673439
 30
0.0
 10
391.6970241714102
 20
302.8525267202857
 30
0.0
 10
393.0833707251978
 20
302.6626968013486
 30
0.0
 10
395.8562614396691
 20
302.2762615230591
 30
0.0
 10
397.2428056679199
 20
302.0796576615881
 30
0.0
 10
400.0161335051532
 20
301.6799370890275
 30
0.0
 10
401.4029172595481
 20
301.47682226528
 30
0.0
 10
404.1767089985174
 20
301.0640921567431
 30
0.0
 10
405.5637712326626
 20
300.8544701672568
 30
0.0
 10
408.3377655072492
 20
300.428474888453
 30
0.0
 10
409.7246612187197
 20
300.2121084321117
 30
0.0
 10
412.4981093796228
 20
299.7720032699029
 30
0.0
 10
413.8846408522538
 20
299.5481848927847
 30
0.0
 10
416.6567346122901
 20
299.0903073586491
 30
0.0
 10
418.0422953607698
 20
298.8562354007775
 30
0.0
 10
420.8122065949389
 20
298.3763824934138
 30
0.0
 10
422.1965915563835
 20
298.1305746882577
 30
0.0
 10
424.9641550556703
 20
297.6275607023779
 30
0.0
 10
426.3472181029245
 20
297.3703511565308
 30
0.0
 10
428.4212615679249
 20
296.9780520962038
 30
0.0
 10
429.1125220936653
 20
296.846226100279
 30
0.0
 10
430.4950160135166
 20
296.5810874575666
 30
0.0
 10
431.1862569189647
 20
296.4477722782012
 30
0.0
 10
432.5688701233477
 20
296.1805201026401
 30
0.0
 10
433.2602167646138
 20
296.0465866127086
 30
0.0
 10
434.6432092107016
 20
295.7792344444288
 30
0.0
 10
435.3348546351715
 20
295.6458135290169
 30
0.0
 10
436.0267868546243
 20
295.5133720116929
 30
0.0
  0
SPLINE
  5
1D0
330
1F
100
AcDbEntity
  8
1
100
AcDbSpline
210
0.0
220
0.0
230
1.0
 70
     8
 71
     3
 72
    40
 73
    36
 74
     0
 42
0.000000001
 43
0.0000000001
 40
0.0
 40
0.0
 40
0.0
 40
0.0
 40
0.1249999999999791
 40
0.1249999999999791
 40
0.187499999999976
 40
0.187499999999976
 40
0.2499999999999729
 40
0.2499999999999729
 40
0.3749999999999672
 40
0.3749999999999672
 40
0.4999999999999617
 40
0.4999999999999617
 40
0.5312499999999699
 40
0.5312499999999699
 40
0.5624999999999783
 40
0.5624999999999783
 40
0.6249999999999833
 40
0.6249999999999833
 40
0.6874999999999885
 40
0.6874999999999885
 40
0.7499999999999936
 40
0.7499999999999936
 40
0.765624999999997
 40
0.765624999999997
 40
0.7812500000000006
 40
0.8125000000000003
 40
0.8125000000000003
 40
0.8749999999999998
 40
0.8749999999999998
 40
0.9062499999999992
 40
0.9218749999999987
 40
0.9218749999999987
 40
0.9374999999999984
 40
0.9374999999999984
 40
1.0
 40
1.0
 40
1.0
 40
1.0
 10
437.8869723661126
 20
298.5806049499272
 30
0.0
 10
438.0593411373872
 20
298.6720705915027
 30
0.0
 10
438.2294745701069
 20
298.7678653969236
 30
0.0
 10
438.4806591120901
 20
298.9193346019771
 30
0.0
 10
438.5637812980623
 20
298.9711703076644
 30
0.0
 10
438.7278515494853
 20
299.077264547869
 30
0.0
 10
438.8088691857942
 20
299.1315619388132
 30
0.0
 10
439.0485822983042
 20
299.2985579873867
 30
0.0
 10
439.2039652529132
 20
299.4153270059935
 30
0.0
 10
439.5038262127598
 20
299.662264829184
 30
0.0
 10
439.6483299046894
 20
299.7924020704687
 30
0.0
 10
439.8201529243761
 20
299.965894992004
 30
0.0
 10
439.8540730636661
 20
300.0011397256738
 30
0.0
 10
439.9209542895587
 20
300.0728076579758
 30
0.0
 10
439.9539639821178
 20
300.1092877405599
 30
0.0
 10
440.0509589602442
 20
300.2200948612718
 30
0.0
 10
440.1129597816508
 20
300.2958165412594
 30
0.0
 10
440.2309569189973
 20
300.451432650331
 30
0.0
 10
440.2869557358811
 20
300.5313253414183
 30
0.0
 10
440.392068974688
 20
300.6958949398808
 30
0.0
 10
440.4411874900236
 20
300.7805690025946
 30
0.0
 10
440.4975459126795
 20
300.8899138666474
 30
0.0
 10
440.5085711907952
 20
300.911973822355
 30
0.0
 10
440.5299884152383
 20
300.956237083923
 30
0.0
 10
440.5612038055683
 20
301.02292134331
 30
0.0
 10
440.5896296820649
 20
301.0904921934994
 30
0.0
 10
440.6425883354382
 20
301.2268712372015
 30
0.0
 10
440.672712044949
 20
301.319437612906
 30
0.0
 10
440.7092899489831
 20
301.4610229479446
 30
0.0
 10
440.7254239064843
 20
301.5325005370779
 30
0.0
 10
440.7381365609535
 20
301.6050655184892
 30
0.0
 10
440.7458277624936
 20
301.6536913200511
 30
0.0
 10
440.7492853769802
 20
301.6781628743834
 30
0.0
 10
440.7644930445299
 20
301.8006525130427
 30
0.0
 10
440.7700290754422
 20
301.8990551716759
 30
0.0
 10
440.7687339172367
 20
301.9978812417467
 30
0.0
  0
SPLINE
  5
1D1
330
1F
100
AcDbEntity
  8
1
100
AcDbSpline
210
0.0
220
0.0
230
1.0
 70
    12
 71
     3
 72
     9
 73
     5
 74
     0
 42
0.000000001
 43
0.0000000001
 40
0.0
 40
0.0
 40
0.0
 40
0.0
 40
0.2496353478630318
 40
1.0
 40
1.0
 40
1.0
 40
1.0
 10
401.2430819702248
 20
301.4996792544488
 30
0.0
 41
1.001145006954599
 10
404.5721899335293
 20
301.4619769909003
 30
0.0
 41
1.000458327480814
 10
417.9207134309859
 20
301.2237947056308
 30
0.0
 41
0.9985060723041424
 10
430.8712497023964
 20
300.9537271367633
 30
0.0
 41
1.00448240809406
 10
440.7687339172364
 20
301.9978812417467
 30
0.0
 41
1.003094226368866
  0
SPLINE
  5
1D2
330
1F
100
AcDbEntity
  8
1
100
AcDbSpline
210
0.0
220
0.0
230
1.0
 70
     8
 71
     3
 72
    26
 73
    22
 74
     0
 42
0.000000001
 43
0.0000000001
 40
0.0
 40
0.0
 40
0.0
 40
0.0
 40
0.1249999999999996
 40
0.1249999999999996
 40
0.2499999999999993
 40
0.2499999999999993
 40
0.3749999999999989
 40
0.3749999999999989
 40
0.4999999999999988
 40
0.4999999999999988
 40
0.5624999999999987
 40
0.5624999999999987
 40
0.5937499999999988
 40
0.5937499999999988
 40
0.6249999999999988
 40
0.6249999999999988
 40
0.7499999999999992
 40
0.7499999999999992
 40
0.8749999999999996
 40
0.8749999999999996
 40
1.0
 40
1.0
 40
1.0
 40
1.0
 10
286.1687165745302
 20
270.4172158096235
 30
0.0
 10
285.8399324648831
 20
270.4656776975711
 30
0.0
 10
285.5177234093667
 20
270.5091636345909
 30
0.0
 10
284.8850356487257
 20
270.588809096093
 30
0.0
 10
284.5745648971877
 20
270.6249626988863
 30
0.0
 10
283.9645400004177
 20
270.6923245578222
 30
0.0
 10
283.6649900540498
 20
270.7235279292445
 30
0.0
 10
283.0763978156629
 20
270.7832995001874
 30
0.0
 10
282.7873575523481
 20
270.8118627483149
 30
0.0
 10
282.3616085138224
 20
270.8545182750791
 30
0.0
 10
282.2209963641341
 20
270.8687062391787
 30
0.0
 10
282.0120454335007
 20
270.8901812653192
 30
0.0
 10
281.9426965454836
 20
270.8973747189448
 30
0.0
 10
281.8047838735832
 20
270.9118546875165
 30
0.0
 10
281.7362593791082
 20
270.9191370245932
 30
0.0
 10
281.3957897145737
 20
270.9558652263868
 30
0.0
 10
281.1302892427089
 20
270.9862476290555
 30
0.0
 10
280.613096309335
 20
271.0518726488198
 30
0.0
 10
280.361402679812
 20
271.087105460813
 30
0.0
 10
279.8722426667172
 20
271.1657602351157
 30
0.0
 10
279.6347722613216
 20
271.2091665215991
 30
0.0
 10
279.4048419452956
 20
271.258756943703
 30
0.0
  0
SPLINE
  5
1D3
330
1F
100
AcDbEntity
  8
1
100
AcDbSpline
210
0.0
220
0.0
230
1.0
 70
     8
 71
     3
 72
    53
 73
    49
 74
     0
 42
0.000000001
 43
0.0000000001
 40
0.0
 40
0.0
 40
0.0
 40
0.0
 40
0.0625000000000019
 40
0.0625000000000019
 40
0.1250000000000038
 40
0.1250000000000038
 40
0.1875000000000057
 40
0.1875000000000057
 40
0.2187500000000067
 40
0.2187500000000067
 40
0.2343750000000069
 40
0.2343750000000069
 40
0.2500000000000072
 40
0.2500000000000072
 40
0.312500000000007
 40
0.312500000000007
 40
0.3750000000000069
 40
0.3750000000000069
 40
0.4375000000000068
 40
0.4375000000000068
 40
0.4531250000000068
 40
0.4531250000000068
 40
0.4687500000000068
 40
0.5000000000000063
 40
0.5000000000000063
 40
0.5625000000000058
 40
0.5625000000000058
 40
0.6250000000000053
 40
0.6250000000000053
 40
0.6406250000000052
 40
0.6406250000000052
 40
0.6562500000000049
 40
0.6562500000000049
 40
0.6875000000000047
 40
0.6875000000000047
 40
0.7500000000000049
 40
0.7500000000000049
 40
0.8125000000000051
 40
0.8125000000000051
 40
0.8437500000000051
 40
0.8437500000000051
 40
0.8593750000000051
 40
0.8593750000000051
 40
0.8750000000000049
 40
0.8750000000000049
 40
0.9375000000000024
 40
0.9375000000000024
 40
1.0
 40
1.0
 40
1.0
 40
1.0
 10
279.4048419452957
 20
279.9289393871094
 30
0.0
 10
279.2262665982455
 20
279.7472472020491
 30
0.0
 10
279.0567278961325
 20
279.5615731604325
 30
0.0
 10
278.7359846322861
 20
279.1826030330228
 30
0.0
 10
278.5847782900049
 20
278.9893071544955
 30
0.0
 10
278.3013400135161
 20
278.5952649069711
 30
0.0
 10
278.1691045986718
 20
278.3945193991967
 30
0.0
 10
277.9858054210224
 20
278.0878032691773
 30
0.0
 10
277.927218575938
 20
277.9846300579858
 30
0.0
 10
277.8432514701137
 20
277.828451837235
 30
0.0
 10
277.8159623147199
 20
277.7762403452568
 30
0.0
 10
277.7629873441184
 20
277.6719081335731
 30
0.0
 10
277.7372703209803
 20
277.6197297551982
 30
0.0
 10
277.6125270669506
 20
277.3587931376761
 30
0.0
 10
277.5250061194636
 20
277.1499040378359
 30
0.0
 10
277.3745688342553
 20
276.7322166823965
 30
0.0
 10
277.3116511958771
 20
276.5234180279331
 30
0.0
 10
277.2110114411749
 20
276.1062039666412
 30
0.0
 10
277.173286019819
 20
275.8977884199909
 30
0.0
 10
277.1426209597016
 20
275.6376483498069
 30
0.0
 10
277.1373117728364
 20
275.585584547325
 30
0.0
 10
277.1284178973321
 20
275.4821454538369
 30
0.0
 10
277.1176338901595
 20
275.3278057240606
 30
0.0
 10
277.1144202527679
 20
275.1759009046419
 30
0.0
 10
277.1178780373878
 20
274.8752871322554
 30
0.0
 10
277.1333460466999
 20
274.6791369400754
 30
0.0
 10
277.1899450215114
 20
274.2951417693135
 30
0.0
 10
277.2310778017588
 20
274.107297160962
 30
0.0
 10
277.2984546910429
 20
273.8775903771079
 30
0.0
 10
277.3127293546391
 20
273.8319041140596
 30
0.0
 10
277.34288015624
 20
273.7410400324007
 30
0.0
 10
277.3587783124811
 20
273.6958064280761
 30
0.0
 10
277.4086406396405
 20
273.561495697312
 30
0.0
 10
277.4448018511826
 20
273.473687138876
 30
0.0
 10
277.5617153743969
 20
273.2152148478652
 30
0.0
 10
277.6508817955301
 20
273.0494969939102
 30
0.0
 10
277.8503482488381
 20
272.7301760327903
 30
0.0
 10
277.9606523756941
 20
272.5765752361357
 30
0.0
 10
278.141324199688
 20
272.354615098938
 30
0.0
 10
278.2040872826899
 20
272.2820366855339
 30
0.0
 10
278.3019867573646
 20
272.1752119909431
 30
0.0
 10
278.3352597471876
 20
272.1399316548716
 30
0.0
 10
278.4028263530421
 20
272.0702660927687
 30
0.0
 10
278.4371448715486
 20
272.0358527854335
 30
0.0
 10
278.6113630522364
 20
271.8658249437891
 30
0.0
 10
278.7591254697886
 20
271.736315285156
 30
0.0
 10
279.0703737458423
 20
271.4890123113825
 30
0.0
 10
279.2338625611559
 20
271.3712215750203
 30
0.0
 10
279.4048419452956
 20
271.258756943703
 30
0.0
  0
SPLINE
  5
1D4
330
1F
100
AcDbEntity
  8
1
100
AcDbSpline
210
0.0
220
0.0
230
1.0
 70
     9
 71
     3
 72
   133
 73
   129
 74
     0
 42
0.000000001
 43
0.0000000001
 40
0.0
 40
0.0
 40
0.0
 40
0.0
 40
0.0312499999999851
 40
0.0312499999999851
 40
0.0468749999999778
 40
0.0468749999999778
 40
0.0546874999999727
 40
0.0546874999999727
 40
0.0624999999999676
 40
0.0624999999999676
 40
0.0937499999999536
 40
0.0937499999999536
 40
0.1093749999999466
 40
0.1093749999999466
 40
0.1171874999999458
 40
0.1171874999999458
 40
0.124999999999945
 40
0.124999999999945
 40
0.1562499999999618
 40
0.1562499999999618
 40
0.1640624999999623
 40
0.1640624999999623
 40
0.1718749999999628
 40
0.1718749999999628
 40
0.1874999999999717
 40
0.2031249999999806
 40
0.2031249999999806
 40
0.2109374999999807
 40
0.2109374999999807
 40
0.2187499999999809
 40
0.2187499999999809
 40
0.2499999999999727
 40
0.2499999999999727
 40
0.2656249999999641
 40
0.2656249999999641
 40
0.2734374999999599
 40
0.2734374999999599
 40
0.2812499999999556
 40
0.2812499999999556
 40
0.3124999999999211
 40
0.3124999999999211
 40
0.3203124999999124
 40
0.3203124999999124
 40
0.3281249999999037
 40
0.3281249999999037
 40
0.3437499999998941
 40
0.3593749999998847
 40
0.3593749999998847
 40
0.3671874999998834
 40
0.3671874999998834
 40
0.3749999999998821
 40
0.3749999999998821
 40
0.4062499999998942
 40
0.4062499999998942
 40
0.4218749999999001
 40
0.4218749999999001
 40
0.4296874999999051
 40
0.4296874999999051
 40
0.4374999999999098
 40
0.4374999999999098
 40
0.4687499999999326
 40
0.4687499999999326
 40
0.4765624999999393
 40
0.4765624999999393
 40
0.4843749999999459
 40
0.4843749999999459
 40
0.4999999999999602
 40
0.4999999999999602
 40
0.5312499999999892
 40
0.5312499999999892
 40
0.5390624999999961
 40
0.5390624999999961
 40
0.5468750000000032
 40
0.5468750000000032
 40
0.5625000000000171
 40
0.5781250000000308
 40
0.5781250000000308
 40
0.5859375000000377
 40
0.5859375000000377
 40
0.5937500000000446
 40
0.5937500000000446
 40
0.6250000000000679
 40
0.6250000000000679
 40
0.6406250000000826
 40
0.6406250000000826
 40
0.6484375000000866
 40
0.6484375000000866
 40
0.6562500000000907
 40
0.6562500000000907
 40
0.6875000000001145
 40
0.6875000000001145
 40
0.7031250000001222
 40
0.7031250000001222
 40
0.7187500000001298
 40
0.7187500000001298
 40
0.7500000000001364
 40
0.7500000000001364
 40
0.7578125000001358
 40
0.7578125000001358
 40
0.7656250000001351
 40
0.7656250000001351
 40
0.7812500000001342
 40
0.7968750000001332
 40
0.7968750000001332
 40
0.8125000000001321
 40
0.8125000000001321
 40
0.8437500000001218
 40
0.8437500000001218
 40
0.8515625000001209
 40
0.8515625000001209
 40
0.8593750000001199
 40
0.8593750000001199
 40
0.8750000000001117
 40
0.8750000000001117
 40
0.9062500000000948
 40
0.9062500000000948
 40
0.914062500000087
 40
0.914062500000087
 40
0.9218750000000792
 40
0.9218750000000792
 40
0.9375000000000634
 40
0.9531250000000476
 40
0.9531250000000476
 40
0.9609375000000399
 40
0.9609375000000399
 40
0.9687500000000321
 40
0.9687500000000321
 40
1.0
 40
1.0
 40
1.0
 40
1.0
 10
451.363358210799
 20
283.8293513132517
 30
0.0
 10
451.3650014977648
 20
283.9234951604801
 30
0.0
 10
451.375707108579
 20
284.0162002027668
 30
0.0
 10
451.405012465172
 20
284.1531343057516
 30
0.0
 10
451.4170040549126
 20
284.1984223803626
 30
0.0
 10
451.4384231751403
 20
284.2657987851931
 30
0.0
 10
451.4461358318423
 20
284.2881647899785
 30
0.0
 10
451.4627361762331
 20
284.332705402396
 30
0.0
 10
451.4715744465191
 20
284.354743680182
 30
0.0
 10
451.518275571062
 20
284.4634306348528
 30
0.0
 10
451.5637367232013
 20
284.54598060333
 30
0.0
 10
451.6440809958036
 20
284.6631435021333
 30
0.0
 10
451.6729013385645
 20
284.7010799711853
 30
0.0
 10
451.7193232037916
 20
284.7562259334805
 30
0.0
 10
451.7352698975581
 20
284.774238523883
 30
0.0
 10
451.767885298016
 20
284.8092921788447
 30
0.0
 10
451.784585539411
 20
284.8263710447556
 30
0.0
 10
451.8700253523892
 20
284.9095495741871
 30
0.0
 10
451.9445248189303
 20
284.9690657454067
 30
0.0
 10
452.0455093964624
 20
285.0344217165866
 30
0.0
 10
452.0661028771309
 20
285.0470368828871
 30
0.0
 10
452.1081024125371
 20
285.0713315022759
 30
0.0
 10
452.1293752448327
 20
285.0829321753433
 30
0.0
 10
452.1937708251339
 20
285.1159957051194
 30
0.0
 10
452.2813620597544
 20
285.1555662386914
 30
0.0
 10
452.3723489445711
 20
285.1862630020331
 30
0.0
 10
452.4418761510347
 20
285.2059173381733
 30
0.0
 10
452.4652667870536
 20
285.2119063941574
 30
0.0
 10
452.512485100251
 20
285.2227401283612
 30
0.0
 10
452.5363670944527
 20
285.2275941284222
 30
0.0
 10
452.6562587440153
 20
285.2488210276097
 30
0.0
 10
452.7523502725288
 20
285.2559672080753
 30
0.0
 10
452.8967456539501
 20
285.252433293987
 30
0.0
 10
452.9449207930388
 20
285.2488618049729
 30
0.0
 10
453.0172503790192
 20
285.2398128060536
 30
0.0
 10
453.0414208139316
 20
285.2361684129366
 30
0.0
 10
453.0892550485443
 20
285.2277197601399
 30
0.0
 10
453.1129748968417
 20
285.2229110351109
 30
0.0
 10
453.2306059447976
 20
285.1960004892247
 30
0.0
 10
453.3216412578183
 20
285.1653817371845
 30
0.0
 10
453.4315925834449
 20
285.1157599316551
 30
0.0
 10
453.453388915407
 20
285.1052629190978
 30
0.0
 10
453.4965861751003
 20
285.0831023993071
 30
0.0
 10
453.5178785621783
 20
285.0714921798935
 30
0.0
 10
453.5805210850808
 20
285.035283743842
 30
0.0
 10
453.6610443068412
 20
284.9831949648316
 30
0.0
 10
453.7357207625154
 20
284.9236993907861
 30
0.0
 10
453.7895291640851
 20
284.8763001439197
 30
0.0
 10
453.8070981552751
 20
284.8600366456777
 30
0.0
 10
453.8414927522313
 20
284.8265720580664
 30
0.0
 10
453.8583599567616
 20
284.8093254636133
 30
0.0
 10
453.94026968694
 20
284.7212843443482
 30
0.0
 10
453.9976603021721
 20
284.6456792241216
 30
0.0
 10
454.0721187374483
 20
284.5249485516564
 30
0.0
 10
454.0949859910576
 20
284.4834752897002
 30
0.0
 10
454.1263052927329
 20
284.4193950177523
 30
0.0
 10
454.136263118838
 20
284.3976794072286
 30
0.0
 10
454.1549806156075
 20
284.3540633929647
 30
0.0
 10
454.1637645787788
 20
284.3321184148362
 30
0.0
 10
454.2048713964873
 20
284.2217260538516
 30
0.0
 10
454.2288320251724
 20
284.1312957163493
 30
0.0
 10
454.2478000573116
 20
284.0156864856556
 30
0.0
 10
454.2510397685756
 20
283.9924348712027
 30
0.0
 10
454.256396403317
 20
283.9456690934304
 30
0.0
 10
454.2585101964759
 20
283.9221460689263
 30
0.0
 10
454.2631063729705
 20
283.8519146771325
 30
0.0
 10
454.2638802458622
 20
283.8052994698928
 30
0.0
 10
454.2595412479185
 20
283.6660536879479
 30
0.0
 10
454.247829309302
 20
283.5740187474435
 30
0.0
 10
454.2219184595513
 20
283.4599771436768
 30
0.0
 10
454.2161571091035
 20
283.4371919728866
 30
0.0
 10
454.2036107959639
 20
283.3921843993377
 30
0.0
 10
454.1968148225391
 20
283.3699063722203
 30
0.0
 10
454.17488329
 20
283.3037373796546
 30
0.0
 10
454.1415315942666
 20
283.2172827876662
 30
0.0
 10
454.1000444219926
 20
283.1343145413792
 30
0.0
 10
454.0658209989521
 20
283.0734113568292
 30
0.0
 10
454.0538942617681
 20
283.0533311719054
 30
0.0
 10
454.0289815805169
 20
283.0136199584878
 30
0.0
 10
454.0159578782331
 20
282.9939365071402
 30
0.0
 10
453.9486730090156
 20
282.8974503881225
 30
0.0
 10
453.888049374381
 20
282.8263763342148
 30
0.0
 10
453.7870159700766
 20
282.728752997044
 30
0.0
 10
453.7516431797183
 20
282.6977205440222
 30
0.0
 10
453.6959386493516
 20
282.6535133521934
 30
0.0
 10
453.6769096688163
 20
282.6391549917818
 30
0.0
 10
453.6380200162652
 20
282.6113003008337
 30
0.0
 10
453.6182935044076
 20
282.5978986601122
 30
0.0
 10
453.5182720885759
 20
282.5334770004489
 30
0.0
 10
453.4338511766076
 20
282.4901401392486
 30
0.0
 10
453.3004945370369
 20
282.4375658667257
 30
0.0
 10
453.2548873011168
 20
282.422120126623
 30
0.0
 10
453.1613972680519
 20
282.3956507427731
 30
0.0
 10
453.1143444959866
 20
282.3848598656887
 30
0.0
 10
452.9722888438896
 20
282.3595996858638
 30
0.0
 10
452.8763972855879
 20
282.35217240965
 30
0.0
 10
452.7550015524953
 20
282.3550077035013
 30
0.0
 10
452.7305716978389
 20
282.356193589194
 30
0.0
 10
452.6820526694629
 20
282.3597778496022
 30
0.0
 10
452.6579400822149
 20
282.362172509333
 30
0.0
 10
452.5860336804773
 20
282.3711261764316
 30
0.0
 10
452.4913065476206
 20
282.3877742907916
 30
0.0
 10
452.3988282469875
 20
282.4136614503321
 30
0.0
 10
452.3074836792243
 20
282.4442167646621
 30
0.0
 10
452.2621990084961
 20
282.4619317484431
 30
0.0
 10
452.1309265532772
 20
282.5209646139003
 30
0.0
 10
452.0486338834843
 20
282.5683105456123
 30
0.0
 10
451.9520450892583
 20
282.6371764527545
 30
0.0
 10
451.9330441531336
 20
282.6514384228791
 30
0.0
 10
451.8956814837117
 20
282.6809507439723
 30
0.0
 10
451.8773030987711
 20
282.6962199874401
 30
0.0
 10
451.8236956901573
 20
282.7430287392975
 30
0.0
 10
451.7897959555056
 20
282.7757124394882
 30
0.0
 10
451.6933977696691
 20
282.878049693561
 30
0.0
 10
451.6361501778233
 20
282.9519489035036
 30
0.0
 10
451.5734486258683
 20
283.0515654118648
 30
0.0
 10
451.5614167025942
 20
283.0717595828136
 30
0.0
 10
451.5384502565371
 20
283.1125109439602
 30
0.0
 10
451.5274988542808
 20
283.1330948319272
 30
0.0
 10
451.4962125662457
 20
283.1954626138012
 30
0.0
 10
451.458671294983
 20
283.2802599789299
 30
0.0
 10
451.4293704158305
 20
283.3683169808315
 30
0.0
 10
451.4105339310858
 20
283.4356078952566
 30
0.0
 10
451.4047792220394
 20
283.4582465765976
 30
0.0
 10
451.3943379106875
 20
283.5039494378154
 30
0.0
 10
451.3896690070559
 20
283.526944693718
 30
0.0
 10
451.3691794025045
 20
283.6420688786392
 30
0.0
 10
451.361714923833
 20
283.7352074660231
 30
0.0
 10
451.3633582107988
 20
283.8293513132516
 30
0.0
  0
LINE
  5
1EC
330
1F
100
AcDbEntity
  8
SK4
100
AcDbLine
 10
210.904842
 20
288.907994
 30
0.0
 11
277.404842
 21
288.907994
 31
0.0
  0
LINE
  5
1ED
330
1F
100
AcDbEntity
  8
4
100
AcDbLine
 10
263.168717
 20
288.907994
 30
0.0
 11
463.607157
 21
288.907994
 31
0.0
  0
MTEXT
  5
1EE
330
1F
100
AcDbEntity
  8
SK6
100
AcDbMText
 10
304.314982
 20
248.747444
 30
0.0
 40
3.5
 41
0.0
 71
     7
 72
     5
  1
\W0.7147;804D-40-160-S32
  7
cesky
 73
     2
 44
0.8433729999999998
  0
MTEXT
  5
304
330
1F
100
AcDbEntity
  8
2
100
AcDbMText
 10
476.750998
 20
288.634957
 30
0.0
 40
3.5
 41
0.0
 71
     7
 72
     5
  1
\W0.7045;40
  7
cesky
 11
0.0000000000000001
 21
1.0
 31
0.0
 73
     2
 44
0.8433729999999998
  0
MTEXT
  5
305
330
1F
100
AcDbEntity
  8
2
100
AcDbMText
 10
476.750998
 20
281.897457
 30
0.0
 40
3.5
 41
0.0
 71
     7
 72
     5
  1
\W3.0115;\H2.63;%%c\H3.50;
  7
cesky
 11
0.0000000000000001
 21
1.0
 31
0.0
 73
     2
 44
0.8433729999999998
  0
LINE
  5
306
330
1F
100
AcDbEntity
  8
2
100
AcDbLine
 10
461.4048419999999
 20
308.907994
 30
0.0
 11
477.9384139999999
 21
308.907994
 31
0.0
  0
LINE
  5
307
330
1F
100
AcDbEntity
  8
2
100
AcDbLine
 10
476.9384139999999
 20
308.907994
 30
0.0
 11
476.9384139999999
 21
281.739957
 31
0.0
  0
SOLID
  5
308
330
1F
100
AcDbEntity
  8
2
100
AcDbTrace
 10
476.9384139999999
 20
308.907994
 30
0.0
 11
477.5555589999999
 21
305.407996
 31
0.0
 12
476.32127
 22
305.407991
 32
0.0
 13
476.32127
 23
305.407991
 33
0.0
  0
MTEXT
  5
309
330
1F
100
AcDbEntity
  8
2
100
AcDbMText
 10
363.827842
 20
333.821465
 30
0.0
 40
3.5
 41
0.0
 71
     7
 72
     5
  1
\W0.7809;185
  7
cesky
 73
     2
 44
0.8433729999999998
  0
LINE
  5
30A
330
1F
100
AcDbEntity
  8
2
100
AcDbLine
 10
459.404842
 20
308.907994
 30
0.0
 11
459.404842
 21
334.9472990000001
 31
0.0
  0
LINE
  5
30B
330
1F
100
AcDbEntity
  8
2
100
AcDbLine
 10
274.404842
 20
289.907567
 30
0.0
 11
274.404842
 21
334.9472990000001
 31
0.0
  0
LINE
  5
30C
330
1F
100
AcDbEntity
  8
2
100
AcDbLine
 10
459.404842
 20
333.947299
 30
0.0
 11
274.404842
 21
333.947299
 31
0.0
  0
SOLID
  5
30D
330
1F
100
AcDbEntity
  8
2
100
AcDbTrace
 10
459.404842
 20
333.947299
 30
0.0
 11
455.904844
 21
333.330154
 31
0.0
 12
455.90484
 22
334.5644430000001
 32
0.0
 13
455.90484
 23
334.5644430000001
 33
0.0
  0
SOLID
  5
30E
330
1F
100
AcDbEntity
  8
2
100
AcDbTrace
 10
274.404842
 20
333.947299
 30
0.0
 11
277.90484
 21
334.5644430000001
 31
0.0
 12
277.904844
 22
333.330154
 32
0.0
 13
277.904844
 23
333.330154
 33
0.0
  0
MTEXT
  5
30F
330
1F
100
AcDbEntity
  8
2
100
AcDbMText
 10
333.827842
 20
347.267008
 30
0.0
 40
3.5
 41
0.0
 71
     7
 72
     5
  1
\W0.7231;245
  7
cesky
 73
     2
 44
0.8433729999999998
  0
LINE
  5
310
330
1F
100
AcDbEntity
  8
2
100
AcDbLine
 10
459.404842
 20
310.907994
 30
0.0
 11
459.404842
 21
348.392842
 31
0.0
  0
LINE
  5
311
330
1F
100
AcDbEntity
  8
2
100
AcDbLine
 10
214.404842
 20
302.907994
 30
0.0
 11
214.404842
 21
348.392842
 31
0.0
  0
LINE
  5
312
330
1F
100
AcDbEntity
  8
2
100
AcDbLine
 10
459.404842
 20
347.392842
 30
0.0
 11
214.404842
 21
347.392842
 31
0.0
  0
SOLID
  5
313
330
1F
100
AcDbEntity
  8
2
100
AcDbTrace
 10
459.404842
 20
347.392842
 30
0.0
 11
455.904844
 21
346.775697
 31
0.0
 12
455.90484
 22
348.009986
 32
0.0
 13
455.90484
 23
348.009986
 33
0.0
  0
SOLID
  5
314
330
1F
100
AcDbEntity
  8
2
100
AcDbTrace
 10
214.404842
 20
347.392842
 30
0.0
 11
217.90484
 21
348.009986
 31
0.0
 12
217.904844
 22
346.775697
 32
0.0
 13
217.904844
 23
346.775697
 33
0.0
  0
MTEXT
  5
315
330
1F
100
AcDbEntity
  8
2
100
AcDbMText
 10
242.590342
 20
333.821465
 30
0.0
 40
3.5
 41
0.0
 71
     7
 72
     5
  1
\W0.7045;60
  7
cesky
 73
     2
 44
0.8433729999999998
  0
LINE
  5
316
330
1F
100
AcDbEntity
  8
2
100
AcDbLine
 10
274.404842
 20
288.907994
 30
0.0
 11
274.404842
 21
334.9472990000001
 31
0.0
  0
LINE
  5
317
330
1F
100
AcDbEntity
  8
2
100
AcDbLine
 10
214.404842
 20
302.907994
 30
0.0
 11
214.404842
 21
334.9472990000001
 31
0.0
  0
LINE
  5
318
330
1F
100
AcDbEntity
  8
2
100
AcDbLine
 10
274.404842
 20
333.947299
 30
0.0
 11
214.404842
 21
333.947299
 31
0.0
  0
SOLID
  5
319
330
1F
100
AcDbEntity
  8
2
100
AcDbTrace
 10
274.404842
 20
333.947299
 30
0.0
 11
270.904844
 21
333.330154
 31
0.0
 12
270.90484
 22
334.5644430000001
 32
0.0
 13
270.90484
 23
334.5644430000001
 33
0.0
  0
SOLID
  5
31A
330
1F
100
AcDbEntity
  8
2
100
AcDbTrace
 10
214.404842
 20
333.947299
 30
0.0
 11
217.90484
 21
334.5644430000001
 31
0.0
 12
217.904844
 22
333.330154
 32
0.0
 13
217.904844
 23
333.330154
 33
0.0
  0
MTEXT
  5
31B
330
1F
100
AcDbEntity
  8
2
100
AcDbMText
 10
368.056871
 20
319.9926
 30
0.0
 40
3.5
 41
0.0
 71
     7
 72
     5
  1
\W0.9110;171,5
  7
cesky
 73
     2
 44
0.8433729999999998
  0
LINE
  5
31C
330
1F
100
AcDbEntity
  8
2
100
AcDbLine
 10
459.404842
 20
310.907994
 30
0.0
 11
459.404842
 21
321.118433
 31
0.0
  0
LINE
  5
31D
330
1F
100
AcDbEntity
  8
2
100
AcDbLine
 10
287.912901
 20
308.737917
 30
0.0
 11
287.912901
 21
321.118433
 31
0.0
  0
LINE
  5
31E
330
1F
100
AcDbEntity
  8
2
100
AcDbLine
 10
459.404842
 20
320.118433
 30
0.0
 11
287.912901
 21
320.118433
 31
0.0
  0
SOLID
  5
31F
330
1F
100
AcDbEntity
  8
2
100
AcDbTrace
 10
459.404842
 20
320.118433
 30
0.0
 11
455.904844
 21
319.501288
 31
0.0
 12
455.90484
 22
320.735577
 32
0.0
 13
455.90484
 23
320.735577
 33
0.0
  0
SOLID
  5
320
330
1F
100
AcDbEntity
  8
2
100
AcDbTrace
 10
287.912901
 20
320.118433
 30
0.0
 11
291.412898
 21
320.735577
 31
0.0
 12
291.412903
 22
319.501288
 32
0.0
 13
291.412903
 23
319.501288
 33
0.0
  0
MTEXT
  5
321
330
1F
100
AcDbEntity
  8
SK2
100
AcDbMText
 10
204.480913
 20
290.434244
 30
0.0
 40
3.5
 41
0.0
 71
     7
 72
     5
  1
\W0.7045;32
  7
cesky
 11
0.0000000000000001
 21
1.0
 31
0.0
 73
     2
 44
0.8433729999999998
  0
MTEXT
  5
322
330
1F
100
AcDbEntity
  8
SK2
100
AcDbMText
 10
204.480913
 20
283.696744
 30
0.0
 40
3.5
 41
0.0
 71
     7
 72
     5
  1
\W3.0115;\H2.63;%%c\H3.50;
  7
cesky
 11
0.0000000000000001
 21
1.0
 31
0.0
 73
     2
 44
0.8433729999999998
  0
LINE
  5
323
330
1F
100
AcDbEntity
  8
SK2
100
AcDbLine
 10
216.404842
 20
304.907994
 30
0.0
 11
203.66833
 21
304.907994
 31
0.0
  0
LINE
  5
324
330
1F
100
AcDbEntity
  8
SK2
100
AcDbLine
 10
216.404842
 20
272.907994
 30
0.0
 11
203.66833
 21
272.907994
 31
0.0
  0
LINE
  5
325
330
1F
100
AcDbEntity
  8
SK2
100
AcDbLine
 10
204.66833
 20
304.907994
 30
0.0
 11
204.66833
 21
272.907994
 31
0.0
  0
SOLID
  5
326
330
1F
100
AcDbEntity
  8
SK2
100
AcDbTrace
 10
204.66833
 20
304.907994
 30
0.0
 11
205.285474
 21
301.407996
 31
0.0
 12
204.051185
 22
301.407991
 32
0.0
 13
204.051185
 23
301.407991
 33
0.0
  0
SOLID
  5
327
330
1F
100
AcDbEntity
  8
SK2
100
AcDbTrace
 10
204.66833
 20
272.907994
 30
0.0
 11
204.051185
 21
276.407991
 31
0.0
 12
205.285474
 22
276.407996
 32
0.0
 13
205.285474
 23
276.407996
 33
0.0
  0
MTEXT
  5
328
330
1F
100
AcDbEntity
  8
SK2
100
AcDbMText
 10
191.916868
 20
290.434244
 30
0.0
 40
3.5
 41
0.0
 71
     7
 72
     5
  1
\W0.7045;42
  7
cesky
 11
0.0000000000000001
 21
1.0
 31
0.0
 73
     2
 44
0.8433729999999998
  0
MTEXT
  5
329
330
1F
100
AcDbEntity
  8
SK2
100
AcDbMText
 10
191.916868
 20
283.696744
 30
0.0
 40
3.5
 41
0.0
 71
     7
 72
     5
  1
\W3.0115;\H2.63;%%c\H3.50;
  7
cesky
 11
0.0000000000000001
 21
1.0
 31
0.0
 73
     2
 44
0.8433729999999998
  0
LINE
  5
32A
330
1F
100
AcDbEntity
  8
SK2
100
AcDbLine
 10
274.904842
 20
309.907994
 30
0.0
 11
191.104285
 21
309.907994
 31
0.0
  0
LINE
  5
32B
330
1F
100
AcDbEntity
  8
SK2
100
AcDbLine
 10
274.904842
 20
267.907994
 30
0.0
 11
191.104285
 21
267.907994
 31
0.0
  0
LINE
  5
32C
330
1F
100
AcDbEntity
  8
SK2
100
AcDbLine
 10
192.104285
 20
309.907994
 30
0.0
 11
192.104285
 21
267.907994
 31
0.0
  0
SOLID
  5
32D
330
1F
100
AcDbEntity
  8
SK2
100
AcDbTrace
 10
192.104285
 20
309.907994
 30
0.0
 11
192.721429
 21
306.407996
 31
0.0
 12
191.48714
 22
306.407991
 32
0.0
 13
191.48714
 23
306.407991
 33
0.0
  0
SOLID
  5
32E
330
1F
100
AcDbEntity
  8
SK2
100
AcDbTrace
 10
192.104285
 20
267.907994
 30
0.0
 11
191.48714
 21
271.4079910000001
 31
0.0
 12
192.721429
 22
271.407996
 32
0.0
 13
192.721429
 23
271.407996
 33
0.0
  0
LINE
  5
32F
330
1F
100
AcDbEntity
  8
CUT
100
AcDbLine
 10
458.9284136248276
 20
299.1856563758527
 30
0.0
 11
459.2532685852162
 21
298.6450339436931
 31
0.0
  0
LINE
  5
330
330
1F
100
AcDbEntity
  8
CUT
100
AcDbLine
 10
458.606553292615
 20
308.1584802389063
 30
0.0
 11
458.9284136248276
 21
299.1856563758527
 31
0.0
  0
LINE
  5
332
330
1F
100
AcDbEntity
  8
CUT
100
AcDbLine
 10
446.6647256653423
 20
308.4982370231553
 30
0.0
 11
457.8029048644207
 21
308.9050794055566
 31
0.0
  0
LINE
  5
334
330
1F
100
AcDbEntity
  8
CUT
100
AcDbLine
 10
459.2532685852162
 20
298.6450339436931
 30
0.0
 11
459.4048419452957
 21
289.9656265947038
 31
0.0
  0
LINE
  5
335
330
1F
100
AcDbEntity
  8
CUT
100
AcDbLine
 10
459.404842
 20
289.965627
 30
0.0
 11
459.404842
 21
288.907994
 31
0.0
  0
LINE
  5
336
330
1F
100
AcDbEntity
  8
CUT
100
AcDbLine
 10
459.404842
 20
288.907994
 30
0.0
 11
445.916608
 21
288.907994
 31
0.0
  0
LINE
  5
337
330
1F
100
AcDbEntity
  8
CUT
100
AcDbLine
 10
445.916608
 20
288.907994
 30
0.0
 11
445.916608
 21
307.694592
 31
0.0
  0
LINE
  5
338
330
1F
100
AcDbEntity
  8
CUT
100
AcDbLine
 10
457.8029048644205
 20
308.9050794055566
 30
0.0
 11
457.8029048644205
 21
308.9050794055566
 31
0.0
  0
ARC
  5
339
330
1F
100
AcDbEntity
  8
CUT
100
AcDbCircle
 10
457.8265887295041
 20
308.1247449490408
 30
0.0
 40
0.7806937872758926
100
AcDbArc
 50
2.476632715365998
 51
91.73844568257807
  0
LINE
  5
33A
330
1F
100
AcDbEntity
  8
CUT
100
AcDbLine
 10
445.9166080137983
 20
307.6945915302146
 30
0.0
 11
445.9166080137983
 21
307.6945915302146
 31
0.0
  0
ARC
  5
33B
330
1F
100
AcDbEntity
  8
CUT
100
AcDbCircle
 10
446.6984505363281
 20
307.7168063721597
 30
0.0
 40
0.7821580589871328
100
AcDbArc
 50
92.47122942019393
 51
181.6275327703375
  0
ENDSEC
  0
SECTION
  2
OBJECTS
  0
DICTIONARY
  5
C
330
0
100
AcDbDictionary
281
     1
  3
ACAD_CIP_PREVIOUS_PRODUCT_INFO
350
301
  3
ACAD_COLOR
350
2FC
  3
ACAD_DETAILVIEWSTYLE
350
2F8
  3
ACAD_GROUP
350
D
  3
ACAD_LAYOUT
350
1A
  3
ACAD_MATERIAL
350
43
  3
ACAD_MLEADERSTYLE
350
6B
  3
ACAD_MLINESTYLE
350
17
  3
ACAD_PLOTSETTINGS
350
19
  3
ACAD_PLOTSTYLENAME
350
E
  3
ACAD_SCALELIST
350
47
  3
ACAD_SECTIONVIEWSTYLE
350
2F9
  3
ACAD_TABLESTYLE
350
69
  3
ACAD_VISUALSTYLE
350
2A
  3
ACDB_RECOMPOSE_DATA
350
367
  3
AcDbVariableDictionary
350
2B5
  0
DICTIONARY
  5
34A
330
10
100
AcDbDictionary
280
     1
281
     1
  3
ADSK_XREC_LAYER_RECONCILED
360
34B
  0
DICTIONARY
  5
34C
330
33C
100
AcDbDictionary
280
     1
281
     1
  3
ADSK_XREC_LAYER_RECONCILED
360
34D
  0
DICTIONARY
  5
34E
330
33D
100
AcDbDictionary
280
     1
281
     1
  3
ADSK_XREC_LAYER_RECONCILED
360
34F
  0
DICTIONARY
  5
350
330
33E
100
AcDbDictionary
280
     1
281
     1
  3
ADSK_XREC_LAYER_RECONCILED
360
351
  0
DICTIONARY
  5
352
330
340
100
AcDbDictionary
280
     1
281
     1
  3
ADSK_XREC_LAYER_RECONCILED
360
353
  0
DICTIONARY
  5
354
330
341
100
AcDbDictionary
280
     1
281
     1
  3
ADSK_XREC_LAYER_RECONCILED
360
355
  0
DICTIONARY
  5
356
330
343
100
AcDbDictionary
280
     1
281
     1
  3
ADSK_XREC_LAYER_RECONCILED
360
357
  0
DICTIONARY
  5
358
330
344
100
AcDbDictionary
280
     1
281
     1
  3
ADSK_XREC_LAYER_RECONCILED
360
359
  0
DICTIONARY
  5
35A
330
345
100
AcDbDictionary
280
     1
281
     1
  3
ADSK_XREC_LAYER_RECONCILED
360
35B
  0
DICTIONARY
  5
35C
330
346
100
AcDbDictionary
280
     1
281
     1
  3
ADSK_XREC_LAYER_RECONCILED
360
35D
  0
DICTIONARY
  5
35E
330
347
100
AcDbDictionary
280
     1
281
     1
  3
ADSK_XREC_LAYER_RECONCILED
360
35F
  0
DICTIONARY
  5
360
330
348
100
AcDbDictionary
280
     1
281
     1
  3
ADSK_XREC_LAYER_RECONCILED
360
361
  0
DICTIONARY
  5
302
330
1F
100
AcDbDictionary
280
     1
281
     1
  3
ACAD_SORTENTS
360
303
  0
XRECORD
  5
301
102
{ACAD_REACTORS
330
C
102
}
330
C
100
AcDbXrecord
280
     1
300
ACD
300
2019
300
87084ACD_2019_0F
  0
DICTIONARY
  5
2FC
102
{ACAD_REACTORS
330
C
102
}
330
C
100
AcDbDictionary
281
     1
  0
DICTIONARY
  5
2F8
102
{ACAD_REACTORS
330
C
102
}
330
C
100
AcDbDictionary
281
     1
  3
Metric50
350
2FE
  0
DICTIONARY
  5
D
102
{ACAD_REACTORS
330
C
102
}
330
C
100
AcDbDictionary
281
     1
  3
NULOVY_BOD
350
349
  0
DICTIONARY
  5
1A
102
{ACAD_REACTORS
330
C
102
}
330
C
100
AcDbDictionary
281
     1
  3
Layout1
350
1E
  3
Layout2
350
26
  3
Model
350
22
  0
DICTIONARY
  5
43
102
{ACAD_REACTORS
330
C
102
}
330
C
100
AcDbDictionary
281
     1
  3
ByBlock
350
45
  3
ByLayer
350
44
  3
Global
350
46
  0
DICTIONARY
  5
6B
102
{ACAD_REACTORS
330
C
102
}
330
C
100
AcDbDictionary
281
     1
  3
Standard
350
6C
  0
DICTIONARY
  5
17
102
{ACAD_REACTORS
330
C
102
}
330
C
100
AcDbDictionary
281
     1
  3
Standard
350
18
  0
DICTIONARY
  5
19
102
{ACAD_REACTORS
330
C
102
}
330
C
100
AcDbDictionary
281
     1
  0
ACDBDICTIONARYWDFLT
  5
E
102
{ACAD_REACTORS
330
C
102
}
330
C
100
AcDbDictionary
281
     1
  3
Normal
350
F
100
AcDbDictionaryWithDefault
340
F
  0
DICTIONARY
  5
47
102
{ACAD_REACTORS
330
C
102
}
330
C
100
AcDbDictionary
281
     1
  3
A0
350
48
  3
A1
350
49
  3
A2
350
4A
  3
A3
350
4B
  3
A4
350
4C
  3
A5
350
4D
  3
A6
350
4E
  3
A7
350
4F
  3
A8
350
50
  3
A9
350
51
  3
B0
350
52
  3
B1
350
53
  3
B2
350
54
  3
B3
350
55
  3
B4
350
56
  3
B5
350
57
  3
B6
350
58
  3
B7
350
59
  3
B8
350
5A
  3
B9
350
5B
  3
C0
350
5C
  3
C1
350
5D
  3
C2
350
5E
  3
C3
350
5F
  3
C4
350
60
  3
C5
350
61
  3
C6
350
62
  3
C7
350
63
  3
C8
350
64
  3
C9
350
65
  3
D0
350
66
  3
D1
350
67
  3
D2
350
68
  0
DICTIONARY
  5
2F9
102
{ACAD_REACTORS
330
C
102
}
330
C
100
AcDbDictionary
281
     1
  3
Metric50
350
2FD
  0
DICTIONARY
  5
69
102
{ACAD_REACTORS
330
C
102
}
330
C
100
AcDbDictionary
281
     1
  3
Standard
350
6A
  0
DICTIONARY
  5
2A
102
{ACAD_REACTORS
330
C
102
}
330
C
100
AcDbDictionary
281
     1
  3
2dWireframe
350
2F
  3
Basic
350
32
  3
Brighten
350
36
  3
ColorChange
350
3A
  3
Conceptual
350
34
  3
Dim
350
35
  3
EdgeColorOff
350
3D
  3
Facepattern
350
39
  3
Flat
350
2B
  3
FlatWithEdges
350
2C
  3
Gouraud
350
2D
  3
GouraudWithEdges
350
2E
  3
Hidden
350
31
  3
JitterOff
350
3B
  3
Linepattern
350
38
  3
OverhangOff
350
3C
  3
Realistic
350
33
  3
Shaded
350
42
  3
Shaded with edges
350
41
  3
Shades of Gray
350
3E
  3
Sketchy
350
3F
  3
Thicken
350
37
  3
Wireframe
350
30
  3
X-Ray
350
40
  0
XRECORD
  5
367
102
{ACAD_REACTORS
330
C
102
}
330
C
100
AcDbXrecord
280
     1
 90
        1
330
6A
  0
DICTIONARY
  5
2B5
102
{ACAD_REACTORS
330
C
102
}
330
C
100
AcDbDictionary
281
     1
  3
CANNOSCALE
350
2B6
  3
CMLEADERSTYLE
350
2F7
  3
CTABLESTYLE
350
2F6
  3
CVIEWDETAILSTYLE
350
362
  3
CVIEWSECTIONSTYLE
350
363
  3
MSLTSCALE
350
2B7
  3
XCLIPFRAME
350
364
  0
XRECORD
  5
34B
102
{ACAD_REACTORS
330
34A
102
}
330
34A
100
AcDbXrecord
280
     1
290
     1
  0
XRECORD
  5
34D
102
{ACAD_REACTORS
330
34C
102
}
330
34C
100
AcDbXrecord
280
     1
290
     1
  0
XRECORD
  5
34F
102
{ACAD_REACTORS
330
34E
102
}
330
34E
100
AcDbXrecord
280
     1
290
     1
  0
XRECORD
  5
351
102
{ACAD_REACTORS
330
350
102
}
330
350
100
AcDbXrecord
280
     1
290
     1
  0
XRECORD
  5
353
102
{ACAD_REACTORS
330
352
102
}
330
352
100
AcDbXrecord
280
     1
290
     1
  0
XRECORD
  5
355
102
{ACAD_REACTORS
330
354
102
}
330
354
100
AcDbXrecord
280
     1
290
     1
  0
XRECORD
  5
357
102
{ACAD_REACTORS
330
356
102
}
330
356
100
AcDbXrecord
280
     1
290
     1
  0
XRECORD
  5
359
102
{ACAD_REACTORS
330
358
102
}
330
358
100
AcDbXrecord
280
     1
290
     1
  0
XRECORD
  5
35B
102
{ACAD_REACTORS
330
35A
102
}
330
35A
100
AcDbXrecord
280
     1
290
     1
  0
XRECORD
  5
35D
102
{ACAD_REACTORS
330
35C
102
}
330
35C
100
AcDbXrecord
280
     1
290
     1
  0
XRECORD
  5
35F
102
{ACAD_REACTORS
330
35E
102
}
330
35E
100
AcDbXrecord
280
     1
290
     1
  0
XRECORD
  5
361
102
{ACAD_REACTORS
330
360
102
}
330
360
100
AcDbXrecord
280
     1
290
     1
  0
SORTENTSTABLE
  5
303
102
{ACAD_REACTORS
330
302
102
}
330
302
100
AcDbSortentsTable
330
1F
331
304
  5
20F
331
305
  5
228
331
306
  5
304
331
307
  5
305
331
308
  5
306
331
309
  5
317
331
30A
  5
318
331
30B
  5
319
331
30C
  5
31A
331
30D
  5
31B
331
30E
  5
31C
331
30F
  5
31D
331
310
  5
31E
331
311
  5
31F
331
312
  5
320
331
313
  5
321
331
314
  5
322
331
315
  5
323
331
316
  5
324
331
317
  5
325
331
318
  5
326
331
319
  5
327
331
31A
  5
328
331
31B
  5
329
331
31C
  5
32A
331
31D
  5
32B
331
31E
  5
32C
331
31F
  5
32D
331
320
  5
32E
331
321
  5
309
331
322
  5
30A
331
323
  5
30B
331
324
  5
30C
331
325
  5
30D
331
326
  5
30E
331
327
  5
30F
331
328
  5
310
331
329
  5
311
331
32A
  5
312
331
32B
  5
313
331
32C
  5
314
331
32D
  5
315
331
32E
  5
316
331
332
  5
335
331
334
  5
338
331
335
  5
339
331
336
  5
33A
331
337
  5
33B
331
338
  5
332
331
339
  5
334
331
33A
  5
336
331
33B
  5
337
  0
ACDBDETAILVIEWSTYLE
  5
2FE
102
{ACAD_XDICTIONARY
360
39B
102
}
102
{ACAD_REACTORS
330
2F8
102
}
330
2F8
100
AcDbModelDocViewStyle
 70
     0
  3
Metric50
290
     0
100
AcDbDetailViewStyle
 70
     0
 71
     0
 90
        3
 71
     1
340
11
 62
   256
 40
5.0
340
0
 62
   256
 40
5.0
300

 40
0.0
280
     1
 71
     2
340
16
 90
       25
 62
   256
 71
     3
340
11
 62
   256
 40
5.0
 90
        0
 40
15.0
 90
        1
300
%<\AcVar ViewDetailId>% (%<\AcVar ViewScale \f "%sn">%)
 71
     4
340
16
 90
       25
 62
   256
340
16
 90
       25
 62
   256
280
     0
  0
GROUP
  5
349
102
{ACAD_REACTORS
330
D
102
}
330
D
100
AcDbGroup
300

 70
     0
 71
     1
340
73
  0
LAYOUT
  5
1E
102
{ACAD_REACTORS
330
1A
102
}
330
1A
100
AcDbPlotSettings
  1

  2
none_device
  4

  6

 40
0.0
 41
0.0
 42
0.0
 43
0.0
 44
0.0
 45
0.0
 46
0.0
 47
0.0
 48
0.0
 49
0.0
140
0.0
141
0.0
142
1.0
143
1.0
 70
   688
 72
     0
 73
     0
 74
     5
  7

 75
    16
147
1.0
 76
     0
 77
     2
 78
   300
148
0.0
149
0.0
100
AcDbLayout
  1
Layout1
 70
     1
 71
     1
 10
-0.5
 20
-0.5
 11
5.0
 21
5.0
 12
0.0
 22
0.0
 32
0.0
 14
-0.5
 24
-0.5
 34
-0.5
 15
5.0
 25
5.0
 35
5.0
146
0.0
 13
0.0
 23
0.0
 33
0.0
 16
1.0
 26
0.0
 36
0.0
 17
0.0
 27
1.0
 37
0.0
 76
     0
330
1B
  0
LAYOUT
  5
26
102
{ACAD_REACTORS
330
1A
102
}
330
1A
100
AcDbPlotSettings
  1

  2
none_device
  4

  6

 40
0.0
 41
0.0
 42
0.0
 43
0.0
 44
0.0
 45
0.0
 46
0.0
 47
0.0
 48
0.0
 49
0.0
140
0.0
141
0.0
142
1.0
143
1.0
 70
   688
 72
     0
 73
     0
 74
     5
  7

 75
    16
147
1.0
 76
     0
 77
     2
 78
   300
148
0.0
149
0.0
100
AcDbLayout
  1
Layout2
 70
     1
 71
     2
 10
0.0
 20
0.0
 11
0.0
 21
0.0
 12
0.0
 22
0.0
 32
0.0
 14
0.0
 24
0.0
 34
0.0
 15
0.0
 25
0.0
 35
0.0
146
0.0
 13
0.0
 23
0.0
 33
0.0
 16
1.0
 26
0.0
 36
0.0
 17
0.0
 27
1.0
 37
0.0
 76
     0
330
23
  0
LAYOUT
  5
22
102
{ACAD_REACTORS
330
1A
102
}
330
1A
100
AcDbPlotSettings
  1

  2
none_device
  4
Letter_(8.50_x_11.00_Inches)
  6

 40
6.349999999999999
 41
6.349999999999999
 42
6.350005
 43
6.350005
 44
215.9
 45
279.4
 46
0.0
 47
0.0
 48
0.0
 49
0.0
140
0.0
141
0.0
142
1.0
143
1.0
 70
  1712
 72
     0
 73
     0
 74
     0
  7

 75
     0
147
1.0
 76
     0
 77
     2
 78
   300
148
0.0
149
0.0
100
AcDbLayout
  1
Model
 70
     1
 71
     0
 10
-0.5
 20
-0.5
 11
5.0
 21
5.0
 12
0.0
 22
0.0
 32
0.0
 14
-0.5
 24
-0.5
 34
-0.5
 15
5.0
 25
5.0
 35
5.0
146
0.0
 13
0.0
 23
0.0
 33
0.0
 16
1.0
 26
0.0
 36
0.0
 17
0.0
 27
1.0
 37
0.0
 76
     0
330
1F
331
29
  0
MATERIAL
  5
45
102
{ACAD_XDICTIONARY
360
2EB
102
}
102
{ACAD_REACTORS
330
43
102
}
330
43
100
AcDbMaterial
  1
ByBlock
  0
MATERIAL
  5
44
102
{ACAD_XDICTIONARY
360
2E9
102
}
102
{ACAD_REACTORS
330
43
102
}
330
43
100
AcDbMaterial
  1
ByLayer
  0
MATERIAL
  5
46
102
{ACAD_XDICTIONARY
360
2ED
102
}
102
{ACAD_REACTORS
330
43
102
}
330
43
100
AcDbMaterial
  1
Global
  0
MLEADERSTYLE
  5
6C
102
{ACAD_REACTORS
330
6B
102
}
330
6B
100
AcDbMLeaderStyle
170
     2
171
     1
172
     0
 90
        2
 40
0.0
 41
0.0
173
     1
 91
-1056964608
340
14
 92
       -2
290
     1
 42
0.09
291
     1
 43
0.36
  3
Standard
 44
0.18
300

342
11
174
     1
178
     6
175
     1
176
     0
 93
-1056964608
 45
0.18
292
     0
297
     0
 46
0.18
 94
-1056964608
 47
1.0
 49
1.0
140
1.0
293
     1
141
0.0
294
     1
177
     0
142
1.0
295
     0
296
     0
143
0.125
1001
ACAD_MLEADERVER
1070
     2
  0
MLINESTYLE
  5
18
102
{ACAD_REACTORS
330
17
102
}
330
17
100
AcDbMlineStyle
  2
STANDARD
 70
     0
  3

 62
   256
 51
90.0
 52
90.0
 71
     2
 49
0.5
 62
   256
  6
BYLAYER
 49
-0.5
 62
   256
  6
BYLAYER
  0
ACDBPLACEHOLDER
  5
F
102
{ACAD_REACTORS
330
E
102
}
330
E
  0
SCALE
  5
48
102
{ACAD_REACTORS
330
47
102
}
330
47
100
AcDbScale
 70
     0
300
1:1
140
1.0
141
1.0
290
     1
  0
SCALE
  5
49
102
{ACAD_REACTORS
330
47
102
}
330
47
100
AcDbScale
 70
     0
300
1:2
140
1.0
141
2.0
290
     0
  0
SCALE
  5
4A
102
{ACAD_REACTORS
330
47
102
}
330
47
100
AcDbScale
 70
     0
300
1:4
140
1.0
141
4.0
290
     0
  0
SCALE
  5
4B
102
{ACAD_REACTORS
330
47
102
}
330
47
100
AcDbScale
 70
     0
300
1:5
140
1.0
141
5.0
290
     0
  0
SCALE
  5
4C
102
{ACAD_REACTORS
330
47
102
}
330
47
100
AcDbScale
 70
     0
300
1:8
140
1.0
141
8.0
290
     0
  0
SCALE
  5
4D
102
{ACAD_REACTORS
330
47
102
}
330
47
100
AcDbScale
 70
     0
300
1:10
140
1.0
141
10.0
290
     0
  0
SCALE
  5
4E
102
{ACAD_REACTORS
330
47
102
}
330
47
100
AcDbScale
 70
     0
300
1:16
140
1.0
141
16.0
290
     0
  0
SCALE
  5
4F
102
{ACAD_REACTORS
330
47
102
}
330
47
100
AcDbScale
 70
     0
300
1:20
140
1.0
141
20.0
290
     0
  0
SCALE
  5
50
102
{ACAD_REACTORS
330
47
102
}
330
47
100
AcDbScale
 70
     0
300
1:30
140
1.0
141
30.0
290
     0
  0
SCALE
  5
51
102
{ACAD_REACTORS
330
47
102
}
330
47
100
AcDbScale
 70
     0
300
1:40
140
1.0
141
40.0
290
     0
  0
SCALE
  5
52
102
{ACAD_REACTORS
330
47
102
}
330
47
100
AcDbScale
 70
     0
300
1:50
140
1.0
141
50.0
290
     0
  0
SCALE
  5
53
102
{ACAD_REACTORS
330
47
102
}
330
47
100
AcDbScale
 70
     0
300
1:100
140
1.0
141
100.0
290
     0
  0
SCALE
  5
54
102
{ACAD_REACTORS
330
47
102
}
330
47
100
AcDbScale
 70
     0
300
2:1
140
2.0
141
1.0
290
     0
  0
SCALE
  5
55
102
{ACAD_REACTORS
330
47
102
}
330
47
100
AcDbScale
 70
     0
300
4:1
140
4.0
141
1.0
290
     0
  0
SCALE
  5
56
102
{ACAD_REACTORS
330
47
102
}
330
47
100
AcDbScale
 70
     0
300
8:1
140
8.0
141
1.0
290
     0
  0
SCALE
  5
57
102
{ACAD_REACTORS
330
47
102
}
330
47
100
AcDbScale
 70
     0
300
10:1
140
10.0
141
1.0
290
     0
  0
SCALE
  5
58
102
{ACAD_REACTORS
330
47
102
}
330
47
100
AcDbScale
 70
     0
300
100:1
140
100.0
141
1.0
290
     0
  0
SCALE
  5
59
102
{ACAD_REACTORS
330
47
102
}
330
47
100
AcDbScale
 70
     0
300
1/128" = 1'-0"
140
0.007812
141
12.0
290
     0
  0
SCALE
  5
5A
102
{ACAD_REACTORS
330
47
102
}
330
47
100
AcDbScale
 70
     0
300
1/64" = 1'-0"
140
0.015625
141
12.0
290
     0
  0
SCALE
  5
5B
102
{ACAD_REACTORS
330
47
102
}
330
47
100
AcDbScale
 70
     0
300
1/32" = 1'-0"
140
0.03125
141
12.0
290
     0
  0
SCALE
  5
5C
102
{ACAD_REACTORS
330
47
102
}
330
47
100
AcDbScale
 70
     0
300
1/16" = 1'-0"
140
0.0625
141
12.0
290
     0
  0
SCALE
  5
5D
102
{ACAD_REACTORS
330
47
102
}
330
47
100
AcDbScale
 70
     0
300
3/32" = 1'-0"
140
0.09375
141
12.0
290
     0
  0
SCALE
  5
5E
102
{ACAD_REACTORS
330
47
102
}
330
47
100
AcDbScale
 70
     0
300
1/8" = 1'-0"
140
0.125
141
12.0
290
     0
  0
SCALE
  5
5F
102
{ACAD_REACTORS
330
47
102
}
330
47
100
AcDbScale
 70
     0
300
3/16" = 1'-0"
140
0.1875
141
12.0
290
     0
  0
SCALE
  5
60
102
{ACAD_REACTORS
330
47
102
}
330
47
100
AcDbScale
 70
     0
300
1/4" = 1'-0"
140
0.25
141
12.0
290
     0
  0
SCALE
  5
61
102
{ACAD_REACTORS
330
47
102
}
330
47
100
AcDbScale
 70
     0
300
3/8" = 1'-0"
140
0.375
141
12.0
290
     0
  0
SCALE
  5
62
102
{ACAD_REACTORS
330
47
102
}
330
47
100
AcDbScale
 70
     0
300
1/2" = 1'-0"
140
0.5
141
12.0
290
     0
  0
SCALE
  5
63
102
{ACAD_REACTORS
330
47
102
}
330
47
100
AcDbScale
 70
     0
300
3/4" = 1'-0"
140
0.75
141
12.0
290
     0
  0
SCALE
  5
64
102
{ACAD_REACTORS
330
47
102
}
330
47
100
AcDbScale
 70
     0
300
1" = 1'-0"
140
1.0
141
12.0
290
     0
  0
SCALE
  5
65
102
{ACAD_REACTORS
330
47
102
}
330
47
100
AcDbScale
 70
     0
300
1-1/2" = 1'-0"
140
1.5
141
12.0
290
     0
  0
SCALE
  5
66
102
{ACAD_REACTORS
330
47
102
}
330
47
100
AcDbScale
 70
     0
300
3" = 1'-0"
140
3.0
141
12.0
290
     0
  0
SCALE
  5
67
102
{ACAD_REACTORS
330
47
102
}
330
47
100
AcDbScale
 70
     0
300
6" = 1'-0"
140
6.0
141
12.0
290
     0
  0
SCALE
  5
68
102
{ACAD_REACTORS
330
47
102
}
330
47
100
AcDbScale
 70
     0
300
1'-0" = 1'-0"
140
12.0
141
12.0
290
     0
  0
ACDBSECTIONVIEWSTYLE
  5
2FD
102
{ACAD_XDICTIONARY
360
399
102
}
102
{ACAD_REACTORS
330
2F9
102
}
330
2F9
100
AcDbModelDocViewStyle
 70
     0
  3
Metric50
290
     0
100
AcDbSectionViewStyle
 70
     0
 71
     0
 90
      102
 71
     1
340
11
 62
   256
 40
5.0
340
0
340
0
 62
   256
 40
5.0
300
I, O, Q, S, X, Z
 40
10.0
 90
        0
 40
2.5
 90
        0
 71
     2
340
16
 90
       25
 62
   256
340
16
 90
       50
 62
   256
 40
5.0
 40
2.5
 40
5.0
 71
     3
340
11
 62
   256
 40
5.0
 90
        0
 40
15.0
 90
        1
300
%<\AcVar ViewSectionStartId>%-%<\AcVar ViewSectionEndId>% (%<\AcVar ViewScale \f "%sn">%)
 71
     4
 62
   256
 62
   257
300
ANSI31
 40
1.0
 90
        0
290
     0
290
     0
 90
        6
 40
0.0
 40
1.570796326794896
 40
0.2617993877991494
 40
1.308996938995747
 40
-0.2617993877991494
 40
1.832595714594046
  0
TABLESTYLE
  5
6A
102
{ACAD_XDICTIONARY
360
2EF
102
}
102
{ACAD_REACTORS
330
69
102
}
330
69
100
AcDbTableStyle
  3
Standard
 70
     0
 71
     0
 40
0.06
 41
0.06
280
     0
281
     0
  7
Standard
140
0.18
170
     2
 62
     0
 63
     7
283
     0
274
    -2
284
     1
 64
     0
275
    -2
285
     1
 65
     0
276
    -2
286
     1
 66
     0
277
    -2
287
     1
 67
     0
278
    -2
288
     1
 68
     0
279
    -2
289
     1
 69
     0
  7
Standard
140
0.25
170
     5
 62
     0
 63
     7
283
     0
274
    -2
284
     1
 64
     0
275
    -2
285
     1
 65
     0
276
    -2
286
     1
 66
     0
277
    -2
287
     1
 67
     0
278
    -2
288
     1
 68
     0
279
    -2
289
     1
 69
     0
  7
Standard
140
0.18
170
     5
 62
     0
 63
     7
283
     0
274
    -2
284
     1
 64
     0
275
    -2
285
     1
 65
     0
276
    -2
286
     1
 66
     0
277
    -2
287
     1
 67
     0
278
    -2
288
     1
 68
     0
279
    -2
289
     1
 69
     0
  0
VISUALSTYLE
  5
2F
102
{ACAD_XDICTIONARY
360
370
102
}
102
{ACAD_REACTORS
330
2A
102
}
330
2A
100
AcDbVisualStyle
  2

 70
     4
 71
     0
 72
     2
 73
     0
 90
        0
 40
-0.6
 41
-30.0
 62
     5
 63
     7
421
 16777215
 74
     1
 91
        4
 64
     7
 65
   257
 75
     1
175
     1
 42
1.0
 92
        0
 66
   257
 43
1.0
 76
     1
 77
     6
 78
     2
 67
     7
 79
     5
170
     0
171
     0
290
     0
174
     0
 93
        1
 44
0.0
173
     0
291
     0
 45
0.0
1001
ACAD
1000
AcDbSavedByObjectVersion
1070
     0
  0
VISUALSTYLE
  5
32
102
{ACAD_XDICTIONARY
360
376
102
}
102
{ACAD_REACTORS
330
2A
102
}
330
2A
100
AcDbVisualStyle
  2

 70
     7
 71
     1
 72
     0
 73
     1
 90
        0
 40
-0.6
 41
-30.0
 62
     5
 63
     7
421
 16777215
 74
     0
 91
        4
 64
     7
 65
   257
 75
     1
175
     1
 42
1.0
 92
        8
 66
     7
 43
1.0
 76
     1
 77
     6
 78
     2
 67
     7
 79
     5
170
     0
171
     0
290
     0
174
     0
 93
        1
 44
0.0
173
     0
291
     1
 45
0.0
1001
ACAD
1000
AcDbSavedByObjectVersion
1070
     0
  0
VISUALSTYLE
  5
36
102
{ACAD_XDICTIONARY
360
37E
102
}
102
{ACAD_REACTORS
330
2A
102
}
330
2A
100
AcDbVisualStyle
  2

 70
    12
 71
     2
 72
     2
 73
     0
 90
        0
 40
-0.6
 41
-30.0
 62
     5
 63
     7
421
 16777215
 74
     1
 91
        4
 64
     7
 65
   257
 75
     1
175
     1
 42
1.0
 92
        8
 66
     7
 43
1.0
 76
     1
 77
     6
 78
     2
 67
     7
 79
     5
170
     0
171
     0
290
     0
174
     0
 93
        1
 44
50.0
173
     0
291
     1
 45
0.0
1001
ACAD
1000
AcDbSavedByObjectVersion
1070
     0
  0
VISUALSTYLE
  5
3A
102
{ACAD_XDICTIONARY
360
386
102
}
102
{ACAD_REACTORS
330
2A
102
}
330
2A
100
AcDbVisualStyle
  2

 70
    16
 71
     2
 72
     2
 73
     3
 90
        0
 40
-0.6
 41
-30.0
 62
     5
 63
     8
421
  8421504
 74
     1
 91
        4
 64
     7
 65
   257
 75
     1
175
     1
 42
1.0
 92
        8
 66
     8
424
  8421504
 43
1.0
 76
     1
 77
     6
 78
     2
 67
     7
 79
     5
170
     0
171
     0
290
     0
174
     0
 93
        1
 44
0.0
173
     0
291
     1
 45
0.0
1001
ACAD
1000
AcDbSavedByObjectVersion
1070
     0
  0
VISUALSTYLE
  5
34
102
{ACAD_XDICTIONARY
360
37A
102
}
102
{ACAD_REACTORS
330
2A
102
}
330
2A
100
AcDbVisualStyle
  2

 70
     9
 71
     3
 72
     2
 73
     0
 90
        0
 40
-0.6
 41
-30.0
 62
     5
 63
     7
421
 16777215
 74
     2
 91
        2
 64
     7
 65
   257
 75
     1
175
     1
 42
179.0
 92
        8
 66
     7
 43
1.0
 76
     1
 77
     6
 78
     2
 67
     7
 79
     3
170
     0
171
     0
290
     0
174
     0
 93
        1
 44
0.0
173
     0
291
     0
 45
0.0
1001
ACAD
1000
AcDbSavedByObjectVersion
1070
     0
  0
VISUALSTYLE
  5
35
102
{ACAD_XDICTIONARY
360
37C
102
}
102
{ACAD_REACTORS
330
2A
102
}
330
2A
100
AcDbVisualStyle
  2

 70
    11
 71
     2
 72
     2
 73
     0
 90
        0
 40
-0.6
 41
-30.0
 62
     5
 63
     7
421
 16777215
 74
     1
 91
        4
 64
     7
 65
   257
 75
     1
175
     1
 42
1.0
 92
        8
 66
     7
 43
1.0
 76
     1
 77
     6
 78
     2
 67
     7
 79
     5
170
     0
171
     0
290
     0
174
     0
 93
        1
 44
-50.0
173
     0
291
     1
 45
0.0
1001
ACAD
1000
AcDbSavedByObjectVersion
1070
     0
  0
VISUALSTYLE
  5
3D
102
{ACAD_XDICTIONARY
360
38C
102
}
102
{ACAD_REACTORS
330
2A
102
}
330
2A
100
AcDbVisualStyle
  2

 70
    22
 71
     2
 72
     2
 73
     0
 90
        0
 40
-0.6
 41
-30.0
 62
     5
 63
     7
421
 16777215
 74
     1
 91
        4
 64
     7
 65
   257
 75
     1
175
     1
 42
1.0
 92
        8
 66
     7
 43
1.0
 76
     1
 77
     6
 78
     2
 67
     7
 79
     5
170
     0
171
     0
290
     0
174
     0
 93
        1
 44
0.0
173
     0
291
     1
 45
0.0
1001
ACAD
1000
AcDbSavedByObjectVersion
1070
     0
  0
VISUALSTYLE
  5
39
102
{ACAD_XDICTIONARY
360
384
102
}
102
{ACAD_REACTORS
330
2A
102
}
330
2A
100
AcDbVisualStyle
  2

 70
    15
 71
     2
 72
     2
 73
     0
 90
        0
 40
-0.6
 41
-30.0
 62
     5
 63
     7
421
 16777215
 74
     1
 91
        4
 64
     7
 65
   257
 75
     1
175
     1
 42
1.0
 92
        8
 66
     7
 43
1.0
 76
     1
 77
     6
 78
     2
 67
     7
 79
     5
170
     0
171
     0
290
     0
174
     0
 93
        1
 44
0.0
173
     0
291
     1
 45
0.0
1001
ACAD
1000
AcDbSavedByObjectVersion
1070
     0
  0
VISUALSTYLE
  5
2B
102
{ACAD_XDICTIONARY
360
368
102
}
102
{ACAD_REACTORS
330
2A
102
}
330
2A
100
AcDbVisualStyle
  2

 70
     0
 71
     2
 72
     1
 73
     1
 90
        2
 40
-0.6
 41
30.0
 62
     5
 63
     7
421
 16777215
 74
     0
 91
        0
 64
     7
 65
   257
 75
     1
175
     1
 42
1.0
 92
        8
 66
     7
 43
1.0
 76
     1
 77
     6
 78
     2
 67
     7
 79
     5
170
     0
171
     0
290
     0
174
     0
 93
       13
 44
0.0
173
     0
291
     1
 45
0.0
1001
ACAD
1000
AcDbSavedByObjectVersion
1070
     0
  0
VISUALSTYLE
  5
2C
102
{ACAD_XDICTIONARY
360
36A
102
}
102
{ACAD_REACTORS
330
2A
102
}
330
2A
100
AcDbVisualStyle
  2

 70
     1
 71
     2
 72
     1
 73
     1
 90
        2
 40
-0.6
 41
30.0
 62
     5
 63
     7
421
 16777215
 74
     1
 91
        0
 64
     7
 65
   257
 75
     1
175
     1
 42
1.0
 92
        0
 66
   257
 43
1.0
 76
     1
 77
     6
 78
     2
 67
     7
 79
     5
170
     0
171
     0
290
     0
174
     0
 93
       13
 44
0.0
173
     0
291
     1
 45
0.0
1001
ACAD
1000
AcDbSavedByObjectVersion
1070
     0
  0
VISUALSTYLE
  5
2D
102
{ACAD_XDICTIONARY
360
36C
102
}
102
{ACAD_REACTORS
330
2A
102
}
330
2A
100
AcDbVisualStyle
  2

 70
     2
 71
     2
 72
     2
 73
     1
 90
        2
 40
-0.6
 41
30.0
 62
     5
 63
     7
421
 16777215
 74
     0
 91
        0
 64
     7
 65
   257
 75
     1
175
     1
 42
1.0
 92
        0
 66
     7
 43
1.0
 76
     1
 77
     6
 78
     2
 67
     7
 79
     5
170
     0
171
     0
290
     0
174
     0
 93
       13
 44
0.0
173
     0
291
     1
 45
0.0
1001
ACAD
1000
AcDbSavedByObjectVersion
1070
     0
  0
VISUALSTYLE
  5
2E
102
{ACAD_XDICTIONARY
360
36E
102
}
102
{ACAD_REACTORS
330
2A
102
}
330
2A
100
AcDbVisualStyle
  2

 70
     3
 71
     2
 72
     2
 73
     1
 90
        2
 40
-0.6
 41
30.0
 62
     5
 63
     7
421
 16777215
 74
     1
 91
        0
 64
     7
 65
   257
 75
     1
175
     1
 42
1.0
 92
        0
 66
   257
 43
1.0
 76
     1
 77
     6
 78
     2
 67
     7
 79
     5
170
     0
171
     0
290
     0
174
     0
 93
       13
 44
0.0
173
     0
291
     1
 45
0.0
1001
ACAD
1000
AcDbSavedByObjectVersion
1070
     0
  0
VISUALSTYLE
  5
31
102
{ACAD_XDICTIONARY
360
374
102
}
102
{ACAD_REACTORS
330
2A
102
}
330
2A
100
AcDbVisualStyle
  2

 70
     6
 71
     1
 72
     2
 73
     2
 90
        0
 40
-0.6
 41
-30.0
 62
     5
 63
     7
421
 16777215
 74
     2
 91
        2
 64
     7
 65
   257
 75
     2
175
     1
 42
40.0
 92
        0
 66
   257
 43
1.0
 76
     1
 77
     6
 78
     2
 67
     7
 79
     3
170
     0
171
     0
290
     0
174
     0
 93
        1
 44
0.0
173
     0
291
     0
 45
0.0
1001
ACAD
1000
AcDbSavedByObjectVersion
1070
     0
  0
VISUALSTYLE
  5
3B
102
{ACAD_XDICTIONARY
360
388
102
}
102
{ACAD_REACTORS
330
2A
102
}
330
2A
100
AcDbVisualStyle
  2

 70
    20
 71
     2
 72
     2
 73
     0
 90
        0
 40
-0.6
 41
-30.0
 62
     5
 63
     7
421
 16777215
 74
     1
 91
        4
 64
     7
 65
   257
 75
     1
175
     1
 42
1.0
 92
       10
 66
     7
 43
1.0
 76
     1
 77
     6
 78
     2
 67
     7
 79
     5
170
     0
171
     0
290
     0
174
     0
 93
        1
 44
0.0
173
     0
291
     1
 45
0.0
1001
ACAD
1000
AcDbSavedByObjectVersion
1070
     0
  0
VISUALSTYLE
  5
38
102
{ACAD_XDICTIONARY
360
382
102
}
102
{ACAD_REACTORS
330
2A
102
}
330
2A
100
AcDbVisualStyle
  2

 70
    14
 71
     2
 72
     2
 73
     0
 90
        0
 40
-0.6
 41
-30.0
 62
     5
 63
     7
421
 16777215
 74
     1
 91
        4
 64
     7
 65
   257
 75
     7
175
     7
 42
1.0
 92
        8
 66
     7
 43
1.0
 76
     1
 77
     6
 78
     2
 67
     7
 79
     5
170
     0
171
     0
290
     0
174
     0
 93
        1
 44
0.0
173
     0
291
     1
 45
0.0
1001
ACAD
1000
AcDbSavedByObjectVersion
1070
     0
  0
VISUALSTYLE
  5
3C
102
{ACAD_XDICTIONARY
360
38A
102
}
102
{ACAD_REACTORS
330
2A
102
}
330
2A
100
AcDbVisualStyle
  2

 70
    21
 71
     2
 72
     2
 73
     0
 90
        0
 40
-0.6
 41
-30.0
 62
     5
 63
     7
421
 16777215
 74
     1
 91
        4
 64
     7
 65
   257
 75
     1
175
     1
 42
1.0
 92
        9
 66
     7
 43
1.0
 76
     1
 77
     6
 78
     2
 67
     7
 79
     5
170
     0
171
     0
290
     0
174
     0
 93
        1
 44
0.0
173
     0
291
     1
 45
0.0
1001
ACAD
1000
AcDbSavedByObjectVersion
1070
     0
  0
VISUALSTYLE
  5
33
102
{ACAD_XDICTIONARY
360
378
102
}
102
{ACAD_REACTORS
330
2A
102
}
330
2A
100
AcDbVisualStyle
  2

 70
     8
 71
     2
 72
     3
 73
     0
 90
        2
 40
-0.6
 41
30.0
 62
     5
 63
     7
421
 16777215
 74
     0
 91
        0
 64
     7
 65
   257
 75
     1
175
     1
 42
1.0
 92
        8
 66
   257
 43
1.0
 76
     1
 77
     6
 78
     2
 67
     7
 79
     3
170
     0
171
     0
290
     0
174
     0
 93
       13
 44
0.0
173
     0
291
     0
 45
0.0
1001
ACAD
1000
AcDbSavedByObjectVersion
1070
     0
  0
VISUALSTYLE
  5
42
102
{ACAD_XDICTIONARY
360
396
102
}
102
{ACAD_REACTORS
330
2A
102
}
330
2A
100
AcDbVisualStyle
  2

 70
    27
 71
     2
 72
     2
 73
     1
 90
        2
 40
-0.6
 41
30.0
 62
     5
 63
     7
421
 16777215
 74
     0
 91
        4
 64
     7
 65
   257
 75
     1
175
     1
 42
1.0
 92
        8
 66
   257
 43
1.0
 76
     1
 77
     6
 78
     2
 67
     8
425
  7895160
 79
     3
170
     0
171
     0
290
     0
174
     0
 93
        5
 44
0.0
173
     0
291
     0
 45
0.0
1001
ACAD
1000
AcDbSavedByObjectVersion
1070
     0
  0
VISUALSTYLE
  5
41
102
{ACAD_XDICTIONARY
360
394
102
}
102
{ACAD_REACTORS
330
2A
102
}
330
2A
100
AcDbVisualStyle
  2

 70
    26
 71
     2
 72
     2
 73
     1
 90
        2
 40
-0.6
 41
30.0
 62
     5
 63
     7
421
 16777215
 74
     1
 91
       10
 64
     7
 65
   257
 75
     2
175
     1
 42
1.0
 92
        8
 66
   257
 43
1.0
 76
     1
 77
     6
 78
     2
 67
     7
 79
     3
170
     0
171
     0
290
     0
174
     0
 93
        5
 44
0.0
173
     0
291
     0
 45
0.0
1001
ACAD
1000
AcDbSavedByObjectVersion
1070
     0
  0
VISUALSTYLE
  5
3E
102
{ACAD_XDICTIONARY
360
38E
102
}
102
{ACAD_REACTORS
330
2A
102
}
330
2A
100
AcDbVisualStyle
  2

 70
    23
 71
     2
 72
     2
 73
     3
 90
        0
 40
-0.6
 41
-30.0
 62
     5
 63
     7
421
 16777215
 74
     2
 91
        2
 64
     7
 65
     7
 75
     1
175
     1
 42
40.0
 92
        8
 66
     7
 43
1.0
 76
     1
 77
     6
 78
     2
 67
     7
 79
     3
170
     0
171
     0
290
     0
174
     0
 93
        1
 44
0.0
173
     0
291
     0
 45
0.0
1001
ACAD
1000
AcDbSavedByObjectVersion
1070
     0
  0
VISUALSTYLE
  5
3F
102
{ACAD_XDICTIONARY
360
390
102
}
102
{ACAD_REACTORS
330
2A
102
}
330
2A
100
AcDbVisualStyle
  2

 70
    24
 71
     1
 72
     2
 73
     2
 90
        0
 40
-0.6
 41
-30.0
 62
     5
 63
     7
421
 16777215
 74
     2
 91
        2
 64
     7
 65
     7
 75
     1
175
     1
 42
40.0
 92
       11
 66
     7
 43
1.0
 76
     1
 77
     6
 78
     2
 67
     7
 79
     6
170
     0
171
     0
290
     0
174
     0
 93
        1
 44
0.0
173
     0
291
     0
 45
0.0
1001
ACAD
1000
AcDbSavedByObjectVersion
1070
     0
  0
VISUALSTYLE
  5
37
102
{ACAD_XDICTIONARY
360
380
102
}
102
{ACAD_REACTORS
330
2A
102
}
330
2A
100
AcDbVisualStyle
  2

 70
    13
 71
     2
 72
     2
 73
     0
 90
        0
 40
-0.6
 41
-30.0
 62
     5
 63
     7
421
 16777215
 74
     1
 91
        4
 64
     7
 65
   257
 75
     1
175
     1
 42
1.0
 92
       12
 66
     7
 43
1.0
 76
     1
 77
     6
 78
     2
 67
     7
 79
     5
170
     0
171
     0
290
     0
174
     0
 93
        1
 44
0.0
173
     0
291
     1
 45
0.0
1001
ACAD
1000
AcDbSavedByObjectVersion
1070
     0
  0
VISUALSTYLE
  5
30
102
{ACAD_XDICTIONARY
360
372
102
}
102
{ACAD_REACTORS
330
2A
102
}
330
2A
100
AcDbVisualStyle
  2

 70
     5
 71
     0
 72
     2
 73
     0
 90
        0
 40
-0.6
 41
-30.0
 62
     5
 63
     7
421
 16777215
 74
     1
 91
        4
 64
     7
 65
   257
 75
     1
175
     1
 42
1.0
 92
        0
 66
   257
 43
1.0
 76
     1
 77
     6
 78
     2
 67
     7
 79
     3
170
     0
171
     0
290
     0
174
     0
 93
        1
 44
0.0
173
     0
291
     0
 45
0.0
1001
ACAD
1000
AcDbSavedByObjectVersion
1070
     0
  0
VISUALSTYLE
  5
40
102
{ACAD_XDICTIONARY
360
392
102
}
102
{ACAD_REACTORS
330
2A
102
}
330
2A
100
AcDbVisualStyle
  2

 70
    25
 71
     2
 72
     2
 73
     1
 90
        1
 40
0.5
 41
-30.0
 62
     5
 63
     7
421
 16777215
 74
     1
 91
        0
 64
     7
 65
   257
 75
     1
175
     1
 42
1.0
 92
        8
 66
     7
 43
1.0
 76
     1
 77
     6
 78
     2
 67
     7
 79
     3
170
     0
171
     0
290
     0
174
     0
 93
       13
 44
0.0
173
     0
291
     0
 45
0.0
1001
ACAD
1000
AcDbSavedByObjectVersion
1070
     0
  0
DICTIONARYVAR
  5
2B6
102
{ACAD_REACTORS
330
2B5
102
}
330
2B5
100
DictionaryVariables
280
     0
  1
1:1
  0
DICTIONARYVAR
  5
2F7
102
{ACAD_REACTORS
330
2B5
102
}
330
2B5
100
DictionaryVariables
280
     0
  1
STANDARD
  0
DICTIONARYVAR
  5
2F6
102
{ACAD_REACTORS
330
2B5
102
}
330
2B5
100
DictionaryVariables
280
     0
  1
STANDARD
  0
DICTIONARYVAR
  5
362
102
{ACAD_REACTORS
330
2B5
102
}
330
2B5
100
DictionaryVariables
280
     0
  1
Metric50
  0
DICTIONARYVAR
  5
363
102
{ACAD_REACTORS
330
2B5
102
}
330
2B5
100
DictionaryVariables
280
     0
  1
Metric50
  0
DICTIONARYVAR
  5
2B7
102
{ACAD_REACTORS
330
2B5
102
}
330
2B5
100
DictionaryVariables
280
     0
  1
1
  0
DICTIONARYVAR
  5
364
102
{ACAD_REACTORS
330
2B5
102
}
330
2B5
100
DictionaryVariables
280
     0
  1
2
  0
DICTIONARY
  5
39B
330
2FE
100
AcDbDictionary
280
     1
281
     1
  3
ACAD_XREC_ROUNDTRIP
360
39C
  0
DICTIONARY
  5
2EB
330
45
100
AcDbDictionary
280
     1
281
     1
  3
ACAD_XREC_ROUNDTRIP
360
2EC
  0
DICTIONARY
  5
2E9
330
44
100
AcDbDictionary
280
     1
281
     1
  3
ACAD_XREC_ROUNDTRIP
360
2EA
  0
DICTIONARY
  5
2ED
330
46
100
AcDbDictionary
280
     1
281
     1
  3
ACAD_XREC_ROUNDTRIP
360
2EE
  0
DICTIONARY
  5
399
330
2FD
100
AcDbDictionary
280
     1
281
     1
  3
ACAD_XREC_ROUNDTRIP
360
39A
  0
DICTIONARY
  5
2EF
330
6A
100
AcDbDictionary
280
     1
281
     1
  3
ACAD_ROUNDTRIP_2008_TABLESTYLE_CELLSTYLEMAP
360
366
  3
ACAD_XREC_ROUNDTRIP
360
398
  0
DICTIONARY
  5
370
330
2F
100
AcDbDictionary
280
     1
281
     1
  3
ACAD_XREC_ROUNDTRIP
360
371
  0
DICTIONARY
  5
376
330
32
100
AcDbDictionary
280
     1
281
     1
  3
ACAD_XREC_ROUNDTRIP
360
377
  0
DICTIONARY
  5
37E
330
36
100
AcDbDictionary
280
     1
281
     1
  3
ACAD_XREC_ROUNDTRIP
360
37F
  0
DICTIONARY
  5
386
330
3A
100
AcDbDictionary
280
     1
281
     1
  3
ACAD_XREC_ROUNDTRIP
360
387
  0
DICTIONARY
  5
37A
330
34
100
AcDbDictionary
280
     1
281
     1
  3
ACAD_XREC_ROUNDTRIP
360
37B
  0
DICTIONARY
  5
37C
330
35
100
AcDbDictionary
280
     1
281
     1
  3
ACAD_XREC_ROUNDTRIP
360
37D
  0
DICTIONARY
  5
38C
330
3D
100
AcDbDictionary
280
     1
281
     1
  3
ACAD_XREC_ROUNDTRIP
360
38D
  0
DICTIONARY
  5
384
330
39
100
AcDbDictionary
280
     1
281
     1
  3
ACAD_XREC_ROUNDTRIP
360
385
  0
DICTIONARY
  5
368
330
2B
100
AcDbDictionary
280
     1
281
     1
  3
ACAD_XREC_ROUNDTRIP
360
369
  0
DICTIONARY
  5
36A
330
2C
100
AcDbDictionary
280
     1
281
     1
  3
ACAD_XREC_ROUNDTRIP
360
36B
  0
DICTIONARY
  5
36C
330
2D
100
AcDbDictionary
280
     1
281
     1
  3
ACAD_XREC_ROUNDTRIP
360
36D
  0
DICTIONARY
  5
36E
330
2E
100
AcDbDictionary
280
     1
281
     1
  3
ACAD_XREC_ROUNDTRIP
360
36F
  0
DICTIONARY
  5
374
330
31
100
AcDbDictionary
280
     1
281
     1
  3
ACAD_XREC_ROUNDTRIP
360
375
  0
DICTIONARY
  5
388
330
3B
100
AcDbDictionary
280
     1
281
     1
  3
ACAD_XREC_ROUNDTRIP
360
389
  0
DICTIONARY
  5
382
330
38
100
AcDbDictionary
280
     1
281
     1
  3
ACAD_XREC_ROUNDTRIP
360
383
  0
DICTIONARY
  5
38A
330
3C
100
AcDbDictionary
280
     1
281
     1
  3
ACAD_XREC_ROUNDTRIP
360
38B
  0
DICTIONARY
  5
378
330
33
100
AcDbDictionary
280
     1
281
     1
  3
ACAD_XREC_ROUNDTRIP
360
379
  0
DICTIONARY
  5
396
330
42
100
AcDbDictionary
280
     1
281
     1
  3
ACAD_XREC_ROUNDTRIP
360
397
  0
DICTIONARY
  5
394
330
41
100
AcDbDictionary
280
     1
281
     1
  3
ACAD_XREC_ROUNDTRIP
360
395
  0
DICTIONARY
  5
38E
330
3E
100
AcDbDictionary
280
     1
281
     1
  3
ACAD_XREC_ROUNDTRIP
360
38F
  0
DICTIONARY
  5
390
330
3F
100
AcDbDictionary
280
     1
281
     1
  3
ACAD_XREC_ROUNDTRIP
360
391
  0
DICTIONARY
  5
380
330
37
100
AcDbDictionary
280
     1
281
     1
  3
ACAD_XREC_ROUNDTRIP
360
381
  0
DICTIONARY
  5
372
330
30
100
AcDbDictionary
280
     1
281
     1
  3
ACAD_XREC_ROUNDTRIP
360
373
  0
DICTIONARY
  5
392
330
40
100
AcDbDictionary
280
     1
281
     1
  3
ACAD_XREC_ROUNDTRIP
360
393
  0
XRECORD
  5
39C
102
{ACAD_REACTORS
330
39B
102
}
330
39B
100
AcDbXrecord
280
     1
102
DISPLAYNAME
  1
Metric50
102
FLAGS
 90
        0
  0
XRECORD
  5
2EC
102
{ACAD_REACTORS
330
2EB
102
}
330
2EB
100
AcDbXrecord
280
     1
102
MATERIAL
148
0.0
149
0.0
149
0.0
 93
        0
 94
      127
282
     0
 72
     1
 77
     1
171
     1
175
     1
179
     1
273
     0
  0
XRECORD
  5
2EA
102
{ACAD_REACTORS
330
2E9
102
}
330
2E9
100
AcDbXrecord
280
     1
102
MATERIAL
148
0.0
149
0.0
149
0.0
 93
        0
 94
      127
282
     0
 72
     1
 77
     1
171
     1
175
     1
179
     1
273
     0
  0
XRECORD
  5
2EE
102
{ACAD_REACTORS
330
2ED
102
}
330
2ED
100
AcDbXrecord
280
     1
102
MATERIAL
148
0.0
149
0.0
149
0.0
 93
        0
 94
      127
282
     0
 72
     1
 77
     1
171
     1
175
     1
179
     1
273
     0
  0
XRECORD
  5
39A
102
{ACAD_REACTORS
330
399
102
}
330
399
100
AcDbXrecord
280
     1
102
DISPLAYNAME
  1
Metric50
102
FLAGS
 90
        0
  0
CELLSTYLEMAP
  5
366
102
{ACAD_REACTORS
330
2EF
102
}
330
2EF
100
AcDbCellStyleMap
 90
        3
300
CELLSTYLE
  1
TABLEFORMAT_BEGIN
 90
        5
170
     1
 91
        0
 92
    32768
 62
   257
 93
        1
300
CONTENTFORMAT
  1
CONTENTFORMAT_BEGIN
 90
        0
 91
        0
 92
        4
 93
        0
300

 40
0.0
140
1.0
 94
        5
 62
     0
340
11
144
0.25
309
CONTENTFORMAT_END
171
     1
301
MARGIN
  1
CELLMARGIN_BEGIN
 40
0.06
 40
0.06
 40
0.06
 40
0.06
 40
0.18
 40
0.18
309
CELLMARGIN_END
 94
        6
 95
        1
302
GRIDFORMAT
  1
GRIDFORMAT_BEGIN
 90
        0
 91
        1
 62
     0
 92
       -2
340
14
 93
        0
 40
0.045
309
GRIDFORMAT_END
 95
        2
302
GRIDFORMAT
  1
GRIDFORMAT_BEGIN
 90
        0
 91
        1
 62
     0
 92
       -2
340
14
 93
        0
 40
0.045
309
GRIDFORMAT_END
 95
        4
302
GRIDFORMAT
  1
GRIDFORMAT_BEGIN
 90
        0
 91
        1
 62
     0
 92
       -2
340
14
 93
        0
 40
0.045
309
GRIDFORMAT_END
 95
        8
302
GRIDFORMAT
  1
GRIDFORMAT_BEGIN
 90
        0
 91
        1
 62
     0
 92
       -2
340
14
 93
        0
 40
0.045
309
GRIDFORMAT_END
 95
       16
302
GRIDFORMAT
  1
GRIDFORMAT_BEGIN
 90
        0
 91
        1
 62
     0
 92
       -2
340
14
 93
        0
 40
0.045
309
GRIDFORMAT_END
 95
       32
302
GRIDFORMAT
  1
GRIDFORMAT_BEGIN
 90
        0
 91
        1
 62
     0
 92
       -2
340
14
 93
        0
 40
0.045
309
GRIDFORMAT_END
309
TABLEFORMAT_END
  1
CELLSTYLE_BEGIN
 90
        1
 91
        1
300
_TITLE
309
CELLSTYLE_END
300
CELLSTYLE
  1
TABLEFORMAT_BEGIN
 90
        5
170
     1
 91
        0
 92
        0
 62
   257
 93
        1
300
CONTENTFORMAT
  1
CONTENTFORMAT_BEGIN
 90
        0
 91
        0
 92
        4
 93
        0
300

 40
0.0
140
1.0
 94
        5
 62
     0
340
11
144
0.18
309
CONTENTFORMAT_END
171
     1
301
MARGIN
  1
CELLMARGIN_BEGIN
 40
0.06
 40
0.06
 40
0.06
 40
0.06
 40
0.18
 40
0.18
309
CELLMARGIN_END
 94
        6
 95
        1
302
GRIDFORMAT
  1
GRIDFORMAT_BEGIN
 90
        0
 91
        1
 62
     0
 92
       -2
340
14
 93
        0
 40
0.045
309
GRIDFORMAT_END
 95
        2
302
GRIDFORMAT
  1
GRIDFORMAT_BEGIN
 90
        0
 91
        1
 62
     0
 92
       -2
340
14
 93
        0
 40
0.045
309
GRIDFORMAT_END
 95
        4
302
GRIDFORMAT
  1
GRIDFORMAT_BEGIN
 90
        0
 91
        1
 62
     0
 92
       -2
340
14
 93
        0
 40
0.045
309
GRIDFORMAT_END
 95
        8
302
GRIDFORMAT
  1
GRIDFORMAT_BEGIN
 90
        0
 91
        1
 62
     0
 92
       -2
340
14
 93
        0
 40
0.045
309
GRIDFORMAT_END
 95
       16
302
GRIDFORMAT
  1
GRIDFORMAT_BEGIN
 90
        0
 91
        1
 62
     0
 92
       -2
340
14
 93
        0
 40
0.045
309
GRIDFORMAT_END
 95
       32
302
GRIDFORMAT
  1
GRIDFORMAT_BEGIN
 90
        0
 91
        1
 62
     0
 92
       -2
340
14
 93
        0
 40
0.045
309
GRIDFORMAT_END
309
TABLEFORMAT_END
  1
CELLSTYLE_BEGIN
 90
        2
 91
        1
300
_HEADER
309
CELLSTYLE_END
300
CELLSTYLE
  1
TABLEFORMAT_BEGIN
 90
        5
170
     1
 91
        0
 92
        0
 62
   257
 93
        1
300
CONTENTFORMAT
  1
CONTENTFORMAT_BEGIN
 90
        0
 91
        0
 92
        4
 93
        0
300

 40
0.0
140
1.0
 94
        2
 62
     0
340
11
144
0.18
309
CONTENTFORMAT_END
171
     1
301
MARGIN
  1
CELLMARGIN_BEGIN
 40
0.06
 40
0.06
 40
0.06
 40
0.06
 40
0.18
 40
0.18
309
CELLMARGIN_END
 94
        6
 95
        1
302
GRIDFORMAT
  1
GRIDFORMAT_BEGIN
 90
        0
 91
        1
 62
     0
 92
       -2
340
14
 93
        0
 40
0.045
309
GRIDFORMAT_END
 95
        2
302
GRIDFORMAT
  1
GRIDFORMAT_BEGIN
 90
        0
 91
        1
 62
     0
 92
       -2
340
14
 93
        0
 40
0.045
309
GRIDFORMAT_END
 95
        4
302
GRIDFORMAT
  1
GRIDFORMAT_BEGIN
 90
        0
 91
        1
 62
     0
 92
       -2
340
14
 93
        0
 40
0.045
309
GRIDFORMAT_END
 95
        8
302
GRIDFORMAT
  1
GRIDFORMAT_BEGIN
 90
        0
 91
        1
 62
     0
 92
       -2
340
14
 93
        0
 40
0.045
309
GRIDFORMAT_END
 95
       16
302
GRIDFORMAT
  1
GRIDFORMAT_BEGIN
 90
        0
 91
        1
 62
     0
 92
       -2
340
14
 93
        0
 40
0.045
309
GRIDFORMAT_END
 95
       32
302
GRIDFORMAT
  1
GRIDFORMAT_BEGIN
 90
        0
 91
        1
 62
     0
 92
       -2
340
14
 93
        0
 40
0.045
309
GRIDFORMAT_END
309
TABLEFORMAT_END
  1
CELLSTYLE_BEGIN
 90
        3
 91
        2
300
_DATA
309
CELLSTYLE_END
  0
XRECORD
  5
398
102
{ACAD_REACTORS
330
2EF
102
}
330
2EF
100
AcDbXrecord
280
     1
102
ACAD_ROUNDTRIP_PRE2007_TABLESTYLE
 90
        4
 91
        0
  1

 92
        4
 93
        0
  2

 94
        4
 95
        0
  3

  0
XRECORD
  5
371
102
{ACAD_REACTORS
330
370
102
}
330
370
100
AcDbXrecord
280
     1
102
RTVSPost2010Prop28
280
     1
102
RTVSPost2010PropOp28
 70
     1
102
RTVSPost2010Prop29
280
     1
102
RTVSPost2010PropOp29
 70
     1
102
RTVSPost2010Prop30
280
     0
102
RTVSPost2010PropOp30
 70
     1
102
RTVSPost2010Prop31
280
     0
102
RTVSPost2010PropOp31
 70
     1
102
RTVSPost2010Prop32
280
     0
102
RTVSPost2010PropOp32
 70
     1
102
RTVSPost2010Prop33
280
     0
102
RTVSPost2010PropOp33
 70
     1
102
RTVSPost2010Prop34
280
     0
102
RTVSPost2010PropOp34
 70
     1
102
RTVSPost2010Prop35
280
     0
102
RTVSPost2010PropOp35
 70
     1
102
RTVSPost2010Prop36
280
     0
102
RTVSPost2010PropOp36
 70
     1
102
RTVSPost2010Prop37
 90
       50
102
RTVSPost2010PropOp37
 70
     1
102
RTVSPost2010Prop38
140
0.0
102
RTVSPost2010PropOp38
 70
     1
102
RTVSPost2010Prop39
140
1.0
102
RTVSPost2010PropOp39
 70
     1
102
RTVSPost2010Prop40
 90
        0
102
RTVSPost2010PropOp40
 70
     1
102
RTVSPost2010Prop41ColorIndex
 90
       18
102
RTVSPost2010Prop41ColorRGB
 90
        0
102
RTVSPost2010PropOp41
 70
     1
102
RTVSPost2010Prop42
 90
       50
102
RTVSPost2010PropOp42
 70
     1
102
RTVSPost2010Prop43
 90
        3
102
RTVSPost2010PropOp43
 70
     1
102
RTVSPost2010Prop44ColorIndex
 90
        5
102
RTVSPost2010Prop44ColorRGB
 90
      255
102
RTVSPost2010PropOp44
 70
     1
102
RTVSPost2010Prop45
280
     0
102
RTVSPost2010PropOp45
 70
     1
102
RTVSPost2010Prop46
 90
       50
102
RTVSPost2010PropOp46
 70
     1
102
RTVSPost2010Prop47
 90
       50
102
RTVSPost2010PropOp47
 70
     1
102
RTVSPost2010Prop48
 90
       50
102
RTVSPost2010PropOp48
 70
     1
102
RTVSPost2010Prop49
280
     0
102
RTVSPost2010PropOp49
 70
     1
102
RTVSPost2010Prop50
 90
       50
102
RTVSPost2010PropOp50
 70
     1
102
RTVSPost2010Prop51ColorIndex
 90
      256
102
RTVSPost2010Prop51ColorRGB
 90
-16777216
102
RTVSPost2010PropOp51
 70
     0
102
RTVSPost2010Prop52
140
1.0
102
RTVSPost2010PropOp52
 70
     0
102
RTVSPost2010Prop53
 90
        2
102
RTVSPost2010PropOp53
 70
     1
102
RTVSPost2010Prop54
  1
strokes_ogs.tif
102
RTVSPost2010PropOp54
 70
     1
102
RTVSPost2010Prop55
280
     0
102
RTVSPost2010PropOp55
 70
     1
102
RTVSPost2010Prop56
140
1.0
102
RTVSPost2010PropOp56
 70
     1
102
RTVSPost2010Prop57
140
1.0
102
RTVSPost2010PropOp57
 70
     1
102
RTVSPropertyOp0
 70
     1
102
RTVSPropertyOp1
 70
     1
102
RTVSPropertyOp2
 70
     1
102
RTVSPropertyOp3
 70
     1
102
RTVSPropertyOp4
 70
     1
102
RTVSPropertyOp5
 70
     1
102
RTVSPropertyOp6
 70
     1
102
RTVSPropertyOp7
 70
     1
102
RTVSPropertyOp8
 70
     1
102
RTVSPropertyOp9
 70
     1
102
RTVSPropertyOp10
 70
     1
102
RTVSPropertyOp11
 70
     1
102
RTVSPropertyOp12
 70
     1
102
RTVSPropertyOp13
 70
     1
102
RTVSPropertyOp14
 70
     1
102
RTVSPropertyOp15
 70
     1
102
RTVSPropertyOp16
 70
     1
102
RTVSPropertyOp17
 70
     1
102
RTVSPropertyOp18
 70
     1
102
RTVSPropertyOp19
 70
     1
102
RTVSPropertyOp20
 70
     1
102
RTVSPropertyOp21
 70
     1
102
RTVSPropertyOp22
 70
     1
102
RTVSPropertyOp23
 70
     1
102
RTVSPropertyOp24
 70
     1
102
RTVSPropertyOp25
 70
     1
102
RTVSPropertyOp26
 70
     1
102
RTVSPropertyOp27
 70
     1
102
RTVSPropertyOp28
 70
     1
102
RTVSPropertyOp29
 70
     1
102
RTVSPropertyOp30
 70
     1
102
RTVSPropertyOp31
 70
     1
102
RTVSPropertyOp32
 70
     1
102
RTVSPropertyOp33
 70
     1
102
RTVSPropertyOp34
 70
     1
102
RTVSPropertyOp35
 70
     1
102
RTVSPropertyOp36
 70
     1
102
RTVSPropertyOp37
 70
     1
102
RTVSPropertyOp38
 70
     1
102
RTVSPropertyOp39
 70
     1
102
RTVSPropertyOp40
 70
     1
102
RTVSPropertyOp41
 70
     1
102
RTVSPropertyOp42
 70
     1
102
RTVSPropertyOp43
 70
     1
102
RTVSPropertyOp44
 70
     1
102
RTVSPropertyOp45
 70
     1
102
RTVSPropertyOp46
 70
     1
102
RTVSPropertyOp47
 70
     1
102
RTVSPropertyOp48
 70
     1
102
RTVSPropertyOp49
 70
     1
102
RTVSPropertyOp50
 70
     1
102
RTVSPropertyOp51
 70
     0
102
RTVSPropertyOp52
 70
     0
102
RTVSPropertyOp53
 70
     1
102
RTVSPropertyOp54
 70
     1
102
RTVSPropertyOp55
 70
     1
102
RTVSPropertyOp56
 70
     1
102
RTVSPropertyOp57
 70
     1
102
RTVSPropertyOp58
 70
     1
102
RTVSPropertyOp59
 70
     1
102
RTVSPropertyOp60
 70
     1
102
RTVSPropertyOp61
 70
     1
102
RTVSPropertyOp62
 70
     1
  0
XRECORD
  5
377
102
{ACAD_REACTORS
330
376
102
}
330
376
100
AcDbXrecord
280
     1
102
RTVSPost2010Prop28
280
     0
102
RTVSPost2010PropOp28
 70
     1
102
RTVSPost2010Prop29
280
     1
102
RTVSPost2010PropOp29
 70
     1
102
RTVSPost2010Prop30
280
     1
102
RTVSPost2010PropOp30
 70
     1
102
RTVSPost2010Prop31
280
     0
102
RTVSPost2010PropOp31
 70
     1
102
RTVSPost2010Prop32
280
     0
102
RTVSPost2010PropOp32
 70
     1
102
RTVSPost2010Prop33
280
     0
102
RTVSPost2010PropOp33
 70
     1
102
RTVSPost2010Prop34
280
     0
102
RTVSPost2010PropOp34
 70
     1
102
RTVSPost2010Prop35
280
     0
102
RTVSPost2010PropOp35
 70
     1
102
RTVSPost2010Prop36
280
     0
102
RTVSPost2010PropOp36
 70
     1
102
RTVSPost2010Prop37
 90
       50
102
RTVSPost2010PropOp37
 70
     1
102
RTVSPost2010Prop38
140
0.0
102
RTVSPost2010PropOp38
 70
     1
102
RTVSPost2010Prop39
140
1.0
102
RTVSPost2010PropOp39
 70
     1
102
RTVSPost2010Prop40
 90
        0
102
RTVSPost2010PropOp40
 70
     1
102
RTVSPost2010Prop41ColorIndex
 90
       18
102
RTVSPost2010Prop41ColorRGB
 90
        0
102
RTVSPost2010PropOp41
 70
     1
102
RTVSPost2010Prop42
 90
       50
102
RTVSPost2010PropOp42
 70
     1
102
RTVSPost2010Prop43
 90
        3
102
RTVSPost2010PropOp43
 70
     1
102
RTVSPost2010Prop44ColorIndex
 90
        5
102
RTVSPost2010Prop44ColorRGB
 90
      255
102
RTVSPost2010PropOp44
 70
     1
102
RTVSPost2010Prop45
280
     0
102
RTVSPost2010PropOp45
 70
     1
102
RTVSPost2010Prop46
 90
       50
102
RTVSPost2010PropOp46
 70
     1
102
RTVSPost2010Prop47
 90
       50
102
RTVSPost2010PropOp47
 70
     1
102
RTVSPost2010Prop48
 90
       50
102
RTVSPost2010PropOp48
 70
     1
102
RTVSPost2010Prop49
280
     0
102
RTVSPost2010PropOp49
 70
     1
102
RTVSPost2010Prop50
 90
       50
102
RTVSPost2010PropOp50
 70
     1
102
RTVSPost2010Prop51ColorIndex
 90
      256
102
RTVSPost2010Prop51ColorRGB
 90
-16777216
102
RTVSPost2010PropOp51
 70
     0
102
RTVSPost2010Prop52
140
1.0
102
RTVSPost2010PropOp52
 70
     0
102
RTVSPost2010Prop53
 90
        2
102
RTVSPost2010PropOp53
 70
     1
102
RTVSPost2010Prop54
  1
strokes_ogs.tif
102
RTVSPost2010PropOp54
 70
     1
102
RTVSPost2010Prop55
280
     0
102
RTVSPost2010PropOp55
 70
     1
102
RTVSPost2010Prop56
140
1.0
102
RTVSPost2010PropOp56
 70
     1
102
RTVSPost2010Prop57
140
1.0
102
RTVSPost2010PropOp57
 70
     1
102
RTVSPropertyOp0
 70
     1
102
RTVSPropertyOp1
 70
     1
102
RTVSPropertyOp2
 70
     1
102
RTVSPropertyOp3
 70
     1
102
RTVSPropertyOp4
 70
     1
102
RTVSPropertyOp5
 70
     1
102
RTVSPropertyOp6
 70
     1
102
RTVSPropertyOp7
 70
     1
102
RTVSPropertyOp8
 70
     1
102
RTVSPropertyOp9
 70
     1
102
RTVSPropertyOp10
 70
     1
102
RTVSPropertyOp11
 70
     1
102
RTVSPropertyOp12
 70
     1
102
RTVSPropertyOp13
 70
     1
102
RTVSPropertyOp14
 70
     1
102
RTVSPropertyOp15
 70
     1
102
RTVSPropertyOp16
 70
     1
102
RTVSPropertyOp17
 70
     1
102
RTVSPropertyOp18
 70
     1
102
RTVSPropertyOp19
 70
     1
102
RTVSPropertyOp20
 70
     1
102
RTVSPropertyOp21
 70
     1
102
RTVSPropertyOp22
 70
     1
102
RTVSPropertyOp23
 70
     1
102
RTVSPropertyOp24
 70
     1
102
RTVSPropertyOp25
 70
     1
102
RTVSPropertyOp26
 70
     1
102
RTVSPropertyOp27
 70
     1
102
RTVSPropertyOp28
 70
     1
102
RTVSPropertyOp29
 70
     1
102
RTVSPropertyOp30
 70
     1
102
RTVSPropertyOp31
 70
     1
102
RTVSPropertyOp32
 70
     1
102
RTVSPropertyOp33
 70
     1
102
RTVSPropertyOp34
 70
     1
102
RTVSPropertyOp35
 70
     1
102
RTVSPropertyOp36
 70
     1
102
RTVSPropertyOp37
 70
     1
102
RTVSPropertyOp38
 70
     1
102
RTVSPropertyOp39
 70
     1
102
RTVSPropertyOp40
 70
     1
102
RTVSPropertyOp41
 70
     1
102
RTVSPropertyOp42
 70
     1
102
RTVSPropertyOp43
 70
     1
102
RTVSPropertyOp44
 70
     1
102
RTVSPropertyOp45
 70
     1
102
RTVSPropertyOp46
 70
     1
102
RTVSPropertyOp47
 70
     1
102
RTVSPropertyOp48
 70
     1
102
RTVSPropertyOp49
 70
     1
102
RTVSPropertyOp50
 70
     1
102
RTVSPropertyOp51
 70
     0
102
RTVSPropertyOp52
 70
     0
102
RTVSPropertyOp53
 70
     1
102
RTVSPropertyOp54
 70
     1
102
RTVSPropertyOp55
 70
     1
102
RTVSPropertyOp56
 70
     1
102
RTVSPropertyOp57
 70
     1
102
RTVSPropertyOp58
 70
     1
102
RTVSPropertyOp59
 70
     1
102
RTVSPropertyOp60
 70
     1
102
RTVSPropertyOp61
 70
     1
102
RTVSPropertyOp62
 70
     1
  0
XRECORD
  5
37F
102
{ACAD_REACTORS
330
37E
102
}
330
37E
100
AcDbXrecord
280
     1
102
RTVSPost2010Prop28
280
     0
102
RTVSPost2010PropOp28
 70
     1
102
RTVSPost2010Prop29
280
     1
102
RTVSPost2010PropOp29
 70
     1
102
RTVSPost2010Prop30
280
     1
102
RTVSPost2010PropOp30
 70
     1
102
RTVSPost2010Prop31
280
     0
102
RTVSPost2010PropOp31
 70
     1
102
RTVSPost2010Prop32
280
     0
102
RTVSPost2010PropOp32
 70
     1
102
RTVSPost2010Prop33
280
     0
102
RTVSPost2010PropOp33
 70
     1
102
RTVSPost2010Prop34
280
     0
102
RTVSPost2010PropOp34
 70
     1
102
RTVSPost2010Prop35
280
     0
102
RTVSPost2010PropOp35
 70
     1
102
RTVSPost2010Prop36
280
     0
102
RTVSPost2010PropOp36
 70
     1
102
RTVSPost2010Prop37
 90
       50
102
RTVSPost2010PropOp37
 70
     1
102
RTVSPost2010Prop38
140
0.0
102
RTVSPost2010PropOp38
 70
     1
102
RTVSPost2010Prop39
140
1.0
102
RTVSPost2010PropOp39
 70
     1
102
RTVSPost2010Prop40
 90
        0
102
RTVSPost2010PropOp40
 70
     1
102
RTVSPost2010Prop41ColorIndex
 90
       18
102
RTVSPost2010Prop41ColorRGB
 90
        0
102
RTVSPost2010PropOp41
 70
     1
102
RTVSPost2010Prop42
 90
       50
102
RTVSPost2010PropOp42
 70
     1
102
RTVSPost2010Prop43
 90
        3
102
RTVSPost2010PropOp43
 70
     1
102
RTVSPost2010Prop44ColorIndex
 90
        5
102
RTVSPost2010Prop44ColorRGB
 90
      255
102
RTVSPost2010PropOp44
 70
     1
102
RTVSPost2010Prop45
280
     0
102
RTVSPost2010PropOp45
 70
     1
102
RTVSPost2010Prop46
 90
       50
102
RTVSPost2010PropOp46
 70
     1
102
RTVSPost2010Prop47
 90
       50
102
RTVSPost2010PropOp47
 70
     1
102
RTVSPost2010Prop48
 90
       50
102
RTVSPost2010PropOp48
 70
     1
102
RTVSPost2010Prop49
280
     0
102
RTVSPost2010PropOp49
 70
     1
102
RTVSPost2010Prop50
 90
       50
102
RTVSPost2010PropOp50
 70
     1
102
RTVSPost2010Prop51ColorIndex
 90
      256
102
RTVSPost2010Prop51ColorRGB
 90
-16777216
102
RTVSPost2010PropOp51
 70
     0
102
RTVSPost2010Prop52
140
1.0
102
RTVSPost2010PropOp52
 70
     0
102
RTVSPost2010Prop53
 90
        2
102
RTVSPost2010PropOp53
 70
     1
102
RTVSPost2010Prop54
  1
strokes_ogs.tif
102
RTVSPost2010PropOp54
 70
     1
102
RTVSPost2010Prop55
280
     0
102
RTVSPost2010PropOp55
 70
     1
102
RTVSPost2010Prop56
140
1.0
102
RTVSPost2010PropOp56
 70
     1
102
RTVSPost2010Prop57
140
1.0
102
RTVSPost2010PropOp57
 70
     1
102
RTVSPropertyOp0
 70
     1
102
RTVSPropertyOp1
 70
     1
102
RTVSPropertyOp2
 70
     1
102
RTVSPropertyOp3
 70
     1
102
RTVSPropertyOp4
 70
     1
102
RTVSPropertyOp5
 70
     1
102
RTVSPropertyOp6
 70
     1
102
RTVSPropertyOp7
 70
     1
102
RTVSPropertyOp8
 70
     1
102
RTVSPropertyOp9
 70
     1
102
RTVSPropertyOp10
 70
     1
102
RTVSPropertyOp11
 70
     1
102
RTVSPropertyOp12
 70
     1
102
RTVSPropertyOp13
 70
     1
102
RTVSPropertyOp14
 70
     1
102
RTVSPropertyOp15
 70
     1
102
RTVSPropertyOp16
 70
     1
102
RTVSPropertyOp17
 70
     1
102
RTVSPropertyOp18
 70
     1
102
RTVSPropertyOp19
 70
     1
102
RTVSPropertyOp20
 70
     1
102
RTVSPropertyOp21
 70
     1
102
RTVSPropertyOp22
 70
     1
102
RTVSPropertyOp23
 70
     1
102
RTVSPropertyOp24
 70
     1
102
RTVSPropertyOp25
 70
     1
102
RTVSPropertyOp26
 70
     1
102
RTVSPropertyOp27
 70
     1
102
RTVSPropertyOp28
 70
     1
102
RTVSPropertyOp29
 70
     1
102
RTVSPropertyOp30
 70
     1
102
RTVSPropertyOp31
 70
     1
102
RTVSPropertyOp32
 70
     1
102
RTVSPropertyOp33
 70
     1
102
RTVSPropertyOp34
 70
     1
102
RTVSPropertyOp35
 70
     1
102
RTVSPropertyOp36
 70
     1
102
RTVSPropertyOp37
 70
     1
102
RTVSPropertyOp38
 70
     1
102
RTVSPropertyOp39
 70
     1
102
RTVSPropertyOp40
 70
     1
102
RTVSPropertyOp41
 70
     1
102
RTVSPropertyOp42
 70
     1
102
RTVSPropertyOp43
 70
     1
102
RTVSPropertyOp44
 70
     1
102
RTVSPropertyOp45
 70
     1
102
RTVSPropertyOp46
 70
     1
102
RTVSPropertyOp47
 70
     1
102
RTVSPropertyOp48
 70
     1
102
RTVSPropertyOp49
 70
     1
102
RTVSPropertyOp50
 70
     1
102
RTVSPropertyOp51
 70
     0
102
RTVSPropertyOp52
 70
     0
102
RTVSPropertyOp53
 70
     1
102
RTVSPropertyOp54
 70
     1
102
RTVSPropertyOp55
 70
     1
102
RTVSPropertyOp56
 70
     1
102
RTVSPropertyOp57
 70
     1
102
RTVSPropertyOp58
 70
     1
102
RTVSPropertyOp59
 70
     1
102
RTVSPropertyOp60
 70
     1
102
RTVSPropertyOp61
 70
     1
102
RTVSPropertyOp62
 70
     1
  0
XRECORD
  5
387
102
{ACAD_REACTORS
330
386
102
}
330
386
100
AcDbXrecord
280
     1
102
RTVSPost2010Prop28
280
     0
102
RTVSPost2010PropOp28
 70
     1
102
RTVSPost2010Prop29
280
     1
102
RTVSPost2010PropOp29
 70
     1
102
RTVSPost2010Prop30
280
     1
102
RTVSPost2010PropOp30
 70
     1
102
RTVSPost2010Prop31
280
     0
102
RTVSPost2010PropOp31
 70
     1
102
RTVSPost2010Prop32
280
     0
102
RTVSPost2010PropOp32
 70
     1
102
RTVSPost2010Prop33
280
     0
102
RTVSPost2010PropOp33
 70
     1
102
RTVSPost2010Prop34
280
     0
102
RTVSPost2010PropOp34
 70
     1
102
RTVSPost2010Prop35
280
     0
102
RTVSPost2010PropOp35
 70
     1
102
RTVSPost2010Prop36
280
     0
102
RTVSPost2010PropOp36
 70
     1
102
RTVSPost2010Prop37
 90
       50
102
RTVSPost2010PropOp37
 70
     1
102
RTVSPost2010Prop38
140
0.0
102
RTVSPost2010PropOp38
 70
     1
102
RTVSPost2010Prop39
140
1.0
102
RTVSPost2010PropOp39
 70
     1
102
RTVSPost2010Prop40
 90
        0
102
RTVSPost2010PropOp40
 70
     1
102
RTVSPost2010Prop41ColorIndex
 90
       18
102
RTVSPost2010Prop41ColorRGB
 90
        0
102
RTVSPost2010PropOp41
 70
     1
102
RTVSPost2010Prop42
 90
       50
102
RTVSPost2010PropOp42
 70
     1
102
RTVSPost2010Prop43
 90
        3
102
RTVSPost2010PropOp43
 70
     1
102
RTVSPost2010Prop44ColorIndex
 90
        5
102
RTVSPost2010Prop44ColorRGB
 90
      255
102
RTVSPost2010PropOp44
 70
     1
102
RTVSPost2010Prop45
280
     0
102
RTVSPost2010PropOp45
 70
     1
102
RTVSPost2010Prop46
 90
       50
102
RTVSPost2010PropOp46
 70
     1
102
RTVSPost2010Prop47
 90
       50
102
RTVSPost2010PropOp47
 70
     1
102
RTVSPost2010Prop48
 90
       50
102
RTVSPost2010PropOp48
 70
     1
102
RTVSPost2010Prop49
280
     0
102
RTVSPost2010PropOp49
 70
     1
102
RTVSPost2010Prop50
 90
       50
102
RTVSPost2010PropOp50
 70
     1
102
RTVSPost2010Prop51ColorIndex
 90
      256
102
RTVSPost2010Prop51ColorRGB
 90
-16777216
102
RTVSPost2010PropOp51
 70
     0
102
RTVSPost2010Prop52
140
1.0
102
RTVSPost2010PropOp52
 70
     0
102
RTVSPost2010Prop53
 90
        2
102
RTVSPost2010PropOp53
 70
     1
102
RTVSPost2010Prop54
  1
strokes_ogs.tif
102
RTVSPost2010PropOp54
 70
     1
102
RTVSPost2010Prop55
280
     0
102
RTVSPost2010PropOp55
 70
     1
102
RTVSPost2010Prop56
140
1.0
102
RTVSPost2010PropOp56
 70
     1
102
RTVSPost2010Prop57
140
1.0
102
RTVSPost2010PropOp57
 70
     1
102
RTVSPropertyOp0
 70
     1
102
RTVSPropertyOp1
 70
     1
102
RTVSPropertyOp2
 70
     1
102
RTVSPropertyOp3
 70
     1
102
RTVSPropertyOp4
 70
     1
102
RTVSPropertyOp5
 70
     1
102
RTVSPropertyOp6
 70
     1
102
RTVSPropertyOp7
 70
     1
102
RTVSPropertyOp8
 70
     1
102
RTVSPropertyOp9
 70
     1
102
RTVSPropertyOp10
 70
     1
102
RTVSPropertyOp11
 70
     1
102
RTVSPropertyOp12
 70
     1
102
RTVSPropertyOp13
 70
     1
102
RTVSPropertyOp14
 70
     1
102
RTVSPropertyOp15
 70
     1
102
RTVSPropertyOp16
 70
     1
102
RTVSPropertyOp17
 70
     1
102
RTVSPropertyOp18
 70
     1
102
RTVSPropertyOp19
 70
     1
102
RTVSPropertyOp20
 70
     1
102
RTVSPropertyOp21
 70
     1
102
RTVSPropertyOp22
 70
     1
102
RTVSPropertyOp23
 70
     1
102
RTVSPropertyOp24
 70
     1
102
RTVSPropertyOp25
 70
     1
102
RTVSPropertyOp26
 70
     1
102
RTVSPropertyOp27
 70
     1
102
RTVSPropertyOp28
 70
     1
102
RTVSPropertyOp29
 70
     1
102
RTVSPropertyOp30
 70
     1
102
RTVSPropertyOp31
 70
     1
102
RTVSPropertyOp32
 70
     1
102
RTVSPropertyOp33
 70
     1
102
RTVSPropertyOp34
 70
     1
102
RTVSPropertyOp35
 70
     1
102
RTVSPropertyOp36
 70
     1
102
RTVSPropertyOp37
 70
     1
102
RTVSPropertyOp38
 70
     1
102
RTVSPropertyOp39
 70
     1
102
RTVSPropertyOp40
 70
     1
102
RTVSPropertyOp41
 70
     1
102
RTVSPropertyOp42
 70
     1
102
RTVSPropertyOp43
 70
     1
102
RTVSPropertyOp44
 70
     1
102
RTVSPropertyOp45
 70
     1
102
RTVSPropertyOp46
 70
     1
102
RTVSPropertyOp47
 70
     1
102
RTVSPropertyOp48
 70
     1
102
RTVSPropertyOp49
 70
     1
102
RTVSPropertyOp50
 70
     1
102
RTVSPropertyOp51
 70
     0
102
RTVSPropertyOp52
 70
     0
102
RTVSPropertyOp53
 70
     1
102
RTVSPropertyOp54
 70
     1
102
RTVSPropertyOp55
 70
     1
102
RTVSPropertyOp56
 70
     1
102
RTVSPropertyOp57
 70
     1
102
RTVSPropertyOp58
 70
     1
102
RTVSPropertyOp59
 70
     1
102
RTVSPropertyOp60
 70
     1
102
RTVSPropertyOp61
 70
     1
102
RTVSPropertyOp62
 70
     1
  0
XRECORD
  5
37B
102
{ACAD_REACTORS
330
37A
102
}
330
37A
100
AcDbXrecord
280
     1
102
RTVSPost2010Prop28
280
     0
102
RTVSPost2010PropOp28
 70
     1
102
RTVSPost2010Prop29
280
     1
102
RTVSPost2010PropOp29
 70
     1
102
RTVSPost2010Prop30
280
     1
102
RTVSPost2010PropOp30
 70
     1
102
RTVSPost2010Prop31
280
     0
102
RTVSPost2010PropOp31
 70
     1
102
RTVSPost2010Prop32
280
     0
102
RTVSPost2010PropOp32
 70
     1
102
RTVSPost2010Prop33
280
     0
102
RTVSPost2010PropOp33
 70
     1
102
RTVSPost2010Prop34
280
     0
102
RTVSPost2010PropOp34
 70
     1
102
RTVSPost2010Prop35
280
     0
102
RTVSPost2010PropOp35
 70
     1
102
RTVSPost2010Prop36
280
     0
102
RTVSPost2010PropOp36
 70
     1
102
RTVSPost2010Prop37
 90
       50
102
RTVSPost2010PropOp37
 70
     1
102
RTVSPost2010Prop38
140
0.0
102
RTVSPost2010PropOp38
 70
     1
102
RTVSPost2010Prop39
140
1.0
102
RTVSPost2010PropOp39
 70
     1
102
RTVSPost2010Prop40
 90
        0
102
RTVSPost2010PropOp40
 70
     1
102
RTVSPost2010Prop41ColorIndex
 90
       18
102
RTVSPost2010Prop41ColorRGB
 90
        0
102
RTVSPost2010PropOp41
 70
     1
102
RTVSPost2010Prop42
 90
       50
102
RTVSPost2010PropOp42
 70
     1
102
RTVSPost2010Prop43
 90
        3
102
RTVSPost2010PropOp43
 70
     1
102
RTVSPost2010Prop44ColorIndex
 90
        5
102
RTVSPost2010Prop44ColorRGB
 90
      255
102
RTVSPost2010PropOp44
 70
     1
102
RTVSPost2010Prop45
280
     0
102
RTVSPost2010PropOp45
 70
     1
102
RTVSPost2010Prop46
 90
       50
102
RTVSPost2010PropOp46
 70
     1
102
RTVSPost2010Prop47
 90
       50
102
RTVSPost2010PropOp47
 70
     1
102
RTVSPost2010Prop48
 90
       50
102
RTVSPost2010PropOp48
 70
     1
102
RTVSPost2010Prop49
280
     0
102
RTVSPost2010PropOp49
 70
     1
102
RTVSPost2010Prop50
 90
       50
102
RTVSPost2010PropOp50
 70
     1
102
RTVSPost2010Prop51ColorIndex
 90
      256
102
RTVSPost2010Prop51ColorRGB
 90
-16777216
102
RTVSPost2010PropOp51
 70
     0
102
RTVSPost2010Prop52
140
1.0
102
RTVSPost2010PropOp52
 70
     0
102
RTVSPost2010Prop53
 90
        2
102
RTVSPost2010PropOp53
 70
     1
102
RTVSPost2010Prop54
  1
strokes_ogs.tif
102
RTVSPost2010PropOp54
 70
     1
102
RTVSPost2010Prop55
280
     0
102
RTVSPost2010PropOp55
 70
     1
102
RTVSPost2010Prop56
140
1.0
102
RTVSPost2010PropOp56
 70
     1
102
RTVSPost2010Prop57
140
1.0
102
RTVSPost2010PropOp57
 70
     1
102
RTVSPropertyOp0
 70
     1
102
RTVSPropertyOp1
 70
     1
102
RTVSPropertyOp2
 70
     1
102
RTVSPropertyOp3
 70
     1
102
RTVSPropertyOp4
 70
     1
102
RTVSPropertyOp5
 70
     1
102
RTVSPropertyOp6
 70
     1
102
RTVSPropertyOp7
 70
     1
102
RTVSPropertyOp8
 70
     1
102
RTVSPropertyOp9
 70
     1
102
RTVSPropertyOp10
 70
     1
102
RTVSPropertyOp11
 70
     1
102
RTVSPropertyOp12
 70
     1
102
RTVSPropertyOp13
 70
     1
102
RTVSPropertyOp14
 70
     1
102
RTVSPropertyOp15
 70
     1
102
RTVSPropertyOp16
 70
     1
102
RTVSPropertyOp17
 70
     1
102
RTVSPropertyOp18
 70
     1
102
RTVSPropertyOp19
 70
     1
102
RTVSPropertyOp20
 70
     1
102
RTVSPropertyOp21
 70
     1
102
RTVSPropertyOp22
 70
     1
102
RTVSPropertyOp23
 70
     1
102
RTVSPropertyOp24
 70
     1
102
RTVSPropertyOp25
 70
     1
102
RTVSPropertyOp26
 70
     1
102
RTVSPropertyOp27
 70
     1
102
RTVSPropertyOp28
 70
     1
102
RTVSPropertyOp29
 70
     1
102
RTVSPropertyOp30
 70
     1
102
RTVSPropertyOp31
 70
     1
102
RTVSPropertyOp32
 70
     1
102
RTVSPropertyOp33
 70
     1
102
RTVSPropertyOp34
 70
     1
102
RTVSPropertyOp35
 70
     1
102
RTVSPropertyOp36
 70
     1
102
RTVSPropertyOp37
 70
     1
102
RTVSPropertyOp38
 70
     1
102
RTVSPropertyOp39
 70
     1
102
RTVSPropertyOp40
 70
     1
102
RTVSPropertyOp41
 70
     1
102
RTVSPropertyOp42
 70
     1
102
RTVSPropertyOp43
 70
     1
102
RTVSPropertyOp44
 70
     1
102
RTVSPropertyOp45
 70
     1
102
RTVSPropertyOp46
 70
     1
102
RTVSPropertyOp47
 70
     1
102
RTVSPropertyOp48
 70
     1
102
RTVSPropertyOp49
 70
     1
102
RTVSPropertyOp50
 70
     1
102
RTVSPropertyOp51
 70
     0
102
RTVSPropertyOp52
 70
     0
102
RTVSPropertyOp53
 70
     1
102
RTVSPropertyOp54
 70
     1
102
RTVSPropertyOp55
 70
     1
102
RTVSPropertyOp56
 70
     1
102
RTVSPropertyOp57
 70
     1
102
RTVSPropertyOp58
 70
     1
102
RTVSPropertyOp59
 70
     1
102
RTVSPropertyOp60
 70
     1
102
RTVSPropertyOp61
 70
     1
102
RTVSPropertyOp62
 70
     1
  0
XRECORD
  5
37D
102
{ACAD_REACTORS
330
37C
102
}
330
37C
100
AcDbXrecord
280
     1
102
RTVSPost2010Prop28
280
     0
102
RTVSPost2010PropOp28
 70
     1
102
RTVSPost2010Prop29
280
     1
102
RTVSPost2010PropOp29
 70
     1
102
RTVSPost2010Prop30
280
     1
102
RTVSPost2010PropOp30
 70
     1
102
RTVSPost2010Prop31
280
     0
102
RTVSPost2010PropOp31
 70
     1
102
RTVSPost2010Prop32
280
     0
102
RTVSPost2010PropOp32
 70
     1
102
RTVSPost2010Prop33
280
     0
102
RTVSPost2010PropOp33
 70
     1
102
RTVSPost2010Prop34
280
     0
102
RTVSPost2010PropOp34
 70
     1
102
RTVSPost2010Prop35
280
     0
102
RTVSPost2010PropOp35
 70
     1
102
RTVSPost2010Prop36
280
     0
102
RTVSPost2010PropOp36
 70
     1
102
RTVSPost2010Prop37
 90
       50
102
RTVSPost2010PropOp37
 70
     1
102
RTVSPost2010Prop38
140
0.0
102
RTVSPost2010PropOp38
 70
     1
102
RTVSPost2010Prop39
140
1.0
102
RTVSPost2010PropOp39
 70
     1
102
RTVSPost2010Prop40
 90
        0
102
RTVSPost2010PropOp40
 70
     1
102
RTVSPost2010Prop41ColorIndex
 90
       18
102
RTVSPost2010Prop41ColorRGB
 90
        0
102
RTVSPost2010PropOp41
 70
     1
102
RTVSPost2010Prop42
 90
       50
102
RTVSPost2010PropOp42
 70
     1
102
RTVSPost2010Prop43
 90
        3
102
RTVSPost2010PropOp43
 70
     1
102
RTVSPost2010Prop44ColorIndex
 90
        5
102
RTVSPost2010Prop44ColorRGB
 90
      255
102
RTVSPost2010PropOp44
 70
     1
102
RTVSPost2010Prop45
280
     0
102
RTVSPost2010PropOp45
 70
     1
102
RTVSPost2010Prop46
 90
       50
102
RTVSPost2010PropOp46
 70
     1
102
RTVSPost2010Prop47
 90
       50
102
RTVSPost2010PropOp47
 70
     1
102
RTVSPost2010Prop48
 90
       50
102
RTVSPost2010PropOp48
 70
     1
102
RTVSPost2010Prop49
280
     0
102
RTVSPost2010PropOp49
 70
     1
102
RTVSPost2010Prop50
 90
       50
102
RTVSPost2010PropOp50
 70
     1
102
RTVSPost2010Prop51ColorIndex
 90
      256
102
RTVSPost2010Prop51ColorRGB
 90
-16777216
102
RTVSPost2010PropOp51
 70
     0
102
RTVSPost2010Prop52
140
1.0
102
RTVSPost2010PropOp52
 70
     0
102
RTVSPost2010Prop53
 90
        2
102
RTVSPost2010PropOp53
 70
     1
102
RTVSPost2010Prop54
  1
strokes_ogs.tif
102
RTVSPost2010PropOp54
 70
     1
102
RTVSPost2010Prop55
280
     0
102
RTVSPost2010PropOp55
 70
     1
102
RTVSPost2010Prop56
140
1.0
102
RTVSPost2010PropOp56
 70
     1
102
RTVSPost2010Prop57
140
1.0
102
RTVSPost2010PropOp57
 70
     1
102
RTVSPropertyOp0
 70
     1
102
RTVSPropertyOp1
 70
     1
102
RTVSPropertyOp2
 70
     1
102
RTVSPropertyOp3
 70
     1
102
RTVSPropertyOp4
 70
     1
102
RTVSPropertyOp5
 70
     1
102
RTVSPropertyOp6
 70
     1
102
RTVSPropertyOp7
 70
     1
102
RTVSPropertyOp8
 70
     1
102
RTVSPropertyOp9
 70
     1
102
RTVSPropertyOp10
 70
     1
102
RTVSPropertyOp11
 70
     1
102
RTVSPropertyOp12
 70
     1
102
RTVSPropertyOp13
 70
     1
102
RTVSPropertyOp14
 70
     1
102
RTVSPropertyOp15
 70
     1
102
RTVSPropertyOp16
 70
     1
102
RTVSPropertyOp17
 70
     1
102
RTVSPropertyOp18
 70
     1
102
RTVSPropertyOp19
 70
     1
102
RTVSPropertyOp20
 70
     1
102
RTVSPropertyOp21
 70
     1
102
RTVSPropertyOp22
 70
     1
102
RTVSPropertyOp23
 70
     1
102
RTVSPropertyOp24
 70
     1
102
RTVSPropertyOp25
 70
     1
102
RTVSPropertyOp26
 70
     1
102
RTVSPropertyOp27
 70
     1
102
RTVSPropertyOp28
 70
     1
102
RTVSPropertyOp29
 70
     1
102
RTVSPropertyOp30
 70
     1
102
RTVSPropertyOp31
 70
     1
102
RTVSPropertyOp32
 70
     1
102
RTVSPropertyOp33
 70
     1
102
RTVSPropertyOp34
 70
     1
102
RTVSPropertyOp35
 70
     1
102
RTVSPropertyOp36
 70
     1
102
RTVSPropertyOp37
 70
     1
102
RTVSPropertyOp38
 70
     1
102
RTVSPropertyOp39
 70
     1
102
RTVSPropertyOp40
 70
     1
102
RTVSPropertyOp41
 70
     1
102
RTVSPropertyOp42
 70
     1
102
RTVSPropertyOp43
 70
     1
102
RTVSPropertyOp44
 70
     1
102
RTVSPropertyOp45
 70
     1
102
RTVSPropertyOp46
 70
     1
102
RTVSPropertyOp47
 70
     1
102
RTVSPropertyOp48
 70
     1
102
RTVSPropertyOp49
 70
     1
102
RTVSPropertyOp50
 70
     1
102
RTVSPropertyOp51
 70
     0
102
RTVSPropertyOp52
 70
     0
102
RTVSPropertyOp53
 70
     1
102
RTVSPropertyOp54
 70
     1
102
RTVSPropertyOp55
 70
     1
102
RTVSPropertyOp56
 70
     1
102
RTVSPropertyOp57
 70
     1
102
RTVSPropertyOp58
 70
     1
102
RTVSPropertyOp59
 70
     1
102
RTVSPropertyOp60
 70
     1
102
RTVSPropertyOp61
 70
     1
102
RTVSPropertyOp62
 70
     1
  0
XRECORD
  5
38D
102
{ACAD_REACTORS
330
38C
102
}
330
38C
100
AcDbXrecord
280
     1
102
RTVSPost2010Prop28
280
     0
102
RTVSPost2010PropOp28
 70
     0
102
RTVSPost2010Prop29
280
     1
102
RTVSPost2010PropOp29
 70
     0
102
RTVSPost2010Prop30
280
     1
102
RTVSPost2010PropOp30
 70
     0
102
RTVSPost2010Prop31
280
     0
102
RTVSPost2010PropOp31
 70
     0
102
RTVSPost2010Prop32
280
     0
102
RTVSPost2010PropOp32
 70
     0
102
RTVSPost2010Prop33
280
     0
102
RTVSPost2010PropOp33
 70
     0
102
RTVSPost2010Prop34
280
     0
102
RTVSPost2010PropOp34
 70
     0
102
RTVSPost2010Prop35
280
     0
102
RTVSPost2010PropOp35
 70
     0
102
RTVSPost2010Prop36
280
     0
102
RTVSPost2010PropOp36
 70
     0
102
RTVSPost2010Prop37
 90
       50
102
RTVSPost2010PropOp37
 70
     0
102
RTVSPost2010Prop38
140
0.0
102
RTVSPost2010PropOp38
 70
     0
102
RTVSPost2010Prop39
140
1.0
102
RTVSPost2010PropOp39
 70
     0
102
RTVSPost2010Prop40
 90
        0
102
RTVSPost2010PropOp40
 70
     0
102
RTVSPost2010Prop41ColorIndex
 90
       18
102
RTVSPost2010Prop41ColorRGB
 90
        0
102
RTVSPost2010PropOp41
 70
     0
102
RTVSPost2010Prop42
 90
       50
102
RTVSPost2010PropOp42
 70
     0
102
RTVSPost2010Prop43
 90
        3
102
RTVSPost2010PropOp43
 70
     0
102
RTVSPost2010Prop44ColorIndex
 90
        5
102
RTVSPost2010Prop44ColorRGB
 90
      255
102
RTVSPost2010PropOp44
 70
     0
102
RTVSPost2010Prop45
280
     0
102
RTVSPost2010PropOp45
 70
     0
102
RTVSPost2010Prop46
 90
       50
102
RTVSPost2010PropOp46
 70
     0
102
RTVSPost2010Prop47
 90
       50
102
RTVSPost2010PropOp47
 70
     0
102
RTVSPost2010Prop48
 90
       50
102
RTVSPost2010PropOp48
 70
     0
102
RTVSPost2010Prop49
280
     0
102
RTVSPost2010PropOp49
 70
     0
102
RTVSPost2010Prop50
 90
       50
102
RTVSPost2010PropOp50
 70
     0
102
RTVSPost2010Prop51ColorIndex
 90
      256
102
RTVSPost2010Prop51ColorRGB
 90
-16777216
102
RTVSPost2010PropOp51
 70
     0
102
RTVSPost2010Prop52
140
1.0
102
RTVSPost2010PropOp52
 70
     0
102
RTVSPost2010Prop53
 90
        2
102
RTVSPost2010PropOp53
 70
     0
102
RTVSPost2010Prop54
  1
strokes_ogs.tif
102
RTVSPost2010PropOp54
 70
     0
102
RTVSPost2010Prop55
280
     0
102
RTVSPost2010PropOp55
 70
     0
102
RTVSPost2010Prop56
140
1.0
102
RTVSPost2010PropOp56
 70
     0
102
RTVSPost2010Prop57
140
1.0
102
RTVSPost2010PropOp57
 70
     0
102
RTVSPropertyOp0
 70
     0
102
RTVSPropertyOp1
 70
     0
102
RTVSPropertyOp2
 70
     0
102
RTVSPropertyOp3
 70
     0
102
RTVSPropertyOp4
 70
     0
102
RTVSPropertyOp5
 70
     0
102
RTVSPropertyOp6
 70
     0
102
RTVSPropertyOp7
 70
     0
102
RTVSPropertyOp8
 70
     0
102
RTVSPropertyOp9
 70
     0
102
RTVSPropertyOp10
 70
     0
102
RTVSPropertyOp11
 70
     0
102
RTVSPropertyOp12
 70
     0
102
RTVSPropertyOp13
 70
     0
102
RTVSPropertyOp14
 70
     2
102
RTVSPropertyOp15
 70
     0
102
RTVSPropertyOp16
 70
     0
102
RTVSPropertyOp17
 70
     0
102
RTVSPropertyOp18
 70
     0
102
RTVSPropertyOp19
 70
     0
102
RTVSPropertyOp20
 70
     0
102
RTVSPropertyOp21
 70
     0
102
RTVSPropertyOp22
 70
     0
102
RTVSPropertyOp23
 70
     0
102
RTVSPropertyOp24
 70
     0
102
RTVSPropertyOp25
 70
     0
102
RTVSPropertyOp26
 70
     0
102
RTVSPropertyOp27
 70
     0
102
RTVSPropertyOp28
 70
     0
102
RTVSPropertyOp29
 70
     0
102
RTVSPropertyOp30
 70
     0
102
RTVSPropertyOp31
 70
     0
102
RTVSPropertyOp32
 70
     0
102
RTVSPropertyOp33
 70
     0
102
RTVSPropertyOp34
 70
     0
102
RTVSPropertyOp35
 70
     0
102
RTVSPropertyOp36
 70
     0
102
RTVSPropertyOp37
 70
     0
102
RTVSPropertyOp38
 70
     0
102
RTVSPropertyOp39
 70
     0
102
RTVSPropertyOp40
 70
     0
102
RTVSPropertyOp41
 70
     0
102
RTVSPropertyOp42
 70
     0
102
RTVSPropertyOp43
 70
     0
102
RTVSPropertyOp44
 70
     0
102
RTVSPropertyOp45
 70
     0
102
RTVSPropertyOp46
 70
     0
102
RTVSPropertyOp47
 70
     0
102
RTVSPropertyOp48
 70
     0
102
RTVSPropertyOp49
 70
     0
102
RTVSPropertyOp50
 70
     0
102
RTVSPropertyOp51
 70
     0
102
RTVSPropertyOp52
 70
     0
102
RTVSPropertyOp53
 70
     0
102
RTVSPropertyOp54
 70
     0
102
RTVSPropertyOp55
 70
     0
102
RTVSPropertyOp56
 70
     0
102
RTVSPropertyOp57
 70
     0
102
RTVSPropertyOp58
 70
     1
102
RTVSPropertyOp59
 70
     1
102
RTVSPropertyOp60
 70
     1
102
RTVSPropertyOp61
 70
     1
102
RTVSPropertyOp62
 70
     1
  0
XRECORD
  5
385
102
{ACAD_REACTORS
330
384
102
}
330
384
100
AcDbXrecord
280
     1
102
RTVSPost2010Prop28
280
     0
102
RTVSPost2010PropOp28
 70
     1
102
RTVSPost2010Prop29
280
     1
102
RTVSPost2010PropOp29
 70
     1
102
RTVSPost2010Prop30
280
     1
102
RTVSPost2010PropOp30
 70
     1
102
RTVSPost2010Prop31
280
     0
102
RTVSPost2010PropOp31
 70
     1
102
RTVSPost2010Prop32
280
     0
102
RTVSPost2010PropOp32
 70
     1
102
RTVSPost2010Prop33
280
     0
102
RTVSPost2010PropOp33
 70
     1
102
RTVSPost2010Prop34
280
     0
102
RTVSPost2010PropOp34
 70
     1
102
RTVSPost2010Prop35
280
     0
102
RTVSPost2010PropOp35
 70
     1
102
RTVSPost2010Prop36
280
     0
102
RTVSPost2010PropOp36
 70
     1
102
RTVSPost2010Prop37
 90
       50
102
RTVSPost2010PropOp37
 70
     1
102
RTVSPost2010Prop38
140
0.0
102
RTVSPost2010PropOp38
 70
     1
102
RTVSPost2010Prop39
140
1.0
102
RTVSPost2010PropOp39
 70
     1
102
RTVSPost2010Prop40
 90
        0
102
RTVSPost2010PropOp40
 70
     1
102
RTVSPost2010Prop41ColorIndex
 90
       18
102
RTVSPost2010Prop41ColorRGB
 90
        0
102
RTVSPost2010PropOp41
 70
     1
102
RTVSPost2010Prop42
 90
       50
102
RTVSPost2010PropOp42
 70
     1
102
RTVSPost2010Prop43
 90
        3
102
RTVSPost2010PropOp43
 70
     1
102
RTVSPost2010Prop44ColorIndex
 90
        5
102
RTVSPost2010Prop44ColorRGB
 90
      255
102
RTVSPost2010PropOp44
 70
     1
102
RTVSPost2010Prop45
280
     0
102
RTVSPost2010PropOp45
 70
     1
102
RTVSPost2010Prop46
 90
       50
102
RTVSPost2010PropOp46
 70
     1
102
RTVSPost2010Prop47
 90
       50
102
RTVSPost2010PropOp47
 70
     1
102
RTVSPost2010Prop48
 90
       50
102
RTVSPost2010PropOp48
 70
     1
102
RTVSPost2010Prop49
280
     0
102
RTVSPost2010PropOp49
 70
     1
102
RTVSPost2010Prop50
 90
       50
102
RTVSPost2010PropOp50
 70
     1
102
RTVSPost2010Prop51ColorIndex
 90
      256
102
RTVSPost2010Prop51ColorRGB
 90
-16777216
102
RTVSPost2010PropOp51
 70
     0
102
RTVSPost2010Prop52
140
1.0
102
RTVSPost2010PropOp52
 70
     0
102
RTVSPost2010Prop53
 90
        2
102
RTVSPost2010PropOp53
 70
     1
102
RTVSPost2010Prop54
  1
strokes_ogs.tif
102
RTVSPost2010PropOp54
 70
     1
102
RTVSPost2010Prop55
280
     0
102
RTVSPost2010PropOp55
 70
     1
102
RTVSPost2010Prop56
140
1.0
102
RTVSPost2010PropOp56
 70
     1
102
RTVSPost2010Prop57
140
1.0
102
RTVSPost2010PropOp57
 70
     1
102
RTVSPropertyOp0
 70
     1
102
RTVSPropertyOp1
 70
     1
102
RTVSPropertyOp2
 70
     1
102
RTVSPropertyOp3
 70
     1
102
RTVSPropertyOp4
 70
     1
102
RTVSPropertyOp5
 70
     1
102
RTVSPropertyOp6
 70
     1
102
RTVSPropertyOp7
 70
     1
102
RTVSPropertyOp8
 70
     1
102
RTVSPropertyOp9
 70
     1
102
RTVSPropertyOp10
 70
     1
102
RTVSPropertyOp11
 70
     1
102
RTVSPropertyOp12
 70
     1
102
RTVSPropertyOp13
 70
     1
102
RTVSPropertyOp14
 70
     1
102
RTVSPropertyOp15
 70
     1
102
RTVSPropertyOp16
 70
     1
102
RTVSPropertyOp17
 70
     1
102
RTVSPropertyOp18
 70
     1
102
RTVSPropertyOp19
 70
     1
102
RTVSPropertyOp20
 70
     1
102
RTVSPropertyOp21
 70
     1
102
RTVSPropertyOp22
 70
     1
102
RTVSPropertyOp23
 70
     1
102
RTVSPropertyOp24
 70
     1
102
RTVSPropertyOp25
 70
     1
102
RTVSPropertyOp26
 70
     1
102
RTVSPropertyOp27
 70
     1
102
RTVSPropertyOp28
 70
     1
102
RTVSPropertyOp29
 70
     1
102
RTVSPropertyOp30
 70
     1
102
RTVSPropertyOp31
 70
     1
102
RTVSPropertyOp32
 70
     1
102
RTVSPropertyOp33
 70
     1
102
RTVSPropertyOp34
 70
     1
102
RTVSPropertyOp35
 70
     1
102
RTVSPropertyOp36
 70
     1
102
RTVSPropertyOp37
 70
     1
102
RTVSPropertyOp38
 70
     1
102
RTVSPropertyOp39
 70
     1
102
RTVSPropertyOp40
 70
     1
102
RTVSPropertyOp41
 70
     1
102
RTVSPropertyOp42
 70
     1
102
RTVSPropertyOp43
 70
     1
102
RTVSPropertyOp44
 70
     1
102
RTVSPropertyOp45
 70
     1
102
RTVSPropertyOp46
 70
     1
102
RTVSPropertyOp47
 70
     1
102
RTVSPropertyOp48
 70
     1
102
RTVSPropertyOp49
 70
     1
102
RTVSPropertyOp50
 70
     1
102
RTVSPropertyOp51
 70
     0
102
RTVSPropertyOp52
 70
     0
102
RTVSPropertyOp53
 70
     1
102
RTVSPropertyOp54
 70
     1
102
RTVSPropertyOp55
 70
     1
102
RTVSPropertyOp56
 70
     1
102
RTVSPropertyOp57
 70
     1
102
RTVSPropertyOp58
 70
     1
102
RTVSPropertyOp59
 70
     1
102
RTVSPropertyOp60
 70
     1
102
RTVSPropertyOp61
 70
     1
102
RTVSPropertyOp62
 70
     1
  0
XRECORD
  5
369
102
{ACAD_REACTORS
330
368
102
}
330
368
100
AcDbXrecord
280
     1
102
RTVSPost2010Prop28
280
     0
102
RTVSPost2010PropOp28
 70
     1
102
RTVSPost2010Prop29
280
     1
102
RTVSPost2010PropOp29
 70
     1
102
RTVSPost2010Prop30
280
     1
102
RTVSPost2010PropOp30
 70
     1
102
RTVSPost2010Prop31
280
     0
102
RTVSPost2010PropOp31
 70
     1
102
RTVSPost2010Prop32
280
     0
102
RTVSPost2010PropOp32
 70
     1
102
RTVSPost2010Prop33
280
     0
102
RTVSPost2010PropOp33
 70
     1
102
RTVSPost2010Prop34
280
     0
102
RTVSPost2010PropOp34
 70
     1
102
RTVSPost2010Prop35
280
     0
102
RTVSPost2010PropOp35
 70
     1
102
RTVSPost2010Prop36
280
     0
102
RTVSPost2010PropOp36
 70
     1
102
RTVSPost2010Prop37
 90
       50
102
RTVSPost2010PropOp37
 70
     1
102
RTVSPost2010Prop38
140
0.0
102
RTVSPost2010PropOp38
 70
     1
102
RTVSPost2010Prop39
140
1.0
102
RTVSPost2010PropOp39
 70
     1
102
RTVSPost2010Prop40
 90
        0
102
RTVSPost2010PropOp40
 70
     1
102
RTVSPost2010Prop41ColorIndex
 90
       18
102
RTVSPost2010Prop41ColorRGB
 90
        0
102
RTVSPost2010PropOp41
 70
     1
102
RTVSPost2010Prop42
 90
       50
102
RTVSPost2010PropOp42
 70
     1
102
RTVSPost2010Prop43
 90
        3
102
RTVSPost2010PropOp43
 70
     1
102
RTVSPost2010Prop44ColorIndex
 90
        5
102
RTVSPost2010Prop44ColorRGB
 90
      255
102
RTVSPost2010PropOp44
 70
     1
102
RTVSPost2010Prop45
280
     0
102
RTVSPost2010PropOp45
 70
     1
102
RTVSPost2010Prop46
 90
       50
102
RTVSPost2010PropOp46
 70
     1
102
RTVSPost2010Prop47
 90
       50
102
RTVSPost2010PropOp47
 70
     1
102
RTVSPost2010Prop48
 90
       50
102
RTVSPost2010PropOp48
 70
     1
102
RTVSPost2010Prop49
280
     0
102
RTVSPost2010PropOp49
 70
     1
102
RTVSPost2010Prop50
 90
       50
102
RTVSPost2010PropOp50
 70
     1
102
RTVSPost2010Prop51ColorIndex
 90
      256
102
RTVSPost2010Prop51ColorRGB
 90
-16777216
102
RTVSPost2010PropOp51
 70
     0
102
RTVSPost2010Prop52
140
1.0
102
RTVSPost2010PropOp52
 70
     0
102
RTVSPost2010Prop53
 90
        2
102
RTVSPost2010PropOp53
 70
     1
102
RTVSPost2010Prop54
  1
strokes_ogs.tif
102
RTVSPost2010PropOp54
 70
     1
102
RTVSPost2010Prop55
280
     0
102
RTVSPost2010PropOp55
 70
     1
102
RTVSPost2010Prop56
140
1.0
102
RTVSPost2010PropOp56
 70
     1
102
RTVSPost2010Prop57
140
1.0
102
RTVSPost2010PropOp57
 70
     1
102
RTVSPropertyOp0
 70
     1
102
RTVSPropertyOp1
 70
     1
102
RTVSPropertyOp2
 70
     1
102
RTVSPropertyOp3
 70
     1
102
RTVSPropertyOp4
 70
     1
102
RTVSPropertyOp5
 70
     1
102
RTVSPropertyOp6
 70
     1
102
RTVSPropertyOp7
 70
     1
102
RTVSPropertyOp8
 70
     1
102
RTVSPropertyOp9
 70
     1
102
RTVSPropertyOp10
 70
     1
102
RTVSPropertyOp11
 70
     1
102
RTVSPropertyOp12
 70
     1
102
RTVSPropertyOp13
 70
     1
102
RTVSPropertyOp14
 70
     1
102
RTVSPropertyOp15
 70
     1
102
RTVSPropertyOp16
 70
     1
102
RTVSPropertyOp17
 70
     1
102
RTVSPropertyOp18
 70
     1
102
RTVSPropertyOp19
 70
     1
102
RTVSPropertyOp20
 70
     1
102
RTVSPropertyOp21
 70
     1
102
RTVSPropertyOp22
 70
     1
102
RTVSPropertyOp23
 70
     1
102
RTVSPropertyOp24
 70
     1
102
RTVSPropertyOp25
 70
     1
102
RTVSPropertyOp26
 70
     1
102
RTVSPropertyOp27
 70
     1
102
RTVSPropertyOp28
 70
     1
102
RTVSPropertyOp29
 70
     1
102
RTVSPropertyOp30
 70
     1
102
RTVSPropertyOp31
 70
     1
102
RTVSPropertyOp32
 70
     1
102
RTVSPropertyOp33
 70
     1
102
RTVSPropertyOp34
 70
     1
102
RTVSPropertyOp35
 70
     1
102
RTVSPropertyOp36
 70
     1
102
RTVSPropertyOp37
 70
     1
102
RTVSPropertyOp38
 70
     1
102
RTVSPropertyOp39
 70
     1
102
RTVSPropertyOp40
 70
     1
102
RTVSPropertyOp41
 70
     1
102
RTVSPropertyOp42
 70
     1
102
RTVSPropertyOp43
 70
     1
102
RTVSPropertyOp44
 70
     1
102
RTVSPropertyOp45
 70
     1
102
RTVSPropertyOp46
 70
     1
102
RTVSPropertyOp47
 70
     1
102
RTVSPropertyOp48
 70
     1
102
RTVSPropertyOp49
 70
     1
102
RTVSPropertyOp50
 70
     1
102
RTVSPropertyOp51
 70
     0
102
RTVSPropertyOp52
 70
     0
102
RTVSPropertyOp53
 70
     1
102
RTVSPropertyOp54
 70
     1
102
RTVSPropertyOp55
 70
     1
102
RTVSPropertyOp56
 70
     1
102
RTVSPropertyOp57
 70
     1
102
RTVSPropertyOp58
 70
     1
102
RTVSPropertyOp59
 70
     1
102
RTVSPropertyOp60
 70
     1
102
RTVSPropertyOp61
 70
     1
102
RTVSPropertyOp62
 70
     1
  0
XRECORD
  5
36B
102
{ACAD_REACTORS
330
36A
102
}
330
36A
100
AcDbXrecord
280
     1
102
RTVSPost2010Prop28
280
     0
102
RTVSPost2010PropOp28
 70
     1
102
RTVSPost2010Prop29
280
     1
102
RTVSPost2010PropOp29
 70
     1
102
RTVSPost2010Prop30
280
     1
102
RTVSPost2010PropOp30
 70
     1
102
RTVSPost2010Prop31
280
     0
102
RTVSPost2010PropOp31
 70
     1
102
RTVSPost2010Prop32
280
     0
102
RTVSPost2010PropOp32
 70
     1
102
RTVSPost2010Prop33
280
     0
102
RTVSPost2010PropOp33
 70
     1
102
RTVSPost2010Prop34
280
     0
102
RTVSPost2010PropOp34
 70
     1
102
RTVSPost2010Prop35
280
     0
102
RTVSPost2010PropOp35
 70
     1
102
RTVSPost2010Prop36
280
     0
102
RTVSPost2010PropOp36
 70
     1
102
RTVSPost2010Prop37
 90
       50
102
RTVSPost2010PropOp37
 70
     1
102
RTVSPost2010Prop38
140
0.0
102
RTVSPost2010PropOp38
 70
     1
102
RTVSPost2010Prop39
140
1.0
102
RTVSPost2010PropOp39
 70
     1
102
RTVSPost2010Prop40
 90
        0
102
RTVSPost2010PropOp40
 70
     1
102
RTVSPost2010Prop41ColorIndex
 90
       18
102
RTVSPost2010Prop41ColorRGB
 90
        0
102
RTVSPost2010PropOp41
 70
     1
102
RTVSPost2010Prop42
 90
       50
102
RTVSPost2010PropOp42
 70
     1
102
RTVSPost2010Prop43
 90
        3
102
RTVSPost2010PropOp43
 70
     1
102
RTVSPost2010Prop44ColorIndex
 90
        5
102
RTVSPost2010Prop44ColorRGB
 90
      255
102
RTVSPost2010PropOp44
 70
     1
102
RTVSPost2010Prop45
280
     0
102
RTVSPost2010PropOp45
 70
     1
102
RTVSPost2010Prop46
 90
       50
102
RTVSPost2010PropOp46
 70
     1
102
RTVSPost2010Prop47
 90
       50
102
RTVSPost2010PropOp47
 70
     1
102
RTVSPost2010Prop48
 90
       50
102
RTVSPost2010PropOp48
 70
     1
102
RTVSPost2010Prop49
280
     0
102
RTVSPost2010PropOp49
 70
     1
102
RTVSPost2010Prop50
 90
       50
102
RTVSPost2010PropOp50
 70
     1
102
RTVSPost2010Prop51ColorIndex
 90
      256
102
RTVSPost2010Prop51ColorRGB
 90
-16777216
102
RTVSPost2010PropOp51
 70
     0
102
RTVSPost2010Prop52
140
1.0
102
RTVSPost2010PropOp52
 70
     0
102
RTVSPost2010Prop53
 90
        2
102
RTVSPost2010PropOp53
 70
     1
102
RTVSPost2010Prop54
  1
strokes_ogs.tif
102
RTVSPost2010PropOp54
 70
     1
102
RTVSPost2010Prop55
280
     0
102
RTVSPost2010PropOp55
 70
     1
102
RTVSPost2010Prop56
140
1.0
102
RTVSPost2010PropOp56
 70
     1
102
RTVSPost2010Prop57
140
1.0
102
RTVSPost2010PropOp57
 70
     1
102
RTVSPropertyOp0
 70
     1
102
RTVSPropertyOp1
 70
     1
102
RTVSPropertyOp2
 70
     1
102
RTVSPropertyOp3
 70
     1
102
RTVSPropertyOp4
 70
     1
102
RTVSPropertyOp5
 70
     1
102
RTVSPropertyOp6
 70
     1
102
RTVSPropertyOp7
 70
     1
102
RTVSPropertyOp8
 70
     1
102
RTVSPropertyOp9
 70
     1
102
RTVSPropertyOp10
 70
     1
102
RTVSPropertyOp11
 70
     1
102
RTVSPropertyOp12
 70
     1
102
RTVSPropertyOp13
 70
     1
102
RTVSPropertyOp14
 70
     1
102
RTVSPropertyOp15
 70
     1
102
RTVSPropertyOp16
 70
     1
102
RTVSPropertyOp17
 70
     1
102
RTVSPropertyOp18
 70
     1
102
RTVSPropertyOp19
 70
     1
102
RTVSPropertyOp20
 70
     1
102
RTVSPropertyOp21
 70
     1
102
RTVSPropertyOp22
 70
     1
102
RTVSPropertyOp23
 70
     1
102
RTVSPropertyOp24
 70
     1
102
RTVSPropertyOp25
 70
     1
102
RTVSPropertyOp26
 70
     1
102
RTVSPropertyOp27
 70
     1
102
RTVSPropertyOp28
 70
     1
102
RTVSPropertyOp29
 70
     1
102
RTVSPropertyOp30
 70
     1
102
RTVSPropertyOp31
 70
     1
102
RTVSPropertyOp32
 70
     1
102
RTVSPropertyOp33
 70
     1
102
RTVSPropertyOp34
 70
     1
102
RTVSPropertyOp35
 70
     1
102
RTVSPropertyOp36
 70
     1
102
RTVSPropertyOp37
 70
     1
102
RTVSPropertyOp38
 70
     1
102
RTVSPropertyOp39
 70
     1
102
RTVSPropertyOp40
 70
     1
102
RTVSPropertyOp41
 70
     1
102
RTVSPropertyOp42
 70
     1
102
RTVSPropertyOp43
 70
     1
102
RTVSPropertyOp44
 70
     1
102
RTVSPropertyOp45
 70
     1
102
RTVSPropertyOp46
 70
     1
102
RTVSPropertyOp47
 70
     1
102
RTVSPropertyOp48
 70
     1
102
RTVSPropertyOp49
 70
     1
102
RTVSPropertyOp50
 70
     1
102
RTVSPropertyOp51
 70
     0
102
RTVSPropertyOp52
 70
     0
102
RTVSPropertyOp53
 70
     1
102
RTVSPropertyOp54
 70
     1
102
RTVSPropertyOp55
 70
     1
102
RTVSPropertyOp56
 70
     1
102
RTVSPropertyOp57
 70
     1
102
RTVSPropertyOp58
 70
     1
102
RTVSPropertyOp59
 70
     1
102
RTVSPropertyOp60
 70
     1
102
RTVSPropertyOp61
 70
     1
102
RTVSPropertyOp62
 70
     1
  0
XRECORD
  5
36D
102
{ACAD_REACTORS
330
36C
102
}
330
36C
100
AcDbXrecord
280
     1
102
RTVSPost2010Prop28
280
     0
102
RTVSPost2010PropOp28
 70
     1
102
RTVSPost2010Prop29
280
     1
102
RTVSPost2010PropOp29
 70
     1
102
RTVSPost2010Prop30
280
     1
102
RTVSPost2010PropOp30
 70
     1
102
RTVSPost2010Prop31
280
     0
102
RTVSPost2010PropOp31
 70
     1
102
RTVSPost2010Prop32
280
     0
102
RTVSPost2010PropOp32
 70
     1
102
RTVSPost2010Prop33
280
     0
102
RTVSPost2010PropOp33
 70
     1
102
RTVSPost2010Prop34
280
     0
102
RTVSPost2010PropOp34
 70
     1
102
RTVSPost2010Prop35
280
     0
102
RTVSPost2010PropOp35
 70
     1
102
RTVSPost2010Prop36
280
     0
102
RTVSPost2010PropOp36
 70
     1
102
RTVSPost2010Prop37
 90
       50
102
RTVSPost2010PropOp37
 70
     1
102
RTVSPost2010Prop38
140
0.0
102
RTVSPost2010PropOp38
 70
     1
102
RTVSPost2010Prop39
140
1.0
102
RTVSPost2010PropOp39
 70
     1
102
RTVSPost2010Prop40
 90
        0
102
RTVSPost2010PropOp40
 70
     1
102
RTVSPost2010Prop41ColorIndex
 90
       18
102
RTVSPost2010Prop41ColorRGB
 90
        0
102
RTVSPost2010PropOp41
 70
     1
102
RTVSPost2010Prop42
 90
       50
102
RTVSPost2010PropOp42
 70
     1
102
RTVSPost2010Prop43
 90
        3
102
RTVSPost2010PropOp43
 70
     1
102
RTVSPost2010Prop44ColorIndex
 90
        5
102
RTVSPost2010Prop44ColorRGB
 90
      255
102
RTVSPost2010PropOp44
 70
     1
102
RTVSPost2010Prop45
280
     0
102
RTVSPost2010PropOp45
 70
     1
102
RTVSPost2010Prop46
 90
       50
102
RTVSPost2010PropOp46
 70
     1
102
RTVSPost2010Prop47
 90
       50
102
RTVSPost2010PropOp47
 70
     1
102
RTVSPost2010Prop48
 90
       50
102
RTVSPost2010PropOp48
 70
     1
102
RTVSPost2010Prop49
280
     0
102
RTVSPost2010PropOp49
 70
     1
102
RTVSPost2010Prop50
 90
       50
102
RTVSPost2010PropOp50
 70
     1
102
RTVSPost2010Prop51ColorIndex
 90
      256
102
RTVSPost2010Prop51ColorRGB
 90
-16777216
102
RTVSPost2010PropOp51
 70
     0
102
RTVSPost2010Prop52
140
1.0
102
RTVSPost2010PropOp52
 70
     0
102
RTVSPost2010Prop53
 90
        2
102
RTVSPost2010PropOp53
 70
     1
102
RTVSPost2010Prop54
  1
strokes_ogs.tif
102
RTVSPost2010PropOp54
 70
     1
102
RTVSPost2010Prop55
280
     0
102
RTVSPost2010PropOp55
 70
     1
102
RTVSPost2010Prop56
140
1.0
102
RTVSPost2010PropOp56
 70
     1
102
RTVSPost2010Prop57
140
1.0
102
RTVSPost2010PropOp57
 70
     1
102
RTVSPropertyOp0
 70
     1
102
RTVSPropertyOp1
 70
     1
102
RTVSPropertyOp2
 70
     1
102
RTVSPropertyOp3
 70
     1
102
RTVSPropertyOp4
 70
     1
102
RTVSPropertyOp5
 70
     1
102
RTVSPropertyOp6
 70
     1
102
RTVSPropertyOp7
 70
     1
102
RTVSPropertyOp8
 70
     1
102
RTVSPropertyOp9
 70
     1
102
RTVSPropertyOp10
 70
     1
102
RTVSPropertyOp11
 70
     1
102
RTVSPropertyOp12
 70
     1
102
RTVSPropertyOp13
 70
     1
102
RTVSPropertyOp14
 70
     1
102
RTVSPropertyOp15
 70
     1
102
RTVSPropertyOp16
 70
     1
102
RTVSPropertyOp17
 70
     1
102
RTVSPropertyOp18
 70
     1
102
RTVSPropertyOp19
 70
     1
102
RTVSPropertyOp20
 70
     1
102
RTVSPropertyOp21
 70
     1
102
RTVSPropertyOp22
 70
     1
102
RTVSPropertyOp23
 70
     1
102
RTVSPropertyOp24
 70
     1
102
RTVSPropertyOp25
 70
     1
102
RTVSPropertyOp26
 70
     1
102
RTVSPropertyOp27
 70
     1
102
RTVSPropertyOp28
 70
     1
102
RTVSPropertyOp29
 70
     1
102
RTVSPropertyOp30
 70
     1
102
RTVSPropertyOp31
 70
     1
102
RTVSPropertyOp32
 70
     1
102
RTVSPropertyOp33
 70
     1
102
RTVSPropertyOp34
 70
     1
102
RTVSPropertyOp35
 70
     1
102
RTVSPropertyOp36
 70
     1
102
RTVSPropertyOp37
 70
     1
102
RTVSPropertyOp38
 70
     1
102
RTVSPropertyOp39
 70
     1
102
RTVSPropertyOp40
 70
     1
102
RTVSPropertyOp41
 70
     1
102
RTVSPropertyOp42
 70
     1
102
RTVSPropertyOp43
 70
     1
102
RTVSPropertyOp44
 70
     1
102
RTVSPropertyOp45
 70
     1
102
RTVSPropertyOp46
 70
     1
102
RTVSPropertyOp47
 70
     1
102
RTVSPropertyOp48
 70
     1
102
RTVSPropertyOp49
 70
     1
102
RTVSPropertyOp50
 70
     1
102
RTVSPropertyOp51
 70
     0
102
RTVSPropertyOp52
 70
     0
102
RTVSPropertyOp53
 70
     1
102
RTVSPropertyOp54
 70
     1
102
RTVSPropertyOp55
 70
     1
102
RTVSPropertyOp56
 70
     1
102
RTVSPropertyOp57
 70
     1
102
RTVSPropertyOp58
 70
     1
102
RTVSPropertyOp59
 70
     1
102
RTVSPropertyOp60
 70
     1
102
RTVSPropertyOp61
 70
     1
102
RTVSPropertyOp62
 70
     1
  0
XRECORD
  5
36F
102
{ACAD_REACTORS
330
36E
102
}
330
36E
100
AcDbXrecord
280
     1
102
RTVSPost2010Prop28
280
     0
102
RTVSPost2010PropOp28
 70
     1
102
RTVSPost2010Prop29
280
     1
102
RTVSPost2010PropOp29
 70
     1
102
RTVSPost2010Prop30
280
     1
102
RTVSPost2010PropOp30
 70
     1
102
RTVSPost2010Prop31
280
     0
102
RTVSPost2010PropOp31
 70
     1
102
RTVSPost2010Prop32
280
     0
102
RTVSPost2010PropOp32
 70
     1
102
RTVSPost2010Prop33
280
     0
102
RTVSPost2010PropOp33
 70
     1
102
RTVSPost2010Prop34
280
     0
102
RTVSPost2010PropOp34
 70
     1
102
RTVSPost2010Prop35
280
     0
102
RTVSPost2010PropOp35
 70
     1
102
RTVSPost2010Prop36
280
     0
102
RTVSPost2010PropOp36
 70
     1
102
RTVSPost2010Prop37
 90
       50
102
RTVSPost2010PropOp37
 70
     1
102
RTVSPost2010Prop38
140
0.0
102
RTVSPost2010PropOp38
 70
     1
102
RTVSPost2010Prop39
140
1.0
102
RTVSPost2010PropOp39
 70
     1
102
RTVSPost2010Prop40
 90
        0
102
RTVSPost2010PropOp40
 70
     1
102
RTVSPost2010Prop41ColorIndex
 90
       18
102
RTVSPost2010Prop41ColorRGB
 90
        0
102
RTVSPost2010PropOp41
 70
     1
102
RTVSPost2010Prop42
 90
       50
102
RTVSPost2010PropOp42
 70
     1
102
RTVSPost2010Prop43
 90
        3
102
RTVSPost2010PropOp43
 70
     1
102
RTVSPost2010Prop44ColorIndex
 90
        5
102
RTVSPost2010Prop44ColorRGB
 90
      255
102
RTVSPost2010PropOp44
 70
     1
102
RTVSPost2010Prop45
280
     0
102
RTVSPost2010PropOp45
 70
     1
102
RTVSPost2010Prop46
 90
       50
102
RTVSPost2010PropOp46
 70
     1
102
RTVSPost2010Prop47
 90
       50
102
RTVSPost2010PropOp47
 70
     1
102
RTVSPost2010Prop48
 90
       50
102
RTVSPost2010PropOp48
 70
     1
102
RTVSPost2010Prop49
280
     0
102
RTVSPost2010PropOp49
 70
     1
102
RTVSPost2010Prop50
 90
       50
102
RTVSPost2010PropOp50
 70
     1
102
RTVSPost2010Prop51ColorIndex
 90
      256
102
RTVSPost2010Prop51ColorRGB
 90
-16777216
102
RTVSPost2010PropOp51
 70
     0
102
RTVSPost2010Prop52
140
1.0
102
RTVSPost2010PropOp52
 70
     0
102
RTVSPost2010Prop53
 90
        2
102
RTVSPost2010PropOp53
 70
     1
102
RTVSPost2010Prop54
  1
strokes_ogs.tif
102
RTVSPost2010PropOp54
 70
     1
102
RTVSPost2010Prop55
280
     0
102
RTVSPost2010PropOp55
 70
     1
102
RTVSPost2010Prop56
140
1.0
102
RTVSPost2010PropOp56
 70
     1
102
RTVSPost2010Prop57
140
1.0
102
RTVSPost2010PropOp57
 70
     1
102
RTVSPropertyOp0
 70
     1
102
RTVSPropertyOp1
 70
     1
102
RTVSPropertyOp2
 70
     1
102
RTVSPropertyOp3
 70
     1
102
RTVSPropertyOp4
 70
     1
102
RTVSPropertyOp5
 70
     1
102
RTVSPropertyOp6
 70
     1
102
RTVSPropertyOp7
 70
     1
102
RTVSPropertyOp8
 70
     1
102
RTVSPropertyOp9
 70
     1
102
RTVSPropertyOp10
 70
     1
102
RTVSPropertyOp11
 70
     1
102
RTVSPropertyOp12
 70
     1
102
RTVSPropertyOp13
 70
     1
102
RTVSPropertyOp14
 70
     1
102
RTVSPropertyOp15
 70
     1
102
RTVSPropertyOp16
 70
     1
102
RTVSPropertyOp17
 70
     1
102
RTVSPropertyOp18
 70
     1
102
RTVSPropertyOp19
 70
     1
102
RTVSPropertyOp20
 70
     1
102
RTVSPropertyOp21
 70
     1
102
RTVSPropertyOp22
 70
     1
102
RTVSPropertyOp23
 70
     1
102
RTVSPropertyOp24
 70
     1
102
RTVSPropertyOp25
 70
     1
102
RTVSPropertyOp26
 70
     1
102
RTVSPropertyOp27
 70
     1
102
RTVSPropertyOp28
 70
     1
102
RTVSPropertyOp29
 70
     1
102
RTVSPropertyOp30
 70
     1
102
RTVSPropertyOp31
 70
     1
102
RTVSPropertyOp32
 70
     1
102
RTVSPropertyOp33
 70
     1
102
RTVSPropertyOp34
 70
     1
102
RTVSPropertyOp35
 70
     1
102
RTVSPropertyOp36
 70
     1
102
RTVSPropertyOp37
 70
     1
102
RTVSPropertyOp38
 70
     1
102
RTVSPropertyOp39
 70
     1
102
RTVSPropertyOp40
 70
     1
102
RTVSPropertyOp41
 70
     1
102
RTVSPropertyOp42
 70
     1
102
RTVSPropertyOp43
 70
     1
102
RTVSPropertyOp44
 70
     1
102
RTVSPropertyOp45
 70
     1
102
RTVSPropertyOp46
 70
     1
102
RTVSPropertyOp47
 70
     1
102
RTVSPropertyOp48
 70
     1
102
RTVSPropertyOp49
 70
     1
102
RTVSPropertyOp50
 70
     1
102
RTVSPropertyOp51
 70
     0
102
RTVSPropertyOp52
 70
     0
102
RTVSPropertyOp53
 70
     1
102
RTVSPropertyOp54
 70
     1
102
RTVSPropertyOp55
 70
     1
102
RTVSPropertyOp56
 70
     1
102
RTVSPropertyOp57
 70
     1
102
RTVSPropertyOp58
 70
     1
102
RTVSPropertyOp59
 70
     1
102
RTVSPropertyOp60
 70
     1
102
RTVSPropertyOp61
 70
     1
102
RTVSPropertyOp62
 70
     1
  0
XRECORD
  5
375
102
{ACAD_REACTORS
330
374
102
}
330
374
100
AcDbXrecord
280
     1
102
RTVSPost2010Prop28
280
     0
102
RTVSPost2010PropOp28
 70
     1
102
RTVSPost2010Prop29
280
     1
102
RTVSPost2010PropOp29
 70
     1
102
RTVSPost2010Prop30
280
     1
102
RTVSPost2010PropOp30
 70
     1
102
RTVSPost2010Prop31
280
     0
102
RTVSPost2010PropOp31
 70
     1
102
RTVSPost2010Prop32
280
     0
102
RTVSPost2010PropOp32
 70
     1
102
RTVSPost2010Prop33
280
     0
102
RTVSPost2010PropOp33
 70
     1
102
RTVSPost2010Prop34
280
     0
102
RTVSPost2010PropOp34
 70
     1
102
RTVSPost2010Prop35
280
     0
102
RTVSPost2010PropOp35
 70
     1
102
RTVSPost2010Prop36
280
     0
102
RTVSPost2010PropOp36
 70
     1
102
RTVSPost2010Prop37
 90
       50
102
RTVSPost2010PropOp37
 70
     1
102
RTVSPost2010Prop38
140
0.0
102
RTVSPost2010PropOp38
 70
     1
102
RTVSPost2010Prop39
140
1.0
102
RTVSPost2010PropOp39
 70
     1
102
RTVSPost2010Prop40
 90
        0
102
RTVSPost2010PropOp40
 70
     1
102
RTVSPost2010Prop41ColorIndex
 90
       18
102
RTVSPost2010Prop41ColorRGB
 90
        0
102
RTVSPost2010PropOp41
 70
     1
102
RTVSPost2010Prop42
 90
       50
102
RTVSPost2010PropOp42
 70
     1
102
RTVSPost2010Prop43
 90
        3
102
RTVSPost2010PropOp43
 70
     1
102
RTVSPost2010Prop44ColorIndex
 90
        5
102
RTVSPost2010Prop44ColorRGB
 90
      255
102
RTVSPost2010PropOp44
 70
     1
102
RTVSPost2010Prop45
280
     0
102
RTVSPost2010PropOp45
 70
     1
102
RTVSPost2010Prop46
 90
       50
102
RTVSPost2010PropOp46
 70
     1
102
RTVSPost2010Prop47
 90
       50
102
RTVSPost2010PropOp47
 70
     1
102
RTVSPost2010Prop48
 90
       50
102
RTVSPost2010PropOp48
 70
     1
102
RTVSPost2010Prop49
280
     0
102
RTVSPost2010PropOp49
 70
     1
102
RTVSPost2010Prop50
 90
       50
102
RTVSPost2010PropOp50
 70
     1
102
RTVSPost2010Prop51ColorIndex
 90
      256
102
RTVSPost2010Prop51ColorRGB
 90
-16777216
102
RTVSPost2010PropOp51
 70
     0
102
RTVSPost2010Prop52
140
1.0
102
RTVSPost2010PropOp52
 70
     0
102
RTVSPost2010Prop53
 90
        2
102
RTVSPost2010PropOp53
 70
     1
102
RTVSPost2010Prop54
  1
strokes_ogs.tif
102
RTVSPost2010PropOp54
 70
     1
102
RTVSPost2010Prop55
280
     0
102
RTVSPost2010PropOp55
 70
     1
102
RTVSPost2010Prop56
140
1.0
102
RTVSPost2010PropOp56
 70
     1
102
RTVSPost2010Prop57
140
1.0
102
RTVSPost2010PropOp57
 70
     1
102
RTVSPropertyOp0
 70
     1
102
RTVSPropertyOp1
 70
     1
102
RTVSPropertyOp2
 70
     1
102
RTVSPropertyOp3
 70
     1
102
RTVSPropertyOp4
 70
     1
102
RTVSPropertyOp5
 70
     1
102
RTVSPropertyOp6
 70
     1
102
RTVSPropertyOp7
 70
     1
102
RTVSPropertyOp8
 70
     1
102
RTVSPropertyOp9
 70
     1
102
RTVSPropertyOp10
 70
     1
102
RTVSPropertyOp11
 70
     1
102
RTVSPropertyOp12
 70
     1
102
RTVSPropertyOp13
 70
     1
102
RTVSPropertyOp14
 70
     1
102
RTVSPropertyOp15
 70
     1
102
RTVSPropertyOp16
 70
     1
102
RTVSPropertyOp17
 70
     1
102
RTVSPropertyOp18
 70
     1
102
RTVSPropertyOp19
 70
     1
102
RTVSPropertyOp20
 70
     1
102
RTVSPropertyOp21
 70
     1
102
RTVSPropertyOp22
 70
     1
102
RTVSPropertyOp23
 70
     1
102
RTVSPropertyOp24
 70
     1
102
RTVSPropertyOp25
 70
     1
102
RTVSPropertyOp26
 70
     1
102
RTVSPropertyOp27
 70
     1
102
RTVSPropertyOp28
 70
     1
102
RTVSPropertyOp29
 70
     1
102
RTVSPropertyOp30
 70
     1
102
RTVSPropertyOp31
 70
     1
102
RTVSPropertyOp32
 70
     1
102
RTVSPropertyOp33
 70
     1
102
RTVSPropertyOp34
 70
     1
102
RTVSPropertyOp35
 70
     1
102
RTVSPropertyOp36
 70
     1
102
RTVSPropertyOp37
 70
     1
102
RTVSPropertyOp38
 70
     1
102
RTVSPropertyOp39
 70
     1
102
RTVSPropertyOp40
 70
     1
102
RTVSPropertyOp41
 70
     1
102
RTVSPropertyOp42
 70
     1
102
RTVSPropertyOp43
 70
     1
102
RTVSPropertyOp44
 70
     1
102
RTVSPropertyOp45
 70
     1
102
RTVSPropertyOp46
 70
     1
102
RTVSPropertyOp47
 70
     1
102
RTVSPropertyOp48
 70
     1
102
RTVSPropertyOp49
 70
     1
102
RTVSPropertyOp50
 70
     1
102
RTVSPropertyOp51
 70
     0
102
RTVSPropertyOp52
 70
     0
102
RTVSPropertyOp53
 70
     1
102
RTVSPropertyOp54
 70
     1
102
RTVSPropertyOp55
 70
     1
102
RTVSPropertyOp56
 70
     1
102
RTVSPropertyOp57
 70
     1
102
RTVSPropertyOp58
 70
     1
102
RTVSPropertyOp59
 70
     1
102
RTVSPropertyOp60
 70
     1
102
RTVSPropertyOp61
 70
     1
102
RTVSPropertyOp62
 70
     1
  0
XRECORD
  5
389
102
{ACAD_REACTORS
330
388
102
}
330
388
100
AcDbXrecord
280
     1
102
RTVSPost2010Prop28
280
     0
102
RTVSPost2010PropOp28
 70
     0
102
RTVSPost2010Prop29
280
     1
102
RTVSPost2010PropOp29
 70
     0
102
RTVSPost2010Prop30
280
     1
102
RTVSPost2010PropOp30
 70
     0
102
RTVSPost2010Prop31
280
     0
102
RTVSPost2010PropOp31
 70
     0
102
RTVSPost2010Prop32
280
     0
102
RTVSPost2010PropOp32
 70
     0
102
RTVSPost2010Prop33
280
     0
102
RTVSPost2010PropOp33
 70
     0
102
RTVSPost2010Prop34
280
     0
102
RTVSPost2010PropOp34
 70
     0
102
RTVSPost2010Prop35
280
     0
102
RTVSPost2010PropOp35
 70
     0
102
RTVSPost2010Prop36
280
     0
102
RTVSPost2010PropOp36
 70
     0
102
RTVSPost2010Prop37
 90
       50
102
RTVSPost2010PropOp37
 70
     0
102
RTVSPost2010Prop38
140
0.0
102
RTVSPost2010PropOp38
 70
     0
102
RTVSPost2010Prop39
140
1.0
102
RTVSPost2010PropOp39
 70
     0
102
RTVSPost2010Prop40
 90
        0
102
RTVSPost2010PropOp40
 70
     0
102
RTVSPost2010Prop41ColorIndex
 90
       18
102
RTVSPost2010Prop41ColorRGB
 90
        0
102
RTVSPost2010PropOp41
 70
     0
102
RTVSPost2010Prop42
 90
       50
102
RTVSPost2010PropOp42
 70
     0
102
RTVSPost2010Prop43
 90
        3
102
RTVSPost2010PropOp43
 70
     0
102
RTVSPost2010Prop44ColorIndex
 90
        5
102
RTVSPost2010Prop44ColorRGB
 90
      255
102
RTVSPost2010PropOp44
 70
     0
102
RTVSPost2010Prop45
280
     0
102
RTVSPost2010PropOp45
 70
     0
102
RTVSPost2010Prop46
 90
       50
102
RTVSPost2010PropOp46
 70
     0
102
RTVSPost2010Prop47
 90
       50
102
RTVSPost2010PropOp47
 70
     0
102
RTVSPost2010Prop48
 90
       50
102
RTVSPost2010PropOp48
 70
     0
102
RTVSPost2010Prop49
280
     0
102
RTVSPost2010PropOp49
 70
     0
102
RTVSPost2010Prop50
 90
       50
102
RTVSPost2010PropOp50
 70
     0
102
RTVSPost2010Prop51ColorIndex
 90
      256
102
RTVSPost2010Prop51ColorRGB
 90
-16777216
102
RTVSPost2010PropOp51
 70
     0
102
RTVSPost2010Prop52
140
1.0
102
RTVSPost2010PropOp52
 70
     0
102
RTVSPost2010Prop53
 90
        2
102
RTVSPost2010PropOp53
 70
     0
102
RTVSPost2010Prop54
  1
strokes_ogs.tif
102
RTVSPost2010PropOp54
 70
     0
102
RTVSPost2010Prop55
280
     0
102
RTVSPost2010PropOp55
 70
     0
102
RTVSPost2010Prop56
140
1.0
102
RTVSPost2010PropOp56
 70
     0
102
RTVSPost2010Prop57
140
1.0
102
RTVSPost2010PropOp57
 70
     0
102
RTVSPropertyOp0
 70
     0
102
RTVSPropertyOp1
 70
     0
102
RTVSPropertyOp2
 70
     0
102
RTVSPropertyOp3
 70
     0
102
RTVSPropertyOp4
 70
     0
102
RTVSPropertyOp5
 70
     0
102
RTVSPropertyOp6
 70
     0
102
RTVSPropertyOp7
 70
     0
102
RTVSPropertyOp8
 70
     0
102
RTVSPropertyOp9
 70
     0
102
RTVSPropertyOp10
 70
     0
102
RTVSPropertyOp11
 70
     0
102
RTVSPropertyOp12
 70
     0
102
RTVSPropertyOp13
 70
     0
102
RTVSPropertyOp14
 70
     2
102
RTVSPropertyOp15
 70
     0
102
RTVSPropertyOp16
 70
     0
102
RTVSPropertyOp17
 70
     0
102
RTVSPropertyOp18
 70
     0
102
RTVSPropertyOp19
 70
     0
102
RTVSPropertyOp20
 70
     0
102
RTVSPropertyOp21
 70
     0
102
RTVSPropertyOp22
 70
     0
102
RTVSPropertyOp23
 70
     0
102
RTVSPropertyOp24
 70
     0
102
RTVSPropertyOp25
 70
     0
102
RTVSPropertyOp26
 70
     0
102
RTVSPropertyOp27
 70
     0
102
RTVSPropertyOp28
 70
     0
102
RTVSPropertyOp29
 70
     0
102
RTVSPropertyOp30
 70
     0
102
RTVSPropertyOp31
 70
     0
102
RTVSPropertyOp32
 70
     0
102
RTVSPropertyOp33
 70
     0
102
RTVSPropertyOp34
 70
     0
102
RTVSPropertyOp35
 70
     0
102
RTVSPropertyOp36
 70
     0
102
RTVSPropertyOp37
 70
     0
102
RTVSPropertyOp38
 70
     0
102
RTVSPropertyOp39
 70
     0
102
RTVSPropertyOp40
 70
     0
102
RTVSPropertyOp41
 70
     0
102
RTVSPropertyOp42
 70
     0
102
RTVSPropertyOp43
 70
     0
102
RTVSPropertyOp44
 70
     0
102
RTVSPropertyOp45
 70
     0
102
RTVSPropertyOp46
 70
     0
102
RTVSPropertyOp47
 70
     0
102
RTVSPropertyOp48
 70
     0
102
RTVSPropertyOp49
 70
     0
102
RTVSPropertyOp50
 70
     0
102
RTVSPropertyOp51
 70
     0
102
RTVSPropertyOp52
 70
     0
102
RTVSPropertyOp53
 70
     0
102
RTVSPropertyOp54
 70
     0
102
RTVSPropertyOp55
 70
     0
102
RTVSPropertyOp56
 70
     0
102
RTVSPropertyOp57
 70
     0
102
RTVSPropertyOp58
 70
     1
102
RTVSPropertyOp59
 70
     1
102
RTVSPropertyOp60
 70
     1
102
RTVSPropertyOp61
 70
     1
102
RTVSPropertyOp62
 70
     1
  0
XRECORD
  5
383
102
{ACAD_REACTORS
330
382
102
}
330
382
100
AcDbXrecord
280
     1
102
RTVSPost2010Prop28
280
     0
102
RTVSPost2010PropOp28
 70
     1
102
RTVSPost2010Prop29
280
     1
102
RTVSPost2010PropOp29
 70
     1
102
RTVSPost2010Prop30
280
     1
102
RTVSPost2010PropOp30
 70
     1
102
RTVSPost2010Prop31
280
     0
102
RTVSPost2010PropOp31
 70
     1
102
RTVSPost2010Prop32
280
     0
102
RTVSPost2010PropOp32
 70
     1
102
RTVSPost2010Prop33
280
     0
102
RTVSPost2010PropOp33
 70
     1
102
RTVSPost2010Prop34
280
     0
102
RTVSPost2010PropOp34
 70
     1
102
RTVSPost2010Prop35
280
     0
102
RTVSPost2010PropOp35
 70
     1
102
RTVSPost2010Prop36
280
     0
102
RTVSPost2010PropOp36
 70
     1
102
RTVSPost2010Prop37
 90
       50
102
RTVSPost2010PropOp37
 70
     1
102
RTVSPost2010Prop38
140
0.0
102
RTVSPost2010PropOp38
 70
     1
102
RTVSPost2010Prop39
140
1.0
102
RTVSPost2010PropOp39
 70
     1
102
RTVSPost2010Prop40
 90
        0
102
RTVSPost2010PropOp40
 70
     1
102
RTVSPost2010Prop41ColorIndex
 90
       18
102
RTVSPost2010Prop41ColorRGB
 90
        0
102
RTVSPost2010PropOp41
 70
     1
102
RTVSPost2010Prop42
 90
       50
102
RTVSPost2010PropOp42
 70
     1
102
RTVSPost2010Prop43
 90
        3
102
RTVSPost2010PropOp43
 70
     1
102
RTVSPost2010Prop44ColorIndex
 90
        5
102
RTVSPost2010Prop44ColorRGB
 90
      255
102
RTVSPost2010PropOp44
 70
     1
102
RTVSPost2010Prop45
280
     0
102
RTVSPost2010PropOp45
 70
     1
102
RTVSPost2010Prop46
 90
       50
102
RTVSPost2010PropOp46
 70
     1
102
RTVSPost2010Prop47
 90
       50
102
RTVSPost2010PropOp47
 70
     1
102
RTVSPost2010Prop48
 90
       50
102
RTVSPost2010PropOp48
 70
     1
102
RTVSPost2010Prop49
280
     0
102
RTVSPost2010PropOp49
 70
     1
102
RTVSPost2010Prop50
 90
       50
102
RTVSPost2010PropOp50
 70
     1
102
RTVSPost2010Prop51ColorIndex
 90
      256
102
RTVSPost2010Prop51ColorRGB
 90
-16777216
102
RTVSPost2010PropOp51
 70
     0
102
RTVSPost2010Prop52
140
1.0
102
RTVSPost2010PropOp52
 70
     0
102
RTVSPost2010Prop53
 90
        2
102
RTVSPost2010PropOp53
 70
     1
102
RTVSPost2010Prop54
  1
strokes_ogs.tif
102
RTVSPost2010PropOp54
 70
     1
102
RTVSPost2010Prop55
280
     0
102
RTVSPost2010PropOp55
 70
     1
102
RTVSPost2010Prop56
140
1.0
102
RTVSPost2010PropOp56
 70
     1
102
RTVSPost2010Prop57
140
1.0
102
RTVSPost2010PropOp57
 70
     1
102
RTVSPropertyOp0
 70
     1
102
RTVSPropertyOp1
 70
     1
102
RTVSPropertyOp2
 70
     1
102
RTVSPropertyOp3
 70
     1
102
RTVSPropertyOp4
 70
     1
102
RTVSPropertyOp5
 70
     1
102
RTVSPropertyOp6
 70
     1
102
RTVSPropertyOp7
 70
     1
102
RTVSPropertyOp8
 70
     1
102
RTVSPropertyOp9
 70
     1
102
RTVSPropertyOp10
 70
     1
102
RTVSPropertyOp11
 70
     1
102
RTVSPropertyOp12
 70
     1
102
RTVSPropertyOp13
 70
     1
102
RTVSPropertyOp14
 70
     1
102
RTVSPropertyOp15
 70
     1
102
RTVSPropertyOp16
 70
     1
102
RTVSPropertyOp17
 70
     1
102
RTVSPropertyOp18
 70
     1
102
RTVSPropertyOp19
 70
     1
102
RTVSPropertyOp20
 70
     1
102
RTVSPropertyOp21
 70
     1
102
RTVSPropertyOp22
 70
     1
102
RTVSPropertyOp23
 70
     1
102
RTVSPropertyOp24
 70
     1
102
RTVSPropertyOp25
 70
     1
102
RTVSPropertyOp26
 70
     1
102
RTVSPropertyOp27
 70
     1
102
RTVSPropertyOp28
 70
     1
102
RTVSPropertyOp29
 70
     1
102
RTVSPropertyOp30
 70
     1
102
RTVSPropertyOp31
 70
     1
102
RTVSPropertyOp32
 70
     1
102
RTVSPropertyOp33
 70
     1
102
RTVSPropertyOp34
 70
     1
102
RTVSPropertyOp35
 70
     1
102
RTVSPropertyOp36
 70
     1
102
RTVSPropertyOp37
 70
     1
102
RTVSPropertyOp38
 70
     1
102
RTVSPropertyOp39
 70
     1
102
RTVSPropertyOp40
 70
     1
102
RTVSPropertyOp41
 70
     1
102
RTVSPropertyOp42
 70
     1
102
RTVSPropertyOp43
 70
     1
102
RTVSPropertyOp44
 70
     1
102
RTVSPropertyOp45
 70
     1
102
RTVSPropertyOp46
 70
     1
102
RTVSPropertyOp47
 70
     1
102
RTVSPropertyOp48
 70
     1
102
RTVSPropertyOp49
 70
     1
102
RTVSPropertyOp50
 70
     1
102
RTVSPropertyOp51
 70
     0
102
RTVSPropertyOp52
 70
     0
102
RTVSPropertyOp53
 70
     1
102
RTVSPropertyOp54
 70
     1
102
RTVSPropertyOp55
 70
     1
102
RTVSPropertyOp56
 70
     1
102
RTVSPropertyOp57
 70
     1
102
RTVSPropertyOp58
 70
     1
102
RTVSPropertyOp59
 70
     1
102
RTVSPropertyOp60
 70
     1
102
RTVSPropertyOp61
 70
     1
102
RTVSPropertyOp62
 70
     1
  0
XRECORD
  5
38B
102
{ACAD_REACTORS
330
38A
102
}
330
38A
100
AcDbXrecord
280
     1
102
RTVSPost2010Prop28
280
     0
102
RTVSPost2010PropOp28
 70
     0
102
RTVSPost2010Prop29
280
     1
102
RTVSPost2010PropOp29
 70
     0
102
RTVSPost2010Prop30
280
     1
102
RTVSPost2010PropOp30
 70
     0
102
RTVSPost2010Prop31
280
     0
102
RTVSPost2010PropOp31
 70
     0
102
RTVSPost2010Prop32
280
     0
102
RTVSPost2010PropOp32
 70
     0
102
RTVSPost2010Prop33
280
     0
102
RTVSPost2010PropOp33
 70
     0
102
RTVSPost2010Prop34
280
     0
102
RTVSPost2010PropOp34
 70
     0
102
RTVSPost2010Prop35
280
     0
102
RTVSPost2010PropOp35
 70
     0
102
RTVSPost2010Prop36
280
     0
102
RTVSPost2010PropOp36
 70
     0
102
RTVSPost2010Prop37
 90
       50
102
RTVSPost2010PropOp37
 70
     0
102
RTVSPost2010Prop38
140
0.0
102
RTVSPost2010PropOp38
 70
     0
102
RTVSPost2010Prop39
140
1.0
102
RTVSPost2010PropOp39
 70
     0
102
RTVSPost2010Prop40
 90
        0
102
RTVSPost2010PropOp40
 70
     0
102
RTVSPost2010Prop41ColorIndex
 90
       18
102
RTVSPost2010Prop41ColorRGB
 90
        0
102
RTVSPost2010PropOp41
 70
     0
102
RTVSPost2010Prop42
 90
       50
102
RTVSPost2010PropOp42
 70
     0
102
RTVSPost2010Prop43
 90
        3
102
RTVSPost2010PropOp43
 70
     0
102
RTVSPost2010Prop44ColorIndex
 90
        5
102
RTVSPost2010Prop44ColorRGB
 90
      255
102
RTVSPost2010PropOp44
 70
     0
102
RTVSPost2010Prop45
280
     0
102
RTVSPost2010PropOp45
 70
     0
102
RTVSPost2010Prop46
 90
       50
102
RTVSPost2010PropOp46
 70
     0
102
RTVSPost2010Prop47
 90
       50
102
RTVSPost2010PropOp47
 70
     0
102
RTVSPost2010Prop48
 90
       50
102
RTVSPost2010PropOp48
 70
     0
102
RTVSPost2010Prop49
280
     0
102
RTVSPost2010PropOp49
 70
     0
102
RTVSPost2010Prop50
 90
       50
102
RTVSPost2010PropOp50
 70
     0
102
RTVSPost2010Prop51ColorIndex
 90
      256
102
RTVSPost2010Prop51ColorRGB
 90
-16777216
102
RTVSPost2010PropOp51
 70
     0
102
RTVSPost2010Prop52
140
1.0
102
RTVSPost2010PropOp52
 70
     0
102
RTVSPost2010Prop53
 90
        2
102
RTVSPost2010PropOp53
 70
     0
102
RTVSPost2010Prop54
  1
strokes_ogs.tif
102
RTVSPost2010PropOp54
 70
     0
102
RTVSPost2010Prop55
280
     0
102
RTVSPost2010PropOp55
 70
     0
102
RTVSPost2010Prop56
140
1.0
102
RTVSPost2010PropOp56
 70
     0
102
RTVSPost2010Prop57
140
1.0
102
RTVSPost2010PropOp57
 70
     0
102
RTVSPropertyOp0
 70
     0
102
RTVSPropertyOp1
 70
     0
102
RTVSPropertyOp2
 70
     0
102
RTVSPropertyOp3
 70
     0
102
RTVSPropertyOp4
 70
     0
102
RTVSPropertyOp5
 70
     0
102
RTVSPropertyOp6
 70
     0
102
RTVSPropertyOp7
 70
     0
102
RTVSPropertyOp8
 70
     0
102
RTVSPropertyOp9
 70
     0
102
RTVSPropertyOp10
 70
     0
102
RTVSPropertyOp11
 70
     0
102
RTVSPropertyOp12
 70
     0
102
RTVSPropertyOp13
 70
     0
102
RTVSPropertyOp14
 70
     2
102
RTVSPropertyOp15
 70
     0
102
RTVSPropertyOp16
 70
     0
102
RTVSPropertyOp17
 70
     0
102
RTVSPropertyOp18
 70
     0
102
RTVSPropertyOp19
 70
     0
102
RTVSPropertyOp20
 70
     0
102
RTVSPropertyOp21
 70
     0
102
RTVSPropertyOp22
 70
     0
102
RTVSPropertyOp23
 70
     0
102
RTVSPropertyOp24
 70
     0
102
RTVSPropertyOp25
 70
     0
102
RTVSPropertyOp26
 70
     0
102
RTVSPropertyOp27
 70
     0
102
RTVSPropertyOp28
 70
     0
102
RTVSPropertyOp29
 70
     0
102
RTVSPropertyOp30
 70
     0
102
RTVSPropertyOp31
 70
     0
102
RTVSPropertyOp32
 70
     0
102
RTVSPropertyOp33
 70
     0
102
RTVSPropertyOp34
 70
     0
102
RTVSPropertyOp35
 70
     0
102
RTVSPropertyOp36
 70
     0
102
RTVSPropertyOp37
 70
     0
102
RTVSPropertyOp38
 70
     0
102
RTVSPropertyOp39
 70
     0
102
RTVSPropertyOp40
 70
     0
102
RTVSPropertyOp41
 70
     0
102
RTVSPropertyOp42
 70
     0
102
RTVSPropertyOp43
 70
     0
102
RTVSPropertyOp44
 70
     0
102
RTVSPropertyOp45
 70
     0
102
RTVSPropertyOp46
 70
     0
102
RTVSPropertyOp47
 70
     0
102
RTVSPropertyOp48
 70
     0
102
RTVSPropertyOp49
 70
     0
102
RTVSPropertyOp50
 70
     0
102
RTVSPropertyOp51
 70
     0
102
RTVSPropertyOp52
 70
     0
102
RTVSPropertyOp53
 70
     0
102
RTVSPropertyOp54
 70
     0
102
RTVSPropertyOp55
 70
     0
102
RTVSPropertyOp56
 70
     0
102
RTVSPropertyOp57
 70
     0
102
RTVSPropertyOp58
 70
     1
102
RTVSPropertyOp59
 70
     1
102
RTVSPropertyOp60
 70
     1
102
RTVSPropertyOp61
 70
     1
102
RTVSPropertyOp62
 70
     1
  0
XRECORD
  5
379
102
{ACAD_REACTORS
330
378
102
}
330
378
100
AcDbXrecord
280
     1
102
RTVSPost2010Prop28
280
     0
102
RTVSPost2010PropOp28
 70
     1
102
RTVSPost2010Prop29
280
     1
102
RTVSPost2010PropOp29
 70
     1
102
RTVSPost2010Prop30
280
     1
102
RTVSPost2010PropOp30
 70
     1
102
RTVSPost2010Prop31
280
     0
102
RTVSPost2010PropOp31
 70
     1
102
RTVSPost2010Prop32
280
     0
102
RTVSPost2010PropOp32
 70
     1
102
RTVSPost2010Prop33
280
     0
102
RTVSPost2010PropOp33
 70
     1
102
RTVSPost2010Prop34
280
     0
102
RTVSPost2010PropOp34
 70
     1
102
RTVSPost2010Prop35
280
     0
102
RTVSPost2010PropOp35
 70
     1
102
RTVSPost2010Prop36
280
     0
102
RTVSPost2010PropOp36
 70
     1
102
RTVSPost2010Prop37
 90
       50
102
RTVSPost2010PropOp37
 70
     1
102
RTVSPost2010Prop38
140
0.0
102
RTVSPost2010PropOp38
 70
     1
102
RTVSPost2010Prop39
140
1.0
102
RTVSPost2010PropOp39
 70
     1
102
RTVSPost2010Prop40
 90
        0
102
RTVSPost2010PropOp40
 70
     1
102
RTVSPost2010Prop41ColorIndex
 90
       18
102
RTVSPost2010Prop41ColorRGB
 90
        0
102
RTVSPost2010PropOp41
 70
     1
102
RTVSPost2010Prop42
 90
       50
102
RTVSPost2010PropOp42
 70
     1
102
RTVSPost2010Prop43
 90
        3
102
RTVSPost2010PropOp43
 70
     1
102
RTVSPost2010Prop44ColorIndex
 90
        5
102
RTVSPost2010Prop44ColorRGB
 90
      255
102
RTVSPost2010PropOp44
 70
     1
102
RTVSPost2010Prop45
280
     0
102
RTVSPost2010PropOp45
 70
     1
102
RTVSPost2010Prop46
 90
       50
102
RTVSPost2010PropOp46
 70
     1
102
RTVSPost2010Prop47
 90
       50
102
RTVSPost2010PropOp47
 70
     1
102
RTVSPost2010Prop48
 90
       50
102
RTVSPost2010PropOp48
 70
     1
102
RTVSPost2010Prop49
280
     0
102
RTVSPost2010PropOp49
 70
     1
102
RTVSPost2010Prop50
 90
       50
102
RTVSPost2010PropOp50
 70
     1
102
RTVSPost2010Prop51ColorIndex
 90
      256
102
RTVSPost2010Prop51ColorRGB
 90
-16777216
102
RTVSPost2010PropOp51
 70
     0
102
RTVSPost2010Prop52
140
1.0
102
RTVSPost2010PropOp52
 70
     0
102
RTVSPost2010Prop53
 90
        2
102
RTVSPost2010PropOp53
 70
     1
102
RTVSPost2010Prop54
  1
strokes_ogs.tif
102
RTVSPost2010PropOp54
 70
     1
102
RTVSPost2010Prop55
280
     0
102
RTVSPost2010PropOp55
 70
     1
102
RTVSPost2010Prop56
140
1.0
102
RTVSPost2010PropOp56
 70
     1
102
RTVSPost2010Prop57
140
1.0
102
RTVSPost2010PropOp57
 70
     1
102
RTVSPropertyOp0
 70
     1
102
RTVSPropertyOp1
 70
     1
102
RTVSPropertyOp2
 70
     1
102
RTVSPropertyOp3
 70
     1
102
RTVSPropertyOp4
 70
     1
102
RTVSPropertyOp5
 70
     1
102
RTVSPropertyOp6
 70
     1
102
RTVSPropertyOp7
 70
     1
102
RTVSPropertyOp8
 70
     1
102
RTVSPropertyOp9
 70
     1
102
RTVSPropertyOp10
 70
     1
102
RTVSPropertyOp11
 70
     1
102
RTVSPropertyOp12
 70
     1
102
RTVSPropertyOp13
 70
     1
102
RTVSPropertyOp14
 70
     1
102
RTVSPropertyOp15
 70
     1
102
RTVSPropertyOp16
 70
     1
102
RTVSPropertyOp17
 70
     1
102
RTVSPropertyOp18
 70
     1
102
RTVSPropertyOp19
 70
     1
102
RTVSPropertyOp20
 70
     1
102
RTVSPropertyOp21
 70
     1
102
RTVSPropertyOp22
 70
     1
102
RTVSPropertyOp23
 70
     1
102
RTVSPropertyOp24
 70
     1
102
RTVSPropertyOp25
 70
     1
102
RTVSPropertyOp26
 70
     1
102
RTVSPropertyOp27
 70
     1
102
RTVSPropertyOp28
 70
     1
102
RTVSPropertyOp29
 70
     1
102
RTVSPropertyOp30
 70
     1
102
RTVSPropertyOp31
 70
     1
102
RTVSPropertyOp32
 70
     1
102
RTVSPropertyOp33
 70
     1
102
RTVSPropertyOp34
 70
     1
102
RTVSPropertyOp35
 70
     1
102
RTVSPropertyOp36
 70
     1
102
RTVSPropertyOp37
 70
     1
102
RTVSPropertyOp38
 70
     1
102
RTVSPropertyOp39
 70
     1
102
RTVSPropertyOp40
 70
     1
102
RTVSPropertyOp41
 70
     1
102
RTVSPropertyOp42
 70
     1
102
RTVSPropertyOp43
 70
     1
102
RTVSPropertyOp44
 70
     1
102
RTVSPropertyOp45
 70
     1
102
RTVSPropertyOp46
 70
     1
102
RTVSPropertyOp47
 70
     1
102
RTVSPropertyOp48
 70
     1
102
RTVSPropertyOp49
 70
     1
102
RTVSPropertyOp50
 70
     1
102
RTVSPropertyOp51
 70
     0
102
RTVSPropertyOp52
 70
     0
102
RTVSPropertyOp53
 70
     1
102
RTVSPropertyOp54
 70
     1
102
RTVSPropertyOp55
 70
     1
102
RTVSPropertyOp56
 70
     1
102
RTVSPropertyOp57
 70
     1
102
RTVSPropertyOp58
 70
     1
102
RTVSPropertyOp59
 70
     1
102
RTVSPropertyOp60
 70
     1
102
RTVSPropertyOp61
 70
     1
102
RTVSPropertyOp62
 70
     1
  0
XRECORD
  5
397
102
{ACAD_REACTORS
330
396
102
}
330
396
100
AcDbXrecord
280
     1
102
RTVSPost2010Prop28
280
     0
102
RTVSPost2010PropOp28
 70
     1
102
RTVSPost2010Prop29
280
     1
102
RTVSPost2010PropOp29
 70
     1
102
RTVSPost2010Prop30
280
     1
102
RTVSPost2010PropOp30
 70
     1
102
RTVSPost2010Prop31
280
     0
102
RTVSPost2010PropOp31
 70
     1
102
RTVSPost2010Prop32
280
     0
102
RTVSPost2010PropOp32
 70
     1
102
RTVSPost2010Prop33
280
     0
102
RTVSPost2010PropOp33
 70
     1
102
RTVSPost2010Prop34
280
     0
102
RTVSPost2010PropOp34
 70
     1
102
RTVSPost2010Prop35
280
     0
102
RTVSPost2010PropOp35
 70
     1
102
RTVSPost2010Prop36
280
     0
102
RTVSPost2010PropOp36
 70
     1
102
RTVSPost2010Prop37
 90
       50
102
RTVSPost2010PropOp37
 70
     1
102
RTVSPost2010Prop38
140
0.0
102
RTVSPost2010PropOp38
 70
     1
102
RTVSPost2010Prop39
140
1.0
102
RTVSPost2010PropOp39
 70
     1
102
RTVSPost2010Prop40
 90
        0
102
RTVSPost2010PropOp40
 70
     1
102
RTVSPost2010Prop41ColorIndex
 90
       18
102
RTVSPost2010Prop41ColorRGB
 90
        0
102
RTVSPost2010PropOp41
 70
     1
102
RTVSPost2010Prop42
 90
       50
102
RTVSPost2010PropOp42
 70
     1
102
RTVSPost2010Prop43
 90
        3
102
RTVSPost2010PropOp43
 70
     1
102
RTVSPost2010Prop44ColorIndex
 90
        5
102
RTVSPost2010Prop44ColorRGB
 90
      255
102
RTVSPost2010PropOp44
 70
     1
102
RTVSPost2010Prop45
280
     0
102
RTVSPost2010PropOp45
 70
     1
102
RTVSPost2010Prop46
 90
       50
102
RTVSPost2010PropOp46
 70
     1
102
RTVSPost2010Prop47
 90
       50
102
RTVSPost2010PropOp47
 70
     1
102
RTVSPost2010Prop48
 90
       50
102
RTVSPost2010PropOp48
 70
     1
102
RTVSPost2010Prop49
280
     0
102
RTVSPost2010PropOp49
 70
     1
102
RTVSPost2010Prop50
 90
       50
102
RTVSPost2010PropOp50
 70
     1
102
RTVSPost2010Prop51ColorIndex
 90
      256
102
RTVSPost2010Prop51ColorRGB
 90
-16777216
102
RTVSPost2010PropOp51
 70
     0
102
RTVSPost2010Prop52
140
1.0
102
RTVSPost2010PropOp52
 70
     0
102
RTVSPost2010Prop53
 90
        2
102
RTVSPost2010PropOp53
 70
     1
102
RTVSPost2010Prop54
  1
strokes_ogs.tif
102
RTVSPost2010PropOp54
 70
     1
102
RTVSPost2010Prop55
280
     0
102
RTVSPost2010PropOp55
 70
     1
102
RTVSPost2010Prop56
140
1.0
102
RTVSPost2010PropOp56
 70
     1
102
RTVSPost2010Prop57
140
1.0
102
RTVSPost2010PropOp57
 70
     1
102
RTVSPropertyOp0
 70
     1
102
RTVSPropertyOp1
 70
     1
102
RTVSPropertyOp2
 70
     1
102
RTVSPropertyOp3
 70
     1
102
RTVSPropertyOp4
 70
     1
102
RTVSPropertyOp5
 70
     1
102
RTVSPropertyOp6
 70
     1
102
RTVSPropertyOp7
 70
     1
102
RTVSPropertyOp8
 70
     1
102
RTVSPropertyOp9
 70
     1
102
RTVSPropertyOp10
 70
     1
102
RTVSPropertyOp11
 70
     1
102
RTVSPropertyOp12
 70
     1
102
RTVSPropertyOp13
 70
     1
102
RTVSPropertyOp14
 70
     1
102
RTVSPropertyOp15
 70
     1
102
RTVSPropertyOp16
 70
     1
102
RTVSPropertyOp17
 70
     1
102
RTVSPropertyOp18
 70
     1
102
RTVSPropertyOp19
 70
     1
102
RTVSPropertyOp20
 70
     1
102
RTVSPropertyOp21
 70
     1
102
RTVSPropertyOp22
 70
     1
102
RTVSPropertyOp23
 70
     1
102
RTVSPropertyOp24
 70
     1
102
RTVSPropertyOp25
 70
     1
102
RTVSPropertyOp26
 70
     1
102
RTVSPropertyOp27
 70
     1
102
RTVSPropertyOp28
 70
     1
102
RTVSPropertyOp29
 70
     1
102
RTVSPropertyOp30
 70
     1
102
RTVSPropertyOp31
 70
     1
102
RTVSPropertyOp32
 70
     1
102
RTVSPropertyOp33
 70
     1
102
RTVSPropertyOp34
 70
     1
102
RTVSPropertyOp35
 70
     1
102
RTVSPropertyOp36
 70
     1
102
RTVSPropertyOp37
 70
     1
102
RTVSPropertyOp38
 70
     1
102
RTVSPropertyOp39
 70
     1
102
RTVSPropertyOp40
 70
     1
102
RTVSPropertyOp41
 70
     1
102
RTVSPropertyOp42
 70
     1
102
RTVSPropertyOp43
 70
     1
102
RTVSPropertyOp44
 70
     1
102
RTVSPropertyOp45
 70
     1
102
RTVSPropertyOp46
 70
     1
102
RTVSPropertyOp47
 70
     1
102
RTVSPropertyOp48
 70
     1
102
RTVSPropertyOp49
 70
     1
102
RTVSPropertyOp50
 70
     1
102
RTVSPropertyOp51
 70
     0
102
RTVSPropertyOp52
 70
     0
102
RTVSPropertyOp53
 70
     1
102
RTVSPropertyOp54
 70
     1
102
RTVSPropertyOp55
 70
     1
102
RTVSPropertyOp56
 70
     1
102
RTVSPropertyOp57
 70
     1
102
RTVSPropertyOp58
 70
     1
102
RTVSPropertyOp59
 70
     1
102
RTVSPropertyOp60
 70
     1
102
RTVSPropertyOp61
 70
     1
102
RTVSPropertyOp62
 70
     1
  0
XRECORD
  5
395
102
{ACAD_REACTORS
330
394
102
}
330
394
100
AcDbXrecord
280
     1
102
RTVSPost2010Prop28
280
     0
102
RTVSPost2010PropOp28
 70
     1
102
RTVSPost2010Prop29
280
     1
102
RTVSPost2010PropOp29
 70
     1
102
RTVSPost2010Prop30
280
     1
102
RTVSPost2010PropOp30
 70
     1
102
RTVSPost2010Prop31
280
     0
102
RTVSPost2010PropOp31
 70
     1
102
RTVSPost2010Prop32
280
     0
102
RTVSPost2010PropOp32
 70
     1
102
RTVSPost2010Prop33
280
     0
102
RTVSPost2010PropOp33
 70
     1
102
RTVSPost2010Prop34
280
     0
102
RTVSPost2010PropOp34
 70
     1
102
RTVSPost2010Prop35
280
     0
102
RTVSPost2010PropOp35
 70
     1
102
RTVSPost2010Prop36
280
     0
102
RTVSPost2010PropOp36
 70
     1
102
RTVSPost2010Prop37
 90
       50
102
RTVSPost2010PropOp37
 70
     1
102
RTVSPost2010Prop38
140
0.0
102
RTVSPost2010PropOp38
 70
     1
102
RTVSPost2010Prop39
140
1.0
102
RTVSPost2010PropOp39
 70
     1
102
RTVSPost2010Prop40
 90
        0
102
RTVSPost2010PropOp40
 70
     1
102
RTVSPost2010Prop41ColorIndex
 90
       18
102
RTVSPost2010Prop41ColorRGB
 90
        0
102
RTVSPost2010PropOp41
 70
     1
102
RTVSPost2010Prop42
 90
       50
102
RTVSPost2010PropOp42
 70
     1
102
RTVSPost2010Prop43
 90
        3
102
RTVSPost2010PropOp43
 70
     1
102
RTVSPost2010Prop44ColorIndex
 90
        5
102
RTVSPost2010Prop44ColorRGB
 90
      255
102
RTVSPost2010PropOp44
 70
     1
102
RTVSPost2010Prop45
280
     0
102
RTVSPost2010PropOp45
 70
     1
102
RTVSPost2010Prop46
 90
       50
102
RTVSPost2010PropOp46
 70
     1
102
RTVSPost2010Prop47
 90
       50
102
RTVSPost2010PropOp47
 70
     1
102
RTVSPost2010Prop48
 90
       50
102
RTVSPost2010PropOp48
 70
     1
102
RTVSPost2010Prop49
280
     0
102
RTVSPost2010PropOp49
 70
     1
102
RTVSPost2010Prop50
 90
       50
102
RTVSPost2010PropOp50
 70
     1
102
RTVSPost2010Prop51ColorIndex
 90
      256
102
RTVSPost2010Prop51ColorRGB
 90
-16777216
102
RTVSPost2010PropOp51
 70
     0
102
RTVSPost2010Prop52
140
1.0
102
RTVSPost2010PropOp52
 70
     0
102
RTVSPost2010Prop53
 90
        2
102
RTVSPost2010PropOp53
 70
     1
102
RTVSPost2010Prop54
  1
strokes_ogs.tif
102
RTVSPost2010PropOp54
 70
     1
102
RTVSPost2010Prop55
280
     0
102
RTVSPost2010PropOp55
 70
     1
102
RTVSPost2010Prop56
140
1.0
102
RTVSPost2010PropOp56
 70
     1
102
RTVSPost2010Prop57
140
1.0
102
RTVSPost2010PropOp57
 70
     1
102
RTVSPropertyOp0
 70
     1
102
RTVSPropertyOp1
 70
     1
102
RTVSPropertyOp2
 70
     1
102
RTVSPropertyOp3
 70
     1
102
RTVSPropertyOp4
 70
     1
102
RTVSPropertyOp5
 70
     1
102
RTVSPropertyOp6
 70
     1
102
RTVSPropertyOp7
 70
     1
102
RTVSPropertyOp8
 70
     1
102
RTVSPropertyOp9
 70
     1
102
RTVSPropertyOp10
 70
     1
102
RTVSPropertyOp11
 70
     1
102
RTVSPropertyOp12
 70
     1
102
RTVSPropertyOp13
 70
     1
102
RTVSPropertyOp14
 70
     1
102
RTVSPropertyOp15
 70
     1
102
RTVSPropertyOp16
 70
     1
102
RTVSPropertyOp17
 70
     1
102
RTVSPropertyOp18
 70
     1
102
RTVSPropertyOp19
 70
     1
102
RTVSPropertyOp20
 70
     1
102
RTVSPropertyOp21
 70
     1
102
RTVSPropertyOp22
 70
     1
102
RTVSPropertyOp23
 70
     1
102
RTVSPropertyOp24
 70
     1
102
RTVSPropertyOp25
 70
     1
102
RTVSPropertyOp26
 70
     1
102
RTVSPropertyOp27
 70
     1
102
RTVSPropertyOp28
 70
     1
102
RTVSPropertyOp29
 70
     1
102
RTVSPropertyOp30
 70
     1
102
RTVSPropertyOp31
 70
     1
102
RTVSPropertyOp32
 70
     1
102
RTVSPropertyOp33
 70
     1
102
RTVSPropertyOp34
 70
     1
102
RTVSPropertyOp35
 70
     1
102
RTVSPropertyOp36
 70
     1
102
RTVSPropertyOp37
 70
     1
102
RTVSPropertyOp38
 70
     1
102
RTVSPropertyOp39
 70
     1
102
RTVSPropertyOp40
 70
     1
102
RTVSPropertyOp41
 70
     1
102
RTVSPropertyOp42
 70
     1
102
RTVSPropertyOp43
 70
     1
102
RTVSPropertyOp44
 70
     1
102
RTVSPropertyOp45
 70
     1
102
RTVSPropertyOp46
 70
     1
102
RTVSPropertyOp47
 70
     1
102
RTVSPropertyOp48
 70
     1
102
RTVSPropertyOp49
 70
     1
102
RTVSPropertyOp50
 70
     1
102
RTVSPropertyOp51
 70
     0
102
RTVSPropertyOp52
 70
     0
102
RTVSPropertyOp53
 70
     1
102
RTVSPropertyOp54
 70
     1
102
RTVSPropertyOp55
 70
     1
102
RTVSPropertyOp56
 70
     1
102
RTVSPropertyOp57
 70
     1
102
RTVSPropertyOp58
 70
     1
102
RTVSPropertyOp59
 70
     1
102
RTVSPropertyOp60
 70
     1
102
RTVSPropertyOp61
 70
     1
102
RTVSPropertyOp62
 70
     1
  0
XRECORD
  5
38F
102
{ACAD_REACTORS
330
38E
102
}
330
38E
100
AcDbXrecord
280
     1
102
RTVSPost2010Prop28
280
     0
102
RTVSPost2010PropOp28
 70
     1
102
RTVSPost2010Prop29
280
     1
102
RTVSPost2010PropOp29
 70
     1
102
RTVSPost2010Prop30
280
     1
102
RTVSPost2010PropOp30
 70
     1
102
RTVSPost2010Prop31
280
     0
102
RTVSPost2010PropOp31
 70
     1
102
RTVSPost2010Prop32
280
     0
102
RTVSPost2010PropOp32
 70
     1
102
RTVSPost2010Prop33
280
     0
102
RTVSPost2010PropOp33
 70
     1
102
RTVSPost2010Prop34
280
     0
102
RTVSPost2010PropOp34
 70
     1
102
RTVSPost2010Prop35
280
     0
102
RTVSPost2010PropOp35
 70
     1
102
RTVSPost2010Prop36
280
     0
102
RTVSPost2010PropOp36
 70
     1
102
RTVSPost2010Prop37
 90
       50
102
RTVSPost2010PropOp37
 70
     1
102
RTVSPost2010Prop38
140
0.0
102
RTVSPost2010PropOp38
 70
     1
102
RTVSPost2010Prop39
140
1.0
102
RTVSPost2010PropOp39
 70
     1
102
RTVSPost2010Prop40
 90
        0
102
RTVSPost2010PropOp40
 70
     1
102
RTVSPost2010Prop41ColorIndex
 90
       18
102
RTVSPost2010Prop41ColorRGB
 90
        0
102
RTVSPost2010PropOp41
 70
     1
102
RTVSPost2010Prop42
 90
       50
102
RTVSPost2010PropOp42
 70
     1
102
RTVSPost2010Prop43
 90
        3
102
RTVSPost2010PropOp43
 70
     1
102
RTVSPost2010Prop44ColorIndex
 90
        5
102
RTVSPost2010Prop44ColorRGB
 90
      255
102
RTVSPost2010PropOp44
 70
     1
102
RTVSPost2010Prop45
280
     0
102
RTVSPost2010PropOp45
 70
     1
102
RTVSPost2010Prop46
 90
       50
102
RTVSPost2010PropOp46
 70
     1
102
RTVSPost2010Prop47
 90
       50
102
RTVSPost2010PropOp47
 70
     1
102
RTVSPost2010Prop48
 90
       50
102
RTVSPost2010PropOp48
 70
     1
102
RTVSPost2010Prop49
280
     0
102
RTVSPost2010PropOp49
 70
     1
102
RTVSPost2010Prop50
 90
       50
102
RTVSPost2010PropOp50
 70
     1
102
RTVSPost2010Prop51ColorIndex
 90
      256
102
RTVSPost2010Prop51ColorRGB
 90
-16777216
102
RTVSPost2010PropOp51
 70
     0
102
RTVSPost2010Prop52
140
1.0
102
RTVSPost2010PropOp52
 70
     0
102
RTVSPost2010Prop53
 90
        2
102
RTVSPost2010PropOp53
 70
     1
102
RTVSPost2010Prop54
  1
strokes_ogs.tif
102
RTVSPost2010PropOp54
 70
     1
102
RTVSPost2010Prop55
280
     0
102
RTVSPost2010PropOp55
 70
     1
102
RTVSPost2010Prop56
140
1.0
102
RTVSPost2010PropOp56
 70
     1
102
RTVSPost2010Prop57
140
1.0
102
RTVSPost2010PropOp57
 70
     1
102
RTVSPropertyOp0
 70
     1
102
RTVSPropertyOp1
 70
     1
102
RTVSPropertyOp2
 70
     1
102
RTVSPropertyOp3
 70
     1
102
RTVSPropertyOp4
 70
     1
102
RTVSPropertyOp5
 70
     1
102
RTVSPropertyOp6
 70
     1
102
RTVSPropertyOp7
 70
     1
102
RTVSPropertyOp8
 70
     1
102
RTVSPropertyOp9
 70
     1
102
RTVSPropertyOp10
 70
     1
102
RTVSPropertyOp11
 70
     1
102
RTVSPropertyOp12
 70
     1
102
RTVSPropertyOp13
 70
     1
102
RTVSPropertyOp14
 70
     1
102
RTVSPropertyOp15
 70
     1
102
RTVSPropertyOp16
 70
     1
102
RTVSPropertyOp17
 70
     1
102
RTVSPropertyOp18
 70
     1
102
RTVSPropertyOp19
 70
     1
102
RTVSPropertyOp20
 70
     1
102
RTVSPropertyOp21
 70
     1
102
RTVSPropertyOp22
 70
     1
102
RTVSPropertyOp23
 70
     1
102
RTVSPropertyOp24
 70
     1
102
RTVSPropertyOp25
 70
     1
102
RTVSPropertyOp26
 70
     1
102
RTVSPropertyOp27
 70
     1
102
RTVSPropertyOp28
 70
     1
102
RTVSPropertyOp29
 70
     1
102
RTVSPropertyOp30
 70
     1
102
RTVSPropertyOp31
 70
     1
102
RTVSPropertyOp32
 70
     1
102
RTVSPropertyOp33
 70
     1
102
RTVSPropertyOp34
 70
     1
102
RTVSPropertyOp35
 70
     1
102
RTVSPropertyOp36
 70
     1
102
RTVSPropertyOp37
 70
     1
102
RTVSPropertyOp38
 70
     1
102
RTVSPropertyOp39
 70
     1
102
RTVSPropertyOp40
 70
     1
102
RTVSPropertyOp41
 70
     1
102
RTVSPropertyOp42
 70
     1
102
RTVSPropertyOp43
 70
     1
102
RTVSPropertyOp44
 70
     1
102
RTVSPropertyOp45
 70
     1
102
RTVSPropertyOp46
 70
     1
102
RTVSPropertyOp47
 70
     1
102
RTVSPropertyOp48
 70
     1
102
RTVSPropertyOp49
 70
     1
102
RTVSPropertyOp50
 70
     1
102
RTVSPropertyOp51
 70
     0
102
RTVSPropertyOp52
 70
     0
102
RTVSPropertyOp53
 70
     1
102
RTVSPropertyOp54
 70
     1
102
RTVSPropertyOp55
 70
     1
102
RTVSPropertyOp56
 70
     1
102
RTVSPropertyOp57
 70
     1
102
RTVSPropertyOp58
 70
     1
102
RTVSPropertyOp59
 70
     1
102
RTVSPropertyOp60
 70
     1
102
RTVSPropertyOp61
 70
     1
102
RTVSPropertyOp62
 70
     1
  0
XRECORD
  5
391
102
{ACAD_REACTORS
330
390
102
}
330
390
100
AcDbXrecord
280
     1
102
RTVSPost2010Prop28
280
     0
102
RTVSPost2010PropOp28
 70
     1
102
RTVSPost2010Prop29
280
     1
102
RTVSPost2010PropOp29
 70
     1
102
RTVSPost2010Prop30
280
     1
102
RTVSPost2010PropOp30
 70
     1
102
RTVSPost2010Prop31
280
     0
102
RTVSPost2010PropOp31
 70
     1
102
RTVSPost2010Prop32
280
     0
102
RTVSPost2010PropOp32
 70
     1
102
RTVSPost2010Prop33
280
     0
102
RTVSPost2010PropOp33
 70
     1
102
RTVSPost2010Prop34
280
     0
102
RTVSPost2010PropOp34
 70
     1
102
RTVSPost2010Prop35
280
     0
102
RTVSPost2010PropOp35
 70
     1
102
RTVSPost2010Prop36
280
     0
102
RTVSPost2010PropOp36
 70
     1
102
RTVSPost2010Prop37
 90
       50
102
RTVSPost2010PropOp37
 70
     1
102
RTVSPost2010Prop38
140
0.0
102
RTVSPost2010PropOp38
 70
     1
102
RTVSPost2010Prop39
140
1.0
102
RTVSPost2010PropOp39
 70
     1
102
RTVSPost2010Prop40
 90
        0
102
RTVSPost2010PropOp40
 70
     1
102
RTVSPost2010Prop41ColorIndex
 90
       18
102
RTVSPost2010Prop41ColorRGB
 90
        0
102
RTVSPost2010PropOp41
 70
     1
102
RTVSPost2010Prop42
 90
       50
102
RTVSPost2010PropOp42
 70
     1
102
RTVSPost2010Prop43
 90
        3
102
RTVSPost2010PropOp43
 70
     1
102
RTVSPost2010Prop44ColorIndex
 90
        5
102
RTVSPost2010Prop44ColorRGB
 90
      255
102
RTVSPost2010PropOp44
 70
     1
102
RTVSPost2010Prop45
280
     0
102
RTVSPost2010PropOp45
 70
     1
102
RTVSPost2010Prop46
 90
       50
102
RTVSPost2010PropOp46
 70
     1
102
RTVSPost2010Prop47
 90
       50
102
RTVSPost2010PropOp47
 70
     1
102
RTVSPost2010Prop48
 90
       50
102
RTVSPost2010PropOp48
 70
     1
102
RTVSPost2010Prop49
280
     0
102
RTVSPost2010PropOp49
 70
     1
102
RTVSPost2010Prop50
 90
       50
102
RTVSPost2010PropOp50
 70
     1
102
RTVSPost2010Prop51ColorIndex
 90
      256
102
RTVSPost2010Prop51ColorRGB
 90
-16777216
102
RTVSPost2010PropOp51
 70
     0
102
RTVSPost2010Prop52
140
1.0
102
RTVSPost2010PropOp52
 70
     0
102
RTVSPost2010Prop53
 90
        2
102
RTVSPost2010PropOp53
 70
     1
102
RTVSPost2010Prop54
  1
strokes_ogs.tif
102
RTVSPost2010PropOp54
 70
     1
102
RTVSPost2010Prop55
280
     0
102
RTVSPost2010PropOp55
 70
     1
102
RTVSPost2010Prop56
140
1.0
102
RTVSPost2010PropOp56
 70
     1
102
RTVSPost2010Prop57
140
1.0
102
RTVSPost2010PropOp57
 70
     1
102
RTVSPropertyOp0
 70
     1
102
RTVSPropertyOp1
 70
     1
102
RTVSPropertyOp2
 70
     1
102
RTVSPropertyOp3
 70
     1
102
RTVSPropertyOp4
 70
     1
102
RTVSPropertyOp5
 70
     1
102
RTVSPropertyOp6
 70
     1
102
RTVSPropertyOp7
 70
     1
102
RTVSPropertyOp8
 70
     1
102
RTVSPropertyOp9
 70
     1
102
RTVSPropertyOp10
 70
     1
102
RTVSPropertyOp11
 70
     1
102
RTVSPropertyOp12
 70
     1
102
RTVSPropertyOp13
 70
     1
102
RTVSPropertyOp14
 70
     1
102
RTVSPropertyOp15
 70
     1
102
RTVSPropertyOp16
 70
     1
102
RTVSPropertyOp17
 70
     1
102
RTVSPropertyOp18
 70
     1
102
RTVSPropertyOp19
 70
     1
102
RTVSPropertyOp20
 70
     1
102
RTVSPropertyOp21
 70
     1
102
RTVSPropertyOp22
 70
     1
102
RTVSPropertyOp23
 70
     1
102
RTVSPropertyOp24
 70
     1
102
RTVSPropertyOp25
 70
     1
102
RTVSPropertyOp26
 70
     1
102
RTVSPropertyOp27
 70
     1
102
RTVSPropertyOp28
 70
     1
102
RTVSPropertyOp29
 70
     1
102
RTVSPropertyOp30
 70
     1
102
RTVSPropertyOp31
 70
     1
102
RTVSPropertyOp32
 70
     1
102
RTVSPropertyOp33
 70
     1
102
RTVSPropertyOp34
 70
     1
102
RTVSPropertyOp35
 70
     1
102
RTVSPropertyOp36
 70
     1
102
RTVSPropertyOp37
 70
     1
102
RTVSPropertyOp38
 70
     1
102
RTVSPropertyOp39
 70
     1
102
RTVSPropertyOp40
 70
     1
102
RTVSPropertyOp41
 70
     1
102
RTVSPropertyOp42
 70
     1
102
RTVSPropertyOp43
 70
     1
102
RTVSPropertyOp44
 70
     1
102
RTVSPropertyOp45
 70
     1
102
RTVSPropertyOp46
 70
     1
102
RTVSPropertyOp47
 70
     1
102
RTVSPropertyOp48
 70
     1
102
RTVSPropertyOp49
 70
     1
102
RTVSPropertyOp50
 70
     1
102
RTVSPropertyOp51
 70
     0
102
RTVSPropertyOp52
 70
     0
102
RTVSPropertyOp53
 70
     1
102
RTVSPropertyOp54
 70
     1
102
RTVSPropertyOp55
 70
     1
102
RTVSPropertyOp56
 70
     1
102
RTVSPropertyOp57
 70
     1
102
RTVSPropertyOp58
 70
     1
102
RTVSPropertyOp59
 70
     1
102
RTVSPropertyOp60
 70
     1
102
RTVSPropertyOp61
 70
     1
102
RTVSPropertyOp62
 70
     1
  0
XRECORD
  5
381
102
{ACAD_REACTORS
330
380
102
}
330
380
100
AcDbXrecord
280
     1
102
RTVSPost2010Prop28
280
     0
102
RTVSPost2010PropOp28
 70
     1
102
RTVSPost2010Prop29
280
     1
102
RTVSPost2010PropOp29
 70
     1
102
RTVSPost2010Prop30
280
     1
102
RTVSPost2010PropOp30
 70
     1
102
RTVSPost2010Prop31
280
     0
102
RTVSPost2010PropOp31
 70
     1
102
RTVSPost2010Prop32
280
     0
102
RTVSPost2010PropOp32
 70
     1
102
RTVSPost2010Prop33
280
     0
102
RTVSPost2010PropOp33
 70
     1
102
RTVSPost2010Prop34
280
     0
102
RTVSPost2010PropOp34
 70
     1
102
RTVSPost2010Prop35
280
     0
102
RTVSPost2010PropOp35
 70
     1
102
RTVSPost2010Prop36
280
     0
102
RTVSPost2010PropOp36
 70
     1
102
RTVSPost2010Prop37
 90
       50
102
RTVSPost2010PropOp37
 70
     1
102
RTVSPost2010Prop38
140
0.0
102
RTVSPost2010PropOp38
 70
     1
102
RTVSPost2010Prop39
140
1.0
102
RTVSPost2010PropOp39
 70
     1
102
RTVSPost2010Prop40
 90
        0
102
RTVSPost2010PropOp40
 70
     1
102
RTVSPost2010Prop41ColorIndex
 90
       18
102
RTVSPost2010Prop41ColorRGB
 90
        0
102
RTVSPost2010PropOp41
 70
     1
102
RTVSPost2010Prop42
 90
       50
102
RTVSPost2010PropOp42
 70
     1
102
RTVSPost2010Prop43
 90
        3
102
RTVSPost2010PropOp43
 70
     1
102
RTVSPost2010Prop44ColorIndex
 90
        5
102
RTVSPost2010Prop44ColorRGB
 90
      255
102
RTVSPost2010PropOp44
 70
     1
102
RTVSPost2010Prop45
280
     0
102
RTVSPost2010PropOp45
 70
     1
102
RTVSPost2010Prop46
 90
       50
102
RTVSPost2010PropOp46
 70
     1
102
RTVSPost2010Prop47
 90
       50
102
RTVSPost2010PropOp47
 70
     1
102
RTVSPost2010Prop48
 90
       50
102
RTVSPost2010PropOp48
 70
     1
102
RTVSPost2010Prop49
280
     0
102
RTVSPost2010PropOp49
 70
     1
102
RTVSPost2010Prop50
 90
       50
102
RTVSPost2010PropOp50
 70
     1
102
RTVSPost2010Prop51ColorIndex
 90
      256
102
RTVSPost2010Prop51ColorRGB
 90
-16777216
102
RTVSPost2010PropOp51
 70
     0
102
RTVSPost2010Prop52
140
1.0
102
RTVSPost2010PropOp52
 70
     0
102
RTVSPost2010Prop53
 90
        2
102
RTVSPost2010PropOp53
 70
     1
102
RTVSPost2010Prop54
  1
strokes_ogs.tif
102
RTVSPost2010PropOp54
 70
     1
102
RTVSPost2010Prop55
280
     0
102
RTVSPost2010PropOp55
 70
     1
102
RTVSPost2010Prop56
140
1.0
102
RTVSPost2010PropOp56
 70
     1
102
RTVSPost2010Prop57
140
1.0
102
RTVSPost2010PropOp57
 70
     1
102
RTVSPropertyOp0
 70
     1
102
RTVSPropertyOp1
 70
     1
102
RTVSPropertyOp2
 70
     1
102
RTVSPropertyOp3
 70
     1
102
RTVSPropertyOp4
 70
     1
102
RTVSPropertyOp5
 70
     1
102
RTVSPropertyOp6
 70
     1
102
RTVSPropertyOp7
 70
     1
102
RTVSPropertyOp8
 70
     1
102
RTVSPropertyOp9
 70
     1
102
RTVSPropertyOp10
 70
     1
102
RTVSPropertyOp11
 70
     1
102
RTVSPropertyOp12
 70
     1
102
RTVSPropertyOp13
 70
     1
102
RTVSPropertyOp14
 70
     1
102
RTVSPropertyOp15
 70
     1
102
RTVSPropertyOp16
 70
     1
102
RTVSPropertyOp17
 70
     1
102
RTVSPropertyOp18
 70
     1
102
RTVSPropertyOp19
 70
     1
102
RTVSPropertyOp20
 70
     1
102
RTVSPropertyOp21
 70
     1
102
RTVSPropertyOp22
 70
     1
102
RTVSPropertyOp23
 70
     1
102
RTVSPropertyOp24
 70
     1
102
RTVSPropertyOp25
 70
     1
102
RTVSPropertyOp26
 70
     1
102
RTVSPropertyOp27
 70
     1
102
RTVSPropertyOp28
 70
     1
102
RTVSPropertyOp29
 70
     1
102
RTVSPropertyOp30
 70
     1
102
RTVSPropertyOp31
 70
     1
102
RTVSPropertyOp32
 70
     1
102
RTVSPropertyOp33
 70
     1
102
RTVSPropertyOp34
 70
     1
102
RTVSPropertyOp35
 70
     1
102
RTVSPropertyOp36
 70
     1
102
RTVSPropertyOp37
 70
     1
102
RTVSPropertyOp38
 70
     1
102
RTVSPropertyOp39
 70
     1
102
RTVSPropertyOp40
 70
     1
102
RTVSPropertyOp41
 70
     1
102
RTVSPropertyOp42
 70
     1
102
RTVSPropertyOp43
 70
     1
102
RTVSPropertyOp44
 70
     1
102
RTVSPropertyOp45
 70
     1
102
RTVSPropertyOp46
 70
     1
102
RTVSPropertyOp47
 70
     1
102
RTVSPropertyOp48
 70
     1
102
RTVSPropertyOp49
 70
     1
102
RTVSPropertyOp50
 70
     1
102
RTVSPropertyOp51
 70
     0
102
RTVSPropertyOp52
 70
     0
102
RTVSPropertyOp53
 70
     1
102
RTVSPropertyOp54
 70
     1
102
RTVSPropertyOp55
 70
     1
102
RTVSPropertyOp56
 70
     1
102
RTVSPropertyOp57
 70
     1
102
RTVSPropertyOp58
 70
     1
102
RTVSPropertyOp59
 70
     1
102
RTVSPropertyOp60
 70
     1
102
RTVSPropertyOp61
 70
     1
102
RTVSPropertyOp62
 70
     1
  0
XRECORD
  5
373
102
{ACAD_REACTORS
330
372
102
}
330
372
100
AcDbXrecord
280
     1
102
RTVSPost2010Prop28
280
     0
102
RTVSPost2010PropOp28
 70
     1
102
RTVSPost2010Prop29
280
     1
102
RTVSPost2010PropOp29
 70
     1
102
RTVSPost2010Prop30
280
     1
102
RTVSPost2010PropOp30
 70
     1
102
RTVSPost2010Prop31
280
     0
102
RTVSPost2010PropOp31
 70
     1
102
RTVSPost2010Prop32
280
     0
102
RTVSPost2010PropOp32
 70
     1
102
RTVSPost2010Prop33
280
     0
102
RTVSPost2010PropOp33
 70
     1
102
RTVSPost2010Prop34
280
     0
102
RTVSPost2010PropOp34
 70
     1
102
RTVSPost2010Prop35
280
     0
102
RTVSPost2010PropOp35
 70
     1
102
RTVSPost2010Prop36
280
     0
102
RTVSPost2010PropOp36
 70
     1
102
RTVSPost2010Prop37
 90
       50
102
RTVSPost2010PropOp37
 70
     1
102
RTVSPost2010Prop38
140
0.0
102
RTVSPost2010PropOp38
 70
     1
102
RTVSPost2010Prop39
140
1.0
102
RTVSPost2010PropOp39
 70
     1
102
RTVSPost2010Prop40
 90
        0
102
RTVSPost2010PropOp40
 70
     1
102
RTVSPost2010Prop41ColorIndex
 90
       18
102
RTVSPost2010Prop41ColorRGB
 90
        0
102
RTVSPost2010PropOp41
 70
     1
102
RTVSPost2010Prop42
 90
       50
102
RTVSPost2010PropOp42
 70
     1
102
RTVSPost2010Prop43
 90
        3
102
RTVSPost2010PropOp43
 70
     1
102
RTVSPost2010Prop44ColorIndex
 90
        5
102
RTVSPost2010Prop44ColorRGB
 90
      255
102
RTVSPost2010PropOp44
 70
     1
102
RTVSPost2010Prop45
280
     0
102
RTVSPost2010PropOp45
 70
     1
102
RTVSPost2010Prop46
 90
       50
102
RTVSPost2010PropOp46
 70
     1
102
RTVSPost2010Prop47
 90
       50
102
RTVSPost2010PropOp47
 70
     1
102
RTVSPost2010Prop48
 90
       50
102
RTVSPost2010PropOp48
 70
     1
102
RTVSPost2010Prop49
280
     0
102
RTVSPost2010PropOp49
 70
     1
102
RTVSPost2010Prop50
 90
       50
102
RTVSPost2010PropOp50
 70
     1
102
RTVSPost2010Prop51ColorIndex
 90
      256
102
RTVSPost2010Prop51ColorRGB
 90
-16777216
102
RTVSPost2010PropOp51
 70
     0
102
RTVSPost2010Prop52
140
1.0
102
RTVSPost2010PropOp52
 70
     0
102
RTVSPost2010Prop53
 90
        2
102
RTVSPost2010PropOp53
 70
     1
102
RTVSPost2010Prop54
  1
strokes_ogs.tif
102
RTVSPost2010PropOp54
 70
     1
102
RTVSPost2010Prop55
280
     0
102
RTVSPost2010PropOp55
 70
     1
102
RTVSPost2010Prop56
140
1.0
102
RTVSPost2010PropOp56
 70
     1
102
RTVSPost2010Prop57
140
1.0
102
RTVSPost2010PropOp57
 70
     1
102
RTVSPropertyOp0
 70
     1
102
RTVSPropertyOp1
 70
     1
102
RTVSPropertyOp2
 70
     1
102
RTVSPropertyOp3
 70
     1
102
RTVSPropertyOp4
 70
     1
102
RTVSPropertyOp5
 70
     1
102
RTVSPropertyOp6
 70
     1
102
RTVSPropertyOp7
 70
     1
102
RTVSPropertyOp8
 70
     1
102
RTVSPropertyOp9
 70
     1
102
RTVSPropertyOp10
 70
     1
102
RTVSPropertyOp11
 70
     1
102
RTVSPropertyOp12
 70
     1
102
RTVSPropertyOp13
 70
     1
102
RTVSPropertyOp14
 70
     1
102
RTVSPropertyOp15
 70
     1
102
RTVSPropertyOp16
 70
     1
102
RTVSPropertyOp17
 70
     1
102
RTVSPropertyOp18
 70
     1
102
RTVSPropertyOp19
 70
     1
102
RTVSPropertyOp20
 70
     1
102
RTVSPropertyOp21
 70
     1
102
RTVSPropertyOp22
 70
     1
102
RTVSPropertyOp23
 70
     1
102
RTVSPropertyOp24
 70
     1
102
RTVSPropertyOp25
 70
     1
102
RTVSPropertyOp26
 70
     1
102
RTVSPropertyOp27
 70
     1
102
RTVSPropertyOp28
 70
     1
102
RTVSPropertyOp29
 70
     1
102
RTVSPropertyOp30
 70
     1
102
RTVSPropertyOp31
 70
     1
102
RTVSPropertyOp32
 70
     1
102
RTVSPropertyOp33
 70
     1
102
RTVSPropertyOp34
 70
     1
102
RTVSPropertyOp35
 70
     1
102
RTVSPropertyOp36
 70
     1
102
RTVSPropertyOp37
 70
     1
102
RTVSPropertyOp38
 70
     1
102
RTVSPropertyOp39
 70
     1
102
RTVSPropertyOp40
 70
     1
102
RTVSPropertyOp41
 70
     1
102
RTVSPropertyOp42
 70
     1
102
RTVSPropertyOp43
 70
     1
102
RTVSPropertyOp44
 70
     1
102
RTVSPropertyOp45
 70
     1
102
RTVSPropertyOp46
 70
     1
102
RTVSPropertyOp47
 70
     1
102
RTVSPropertyOp48
 70
     1
102
RTVSPropertyOp49
 70
     1
102
RTVSPropertyOp50
 70
     1
102
RTVSPropertyOp51
 70
     0
102
RTVSPropertyOp52
 70
     0
102
RTVSPropertyOp53
 70
     1
102
RTVSPropertyOp54
 70
     1
102
RTVSPropertyOp55
 70
     1
102
RTVSPropertyOp56
 70
     1
102
RTVSPropertyOp57
 70
     1
102
RTVSPropertyOp58
 70
     1
102
RTVSPropertyOp59
 70
     1
102
RTVSPropertyOp60
 70
     1
102
RTVSPropertyOp61
 70
     1
102
RTVSPropertyOp62
 70
     1
  0
XRECORD
  5
393
102
{ACAD_REACTORS
330
392
102
}
330
392
100
AcDbXrecord
280
     1
102
RTVSPost2010Prop28
280
     0
102
RTVSPost2010PropOp28
 70
     1
102
RTVSPost2010Prop29
280
     1
102
RTVSPost2010PropOp29
 70
     1
102
RTVSPost2010Prop30
280
     1
102
RTVSPost2010PropOp30
 70
     1
102
RTVSPost2010Prop31
280
     0
102
RTVSPost2010PropOp31
 70
     1
102
RTVSPost2010Prop32
280
     0
102
RTVSPost2010PropOp32
 70
     1
102
RTVSPost2010Prop33
280
     0
102
RTVSPost2010PropOp33
 70
     1
102
RTVSPost2010Prop34
280
     0
102
RTVSPost2010PropOp34
 70
     1
102
RTVSPost2010Prop35
280
     0
102
RTVSPost2010PropOp35
 70
     1
102
RTVSPost2010Prop36
280
     0
102
RTVSPost2010PropOp36
 70
     1
102
RTVSPost2010Prop37
 90
       50
102
RTVSPost2010PropOp37
 70
     1
102
RTVSPost2010Prop38
140
0.0
102
RTVSPost2010PropOp38
 70
     1
102
RTVSPost2010Prop39
140
1.0
102
RTVSPost2010PropOp39
 70
     1
102
RTVSPost2010Prop40
 90
        0
102
RTVSPost2010PropOp40
 70
     1
102
RTVSPost2010Prop41ColorIndex
 90
       18
102
RTVSPost2010Prop41ColorRGB
 90
        0
102
RTVSPost2010PropOp41
 70
     1
102
RTVSPost2010Prop42
 90
       50
102
RTVSPost2010PropOp42
 70
     1
102
RTVSPost2010Prop43
 90
        3
102
RTVSPost2010PropOp43
 70
     1
102
RTVSPost2010Prop44ColorIndex
 90
        5
102
RTVSPost2010Prop44ColorRGB
 90
      255
102
RTVSPost2010PropOp44
 70
     1
102
RTVSPost2010Prop45
280
     0
102
RTVSPost2010PropOp45
 70
     1
102
RTVSPost2010Prop46
 90
       50
102
RTVSPost2010PropOp46
 70
     1
102
RTVSPost2010Prop47
 90
       50
102
RTVSPost2010PropOp47
 70
     1
102
RTVSPost2010Prop48
 90
       50
102
RTVSPost2010PropOp48
 70
     1
102
RTVSPost2010Prop49
280
     0
102
RTVSPost2010PropOp49
 70
     1
102
RTVSPost2010Prop50
 90
       50
102
RTVSPost2010PropOp50
 70
     1
102
RTVSPost2010Prop51ColorIndex
 90
      256
102
RTVSPost2010Prop51ColorRGB
 90
-16777216
102
RTVSPost2010PropOp51
 70
     0
102
RTVSPost2010Prop52
140
1.0
102
RTVSPost2010PropOp52
 70
     0
102
RTVSPost2010Prop53
 90
        2
102
RTVSPost2010PropOp53
 70
     1
102
RTVSPost2010Prop54
  1
strokes_ogs.tif
102
RTVSPost2010PropOp54
 70
     1
102
RTVSPost2010Prop55
280
     0
102
RTVSPost2010PropOp55
 70
     1
102
RTVSPost2010Prop56
140
1.0
102
RTVSPost2010PropOp56
 70
     1
102
RTVSPost2010Prop57
140
1.0
102
RTVSPost2010PropOp57
 70
     1
102
RTVSPropertyOp0
 70
     1
102
RTVSPropertyOp1
 70
     1
102
RTVSPropertyOp2
 70
     1
102
RTVSPropertyOp3
 70
     1
102
RTVSPropertyOp4
 70
     1
102
RTVSPropertyOp5
 70
     1
102
RTVSPropertyOp6
 70
     1
102
RTVSPropertyOp7
 70
     1
102
RTVSPropertyOp8
 70
     1
102
RTVSPropertyOp9
 70
     1
102
RTVSPropertyOp10
 70
     1
102
RTVSPropertyOp11
 70
     1
102
RTVSPropertyOp12
 70
     1
102
RTVSPropertyOp13
 70
     1
102
RTVSPropertyOp14
 70
     1
102
RTVSPropertyOp15
 70
     1
102
RTVSPropertyOp16
 70
     1
102
RTVSPropertyOp17
 70
     1
102
RTVSPropertyOp18
 70
     1
102
RTVSPropertyOp19
 70
     1
102
RTVSPropertyOp20
 70
     1
102
RTVSPropertyOp21
 70
     1
102
RTVSPropertyOp22
 70
     1
102
RTVSPropertyOp23
 70
     1
102
RTVSPropertyOp24
 70
     1
102
RTVSPropertyOp25
 70
     1
102
RTVSPropertyOp26
 70
     1
102
RTVSPropertyOp27
 70
     1
102
RTVSPropertyOp28
 70
     1
102
RTVSPropertyOp29
 70
     1
102
RTVSPropertyOp30
 70
     1
102
RTVSPropertyOp31
 70
     1
102
RTVSPropertyOp32
 70
     1
102
RTVSPropertyOp33
 70
     1
102
RTVSPropertyOp34
 70
     1
102
RTVSPropertyOp35
 70
     1
102
RTVSPropertyOp36
 70
     1
102
RTVSPropertyOp37
 70
     1
102
RTVSPropertyOp38
 70
     1
102
RTVSPropertyOp39
 70
     1
102
RTVSPropertyOp40
 70
     1
102
RTVSPropertyOp41
 70
     1
102
RTVSPropertyOp42
 70
     1
102
RTVSPropertyOp43
 70
     1
102
RTVSPropertyOp44
 70
     1
102
RTVSPropertyOp45
 70
     1
102
RTVSPropertyOp46
 70
     1
102
RTVSPropertyOp47
 70
     1
102
RTVSPropertyOp48
 70
     1
102
RTVSPropertyOp49
 70
     1
102
RTVSPropertyOp50
 70
     1
102
RTVSPropertyOp51
 70
     0
102
RTVSPropertyOp52
 70
     0
102
RTVSPropertyOp53
 70
     1
102
RTVSPropertyOp54
 70
     1
102
RTVSPropertyOp55
 70
     1
102
RTVSPropertyOp56
 70
     1
102
RTVSPropertyOp57
 70
     1
102
RTVSPropertyOp58
 70
     1
102
RTVSPropertyOp59
 70
     1
102
RTVSPropertyOp60
 70
     1
102
RTVSPropertyOp61
 70
     1
102
RTVSPropertyOp62
 70
     1
  0
ENDSEC
  0
EOF
