  0
SECTION
  2
HEADER
  9
$ACADVER
  1
AC1018
  9
$ACADMAINTVER
 70
   104
  9
$DWGCODEPAGE
  3
ANSI_1250
  9
$LASTSAVEDBY
  1
wq7085
  9
$INSBASE
 10
0.0
 20
0.0
 30
0.0
  9
$EXTMIN
 10
187.2502013333333
 20
118.534924
 30
0.0
  9
$EXTMAX
 10
470.807865
 20
351.9336746666668
 30
0.0
  9
$LIMMIN
 10
-0.5
 20
-0.5
  9
$LIMMAX
 10
5.0
 20
5.0
  9
$ORTHOMODE
 70
     0
  9
$REGENMODE
 70
     1
  9
$FILLMODE
 70
     1
  9
$QTEXTMODE
 70
     0
  9
$MIRRTEXT
 70
     1
  9
$LTSCALE
 40
1.0
  9
$ATTMODE
 70
     1
  9
$TEXTSIZE
 40
0.2
  9
$TRACEWID
 40
0.05
  9
$TEXTSTYLE
  7
Standard
  9
$CLAYER
  8
0
  9
$CELTYPE
  6
ByLayer
  9
$CECOLOR
 62
   256
  9
$CELTSCALE
 40
1.0
  9
$DISPSILH
 70
     0
  9
$DIMSCALE
 40
1.0
  9
$DIMASZ
 40
0.18
  9
$DIMEXO
 40
0.0625
  9
$DIMDLI
 40
0.38
  9
$DIMRND
 40
0.0
  9
$DIMDLE
 40
0.0
  9
$DIMEXE
 40
0.18
  9
$DIMTP
 40
0.0
  9
$DIMTM
 40
0.0
  9
$DIMTXT
 40
0.18
  9
$DIMCEN
 40
0.09
  9
$DIMTSZ
 40
0.0
  9
$DIMTOL
 70
     0
  9
$DIMLIM
 70
     0
  9
$DIMTIH
 70
     1
  9
$DIMTOH
 70
     1
  9
$DIMSE1
 70
     0
  9
$DIMSE2
 70
     0
  9
$DIMTAD
 70
     0
  9
$DIMZIN
 70
     0
  9
$DIMBLK
  1

  9
$DIMASO
 70
     1
  9
$DIMSHO
 70
     1
  9
$DIMPOST
  1

  9
$DIMAPOST
  1

  9
$DIMALT
 70
     0
  9
$DIMALTD
 70
     2
  9
$DIMALTF
 40
25.4
  9
$DIMLFAC
 40
1.0
  9
$DIMTOFL
 70
     0
  9
$DIMTVP
 40
0.0
  9
$DIMTIX
 70
     0
  9
$DIMSOXD
 70
     0
  9
$DIMSAH
 70
     0
  9
$DIMBLK1
  1

  9
$DIMBLK2
  1

  9
$DIMSTYLE
  2
Standard
  9
$DIMCLRD
 70
     0
  9
$DIMCLRE
 70
     0
  9
$DIMCLRT
 70
     0
  9
$DIMTFAC
 40
1.0
  9
$DIMGAP
 40
0.09
  9
$DIMJUST
 70
     0
  9
$DIMSD1
 70
     0
  9
$DIMSD2
 70
     0
  9
$DIMTOLJ
 70
     1
  9
$DIMTZIN
 70
     0
  9
$DIMALTZ
 70
     0
  9
$DIMALTTZ
 70
     0
  9
$DIMUPT
 70
     0
  9
$DIMDEC
 70
     4
  9
$DIMTDEC
 70
     4
  9
$DIMALTU
 70
     2
  9
$DIMALTTD
 70
     2
  9
$DIMTXSTY
  7
Standard
  9
$DIMAUNIT
 70
     0
  9
$DIMADEC
 70
     0
  9
$DIMALTRND
 40
0.0
  9
$DIMAZIN
 70
     0
  9
$DIMDSEP
 70
    46
  9
$DIMATFIT
 70
     3
  9
$DIMFRAC
 70
     0
  9
$DIMLDRBLK
  1

  9
$DIMLUNIT
 70
     2
  9
$DIMLWD
 70
    -2
  9
$DIMLWE
 70
    -2
  9
$DIMTMOVE
 70
     0
  9
$LUNITS
 70
     2
  9
$LUPREC
 70
     4
  9
$SKETCHINC
 40
0.1
  9
$FILLETRAD
 40
0.5
  9
$AUNITS
 70
     0
  9
$AUPREC
 70
     0
  9
$MENU
  1
.
  9
$ELEVATION
 40
0.0
  9
$PELEVATION
 40
0.0
  9
$THICKNESS
 40
0.0
  9
$LIMCHECK
 70
     0
  9
$CHAMFERA
 40
0.0
  9
$CHAMFERB
 40
0.0
  9
$CHAMFERC
 40
0.0
  9
$CHAMFERD
 40
0.0
  9
$SKPOLY
 70
     0
  9
$TDCREATE
 40
2459089.488784722
  9
$TDUCREATE
 40
2459089.405451458
  9
$TDUPDATE
 40
2459089.489618056
  9
$TDUUPDATE
 40
2459089.406284722
  9
$TDINDWG
 40
0.0002199190
  9
$TDUSRTIMER
 40
0.0002199190
  9
$USRTIMER
 70
     1
  9
$ANGBASE
 50
0.0
  9
$ANGDIR
 70
     0
  9
$PDMODE
 70
     0
  9
$PDSIZE
 40
0.0
  9
$PLINEWID
 40
0.0
  9
$SPLFRAME
 70
     0
  9
$SPLINETYPE
 70
     6
  9
$SPLINESEGS
 70
     8
  9
$HANDSEED
  5
3A0
  9
$SURFTAB1
 70
     6
  9
$SURFTAB2
 70
     6
  9
$SURFTYPE
 70
     6
  9
$SURFU
 70
     6
  9
$SURFV
 70
     6
  9
$UCSBASE
  2

  9
$UCSNAME
  2

  9
$UCSORG
 10
274.404842
 20
288.907994
 30
0.0
  9
$UCSXDIR
 10
1.0
 20
0.0
 30
0.0
  9
$UCSYDIR
 10
0.0
 20
1.0
 30
0.0
  9
$UCSORTHOREF
  2

  9
$UCSORTHOVIEW
 70
     0
  9
$UCSORGTOP
 10
0.0
 20
0.0
 30
0.0
  9
$UCSORGBOTTOM
 10
0.0
 20
0.0
 30
0.0
  9
$UCSORGLEFT
 10
0.0
 20
0.0
 30
0.0
  9
$UCSORGRIGHT
 10
0.0
 20
0.0
 30
0.0
  9
$UCSORGFRONT
 10
0.0
 20
0.0
 30
0.0
  9
$UCSORGBACK
 10
0.0
 20
0.0
 30
0.0
  9
$PUCSBASE
  2

  9
$PUCSNAME
  2

  9
$PUCSORG
 10
0.0
 20
0.0
 30
0.0
  9
$PUCSXDIR
 10
1.0
 20
0.0
 30
0.0
  9
$PUCSYDIR
 10
0.0
 20
1.0
 30
0.0
  9
$PUCSORTHOREF
  2

  9
$PUCSORTHOVIEW
 70
     0
  9
$PUCSORGTOP
 10
0.0
 20
0.0
 30
0.0
  9
$PUCSORGBOTTOM
 10
0.0
 20
0.0
 30
0.0
  9
$PUCSORGLEFT
 10
0.0
 20
0.0
 30
0.0
  9
$PUCSORGRIGHT
 10
0.0
 20
0.0
 30
0.0
  9
$PUCSORGFRONT
 10
0.0
 20
0.0
 30
0.0
  9
$PUCSORGBACK
 10
0.0
 20
0.0
 30
0.0
  9
$USERI1
 70
     0
  9
$USERI2
 70
     0
  9
$USERI3
 70
     0
  9
$USERI4
 70
     0
  9
$USERI5
 70
     0
  9
$USERR1
 40
0.0
  9
$USERR2
 40
0.0
  9
$USERR3
 40
0.0
  9
$USERR4
 40
0.0
  9
$USERR5
 40
0.0
  9
$WORLDVIEW
 70
     1
  9
$SHADEDGE
 70
     3
  9
$SHADEDIF
 70
    70
  9
$TILEMODE
 70
     1
  9
$MAXACTVP
 70
    64
  9
$PINSBASE
 10
0.0
 20
0.0
 30
0.0
  9
$PLIMCHECK
 70
     0
  9
$PEXTMIN
 10
-0.5
 20
-0.5
 30
-0.5
  9
$PEXTMAX
 10
5.0
 20
5.0
 30
5.0
  9
$PLIMMIN
 10
-0.5
 20
-0.5
  9
$PLIMMAX
 10
5.0
 20
5.0
  9
$UNITMODE
 70
     0
  9
$VISRETAIN
 70
     1
  9
$PLINEGEN
 70
     0
  9
$PSLTSCALE
 70
     1
  9
$TREEDEPTH
 70
  3020
  9
$CMLSTYLE
  2
Standard
  9
$CMLJUST
 70
     0
  9
$CMLSCALE
 40
1.0
  9
$PROXYGRAPHICS
 70
     1
  9
$MEASUREMENT
 70
     1
  9
$CELWEIGHT
370
    13
  9
$ENDCAPS
280
     0
  9
$JOINSTYLE
280
     0
  9
$LWDISPLAY
290
     0
  9
$INSUNITS
 70
     4
  9
$HYPERLINKBASE
  1

  9
$STYLESHEET
  1

  9
$XEDIT
290
     1
  9
$CEPSNTYPE
380
     0
  9
$PSTYLEMODE
290
     1
  9
$FINGERPRINTGUID
  2
{9125A477-6105-445D-BB96-423E4C9747A5}
  9
$VERSIONGUID
  2
{8BD9B4BC-9705-D740-BE97-E69F6F06166F}
  9
$EXTNAMES
290
     1
  9
$PSVPSCALE
 40
0.0
  9
$OLESTARTUP
290
     0
  9
$SORTENTS
280
   127
  9
$INDEXCTL
280
     0
  9
$HIDETEXT
280
     1
  9
$XCLIPFRAME
290
     0
  9
$HALOGAP
280
     0
  9
$OBSCOLOR
 70
   257
  9
$OBSLTYPE
280
     0
  9
$INTERSECTIONDISPLAY
280
     0
  9
$INTERSECTIONCOLOR
 70
   257
  9
$DIMASSOC
280
     2
  9
$PROJECTNAME
  1

  0
ENDSEC
  0
SECTION
  2
CLASSES
  0
CLASS
  1
ACDBDICTIONARYWDFLT
  2
AcDbDictionaryWithDefault
  3
ObjectDBX Classes
 90
        0
 91
        1
280
     0
281
     0
  0
CLASS
  1
VISUALSTYLE
  2
AcDbVisualStyle
  3
ObjectDBX Classes
 90
     4095
 91
       24
280
     0
281
     0
  0
CLASS
  1
MATERIAL
  2
AcDbMaterial
  3
ObjectDBX Classes
 90
     1153
 91
        3
280
     0
281
     0
  0
CLASS
  1
SCALE
  2
AcDbScale
  3
ObjectDBX Classes
 90
     1153
 91
       33
280
     0
281
     0
  0
CLASS
  1
TABLESTYLE
  2
AcDbTableStyle
  3
ObjectDBX Classes
 90
     4095
 91
        1
280
     0
281
     0
  0
CLASS
  1
MLEADERSTYLE
  2
AcDbMLeaderStyle
  3
ACDB_MLEADERSTYLE_CLASS
 90
     4095
 91
        1
280
     0
281
     0
  0
CLASS
  1
SUN
  2
AcDbSun
  3
SCENEOE
 90
     1153
 91
        0
280
     0
281
     0
  0
CLASS
  1
DIMASSOC
  2
AcDbDimAssoc
  3
"AcDbDimAssoc|Product Desc:     AcDim ARX App For Dimension|Company:          Autodesk, Inc.|WEB Address:      www.autodesk.com"
 90
        0
 91
        7
280
     0
281
     0
  0
CLASS
  1
DICTIONARYVAR
  2
AcDbDictionaryVar
  3
ObjectDBX Classes
 90
        0
 91
        8
280
     0
281
     0
  0
CLASS
  1
CELLSTYLEMAP
  2
AcDbCellStyleMap
  3
ObjectDBX Classes
 90
     1152
 91
        2
280
     0
281
     0
  0
CLASS
  1
ACDBSECTIONVIEWSTYLE
  2
AcDbSectionViewStyle
  3
ObjectDBX Classes
 90
     1025
 91
        1
280
     0
281
     0
  0
CLASS
  1
ACDBDETAILVIEWSTYLE
  2
AcDbDetailViewStyle
  3
ObjectDBX Classes
 90
     1025
 91
        1
280
     0
281
     0
  0
CLASS
  1
SORTENTSTABLE
  2
AcDbSortentsTable
  3
ObjectDBX Classes
 90
        0
 91
        1
280
     0
281
     0
  0
ENDSEC
  0
SECTION
  2
TABLES
  0
TABLE
  2
VPORT
  5
8
330
0
100
AcDbSymbolTable
 70
    16
  0
VPORT
  5
29
330
8
100
AcDbSymbolTableRecord
100
AcDbViewportTableRecord
  2
*Active
 70
     0
 10
0.0
 20
0.0
 11
1.0
 21
1.0
 12
347.2733686464174
 22
307.9384254052765
 13
0.0
 23
0.0
 14
0.5
 24
0.5
 15
0.5
 25
0.5
 16
0.0
 26
0.0
 36
1.0
 17
0.0
 27
0.0
 37
0.0
 40
333.0711905466502
 41
2.292712066905615
 42
50.0
 43
495.135865
 44
-495.135865
 50
0.0
 51
0.0
 71
     0
 72
   100
 73
     1
 74
     3
 75
     0
 76
     0
 77
     0
 78
     0
281
     0
 65
     1
110
274.404842
120
288.907994
130
0.0
111
1.0
121
0.0
131
0.0
112
0.0
122
1.0
132
0.0
 79
     0
146
0.0
1001
ACAD_NAV_VCDISPLAY
1070
     3
  0
VPORT
  5
2A4
330
8
100
AcDbSymbolTableRecord
100
AcDbViewportTableRecord
  2
L1
 70
     0
 10
0.0
 20
0.0
 11
1.0
 21
1.0
 12
328.5248259999999
 22
235.179606
 13
0.0
 23
0.0
 14
0.5
 24
0.5
 15
0.5
 25
0.5
 16
0.0
 26
0.0
 36
1.0
 17
0.0
 27
0.0
 37
0.0
 40
207.433333
 41
0.085602
 42
50.0
 43
495.135865
 44
-495.135865
 50
0.0
 51
0.0
 71
     0
 72
   100
 73
     1
 74
     3
 75
     0
 76
     0
 77
     0
 78
     0
281
     0
 65
     1
110
0.0
120
0.0
130
0.0
111
1.0
121
0.0
131
0.0
112
0.0
122
1.0
132
0.0
 79
     0
146
0.0
  0
VPORT
  5
2A5
330
8
100
AcDbSymbolTableRecord
100
AcDbViewportTableRecord
  2
L2
 70
     0
 10
0.0
 20
0.0
 11
0.5
 21
1.0
 12
0.0
 22
0.0
 13
0.0
 23
0.0
 14
0.5
 24
0.5
 15
0.5
 25
0.5
 16
0.0
 26
-1.0
 36
0.0
 17
0.0
 27
0.0
 37
0.0
 40
1316.18997
 41
0.013491
 42
50.0
 43
678.00864
 44
-678.00864
 50
0.0
 51
0.0
 71
     0
 72
   100
 73
     1
 74
     3
 75
     0
 76
     0
 77
     0
 78
     0
281
     0
 65
     1
110
0.0
120
0.0
130
0.0
111
1.0
121
0.0
131
0.0
112
0.0
122
1.0
132
0.0
 79
     0
146
0.0
  0
VPORT
  5
2A6
330
8
100
AcDbSymbolTableRecord
100
AcDbViewportTableRecord
  2
L2
 70
     0
 10
0.5
 20
0.0
 11
1.0
 21
1.0
 12
0.0
 22
0.0
 13
0.0
 23
0.0
 14
0.5
 24
0.5
 15
0.5
 25
0.5
 16
1.0
 26
0.0
 36
0.0
 17
0.0
 27
0.0
 37
0.0
 40
1316.18997
 41
0.013491
 42
50.0
 43
666.2177989999999
 44
-666.2177989999999
 50
0.0
 51
0.0
 71
     0
 72
   100
 73
     1
 74
     3
 75
     0
 76
     0
 77
     0
 78
     0
281
     0
 65
     1
110
0.0
120
0.0
130
0.0
111
1.0
121
0.0
131
0.0
112
0.0
122
1.0
132
0.0
 79
     0
146
0.0
  0
VPORT
  5
2A7
330
8
100
AcDbSymbolTableRecord
100
AcDbViewportTableRecord
  2
L3
 70
     0
 10
0.0
 20
0.5
 11
1.0
 21
1.0
 12
328.5248259999999
 22
235.179606
 13
0.0
 23
0.0
 14
0.5
 24
0.5
 15
0.5
 25
0.5
 16
0.0
 26
0.0
 36
1.0
 17
0.0
 27
0.0
 37
0.0
 40
207.433333
 41
0.085602
 42
50.0
 43
495.135865
 44
-495.135865
 50
0.0
 51
0.0
 71
     0
 72
   100
 73
     1
 74
     3
 75
     0
 76
     0
 77
     0
 78
     0
281
     0
 65
     1
110
0.0
120
0.0
130
0.0
111
1.0
121
0.0
131
0.0
112
0.0
122
1.0
132
0.0
 79
     0
146
0.0
  0
VPORT
  5
2A8
330
8
100
AcDbSymbolTableRecord
100
AcDbViewportTableRecord
  2
L3
 70
     0
 10
0.0
 20
0.0
 11
1.0
 21
0.5
 12
0.0
 22
0.0
 13
0.0
 23
0.0
 14
0.5
 24
0.5
 15
0.5
 25
0.5
 16
0.0
 26
-1.0
 36
0.0
 17
0.0
 27
0.0
 37
0.0
 40
1316.18997
 41
0.013491
 42
50.0
 43
678.00864
 44
-678.00864
 50
0.0
 51
0.0
 71
     0
 72
   100
 73
     1
 74
     3
 75
     0
 76
     0
 77
     0
 78
     0
281
     0
 65
     1
110
0.0
120
0.0
130
0.0
111
1.0
121
0.0
131
0.0
112
0.0
122
1.0
132
0.0
 79
     0
146
0.0
  0
VPORT
  5
2A9
330
8
100
AcDbSymbolTableRecord
100
AcDbViewportTableRecord
  2
L4
 70
     0
 10
0.0
 20
0.5
 11
0.5
 21
1.0
 12
328.5248259999999
 22
235.179606
 13
0.0
 23
0.0
 14
0.5
 24
0.5
 15
0.5
 25
0.5
 16
0.0
 26
0.0
 36
1.0
 17
0.0
 27
0.0
 37
0.0
 40
207.433333
 41
0.085602
 42
50.0
 43
495.135865
 44
-495.135865
 50
0.0
 51
0.0
 71
     0
 72
   100
 73
     1
 74
     3
 75
     0
 76
     0
 77
     0
 78
     0
281
     0
 65
     1
110
0.0
120
0.0
130
0.0
111
1.0
121
0.0
131
0.0
112
0.0
122
1.0
132
0.0
 79
     0
146
0.0
  0
VPORT
  5
2AA
330
8
100
AcDbSymbolTableRecord
100
AcDbViewportTableRecord
  2
L4
 70
     0
 10
0.0
 20
0.0
 11
0.5
 21
0.5
 12
0.0
 22
0.0
 13
0.0
 23
0.0
 14
0.5
 24
0.5
 15
0.5
 25
0.5
 16
0.0
 26
-1.0
 36
0.0
 17
0.0
 27
0.0
 37
0.0
 40
1316.18997
 41
0.013491
 42
50.0
 43
678.00864
 44
-678.00864
 50
0.0
 51
0.0
 71
     0
 72
   100
 73
     1
 74
     3
 75
     0
 76
     0
 77
     0
 78
     0
281
     0
 65
     1
110
0.0
120
0.0
130
0.0
111
1.0
121
0.0
131
0.0
112
0.0
122
1.0
132
0.0
 79
     0
146
0.0
  0
VPORT
  5
2AB
330
8
100
AcDbSymbolTableRecord
100
AcDbViewportTableRecord
  2
L4
 70
     0
 10
0.5
 20
0.0
 11
1.0
 21
0.5
 12
0.0
 22
0.0
 13
0.0
 23
0.0
 14
0.5
 24
0.5
 15
0.5
 25
0.5
 16
1.0
 26
0.0
 36
0.0
 17
0.0
 27
0.0
 37
0.0
 40
1316.18997
 41
0.013491
 42
50.0
 43
666.2177989999999
 44
-666.2177989999999
 50
0.0
 51
0.0
 71
     0
 72
   100
 73
     1
 74
     3
 75
     0
 76
     0
 77
     0
 78
     0
281
     0
 65
     1
110
0.0
120
0.0
130
0.0
111
1.0
121
0.0
131
0.0
112
0.0
122
1.0
132
0.0
 79
     0
146
0.0
  0
VPORT
  5
2AC
330
8
100
AcDbSymbolTableRecord
100
AcDbViewportTableRecord
  2
L4
 70
     0
 10
0.5
 20
0.5
 11
1.0
 21
1.0
 12
0.0
 22
0.0
 13
0.0
 23
0.0
 14
0.5
 24
0.5
 15
0.5
 25
0.5
 16
0.5773502691896259
 26
-0.5773502691896259
 36
0.5773502691896259
 17
0.0
 27
0.0
 37
0.0
 40
1292.532264
 41
0.013738
 42
50.0
 43
673.245608
 44
-673.245608
 50
0.0
 51
0.0
 71
     0
 72
   100
 73
     1
 74
     3
 75
     0
 76
     0
 77
     0
 78
     0
281
     0
 65
     1
110
0.0
120
0.0
130
0.0
111
1.0
121
0.0
131
0.0
112
0.0
122
1.0
132
0.0
 79
     0
146
0.0
  0
VPORT
  5
2AD
330
8
100
AcDbSymbolTableRecord
100
AcDbViewportTableRecord
  2
L6
 70
     0
 10
0.0
 20
0.5
 11
0.333333
 21
1.0
 12
0.0
 22
0.0
 13
0.0
 23
0.0
 14
0.5
 24
0.5
 15
0.5
 25
0.5
 16
0.7188730927569434
 26
-0.5850486126764433
 36
0.3754192287502549
 17
0.0
 27
0.0
 37
0.0
 40
1364.064247
 41
0.013018
 42
50.0
 43
706.2613849999999
 44
-706.2613849999999
 50
0.0
 51
0.0
 71
     0
 72
   100
 73
     1
 74
     3
 75
     0
 76
     0
 77
     0
 78
     0
281
     0
 65
     1
110
0.0
120
0.0
130
0.0
111
1.0
121
0.0
131
0.0
112
0.0
122
1.0
132
0.0
 79
     0
146
0.0
  0
VPORT
  5
2AE
330
8
100
AcDbSymbolTableRecord
100
AcDbViewportTableRecord
  2
L6
 70
     0
 10
0.0
 20
0.0
 11
0.333333
 21
0.5
 12
0.0
 22
0.0
 13
0.0
 23
0.0
 14
0.5
 24
0.5
 15
0.5
 25
0.5
 16
-1.0
 26
0.0
 36
0.0
 17
0.0
 27
0.0
 37
0.0
 40
1316.18997
 41
0.013491
 42
50.0
 43
666.2177989999999
 44
-666.2177989999999
 50
0.0
 51
0.0
 71
     0
 72
   100
 73
     1
 74
     3
 75
     0
 76
     0
 77
     0
 78
     0
281
     0
 65
     1
110
0.0
120
0.0
130
0.0
111
1.0
121
0.0
131
0.0
112
0.0
122
1.0
132
0.0
 79
     0
146
0.0
  0
VPORT
  5
2AF
330
8
100
AcDbSymbolTableRecord
100
AcDbViewportTableRecord
  2
L6
 70
     0
 10
0.333333
 20
0.5
 11
0.666667
 21
1.0
 12
328.5248259999999
 22
235.179606
 13
0.0
 23
0.0
 14
0.5
 24
0.5
 15
0.5
 25
0.5
 16
0.0
 26
0.0
 36
1.0
 17
0.0
 27
0.0
 37
0.0
 40
207.433333
 41
0.085602
 42
50.0
 43
495.135865
 44
-495.135865
 50
0.0
 51
0.0
 71
     0
 72
   100
 73
     1
 74
     3
 75
     0
 76
     0
 77
     0
 78
     0
281
     0
 65
     1
110
0.0
120
0.0
130
0.0
111
1.0
121
0.0
131
0.0
112
0.0
122
1.0
132
0.0
 79
     0
146
0.0
  0
VPORT
  5
2B0
330
8
100
AcDbSymbolTableRecord
100
AcDbViewportTableRecord
  2
L6
 70
     0
 10
0.333333
 20
0.0
 11
0.666667
 21
0.5
 12
0.0
 22
0.0
 13
0.0
 23
0.0
 14
0.5
 24
0.5
 15
0.5
 25
0.5
 16
0.0
 26
-1.0
 36
0.0
 17
0.0
 27
0.0
 37
0.0
 40
1316.18997
 41
0.013491
 42
50.0
 43
678.00864
 44
-678.00864
 50
0.0
 51
0.0
 71
     0
 72
   100
 73
     1
 74
     3
 75
     0
 76
     0
 77
     0
 78
     0
281
     0
 65
     1
110
0.0
120
0.0
130
0.0
111
1.0
121
0.0
131
0.0
112
0.0
122
1.0
132
0.0
 79
     0
146
0.0
  0
VPORT
  5
2B1
330
8
100
AcDbSymbolTableRecord
100
AcDbViewportTableRecord
  2
L6
 70
     0
 10
0.666667
 20
0.5
 11
1.0
 21
1.0
 12
0.0
 22
0.0
 13
0.0
 23
0.0
 14
0.5
 24
0.5
 15
0.5
 25
0.5
 16
0.5773502691896259
 26
-0.5773502691896259
 36
0.5773502691896259
 17
0.0
 27
0.0
 37
0.0
 40
1292.532264
 41
0.013738
 42
50.0
 43
673.245608
 44
-673.245608
 50
0.0
 51
0.0
 71
     0
 72
   100
 73
     1
 74
     3
 75
     0
 76
     0
 77
     0
 78
     0
281
     0
 65
     1
110
0.0
120
0.0
130
0.0
111
1.0
121
0.0
131
0.0
112
0.0
122
1.0
132
0.0
 79
     0
146
0.0
  0
VPORT
  5
2B2
330
8
100
AcDbSymbolTableRecord
100
AcDbViewportTableRecord
  2
L6
 70
     0
 10
0.666667
 20
0.0
 11
1.0
 21
0.5
 12
0.0
 22
0.0
 13
0.0
 23
0.0
 14
0.5
 24
0.5
 15
0.5
 25
0.5
 16
1.0
 26
0.0
 36
0.0
 17
0.0
 27
0.0
 37
0.0
 40
1316.18997
 41
0.013491
 42
50.0
 43
666.2177989999999
 44
-666.2177989999999
 50
0.0
 51
0.0
 71
     0
 72
   100
 73
     1
 74
     3
 75
     0
 76
     0
 77
     0
 78
     0
281
     0
 65
     1
110
0.0
120
0.0
130
0.0
111
1.0
121
0.0
131
0.0
112
0.0
122
1.0
132
0.0
 79
     0
146
0.0
  0
ENDTAB
  0
TABLE
  2
LTYPE
  5
5
330
0
100
AcDbSymbolTable
 70
     7
  0
LTYPE
  5
14
330
5
100
AcDbSymbolTableRecord
100
AcDbLinetypeTableRecord
  2
ByBlock
 70
     0
  3

 72
    65
 73
     0
 40
0.0
  0
LTYPE
  5
15
330
5
100
AcDbSymbolTableRecord
100
AcDbLinetypeTableRecord
  2
ByLayer
 70
     0
  3

 72
    65
 73
     0
 40
0.0
  0
LTYPE
  5
16
330
5
100
AcDbSymbolTableRecord
100
AcDbLinetypeTableRecord
  2
Continuous
 70
     0
  3
Solid line
 72
    65
 73
     0
 40
0.0
  0
LTYPE
  5
6E
330
5
100
AcDbSymbolTableRecord
100
AcDbLinetypeTableRecord
  2
CENTER
 70
     0
  3
____ _ ____ _ ____ _ ____
 72
    65
 73
     4
 40
47.4
 49
22.0
 74
     4
 75
     0
340
0
 46
0.0
 50
0.0
 44
0.0
 45
0.0
 49
-8.5
 74
     4
 75
     0
340
0
 46
0.0
 50
0.0
 44
0.0
 45
0.0
 49
8.5
 74
     4
 75
     0
340
0
 46
0.0
 50
0.0
 44
0.0
 45
0.0
 49
-8.5
 74
     4
 75
     0
340
0
 46
0.0
 50
0.0
 44
0.0
 45
0.0
  0
LTYPE
  5
6F
330
5
100
AcDbSymbolTableRecord
100
AcDbLinetypeTableRecord
  2
DASHDOT
 70
     0
  3
_._._._._._._._._._._._._._._._.
 72
    65
 73
     4
 40
70.0
 49
31.0
 74
     4
 75
     0
340
0
 46
0.0
 50
0.0
 44
0.0
 45
0.0
 49
-13.0
 74
     4
 75
     0
340
0
 46
0.0
 50
0.0
 44
0.0
 45
0.0
 49
13.0
 74
     4
 75
     0
340
0
 46
0.0
 50
0.0
 44
0.0
 45
0.0
 49
-13.0
 74
     4
 75
     0
340
0
 46
0.0
 50
0.0
 44
0.0
 45
0.0
  0
LTYPE
  5
70
330
5
100
AcDbSymbolTableRecord
100
AcDbLinetypeTableRecord
  2
DASHED
 70
     0
  3
__ __ __ __ __ __ __ __ __
 72
    65
 73
     2
 40
25.72
 49
12.86
 74
     4
 75
     0
340
0
 46
0.0
 50
0.0
 44
0.0
 45
0.0
 49
-12.86
 74
     4
 75
     0
340
0
 46
0.0
 50
0.0
 44
0.0
 45
0.0
  0
LTYPE
  5
71
330
5
100
AcDbSymbolTableRecord
100
AcDbLinetypeTableRecord
  2
DOT
 70
     0
  3
.........................
 72
    65
 73
     2
 40
10.0
 49
0.0
 74
     4
 75
     0
340
0
 46
0.0
 50
0.0
 44
0.0
 45
0.0
 49
-10.0
 74
     4
 75
     0
340
0
 46
0.0
 50
0.0
 44
0.0
 45
0.0
  0
LTYPE
  5
72
330
5
100
AcDbSymbolTableRecord
100
AcDbLinetypeTableRecord
  2
PHANTOM
 70
     0
  3
____ _ _ ____ _ _ _____ _ _ ____
 72
    65
 73
     6
 40
50.5
 49
18.0
 74
     4
 75
     0
340
0
 46
0.0
 50
0.0
 44
0.0
 45
0.0
 49
-6.5
 74
     4
 75
     0
340
0
 46
0.0
 50
0.0
 44
0.0
 45
0.0
 49
6.5
 74
     4
 75
     0
340
0
 46
0.0
 50
0.0
 44
0.0
 45
0.0
 49
-6.5
 74
     4
 75
     0
340
0
 46
0.0
 50
0.0
 44
0.0
 45
0.0
 49
6.5
 74
     4
 75
     0
340
0
 46
0.0
 50
0.0
 44
0.0
 45
0.0
 49
-6.5
 74
     4
 75
     0
340
0
 46
0.0
 50
0.0
 44
0.0
 45
0.0
  0
LTYPE
  5
342
330
5
100
AcDbSymbolTableRecord
100
AcDbLinetypeTableRecord
  2
CENTER2
 70
     0
  3
Center (.5x) ___ _ ___ _ ___ _ ___ _ ___ _ ___
 72
    65
 73
     4
 40
1.125
 49
0.75
 74
     0
 49
-0.125
 74
     0
 49
0.125
 74
     0
 49
-0.125
 74
     0
  0
ENDTAB
  0
TABLE
  2
LAYER
  5
2
330
0
100
AcDbSymbolTable
 70
    22
  0
LAYER
  5
10
102
{ACAD_XDICTIONARY
360
34D
102
}
330
2
100
AcDbSymbolTableRecord
100
AcDbLayerTableRecord
  2
0
 70
     0
 62
     7
  6
Continuous
370
    -3
390
F
  0
LAYER
  5
1FE
330
2
100
AcDbSymbolTableRecord
100
AcDbLayerTableRecord
  2
Defpoints
 70
     0
 62
     7
  6
Continuous
290
     0
370
    -3
390
F
  0
LAYER
  5
33F
102
{ACAD_XDICTIONARY
360
34F
102
}
330
2
100
AcDbSymbolTableRecord
100
AcDbLayerTableRecord
  2
1
 70
     0
 62
     4
  6
Continuous
370
    -3
390
F
  0
LAYER
  5
340
102
{ACAD_XDICTIONARY
360
351
102
}
330
2
100
AcDbSymbolTableRecord
100
AcDbLayerTableRecord
  2
2
 70
     0
 62
     7
  6
Continuous
370
    -3
390
F
  0
LAYER
  5
341
102
{ACAD_XDICTIONARY
360
353
102
}
330
2
100
AcDbSymbolTableRecord
100
AcDbLayerTableRecord
  2
4
 70
     0
 62
     2
  6
CENTER2
370
    -3
390
F
  0
LAYER
  5
343
102
{ACAD_XDICTIONARY
360
355
102
}
330
2
100
AcDbSymbolTableRecord
100
AcDbLayerTableRecord
  2
SK1
 70
     0
 62
     4
  6
Continuous
370
    -3
390
F
  0
LAYER
  5
344
102
{ACAD_XDICTIONARY
360
357
102
}
330
2
100
AcDbSymbolTableRecord
100
AcDbLayerTableRecord
  2
SK2
 70
     0
 62
     7
  6
Continuous
370
    -3
390
F
  0
LAYER
  5
346
102
{ACAD_XDICTIONARY
360
359
102
}
330
2
100
AcDbSymbolTableRecord
100
AcDbLayerTableRecord
  2
SK4
 70
     0
 62
     2
  6
CENTER2
370
    -3
390
F
  0
LAYER
  5
347
102
{ACAD_XDICTIONARY
360
35B
102
}
330
2
100
AcDbSymbolTableRecord
100
AcDbLayerTableRecord
  2
SK6
 70
     0
 62
     5
  6
Continuous
370
    -3
390
F
  0
LAYER
  5
348
102
{ACAD_XDICTIONARY
360
35D
102
}
330
2
100
AcDbSymbolTableRecord
100
AcDbLayerTableRecord
  2
CUT
 70
     0
 62
     1
  6
Continuous
370
    -3
390
F
  0
LAYER
  5
349
102
{ACAD_XDICTIONARY
360
35F
102
}
330
2
100
AcDbSymbolTableRecord
100
AcDbLayerTableRecord
  2
NOCUT
 70
     0
 62
     7
  6
Continuous
370
    -3
390
F
  0
LAYER
  5
34A
102
{ACAD_XDICTIONARY
360
361
102
}
330
2
100
AcDbSymbolTableRecord
100
AcDbLayerTableRecord
  2
80
 70
     0
 62
     6
  6
Continuous
370
    -3
390
F
  0
LAYER
  5
34B
102
{ACAD_XDICTIONARY
360
363
102
}
330
2
100
AcDbSymbolTableRecord
100
AcDbLayerTableRecord
  2
81
 70
     0
 62
     3
  6
Continuous
370
    -3
390
F
  0
ENDTAB
  0
TABLE
  2
STYLE
  5
3
330
0
100
AcDbSymbolTable
 70
     3
  0
STYLE
  5
11
330
3
100
AcDbSymbolTableRecord
100
AcDbTextStyleTableRecord
  2
Standard
 70
     0
 40
0.0
 41
1.0
 50
0.0
 71
     0
 42
0.2
  3
txt
  4

  0
STYLE
  5
1F7
330
3
100
AcDbSymbolTableRecord
100
AcDbTextStyleTableRecord
  2
cesky
 70
     0
 40
0.0
 41
1.0
 50
0.0
 71
     0
 42
0.2
  3
simplex.shx
  4

  0
STYLE
  5
1F8
330
3
100
AcDbSymbolTableRecord
100
AcDbTextStyleTableRecord
  2
DWGDirectTextStyle
 70
     0
 40
0.0
 41
1.0
 50
0.0
 71
     0
 42
0.2
  3
simplex
  4

  0
ENDTAB
  0
TABLE
  2
VIEW
  5
6
330
0
100
AcDbSymbolTable
 70
     0
  0
ENDTAB
  0
TABLE
  2
UCS
  5
7
330
0
100
AcDbSymbolTable
 70
     0
  0
ENDTAB
  0
TABLE
  2
APPID
  5
9
330
0
100
AcDbSymbolTable
 70
     7
  0
APPID
  5
12
330
9
100
AcDbSymbolTableRecord
100
AcDbRegAppTableRecord
  2
ACAD
 70
     0
  0
APPID
  5
1FA
330
9
100
AcDbSymbolTableRecord
100
AcDbRegAppTableRecord
  2
ACAD_DSTYLE_DIMBREAK
 70
     0
  0
APPID
  5
2B3
330
9
100
AcDbSymbolTableRecord
100
AcDbRegAppTableRecord
  2
ACAD_DSTYLE_DIM_LINETYPE
 70
     0
  0
APPID
  5
2B4
330
9
100
AcDbSymbolTableRecord
100
AcDbRegAppTableRecord
  2
ACAD_DSTYLE_DIM_EXT1_LINETYPE
 70
     0
  0
APPID
  5
2B5
330
9
100
AcDbSymbolTableRecord
100
AcDbRegAppTableRecord
  2
ACAD_DSTYLE_DIM_EXT2_LINETYPE
 70
     0
  0
APPID
  5
2F5
330
9
100
AcDbSymbolTableRecord
100
AcDbRegAppTableRecord
  2
ACAD_MLEADERVER
 70
     0
  0
APPID
  5
368
330
9
100
AcDbSymbolTableRecord
100
AcDbRegAppTableRecord
  2
ACAD_NAV_VCDISPLAY
 70
     0
  0
ENDTAB
  0
TABLE
  2
DIMSTYLE
  5
A
330
0
100
AcDbSymbolTable
 70
     1
100
AcDbDimStyleTable
 71
     0
  0
DIMSTYLE
105
27
330
A
100
AcDbSymbolTableRecord
100
AcDbDimStyleTableRecord
  2
Standard
 70
     0
340
11
1001
ACAD_DSTYLE_DIMBREAK
1070
   391
1040
6.349999999999999
  0
ENDTAB
  0
TABLE
  2
BLOCK_RECORD
  5
1
330
0
100
AcDbSymbolTable
 70
    16
  0
BLOCK_RECORD
  5
1F
102
{ACAD_XDICTIONARY
360
305
102
}
330
1
100
AcDbSymbolTableRecord
100
AcDbBlockTableRecord
  2
*Model_Space
340
22
  0
BLOCK_RECORD
  5
1B
330
1
100
AcDbSymbolTableRecord
100
AcDbBlockTableRecord
  2
*Paper_Space
340
1E
  0
BLOCK_RECORD
  5
23
330
1
100
AcDbSymbolTableRecord
100
AcDbBlockTableRecord
  2
*Paper_Space0
340
26
  0
BLOCK_RECORD
  5
1F1
330
1
100
AcDbSymbolTableRecord
100
AcDbBlockTableRecord
  2
ASSORTED_DRAFT1
340
0
  0
BLOCK_RECORD
  5
1FF
330
1
100
AcDbSymbolTableRecord
100
AcDbBlockTableRecord
  2
*D2
340
0
  0
BLOCK_RECORD
  5
20A
330
1
100
AcDbSymbolTableRecord
100
AcDbBlockTableRecord
  2
_U0
340
0
  0
BLOCK_RECORD
  5
215
330
1
100
AcDbSymbolTableRecord
100
AcDbBlockTableRecord
  2
*D4
340
0
  0
BLOCK_RECORD
  5
221
330
1
100
AcDbSymbolTableRecord
100
AcDbBlockTableRecord
  2
_U1
340
0
  0
BLOCK_RECORD
  5
22E
330
1
100
AcDbSymbolTableRecord
100
AcDbBlockTableRecord
  2
*D6
340
0
  0
BLOCK_RECORD
  5
23A
330
1
100
AcDbSymbolTableRecord
100
AcDbBlockTableRecord
  2
_U2
340
0
  0
BLOCK_RECORD
  5
247
330
1
100
AcDbSymbolTableRecord
100
AcDbBlockTableRecord
  2
*D8
340
0
  0
BLOCK_RECORD
  5
253
330
1
100
AcDbSymbolTableRecord
100
AcDbBlockTableRecord
  2
_U3
340
0
  0
BLOCK_RECORD
  5
25F
330
1
100
AcDbSymbolTableRecord
100
AcDbBlockTableRecord
  2
*D10
340
0
  0
BLOCK_RECORD
  5
26B
330
1
100
AcDbSymbolTableRecord
100
AcDbBlockTableRecord
  2
_U4
340
0
  0
BLOCK_RECORD
  5
277
330
1
100
AcDbSymbolTableRecord
100
AcDbBlockTableRecord
  2
*D12
340
0
  0
BLOCK_RECORD
  5
283
330
1
100
AcDbSymbolTableRecord
100
AcDbBlockTableRecord
  2
_U5
340
0
  0
BLOCK_RECORD
  5
28F
330
1
100
AcDbSymbolTableRecord
100
AcDbBlockTableRecord
  2
*D14
340
0
  0
BLOCK_RECORD
  5
29B
330
1
100
AcDbSymbolTableRecord
100
AcDbBlockTableRecord
  2
_U6
340
0
  0
ENDTAB
  0
ENDSEC
  0
SECTION
  2
BLOCKS
  0
BLOCK
  5
20
330
1F
100
AcDbEntity
  8
0
100
AcDbBlockBegin
  2
*Model_Space
 70
     0
 10
0.0
 20
0.0
 30
0.0
  3
*Model_Space
  1

  0
ENDBLK
  5
21
330
1F
100
AcDbEntity
  8
0
100
AcDbBlockEnd
  0
BLOCK
  5
1C
330
1B
100
AcDbEntity
 67
     1
  8
0
100
AcDbBlockBegin
  2
*Paper_Space
 70
     0
 10
0.0
 20
0.0
 30
0.0
  3
*Paper_Space
  1

  0
ENDBLK
  5
1D
330
1B
100
AcDbEntity
 67
     1
  8
0
100
AcDbBlockEnd
  0
BLOCK
  5
24
330
23
100
AcDbEntity
 67
     1
  8
0
100
AcDbBlockBegin
  2
*Paper_Space0
 70
     0
 10
0.0
 20
0.0
 30
0.0
  3
*Paper_Space0
  1

  0
ENDBLK
  5
25
330
23
100
AcDbEntity
 67
     1
  8
0
100
AcDbBlockEnd
  0
BLOCK
  5
1F4
330
1F1
100
AcDbEntity
  8
0
100
AcDbBlockBegin
  2
ASSORTED_DRAFT1
 70
     0
 10
0.0
 20
0.0
 30
0.0
  3
ASSORTED_DRAFT1
  1

  0
SOLID
  5
1F2
330
1F1
100
AcDbEntity
  8
0
 62
   254
370
    13
100
AcDbTrace
 10
270.185042
 20
165.034924
 30
0.0
 11
265.185046
 21
163.92645
 31
0.0
 12
265.1850379999999
 22
166.143397
 32
0.0
 13
270.185042
 23
165.034924
 33
0.0
  0
ENDBLK
  5
1F5
330
1F1
100
AcDbEntity
  8
0
100
AcDbBlockEnd
  0
BLOCK
  5
200
330
1FF
100
AcDbEntity
  8
0
100
AcDbBlockBegin
  2
*D2
 70
     1
 10
0.0
 20
0.0
 30
0.0
  3
*D2
  1

  0
LINE
  5
202
330
1FF
100
AcDbEntity
  8
0
 62
   254
370
    -2
100
AcDbLine
 10
287.150809
 20
288.907994
 30
0.0
 11
470.807865
 21
288.907994
 31
0.0
  0
LINE
  5
203
330
1FF
100
AcDbEntity
  8
0
 62
   254
370
    -2
100
AcDbLine
 10
330.83929
 20
308.407994
 30
0.0
 11
470.807865
 21
308.407994
 31
0.0
  0
LINE
  5
204
330
1FF
100
AcDbEntity
  8
0
 62
   254
370
    -2
100
AcDbLine
 10
469.807865
 20
288.907994
 30
0.0
 11
469.807865
 21
308.407994
 31
0.0
  0
SOLID
  5
205
330
1FF
100
AcDbEntity
  8
0
 62
   254
100
AcDbTrace
 10
470.391199
 20
304.907994
 30
0.0
 11
469.224532
 21
304.907994
 31
0.0
 12
469.807865
 22
308.407994
 32
0.0
 13
469.807865
 23
308.407994
 33
0.0
  0
MTEXT
  5
206
330
1FF
100
AcDbEntity
  8
0
 62
   254
370
    13
100
AcDbMText
 10
464.557865
 20
279.157994
 30
0.0
 40
3.5
 41
0.0
 71
     5
 72
     1
  1
\A1;39
  7
cesky
 11
0.0
 21
1.0
 31
0.0
 73
     1
 44
1.0
  0
POINT
  5
207
330
1FF
100
AcDbEntity
  8
Defpoints
 62
     0
100
AcDbPoint
 10
287.150809
 20
288.907994
 30
0.0
  0
POINT
  5
208
330
1FF
100
AcDbEntity
  8
Defpoints
 62
     0
100
AcDbPoint
 10
330.83929
 20
308.407994
 30
0.0
  0
POINT
  5
209
330
1FF
100
AcDbEntity
  8
Defpoints
 62
     0
100
AcDbPoint
 10
469.807865
 20
308.407994
 30
0.0
  0
ENDBLK
  5
201
330
1FF
100
AcDbEntity
  8
0
100
AcDbBlockEnd
  0
BLOCK
  5
210
330
20A
100
AcDbEntity
  8
0
100
AcDbBlockBegin
  2
_U0
 70
     0
 10
0.0
 20
0.0
 30
0.0
  3
_U0
  1

  0
ENDBLK
  5
211
330
20A
100
AcDbEntity
  8
0
100
AcDbBlockEnd
  0
BLOCK
  5
216
330
215
100
AcDbEntity
  8
0
100
AcDbBlockBegin
  2
*D4
 70
     1
 10
0.0
 20
0.0
 30
0.0
  3
*D4
  1

  0
LINE
  5
218
330
215
100
AcDbEntity
  8
0
 62
    95
370
    -2
100
AcDbLine
 10
216.404842
 20
304.907994
 30
0.0
 11
203.66833
 21
304.907994
 31
0.0
  0
LINE
  5
219
330
215
100
AcDbEntity
  8
0
 62
    95
370
    -2
100
AcDbLine
 10
216.404842
 20
272.907994
 30
0.0
 11
203.66833
 21
272.907994
 31
0.0
  0
LINE
  5
21A
330
215
100
AcDbEntity
  8
0
 62
    95
370
    -2
100
AcDbLine
 10
204.66833
 20
301.407994
 30
0.0
 11
204.66833
 21
276.407994
 31
0.0
  0
SOLID
  5
21B
330
215
100
AcDbEntity
  8
0
 62
    95
100
AcDbTrace
 10
205.251663
 20
301.407994
 30
0.0
 11
204.084996
 21
301.407994
 31
0.0
 12
204.66833
 22
304.907994
 32
0.0
 13
204.66833
 23
304.907994
 33
0.0
  0
SOLID
  5
21C
330
215
100
AcDbEntity
  8
0
 62
    95
100
AcDbTrace
 10
204.084996
 20
276.407994
 30
0.0
 11
205.251663
 21
276.407994
 31
0.0
 12
204.66833
 22
272.907994
 32
0.0
 13
204.66833
 23
272.907994
 33
0.0
  0
MTEXT
  5
21D
330
215
100
AcDbEntity
  8
0
 62
    95
370
    13
100
AcDbMText
 10
199.41833
 20
288.907994
 30
0.0
 40
3.5
 41
0.0
 71
     5
 72
     1
  1
\A1;32
  7
cesky
 11
0.0
 21
1.0
 31
0.0
 73
     1
 44
1.0
  0
POINT
  5
21E
330
215
100
AcDbEntity
  8
Defpoints
 62
     0
100
AcDbPoint
 10
216.404842
 20
304.907994
 30
0.0
  0
POINT
  5
21F
330
215
100
AcDbEntity
  8
Defpoints
 62
     0
100
AcDbPoint
 10
216.404842
 20
272.907994
 30
0.0
  0
POINT
  5
220
330
215
100
AcDbEntity
  8
Defpoints
 62
     0
100
AcDbPoint
 10
204.66833
 20
272.907994
 30
0.0
  0
ENDBLK
  5
217
330
215
100
AcDbEntity
  8
0
100
AcDbBlockEnd
  0
BLOCK
  5
229
330
221
100
AcDbEntity
  8
0
100
AcDbBlockBegin
  2
_U1
 70
     0
 10
0.0
 20
0.0
 30
0.0
  3
_U1
  1

  0
ENDBLK
  5
22A
330
221
100
AcDbEntity
  8
0
100
AcDbBlockEnd
  0
BLOCK
  5
22F
330
22E
100
AcDbEntity
  8
0
100
AcDbBlockBegin
  2
*D6
 70
     1
 10
0.0
 20
0.0
 30
0.0
  3
*D6
  1

  0
LINE
  5
231
330
22E
100
AcDbEntity
  8
0
 62
    95
370
    -2
100
AcDbLine
 10
277.154842
 20
309.907994
 30
0.0
 11
191.104285
 21
309.907994
 31
0.0
  0
LINE
  5
232
330
22E
100
AcDbEntity
  8
0
 62
    95
370
    -2
100
AcDbLine
 10
277.154842
 20
267.907994
 30
0.0
 11
191.104285
 21
267.907994
 31
0.0
  0
LINE
  5
233
330
22E
100
AcDbEntity
  8
0
 62
    95
370
    -2
100
AcDbLine
 10
192.104285
 20
306.407994
 30
0.0
 11
192.104285
 21
271.407994
 31
0.0
  0
SOLID
  5
234
330
22E
100
AcDbEntity
  8
0
 62
    95
100
AcDbTrace
 10
192.687618
 20
306.407994
 30
0.0
 11
191.520952
 21
306.407994
 31
0.0
 12
192.104285
 22
309.907994
 32
0.0
 13
192.104285
 23
309.907994
 33
0.0
  0
SOLID
  5
235
330
22E
100
AcDbEntity
  8
0
 62
    95
100
AcDbTrace
 10
191.520952
 20
271.407994
 30
0.0
 11
192.687618
 21
271.407994
 31
0.0
 12
192.104285
 22
267.907994
 32
0.0
 13
192.104285
 23
267.907994
 33
0.0
  0
MTEXT
  5
236
330
22E
100
AcDbEntity
  8
0
 62
    95
370
    13
100
AcDbMText
 10
186.854285
 20
288.907994
 30
0.0
 40
3.5
 41
0.0
 71
     5
 72
     1
  1
\A1;42
  7
cesky
 11
0.0
 21
1.0
 31
0.0
 73
     1
 44
1.0
  0
POINT
  5
237
330
22E
100
AcDbEntity
  8
Defpoints
 62
     0
100
AcDbPoint
 10
277.154842
 20
309.907994
 30
0.0
  0
POINT
  5
238
330
22E
100
AcDbEntity
  8
Defpoints
 62
     0
100
AcDbPoint
 10
277.154842
 20
267.907994
 30
0.0
  0
POINT
  5
239
330
22E
100
AcDbEntity
  8
Defpoints
 62
     0
100
AcDbPoint
 10
192.104285
 20
267.907994
 30
0.0
  0
ENDBLK
  5
230
330
22E
100
AcDbEntity
  8
0
100
AcDbBlockEnd
  0
BLOCK
  5
242
330
23A
100
AcDbEntity
  8
0
100
AcDbBlockBegin
  2
_U2
 70
     0
 10
0.0
 20
0.0
 30
0.0
  3
_U2
  1

  0
ENDBLK
  5
243
330
23A
100
AcDbEntity
  8
0
100
AcDbBlockEnd
  0
BLOCK
  5
248
330
247
100
AcDbEntity
  8
0
100
AcDbBlockBegin
  2
*D8
 70
     1
 10
0.0
 20
0.0
 30
0.0
  3
*D8
  1

  0
LINE
  5
24A
330
247
100
AcDbEntity
  8
0
 62
   254
370
    -2
100
AcDbLine
 10
455.4048419999999
 20
308.407994
 30
0.0
 11
455.4048419999999
 21
334.9472990000001
 31
0.0
  0
LINE
  5
24B
330
247
100
AcDbEntity
  8
0
 62
   254
370
    -2
100
AcDbLine
 10
274.404842
 20
288.907994
 30
0.0
 11
274.404842
 21
334.9472990000001
 31
0.0
  0
LINE
  5
24C
330
247
100
AcDbEntity
  8
0
 62
   254
370
    -2
100
AcDbLine
 10
451.9048419999999
 20
333.947299
 30
0.0
 11
277.904842
 21
333.947299
 31
0.0
  0
SOLID
  5
24D
330
247
100
AcDbEntity
  8
0
 62
   254
100
AcDbTrace
 10
451.9048419999999
 20
333.363965
 30
0.0
 11
451.9048419999999
 21
334.530632
 31
0.0
 12
455.4048419999999
 22
333.947299
 32
0.0
 13
455.4048419999999
 23
333.947299
 33
0.0
  0
SOLID
  5
24E
330
247
100
AcDbEntity
  8
0
 62
   254
100
AcDbTrace
 10
277.904842
 20
334.530632
 30
0.0
 11
277.904842
 21
333.363965
 31
0.0
 12
274.404842
 22
333.947299
 32
0.0
 13
274.404842
 23
333.947299
 33
0.0
  0
MTEXT
  5
24F
330
247
100
AcDbEntity
  8
0
 62
   254
370
    13
100
AcDbMText
 10
364.904842
 20
339.1972990000001
 30
0.0
 40
3.5
 41
0.0
 71
     5
 72
     1
  1
\A1;181
  7
cesky
 73
     1
 44
1.0
  0
POINT
  5
250
330
247
100
AcDbEntity
  8
Defpoints
 62
     0
100
AcDbPoint
 10
455.4048419999999
 20
308.407994
 30
0.0
  0
POINT
  5
251
330
247
100
AcDbEntity
  8
Defpoints
 62
     0
100
AcDbPoint
 10
274.404842
 20
288.907994
 30
0.0
  0
POINT
  5
252
330
247
100
AcDbEntity
  8
Defpoints
 62
     0
100
AcDbPoint
 10
274.404842
 20
333.947299
 30
0.0
  0
ENDBLK
  5
249
330
247
100
AcDbEntity
  8
0
100
AcDbBlockEnd
  0
BLOCK
  5
25A
330
253
100
AcDbEntity
  8
0
100
AcDbBlockBegin
  2
_U3
 70
     0
 10
0.0
 20
0.0
 30
0.0
  3
_U3
  1

  0
ENDBLK
  5
25B
330
253
100
AcDbEntity
  8
0
100
AcDbBlockEnd
  0
BLOCK
  5
260
330
25F
100
AcDbEntity
  8
0
100
AcDbBlockBegin
  2
*D10
 70
     1
 10
0.0
 20
0.0
 30
0.0
  3
*D10
  1

  0
LINE
  5
262
330
25F
100
AcDbEntity
  8
0
 62
   254
370
    -2
100
AcDbLine
 10
455.4048419999999
 20
310.407994
 30
0.0
 11
455.4048419999999
 21
348.392842
 31
0.0
  0
LINE
  5
263
330
25F
100
AcDbEntity
  8
0
 62
   254
370
    -2
100
AcDbLine
 10
214.404842
 20
302.907994
 30
0.0
 11
214.404842
 21
348.392842
 31
0.0
  0
LINE
  5
264
330
25F
100
AcDbEntity
  8
0
 62
   254
370
    -2
100
AcDbLine
 10
451.9048419999999
 20
347.392842
 30
0.0
 11
217.904842
 21
347.392842
 31
0.0
  0
SOLID
  5
265
330
25F
100
AcDbEntity
  8
0
 62
   254
100
AcDbTrace
 10
451.9048419999999
 20
346.809508
 30
0.0
 11
451.9048419999999
 21
347.976175
 31
0.0
 12
455.4048419999999
 22
347.392842
 32
0.0
 13
455.4048419999999
 23
347.392842
 33
0.0
  0
SOLID
  5
266
330
25F
100
AcDbEntity
  8
0
 62
   254
100
AcDbTrace
 10
217.904842
 20
347.976175
 30
0.0
 11
217.904842
 21
346.809508
 31
0.0
 12
214.404842
 22
347.392842
 32
0.0
 13
214.404842
 23
347.392842
 33
0.0
  0
MTEXT
  5
267
330
25F
100
AcDbEntity
  8
0
 62
   254
370
    13
100
AcDbMText
 10
334.904842
 20
352.642842
 30
0.0
 40
3.5
 41
0.0
 71
     5
 72
     1
  1
\A1;241
  7
cesky
 73
     1
 44
1.0
  0
POINT
  5
268
330
25F
100
AcDbEntity
  8
Defpoints
 62
     0
100
AcDbPoint
 10
455.4048419999999
 20
310.407994
 30
0.0
  0
POINT
  5
269
330
25F
100
AcDbEntity
  8
Defpoints
 62
     0
100
AcDbPoint
 10
214.404842
 20
302.907994
 30
0.0
  0
POINT
  5
26A
330
25F
100
AcDbEntity
  8
Defpoints
 62
     0
100
AcDbPoint
 10
214.404842
 20
347.392842
 30
0.0
  0
ENDBLK
  5
261
330
25F
100
AcDbEntity
  8
0
100
AcDbBlockEnd
  0
BLOCK
  5
272
330
26B
100
AcDbEntity
  8
0
100
AcDbBlockBegin
  2
_U4
 70
     0
 10
0.0
 20
0.0
 30
0.0
  3
_U4
  1

  0
ENDBLK
  5
273
330
26B
100
AcDbEntity
  8
0
100
AcDbBlockEnd
  0
BLOCK
  5
278
330
277
100
AcDbEntity
  8
0
100
AcDbBlockBegin
  2
*D12
 70
     1
 10
0.0
 20
0.0
 30
0.0
  3
*D12
  1

  0
LINE
  5
27A
330
277
100
AcDbEntity
  8
0
 62
   254
370
    -2
100
AcDbLine
 10
274.404842
 20
288.907994
 30
0.0
 11
274.404842
 21
334.9472990000001
 31
0.0
  0
LINE
  5
27B
330
277
100
AcDbEntity
  8
0
 62
   254
370
    -2
100
AcDbLine
 10
214.404842
 20
295.907994
 30
0.0
 11
214.404842
 21
334.9472990000001
 31
0.0
  0
LINE
  5
27C
330
277
100
AcDbEntity
  8
0
 62
   254
370
    -2
100
AcDbLine
 10
270.904842
 20
333.947299
 30
0.0
 11
217.904842
 21
333.947299
 31
0.0
  0
SOLID
  5
27D
330
277
100
AcDbEntity
  8
0
 62
   254
100
AcDbTrace
 10
270.904842
 20
333.363965
 30
0.0
 11
270.904842
 21
334.530632
 31
0.0
 12
274.404842
 22
333.947299
 32
0.0
 13
274.404842
 23
333.947299
 33
0.0
  0
SOLID
  5
27E
330
277
100
AcDbEntity
  8
0
 62
   254
100
AcDbTrace
 10
217.904842
 20
334.530632
 30
0.0
 11
217.904842
 21
333.363965
 31
0.0
 12
214.404842
 22
333.947299
 32
0.0
 13
214.404842
 23
333.947299
 33
0.0
  0
MTEXT
  5
27F
330
277
100
AcDbEntity
  8
0
 62
   254
370
    13
100
AcDbMText
 10
244.404842
 20
339.1972990000001
 30
0.0
 40
3.5
 41
0.0
 71
     5
 72
     1
  1
\A1;60
  7
cesky
 73
     1
 44
1.0
  0
POINT
  5
280
330
277
100
AcDbEntity
  8
Defpoints
 62
     0
100
AcDbPoint
 10
274.404842
 20
288.907994
 30
0.0
  0
POINT
  5
281
330
277
100
AcDbEntity
  8
Defpoints
 62
     0
100
AcDbPoint
 10
214.404842
 20
295.907994
 30
0.0
  0
POINT
  5
282
330
277
100
AcDbEntity
  8
Defpoints
 62
     0
100
AcDbPoint
 10
214.404842
 20
333.947299
 30
0.0
  0
ENDBLK
  5
279
330
277
100
AcDbEntity
  8
0
100
AcDbBlockEnd
  0
BLOCK
  5
28A
330
283
100
AcDbEntity
  8
0
100
AcDbBlockBegin
  2
_U5
 70
     0
 10
0.0
 20
0.0
 30
0.0
  3
_U5
  1

  0
ENDBLK
  5
28B
330
283
100
AcDbEntity
  8
0
100
AcDbBlockEnd
  0
BLOCK
  5
290
330
28F
100
AcDbEntity
  8
0
100
AcDbBlockBegin
  2
*D14
 70
     1
 10
0.0
 20
0.0
 30
0.0
  3
*D14
  1

  0
LINE
  5
292
330
28F
100
AcDbEntity
  8
0
 62
   254
370
    -2
100
AcDbLine
 10
455.4048419999999
 20
308.407994
 30
0.0
 11
455.4048419999999
 21
321.118433
 31
0.0
  0
LINE
  5
293
330
28F
100
AcDbEntity
  8
0
 62
   254
370
    -2
100
AcDbLine
 10
288.375035
 20
308.187956
 30
0.0
 11
288.375035
 21
321.118433
 31
0.0
  0
LINE
  5
294
330
28F
100
AcDbEntity
  8
0
 62
   254
370
    -2
100
AcDbLine
 10
451.9048419999999
 20
320.118433
 30
0.0
 11
291.875035
 21
320.118433
 31
0.0
  0
SOLID
  5
295
330
28F
100
AcDbEntity
  8
0
 62
   254
100
AcDbTrace
 10
451.9048419999999
 20
319.5351
 30
0.0
 11
451.9048419999999
 21
320.701766
 31
0.0
 12
455.4048419999999
 22
320.118433
 32
0.0
 13
455.4048419999999
 23
320.118433
 33
0.0
  0
SOLID
  5
296
330
28F
100
AcDbEntity
  8
0
 62
   254
100
AcDbTrace
 10
291.875035
 20
320.701766
 30
0.0
 11
291.875035
 21
319.5351
 31
0.0
 12
288.375035
 22
320.118433
 32
0.0
 13
288.375035
 23
320.118433
 33
0.0
  0
MTEXT
  5
297
330
28F
100
AcDbEntity
  8
0
 62
   254
370
    13
100
AcDbMText
 10
371.889939
 20
325.368433
 30
0.0
 40
3.5
 41
0.0
 71
     5
 72
     1
  1
\A1;167
  7
cesky
 73
     1
 44
1.0
  0
POINT
  5
298
330
28F
100
AcDbEntity
  8
Defpoints
 62
     0
100
AcDbPoint
 10
455.4048419999999
 20
308.407994
 30
0.0
  0
POINT
  5
299
330
28F
100
AcDbEntity
  8
Defpoints
 62
     0
100
AcDbPoint
 10
288.375035
 20
308.187956
 30
0.0
  0
POINT
  5
29A
330
28F
100
AcDbEntity
  8
Defpoints
 62
     0
100
AcDbPoint
 10
288.375035
 20
320.118433
 30
0.0
  0
ENDBLK
  5
291
330
28F
100
AcDbEntity
  8
0
100
AcDbBlockEnd
  0
BLOCK
  5
2A2
330
29B
100
AcDbEntity
  8
0
100
AcDbBlockBegin
  2
_U6
 70
     0
 10
0.0
 20
0.0
 30
0.0
  3
_U6
  1

  0
ENDBLK
  5
2A3
330
29B
100
AcDbEntity
  8
0
100
AcDbBlockEnd
  0
ENDSEC
  0
SECTION
  2
ENTITIES
  0
POINT
  5
73
102
{ACAD_REACTORS
330
34C
102
}
330
1F
100
AcDbEntity
  8
80
100
AcDbPoint
 10
274.404842
 20
288.907994
 30
0.0
  0
POINT
  5
76
330
1F
100
AcDbEntity
  8
4
 60
     1
100
AcDbPoint
 10
287.150809
 20
288.907994
 30
0.0
  0
POINT
  5
78
330
1F
100
AcDbEntity
  8
4
 60
     1
100
AcDbPoint
 10
454.804269
 20
288.907994
 30
0.0
  0
POINT
  5
79
330
1F
100
AcDbEntity
  8
SK4
 60
     1
100
AcDbPoint
 10
216.404842
 20
288.907994
 30
0.0
  0
POINT
  5
7A
330
1F
100
AcDbEntity
  8
SK4
 60
     1
100
AcDbPoint
 10
274.404842
 20
288.907994
 30
0.0
  0
POINT
  5
7B
330
1F
100
AcDbEntity
  8
SK6
 60
     1
100
AcDbPoint
 10
274.404842
 20
288.907994
 30
0.0
  0
POINT
  5
7C
330
1F
100
AcDbEntity
  8
SK6
 60
     1
100
AcDbPoint
 10
288.375035
 20
308.187956
 30
0.0
  0
LINE
  5
7D
330
1F
100
AcDbEntity
  8
1
100
AcDbLine
 10
453.272207
 20
269.907994
 30
0.0
 11
426.664814
 21
269.907994
 31
0.0
  0
LINE
  5
7F
330
1F
100
AcDbEntity
  8
1
100
AcDbLine
 10
274.904842
 20
267.907994
 30
0.0
 11
274.904842
 21
288.907994
 31
0.0
  0
LINE
  5
80
330
1F
100
AcDbEntity
  8
1
100
AcDbLine
 10
274.904842
 20
288.907994
 30
0.0
 11
274.904842
 21
309.907994
 31
0.0
  0
LINE
  5
81
330
1F
100
AcDbEntity
  8
1
100
AcDbLine
 10
447.6121009999999
 20
300.244968
 30
0.0
 11
447.646384
 21
300.342165
 31
0.0
  0
LINE
  5
83
330
1F
100
AcDbEntity
  8
1
100
AcDbLine
 10
448.407869
 20
300.188946
 30
0.0
 11
448.373455
 21
300.091377
 31
0.0
  0
LINE
  5
84
330
1F
100
AcDbEntity
  8
1
100
AcDbLine
 10
447.0379719999999
 20
301.788749
 30
0.0
 11
447.0734629999999
 21
301.88937
 31
0.0
  0
LINE
  5
85
330
1F
100
AcDbEntity
  8
1
100
AcDbLine
 10
449.625727
 20
301.439311
 30
0.0
 11
449.590236
 21
301.33869
 31
0.0
  0
LINE
  5
86
330
1F
100
AcDbEntity
  8
1
100
AcDbLine
 10
448.2547539999999
 20
303.036062
 30
0.0
 11
448.2891679999999
 21
303.13363
 31
0.0
  0
LINE
  5
87
330
1F
100
AcDbEntity
  8
1
100
AcDbLine
 10
449.0321549999999
 20
302.927967
 30
0.0
 11
449.016107
 21
302.882471
 31
0.0
  0
LINE
  5
88
330
1F
100
AcDbEntity
  8
1
100
AcDbLine
 10
444.945262
 20
302.835368
 30
0.0
 11
444.929132
 21
302.789638
 31
0.0
  0
LINE
  5
89
330
1F
100
AcDbEntity
  8
1
100
AcDbLine
 10
451.7191419999999
 20
300.394691
 30
0.0
 11
451.7352719999999
 21
300.440421
 31
0.0
  0
LINE
  5
8A
330
1F
100
AcDbEntity
  8
SK1
100
AcDbLine
 10
214.404842
 20
274.907994
 30
0.0
 11
216.404842
 21
272.907994
 31
0.0
  0
LINE
  5
8B
330
1F
100
AcDbEntity
  8
SK1
100
AcDbLine
 10
216.404842
 20
304.907994
 30
0.0
 11
214.404842
 21
302.907994
 31
0.0
  0
LINE
  5
8C
330
1F
100
AcDbEntity
  8
SK1
100
AcDbLine
 10
274.404842
 20
304.907994
 30
0.0
 11
216.404842
 21
304.907994
 31
0.0
  0
LINE
  5
8D
330
1F
100
AcDbEntity
  8
1
100
AcDbLine
 10
274.904842
 20
267.907994
 30
0.0
 11
274.404842
 21
268.407994
 31
0.0
  0
LINE
  5
8E
330
1F
100
AcDbEntity
  8
1
100
AcDbLine
 10
274.404842
 20
309.407994
 30
0.0
 11
274.904842
 21
309.907994
 31
0.0
  0
LINE
  5
8F
330
1F
100
AcDbEntity
  8
1
100
AcDbLine
 10
279.404842
 20
309.907994
 30
0.0
 11
274.904842
 21
309.907994
 31
0.0
  0
LINE
  5
90
330
1F
100
AcDbEntity
  8
1
100
AcDbLine
 10
453.7715809999999
 20
277.681297
 30
0.0
 11
453.595811
 21
277.684109
 31
0.0
  0
LINE
  5
91
330
1F
100
AcDbEntity
  8
1
100
AcDbLine
 10
453.5786449999999
 20
278.184448
 30
0.0
 11
454.042841
 21
282.557994
 31
0.0
  0
LINE
  5
92
330
1F
100
AcDbEntity
  8
1
100
AcDbLine
 10
454.042841
 20
282.557994
 30
0.0
 11
454.042841
 21
289.165924
 31
0.0
  0
LINE
  5
93
330
1F
100
AcDbEntity
  8
1
100
AcDbLine
 10
454.1131110000001
 20
289.664774
 30
0.0
 11
454.2891799999999
 21
289.6617
 31
0.0
  0
LINE
  5
94
330
1F
100
AcDbEntity
  8
1
100
AcDbLine
 10
454.34325
 20
294.597399
 30
0.0
 11
454.3526299999999
 21
294.600998
 31
0.0
  0
LINE
  5
95
330
1F
100
AcDbEntity
  8
1
100
AcDbLine
 10
454.459062
 20
295.448026
 30
0.0
 11
445.7096439999999
 21
295.142808
 31
0.0
  0
LINE
  5
96
330
1F
100
AcDbEntity
  8
1
100
AcDbLine
 10
445.704411
 20
295.127973
 30
0.0
 11
445.7096439999999
 21
295.142808
 31
0.0
  0
LINE
  5
97
330
1F
100
AcDbEntity
  8
1
100
AcDbLine
 10
454.2891799999999
 20
289.6617
 30
0.0
 11
454.5726799999999
 21
290.045873
 31
0.0
  0
LINE
  5
98
330
1F
100
AcDbEntity
  8
1
100
AcDbLine
 10
454.5726799999999
 20
290.284484
 30
0.0
 11
454.5726799999999
 21
290.045873
 31
0.0
  0
LINE
  5
99
330
1F
100
AcDbEntity
  8
1
100
AcDbLine
 10
454.5726799999999
 20
290.284484
 30
0.0
 11
454.614842
 21
290.283748
 31
0.0
  0
LINE
  5
9A
330
1F
100
AcDbEntity
  8
1
100
AcDbLine
 10
454.614842
 20
295.729742
 30
0.0
 11
454.614842
 21
290.483779
 31
0.0
  0
LINE
  5
9B
330
1F
100
AcDbEntity
  8
1
100
AcDbLine
 10
454.459062
 20
295.448026
 30
0.0
 11
454.4575059999999
 21
295.672103
 31
0.0
  0
LINE
  5
9C
330
1F
100
AcDbEntity
  8
1
100
AcDbLine
 10
454.459062
 20
295.448026
 30
0.0
 11
454.417057
 21
295.431909
 31
0.0
  0
LINE
  5
9D
330
1F
100
AcDbEntity
  8
1
100
AcDbLine
 10
453.272207
 20
269.907994
 30
0.0
 11
454.0301799999999
 21
277.049442
 31
0.0
  0
LINE
  5
9E
330
1F
100
AcDbEntity
  8
1
100
AcDbLine
 10
454.0301799999999
 20
277.049442
 30
0.0
 11
453.9880889999999
 21
277.050116
 31
0.0
  0
LINE
  5
9F
330
1F
100
AcDbEntity
  8
1
100
AcDbLine
 10
454.013371
 20
277.288316
 30
0.0
 11
453.9880889999999
 21
277.050116
 31
0.0
  0
LINE
  5
A0
330
1F
100
AcDbEntity
  8
1
100
AcDbLine
 10
454.013371
 20
277.288316
 30
0.0
 11
453.7715809999999
 21
277.681297
 31
0.0
  0
LINE
  5
A1
330
1F
100
AcDbEntity
  8
1
100
AcDbLine
 10
453.1841909999999
 20
282.557994
 30
0.0
 11
454.042841
 21
282.557994
 31
0.0
  0
LINE
  5
A2
330
1F
100
AcDbEntity
  8
SK1
100
AcDbLine
 10
216.404842
 20
304.907994
 30
0.0
 11
216.404842
 21
272.907994
 31
0.0
  0
LINE
  5
A3
330
1F
100
AcDbEntity
  8
SK1
100
AcDbLine
 10
214.404842
 20
302.907994
 30
0.0
 11
214.404842
 21
274.907994
 31
0.0
  0
LINE
  5
A4
330
1F
100
AcDbEntity
  8
1
100
AcDbLine
 10
442.04562
 20
298.527289
 30
0.0
 11
442.040387
 21
298.512454
 31
0.0
  0
LINE
  5
A5
330
1F
100
AcDbEntity
  8
1
100
AcDbLine
 10
442.04562
 20
298.527289
 30
0.0
 11
441.7252839999999
 21
307.848684
 31
0.0
  0
LINE
  5
A6
330
1F
100
AcDbEntity
  8
1
100
AcDbLine
 10
441.720437
 20
307.822622
 30
0.0
 11
442.040387
 21
298.512454
 31
0.0
  0
LINE
  5
A7
330
1F
100
AcDbEntity
  8
1
100
AcDbLine
 10
436.5336639999999
 20
295.865583
 30
0.0
 11
435.412182
 21
296.504871
 31
0.0
  0
LINE
  5
A8
330
1F
100
AcDbEntity
  8
1
100
AcDbLine
 10
279.404842
 20
309.907994
 30
0.0
 11
279.404842
 21
280.217211
 31
0.0
  0
LINE
  5
A9
330
1F
100
AcDbEntity
  8
1
100
AcDbLine
 10
279.404842
 20
267.907994
 30
0.0
 11
279.404842
 21
271.529028
 31
0.0
  0
LINE
  5
AA
330
1F
100
AcDbEntity
  8
1
100
AcDbLine
 10
452.098111
 20
282.557994
 30
0.0
 11
452.6537509999999
 21
282.557994
 31
0.0
  0
LINE
  5
AB
330
1F
100
AcDbEntity
  8
1
100
AcDbLine
 10
442.237925
 20
307.745999
 30
0.0
 11
442.2325999999999
 21
307.900931
 31
0.0
  0
LINE
  5
AC
330
1F
100
AcDbEntity
  8
1
100
AcDbLine
 10
445.704411
 20
295.127973
 30
0.0
 11
454.417057
 21
295.431909
 31
0.0
  0
LINE
  5
AD
330
1F
100
AcDbEntity
  8
1
100
AcDbLine
 10
454.614842
 20
290.283748
 30
0.0
 11
454.614842
 21
290.483779
 31
0.0
  0
LINE
  5
AE
330
1F
100
AcDbEntity
  8
1
100
AcDbLine
 10
454.4191699999999
 20
295.127448
 30
0.0
 11
454.417057
 21
295.431909
 31
0.0
  0
LINE
  5
AF
330
1F
100
AcDbEntity
  8
1
100
AcDbLine
 10
441.968105
 20
307.311287
 30
0.0
 11
441.9496469999999
 21
307.848374
 31
0.0
  0
LINE
  5
B0
330
1F
100
AcDbEntity
  8
1
100
AcDbLine
 10
454.34325
 20
294.597399
 30
0.0
 11
443.2930709999999
 21
294.211919
 31
0.0
  0
LINE
  5
B1
330
1F
100
AcDbEntity
  8
1
100
AcDbLine
 10
454.34325
 20
294.597399
 30
0.0
 11
451.955707
 21
290.641786
 31
0.0
  0
LINE
  5
B6
330
1F
100
AcDbEntity
  8
80
100
AcDbLine
 10
275.404416
 20
288.907994
 30
0.0
 11
273.405268
 21
288.907994
 31
0.0
  0
LINE
  5
B7
330
1F
100
AcDbEntity
  8
1
100
AcDbLine
 10
454.636586
 20
307.560868
 30
0.0
 11
455.035172
 21
296.434283
 31
0.0
  0
LINE
  5
B9
330
1F
100
AcDbEntity
  8
1
100
AcDbLine
 10
442.694759
 20
307.920328
 30
0.0
 11
453.832938
 21
308.308877
 31
0.0
  0
LINE
  5
BA
330
1F
100
AcDbEntity
  8
1
100
AcDbLine
 10
442.3452269999999
 20
295.991601
 30
0.0
 11
441.946641
 21
307.118186
 31
0.0
  0
LINE
  5
BB
330
1F
100
AcDbEntity
  8
1
100
AcDbLine
 10
454.287054
 20
295.632141
 30
0.0
 11
443.1488749999999
 21
295.243592
 31
0.0
  0
LINE
  5
BC
330
1F
100
AcDbEntity
  8
1
100
AcDbLine
 10
444.1512429999999
 20
297.115902
 30
0.0
 11
443.829428
 21
306.099416
 31
0.0
  0
LINE
  5
BD
330
1F
100
AcDbEntity
  8
1
100
AcDbLine
 10
453.1441169999999
 20
297.429614
 30
0.0
 11
444.1512429999999
 21
297.115902
 31
0.0
  0
LINE
  5
BE
330
1F
100
AcDbEntity
  8
1
100
AcDbLine
 10
452.822303
 20
306.413127
 30
0.0
 11
453.1441169999999
 21
297.429614
 31
0.0
  0
LINE
  5
BF
330
1F
100
AcDbEntity
  8
1
100
AcDbLine
 10
443.829428
 20
306.099416
 30
0.0
 11
452.822303
 21
306.413127
 31
0.0
  0
LINE
  5
C0
330
1F
100
AcDbEntity
  8
1
100
AcDbLine
 10
454.172887
 20
289.663735
 30
0.0
 11
454.68309
 21
289.357174
 31
0.0
  0
LINE
  5
C1
330
1F
100
AcDbEntity
  8
1
100
AcDbLine
 10
454.5062139999999
 20
278.128159
 30
0.0
 11
453.7020609999999
 21
277.682409
 31
0.0
  0
LINE
  5
C2
330
1F
100
AcDbEntity
  8
1
100
AcDbLine
 10
454.0253429999999
 20
278.626115
 30
0.0
 11
454.5062139999999
 21
278.128159
 31
0.0
  0
LINE
  5
C3
330
1F
100
AcDbEntity
  8
1
100
AcDbLine
 10
455.253269
 20
279.371467
 30
0.0
 11
454.5062139999999
 21
278.128159
 31
0.0
  0
LINE
  5
C4
330
1F
100
AcDbEntity
  8
1
100
AcDbLine
 10
454.185134
 20
288.876303
 30
0.0
 11
454.68309
 21
289.357174
 31
0.0
  0
LINE
  5
C5
330
1F
100
AcDbEntity
  8
1
100
AcDbLine
 10
454.68309
 20
289.357174
 30
0.0
 11
455.4048419999999
 21
288.0550990000001
 31
0.0
  0
LINE
  5
C6
330
1F
100
AcDbEntity
  8
1
100
AcDbLine
 10
454.733164
 20
287.88763
 30
0.0
 11
455.4048419999999
 21
288.0550990000001
 31
0.0
  0
LINE
  5
C7
330
1F
100
AcDbEntity
  8
1
100
AcDbLine
 10
454.587844
 20
279.562274
 30
0.0
 11
455.253269
 21
279.371467
 31
0.0
  0
LINE
  5
C8
330
1F
100
AcDbEntity
  8
1
100
AcDbLine
 10
455.4048419999999
 20
288.0550990000001
 30
0.0
 11
455.253269
 21
279.371467
 31
0.0
  0
LINE
  5
C9
330
1F
100
AcDbEntity
  8
1
100
AcDbLine
 10
454.733164
 20
287.88763
 30
0.0
 11
454.587844
 21
279.562274
 31
0.0
  0
LINE
  5
CA
330
1F
100
AcDbEntity
  8
1
100
AcDbLine
 10
454.733164
 20
287.88763
 30
0.0
 11
454.087218
 21
287.726578
 31
0.0
  0
LINE
  5
CB
330
1F
100
AcDbEntity
  8
1
100
AcDbLine
 10
454.185134
 20
288.876303
 30
0.0
 11
454.733164
 21
287.88763
 31
0.0
  0
LINE
  5
CC
330
1F
100
AcDbEntity
  8
1
100
AcDbLine
 10
454.587844
 20
279.562274
 30
0.0
 11
453.947912
 21
279.745771
 31
0.0
  0
LINE
  5
CD
330
1F
100
AcDbEntity
  8
1
100
AcDbLine
 10
454.587844
 20
279.562274
 30
0.0
 11
454.0253429999999
 21
278.626115
 31
0.0
  0
LINE
  5
CE
330
1F
100
AcDbEntity
  8
1
100
AcDbLine
 10
454.0253429999999
 20
278.626115
 30
0.0
 11
453.6651179999999
 21
278.99914
 31
0.0
  0
LINE
  5
CF
330
1F
100
AcDbEntity
  8
1
100
AcDbLine
 10
454.0253429999999
 20
278.626115
 30
0.0
 11
453.600523
 21
278.390633
 31
0.0
  0
LINE
  5
D0
330
1F
100
AcDbEntity
  8
1
100
AcDbLine
 10
453.700695
 20
279.334333
 30
0.0
 11
453.947912
 21
279.745771
 31
0.0
  0
LINE
  5
D1
330
1F
100
AcDbEntity
  8
1
100
AcDbLine
 10
453.947912
 20
279.745771
 30
0.0
 11
453.9879779999999
 21
282.041126
 31
0.0
  0
LINE
  5
D2
330
1F
100
AcDbEntity
  8
1
100
AcDbLine
 10
454.04284
 20
285.184192
 30
0.0
 11
454.087218
 21
287.726578
 31
0.0
  0
LINE
  5
D3
330
1F
100
AcDbEntity
  8
1
100
AcDbLine
 10
454.087218
 20
287.726578
 30
0.0
 11
454.0428359999999
 21
287.806646
 31
0.0
  0
LINE
  5
D4
330
1F
100
AcDbEntity
  8
1
100
AcDbLine
 10
454.185134
 20
288.876303
 30
0.0
 11
454.0428389999999
 21
288.738891
 31
0.0
  0
LINE
  5
D5
330
1F
100
AcDbEntity
  8
1
100
AcDbLine
 10
454.0428379999999
 20
288.961803
 30
0.0
 11
454.185134
 21
288.876303
 31
0.0
  0
LINE
  5
D6
330
1F
100
AcDbEntity
  8
1
100
AcDbLine
 10
287.150809
 20
269.907994
 30
0.0
 11
306.7393
 21
269.907994
 31
0.0
  0
LINE
  5
D7
330
1F
100
AcDbEntity
  8
1
100
AcDbLine
 10
442.1595459999999
 20
307.907994
 30
0.0
 11
431.031747
 21
307.907994
 31
0.0
  0
LINE
  5
D8
330
1F
100
AcDbEntity
  8
1
100
AcDbLine
 10
307.792476
 20
307.907994
 30
0.0
 11
287.150809
 21
307.907994
 31
0.0
  0
LINE
  5
D9
330
1F
100
AcDbEntity
  8
1
100
AcDbLine
 10
439.694183
 20
294.5958
 30
0.0
 11
439.724921
 21
293.697411
 31
0.0
  0
LINE
  5
DA
330
1F
100
AcDbEntity
  8
1
100
AcDbLine
 10
439.791115
 20
291.762699
 30
0.0
 11
439.8270129999999
 21
290.713486
 31
0.0
  0
LINE
  5
DB
330
1F
100
AcDbEntity
  8
81
100
AcDbLine
 10
455.4048419999999
 20
310.407994
 30
0.0
 11
455.4048419999999
 21
306.407994
 31
0.0
  0
LINE
  5
DC
330
1F
100
AcDbEntity
  8
SK1
100
AcDbLine
 10
216.404842
 20
272.907994
 30
0.0
 11
274.404842
 21
272.907994
 31
0.0
  0
LINE
  5
DD
330
1F
100
AcDbEntity
  8
80
100
AcDbLine
 10
274.404842
 20
287.90842
 30
0.0
 11
274.404842
 21
289.907567
 31
0.0
  0
LINE
  5
DE
330
1F
100
AcDbEntity
  8
81
100
AcDbLine
 10
453.4048419999999
 20
308.407994
 30
0.0
 11
457.4048419999999
 21
308.407994
 31
0.0
  0
LINE
  5
DF
330
1F
100
AcDbEntity
  8
1
100
AcDbLine
 10
274.904842
 20
267.907994
 30
0.0
 11
279.404842
 21
267.907994
 31
0.0
  0
LINE
  5
E0
330
1F
100
AcDbEntity
  8
1
100
AcDbLine
 10
274.404842
 20
309.407994
 30
0.0
 11
274.404842
 21
288.907994
 31
0.0
  0
LINE
  5
E1
330
1F
100
AcDbEntity
  8
1
100
AcDbLine
 10
274.404842
 20
288.907994
 30
0.0
 11
274.404842
 21
268.407994
 31
0.0
  0
LINE
  5
E2
330
1F
100
AcDbEntity
  8
1
100
AcDbLine
 10
446.9721469999999
 20
302.412264
 30
0.0
 11
446.93832
 21
302.31636
 31
0.0
  0
LINE
  5
E3
330
1F
100
AcDbEntity
  8
1
100
AcDbLine
 10
447.0372779999999
 20
302.3526240000001
 30
0.0
 11
447.0029009999999
 21
302.255161
 31
0.0
  0
LINE
  5
E4
330
1F
100
AcDbEntity
  8
1
100
AcDbLine
 10
449.793294
 20
301.610495
 30
0.0
 11
449.827686
 21
301.708001
 31
0.0
  0
LINE
  5
E5
330
1F
100
AcDbEntity
  8
1
100
AcDbLine
 10
447.086085
 20
300.870314
 30
0.0
 11
447.0517619999999
 21
300.773005
 31
0.0
  0
LINE
  5
E6
330
1F
100
AcDbEntity
  8
1
100
AcDbLine
 10
447.0427739999999
 20
300.849753
 30
0.0
 11
447.0087509999999
 21
300.753294
 31
0.0
  0
LINE
  5
E7
330
1F
100
AcDbEntity
  8
1
100
AcDbLine
 10
449.1017889999999
 20
300.30159
 30
0.0
 11
449.1361249999999
 21
300.398938
 31
0.0
  0
LINE
  5
E8
330
1F
100
AcDbEntity
  8
1
100
AcDbLine
 10
449.1393599999999
 20
300.258637
 30
0.0
 11
449.1733349999999
 21
300.35496
 31
0.0
  0
LINE
  5
E9
330
1F
100
AcDbEntity
  8
1
100
AcDbLine
 10
439.8395349999999
 20
294.559844
 30
0.0
 11
439.8429
 21
294.569385
 31
0.0
  0
LINE
  5
EA
330
1F
100
AcDbEntity
  8
1
100
AcDbLine
 10
433.9027889999999
 20
297.445131
 30
0.0
 11
436.555161
 21
295.916185
 31
0.0
  0
LINE
  5
EB
330
1F
100
AcDbEntity
  8
1
100
AcDbLine
 10
452.8719059999999
 20
294.573764
 30
0.0
 11
443.2852389999999
 21
294.239339
 31
0.0
  0
LINE
  5
EC
330
1F
100
AcDbEntity
  8
1
100
AcDbLine
 10
444.945262
 20
302.835368
 30
0.0
 11
444.945154
 21
302.83506
 31
0.0
  0
LINE
  5
11F
330
1F
100
AcDbEntity
  8
NOCUT
100
AcDbLine
 10
454.194657
 20
307.907994
 30
0.0
 11
454.614842
 21
295.97879
 31
0.0
  0
LINE
  5
120
330
1F
100
AcDbEntity
  8
NOCUT
100
AcDbLine
 10
454.614842
 20
295.97879
 30
0.0
 11
454.614842
 21
288.907994
 31
0.0
  0
LINE
  5
121
330
1F
100
AcDbEntity
  8
NOCUT
100
AcDbLine
 10
454.614842
 20
288.907994
 30
0.0
 11
214.404842
 21
288.907994
 31
0.0
  0
LINE
  5
122
330
1F
100
AcDbEntity
  8
NOCUT
100
AcDbLine
 10
274.404842
 20
304.907994
 30
0.0
 11
216.404842
 21
304.907994
 31
0.0
  0
LINE
  5
123
330
1F
100
AcDbEntity
  8
NOCUT
100
AcDbLine
 10
214.404842
 20
302.907994
 30
0.0
 11
214.404842
 21
288.907994
 31
0.0
  0
LINE
  5
124
330
1F
100
AcDbEntity
  8
NOCUT
100
AcDbLine
 10
279.404842
 20
309.907994
 30
0.0
 11
274.904842
 21
309.907994
 31
0.0
  0
LINE
  5
125
330
1F
100
AcDbEntity
  8
NOCUT
100
AcDbLine
 10
287.150809
 20
307.907994
 30
0.0
 11
454.194657
 21
307.907994
 31
0.0
  0
LINE
  5
126
330
1F
100
AcDbEntity
  8
NOCUT
100
AcDbLine
 10
274.404842
 20
304.907994
 30
0.0
 11
274.404842
 21
309.407994
 31
0.0
  0
LINE
  5
127
330
1F
100
AcDbEntity
  8
NOCUT
100
AcDbLine
 10
274.404842
 20
309.407994
 30
0.0
 11
274.904842
 21
309.907994
 31
0.0
  0
LINE
  5
128
330
1F
100
AcDbEntity
  8
NOCUT
100
AcDbLine
 10
214.404842
 20
302.907994
 30
0.0
 11
216.404842
 21
304.907994
 31
0.0
  0
CIRCLE
  5
131
330
1F
100
AcDbEntity
  8
1
100
AcDbCircle
 10
448.8131369999999
 20
284.004045
 30
0.0
 40
1.35
  0
ARC
  5
132
330
1F
100
AcDbEntity
  8
1
100
AcDbCircle
 10
287.150809
 20
253.907994
 30
0.0
 40
16.0
100
AcDbArc
 50
90.0
 51
118.955024
  0
ARC
  5
133
330
1F
100
AcDbEntity
  8
1
100
AcDbCircle
 10
287.150809
 20
323.907994
 30
0.0
 40
16.0
100
AcDbArc
 50
241.044976
 51
270.0
  0
ARC
  5
134
330
1F
100
AcDbEntity
  8
1
100
AcDbCircle
 10
448.8131369999999
 20
284.004045
 30
0.0
 40
1.75
100
AcDbArc
 50
75.0
 51
345.0
  0
ARC
  5
140
330
1F
100
AcDbEntity
  8
NOCUT
100
AcDbCircle
 10
287.150809
 20
323.907994
 30
0.0
 40
16.0
100
AcDbArc
 50
241.044976
 51
270.0
  0
ELLIPSE
  5
141
330
1F
100
AcDbEntity
  8
1
100
AcDbEllipse
 10
392.317235
 20
288.899677
 30
0.0
 11
1089.411208752113
 21
-0.9398236761675347
 31
0.0
210
0.0
220
0.0
230
0.9999999999999998
 40
0.017427
 41
1.525447268636944
 42
1.529416237702381
  0
ELLIPSE
  5
142
330
1F
100
AcDbEntity
  8
1
100
AcDbEllipse
 10
442.833024
 20
306.791779
 30
0.0
 11
-11.88251702683403
 21
4.191156058535542
 31
0.0
210
0.0
220
0.0
230
1.0
 40
0.9986239999999998
 41
1.386722154625876
 42
1.945227515264106
  0
ELLIPSE
  5
143
330
1F
100
AcDbEntity
  8
1
100
AcDbEllipse
 10
448.324137
 20
301.592164
 30
0.0
 11
3.395004864809725
 21
-1.197473159581583
 31
0.0
210
0.0
220
0.0
230
1.0
 40
0.9986239999999998
 41
0.0
 42
6.283185307179585
  0
ELLIPSE
  5
144
330
1F
100
AcDbEntity
  8
1
100
AcDbEllipse
 10
446.9356549999999
 20
302.187761
 30
0.0
 11
-0.0898897536456661
 21
0.0317055708602405
 31
0.0
210
0.0
220
0.0
230
0.9999999999999998
 40
0.998624
 41
3.886489476374756
 42
4.563221393255302
  0
ELLIPSE
  5
145
330
1F
100
AcDbEntity
  8
1
100
AcDbEllipse
 10
447.024993
 20
302.355876
 30
0.0
 11
-0.089889753645666
 21
0.0317055708602405
 31
0.0
210
0.0
220
0.0
230
0.9999999999999998
 40
0.998624
 41
0.2212980471867858
 42
1.421628739665236
  0
ELLIPSE
  5
146
330
1F
100
AcDbEntity
  8
1
100
AcDbEllipse
 10
447.5270159999999
 20
302.296315
 30
0.0
 11
-0.5666776289729546
 21
0.1998763706833381
 31
0.0
210
0.0
220
0.0
230
1.0
 40
0.9986239999999998
 41
5.239953310136202
 42
6.504483354366407
  0
ELLIPSE
  5
147
330
1F
100
AcDbEntity
  8
1
100
AcDbEllipse
 10
447.432092
 20
302.792373
 30
0.0
 11
-0.0898897536456681
 21
0.0317055708602412
 31
0.0
210
0.0
220
0.0
230
1.0
 40
0.9986239999999998
 41
4.039622617656837
 42
5.239953310136264
  0
ELLIPSE
  5
148
330
1F
100
AcDbEntity
  8
1
100
AcDbEllipse
 10
447.593648
 20
302.89327
 30
0.0
 11
-0.0898897536456681
 21
0.0317055708602412
 31
0.0
210
0.0
220
0.0
230
1.0
 40
0.9986239999999998
 41
0.8980299640672782
 42
1.57476188094789
  0
ELLIPSE
  5
149
330
1F
100
AcDbEntity
  8
1
100
AcDbEllipse
 10
447.759695
 20
303.370065
 30
0.0
 11
-0.5666776289729543
 21
0.199876370683338
 31
0.0
210
0.0
220
0.0
230
1.0
 40
0.9986239999999998
 41
1.574761880948108
 42
2.839291925178266
  0
ELLIPSE
  5
14A
330
1F
100
AcDbEntity
  8
1
100
AcDbEllipse
 10
448.1648639999999
 20
303.067767
 30
0.0
 11
-0.0898897536456661
 21
0.0317055708602405
 31
0.0
210
0.0
220
0.0
230
0.9999999999999998
 40
0.998624
 41
2.839291925178046
 42
3.516023842058933
  0
ELLIPSE
  5
14B
330
1F
100
AcDbEntity
  8
1
100
AcDbEllipse
 10
448.355348
 20
303.074412
 30
0.0
 11
-0.089889753645666
 21
0.0317055708602405
 31
0.0
210
0.0
220
0.0
230
0.9999999999999998
 40
0.998624
 41
5.457285803169957
 42
6.657616495648588
  0
ELLIPSE
  5
14C
330
1F
100
AcDbEntity
  8
1
100
AcDbEllipse
 10
448.555099
 20
302.610378
 30
0.0
 11
-0.5666776289729546
 21
0.1998763706833381
 31
0.0
210
0.0
220
0.0
230
1.0
 40
0.9986239999999998
 41
4.192755758939615
 42
5.457285803169752
  0
ELLIPSE
  5
14D
330
1F
100
AcDbEntity
  8
1
100
AcDbEllipse
 10
448.937625
 20
302.940154
 30
0.0
 11
-0.0898897536456681
 21
0.0317055708602412
 31
0.0
210
0.0
220
0.0
230
1.0
 40
0.9986239999999998
 41
2.992425066460607
 42
4.192755758939963
  0
ELLIPSE
  5
14E
330
1F
100
AcDbEntity
  8
1
100
AcDbEllipse
 10
449.105997
 20
302.850766
 30
0.0
 11
-0.0898897536456681
 21
0.0317055708602412
 31
0.0
210
0.0
220
0.0
230
1.0
 40
0.9986239999999998
 41
6.134017720049956
 42
6.810749636931076
  0
ELLIPSE
  5
14F
330
1F
100
AcDbEntity
  8
1
100
AcDbEllipse
 10
449.602505
 20
302.945159
 30
0.0
 11
-0.5666776289729543
 21
0.199876370683338
 31
0.0
210
0.0
220
0.0
230
1.0
 40
0.9986239999999998
 41
0.5275643297515007
 42
1.792094373981715
  0
ELLIPSE
  5
150
330
1F
100
AcDbEntity
  8
1
100
AcDbEllipse
 10
449.5433139999999
 20
302.443726
 30
0.0
 11
-0.0898897536456661
 21
0.0317055708602405
 31
0.0
210
0.0
220
0.0
230
0.9999999999999998
 40
0.998624
 41
1.792094373981674
 42
2.468826290862704
  0
ELLIPSE
  5
151
330
1F
100
AcDbEntity
  8
1
100
AcDbEllipse
 10
449.644459
 20
302.282256
 30
0.0
 11
-0.089889753645666
 21
0.0317055708602405
 31
0.0
210
0.0
220
0.0
230
0.9999999999999998
 40
0.998624
 41
4.410088251973387
 42
5.61041894445203
  0
ELLIPSE
  5
152
330
1F
100
AcDbEntity
  8
1
100
AcDbEllipse
 10
449.342187
 20
301.877782
 30
0.0
 11
-0.5666776289729546
 21
0.1998763706833381
 31
0.0
210
0.0
220
0.0
230
1.0
 40
0.9986239999999998
 41
3.145558207743001
 42
4.410088251973138
  0
ELLIPSE
  5
153
330
1F
100
AcDbEntity
  8
1
100
AcDbEllipse
 10
449.819637
 20
301.711501
 30
0.0
 11
-0.0898897536456681
 21
0.0317055708602412
 31
0.0
210
0.0
220
0.0
230
1.0
 40
0.9986239999999998
 41
1.945227515264193
 42
3.145558207743122
  0
ELLIPSE
  5
154
330
1F
100
AcDbEntity
  8
1
100
AcDbEllipse
 10
449.826454
 20
301.521215
 30
0.0
 11
-0.0898897536456681
 21
0.0317055708602412
 31
0.0
210
0.0
220
0.0
230
1.0
 40
0.9986239999999998
 41
5.086820168853876
 42
5.763552085734477
  0
ELLIPSE
  5
155
330
1F
100
AcDbEntity
  8
1
100
AcDbEllipse
 10
450.1569139999999
 20
301.138814
 30
0.0
 11
-0.5666776289729543
 21
0.199876370683338
 31
0.0
210
0.0
220
0.0
230
1.0
 40
0.9986239999999998
 41
5.763552085734495
 42
7.028082129964704
  0
ELLIPSE
  5
156
330
1F
100
AcDbEntity
  8
1
100
AcDbEllipse
 10
449.692554
 20
300.9396779999999
 30
0.0
 11
-0.0898897536456661
 21
0.0317055708602405
 31
0.0
210
0.0
220
0.0
230
0.9999999999999998
 40
0.998624
 41
0.7448968227852748
 42
1.421628739665804
  0
ELLIPSE
  5
157
330
1F
100
AcDbEntity
  8
1
100
AcDbEllipse
 10
449.603215
 20
300.771563
 30
0.0
 11
-0.089889753645666
 21
0.0317055708602405
 31
0.0
210
0.0
220
0.0
230
0.9999999999999998
 40
0.998624
 41
3.362890700776723
 42
4.563221393255302
  0
ELLIPSE
  5
158
330
1F
100
AcDbEntity
  8
1
100
AcDbEllipse
 10
449.1011929999999
 20
300.8311240000001
 30
0.0
 11
-0.5666776289729546
 21
0.1998763706833381
 31
0.0
210
0.0
220
0.0
230
1.0
 40
0.9986239999999998
 41
2.09836065654645
 42
3.362890700776603
  0
ELLIPSE
  5
159
330
1F
100
AcDbEntity
  8
1
100
AcDbEllipse
 10
449.196117
 20
300.3350660000001
 30
0.0
 11
-0.0898897536456681
 21
0.0317055708602412
 31
0.0
210
0.0
220
0.0
230
1.0
 40
0.9986239999999998
 41
0.8980299640673711
 42
2.09836065654647
  0
ELLIPSE
  5
15A
330
1F
100
AcDbEntity
  8
1
100
AcDbEllipse
 10
449.034561
 20
300.234169
 30
0.0
 11
-0.0898897536456681
 21
0.0317055708602412
 31
0.0
210
0.0
220
0.0
230
1.0
 40
0.9986239999999998
 41
4.03962261765735
 42
4.71635453453798
  0
ELLIPSE
  5
15B
330
1F
100
AcDbEntity
  8
1
100
AcDbEllipse
 10
453.648796
 20
278.1833259999999
 30
0.0
 11
0.0538770024364421
 21
0.4991611425138426
 31
0.0
210
0.0
220
0.0
230
0.9999999999999998
 40
0.139171
 41
1.583568179257774
 42
3.154364506041881
  0
ELLIPSE
  5
15C
330
1F
100
AcDbEntity
  8
1
100
AcDbEllipse
 10
454.1131110000001
 20
289.164697
 30
0.0
 11
0.0001758288822668
 21
-0.5000776676664041
 31
0.0
210
0.0
220
0.0
230
0.9999999999999998
 40
0.140519
 41
3.139090475969513
 42
4.709886802763126
  0
ELLIPSE
  5
15D
330
1F
100
AcDbEntity
  8
1
100
AcDbEllipse
 10
326.906879
 20
288.907994
 30
0.0
 11
70.86519155238114
 21
-14.7685561718498
 31
0.0
210
0.0
220
0.0
230
1.0
 40
0.168682
 41
4.272114254780158
 42
4.440748207589998
  0
ELLIPSE
  5
15E
330
1F
100
AcDbEntity
  8
1
100
AcDbEllipse
 10
443.9898809999999
 20
296.956326
 30
0.0
 11
-2.357642267228976
 21
0.8315785830427669
 31
0.0
210
0.0
220
0.0
230
0.9999999999999996
 40
0.9986239999999998
 41
2.668199979721743
 42
2.776747666076888
  0
ELLIPSE
  5
15F
330
1F
100
AcDbEntity
  8
1
100
AcDbEllipse
 10
454.349162
 20
295.1005850000001
 30
0.0
 11
0.0003016037624928
 21
0.5003084758631486
 31
0.0
210
0.0
220
0.0
230
1.0
 40
0.140101
 41
3.195395734395866
 42
4.766192061177743
  0
ELLIPSE
  5
160
330
1F
100
AcDbEntity
  8
1
100
AcDbEllipse
 10
455.288813
 20
288.907994
 30
0.0
 11
2.056536618983876
 21
18.9978511990006
 31
0.0
210
0.0
220
0.0
230
1.0
 40
0.138944
 41
1.9266035351813
 42
3.156632395651103
  0
ELLIPSE
  5
161
330
1F
100
AcDbEntity
  8
1
100
AcDbEllipse
 10
454.614842
 20
288.907994
 30
0.0
 11
0.0
 21
18.99999999978196
 31
0.0
210
0.0
220
0.0
230
0.9999999999999998
 40
0.140541
 41
1.479416968879323
 42
1.91156379312439
  0
ELLIPSE
  5
162
330
1F
100
AcDbEntity
  8
1
100
AcDbEllipse
 10
444.0711599999999
 20
297.186762
 30
0.0
 11
-2.357642267228975
 21
0.8315785830427667
 31
0.0
210
0.0
220
0.0
230
1.0
 40
0.998624
 41
0.0520252572636118
 42
1.945227431237595
  0
ELLIPSE
  5
163
330
1F
100
AcDbEntity
  8
1
100
AcDbEllipse
 10
444.0711599999999
 20
297.186762
 30
0.0
 11
-2.357642267228975
 21
0.8315785830427667
 31
0.0
210
0.0
220
0.0
230
1.0
 40
0.998624
 41
1.945227431237595
 42
2.645311779347059
  0
ELLIPSE
  5
164
330
1F
100
AcDbEntity
  8
1
100
AcDbEllipse
 10
443.9898809999999
 20
296.956326
 30
0.0
 11
-2.357642267228976
 21
0.8315785830427669
 31
0.0
210
0.0
220
0.0
230
0.9999999999999996
 40
0.9986239999999998
 41
5.82288831403413
 42
5.942244189143312
  0
ELLIPSE
  5
165
330
1F
100
AcDbEntity
  8
1
100
AcDbEllipse
 10
443.984649
 20
296.9414910000001
 30
0.0
 11
2.357642267228976
 21
-0.8315785830427662
 31
0.0
210
0.0
220
0.0
230
1.0
 40
0.9986239999999998
 41
2.800651535553516
 42
4.567917805097997
  0
ELLIPSE
  5
166
330
1F
100
AcDbEntity
  8
1
100
AcDbEllipse
 10
442.3871599999999
 20
288.9080189999999
 30
0.0
 11
0.6354073403367292
 21
-18.99997020871381
 31
0.0
210
0.0
220
0.0
230
0.9999999999999996
 40
0.0191
 41
3.219987995021426
 42
3.235786676986216
  0
ELLIPSE
  5
167
330
1F
100
AcDbEntity
  8
1
100
AcDbEllipse
 10
448.8685139999999
 20
299.757374
 30
0.0
 11
-0.5666776289729543
 21
0.199876370683338
 31
0.0
210
0.0
220
0.0
230
1.0
 40
0.9986239999999998
 41
4.7163545345379
 42
5.980884578768097
  0
ELLIPSE
  5
168
330
1F
100
AcDbEntity
  8
1
100
AcDbEllipse
 10
448.463345
 20
300.059672
 30
0.0
 11
-0.0898897536456661
 21
0.0317055708602405
 31
0.0
210
0.0
220
0.0
230
0.9999999999999998
 40
0.998624
 41
5.980884578768357
 42
6.657616495648697
  0
ELLIPSE
  5
169
330
1F
100
AcDbEntity
  8
1
100
AcDbEllipse
 10
448.272861
 20
300.053027
 30
0.0
 11
-0.089889753645666
 21
0.0317055708602405
 31
0.0
210
0.0
220
0.0
230
0.9999999999999998
 40
0.998624
 41
2.315693149580163
 42
3.516023842059153
  0
ELLIPSE
  5
16A
330
1F
100
AcDbEntity
  8
1
100
AcDbEllipse
 10
448.0731099999999
 20
300.517061
 30
0.0
 11
-0.5666776289729546
 21
0.1998763706833381
 31
0.0
210
0.0
220
0.0
230
1.0
 40
0.9986239999999998
 41
1.051163105349862
 42
2.315693149580045
  0
ELLIPSE
  5
16B
330
1F
100
AcDbEntity
  8
1
100
AcDbEllipse
 10
447.6905839999999
 20
300.187285
 30
0.0
 11
-0.0898897536456681
 21
0.0317055708602412
 31
0.0
210
0.0
220
0.0
230
1.0
 40
0.9986239999999998
 41
6.134017720050592
 42
7.334348412529275
  0
ELLIPSE
  5
16C
330
1F
100
AcDbEntity
  8
1
100
AcDbEllipse
 10
447.522212
 20
300.276673
 30
0.0
 11
-0.0898897536456681
 21
0.0317055708602412
 31
0.0
210
0.0
220
0.0
230
1.0
 40
0.9986239999999998
 41
2.992425066460651
 42
3.669156983341303
  0
ELLIPSE
  5
16D
330
1F
100
AcDbEntity
  8
1
100
AcDbEllipse
 10
447.0257039999999
 20
300.18228
 30
0.0
 11
-0.5666776289729543
 21
0.199876370683338
 31
0.0
210
0.0
220
0.0
230
1.0
 40
0.9986239999999998
 41
3.669156983341314
 42
4.933687027571512
  0
ELLIPSE
  5
16E
330
1F
100
AcDbEntity
  8
1
100
AcDbEllipse
 10
447.084895
 20
300.683713
 30
0.0
 11
-0.0898897536456661
 21
0.0317055708602405
 31
0.0
210
0.0
220
0.0
230
0.9999999999999998
 40
0.998624
 41
4.93368702757137
 42
5.610418944452379
  0
ELLIPSE
  5
16F
330
1F
100
AcDbEntity
  8
1
100
AcDbEllipse
 10
446.983749
 20
300.845183
 30
0.0
 11
-0.089889753645666
 21
0.0317055708602405
 31
0.0
210
0.0
220
0.0
230
0.9999999999999998
 40
0.998624
 41
1.268495598383462
 42
2.46882629086247
  0
ELLIPSE
  5
170
330
1F
100
AcDbEntity
  8
1
100
AcDbEllipse
 10
447.2860219999999
 20
301.249657
 30
0.0
 11
-0.5666776289729546
 21
0.1998763706833381
 31
0.0
210
0.0
220
0.0
230
1.0
 40
0.9986239999999998
 41
0.0039655541532552
 42
1.268495598383353
  0
ELLIPSE
  5
171
330
1F
100
AcDbEntity
  8
1
100
AcDbEllipse
 10
446.8085709999999
 20
301.415938
 30
0.0
 11
-0.0898897536456681
 21
0.0317055708602412
 31
0.0
210
0.0
220
0.0
230
1.0
 40
0.9986239999999998
 41
5.086820168853876
 42
6.287150861332764
  0
ELLIPSE
  5
172
330
1F
100
AcDbEntity
  8
1
100
AcDbEllipse
 10
446.8017549999999
 20
301.606224
 30
0.0
 11
-0.0898897536456681
 21
0.0317055708602412
 31
0.0
210
0.0
220
0.0
230
1.0
 40
0.9986239999999998
 41
1.945227515264416
 42
2.621959432145238
  0
ELLIPSE
  5
173
330
1F
100
AcDbEntity
  8
1
100
AcDbEllipse
 10
446.471295
 20
301.988625
 30
0.0
 11
-0.5666776289729543
 21
0.199876370683338
 31
0.0
210
0.0
220
0.0
230
1.0
 40
0.9986239999999998
 41
2.621959432144703
 42
3.88648947637488
  0
ELLIPSE
  5
174
330
1F
100
AcDbEntity
  8
1
100
AcDbEllipse
 10
448.3141039999999
 20
301.56372
 30
0.0
 11
1.98041950447234
 21
-0.698526009755924
 31
0.0
210
0.0
220
0.0
230
1.0
 40
0.9986239999999998
 41
0.0
 42
6.283185307179585
  0
ELLIPSE
  5
175
330
1F
100
AcDbEntity
  8
1
100
AcDbEllipse
 10
444.411234
 20
311.268475
 30
0.0
 11
7.098055232772896
 21
15.79907942733056
 31
0.0
210
0.0
220
0.0
230
1.0
 40
0.7250930000000001
 41
3.071990879108185
 42
3.078199459508968
  0
ELLIPSE
  5
176
330
1F
100
AcDbEntity
  8
1
100
AcDbEllipse
 10
449.0111269999998
 20
288.907994
 30
0.0
 11
32.58690560614414
 21
-18.74476434583584
 31
0.0
210
0.0
220
0.0
230
0.9999999999999998
 40
0.095248
 41
4.219684499306158
 42
4.381327543669378
  0
ELLIPSE
  5
177
330
1F
100
AcDbEntity
  8
1
100
AcDbEllipse
 10
303.95488
 20
288.911517
 30
0.0
 11
3.957741786243808
 21
18.99337834696478
 31
0.0
210
0.0
220
0.0
230
0.9999999999999996
 40
0.16871
 41
4.333975324766949
 42
4.338639034231871
  0
ELLIPSE
  5
178
330
1F
100
AcDbEntity
  8
1
100
AcDbEllipse
 10
442.8576349999999
 20
288.907993
 30
0.0
 11
0.6354082566283325
 21
-18.99999617081495
 31
0.0
210
0.0
220
0.0
230
1.0
 40
0.0191
 41
3.022233247378288
 42
3.113686340306978
  0
ELLIPSE
  5
179
330
1F
100
AcDbEntity
  8
1
100
AcDbEllipse
 10
443.984649
 20
296.9414910000001
 30
0.0
 11
2.357642267228976
 21
-0.8315785830427662
 31
0.0
210
0.0
220
0.0
230
1.0
 40
0.9986239999999998
 41
5.598899378593431
 42
5.809792633311539
  0
ELLIPSE
  5
17A
330
1F
100
AcDbEntity
  8
1
100
AcDbEllipse
 10
442.681768
 20
288.907994
 30
0.0
 11
0.532748820548151
 21
-18.99985246031003
 31
0.0
210
0.0
220
0.0
230
1.0
 40
0.140543
 41
3.110384343890459
 42
3.216892030858711
  0
ELLIPSE
  5
17B
330
1F
100
AcDbEntity
  8
1
100
AcDbEllipse
 10
298.188096
 20
288.907993
 30
0.0
 11
496.4575527886982
 21
18.52863453982386
 31
0.0
210
0.0
220
0.0
230
1.0
 40
0.008472
 41
5.008965494062117
 42
5.026981439824619
  0
ELLIPSE
  5
17C
330
1F
100
AcDbEntity
  8
1
100
AcDbEllipse
 10
448.486773
 20
301.764515
 30
0.0
 11
-3.677921936877201
 21
1.297262589546715
 31
0.0
210
0.0
220
0.0
230
1.0
 40
0.9986239999999998
 41
0.0
 42
6.283185307179585
  0
ELLIPSE
  5
17D
330
1F
100
AcDbEntity
  8
1
100
AcDbEllipse
 10
453.579641
 20
297.006967
 30
0.0
 11
0.5172967687053464
 21
-0.4819691094709397
 31
0.0
210
0.0
220
0.0
230
1.0
 40
0.033998
 41
1.585610887691579
 42
2.602516728118128
  0
ELLIPSE
  5
17E
330
1F
100
AcDbEntity
  8
1
100
AcDbEllipse
 10
443.38473
 20
306.496051
 30
0.0
 11
0.5172967687115556
 21
-0.4819691094806848
 31
0.0
210
0.0
220
0.0
230
1.0
 40
0.033998
 41
0.5687050474102833
 42
1.585610887818261
  0
ELLIPSE
  5
17F
330
1F
100
AcDbEntity
  8
1
100
AcDbEllipse
 10
453.227416
 20
306.839408
 30
0.0
 11
0.4817434591861345
 21
0.5170545785728315
 31
0.0
210
0.0
220
0.0
230
1.0
 40
0.01483
 41
1.536779664338872
 42
2.553685504974015
  0
ELLIPSE
  5
180
330
1F
100
AcDbEntity
  8
1
100
AcDbEllipse
 10
448.5094469999999
 20
301.8288
 30
0.0
 11
3.531988007444661
 21
-1.245789330883938
 31
0.0
210
0.0
220
0.0
230
1.0
 40
0.9986239999999998
 41
1.945227552038378
 42
3.356097206659879
  0
ELLIPSE
  5
181
330
1F
100
AcDbEntity
  8
1
100
AcDbEllipse
 10
448.5094469999999
 20
301.8288
 30
0.0
 11
3.531988007444661
 21
-1.245789330883938
 31
0.0
210
0.0
220
0.0
230
1.0
 40
0.9986239999999998
 41
5.419043491545747
 42
6.283185307179585
  0
ELLIPSE
  5
182
330
1F
100
AcDbEntity
  8
1
100
AcDbEllipse
 10
448.5094469999999
 20
301.8288
 30
0.0
 11
3.531988007444661
 21
-1.245789330883938
 31
0.0
210
0.0
220
0.0
230
1.0
 40
0.9986239999999998
 41
0.0
 42
1.508938775396913
  0
ELLIPSE
  5
183
330
1F
100
AcDbEntity
  8
1
100
AcDbEllipse
 10
448.5094469999999
 20
301.8288
 30
0.0
 11
3.531988007444661
 21
-1.245789330883938
 31
0.0
210
0.0
220
0.0
230
1.0
 40
0.9986239999999998
 41
1.63254085945862
 42
1.945227552038378
  0
ELLIPSE
  5
184
330
1F
100
AcDbEntity
  8
1
100
AcDbEllipse
 10
443.7369549999999
 20
296.663611
 30
0.0
 11
0.4817434592007567
 21
0.5170545785812671
 31
0.0
210
0.0
220
0.0
230
1.0
 40
0.01483
 41
0.5198738242214862
 42
1.536779664825637
  0
ELLIPSE
  5
185
330
1F
100
AcDbEntity
  8
1
100
AcDbEllipse
 10
448.4896509999999
 20
301.772674
 30
0.0
 11
3.588083700633127
 21
-1.265575189707758
 31
0.0
210
0.0
220
0.0
230
1.0
 40
0.9986239999999998
 41
1.945227451328575
 42
3.745261875445966
  0
ELLIPSE
  5
186
330
1F
100
AcDbEntity
  8
1
100
AcDbEllipse
 10
448.4896509999999
 20
301.772674
 30
0.0
 11
3.588083700633127
 21
-1.265575189707758
 31
0.0
210
0.0
220
0.0
230
1.0
 40
0.9986239999999998
 41
4.874566385899286
 42
6.283185307179585
  0
ELLIPSE
  5
187
330
1F
100
AcDbEntity
  8
1
100
AcDbEllipse
 10
448.4896509999999
 20
301.772674
 30
0.0
 11
3.588083700633127
 21
-1.265575189707758
 31
0.0
210
0.0
220
0.0
230
1.0
 40
0.9986239999999998
 41
0.0
 42
1.945227440221053
  0
ELLIPSE
  5
188
330
1F
100
AcDbEntity
  8
1
100
AcDbEllipse
 10
249.632812
 20
288.907994
 30
0.0
 11
70.86519154898347
 21
-14.76855617029288
 31
0.0
210
0.0
220
0.0
230
1.0
 40
0.168682
 41
5.3775152495768
 42
5.54382831658921
  0
ELLIPSE
  5
189
330
1F
100
AcDbEntity
  8
1
100
AcDbEllipse
 10
443.076173
 20
292.170667
 30
0.0
 11
-2.389961206041791
 21
-0.09380019738054
 31
0.0
210
0.0
220
0.0
230
1.0
 40
0.22151
 41
1.689786245982164
 42
4.591172101808354
  0
ELLIPSE
  5
18A
330
1F
100
AcDbEntity
  8
1
100
AcDbEllipse
 10
448.340267
 20
301.637894
 30
0.0
 11
-3.395004864809727
 21
1.197473159581584
 31
0.0
210
0.0
220
0.0
230
0.9999999999999998
 40
0.9986239999999998
 41
3.141585274248866
 42
5.87221822853457
  0
ELLIPSE
  5
18B
330
1F
100
AcDbEntity
  8
1
100
AcDbEllipse
 10
448.340267
 20
301.637894
 30
0.0
 11
-3.395004864809727
 21
1.197473159581584
 31
0.0
210
0.0
220
0.0
230
0.9999999999999998
 40
0.9986239999999998
 41
5.872218228534575
 42
6.283185307179585
  0
SPLINE
  5
191
330
1F
100
AcDbEntity
  8
1
100
AcDbSpline
210
0.0
220
0.0
230
1.0
 70
    12
 71
     2
 72
     6
 73
     3
 74
     0
 42
0.000000001
 43
0.0000000001
 40
0.0
 40
0.0
 40
0.0
 40
1.0
 40
1.0
 40
1.0
 10
441.7252836616542
 20
307.8486837959592
 30
0.0
 41
0.5000002353624962
 10
441.8374658914338
 20
307.8485292231462
 30
0.0
 41
0.4999997646375038
 10
441.9496474336968
 20
307.848374248121
 30
0.0
 41
0.5000002353624962
  0
SPLINE
  5
192
330
1F
100
AcDbEntity
  8
1
100
AcDbSpline
210
0.0
220
0.0
230
1.0
 70
     8
 71
     3
 72
    27
 73
    23
 74
     0
 42
0.000000001
 43
0.0000000001
 40
0.0
 40
0.0
 40
0.0
 40
0.0
 40
0.1358119458613639
 40
0.1358119458613639
 40
0.2037179187920485
 40
0.2037179187920485
 40
0.2716238917227331
 40
0.2716238917227331
 40
0.4074358375841706
 40
0.4074358375841706
 40
0.4753418105148892
 40
0.4753418105148892
 40
0.5432477834456078
 40
0.5432477834456078
 40
0.6790597293070176
 40
0.6790597293070176
 40
0.7469657022377226
 40
0.7469657022377226
 40
0.8148716751684276
 40
0.8148716751684276
 40
0.9506836210298324
 40
1.0
 40
1.0
 40
1.0
 40
1.0
 10
446.9603850251989
 20
300.864254029075
 30
0.0
 10
446.9348828391093
 20
300.8829948122473
 30
0.0
 10
446.9111053405057
 20
300.9035963495884
 30
0.0
 10
446.8779901560781
 20
300.9372410379232
 30
0.0
 10
446.8673788742839
 20
300.9489151150485
 30
0.0
 10
446.8470283559323
 20
300.973199441042
 30
0.0
 10
446.8372661775713
 20
300.9858495625277
 30
0.0
 10
446.8097663974121
 20
301.0246127203306
 30
0.0
 10
446.7936525348928
 20
301.051692436543
 30
0.0
 10
446.7727587097408
 20
301.0941373813484
 30
0.0
 10
446.7663428006961
 20
301.1085913540295
 30
0.0
 10
446.7546308363968
 20
301.1381229490354
 30
0.0
 10
446.7493153173881
 20
301.1532722981284
 30
0.0
 10
446.7353144914122
 20
301.1989952038396
 30
0.0
 10
446.7285120537598
 20
301.2298931966326
 30
0.0
 10
446.7219907542641
 20
301.2768455057414
 30
0.0
 10
446.7204336753556
 20
301.2925976509536
 30
0.0
 10
446.7185688282527
 20
301.3243073566798
 30
0.0
 10
446.718262803402
 20
301.3403240844982
 30
0.0
 10
446.7192670115736
 20
301.3882707145017
 30
0.0
 10
446.7236185979436
 20
301.4312063072081
 30
0.0
 10
446.7324510028823
 20
301.4733109171853
 30
0.0
 10
446.7351252465554
 20
301.4844674821757
 30
0.0
  0
SPLINE
  5
193
330
1F
100
AcDbEntity
  8
1
100
AcDbSpline
210
0.0
220
0.0
230
1.0
 70
     8
 71
     3
 72
    21
 73
    17
 74
     0
 42
0.000000001
 43
0.0000000001
 40
0.0
 40
0.0
 40
0.0
 40
0.0
 40
0.1243620819296455
 40
0.1243620819296455
 40
0.2119258737366791
 40
0.2119258737366791
 40
0.299489665543713
 40
0.299489665543713
 40
0.4746172491577803
 40
0.4746172491577803
 40
0.562181040964817
 40
0.562181040964817
 40
0.6497448327718536
 40
0.6497448327718536
 40
0.8248724163859268
 40
1.0
 40
1.0
 40
1.0
 40
1.0
 10
449.6674956616371
 20
300.6480433932954
 30
0.0
 10
449.6571105194999
 20
300.6280703556844
 30
0.0
 10
449.6456495700191
 20
300.6087686213409
 30
0.0
 10
449.6243061965595
 20
300.5770075424172
 30
0.0
 10
449.6149576998207
 20
300.5642150478591
 30
0.0
 10
449.5951794255446
 20
300.5393047275376
 30
0.0
 10
449.5846972342866
 20
300.5271342587722
 30
0.0
 10
449.5520686738895
 20
300.4921949972015
 30
0.0
 10
449.5287286958265
 20
300.4709192867799
 30
0.0
 10
449.4914098085116
 20
300.4419402471338
 30
0.0
 10
449.478583510518
 20
300.4327720225479
 30
0.0
 10
449.4521477726998
 20
300.4154313344577
 30
0.0
 10
449.4384865837816
 20
300.4072311592754
 30
0.0
 10
449.3966592328343
 20
300.3843704029678
 30
0.0
 10
449.3392472343961
 20
300.3587850273553
 30
0.0
 10
449.2787072535332
 20
300.3425667369866
 30
0.0
 10
449.2476362183863
 20
300.3368712234713
 30
0.0
  0
SPLINE
  5
194
330
1F
100
AcDbEntity
  8
1
100
AcDbSpline
210
0.0
220
0.0
230
1.0
 70
     8
 71
     3
 72
    18
 73
    14
 74
     0
 42
0.000000001
 43
0.0000000001
 40
0.0
 40
0.0
 40
0.0
 40
0.0
 40
0.2127774583467071
 40
0.2127774583467071
 40
0.4255549166934139
 40
0.4255549166934139
 40
0.5319436458667532
 40
0.5319436458667532
 40
0.6383323750400927
 40
0.6383323750400927
 40
0.851109833386771
 40
0.851109833386771
 40
1.0
 40
1.0
 40
1.0
 40
1.0
 10
447.0577740772823
 20
302.3233235548465
 30
0.0
 10
447.0702597575797
 20
302.2951060091167
 30
0.0
 10
447.0804248898008
 20
302.2661022528512
 30
0.0
 10
447.0961450891102
 20
302.2064728975828
 30
0.0
 10
447.1017023742191
 20
302.1758481510258
 30
0.0
 10
447.1063183292314
 20
302.1285539271876
 30
0.0
 10
447.1072184715318
 20
302.1126602607362
 30
0.0
 10
447.1077269988568
 20
302.0809979989163
 30
0.0
 10
447.1073415239056
 20
302.0651713022984
 30
0.0
 10
447.1042671184076
 20
302.0177006108976
 30
0.0
 10
447.0996620814621
 20
301.9860153833007
 30
0.0
 10
447.0872965082498
 20
301.9323455191468
 30
0.0
 10
447.0810069065911
 20
301.91075659533
 30
0.0
 10
447.0735653815794
 20
301.8896531614741
 30
0.0
  0
SPLINE
  5
195
330
1F
100
AcDbEntity
  8
1
100
AcDbSpline
210
0.0
220
0.0
230
1.0
 70
     8
 71
     3
 72
    10
 73
     6
 74
     0
 42
0.000000001
 43
0.0000000001
 40
0.0
 40
0.0
 40
0.0
 40
0.0
 40
0.5
 40
0.5
 40
1.0
 40
1.0
 40
1.0
 40
1.0
 10
447.0145187480747
 20
302.3687657852431
 30
0.0
 10
447.024081744494
 20
302.3639185435893
 30
0.0
 10
447.0326086670606
 20
302.3576071760251
 30
0.0
 10
447.0474167618498
 20
302.342108651852
 30
0.0
 10
447.0533653559766
 20
302.333287232603
 30
0.0
 10
447.0577740772823
 20
302.3233235548465
 30
0.0
  0
SPLINE
  5
196
330
1F
100
AcDbEntity
  8
1
100
AcDbSpline
210
0.0
220
0.0
230
1.0
 70
     8
 71
     3
 72
    20
 73
    16
 74
     0
 42
0.000000001
 43
0.0000000001
 40
0.0
 40
0.0
 40
0.0
 40
0.0
 40
0.125
 40
0.125
 40
0.25
 40
0.25
 40
0.375
 40
0.375
 40
0.5
 40
0.5
 40
0.625
 40
0.625
 40
0.75
 40
0.75
 40
1.0
 40
1.0
 40
1.0
 40
1.0
 10
447.0145187480747
 20
302.3687657852431
 30
0.0
 10
447.0103349922143
 20
302.3708864255513
 30
0.0
 10
447.0063408636544
 20
302.3732984924186
 30
0.0
 10
446.9987294753545
 20
302.3787015038398
 30
0.0
 10
446.9951105001978
 20
302.3817007966
 30
0.0
 10
446.9884228829098
 20
302.3881406164895
 30
0.0
 10
446.9853303802996
 20
302.3915960484557
 30
0.0
 10
446.9796566800366
 20
302.3989850962955
 30
0.0
 10
446.9770589050694
 20
302.4029525355583
 30
0.0
 10
446.9725248900194
 20
302.4111961203608
 30
0.0
 10
446.9705803619669
 20
302.415471667673
 30
0.0
 10
446.9673429249501
 20
302.4243323705088
 30
0.0
 10
446.9660440608316
 20
302.4289486634523
 30
0.0
 10
446.9632446203237
 20
302.4430780890514
 30
0.0
 10
446.9628332498342
 20
302.4526667712854
 30
0.0
 10
446.9639693543329
 20
302.4624322044667
 30
0.0
  0
SPLINE
  5
197
330
1F
100
AcDbEntity
  8
1
100
AcDbSpline
210
0.0
220
0.0
230
1.0
 70
     8
 71
     3
 72
    14
 73
    10
 74
     0
 42
0.000000001
 43
0.0000000001
 40
0.0
 40
0.0
 40
0.0
 40
0.0
 40
0.0909779694415376
 40
0.0909779694415376
 40
0.3939853129610252
 40
0.3939853129610252
 40
0.6969926564805127
 40
0.6969926564805127
 40
1.0
 40
1.0
 40
1.0
 40
1.0
 10
449.6257538797585
 20
301.4393946092841
 30
0.0
 10
449.6289269900582
 20
301.4483932351575
 30
0.0
 10
449.6323080368969
 20
301.4572907159003
 30
0.0
 10
449.6478346963225
 20
301.4953919764189
 30
0.0
 10
449.66204984462
 20
301.523604272612
 30
0.0
 10
449.6950915009783
 20
301.577761830755
 30
0.0
 10
449.7134331590471
 20
301.6029213252837
 30
0.0
 10
449.7535159509986
 20
301.649741780526
 30
0.0
 10
449.7752588397106
 20
301.6714008304934
 30
0.0
 10
449.7987242653906
 20
301.6913291309152
 30
0.0
  0
SPLINE
  5
198
330
1F
100
AcDbEntity
  8
1
100
AcDbSpline
210
0.0
220
0.0
230
1.0
 70
     8
 71
     3
 72
    10
 73
     6
 74
     0
 42
0.000000001
 43
0.0000000001
 40
0.0
 40
0.0
 40
0.0
 40
0.0
 40
0.5
 40
0.5
 40
1.0
 40
1.0
 40
1.0
 40
1.0
 10
449.7987242653906
 20
301.6913291309152
 30
0.0
 10
449.8070100725263
 20
301.6983659542011
 30
0.0
 10
449.8162412221792
 20
301.7037334052913
 30
0.0
 10
449.8362331512073
 20
301.7111839033773
 30
0.0
 10
449.8465683521991
 20
301.7131242250944
 30
0.0
 10
449.8572403138733
 20
301.7133054320529
 30
0.0
  0
SPLINE
  5
199
330
1F
100
AcDbEntity
  8
1
100
AcDbSpline
210
0.0
220
0.0
230
1.0
 70
     8
 71
     3
 72
    16
 73
    12
 74
     0
 42
0.000000001
 43
0.0000000001
 40
0.0
 40
0.0
 40
0.0
 40
0.0
 40
0.0631184671102882
 40
0.0631184671102882
 40
0.2504947736884162
 40
0.2504947736884162
 40
0.4378710802665441
 40
0.4378710802665441
 40
0.6252473868446719
 40
0.6252473868446719
 40
1.0
 40
1.0
 40
1.0
 40
1.0
 10
449.9235930466315
 20
301.742767049056
 30
0.0
 10
449.9225066564524
 20
301.7415992892244
 30
0.0
 10
449.9213889936253
 20
301.7404587425918
 30
0.0
 10
449.9168290407665
 20
301.7360406162894
 30
0.0
 10
449.9131708034538
 20
301.7330121203902
 30
0.0
 10
449.9055563569561
 20
301.7276209097603
 30
0.0
 10
449.9015756003706
 20
301.7252339779075
 30
0.0
 10
449.8932730789724
 20
301.7210685459213
 30
0.0
 10
449.8889153320428
 20
301.7192810632693
 30
0.0
 10
449.8756738225234
 20
301.7149816298822
 30
0.0
 10
449.8665869477021
 20
301.7134641353111
 30
0.0
 10
449.8572403138734
 20
301.7133054320529
 30
0.0
  0
SPLINE
  5
19A
330
1F
100
AcDbEntity
  8
1
100
AcDbSpline
210
0.0
220
0.0
230
1.0
 70
     8
 71
     3
 72
    10
 73
     6
 74
     0
 42
0.000000001
 43
0.0000000001
 40
0.0
 40
0.0
 40
0.0
 40
0.0
 40
0.5
 40
0.5
 40
1.0
 40
1.0
 40
1.0
 40
1.0
 10
443.2806316371063
 20
294.5441259081526
 30
0.0
 10
443.2013156707092
 20
294.5680239536431
 30
0.0
 10
443.1236271068926
 20
294.5956459716367
 30
0.0
 10
442.9712875990356
 20
294.6580925546613
 30
0.0
 10
442.8966386274465
 20
294.6929181108162
 30
0.0
 10
442.8234378548641
 20
294.7313411121843
 30
0.0
  0
SPLINE
  5
19B
330
1F
100
AcDbEntity
  8
1
100
AcDbSpline
210
0.0
220
0.0
230
1.0
 70
     8
 71
     3
 72
    10
 73
     6
 74
     0
 42
0.000000001
 43
0.0000000001
 40
0.0
 40
0.0
 40
0.0
 40
0.0
 40
0.5
 40
0.5
 40
1.0
 40
1.0
 40
1.0
 40
1.0
 10
437.3538039516192
 20
301.9249169814537
 30
0.0
 10
437.3637736865368
 20
302.9090130395498
 30
0.0
 10
437.3723855860609
 20
303.8931229214879
 30
0.0
 10
437.3877764969329
 20
305.8613590199039
 30
0.0
 10
437.3945485799344
 20
306.8454843722002
 30
0.0
 10
437.4006680378527
 20
307.8296148862041
 30
0.0
  0
SPLINE
  5
19C
330
1F
100
AcDbEntity
  8
1
100
AcDbSpline
210
0.0
220
0.0
230
1.0
 70
     8
 71
     3
 72
    46
 73
    42
 74
     0
 42
0.000000001
 43
0.0000000001
 40
0.0
 40
0.0
 40
0.0
 40
0.0
 40
0.0590109761029705
 40
0.0590109761029705
 40
0.118021952205941
 40
0.118021952205941
 40
0.1770329283089115
 40
0.1770329283089115
 40
0.2065384163603973
 40
0.2065384163603973
 40
0.2212911603861402
 40
0.2212911603861402
 40
0.2360439044118832
 40
0.2360439044118832
 40
0.295054880514856
 40
0.295054880514856
 40
0.3540658566178288
 40
0.3540658566178288
 40
0.4130768327208016
 40
0.4130768327208016
 40
0.4425823207722887
 40
0.4425823207722887
 40
0.4720878088237755
 40
0.4720878088237755
 40
0.5310987849267495
 40
0.5310987849267495
 40
0.5901097610297228
 40
0.5901097610297228
 40
0.7081317132356696
 40
0.7081317132356696
 40
0.767142689338643
 40
0.767142689338643
 40
0.8261536654416163
 40
0.8261536654416163
 40
0.8851646415445896
 40
0.8851646415445896
 40
0.9146701295960758
 40
0.9146701295960758
 40
0.9441756176475625
 40
0.9441756176475625
 40
1.0
 40
1.0
 40
1.0
 40
1.0
 10
437.4006680378527
 20
307.8296148862041
 30
0.0
 10
436.0614684209876
 20
307.8655722892347
 30
0.0
 10
434.7173593392151
 20
307.8874594811007
 30
0.0
 10
432.0191512665862
 20
307.9098848150558
 30
0.0
 10
430.6650567346649
 20
307.9104390818937
 30
0.0
 10
427.9473667179444
 20
307.8961156435191
 30
0.0
 10
426.583774856115
 20
307.8812461913377
 30
0.0
 10
424.5320245019075
 20
307.8508443456234
 30
0.0
 10
423.8470510886668
 20
307.8393500874135
 30
0.0
 10
422.8181319955618
 20
307.8204014059857
 30
0.0
 10
422.4749073885003
 20
307.8137996924847
 30
0.0
 10
421.7882466060021
 20
307.8000779156076
 30
0.0
 10
421.4447785718453
 20
307.7929572882552
 30
0.0
 10
419.7267867999873
 20
307.7561596386021
 30
0.0
 10
418.3502991711474
 20
307.7229575932185
 30
0.0
 10
415.5942244939266
 20
307.6507497695948
 30
0.0
 10
414.2146388804708
 20
307.6117420964238
 30
0.0
 10
411.4536677120381
 20
307.5281783105748
 30
0.0
 10
410.0722834570016
 20
307.4836215342269
 30
0.0
 10
407.9999566317286
 20
307.4117507602645
 30
0.0
 10
407.309153665764
 20
307.3869234460839
 30
0.0
 10
405.9275394016029
 20
307.3354691407641
 30
0.0
 10
405.2367232597287
 20
307.3088485659771
 30
0.0
 10
403.1642703552635
 20
307.2262690473653
 30
0.0
 10
401.7826043918419
 20
307.1675947138816
 30
0.0
 10
399.0196369663684
 20
307.0427174642133
 30
0.0
 10
397.6383104788332
 20
306.976512530688
 30
0.0
 10
393.4949726401439
 20
306.7659987301789
 30
0.0
 10
390.7336087411807
 20
306.609829184245
 30
0.0
 10
386.5933976652199
 20
306.3487284463969
 30
0.0
 10
385.2136310665194
 20
306.2572125551524
 30
0.0
 10
382.4547990409372
 20
306.0645258759195
 30
0.0
 10
381.0756980963733
 20
305.963356348975
 30
0.0
 10
378.3190550156413
 20
305.7505031090887
 30
0.0
 10
376.9414277044777
 20
305.6388208878913
 30
0.0
 10
374.8762326246257
 20
305.4624235835108
 30
0.0
 10
374.1880428079073
 20
305.4021416615583
 30
0.0
 10
372.8121273750845
 20
305.2783896493052
 30
0.0
 10
372.1244035107477
 20
305.2149137127411
 30
0.0
 10
370.1361347810327
 20
305.0266961408906
 30
0.0
 10
368.8361532583855
 20
304.8977991402409
 30
0.0
 10
367.536823041161
 20
304.7631934444866
 30
0.0
  0
SPLINE
  5
19D
330
1F
100
AcDbEntity
  8
1
100
AcDbSpline
210
0.0
220
0.0
230
1.0
 70
    28
 71
     4
 72
    13
 73
     8
 74
     0
 42
0.000000001
 43
0.0000000001
 40
0.0
 40
0.0
 40
0.0
 40
0.0
 40
0.0
 40
0.198883467810291
 40
0.198883467810291
 40
0.198883467810291
 40
1.0
 40
1.0
 40
1.0
 40
1.0
 40
1.0
 10
302.9048419452957
 20
282.0379146217747
 30
0.0
 41
0.9986766077322227
 10
302.9048419452957
 20
281.4674261484201
 30
0.0
 41
0.9960276657779205
 10
302.9048419452957
 20
280.8597415719192
 30
0.0
 41
0.9931235212029559
 10
302.9048419452957
 20
280.2225309140374
 30
0.0
 41
0.9904837130363357
 10
302.9048419452957
 20
276.8889311932625
 30
0.0
 41
0.9798503809279765
 10
302.9048419452957
 20
273.9399753434156
 30
0.0
 41
0.9798503809279765
 10
302.9048419452957
 20
271.5327985826342
 30
0.0
 41
1.005405995360787
 10
302.9048419452957
 20
269.9864526217747
 30
0.0
 41
1.005405995360787
  0
SPLINE
  5
19E
330
1F
100
AcDbEntity
  8
1
100
AcDbSpline
210
0.0
220
0.0
230
1.0
 70
     8
 71
     3
 72
    56
 73
    52
 74
     0
 42
0.000000001
 43
0.0000000001
 40
0.0
 40
0.0
 40
0.0
 40
0.0
 40
0.0624999999999999
 40
0.0624999999999999
 40
0.1249999999999998
 40
0.1249999999999998
 40
0.1562499999999996
 40
0.1562499999999996
 40
0.1874999999999995
 40
0.1874999999999995
 40
0.2499999999999992
 40
0.2499999999999992
 40
0.3124999999999989
 40
0.3124999999999989
 40
0.3437499999999989
 40
0.3437499999999989
 40
0.3749999999999989
 40
0.3749999999999989
 40
0.406249999999999
 40
0.406249999999999
 40
0.4218749999999992
 40
0.4218749999999992
 40
0.4374999999999992
 40
0.4374999999999992
 40
0.4687499999999992
 40
0.4687499999999992
 40
0.4999999999999992
 40
0.4999999999999992
 40
0.5312499999999992
 40
0.5312499999999992
 40
0.5624999999999992
 40
0.5624999999999992
 40
0.5937499999999992
 40
0.5937499999999992
 40
0.6249999999999993
 40
0.6249999999999993
 40
0.6562499999999993
 40
0.6562499999999993
 40
0.6874999999999995
 40
0.6874999999999995
 40
0.7499999999999992
 40
0.7499999999999992
 40
0.8124999999999987
 40
0.8124999999999987
 40
0.8437499999999989
 40
0.8437499999999989
 40
0.8749999999999991
 40
0.8749999999999991
 40
0.9374999999999996
 40
0.9374999999999996
 40
1.0
 40
1.0
 40
1.0
 40
1.0
 10
305.4703759391338
 20
281.2740022749526
 30
0.0
 10
308.0006347420585
 20
280.870348287361
 30
0.0
 10
310.5307603327603
 20
280.4732794085945
 30
0.0
 10
315.5903377064495
 20
279.6903417829759
 30
0.0
 10
318.1197861493084
 20
279.3044494492266
 30
0.0
 10
321.9130020275587
 20
278.7322382849014
 30
0.0
 10
323.177246684661
 20
278.5426052454686
 30
0.0
 10
325.7053324402666
 20
278.1652880583546
 30
0.0
 10
326.9690246668318
 20
277.9776251724405
 30
0.0
 10
330.7583026758303
 20
277.4174113301131
 30
0.0
 10
333.2823213871147
 20
277.0475364229677
 30
0.0
 10
338.3251614539779
 20
276.314584702404
 30
0.0
 10
340.8439731899269
 20
275.9514771895555
 30
0.0
 10
344.6178450479278
 20
275.4133661212371
 30
0.0
 10
345.8750811744197
 20
275.2351092687842
 30
0.0
 10
348.3880903129576
 20
274.8813631953075
 30
0.0
 10
349.6438629699356
 20
274.7058736052639
 30
0.0
 10
352.1539715749637
 20
274.3584182643023
 30
0.0
 10
353.4083071783825
 20
274.1864525398988
 30
0.0
 10
355.2887967068284
 20
273.9318808420872
 30
0.0
 10
355.9154537091008
 20
273.8475751439986
 30
0.0
 10
357.1684682537523
 20
273.6802969436301
 30
0.0
 10
357.7948385831346
 20
273.5973646083508
 30
0.0
 10
359.673804616664
 20
273.3515671877148
 30
0.0
 10
360.9262636914095
 20
273.1917482589149
 30
0.0
 10
363.4320393608854
 20
272.8837435508573
 30
0.0
 10
364.6853559077117
 20
272.735550891226
 30
0.0
 10
367.1938087321421
 20
272.4529242968925
 30
0.0
 10
368.4490412415391
 20
272.3184714176751
 30
0.0
 10
370.9607051660888
 20
272.0644371836991
 30
0.0
 10
372.2172862594977
 20
271.9448262074854
 30
0.0
 10
374.7325486036116
 20
271.7206036711923
 30
0.0
 10
375.9911999797338
 20
271.6158851953667
 30
0.0
 10
378.5102068076183
 20
271.4191592201069
 30
0.0
 10
379.770563927008
 20
271.327161741283
 30
0.0
 10
382.2927877071326
 20
271.1544545758543
 30
0.0
 10
383.5546560042445
 20
271.0737519964311
 30
0.0
 10
386.0797958022762
 20
270.9225800629974
 30
0.0
 10
387.3430686623602
 20
270.8521151276537
 30
0.0
 10
391.1348962159426
 20
270.654783794668
 30
0.0
 10
393.6654705327476
 20
270.5419588121463
 30
0.0
 10
398.7314764942866
 20
270.3479151764824
 30
0.0
 10
401.2669109608308
 20
270.2666894034682
 30
0.0
 10
405.0730633570559
 20
270.1648797243483
 30
0.0
 10
406.3422623781454
 20
270.1342907668414
 30
0.0
 10
408.8809676356756
 20
270.0793382303407
 30
0.0
 10
410.1505483889994
 20
270.0549729311491
 30
0.0
 10
413.9598757187653
 20
269.9906392913129
 30
0.0
 10
416.5002153009639
 20
269.9594035322809
 30
0.0
 10
421.5819328379401
 20
269.9180871152155
 30
0.0
 10
424.1233138179941
 20
269.9079935137005
 30
0.0
 10
426.6648139808363
 20
269.9079935137005
 30
0.0
  0
SPLINE
  5
19F
330
1F
100
AcDbEntity
  8
1
100
AcDbSpline
210
0.0
220
0.0
230
1.0
 70
     8
 71
     3
 72
    73
 73
    69
 74
     0
 42
0.000000001
 43
0.0000000001
 40
0.0
 40
0.0
 40
0.0
 40
0.0
 40
0.0258158828683003
 40
0.0258158828683003
 40
0.0582886867726902
 40
0.0582886867726902
 40
0.0907614906770802
 40
0.0907614906770802
 40
0.1232342945814701
 40
0.1232342945814701
 40
0.1557070984858601
 40
0.1557070984858601
 40
0.18817990239025
 40
0.18817990239025
 40
0.22065270629464
 40
0.22065270629464
 40
0.2531255101990301
 40
0.2531255101990301
 40
0.2855983141034201
 40
0.2855983141034201
 40
0.3180711180078103
 40
0.3180711180078103
 40
0.3505439219122004
 40
0.3505439219122004
 40
0.3830167258165905
 40
0.3830167258165905
 40
0.4154895297209806
 40
0.4154895297209806
 40
0.4479623336253708
 40
0.4479623336253708
 40
0.480435137529761
 40
0.480435137529761
 40
0.512907941434151
 40
0.512907941434151
 40
0.5453807453385411
 40
0.5453807453385411
 40
0.5778535492429312
 40
0.5778535492429312
 40
0.6103263531473211
 40
0.6103263531473211
 40
0.6427991570517113
 40
0.6427991570517113
 40
0.6752719609561014
 40
0.6752719609561014
 40
0.7077447648604914
 40
0.7077447648604914
 40
0.7402175687648814
 40
0.7402175687648814
 40
0.7726903726692714
 40
0.7726903726692714
 40
0.8051631765736614
 40
0.8051631765736614
 40
0.8376359804780515
 40
0.8376359804780515
 40
0.8701087843824415
 40
0.8701087843824415
 40
0.9025815882868315
 40
0.9025815882868315
 40
0.9188179902390263
 40
0.9188179902390263
 40
0.9350543921912212
 40
0.9512907941434159
 40
0.9512907941434159
 40
0.9675271960956106
 40
0.9675271960956106
 40
0.9837635980478051
 40
0.9837635980478051
 40
1.0
 40
1.0
 40
1.0
 40
1.0
 10
307.794423848389
 20
307.9079923933877
 30
0.0
 10
308.8688293199423
 20
307.908038438057
 30
0.0
 10
309.9426710991145
 20
307.9057372019718
 30
0.0
 10
312.3661195096632
 20
307.8946559092207
 30
0.0
 10
313.7154329722257
 20
307.884357042239
 30
0.0
 10
316.412729432625
 20
307.854622786502
 30
0.0
 10
317.7607126100014
 20
307.8351864097692
 30
0.0
 10
320.4556325402066
 20
307.7864689645426
 30
0.0
 10
321.8025907267627
 20
307.757186108403
 30
0.0
 10
324.4952453589339
 20
307.68828839809
 30
0.0
 10
325.8410062867525
 20
307.6486723814639
 30
0.0
 10
328.5317204743293
 20
307.5588327116915
 30
0.0
 10
329.8766741723463
 20
307.5086093936483
 30
0.0
 10
332.5660999192667
 20
307.3975004910779
 30
0.0
 10
333.9105724497912
 20
307.3366158647397
 30
0.0
 10
336.5993480904969
 20
307.2043295865267
 30
0.0
 10
337.9437006879135
 20
307.1329266176314
 30
0.0
 10
340.6322797754862
 20
306.9799250668295
 30
0.0
 10
341.9764558709873
 20
306.8983317896175
 30
0.0
 10
344.6648284422171
 20
306.7253802074517
 30
0.0
 10
346.0090252491368
 20
306.6340240952647
 30
0.0
 10
348.697639447504
 20
306.4420160784585
 30
0.0
 10
350.0420570648263
 20
306.3413664412252
 30
0.0
 10
352.7312568003559
 20
306.131218489539
 30
0.0
 10
354.0760390489436
 20
306.0217224137111
 30
0.0
 10
356.7660503672043
 20
305.7942386096756
 30
0.0
 10
358.1112471133644
 20
305.6763381459846
 30
0.0
 10
360.8012324105438
 20
305.4311092808847
 30
0.0
 10
362.1460568561703
 20
305.3037460148568
 30
0.0
 10
364.8351338503874
 20
305.0387018715114
 30
0.0
 10
366.1793874063637
 20
304.9010150260532
 30
0.0
 10
368.8673858764052
 20
304.6151870894166
 30
0.0
 10
370.211132993804
 20
304.4670448835292
 30
0.0
 10
372.8984320738043
 20
304.1609813635753
 30
0.0
 10
374.2420415668836
 20
304.0030521238869
 30
0.0
 10
376.9291513375789
 20
303.6789548166846
 30
0.0
 10
378.2726863509166
 20
303.5128153809541
 30
0.0
 10
380.960081716333
 20
303.1736813876732
 30
0.0
 10
382.3039408221307
 20
303.0006869347148
 30
0.0
 10
384.9921848027565
 20
302.6487571892577
 30
0.0
 10
386.3365685783112
 20
302.4698212709423
 30
0.0
 10
389.0259354717603
 20
302.1065166993778
 30
0.0
 10
390.3709247852388
 20
301.9221459133695
 30
0.0
 10
393.061451342898
 20
301.5481054580181
 30
0.0
 10
394.406833028029
 20
301.3584564014965
 30
0.0
 10
397.0977499128364
 20
300.9736911438174
 30
0.0
 10
398.4432848689053
 20
300.7785751275719
 30
0.0
 10
401.1343653195613
 20
300.3823361447819
 30
0.0
 10
402.4799110594436
 20
300.1812154713372
 30
0.0
 10
405.1708120589248
 20
299.7720655141908
 30
0.0
 10
406.5161681445348
 20
299.5640415812744
 30
0.0
 10
409.2064150559528
 20
299.1397107570037
 30
0.0
 10
410.5513170392909
 20
298.9233745369307
 30
0.0
 10
413.2396775703659
 20
298.4801540840166
 30
0.0
 10
414.5831926139666
 20
298.2532356259569
 30
0.0
 10
417.2687461268196
 20
297.7877657745086
 30
0.0
 10
418.6107793237844
 20
297.5491836441623
 30
0.0
 10
420.6229579306465
 20
297.1833348282485
 30
0.0
 10
421.293543127509
 20
297.0600750768398
 30
0.0
 10
422.6345294994693
 20
296.811341648052
 30
0.0
 10
423.9753316531077
 20
296.5603930469401
 30
0.0
 10
425.3160498663183
 20
296.3062720609924
 30
0.0
 10
426.6569164982135
 20
296.0514482761888
 30
0.0
 10
427.3273744958093
 20
295.9236940233133
 30
0.0
 10
428.6685527806008
 20
295.6686612427217
 30
0.0
 10
429.339273541641
 20
295.5413828592693
 30
0.0
 10
430.6812387982807
 20
295.2887366520544
 30
0.0
 10
431.3524835144333
 20
295.1633698302786
 30
0.0
 10
432.0241408946436
 20
295.039804817493
 30
0.0
  0
SPLINE
  5
1A0
330
1F
100
AcDbEntity
  8
1
100
AcDbSpline
210
0.0
220
0.0
230
1.0
 70
     8
 71
     3
 72
    43
 73
    39
 74
     0
 42
0.000000001
 43
0.0000000001
 40
0.0
 40
0.0
 40
0.0
 40
0.0
 40
0.1249999999999637
 40
0.1249999999999637
 40
0.2499999999999274
 40
0.2499999999999274
 40
0.2812499999999216
 40
0.2812499999999216
 40
0.3124999999999157
 40
0.3124999999999157
 40
0.3749999999999161
 40
0.3749999999999161
 40
0.4999999999999288
 40
0.4999999999999288
 40
0.5624999999999412
 40
0.5624999999999412
 40
0.6249999999999535
 40
0.6249999999999535
 40
0.6562499999999597
 40
0.6562499999999597
 40
0.6874999999999658
 40
0.6874999999999658
 40
0.7499999999999682
 40
0.7499999999999682
 40
0.8124999999999705
 40
0.8124999999999705
 40
0.8281249999999722
 40
0.8281249999999722
 40
0.843749999999974
 40
0.8749999999999779
 40
0.8749999999999779
 40
0.9374999999999859
 40
0.9374999999999859
 40
0.95312499999999
 40
0.95312499999999
 40
0.9687499999999939
 40
0.9687499999999939
 40
1.0
 40
1.0
 40
1.0
 40
1.0
 10
433.6624154866716
 20
298.1600489524895
 30
0.0
 10
433.8713650803832
 20
298.2566716184862
 30
0.0
 10
434.0779071451007
 20
298.3578942012496
 30
0.0
 10
434.4852785193853
 20
298.5712543747641
 30
0.0
 10
434.6861146472303
 20
298.6833789382541
 30
0.0
 10
434.9327913600283
 20
298.8318811641692
 30
0.0
 10
434.9819070006926
 20
298.8620013801767
 30
0.0
 10
435.0796728980453
 20
298.923130992576
 30
0.0
 10
435.1282966906493
 20
298.9541246057538
 30
0.0
 10
435.2730788370352
 20
299.0482874993248
 30
0.0
 10
435.3682515942823
 20
299.1126994802175
 30
0.0
 10
435.6492680380894
 20
299.3113987349216
 30
0.0
 10
435.8306644793386
 20
299.4510830805767
 30
0.0
 10
436.0912560579696
 20
299.6745694691241
 30
0.0
 10
436.1761912261663
 20
299.751405546227
 30
0.0
 10
436.341567605066
 20
299.9105314610778
 30
0.0
 10
436.4220121233119
 20
299.9928172848701
 30
0.0
 10
436.538664154018
 20
300.1211182222604
 30
0.0
 10
436.5769181645861
 20
300.1647543267295
 30
0.0
 10
436.6514181879596
 20
300.2531781205305
 30
0.0
 10
436.6877246336149
 20
300.2980285231878
 30
0.0
 10
436.7936048990023
 20
300.4346362535803
 30
0.0
 10
436.8601536764233
 20
300.52844061021
 30
0.0
 10
436.9837808500108
 20
300.7224578765004
 30
0.0
 10
437.0408678643208
 20
300.8226649543122
 30
0.0
 10
437.1051006465588
 20
300.9527459154613
 30
0.0
 10
437.1175856760469
 20
300.9790014343777
 30
0.0
 10
437.1416588186418
 20
301.0316924383543
 30
0.0
 10
437.1764819035379
 20
301.1111161673121
 30
0.0
 10
437.2073486324152
 20
301.1917305985032
 30
0.0
 10
437.2635144946651
 20
301.3546350806656
 30
0.0
 10
437.2935524349927
 20
301.465466963849
 30
0.0
 10
437.3206403632556
 20
301.6071547010199
 30
0.0
 10
437.3255336110295
 20
301.6356500528277
 30
0.0
 10
437.334235470967
 20
301.6929671876434
 30
0.0
 10
437.3380479364105
 20
301.7218253705796
 30
0.0
 10
437.3477712917943
 20
301.8086362145449
 30
0.0
 10
437.3519594894785
 20
301.8666864951531
 30
0.0
 10
437.3538039516193
 20
301.9249169814537
 30
0.0
  0
SPLINE
  5
1A1
330
1F
100
AcDbEntity
  8
1
100
AcDbSpline
210
0.0
220
0.0
230
1.0
 70
    12
 71
     3
 72
     9
 73
     5
 74
     0
 42
0.000000001
 43
0.0000000001
 40
0.0
 40
0.0
 40
0.0
 40
0.0
 40
0.3317213887114017
 40
1.0
 40
1.0
 40
1.0
 40
1.0
 10
393.6466915669477
 20
301.4615608699011
 30
0.0
 41
1.001260359633242
 10
398.4704674453557
 20
301.43175670971
 30
0.0
 41
1.001599494405094
 10
412.9793867015662
 20
301.1347981996282
 30
0.0
 41
1.002854030251902
 10
427.7504336861703
 20
300.8386957338827
 30
0.0
 41
1.000404090650901
 10
437.3538039516192
 20
301.9249169814537
 30
0.0
 41
1.000942165196724
  0
SPLINE
  5
1A2
330
1F
100
AcDbEntity
  8
1
100
AcDbSpline
210
0.0
220
0.0
230
1.0
 70
     8
 71
     3
 72
    25
 73
    21
 74
     0
 42
0.000000001
 43
0.0000000001
 40
0.0
 40
0.0
 40
0.0
 40
0.0
 40
0.1250000000000002
 40
0.1250000000000002
 40
0.2500000000000004
 40
0.2500000000000004
 40
0.3750000000000007
 40
0.3750000000000007
 40
0.5000000000000009
 40
0.5000000000000009
 40
0.6250000000000011
 40
0.6250000000000011
 40
0.6562500000000009
 40
0.6562500000000009
 40
0.6875000000000008
 40
0.7500000000000006
 40
0.7500000000000006
 40
0.8750000000000003
 40
0.8750000000000003
 40
1.0
 40
1.0
 40
1.0
 40
1.0
 10
287.1508086377107
 20
270.8146529875411
 30
0.0
 10
286.7704501253054
 20
270.8667179832354
 30
0.0
 10
286.3984646362727
 20
270.9115002890524
 30
0.0
 10
285.6690881464757
 20
270.9902318174966
 30
0.0
 10
285.3117118240719
 20
271.0241700881762
 30
0.0
 10
284.6103681768436
 20
271.0844379200198
 30
0.0
 10
284.266408245625
 20
271.1107592616781
 30
0.0
 10
283.5913129475451
 20
271.1588189608745
 30
0.0
 10
283.2601811313381
 20
271.1805494749025
 30
0.0
 10
282.6106053837779
 20
271.2224870488956
 30
0.0
 10
282.2921624686014
 20
271.2426846542093
 30
0.0
 10
281.9021927974001
 20
271.2690699401246
 30
0.0
 10
281.8246581581513
 20
271.2744014915344
 30
0.0
 10
281.6707238182573
 20
271.2852150984513
 30
0.0
 10
281.4414270722328
 20
271.3016684649941
 30
0.0
 10
281.2169414575843
 20
271.3190766737867
 30
0.0
 10
280.7744187534103
 20
271.3558981745641
 30
0.0
 10
280.4879849376637
 20
271.3830859859402
 30
0.0
 10
279.9328384446131
 20
271.44726387848
 30
0.0
 10
279.6641190689405
 20
271.4842249938202
 30
0.0
 10
279.4048419452956
 20
271.5290279494301
 30
0.0
  0
SPLINE
  5
1A3
330
1F
100
AcDbEntity
  8
1
100
AcDbSpline
210
0.0
220
0.0
230
1.0
 70
     8
 71
     3
 72
    52
 73
    48
 74
     0
 42
0.000000001
 43
0.0000000001
 40
0.0
 40
0.0
 40
0.0
 40
0.0
 40
0.0624999999999999
 40
0.0624999999999999
 40
0.1249999999999997
 40
0.1249999999999997
 40
0.1874999999999996
 40
0.1874999999999996
 40
0.2187499999999993
 40
0.2187499999999993
 40
0.2343749999999993
 40
0.2343749999999993
 40
0.2499999999999993
 40
0.2499999999999993
 40
0.3125000000000004
 40
0.3125000000000004
 40
0.3750000000000016
 40
0.3750000000000016
 40
0.4375000000000028
 40
0.4375000000000028
 40
0.4531250000000031
 40
0.4531250000000031
 40
0.4687500000000032
 40
0.5000000000000032
 40
0.5000000000000032
 40
0.5625000000000029
 40
0.5625000000000029
 40
0.6250000000000023
 40
0.6250000000000023
 40
0.6562500000000023
 40
0.6562500000000023
 40
0.6718750000000025
 40
0.6718750000000025
 40
0.6875000000000026
 40
0.6875000000000026
 40
0.7500000000000028
 40
0.7500000000000028
 40
0.812500000000003
 40
0.812500000000003
 40
0.8437500000000026
 40
0.8593750000000028
 40
0.8593750000000028
 40
0.8750000000000028
 40
0.8750000000000028
 40
0.9375000000000012
 40
0.9375000000000012
 40
1.0
 40
1.0
 40
1.0
 40
1.0
 10
279.4048419452957
 20
280.2172112563468
 30
0.0
 10
279.2322319455923
 20
280.0353552871605
 30
0.0
 10
279.0684324024282
 20
279.8497185638782
 30
0.0
 10
278.758688628515
 20
279.4712002519087
 30
0.0
 10
278.6127428152014
 20
279.2783188372714
 30
0.0
 10
278.3392978178051
 20
278.8854689558453
 30
0.0
 10
278.2117955334882
 20
278.685501246734
 30
0.0
 10
278.035140236902
 20
278.3802239925378
 30
0.0
 10
277.9786917734224
 20
278.2775758819532
 30
0.0
 10
277.897807215488
 20
278.1222546906946
 30
0.0
 10
277.8714625625328
 20
278.0702217077602
 30
0.0
 10
277.8203360885621
 20
277.9662754658041
 30
0.0
 10
277.7955184346416
 20
277.9142955473479
 30
0.0
 10
277.6751462205965
 20
277.6543770316003
 30
0.0
 10
277.5907208879056
 20
277.4463846739464
 30
0.0
 10
277.4456152423508
 20
277.0306201549333
 30
0.0
 10
277.3849339641689
 20
276.8228476228663
 30
0.0
 10
277.2878109368686
 20
276.407787307507
 30
0.0
 10
277.251366488962
 20
276.2004993800097
 30
0.0
 10
277.2216116141176
 20
275.9418191345777
 30
0.0
 10
277.2164505387275
 20
275.8900852058923
 30
0.0
 10
277.2077405505332
 20
275.7867420053952
 30
0.0
 10
277.1971450213776
 20
275.6325363878071
 30
0.0
 10
277.1938571945153
 20
275.4807344151056
 30
0.0
 10
277.1968119210614
 20
275.1802794584135
 30
0.0
 10
277.2114726733507
 20
274.9841725625387
 30
0.0
 10
277.2654652980783
 20
274.6001135620488
 30
0.0
 10
277.3047991168374
 20
274.4121618694529
 30
0.0
 10
277.3821474223498
 20
274.1362229004689
 30
0.0
 10
277.41099182683
 20
274.0452418243572
 30
0.0
 10
277.4588636758533
 20
273.9102561512258
 30
0.0
 10
277.4755889551027
 20
273.8655161376246
 30
0.0
 10
277.5103852390464
 20
273.776992366367
 30
0.0
 10
277.5284767982747
 20
273.7331487463354
 30
0.0
 10
277.6223360333468
 20
273.515972587841
 30
0.0
 10
277.7082876885617
 20
273.3487556883532
 30
0.0
 10
277.9005870539667
 20
273.0262812206163
 30
0.0
 10
278.0069388452159
 20
272.8710259960447
 30
0.0
 10
278.181104003806
 20
272.6464628936844
 30
0.0
 10
278.271850577575
 20
272.53626349104
 30
0.0
 10
278.3680062041094
 20
272.4290824463257
 30
0.0
 10
278.4333046369046
 20
272.3582885508573
 30
0.0
 10
278.4665671140824
 20
272.3232064566752
 30
0.0
 10
278.6353389626674
 20
272.1499310039313
 30
0.0
 10
278.778557901752
 20
272.0177430076903
 30
0.0
 10
279.0803592874083
 20
271.7649530939793
 30
0.0
 10
279.2389446029583
 20
271.6443536853056
 30
0.0
 10
279.4048419452956
 20
271.5290279494301
 30
0.0
  0
SPLINE
  5
1A4
330
1F
100
AcDbEntity
  8
1
100
AcDbSpline
210
0.0
220
0.0
230
1.0
 70
     9
 71
     3
 72
   135
 73
   131
 74
     0
 42
0.000000001
 43
0.0000000001
 40
0.0
 40
0.0
 40
0.0
 40
0.0
 40
0.0312500000000042
 40
0.0312500000000042
 40
0.0468750000000053
 40
0.0468750000000053
 40
0.0546875000000072
 40
0.0546875000000072
 40
0.0625000000000091
 40
0.0625000000000091
 40
0.0937500000000143
 40
0.0937500000000143
 40
0.1093750000000141
 40
0.1093750000000141
 40
0.1171875000000141
 40
0.1171875000000141
 40
0.125000000000014
 40
0.125000000000014
 40
0.1562500000000202
 40
0.1562500000000202
 40
0.1640625000000199
 40
0.1640625000000199
 40
0.1718750000000195
 40
0.1718750000000195
 40
0.1875000000000108
 40
0.2031250000000021
 40
0.2031250000000021
 40
0.2109374999999978
 40
0.2109374999999978
 40
0.2187499999999936
 40
0.2187499999999936
 40
0.2499999999999677
 40
0.2499999999999677
 40
0.2656249999999503
 40
0.2656249999999503
 40
0.2734374999999459
 40
0.2734374999999459
 40
0.2812499999999417
 40
0.2812499999999417
 40
0.312499999999942
 40
0.312499999999942
 40
0.3203124999999463
 40
0.3203124999999463
 40
0.3281249999999505
 40
0.3281249999999505
 40
0.3437499999999589
 40
0.3593749999999674
 40
0.3593749999999674
 40
0.3671874999999717
 40
0.3671874999999717
 40
0.3749999999999759
 40
0.3749999999999759
 40
0.406249999999999
 40
0.406249999999999
 40
0.4218750000000104
 40
0.4218750000000104
 40
0.4296875000000143
 40
0.4296875000000143
 40
0.4375000000000182
 40
0.4375000000000182
 40
0.4687500000000367
 40
0.4687500000000367
 40
0.4765625000000416
 40
0.4765625000000416
 40
0.4843750000000464
 40
0.4843750000000464
 40
0.5000000000000562
 40
0.5000000000000562
 40
0.531250000000076
 40
0.531250000000076
 40
0.5390625000000818
 40
0.5390625000000818
 40
0.5468750000000878
 40
0.5468750000000878
 40
0.5625000000000972
 40
0.5781250000001066
 40
0.5781250000001066
 40
0.5859375000001092
 40
0.5859375000001092
 40
0.5937500000001119
 40
0.5937500000001119
 40
0.6250000000001174
 40
0.6250000000001174
 40
0.6406250000001172
 40
0.6406250000001172
 40
0.6484375000001171
 40
0.6484375000001171
 40
0.6562500000001171
 40
0.6562500000001171
 40
0.6875000000001166
 40
0.6875000000001166
 40
0.7031250000001164
 40
0.7031250000001164
 40
0.7187500000001162
 40
0.7187500000001162
 40
0.7500000000001067
 40
0.7500000000001067
 40
0.7578125000001021
 40
0.7578125000001021
 40
0.7656250000000974
 40
0.7656250000000974
 40
0.7812500000000883
 40
0.7968750000000792
 40
0.7968750000000792
 40
0.8046875000000746
 40
0.8046875000000746
 40
0.8125000000000701
 40
0.8125000000000701
 40
0.8437500000000685
 40
0.8437500000000685
 40
0.8515625000000646
 40
0.8515625000000646
 40
0.8593750000000607
 40
0.8593750000000607
 40
0.8750000000000525
 40
0.8750000000000525
 40
0.90625000000003
 40
0.90625000000003
 40
0.914062500000028
 40
0.914062500000028
 40
0.9218750000000257
 40
0.9218750000000257
 40
0.9375000000000211
 40
0.9531250000000163
 40
0.9531250000000163
 40
0.960937500000014
 40
0.960937500000014
 40
0.9687500000000115
 40
0.9687500000000115
 40
1.0
 40
1.0
 40
1.0
 40
1.0
 10
447.363358210799
 20
284.0293513132517
 30
0.0
 10
447.3650023820169
 20
284.1235458192502
 30
0.0
 10
447.3757185428762
 20
284.2162995704216
 30
0.0
 10
447.405053644298
 20
284.3533036973517
 30
0.0
 10
447.4170574995617
 20
284.3986145984993
 30
0.0
 10
447.4384987504402
 20
284.466024379068
 30
0.0
 10
447.4462194080571
 20
284.4884013645259
 30
0.0
 10
447.4628370633283
 20
284.5329636262264
 30
0.0
 10
447.4716816631226
 20
284.5550051717678
 30
0.0
 10
447.5184217344589
 20
284.6637225578854
 30
0.0
 10
447.5639185738618
 20
284.7462909383507
 30
0.0
 10
447.6443223379133
 20
284.8634727269358
 30
0.0
 10
447.6731635200373
 20
284.9014140232348
 30
0.0
 10
447.7196181923467
 20
284.9565649039591
 30
0.0
 10
447.7355665195833
 20
284.9745679483522
 30
0.0
 10
447.7681917297485
 20
285.0096106927757
 30
0.0
 10
447.7848967924183
 20
285.0266840879858
 30
0.0
 10
447.8703603538436
 20
285.1098351296183
 30
0.0
 10
447.9448776766215
 20
285.1693288932403
 30
0.0
 10
448.0458840120421
 20
285.234655367637
 30
0.0
 10
448.0664818162396
 20
285.2472645591471
 30
0.0
 10
448.1084899663073
 20
285.2715470474556
 30
0.0
 10
448.1297478387634
 20
285.2831311166085
 30
0.0
 10
448.1941248074345
 20
285.3161619945256
 30
0.0
 10
448.2816916746815
 20
285.3556940497546
 30
0.0
 10
448.3726558436456
 20
285.3863603442427
 30
0.0
 10
448.4421669099861
 20
285.4059941874839
 30
0.0
 10
448.4655523154553
 20
285.4119768068896
 30
0.0
 10
448.5127605153926
 20
285.4227983595046
 30
0.0
 10
448.536642564345
 20
285.4276473676963
 30
0.0
 10
448.6564543715513
 20
285.4488376734374
 30
0.0
 10
448.7524921845421
 20
285.4559702498482
 30
0.0
 10
448.8968219066491
 20
285.4524281653473
 30
0.0
 10
448.944977663142
 20
285.4488560532552
 30
0.0
 10
449.0172820612698
 20
285.4398081599157
 30
0.0
 10
449.0414400384051
 20
285.4361650954073
 30
0.0
 10
449.0892448582401
 20
285.4277214820074
 30
0.0
 10
449.1129511188051
 20
285.4229158387054
 30
0.0
 10
449.2305195065886
 20
285.3960228058081
 30
0.0
 10
449.3215214080863
 20
285.3654246864324
 30
0.0
 10
449.4314488134283
 20
285.3158275900229
 30
0.0
 10
449.4532412634988
 20
285.3053354693719
 30
0.0
 10
449.4964325223297
 20
285.2831843983836
 30
0.0
 10
449.5177174135453
 20
285.2715816409002
 30
0.0
 10
449.5803470458983
 20
285.2353916766313
 30
0.0
 10
449.6608607756901
 20
285.1833260459614
 30
0.0
 10
449.7355405108645
 20
285.1238478452526
 30
0.0
 10
449.7893553458661
 20
285.0764583842803
 30
0.0
 10
449.8069271452643
 20
285.0601976067337
 30
0.0
 10
449.8413285608184
 20
285.0267371821802
 30
0.0
 10
449.858199871621
 20
285.0094919377511
 30
0.0
 10
449.9401313019417
 20
284.9214553328944
 30
0.0
 10
449.9975444827082
 20
284.8458451064609
 30
0.0
 10
450.0720379193579
 20
284.7250905202123
 30
0.0
 10
450.0949170479158
 20
284.6836065672678
 30
0.0
 10
450.1262536287786
 20
284.6195055948091
 30
0.0
 10
450.1362173778103
 20
284.5977817603097
 30
0.0
 10
450.1549460919551
 20
284.5541480566918
 30
0.0
 10
450.1637352547338
 20
284.5321938826618
 30
0.0
 10
450.2048659379583
 20
284.4217538158734
 30
0.0
 10
450.2288389486553
 20
284.3312798587615
 30
0.0
 10
450.2478116752556
 20
284.2156090780923
 30
0.0
 10
450.2510517784584
 20
284.1923447979251
 30
0.0
 10
450.2564080060554
 20
284.1455529528661
 30
0.0
 10
450.2585208994207
 20
284.1220174002028
 30
0.0
 10
450.2631125932556
 20
284.051749560255
 30
0.0
 10
450.2638811461631
 20
284.0051106210173
 30
0.0
 10
450.2595195798071
 20
283.8657952983909
 30
0.0
 10
450.2477839173908
 20
283.7737161997076
 30
0.0
 10
450.2218318941435
 20
283.6596220766543
 30
0.0
 10
450.2160625596141
 20
283.6368301091097
 30
0.0
 10
450.2035005976948
 20
283.5918121414285
 30
0.0
 10
450.1966965513426
 20
283.569529227663
 30
0.0
 10
450.1747400799801
 20
283.5033464636682
 30
0.0
 10
450.1413532187163
 20
283.4168758741195
 30
0.0
 10
450.0998270533581
 20
283.3338960402965
 30
0.0
 10
450.0655728052663
 20
283.2729857647093
 30
0.0
 10
450.0536355281618
 20
283.2529034833845
 30
0.0
 10
450.0287011920939
 20
283.2131886115607
 30
0.0
 10
450.0156663646973
 20
283.1935039096621
 30
0.0
 10
449.9483531860368
 20
283.0970508518713
 30
0.0
 10
449.8877084005368
 20
283.0260016811851
 30
0.0
 10
449.7866422138613
 20
282.9284146326754
 30
0.0
 10
449.7512583173352
 20
282.8973941031143
 30
0.0
 10
449.6955363418398
 20
282.8532047563351
 30
0.0
 10
449.6764928571771
 20
282.8388462873318
 30
0.0
 10
449.6376131329895
 20
282.8110192519321
 30
0.0
 10
449.6178915588906
 20
282.7976306528832
 30
0.0
 10
449.5178944426956
 20
282.7332707150018
 30
0.0
 10
449.4334917323159
 20
282.689972173321
 30
0.0
 10
449.3001558349451
 20
282.6374455438134
 30
0.0
 10
449.2545293907413
 20
282.6220070173221
 30
0.0
 10
449.1611016306041
 20
282.5955788988856
 30
0.0
 10
449.1140776119609
 20
282.5848042021353
 30
0.0
 10
448.972100842896
 20
282.5595827315327
 30
0.0
 10
448.8762521094701
 20
282.5521682049714
 30
0.0
 10
448.7548960800311
 20
282.5550120712888
 30
0.0
 10
448.7304757530501
 20
282.556199347625
 30
0.0
 10
448.6819906309327
 20
282.5597837662577
 30
0.0
 10
448.6578939037904
 20
282.5621777295975
 30
0.0
 10
448.5860319465286
 20
282.5711273572952
 30
0.0
 10
448.4913558586098
 20
282.587765378854
 30
0.0
 10
448.3989132743984
 20
282.6136366755741
 30
0.0
 10
448.3304261585793
 20
282.6365405378242
 30
0.0
 10
448.3077294367633
 20
282.6447630523065
 30
0.0
 10
448.2626580806749
 20
282.6623829129403
 30
0.0
 10
448.2404602203135
 20
282.6717105971649
 30
0.0
 10
448.1311124038968
 20
282.7208691883123
 30
0.0
 10
448.0488385524311
 20
282.7681853625197
 30
0.0
 10
447.9522562722999
 20
282.8370207331165
 30
0.0
 10
447.9332557765737
 20
282.8512769270691
 30
0.0
 10
447.8958923592998
 20
282.8807785765863
 30
0.0
 10
447.8775150386956
 20
282.8960410947173
 30
0.0
 10
447.8239099774851
 20
282.942829401402
 30
0.0
 10
447.7900084797513
 20
282.9755011748216
 30
0.0
 10
447.6935971949047
 20
283.0778094145135
 30
0.0
 10
447.6363304442315
 20
283.1516981636728
 30
0.0
 10
447.5735980063974
 20
283.2513192397295
 30
0.0
 10
447.5615614033915
 20
283.271512192818
 30
0.0
 10
447.5385837931981
 20
283.3122647457942
 30
0.0
 10
447.5276266282406
 20
283.3328499030539
 30
0.0
 10
447.4963227316648
 20
283.3952235948468
 30
0.0
 10
447.4587571578186
 20
283.480034449541
 30
0.0
 10
447.4294326925816
 20
283.5681172551675
 30
0.0
 10
447.4105798047792
 20
283.6354327119688
 30
0.0
 10
447.4048198440896
 20
283.6580804408184
 30
0.0
 10
447.3943686600413
 20
283.7038032519292
 30
0.0
 10
447.3896957650717
 20
283.7268064548508
 30
0.0
 10
447.3691872532378
 20
283.8419765154782
 30
0.0
 10
447.3617140395808
 20
283.9351568072531
 30
0.0
 10
447.3633582107988
 20
284.0293513132516
 30
0.0
  0
SPLINE
  5
1A5
330
1F
100
AcDbEntity
  8
1
100
AcDbSpline
210
0.0
220
0.0
230
1.0
 70
     8
 71
     3
 72
   141
 73
   137
 74
     0
 42
0.000000001
 43
0.0000000001
 40
0.0
 40
0.0
 40
0.0
 40
0.0
 40
0.0156249999999979
 40
0.0156249999999979
 40
0.0312499999999957
 40
0.0468749999999936
 40
0.0468749999999936
 40
0.0546874999999926
 40
0.0546874999999926
 40
0.0624999999999916
 40
0.0781249999999886
 40
0.0781249999999886
 40
0.0937499999999855
 40
0.0937499999999855
 40
0.1093749999999824
 40
0.1093749999999824
 40
0.1171874999999806
 40
0.1171874999999806
 40
0.1249999999999787
 40
0.1249999999999787
 40
0.1562499999999739
 40
0.1562499999999739
 40
0.1718749999999715
 40
0.1718749999999715
 40
0.1874999999999691
 40
0.1874999999999691
 40
0.1953124999999678
 40
0.1953124999999678
 40
0.2031249999999665
 40
0.2187499999999634
 40
0.2187499999999634
 40
0.2265624999999618
 40
0.2265624999999618
 40
0.2343749999999601
 40
0.2343749999999601
 40
0.2499999999999576
 40
0.2499999999999576
 40
0.2812499999999527
 40
0.2812499999999527
 40
0.2968749999999502
 40
0.2968749999999502
 40
0.304687499999949
 40
0.304687499999949
 40
0.3124999999999479
 40
0.3281249999999458
 40
0.3281249999999458
 40
0.3359374999999447
 40
0.3359374999999447
 40
0.3437499999999436
 40
0.3437499999999436
 40
0.3749999999999392
 40
0.3749999999999392
 40
0.4062499999999348
 40
0.4062499999999348
 40
0.4140624999999334
 40
0.4140624999999334
 40
0.4218749999999322
 40
0.4374999999999301
 40
0.4374999999999301
 40
0.4453124999999288
 40
0.4453124999999288
 40
0.4531249999999274
 40
0.4531249999999274
 40
0.468749999999925
 40
0.4843749999999227
 40
0.4843749999999227
 40
0.4921874999999213
 40
0.4921874999999213
 40
0.4999999999999202
 40
0.4999999999999202
 40
0.5312499999999173
 40
0.5312499999999173
 40
0.5390624999999166
 40
0.5390624999999166
 40
0.5468749999999158
 40
0.5624999999999155
 40
0.5624999999999155
 40
0.5781249999999151
 40
0.5781249999999151
 40
0.5937499999999147
 40
0.5937499999999147
 40
0.6015624999999153
 40
0.6015624999999153
 40
0.6093749999999161
 40
0.6093749999999161
 40
0.6249999999999179
 40
0.6406249999999197
 40
0.6406249999999197
 40
0.6484374999999211
 40
0.6484374999999211
 40
0.6562499999999223
 40
0.6718749999999253
 40
0.6718749999999253
 40
0.6874999999999281
 40
0.6874999999999281
 40
0.7031249999999308
 40
0.7031249999999308
 40
0.7109374999999324
 40
0.7109374999999324
 40
0.7187499999999342
 40
0.7187499999999342
 40
0.7499999999999413
 40
0.7499999999999413
 40
0.7656249999999448
 40
0.7656249999999448
 40
0.7812499999999481
 40
0.7812499999999481
 40
0.7968749999999515
 40
0.7968749999999515
 40
0.8124999999999548
 40
0.8124999999999548
 40
0.8203124999999568
 40
0.8203124999999568
 40
0.8281249999999587
 40
0.8281249999999587
 40
0.8437499999999625
 40
0.8437499999999625
 40
0.8593749999999664
 40
0.8593749999999664
 40
0.8749999999999705
 40
0.8906249999999745
 40
0.8906249999999745
 40
0.8984374999999765
 40
0.8984374999999765
 40
0.9062499999999783
 40
0.9218749999999818
 40
0.9218749999999818
 40
0.9374999999999852
 40
0.9374999999999852
 40
0.9531249999999888
 40
0.9531249999999888
 40
0.9609374999999905
 40
0.9609374999999905
 40
0.9687499999999925
 40
0.9687499999999925
 40
1.0
 40
1.0
 40
1.0
 40
1.0
 10
452.6537508279149
 20
282.5579935136941
 30
0.0
 10
452.6437389840785
 20
282.5133962493533
 30
0.0
 10
452.6337961670321
 20
282.4673611922687
 30
0.0
 10
452.6140915882733
 20
282.3725756397754
 30
0.0
 10
452.5946583392482
 20
282.2755138087171
 30
0.0
 10
452.5757637962956
 20
282.1739325869175
 30
0.0
 10
452.561796544175
 20
282.0960381378612
 30
0.0
 10
452.5571721892624
 20
282.0697724824522
 30
0.0
 10
452.5480276882531
 20
282.0168748713113
 30
0.0
 10
452.5344547737403
 20
281.936910253215
 30
0.0
 10
452.5213108315813
 20
281.8551019419072
 30
0.0
 10
452.5041678897605
 20
281.7443810329478
 30
0.0
 10
452.4957752778639
 20
281.6881070996639
 30
0.0
 10
452.4794998500113
 20
281.5747502586041
 30
0.0
 10
452.4716038408619
 20
281.5175885978799
 30
0.0
 10
452.4601214110713
 20
281.4311231922837
 30
0.0
 10
452.4563542563784
 20
281.4021807888772
 30
0.0
 10
452.4489411274251
 20
281.3440537061088
 30
0.0
 10
452.4452917757894
 20
281.3148407982809
 30
0.0
 10
452.4274112573867
 20
281.16866843727
 30
0.0
 10
452.4142473913222
 20
281.051205159999
 30
0.0
 10
452.3962111300057
 20
280.8742227534231
 30
0.0
 10
452.3905106317398
 20
280.8153424372867
 30
0.0
 10
452.3797573243344
 20
280.698126466866
 30
0.0
 10
452.3746992607364
 20
280.6397394098443
 30
0.0
 10
452.3675910425136
 20
280.5524909045146
 30
0.0
 10
452.3652994594049
 20
280.5234359610064
 30
0.0
 10
452.3608881752926
 20
280.4655837065548
 30
0.0
 10
452.3545316900133
 20
280.3792311667644
 30
0.0
 10
452.3489497719703
 20
280.2941451069593
 30
0.0
 10
452.3438826774946
 20
280.2099008252641
 30
0.0
 10
452.3422795317891
 20
280.1819598282294
 30
0.0
 10
452.3392457490812
 20
280.1263598998207
 30
0.0
 10
452.3378158182772
 20
280.0987084638577
 30
0.0
 10
452.3338084873191
 20
280.0166645581942
 30
0.0
 10
452.3315038652175
 20
279.963015481603
 30
0.0
 10
452.3256630911396
 20
279.8051297953286
 30
0.0
 10
452.3231948583834
 20
279.7039399705028
 30
0.0
 10
452.321618878406
 20
279.5582217870141
 30
0.0
 10
452.3214492482241
 20
279.5106638650046
 30
0.0
 10
452.321738942608
 20
279.4408794182012
 30
0.0
 10
452.3219267946609
 20
279.4178441238471
 30
0.0
 10
452.3224839217911
 20
279.3725079890557
 30
0.0
 10
452.3235909899899
 20
279.3055878872906
 30
0.0
 10
452.3255054033188
 20
279.2418929725288
 30
0.0
 10
452.3279566518732
 20
279.1803426102366
 30
0.0
 10
452.3288632913818
 20
279.1601835842586
 30
0.0
 10
452.3308564757831
 20
279.1205842193726
 30
0.0
 10
452.3319431231581
 20
279.101147183458
 30
0.0
 10
452.3378047716209
 20
279.0061299236005
 30
0.0
 10
452.3438736899148
 20
278.9367087724745
 30
0.0
 10
452.3587703216712
 20
278.811099411675
 30
0.0
 10
452.3675140898802
 20
278.755616041811
 30
0.0
 10
452.3800514667859
 20
278.6953476340753
 30
0.0
 10
452.382642287309
 20
278.683740133339
 30
0.0
 10
452.3879709771842
 20
278.661508330582
 30
0.0
 10
452.3961845701998
 20
278.6296308187283
 30
0.0
 10
452.4050551208729
 20
278.602132441566
 30
0.0
 10
452.4143635223321
 20
278.5775526810695
 30
0.0
 10
452.4175393658603
 20
278.5698463163599
 30
0.0
 10
452.4240379502321
 20
278.5554127720126
 30
0.0
 10
452.4273607821835
 20
278.5486873056909
 30
0.0
 10
452.4375052976109
 20
278.5300672608845
 30
0.0
 10
452.4515287533701
 20
278.5093199009263
 30
0.0
 10
452.4665372210598
 20
278.4966504267081
 30
0.0
 10
452.4781647864525
 20
278.4901925779084
 30
0.0
 10
452.4821025678859
 20
278.488547806859
 30
0.0
 10
452.4901029910092
 20
278.4862822187354
 30
0.0
 10
452.4941701471182
 20
278.4856618366529
 30
0.0
 10
452.5147436321893
 20
278.4851468996779
 30
0.0
 10
452.5319827592961
 20
278.4929473257206
 30
0.0
 10
452.5545116597162
 20
278.5130113990462
 30
0.0
 10
452.5590661185524
 20
278.5175430117281
 30
0.0
 10
452.5682382815596
 20
278.5276085033506
 30
0.0
 10
452.5821044945356
 20
278.5442219098306
 30
0.0
 10
452.5962931354891
 20
278.5653600902004
 30
0.0
 10
452.6154993601506
 20
278.5975864769593
 30
0.0
 10
452.6252622416448
 20
278.6157576447322
 30
0.0
 10
452.6449368402237
 20
278.6559093346368
 30
0.0
 10
452.6548614889452
 20
278.6779060056934
 30
0.0
 10
452.6698795044858
 20
278.7137826540861
 30
0.0
 10
452.6749073706205
 20
278.7262222623005
 30
0.0
 10
452.6850070772955
 20
278.7520684819994
 30
0.0
 10
452.6900838221926
 20
278.7654886616414
 30
0.0
 10
452.7053407655249
 20
278.8071037109626
 30
0.0
 10
452.7257395506459
 20
278.8661501610426
 30
0.0
 10
452.7462501665078
 20
278.9322807443289
 30
0.0
 10
452.7616754983212
 20
278.9845626856149
 30
0.0
 10
452.7668257231935
 20
279.0024436353746
 30
0.0
 10
452.7770995930616
 20
279.0389617170258
 30
0.0
 10
452.7924855871724
 20
279.0949238582314
 30
0.0
 10
452.8077974955606
 20
279.1544245130754
 30
0.0
 10
452.8281471891117
 20
279.2369198420801
 30
0.0
 10
452.8383042246489
 20
279.2798203290714
 30
0.0
 10
452.8584000660199
 20
279.3681647298706
 30
0.0
 10
452.8683541705761
 20
279.4136654398138
 30
0.0
 10
452.8831446276573
 20
279.4839089229414
 30
0.0
 10
452.8880513076968
 20
279.5076558036826
 30
0.0
 10
452.8978174558498
 20
279.555818122851
 30
0.0
 10
452.9026816226568
 20
279.5802580333333
 30
0.0
 10
452.9268027476584
 20
279.7037284876075
 30
0.0
 10
452.9454896808466
 20
279.8066644804336
 30
0.0
 10
452.9726011880829
 20
279.9673347982192
 30
0.0
 10
452.9814488035904
 20
280.0217318143451
 30
0.0
 10
452.9987126979241
 20
280.1318550764644
 30
0.0
 10
453.0071379447953
 20
280.1876342868093
 30
0.0
 10
453.0235732041259
 20
280.3006342323487
 30
0.0
 10
453.0315863608848
 20
280.3578888757698
 30
0.0
 10
453.0470680198933
 20
280.472926372055
 30
0.0
 10
453.0545532744141
 20
280.5308206816171
 30
0.0
 10
453.0653981792162
 20
280.6182249216126
 30
0.0
 10
453.0689492568131
 20
280.6474535541134
 30
0.0
 10
453.0759229539489
 20
280.7060995852065
 30
0.0
 10
453.0793454100098
 20
280.735517319039
 30
0.0
 10
453.0893788229631
 20
280.8236985107823
 30
0.0
 10
453.0957703985476
 20
280.8825083869546
 30
0.0
 10
453.1079625875888
 20
281.0001726850946
 30
0.0
 10
453.1137660743262
 20
281.0590579142484
 30
0.0
 10
453.1247648029713
 20
281.176745440461
 30
0.0
 10
453.1351018339002
 20
281.2937711612882
 30
0.0
 10
453.1441306329677
 20
281.409488437382
 30
0.0
 10
453.1504097468586
 20
281.4957838289068
 30
0.0
 10
453.1524217865493
 20
281.5244858425206
 30
0.0
 10
453.1562662827647
 20
281.581509241097
 30
0.0
 10
453.1617688967958
 20
281.6665431776966
 30
0.0
 10
453.1664852319834
 20
281.7500852274837
 30
0.0
 10
453.1720755809743
 20
281.8601500550098
 30
0.0
 10
453.1745241122895
 20
281.91460385622
 30
0.0
 10
453.1786868911277
 20
282.0214072827178
 30
0.0
 10
453.180405971595
 20
282.0738322130514
 30
0.0
 10
453.18244417376
 20
282.1510126431912
 30
0.0
 10
453.1830334188034
 20
282.1764963940319
 30
0.0
 10
453.1840310752226
 20
282.2269763691518
 30
0.0
 10
453.1844397112133
 20
282.2519957629844
 30
0.0
 10
453.1860235430285
 20
282.3754795763487
 30
0.0
 10
453.1858328493503
 20
282.4692390719309
 30
0.0
 10
453.1841909208768
 20
282.557993513688
 30
0.0
  0
SPLINE
  5
1A6
330
1F
100
AcDbEntity
  8
1
100
AcDbSpline
210
0.0
220
0.0
230
1.0
 70
     8
 71
     3
 72
    53
 73
    49
 74
     0
 42
0.000000001
 43
0.0000000001
 40
0.0
 40
0.0
 40
0.0
 40
0.0
 40
0.0624999999999982
 40
0.0624999999999982
 40
0.0937499999999989
 40
0.0937499999999989
 40
0.1249999999999996
 40
0.1562500000000003
 40
0.1562500000000003
 40
0.1875000000000011
 40
0.1875000000000011
 40
0.2500000000000012
 40
0.2500000000000012
 40
0.2812500000000018
 40
0.2812500000000018
 40
0.3125000000000025
 40
0.3437500000000031
 40
0.3437500000000031
 40
0.3750000000000038
 40
0.3750000000000038
 40
0.437500000000005
 40
0.437500000000005
 40
0.4687500000000043
 40
0.4687500000000043
 40
0.5000000000000036
 40
0.5312500000000029
 40
0.5312500000000029
 40
0.5625000000000022
 40
0.5625000000000022
 40
0.6249999999999979
 40
0.6249999999999979
 40
0.6562499999999979
 40
0.6562499999999979
 40
0.6874999999999977
 40
0.7187499999999976
 40
0.7187499999999976
 40
0.7499999999999975
 40
0.7499999999999975
 40
0.812499999999996
 40
0.812499999999996
 40
0.8437499999999964
 40
0.8437499999999964
 40
0.8749999999999968
 40
0.9062499999999971
 40
0.9062499999999971
 40
0.9374999999999971
 40
0.9374999999999971
 40
1.0
 40
1.0
 40
1.0
 40
1.0
 10
453.1841909208777
 20
282.5579935136869
 30
0.0
 10
453.1759042118565
 20
282.6257007130138
 30
0.0
 10
453.1671499872547
 20
282.6900684541142
 30
0.0
 10
453.1533203278733
 20
282.7816319566127
 30
0.0
 10
453.1485870284133
 20
282.811358916791
 30
0.0
 10
453.1389253898828
 20
282.8688916264306
 30
0.0
 10
453.1290691981483
 20
282.9245115858652
 30
0.0
 10
453.1188260051947
 20
282.9763267420538
 30
0.0
 10
453.1083887042907
 20
283.0262335255483
 30
0.0
 10
453.1030654468866
 20
283.0502635705141
 30
0.0
 10
453.0868697649486
 20
283.1191730876642
 30
0.0
 10
453.0757721075893
 20
283.1609012734962
 30
0.0
 10
453.0586750089524
 20
283.2171789974182
 30
0.0
 10
453.0528925244377
 20
283.2349056105319
 30
0.0
 10
453.0412251345863
 20
283.2680853196515
 30
0.0
 10
453.0294548206223
 20
283.2990025394635
 30
0.0
 10
453.0174794163053
 20
283.3254114402838
 30
0.0
 10
453.0054009619319
 20
283.3495550832892
 30
0.0
 10
452.999301541612
 20
283.3605068783775
 30
0.0
 10
452.980926622139
 20
283.3897978771594
 30
0.0
 10
452.9685725946675
 20
283.4046049169072
 30
0.0
 10
452.9498850412568
 20
283.4197173287617
 30
0.0
 10
452.9436207465596
 20
283.423571771051
 30
0.0
 10
452.9310947149626
 20
283.4288570391212
 30
0.0
 10
452.9185696537844
 20
283.4317287359898
 30
0.0
 10
452.9060465281766
 20
283.4297863908404
 30
0.0
 10
452.8935243761508
 20
283.4254226064591
 30
0.0
 10
452.8872547264373
 20
283.4220220168369
 30
0.0
 10
452.8685320641036
 20
283.4082047385665
 30
0.0
 10
452.8561609130741
 20
283.394199334531
 30
0.0
 10
452.8377706919601
 20
283.3659757153043
 30
0.0
 10
452.8316595173253
 20
283.3553438811492
 30
0.0
 10
452.8195495839097
 20
283.3317483540346
 30
0.0
 10
452.807549539205
 20
283.3058263429234
 30
0.0
 10
452.7957686323066
 20
283.2752649052892
 30
0.0
 10
452.7840979391378
 20
283.2423701025996
 30
0.0
 10
452.778309201787
 20
283.2247265868349
 30
0.0
 10
452.7611912640561
 20
283.1685177721462
 30
0.0
 10
452.7501038962203
 20
283.1266874995056
 30
0.0
 10
452.7339606532896
 20
283.0573931067821
 30
0.0
 10
452.7286532499173
 20
283.0331615006808
 30
0.0
 10
452.7182533032044
 20
282.9827264825636
 30
0.0
 10
452.7080651458815
 20
282.930317369659
 30
0.0
 10
452.6982987648176
 20
282.8739768685248
 30
0.0
 10
452.6887442437898
 20
282.81566161411
 30
0.0
 10
452.6840660769701
 20
282.7854679389576
 30
0.0
 10
452.6704191926328
 20
282.6923438631014
 30
0.0
 10
452.6618306925358
 20
282.626864424329
 30
0.0
 10
452.6537508279148
 20
282.5579935136942
 30
0.0
  0
SPLINE
  5
1A7
330
1F
100
AcDbEntity
  8
1
100
AcDbSpline
210
0.0
220
0.0
230
1.0
 70
     8
 71
     3
 72
    27
 73
    23
 74
     0
 42
0.000000001
 43
0.0000000001
 40
0.0
 40
0.0
 40
0.0
 40
0.0
 40
0.062500000000001
 40
0.0937500000000016
 40
0.0937500000000016
 40
0.1250000000000022
 40
0.1250000000000022
 40
0.2500000000000018
 40
0.2500000000000018
 40
0.5000000000000027
 40
0.5000000000000027
 40
0.6250000000000023
 40
0.6250000000000023
 40
0.7500000000000022
 40
0.7500000000000022
 40
0.7812500000000017
 40
0.7812500000000017
 40
0.8125000000000014
 40
0.8125000000000014
 40
0.875000000000001
 40
0.875000000000001
 40
1.0
 40
1.0
 40
1.0
 40
1.0
 10
294.4513734702724
 20
284.3884894943169
 30
0.0
 10
294.3042046105182
 20
284.4315687675624
 30
0.0
 10
294.0821814978
 20
284.4935411742121
 30
0.0
 10
293.8581749368606
 20
284.5513483878622
 30
0.0
 10
293.7083876896531
 20
284.5889392585126
 30
0.0
 10
293.6332470903058
 20
284.6072653774873
 30
0.0
 10
293.2576008017798
 20
284.696197890654
 30
0.0
 10
292.9563463167652
 20
284.7589436180608
 30
0.0
 10
292.050324768146
 20
284.9212790648701
 30
0.0
 10
291.4433027800772
 20
284.9949875330686
 30
0.0
 10
290.5280703874391
 20
285.0511888462459
 30
0.0
 10
290.2222092111709
 20
285.0608607815107
 30
0.0
 10
289.6088748034945
 20
285.0615457346835
 30
0.0
 10
289.3014017775828
 20
285.052560996302
 30
0.0
 10
288.9160150937683
 20
285.0292414707307
 30
0.0
 10
288.8388854381538
 20
285.0239726682103
 30
0.0
 10
288.6845203263075
 20
285.0122125014445
 30
0.0
 10
288.6072527190214
 20
285.0057175908759
 30
0.0
 10
288.3758181937717
 20
284.9844306293114
 30
0.0
 10
288.2218713875272
 20
284.967827490019
 30
0.0
 10
287.7610640604692
 20
284.9107637321356
 30
0.0
 10
287.4552353731647
 20
284.8630562936942
 30
0.0
 10
287.1508086377259
 20
284.8055514946578
 30
0.0
  0
SPLINE
  5
1A8
330
1F
100
AcDbEntity
  8
1
100
AcDbSpline
210
0.0
220
0.0
230
1.0
 70
     8
 71
     3
 72
     8
 73
     4
 74
     0
 42
0.000000001
 43
0.0000000001
 40
0.0
 40
0.0
 40
0.0
 40
0.0
 40
1.0
 40
1.0
 40
1.0
 40
1.0
 10
435.4121819467221
 20
296.5048707372077
 30
0.0
 10
435.8245748918502
 20
296.1999245428487
 30
0.0
 10
436.2242125908612
 20
295.8983938313135
 30
0.0
 10
436.6094505334195
 20
295.6007189544978
 30
0.0
  0
SPLINE
  5
1A9
330
1F
100
AcDbEntity
  8
1
100
AcDbSpline
210
0.0
220
0.0
230
1.0
 70
     8
 71
     3
 72
     8
 73
     4
 74
     0
 42
0.000000001
 43
0.0000000001
 40
0.0
 40
0.0
 40
0.0
 40
0.0
 40
1.0
 40
1.0
 40
1.0
 40
1.0
 10
305.4703759391338
 20
281.2740022749526
 30
0.0
 10
305.4706357249212
 20
281.3029918924693
 30
0.0
 10
305.4708955896822
 20
281.3319817277119
 30
0.0
 10
305.4711555334903
 20
281.360971780882
 30
0.0
  0
SPLINE
  5
1AA
330
1F
100
AcDbEntity
  8
1
100
AcDbSpline
210
0.0
220
0.0
230
1.0
 70
     8
 71
     3
 72
     8
 73
     4
 74
     0
 42
0.000000001
 43
0.0000000001
 40
0.0
 40
0.0
 40
0.0
 40
0.0
 40
1.0
 40
1.0
 40
1.0
 40
1.0
 10
435.4121819467231
 20
296.5048707372087
 30
0.0
 10
434.9991219254651
 20
296.7572774373658
 30
0.0
 10
434.5800410466826
 20
297.0123079674294
 30
0.0
 10
434.1554040591732
 20
297.2697597944898
 30
0.0
  0
SPLINE
  5
1AB
330
1F
100
AcDbEntity
  8
1
100
AcDbSpline
210
0.0
220
0.0
230
1.0
 70
     8
 71
     3
 72
    13
 73
     9
 74
     0
 42
0.000000001
 43
0.0000000001
 40
0.0
 40
0.0
 40
0.0
 40
0.0
 40
0.25
 40
0.25
 40
0.5
 40
0.5
 40
0.75
 40
1.0
 40
1.0
 40
1.0
 40
1.0
 10
287.1508086377107
 20
270.8146529875411
 30
0.0
 10
287.4983094676447
 20
270.7670856829477
 30
0.0
 10
287.8481049128102
 20
270.7234184048652
 30
0.0
 10
288.5515820457767
 20
270.6424078362784
 30
0.0
 10
288.9052647947869
 20
270.6050665786713
 30
0.0
 10
289.6157781879353
 20
270.5354691833254
 30
0.0
 10
290.329440683512
 20
270.470959117199
 30
0.0
 10
291.0477948851424
 20
270.4145109478598
 30
0.0
 10
291.4077076029665
 20
270.3878572827173
 30
0.0
  0
SPLINE
  5
1AC
330
1F
100
AcDbEntity
  8
1
100
AcDbSpline
210
0.0
220
0.0
230
1.0
 70
     8
 71
     3
 72
    44
 73
    40
 74
     0
 42
0.000000001
 43
0.0000000001
 40
0.0
 40
0.0
 40
0.0
 40
0.0
 40
0.1249999999999844
 40
0.1249999999999844
 40
0.2499999999999689
 40
0.2499999999999689
 40
0.3749999999999533
 40
0.3749999999999533
 40
0.4374999999999443
 40
0.4374999999999443
 40
0.4999999999999351
 40
0.4999999999999351
 40
0.5624999999999261
 40
0.5624999999999261
 40
0.6249999999999169
 40
0.6249999999999169
 40
0.6874999999999078
 40
0.6874999999999078
 40
0.7499999999998987
 40
0.7499999999998987
 40
0.7656249999998983
 40
0.7656249999998983
 40
0.7812499999998978
 40
0.7812499999998978
 40
0.8124999999998967
 40
0.8124999999998967
 40
0.8437499999998959
 40
0.8437499999998959
 40
0.874999999999895
 40
0.874999999999895
 40
0.8906249999998946
 40
0.8906249999998946
 40
0.9062499999998939
 40
0.9062499999998939
 40
0.9374999999999293
 40
0.9374999999999293
 40
0.9687499999999648
 40
0.9687499999999648
 40
1.0
 40
1.0
 40
1.0
 40
1.0
 10
434.1554040591777
 20
297.2697597944879
 30
0.0
 10
434.1124856458671
 20
297.2957806646578
 30
0.0
 10
434.0704916410445
 20
297.3228759360981
 30
0.0
 10
433.9885075416221
 20
297.3794139678187
 30
0.0
 10
433.9485148480958
 20
297.4088537380378
 30
0.0
 10
433.8708338905742
 20
297.4704446842738
 30
0.0
 10
433.8331389478741
 20
297.5025882261619
 30
0.0
 10
433.7787552095873
 20
297.5533438704147
 30
0.0
 10
433.7609896583353
 20
297.5706887551234
 30
0.0
 10
433.7263083855328
 20
297.6063765708767
 30
0.0
 10
433.7094015797526
 20
297.6247131185897
 30
0.0
 10
433.6768570231658
 20
297.662307019036
 30
0.0
 10
433.6611886603876
 20
297.6815913087078
 30
0.0
 10
433.6313552691642
 20
297.7213674405849
 30
0.0
 10
433.6171566475001
 20
297.7419145089031
 30
0.0
 10
433.5910803480699
 20
297.7840267251869
 30
0.0
 10
433.5791557854961
 20
297.8056307532339
 30
0.0
 10
433.5583512703003
 20
297.8503238395851
 30
0.0
 10
433.5494420930685
 20
297.8733990887974
 30
0.0
 10
433.5412310469168
 20
297.9036565440448
 30
0.0
 10
433.539738785056
 20
297.9097804426586
 30
0.0
 10
433.5371004051598
 20
297.9221949626307
 30
0.0
 10
433.5359516908583
 20
297.928507512905
 30
0.0
 10
433.5331465376878
 20
297.9474945876004
 30
0.0
 10
433.5321117449311
 20
297.960253487778
 30
0.0
 10
433.5321522672177
 20
297.9860219481234
 30
0.0
 10
433.5332599445449
 20
297.9991497399341
 30
0.0
 10
433.5380520617541
 20
298.024782165548
 30
0.0
 10
433.5417162715335
 20
298.0373521128737
 30
0.0
 10
433.5494295745803
 20
298.0557730910358
 30
0.0
 10
433.5523984093868
 20
298.0618854489062
 30
0.0
 10
433.5589903649617
 20
298.0736851067107
 30
0.0
 10
433.5626054142172
 20
298.0793732793057
 30
0.0
 10
433.5743708473107
 20
298.0958267900616
 30
0.0
 10
433.5834770617188
 20
298.106016140667
 30
0.0
 10
433.6038365139924
 20
298.1247226293694
 30
0.0
 10
433.6147617641104
 20
298.1329655492179
 30
0.0
 10
433.6377701304518
 20
298.1477265761083
 30
0.0
 10
433.6498556945888
 20
298.1542410417211
 30
0.0
 10
433.6624154866715
 20
298.1600489524896
 30
0.0
  0
SPLINE
  5
1AD
330
1F
100
AcDbEntity
  8
1
100
AcDbSpline
210
0.0
220
0.0
230
1.0
 70
     8
 71
     3
 72
    20
 73
    16
 74
     0
 42
0.000000001
 43
0.0000000001
 40
0.0
 40
0.0
 40
0.0
 40
0.0
 40
0.1250000000000014
 40
0.1250000000000014
 40
0.2500000000000029
 40
0.2500000000000029
 40
0.500000000000018
 40
0.500000000000018
 40
0.6250000000000194
 40
0.6250000000000194
 40
0.6875000000000205
 40
0.6875000000000205
 40
0.7500000000000214
 40
0.7500000000000214
 40
1.0
 40
1.0
 40
1.0
 40
1.0
 10
436.7098658466656
 20
292.6658058410706
 30
0.0
 10
436.525008205175
 20
292.7499845997262
 30
0.0
 10
436.3383419787036
 20
292.8366459055061
 30
0.0
 10
435.9618302577843
 20
293.0143325268664
 30
0.0
 10
435.7719837008866
 20
293.1053593008128
 30
0.0
 10
435.1981901613286
 20
293.3842786791719
 30
0.0
 10
434.8100117291375
 20
293.5779795662925
 30
0.0
 10
434.2207913298786
 20
293.8780745634992
 30
0.0
 10
434.0232193556369
 20
293.9797056014567
 30
0.0
 10
433.7252574287219
 20
294.1343538354563
 30
0.0
 10
433.6256691939948
 20
294.1862705564841
 30
0.0
 10
433.4259786297176
 20
294.2908096687966
 30
0.0
 10
433.3258133486766
 20
294.343465533891
 30
0.0
 10
432.8252619004772
 20
294.6076421341882
 30
0.0
 10
432.4247362860814
 20
294.8223377904449
 30
0.0
 10
432.0241408946436
 20
295.0398048174929
 30
0.0
  0
SPLINE
  5
1AE
330
1F
100
AcDbEntity
  8
1
100
AcDbSpline
210
0.0
220
0.0
230
1.0
 70
     8
 71
     3
 72
    34
 73
    30
 74
     0
 42
0.000000001
 43
0.0000000001
 40
0.0
 40
0.0
 40
0.0
 40
0.0
 40
0.0606257653804702
 40
0.0606257653804702
 40
0.1328853218896646
 40
0.1328853218896646
 40
0.2051448783988593
 40
0.2051448783988593
 40
0.2774044349080541
 40
0.2774044349080541
 40
0.3496639914172485
 40
0.3496639914172485
 40
0.4219235479264432
 40
0.4219235479264432
 40
0.4941831044356379
 40
0.4941831044356379
 40
0.5664426609448324
 40
0.5664426609448324
 40
0.6387022174540271
 40
0.6387022174540271
 40
0.7109617739632215
 40
0.7109617739632215
 40
0.7832213304724162
 40
0.7832213304724162
 40
0.8554808869816108
 40
0.8554808869816108
 40
0.9277404434908051
 40
0.9277404434908051
 40
1.0
 40
1.0
 40
1.0
 40
1.0
 10
358.8874106650907
 20
273.4537588284159
 30
0.0
 10
357.9004886331946
 20
273.3261211081044
 30
0.0
 10
356.9135835671924
 20
273.2021843988658
 30
0.0
 10
354.7502872679723
 20
272.9387665911938
 30
0.0
 10
353.5738586408426
 20
272.8008934736011
 30
0.0
 10
351.2211948340298
 20
272.5347022774641
 30
0.0
 10
350.0449615875528
 20
272.4063813049285
 30
0.0
 10
347.6930210882564
 20
272.1584968616777
 30
0.0
 10
346.517314564024
 20
272.0389339336249
 30
0.0
 10
344.1666925623421
 20
271.8081730602544
 30
0.0
 10
342.9917776128556
 20
271.6969764349718
 30
0.0
 10
340.6429194176684
 20
271.4829273403696
 30
0.0
 10
339.4689764740391
 20
271.3800768999582
 30
0.0
 10
337.1221460165779
 20
271.1830204704751
 30
0.0
 10
335.9492585701036
 20
271.088817081619
 30
0.0
 10
333.6045203430667
 20
270.9096061312605
 30
0.0
 10
332.4326694042828
 20
270.8246015429528
 30
0.0
 10
330.0898843549029
 20
270.6645062224983
 30
0.0
 10
328.9189498866849
 20
270.5894185989183
 30
0.0
 10
326.5777847221987
 20
270.4499497088677
 30
0.0
 10
325.4075535088694
 20
270.3855714389111
 30
0.0
 10
323.0675018671492
 20
270.2682956904336
 30
0.0
 10
321.8976808110608
 20
270.2154008694749
 30
0.0
 10
319.55809393429
 20
270.1217627204618
 30
0.0
 10
318.3883274273122
 20
270.0810215293873
 30
0.0
 10
316.0484514508322
 20
270.0121850318143
 30
0.0
 10
314.8783412864635
 20
269.9840912204976
 30
0.0
 10
312.537358058141
 20
269.9408126685483
 30
0.0
 10
311.3664843346236
 20
269.9256287251456
 30
0.0
 10
310.195018563705
 20
269.9168980347151
 30
0.0
  0
SPLINE
  5
1AF
330
1F
100
AcDbEntity
  8
1
100
AcDbSpline
210
0.0
220
0.0
230
1.0
 70
     8
 71
     3
 72
    32
 73
    28
 74
     0
 42
0.000000001
 43
0.0000000001
 40
0.0
 40
0.0
 40
0.0
 40
0.0
 40
0.1218509162690695
 40
0.1218509162690695
 40
0.2437018325381389
 40
0.2437018325381389
 40
0.3655527488072085
 40
0.3655527488072085
 40
0.4874036650762779
 40
0.4874036650762779
 40
0.5483291232108125
 40
0.5483291232108125
 40
0.6092545813453471
 40
0.6092545813453471
 40
0.6701800394798815
 40
0.6701800394798815
 40
0.7311054976144157
 40
0.7311054976144157
 40
0.7920309557489496
 40
0.7920309557489496
 40
0.8529564138834835
 40
0.8529564138834835
 40
0.9138818720180175
 40
0.9138818720180175
 40
0.9748073301525513
 40
0.9748073301525513
 40
1.0
 40
1.0
 40
1.0
 40
1.0
 10
311.5201508455623
 20
270.0357069598223
 30
0.0
 10
313.0433689491824
 20
270.174776275234
 30
0.0
 10
314.5660108425416
 20
270.3277232596734
 30
0.0
 10
317.6118581699029
 20
270.6577820807602
 30
0.0
 10
319.135068209263
 20
270.8348921386076
 30
0.0
 10
322.1837650280319
 20
271.2078965215163
 30
0.0
 10
323.7092579302904
 20
271.4037769688088
 30
0.0
 10
326.7640638982904
 20
271.807352715694
 30
0.0
 10
328.2933843225166
 20
272.0150147899087
 30
0.0
 10
330.5911072039977
 20
272.3294589802815
 30
0.0
 10
331.3575928686099
 20
272.4347558307904
 30
0.0
 10
332.891481131945
 20
272.6453115988949
 30
0.0
 10
333.6589329320751
 20
272.7505751693416
 30
0.0
 10
335.1949198347745
 20
272.9602072300605
 30
0.0
 10
335.9634551033654
 20
273.0645735769988
 30
0.0
 10
337.5016347031029
 20
273.2716923782875
 30
0.0
 10
338.2712791183207
 20
273.3744428531091
 30
0.0
 10
339.8116562561908
 20
273.5778257777051
 30
0.0
 10
340.5823889529669
 20
273.6784567261618
 30
0.0
 10
342.1248744118193
 20
273.8773645964043
 30
0.0
 10
342.8966270253079
 20
273.9756407760182
 30
0.0
 10
344.4410391754447
 20
274.169905901159
 30
0.0
 10
345.2136984505796
 20
274.2658950151374
 30
0.0
 10
346.7597720951152
 20
274.4559646231685
 30
0.0
 10
347.5331861222223
 20
274.5500461561243
 30
0.0
 10
348.6268122781694
 20
274.6821563923239
 30
0.0
 10
348.9467873105114
 20
274.7206980804459
 30
0.0
 10
349.2668022306258
 20
274.7591666127306
 30
0.0
  0
SPLINE
  5
1B0
330
1F
100
AcDbEntity
  8
1
100
AcDbSpline
210
0.0
220
0.0
230
1.0
 70
     8
 71
     3
 72
    27
 73
    23
 74
     0
 42
0.000000001
 43
0.0000000001
 40
0.0
 40
0.0
 40
0.0
 40
0.0
 40
0.1250000000000013
 40
0.1250000000000013
 40
0.2500000000000024
 40
0.2500000000000024
 40
0.3750000000000035
 40
0.3750000000000035
 40
0.5000000000000047
 40
0.5000000000000047
 40
0.5312500000000047
 40
0.5468750000000044
 40
0.5468750000000044
 40
0.5625000000000041
 40
0.5625000000000041
 40
0.6250000000000035
 40
0.6250000000000035
 40
0.7500000000000023
 40
0.7500000000000023
 40
0.875000000000001
 40
0.875000000000001
 40
1.0
 40
1.0
 40
1.0
 40
1.0
 10
279.4048419452957
 20
280.2172112563468
 30
0.0
 10
279.6602592260712
 20
280.5059573236589
 30
0.0
 10
279.9247279716019
 20
280.7826457653775
 30
0.0
 10
280.4711556796129
 20
281.3134803738512
 30
0.0
 10
280.7531196361356
 20
281.5676163013117
 30
0.0
 10
281.3345999971936
 20
282.0538906510819
 30
0.0
 10
281.6341161458383
 20
282.2860270222368
 30
0.0
 10
282.2513507255211
 20
282.7280320137571
 30
0.0
 10
282.5690644821291
 20
282.9379047285159
 30
0.0
 10
282.9784033147527
 20
283.1856280130638
 30
0.0
 10
283.1021225187058
 20
283.2588451902939
 30
0.0
 10
283.2272503349886
 20
283.3303816820099
 30
0.0
 10
283.3109859233049
 20
283.3776952256899
 30
0.0
 10
283.3530321277808
 20
283.4011740603796
 30
0.0
 10
283.5636189250875
 20
283.5173697691743
 30
0.0
 10
283.7334830058858
 20
283.606643331107
 30
0.0
 10
284.2473170840234
 20
283.8633031879977
 30
0.0
 10
284.5955148036238
 20
284.019566897447
 30
0.0
 10
285.3038149578978
 20
284.3009597068272
 30
0.0
 10
285.6639124114055
 20
284.4261018172193
 30
0.0
 10
286.3971370577055
 20
284.6424424467786
 30
0.0
 10
286.7702546055231
 20
284.7336666021806
 30
0.0
 10
287.1508086377259
 20
284.8055514946578
 30
0.0
  0
SPLINE
  5
1B1
330
1F
100
AcDbEntity
  8
1
100
AcDbSpline
210
0.0
220
0.0
230
1.0
 70
     8
 71
     3
 72
    28
 73
    24
 74
     0
 42
0.000000001
 43
0.0000000001
 40
0.0
 40
0.0
 40
0.0
 40
0.0
 40
0.1250000000000091
 40
0.1250000000000091
 40
0.2500000000000182
 40
0.2500000000000182
 40
0.312500000000023
 40
0.312500000000023
 40
0.3750000000000278
 40
0.3750000000000278
 40
0.4999999999999986
 40
0.4999999999999986
 40
0.6249999999999694
 40
0.6249999999999694
 40
0.6874999999999548
 40
0.6874999999999548
 40
0.7187499999999672
 40
0.7187499999999672
 40
0.7499999999999796
 40
0.7499999999999796
 40
0.8749999999999896
 40
0.8749999999999896
 40
1.0
 40
1.0
 40
1.0
 40
1.0
 10
445.286582374122
 20
294.8088625211028
 30
0.0
 10
445.2113300021848
 20
294.7630614079775
 30
0.0
 10
445.1345888940916
 20
294.7215711504652
 30
0.0
 10
444.9779448513893
 20
294.6467587032782
 30
0.0
 10
444.8980453505352
 20
294.613439630825
 30
0.0
 10
444.7756203181843
 20
294.5695861036656
 30
0.0
 10
444.7343816161035
 20
294.5559922832197
 30
0.0
 10
444.6509927654195
 20
294.5308908763172
 30
0.0
 10
444.6088194378151
 20
294.5193849381607
 30
0.0
 10
444.4821714537046
 20
294.4883780309789
 30
0.0
 10
444.3971489668213
 20
294.4722419916953
 30
0.0
 10
444.225804631502
 20
294.4490708525914
 30
0.0
 10
444.1394805900791
 20
294.4420395233087
 30
0.0
 10
444.0089514263724
 20
294.4385493833809
 30
0.0
 10
443.9652683510716
 20
294.4385638406936
 30
0.0
 10
443.8994809640997
 20
294.4403936339747
 30
0.0
 10
443.8775257548128
 20
294.4413057571035
 30
0.0
 10
443.833837117715
 20
294.4437167341993
 30
0.0
 10
443.8120653998276
 20
294.4452164151301
 30
0.0
 10
443.7035507191753
 20
294.4541615700911
 30
0.0
 10
443.6178399035653
 20
294.4659298384481
 30
0.0
 10
443.4480989726639
 20
294.4983428622092
 30
0.0
 10
443.364067411744
 20
294.5189865569174
 30
0.0
 10
443.2806316371063
 20
294.5441259081526
 30
0.0
  0
SPLINE
  5
1B2
330
1F
100
AcDbEntity
  8
1
100
AcDbSpline
210
0.0
220
0.0
230
1.0
 70
     8
 71
     3
 72
    27
 73
    23
 74
     0
 42
0.000000001
 43
0.0000000001
 40
0.0
 40
0.0
 40
0.0
 40
0.0
 40
0.1249999999999882
 40
0.2499999999999767
 40
0.3749999999999651
 40
0.4062499999999621
 40
0.4062499999999621
 40
0.4374999999999594
 40
0.4374999999999594
 40
0.4999999999999653
 40
0.4999999999999653
 40
0.624999999999977
 40
0.624999999999977
 40
0.6874999999999771
 40
0.6874999999999771
 40
0.7187499999999773
 40
0.7187499999999773
 40
0.7499999999999774
 40
0.7499999999999774
 40
0.8749999999999886
 40
0.8749999999999886
 40
1.0
 40
1.0
 40
1.0
 40
1.0
 10
443.2823956729576
 20
294.2115457353149
 30
0.0
 10
442.9907947639556
 20
294.2013021810506
 30
0.0
 10
442.4092526476008
 20
294.2008890340995
 30
0.0
 10
441.5418320264614
 20
294.2594077187304
 30
0.0
 10
440.8949254900598
 20
294.3474812512416
 30
0.0
 10
440.5368183722564
 20
294.4119120836697
 30
0.0
 10
440.393679106556
 20
294.4389329369836
 30
0.0
 10
440.3221939064673
 20
294.4530616861674
 30
0.0
 10
440.1083894949307
 20
294.4972193279002
 30
0.0
 10
439.9665690587749
 20
294.5290473698092
 30
0.0
 10
439.5432421237207
 20
294.6316475775154
 30
0.0
 10
439.2638674014837
 20
294.7095276969614
 30
0.0
 10
438.8490649785015
 20
294.8405066640947
 30
0.0
 10
438.7115080974371
 20
294.8865281628601
 30
0.0
 10
438.5062439174465
 20
294.9591138617166
 30
0.0
 10
438.437968658065
 20
294.9839138510192
 30
0.0
 10
438.301997171498
 20
295.0346184727266
 30
0.0
 10
438.2342904826352
 20
295.0605260809078
 30
0.0
 10
437.8971467416678
 20
295.1928259740853
 30
0.0
 10
437.6318736590615
 20
295.3074947122141
 30
0.0
 10
437.1101518647441
 20
295.5542641263822
 30
0.0
 10
436.8537031273178
 20
295.6863653190094
 30
0.0
 10
436.6017023233117
 20
295.8271816593986
 30
0.0
  0
SPLINE
  5
1B3
330
1F
100
AcDbEntity
  8
1
100
AcDbSpline
210
0.0
220
0.0
230
1.0
 70
     8
 71
     3
 72
    27
 73
    23
 74
     0
 42
0.000000001
 43
0.0000000001
 40
0.0
 40
0.0
 40
0.0
 40
0.0
 40
0.1250000000000109
 40
0.1250000000000109
 40
0.2500000000000218
 40
0.2500000000000218
 40
0.3125000000000218
 40
0.3125000000000218
 40
0.3750000000000218
 40
0.3750000000000218
 40
0.5000000000000106
 40
0.5000000000000106
 40
0.5312500000000049
 40
0.5312500000000049
 40
0.5624999999999992
 40
0.5624999999999992
 40
0.6249999999999992
 40
0.6249999999999992
 40
0.7499999999999995
 40
0.8749999999999998
 40
0.8749999999999998
 40
1.0
 40
1.0
 40
1.0
 40
1.0
 10
436.7304002904031
 20
292.0656303672816
 30
0.0
 10
436.9795571748956
 20
291.9112452262042
 30
0.0
 10
437.2338524333981
 20
291.7663857288462
 30
0.0
 10
437.752635543009
 20
291.4957542407226
 30
0.0
 10
438.0171230249886
 20
291.3699813686917
 30
0.0
 10
438.4215421310731
 20
291.1958479345628
 30
0.0
 10
438.5576956156794
 20
291.1402078392285
 30
0.0
 10
438.8314320227411
 20
291.0342568123253
 30
0.0
 10
438.9691489188168
 20
290.9838849202366
 30
0.0
 10
439.3848309662729
 20
290.8405543381342
 30
0.0
 10
439.6653240013861
 20
290.7553706361792
 30
0.0
 10
440.0201572075341
 20
290.6619162432919
 30
0.0
 10
440.0913349666523
 20
290.643877417812
 30
0.0
 10
440.2341138849071
 20
290.6091086633257
 30
0.0
 10
440.3057639081771
 20
290.5923681601344
 30
0.0
 10
440.5208916081038
 20
290.5442199540285
 30
0.0
 10
440.6645706265985
 20
290.5148741855152
 30
0.0
 10
441.0963790409407
 20
290.4349962443339
 30
0.0
 10
441.6741783009453
 20
290.350227971647
 30
0.0
 10
442.2560326907141
 20
290.3084263759151
 30
0.0
 10
442.8399235509409
 20
290.2882198857424
 30
0.0
 10
443.1328871242121
 20
290.288913235685
 30
0.0
 10
443.4268919851245
 20
290.3006482792839
 30
0.0
  0
SPLINE
  5
1B4
330
1F
100
AcDbEntity
  8
1
100
AcDbSpline
210
0.0
220
0.0
230
1.0
 70
     8
 71
     3
 72
     8
 73
     4
 74
     0
 42
0.000000001
 43
0.0000000001
 40
0.0
 40
0.0
 40
0.0
 40
0.0
 40
1.0
 40
1.0
 40
1.0
 40
1.0
 10
443.2823956729575
 20
294.2115457353148
 30
0.0
 10
443.285953258954
 20
294.2116707086057
 30
0.0
 10
443.2895118646556
 20
294.2117952833543
 30
0.0
 10
443.293071491805
 20
294.2119194588795
 30
0.0
  0
SPLINE
  5
1B5
330
1F
100
AcDbEntity
  8
1
100
AcDbSpline
210
0.0
220
0.0
230
1.0
 70
     8
 71
     3
 72
    34
 73
    30
 74
     0
 42
0.000000001
 43
0.0000000001
 40
0.0
 40
0.0
 40
0.0
 40
0.0
 40
0.0624999999999959
 40
0.0624999999999959
 40
0.1249999999999919
 40
0.1249999999999919
 40
0.1874999999999878
 40
0.1874999999999878
 40
0.2499999999999837
 40
0.2499999999999837
 40
0.3124999999999797
 40
0.3124999999999797
 40
0.3437499999999776
 40
0.3437499999999776
 40
0.3749999999999756
 40
0.3749999999999756
 40
0.4999999999999779
 40
0.4999999999999779
 40
0.6249999999999803
 40
0.6249999999999803
 40
0.6874999999999868
 40
0.6874999999999868
 40
0.7499999999999934
 40
0.7499999999999934
 40
0.8749999999999966
 40
0.8749999999999966
 40
0.9374999999999984
 40
0.9374999999999984
 40
1.0
 40
1.0
 40
1.0
 40
1.0
 10
442.7048419452958
 20
291.6345128070514
 30
0.0
 10
442.566702616975
 20
291.6278645093698
 30
0.0
 10
442.4301435652728
 20
291.6226989614303
 30
0.0
 10
442.159369221312
 20
291.6155611642091
 30
0.0
 10
442.0251587162032
 20
291.6135877121689
 30
0.0
 10
441.758559988049
 20
291.6129889028227
 30
0.0
 10
441.6261745449206
 20
291.6143627688216
 30
0.0
 10
441.3628748629738
 20
291.6205730306705
 30
0.0
 10
441.2319622674173
 20
291.6254089286641
 30
0.0
 10
440.9713642330136
 20
291.6386359035375
 30
0.0
 10
440.8416797889761
 20
291.6470266548557
 30
0.0
 10
440.6479422962173
 20
291.6623412938528
 30
0.0
 10
440.5834681443163
 20
291.6679036018572
 30
0.0
 10
440.4549564002694
 20
291.6799291884064
 30
0.0
 10
440.3909078769763
 20
291.6863928835724
 30
0.0
 10
440.0716499755638
 20
291.7209742999228
 30
0.0
 10
439.8193741856876
 20
291.7558768511536
 30
0.0
 10
439.3201373470926
 20
291.8404237184591
 30
0.0
 10
439.073184029718
 20
291.8900658747924
 30
0.0
 10
438.7063216606515
 20
291.9758890443134
 30
0.0
 10
438.5845478835902
 20
292.0064152284475
 30
0.0
 10
438.3427512266783
 20
292.0711568584452
 30
0.0
 10
438.2226886496223
 20
292.1053785065462
 30
0.0
 10
437.8649238356996
 20
292.2136431111108
 30
0.0
 10
437.6296397638228
 20
292.293278920819
 30
0.0
 10
437.2813153527629
 20
292.424226261346
 30
0.0
 10
437.1659754300136
 20
292.4697926330675
 30
0.0
 10
436.9368061926786
 20
292.5648319034236
 30
0.0
 10
436.8229859972045
 20
292.6142942358449
 30
0.0
 10
436.7098658466654
 20
292.6658058410701
 30
0.0
  0
SPLINE
  5
1BC
330
1F
100
AcDbEntity
  8
1
100
AcDbSpline
210
0.0
220
0.0
230
1.0
 70
     8
 71
     3
 72
    36
 73
    32
 74
     0
 42
0.000000001
 43
0.0000000001
 40
0.0
 40
0.0
 40
0.0
 40
0.0
 40
0.1249999999998546
 40
0.1249999999998546
 40
0.1874999999998152
 40
0.1874999999998152
 40
0.2187499999997956
 40
0.2187499999997956
 40
0.2499999999997759
 40
0.2499999999997759
 40
0.3749999999997008
 40
0.3749999999997008
 40
0.4062499999996946
 40
0.4062499999996946
 40
0.4374999999996886
 40
0.4374999999996886
 40
0.4999999999997214
 40
0.4999999999997214
 40
0.6249999999998341
 40
0.6249999999998341
 40
0.656249999999857
 40
0.656249999999857
 40
0.6874999999998798
 40
0.7499999999998951
 40
0.8124999999999101
 40
0.8124999999999101
 40
0.8437499999999218
 40
0.8437499999999218
 40
0.8749999999999335
 40
0.8749999999999335
 40
1.0
 40
1.0
 40
1.0
 40
1.0
 10
442.6947585857972
 20
307.9203277954607
 30
0.0
 10
442.6435871649363
 20
307.9185427101693
 30
0.0
 10
442.5934804992028
 20
307.9116325767371
 30
0.0
 10
442.5198263109628
 20
307.8940193714946
 30
0.0
 10
442.4955279178503
 20
307.8869305090964
 30
0.0
 10
442.459466009228
 20
307.8744407943577
 30
0.0
 10
442.4474794343561
 20
307.8699550248356
 30
0.0
 10
442.4237938531742
 20
307.8604155214998
 30
0.0
 10
442.4121143669136
 20
307.8553717377034
 30
0.0
 10
442.3545154191937
 20
307.8288129267838
 30
0.0
 10
442.3109679497621
 20
307.8033175886522
 30
0.0
 10
442.2596551706583
 20
307.7662102995554
 30
0.0
 10
442.249550145994
 20
307.7585244972573
 30
0.0
 10
442.2296599943384
 20
307.7426160897482
 30
0.0
 10
442.2198538640322
 20
307.7343734579561
 30
0.0
 10
442.1912078057868
 20
307.7090791300577
 30
0.0
 10
442.1730638072367
 20
307.6914101750793
 30
0.0
 10
442.1214106017105
 20
307.6360538654705
 30
0.0
 10
442.0906528179004
 20
307.5960402047098
 30
0.0
 10
442.0569497180665
 20
307.5420120051074
 30
0.0
 10
442.0504388108338
 20
307.5309834705589
 30
0.0
 10
442.0380370443143
 20
307.5087524907879
 30
0.0
 10
442.0203149854855
 20
307.4750700596333
 30
0.0
 10
441.9951020432704
 20
307.4172830572806
 30
0.0
 10
441.9795049592904
 20
307.369308669615
 30
0.0
 10
441.9695595078408
 20
307.3326593209992
 30
0.0
 10
441.9665369571385
 20
307.320331239311
 30
0.0
 10
441.9610902477067
 20
307.2954467784899
 30
0.0
 10
441.9586644054446
 20
307.2828720802773
 30
0.0
 10
441.9481617178234
 20
307.2200000548991
 30
0.0
 10
441.9448099019148
 20
307.169299742988
 30
0.0
 10
441.9466409342531
 20
307.1181861733757
 30
0.0
  0
SPLINE
  5
1BD
330
1F
100
AcDbEntity
  8
1
100
AcDbSpline
210
0.0
220
0.0
230
1.0
 70
     8
 71
     3
 72
    36
 73
    32
 74
     0
 42
0.000000001
 43
0.0000000001
 40
0.0
 40
0.0
 40
0.0
 40
0.0
 40
0.1249999999998855
 40
0.1249999999998855
 40
0.1874999999998293
 40
0.1874999999998293
 40
0.2187499999998012
 40
0.2187499999998012
 40
0.2499999999997731
 40
0.2499999999997731
 40
0.3749999999997201
 40
0.3749999999997201
 40
0.4062499999996871
 40
0.4062499999996871
 40
0.4374999999996544
 40
0.4374999999996544
 40
0.499999999999632
 40
0.499999999999632
 40
0.6249999999995369
 40
0.6249999999995369
 40
0.6562499999995419
 40
0.6562499999995419
 40
0.6874999999995471
 40
0.7499999999995583
 40
0.8124999999995694
 40
0.8124999999995694
 40
0.8437499999996077
 40
0.8437499999996077
 40
0.8749999999996461
 40
0.8749999999996461
 40
1.0
 40
1.0
 40
1.0
 40
1.0
 10
442.3452266163813
 20
295.9916011394803
 30
0.0
 10
442.3470578129644
 20
295.9404829849474
 30
0.0
 10
442.3540186370642
 20
295.8904240186921
 30
0.0
 10
442.3717143546069
 20
295.8168335068549
 30
0.0
 10
442.3788318092388
 20
295.7925550164368
 30
0.0
 10
442.391366071093
 20
295.7565209454032
 30
0.0
 10
442.3958670062993
 20
295.7445433346803
 30
0.0
 10
442.4054372020403
 20
295.7208748832489
 30
0.0
 10
442.4104964850226
 20
295.7092035502764
 30
0.0
 10
442.4371335398872
 20
295.6516433565218
 30
0.0
 10
442.4626938448533
 20
295.6081205094701
 30
0.0
 10
442.4998852667592
 20
295.5568306408603
 30
0.0
 10
442.5075880431939
 20
295.5467298012579
 30
0.0
 10
442.523530698655
 20
295.5268472134658
 30
0.0
 10
442.531790643891
 20
295.5170444671605
 30
0.0
 10
442.5571368528301
 20
295.4884072444776
 30
0.0
 10
442.5748404366384
 20
295.4702674189843
 30
0.0
 10
442.6303007536064
 20
295.4186217271768
 30
0.0
 10
442.6703839125766
 20
295.3878623278723
 30
0.0
 10
442.7244991912978
 20
295.3541486630388
 30
0.0
 10
442.7355451824285
 20
295.3476352042574
 30
0.0
 10
442.757810726438
 20
295.3352275203231
 30
0.0
 10
442.791544603872
 20
295.3174953520346
 30
0.0
 10
442.8494153855838
 20
295.2922595048633
 30
0.0
 10
442.8974547189658
 20
295.27663769169
 30
0.0
 10
442.9341519807196
 20
295.2666712390243
 30
0.0
 10
442.9464959005171
 20
295.263641278107
 30
0.0
 10
442.9714117656898
 20
295.2581789101504
 30
0.0
 10
442.9840020512543
 20
295.2557448055592
 30
0.0
 10
443.0469506070166
 20
295.2451990654412
 30
0.0
 10
443.0977082134133
 20
295.2418070504848
 30
0.0
 10
443.1488750445758
 20
295.2435919756671
 30
0.0
  0
SPLINE
  5
1BE
330
1F
100
AcDbEntity
  8
1
100
AcDbSpline
210
0.0
220
0.0
230
1.0
 70
     8
 71
     3
 72
    36
 73
    32
 74
     0
 42
0.000000001
 43
0.0000000001
 40
0.0
 40
0.0
 40
0.0
 40
0.0
 40
0.1250000000001293
 40
0.1250000000001293
 40
0.1875000000001606
 40
0.1875000000001606
 40
0.2187500000001759
 40
0.2187500000001759
 40
0.2500000000001912
 40
0.2500000000001912
 40
0.3750000000002505
 40
0.3750000000002505
 40
0.4062500000002787
 40
0.4062500000002787
 40
0.4375000000003067
 40
0.4375000000003067
 40
0.5000000000003105
 40
0.5000000000003105
 40
0.6250000000002713
 40
0.6250000000002713
 40
0.656250000000261
 40
0.656250000000261
 40
0.6875000000002506
 40
0.7500000000001979
 40
0.8125000000001449
 40
0.8125000000001449
 40
0.8437500000001186
 40
0.8437500000001186
 40
0.8750000000000921
 40
0.8750000000000921
 40
1.0
 40
1.0
 40
1.0
 40
1.0
 10
454.287054243654
 20
295.6321408868661
 30
0.0
 10
454.3382256645149
 20
295.6339259721574
 30
0.0
 10
454.3883323302484
 20
295.6408361055896
 30
0.0
 10
454.4619865184882
 20
295.658449310832
 30
0.0
 10
454.4862849116007
 20
295.6655381732304
 30
0.0
 10
454.5223468202233
 20
295.6780278879691
 30
0.0
 10
454.5343333950952
 20
295.6825136574911
 30
0.0
 10
454.5580189762771
 20
295.692053160827
 30
0.0
 10
454.5696984625375
 20
295.6970969446233
 30
0.0
 10
454.6272974102576
 20
295.7236557555429
 30
0.0
 10
454.670844879689
 20
295.7491510936745
 30
0.0
 10
454.722157658793
 20
295.7862583827713
 30
0.0
 10
454.7322626834573
 20
295.7939441850694
 30
0.0
 10
454.7521528351128
 20
295.8098525925785
 30
0.0
 10
454.7619589654188
 20
295.8180952243706
 30
0.0
 10
454.7906050236643
 20
295.843389552269
 30
0.0
 10
454.8087490222143
 20
295.8610585072474
 30
0.0
 10
454.8604022277407
 20
295.9164148168562
 30
0.0
 10
454.8911600115506
 20
295.956428477617
 30
0.0
 10
454.9248631113846
 20
296.0104566772193
 30
0.0
 10
454.9313740186174
 20
296.0214852117679
 30
0.0
 10
454.9437757851369
 20
296.0437161915387
 30
0.0
 10
454.9614978439658
 20
296.0773986226934
 30
0.0
 10
454.9867107861808
 20
296.1351856250461
 30
0.0
 10
455.002307870161
 20
296.1831600127116
 30
0.0
 10
455.0122533216103
 20
296.2198093613275
 30
0.0
 10
455.0152758723127
 20
296.2321374430156
 30
0.0
 10
455.0207225817443
 20
296.2570219038369
 30
0.0
 10
455.0231484240068
 20
296.2695966020494
 30
0.0
 10
455.0336511116278
 20
296.3324686274276
 30
0.0
 10
455.0370029275363
 20
296.3831689393388
 30
0.0
 10
455.0351718951981
 20
296.434282508951
 30
0.0
  0
SPLINE
  5
1BF
330
1F
100
AcDbEntity
  8
1
100
AcDbSpline
210
0.0
220
0.0
230
1.0
 70
     8
 71
     3
 72
    36
 73
    32
 74
     0
 42
0.000000001
 43
0.0000000001
 40
0.0
 40
0.0
 40
0.0
 40
0.0
 40
0.124999999999992
 40
0.124999999999992
 40
0.1874999999999922
 40
0.1874999999999922
 40
0.2187499999999923
 40
0.2187499999999923
 40
0.2499999999999924
 40
0.2499999999999924
 40
0.3749999999999587
 40
0.3749999999999587
 40
0.4062499999999354
 40
0.4062499999999354
 40
0.4374999999999122
 40
0.4374999999999122
 40
0.4999999999999105
 40
0.4999999999999105
 40
0.6249999999999075
 40
0.6249999999999075
 40
0.6562499999999356
 40
0.6562499999999356
 40
0.6874999999999636
 40
0.7500000000000236
 40
0.8125000000000836
 40
0.8125000000000836
 40
0.8437500000000806
 40
0.8437500000000806
 40
0.8750000000000776
 40
0.8750000000000776
 40
1.0
 40
1.0
 40
1.0
 40
1.0
 10
454.6365862130698
 20
307.5608675428464
 30
0.0
 10
454.634755016487
 20
307.6119856973793
 30
0.0
 10
454.627794192387
 20
307.6620446636346
 30
0.0
 10
454.6100984748443
 20
307.7356351754719
 30
0.0
 10
454.6029810202124
 20
307.7599136658899
 30
0.0
 10
454.5904467583583
 20
307.7959477369237
 30
0.0
 10
454.5859458231518
 20
307.8079253476464
 30
0.0
 10
454.5763756274108
 20
307.8315937990778
 30
0.0
 10
454.5713163444287
 20
307.8432651320504
 30
0.0
 10
454.5446792895641
 20
307.9008253258048
 30
0.0
 10
454.5191189845978
 20
307.9443481728566
 30
0.0
 10
454.4819275626919
 20
307.9956380414663
 30
0.0
 10
454.4742247862575
 20
308.0057388810688
 30
0.0
 10
454.4582821307962
 20
308.0256214688609
 30
0.0
 10
454.4500221855601
 20
308.0354242151662
 30
0.0
 10
454.4246759766211
 20
308.0640614378492
 30
0.0
 10
454.4069723928128
 20
308.0822012633424
 30
0.0
 10
454.3515120758448
 20
308.1338469551499
 30
0.0
 10
454.3114289168747
 20
308.1646063544544
 30
0.0
 10
454.2573136381532
 20
308.198320019288
 30
0.0
 10
454.2462676470226
 20
308.2048334780693
 30
0.0
 10
454.2240021030133
 20
308.2172411620036
 30
0.0
 10
454.1902682255793
 20
308.234973330292
 30
0.0
 10
454.1323974438674
 20
308.2602091774634
 30
0.0
 10
454.0843581104855
 20
308.2758309906367
 30
0.0
 10
454.0476608487318
 20
308.2857974433024
 30
0.0
 10
454.0353169289341
 20
308.2888274042197
 30
0.0
 10
454.0104010637614
 20
308.2942897721764
 30
0.0
 10
453.997810778197
 20
308.2967238767675
 30
0.0
 10
453.9348622224346
 20
308.3072696168855
 30
0.0
 10
453.884104616038
 20
308.3106616318419
 30
0.0
 10
453.8329377848754
 20
308.3088767066596
 30
0.0
  0
SPLINE
  5
1C0
330
1F
100
AcDbEntity
  8
1
100
AcDbSpline
210
0.0
220
0.0
230
1.0
 70
    28
 71
     4
 72
    10
 73
     5
 74
     0
 42
0.000000001
 43
0.0000000001
 40
0.0
 40
0.0
 40
0.0
 40
0.0
 40
0.0
 40
1.0
 40
1.0
 40
1.0
 40
1.0
 40
1.0
 10
302.9048419452957
 20
269.9182879611214
 30
0.0
 41
1.005405995360787
 10
302.9048419452957
 20
269.9353291262847
 30
0.0
 41
1.005405995360787
 10
302.9048419452957
 20
269.952370291448
 30
0.0
 41
1.005405995360787
 10
302.9048419452957
 20
269.9694114566114
 30
0.0
 41
1.005405995360787
 10
302.9048419452957
 20
269.9864526217747
 30
0.0
 41
1.005405995360787
  0
SPLINE
  5
1C1
330
1F
100
AcDbEntity
  8
1
100
AcDbSpline
210
0.0
220
0.0
230
1.0
 70
     8
 71
     3
 72
     8
 73
     4
 74
     0
 42
0.000000001
 43
0.0000000001
 40
0.0
 40
0.0
 40
0.0
 40
0.0
 40
1.0
 40
1.0
 40
1.0
 40
1.0
 10
310.1950185637051
 20
269.9168980347151
 30
0.0
 10
310.6366760152098
 20
269.9559304360365
 30
0.0
 10
311.0783811656459
 20
269.9955473986392
 30
0.0
 10
311.5201508456267
 20
270.0357069598256
 30
0.0
  0
SPLINE
  5
1C2
330
1F
100
AcDbEntity
  8
1
100
AcDbSpline
210
0.0
220
0.0
230
1.0
 70
     8
 71
     3
 72
     8
 73
     4
 74
     0
 42
0.000000001
 43
0.0000000001
 40
0.0
 40
0.0
 40
0.0
 40
0.0
 40
1.0
 40
1.0
 40
1.0
 40
1.0
 10
310.195018563705
 20
269.9168980347151
 30
0.0
 10
307.767711323214
 20
269.9042014934206
 30
0.0
 10
305.3378495355825
 20
269.9054833625335
 30
0.0
 10
302.9048419452957
 20
269.9182879611214
 30
0.0
  0
SPLINE
  5
1C3
330
1F
100
AcDbEntity
  8
1
100
AcDbSpline
210
0.0
220
0.0
230
1.0
 70
     8
 71
     3
 72
    12
 73
     8
 74
     0
 42
0.000000001
 43
0.0000000001
 40
0.0
 40
0.0
 40
0.0
 40
0.0
 40
0.25
 40
0.5
 40
0.75
 40
0.75
 40
1.0
 40
1.0
 40
1.0
 40
1.0
 10
300.3166514942705
 20
269.9409541849617
 30
0.0
 10
300.5249593289501
 20
269.9362551634176
 30
0.0
 10
300.9450593239416
 20
269.9289268040006
 30
0.0
 10
301.5860708089087
 20
269.9223888228062
 30
0.0
 10
302.0209828849955
 20
269.9201253482618
 30
0.0
 10
302.4598733447714
 20
269.9186413476013
 30
0.0
 10
302.6813076943083
 20
269.9182879611214
 30
0.0
 10
302.9048419452957
 20
269.9182879611214
 30
0.0
  0
SPLINE
  5
1C4
330
1F
100
AcDbEntity
  8
1
100
AcDbSpline
210
0.0
220
0.0
230
1.0
 70
     8
 71
     3
 72
     8
 73
     4
 74
     0
 42
0.000000001
 43
0.0000000001
 40
0.0
 40
0.0
 40
0.0
 40
0.0
 40
1.0
 40
1.0
 40
1.0
 40
1.0
 10
443.3445429164434
 20
292.7075258135803
 30
0.0
 10
443.131898307125
 20
292.7049205914252
 30
0.0
 10
442.9186552963902
 20
292.7062572823313
 30
0.0
 10
442.7048419452957
 20
292.7116984830494
 30
0.0
  0
SPLINE
  5
1C5
330
1F
100
AcDbEntity
  8
1
100
AcDbSpline
210
0.0
220
0.0
230
1.0
 70
    12
 71
     3
 72
     8
 73
     4
 74
     0
 42
0.000000001
 43
0.0000000001
 40
0.0
 40
0.0
 40
0.0
 40
0.0
 40
1.0
 40
1.0
 40
1.0
 40
1.0
 10
302.9048419452957
 20
269.9864526217747
 30
0.0
 41
1.005405995360787
 10
305.8221309796155
 20
269.9938818763713
 30
0.0
 41
1.004592827711404
 10
308.6912401686083
 20
270.0088541410349
 30
0.0
 41
1.003933554470781
 10
311.5201508456285
 20
270.035706959823
 30
0.0
 41
1.003400973447199
  0
SPLINE
  5
1C6
330
1F
100
AcDbEntity
  8
1
100
AcDbSpline
210
0.0
220
0.0
230
1.0
 70
     8
 71
     3
 72
     8
 73
     4
 74
     0
 42
0.000000001
 43
0.0000000001
 40
0.0
 40
0.0
 40
0.0
 40
0.0
 40
1.0
 40
1.0
 40
1.0
 40
1.0
 10
442.7048419452957
 20
291.6345128070501
 30
0.0
 10
442.9307967031383
 20
291.6341601633352
 30
0.0
 10
443.1560337463378
 20
291.6413738478807
 30
0.0
 10
443.3805149506952
 20
291.6561443894765
 30
0.0
  0
SPLINE
  5
1C7
330
1F
100
AcDbEntity
  8
1
100
AcDbSpline
210
0.0
220
0.0
230
1.0
 70
     8
 71
     3
 72
     8
 73
     4
 74
     0
 42
0.000000001
 43
0.0000000001
 40
0.0
 40
0.0
 40
0.0
 40
0.0
 40
1.0
 40
1.0
 40
1.0
 40
1.0
 10
446.9639693543329
 20
302.4624322044667
 30
0.0
 10
446.9652489294708
 20
302.4734308454567
 30
0.0
 10
446.9668331215778
 20
302.4843625752682
 30
0.0
 10
446.9687202400456
 20
302.495227517525
 30
0.0
  0
SPLINE
  5
1C8
330
1F
100
AcDbEntity
  8
1
100
AcDbSpline
210
0.0
220
0.0
230
1.0
 70
     8
 71
     3
 72
    10
 73
     6
 74
     0
 42
0.000000001
 43
0.0000000001
 40
0.0
 40
0.0
 40
0.0
 40
0.0
 40
0.6628244121380368
 40
0.6628244121380368
 40
1.0
 40
1.0
 40
1.0
 40
1.0
 10
448.2920380643902
 20
303.1434823021405
 30
0.0
 10
448.2915344950428
 20
303.1413108004463
 30
0.0
 10
448.2909497628049
 20
303.1391496809096
 30
0.0
 10
448.2899448468073
 20
303.135906149789
 30
0.0
 10
448.2895867858884
 20
303.1348208142898
 30
0.0
 10
448.2892093685267
 20
303.1337438290583
 30
0.0
  0
SPLINE
  5
1C9
330
1F
100
AcDbEntity
  8
1
100
AcDbSpline
210
0.0
220
0.0
230
1.0
 70
     8
 71
     3
 72
    27
 73
    23
 74
     0
 42
0.000000001
 43
0.0000000001
 40
0.0
 40
0.0
 40
0.0
 40
0.0
 40
0.1249999999998248
 40
0.1249999999998248
 40
0.1874999999997907
 40
0.1874999999997907
 40
0.2499999999997568
 40
0.2499999999997568
 40
0.3749999999997971
 40
0.3749999999997971
 40
0.4374999999998174
 40
0.4374999999998174
 40
0.4999999999998379
 40
0.4999999999998379
 40
0.6249999999998785
 40
0.6249999999998785
 40
0.6874999999998977
 40
0.6874999999998977
 40
0.7499999999999166
 40
0.7499999999999166
 40
0.8749999999999582
 40
1.0
 40
1.0
 40
1.0
 40
1.0
 10
448.3441434899768
 20
300.0608687524098
 30
0.0
 10
448.3149275142601
 20
300.0481473046524
 30
0.0
 10
448.2849895671778
 20
300.0378552221048
 30
0.0
 10
448.2390207148333
 20
300.0260050629838
 30
0.0
 10
448.2235199477789
 20
300.0226557465554
 30
0.0
 10
448.1921561708813
 20
300.0171829171646
 30
0.0
 10
448.1762470970736
 20
300.0150595140882
 30
0.0
 10
448.1287314718689
 20
300.0106465036601
 30
0.0
 10
448.0971200902984
 20
300.0102498512184
 30
0.0
 10
448.049800647903
 20
300.0134120624671
 30
0.0
 10
448.0340438429813
 20
300.0150952504163
 30
0.0
 10
448.0025636400308
 20
300.0197455107747
 30
0.0
 10
447.986768388464
 20
300.0227316681738
 30
0.0
 10
447.940139324415
 20
300.033515255146
 30
0.0
 10
447.9099867108583
 20
300.0431082508224
 30
0.0
 10
447.8661159120555
 20
300.0609947963385
 30
0.0
 10
447.8517197638764
 20
300.0675426348796
 30
0.0
 10
447.8233883743977
 20
300.0818248199683
 30
0.0
 10
447.8094028771386
 20
300.0895903852407
 30
0.0
 10
447.7685188159639
 20
300.1145020316705
 30
0.0
 10
447.7173908953527
 20
300.1516260538539
 30
0.0
 10
447.672742205087
 20
300.1962202080575
 30
0.0
 10
447.6520887939411
 20
300.2204392221132
 30
0.0
  0
SPLINE
  5
1CA
330
1F
100
AcDbEntity
  8
1
100
AcDbSpline
210
0.0
220
0.0
230
1.0
 70
     8
 71
     3
 72
    16
 73
    12
 74
     0
 42
0.000000001
 43
0.0000000001
 40
0.0
 40
0.0
 40
0.0
 40
0.0
 40
0.3587940320785176
 40
0.3587940320785176
 40
0.5381910481177478
 40
0.5381910481177478
 40
0.7175880641569778
 40
0.7175880641569778
 40
0.8969850801962079
 40
0.8969850801962079
 40
1.0
 40
1.0
 40
1.0
 40
1.0
 10
447.6520887939411
 20
300.2204392221132
 30
0.0
 10
447.645621940841
 20
300.2280225121093
 30
0.0
 10
447.6404357168688
 20
300.2365586247367
 30
0.0
 10
447.6348216592546
 20
300.2499682557481
 30
0.0
 10
447.6332925445265
 20
300.2545645854965
 30
0.0
 10
447.6309239187442
 20
300.2640113644754
 30
0.0
 10
447.6301016469124
 20
300.2688160099064
 30
0.0
 10
447.6291810428215
 20
300.2783596551317
 30
0.0
 10
447.6290739910572
 20
300.2831322922841
 30
0.0
 10
447.6294532634729
 20
300.2906462401386
 30
0.0
 10
447.6297096421074
 20
300.2933993040539
 30
0.0
 10
447.6300796653285
 20
300.2961332778914
 30
0.0
  0
SPLINE
  5
1CB
330
1F
100
AcDbEntity
  8
1
100
AcDbSpline
210
0.0
220
0.0
230
1.0
 70
     8
 71
     3
 72
    10
 73
     6
 74
     0
 42
0.000000001
 43
0.0000000001
 40
0.0
 40
0.0
 40
0.0
 40
0.0
 40
0.1325035073422351
 40
0.1325035073422351
 40
1.0
 40
1.0
 40
1.0
 40
1.0
 10
448.3722143031299
 20
300.0795817740354
 30
0.0
 10
448.3711354425806
 20
300.0785474114225
 30
0.0
 10
448.3700308737799
 20
300.0775362663657
 30
0.0
 10
448.3615135988231
 20
300.0700993855917
 30
0.0
 10
448.3532781085672
 20
300.0648462192007
 30
0.0
 10
448.3441434899768
 20
300.0608687524098
 30
0.0
  0
SPLINE
  5
1CC
330
1F
100
AcDbEntity
  8
1
100
AcDbSpline
210
0.0
220
0.0
230
1.0
 70
     8
 71
     3
 72
    10
 73
     6
 74
     0
 42
0.000000001
 43
0.0000000001
 40
0.0
 40
0.0
 40
0.0
 40
0.0
 40
0.6419716905436694
 40
0.6419716905436694
 40
1.0
 40
1.0
 40
1.0
 40
1.0
 10
447.6503919595056
 20
300.3924885040037
 30
0.0
 10
447.6524073711016
 20
300.3815217139046
 30
0.0
 10
447.6525095485756
 20
300.3705383341499
 30
0.0
 10
447.649863455919
 20
300.3536488962981
 30
0.0
 10
447.6483827202718
 20
300.3477853077995
 30
0.0
 10
447.6463724904625
 20
300.3421033513772
 30
0.0
  0
SPLINE
  5
1CD
330
1F
100
AcDbEntity
  8
1
100
AcDbSpline
210
0.0
220
0.0
230
1.0
 70
     8
 71
     3
 72
     8
 73
     4
 74
     0
 42
0.000000001
 43
0.0000000001
 40
0.0
 40
0.0
 40
0.0
 40
0.0
 40
1.0
 40
1.0
 40
1.0
 40
1.0
 10
448.4078301035223
 20
300.1888404179807
 30
0.0
 10
448.4110607068736
 20
300.1980570803677
 30
0.0
 10
448.4156035076128
 20
300.2066809256345
 30
0.0
 10
448.4215301059845
 20
300.2146833724948
 30
0.0
  0
SPLINE
  5
1CE
330
1F
100
AcDbEntity
  8
1
100
AcDbSpline
210
0.0
220
0.0
230
1.0
 70
     8
 71
     3
 72
    20
 73
    16
 74
     0
 42
0.000000001
 43
0.0000000001
 40
0.0
 40
0.0
 40
0.0
 40
0.0
 40
0.1250000000000014
 40
0.1250000000000014
 40
0.2500000000000031
 40
0.2500000000000031
 40
0.3750000000000047
 40
0.3750000000000047
 40
0.5000000000000064
 40
0.5000000000000064
 40
0.6250000000000082
 40
0.6250000000000082
 40
0.75000000000001
 40
0.75000000000001
 40
1.0
 40
1.0
 40
1.0
 40
1.0
 10
447.0685170101676
 20
300.8613953958926
 30
0.0
 10
447.0645014371253
 20
300.8588215198051
 30
0.0
 10
447.0603283922571
 20
300.8565576815898
 30
0.0
 10
447.0516695509797
 20
300.852646086822
 30
0.0
 10
447.0471760820896
 20
300.8510012120998
 30
0.0
 10
447.0380863178823
 20
300.8484092815343
 30
0.0
 10
447.0334646097264
 20
300.8474489654363
 30
0.0
 10
447.0240656163759
 20
300.8462108632759
 30
0.0
 10
447.0192501958857
 20
300.8459356056872
 30
0.0
 10
447.0096910104505
 20
300.8461134023203
 30
0.0
 10
447.0049427643111
 20
300.8465589424528
 30
0.0
 10
446.9955103996826
 20
300.8481702623173
 30
0.0
 10
446.990795553372
 20
300.8493465579406
 30
0.0
 10
446.97697319263
 20
300.8539669038425
 30
0.0
 10
446.9683586640187
 20
300.8583944437168
 30
0.0
 10
446.9603850251989
 20
300.864254029075
 30
0.0
  0
SPLINE
  5
1CF
330
1F
100
AcDbEntity
  8
1
100
AcDbSpline
210
0.0
220
0.0
230
1.0
 70
     8
 71
     3
 72
    10
 73
     6
 74
     0
 42
0.000000001
 43
0.0000000001
 40
0.0
 40
0.0
 40
0.0
 40
0.0
 40
0.5
 40
0.5
 40
1.0
 40
1.0
 40
1.0
 40
1.0
 10
447.0685170101676
 20
300.8613953958926
 30
0.0
 10
447.0776957089038
 20
300.8672786989592
 30
0.0
 10
447.0876210899093
 20
300.8715313544307
 30
0.0
 10
447.1088346617468
 20
300.8766525435625
 30
0.0
 10
447.1196288060733
 20
300.8774140044546
 30
0.0
 10
447.1306269949705
 20
300.8762684043447
 30
0.0
  0
SPLINE
  5
1D0
330
1F
100
AcDbEntity
  8
1
100
AcDbSpline
210
0.0
220
0.0
230
1.0
 70
     8
 71
     3
 72
    24
 73
    20
 74
     0
 42
0.000000001
 43
0.0000000001
 40
0.0
 40
0.0
 40
0.0
 40
0.0
 40
0.1250000000001263
 40
0.1250000000001263
 40
0.2500000000002526
 40
0.2500000000002526
 40
0.3125000000002675
 40
0.3125000000002675
 40
0.3750000000002822
 40
0.3750000000002822
 40
0.5000000000002258
 40
0.5000000000002258
 40
0.6250000000001695
 40
0.6250000000001695
 40
0.7500000000001129
 40
0.7500000000001129
 40
0.8750000000000564
 40
0.8750000000000564
 40
1.0
 40
1.0
 40
1.0
 40
1.0
 10
447.1306269949705
 20
300.8762684043447
 30
0.0
 10
447.1617753683337
 20
300.8730239083388
 30
0.0
 10
447.1924070777333
 20
300.867370859601
 30
0.0
 10
447.2526848192463
 20
300.8512477811075
 30
0.0
 10
447.2823312765036
 20
300.8407801072573
 30
0.0
 10
447.3260384970262
 20
300.821165755087
 30
0.0
 10
447.3403863676783
 20
300.8140077435106
 30
0.0
 10
447.3682948995912
 20
300.7986308252227
 30
0.0
 10
447.3819096876828
 20
300.7903881517703
 30
0.0
 10
447.4217381471748
 20
300.7639963565527
 30
0.0
 10
447.4469803017233
 20
300.7441603081535
 30
0.0
 10
447.4944654155595
 20
300.6999500549286
 30
0.0
 10
447.5160176800894
 20
300.6762304519293
 30
0.0
 10
447.5549929448342
 20
300.6257430976882
 30
0.0
 10
447.5724206997243
 20
300.5989644889036
 30
0.0
 10
447.6030507609234
 20
300.5423335199391
 30
0.0
 10
447.6158103202358
 20
300.5133095650282
 30
0.0
 10
447.6366281332964
 20
300.453917569162
 30
0.0
 10
447.6446838715975
 20
300.4235488601494
 30
0.0
 10
447.6503919595057
 20
300.3924885040037
 30
0.0
  0
SPLINE
  5
1D1
330
1F
100
AcDbEntity
  8
1
100
AcDbSpline
210
0.0
220
0.0
230
1.0
 70
     8
 71
     3
 72
    18
 73
    14
 74
     0
 42
0.000000001
 43
0.0000000001
 40
0.0
 40
0.0
 40
0.0
 40
0.0
 40
0.2499999999999888
 40
0.2499999999999888
 40
0.374999999999986
 40
0.374999999999986
 40
0.4999999999999833
 40
0.4999999999999833
 40
0.6249999999999805
 40
0.6249999999999805
 40
0.7499999999999778
 40
0.7499999999999778
 40
1.0
 40
1.0
 40
1.0
 40
1.0
 10
449.2476362183863
 20
300.3368712234713
 30
0.0
 10
449.2379076727113
 20
300.3350879206906
 30
0.0
 10
449.2280166341569
 20
300.3348940770193
 30
0.0
 10
449.2137628617346
 20
300.3367846769846
 30
0.0
 10
449.2090775267682
 20
300.3377751403996
 30
0.0
 10
449.1998404443798
 20
300.3404816811078
 30
0.0
 10
449.1953363984101
 20
300.3421896246639
 30
0.0
 10
449.1867514824031
 20
300.3461998180082
 30
0.0
 10
449.1826375742303
 20
300.348511457983
 30
0.0
 10
449.1747622517828
 20
300.3537383554637
 30
0.0
 10
449.1709747876405
 20
300.3566806906379
 30
0.0
 10
449.1604497458516
 20
300.3661842717287
 30
0.0
 10
449.1544691795144
 20
300.3734210616889
 30
0.0
 10
449.1495336281039
 20
300.3815651150105
 30
0.0
  0
SPLINE
  5
1D2
330
1F
100
AcDbEntity
  8
1
100
AcDbSpline
210
0.0
220
0.0
230
1.0
 70
     8
 71
     3
 72
    10
 73
     6
 74
     0
 42
0.000000001
 43
0.0000000001
 40
0.0
 40
0.0
 40
0.0
 40
0.0
 40
0.5
 40
0.5
 40
1.0
 40
1.0
 40
1.0
 40
1.0
 10
449.1004390365999
 20
300.4220791119221
 30
0.0
 10
449.1107938175218
 20
300.4183012385185
 30
0.0
 10
449.1201892904946
 20
300.4128565394716
 30
0.0
 10
449.1369103718339
 20
300.3989876159952
 30
0.0
 10
449.1438983388362
 20
300.3908637915841
 30
0.0
 10
449.1495336281039
 20
300.3815651150105
 30
0.0
  0
SPLINE
  5
1D3
330
1F
100
AcDbEntity
  8
1
100
AcDbSpline
210
0.0
220
0.0
230
1.0
 70
     8
 71
     3
 72
    24
 73
    20
 74
     0
 42
0.000000001
 43
0.0000000001
 40
0.0
 40
0.0
 40
0.0
 40
0.0
 40
0.1249999999999323
 40
0.1249999999999323
 40
0.2499999999998644
 40
0.2499999999998644
 40
0.3124999999998758
 40
0.3124999999998758
 40
0.374999999999887
 40
0.374999999999887
 40
0.4999999999999096
 40
0.4999999999999096
 40
0.6249999999999324
 40
0.6249999999999324
 40
0.7499999999999548
 40
0.7499999999999548
 40
0.8749999999999772
 40
0.8749999999999772
 40
1.0
 40
1.0
 40
1.0
 40
1.0
 10
448.4215301059845
 20
300.2146833724948
 30
0.0
 10
448.4403457646919
 20
300.2400893979251
 30
0.0
 10
448.4609518677117
 20
300.2638349131771
 30
0.0
 10
448.505757920798
 20
300.3080442513502
 30
0.0
 10
448.5299560979709
 20
300.3285096320213
 30
0.0
 10
448.5691831224075
 20
300.3565734548044
 30
0.0
 10
448.5826708006661
 20
300.365423354218
 30
0.0
 10
448.6101397534739
 20
300.3819048980497
 30
0.0
 10
448.6241690526528
 20
300.3895714785584
 30
0.0
 10
448.6671421829261
 20
300.4108499686158
 30
0.0
 10
448.697014122552
 20
300.4227676107142
 30
0.0
 10
448.7590485035698
 20
300.4417083059247
 30
0.0
 10
448.7902998627668
 20
300.4484620782463
 30
0.0
 10
448.8532512703804
 20
300.4568464373359
 30
0.0
 10
448.8849635654792
 20
300.4584756686234
 30
0.0
 10
448.9488160127772
 20
300.456516191313
 30
0.0
 10
448.9800261544306
 20
300.4529608468113
 30
0.0
 10
449.0411749793368
 20
300.4410932863283
 30
0.0
 10
449.0711129250818
 20
300.4327785499471
 30
0.0
 10
449.1004390366
 20
300.4220791119221
 30
0.0
  0
SPLINE
  5
1D4
330
1F
100
AcDbEntity
  8
1
100
AcDbSpline
210
0.0
220
0.0
230
1.0
 70
    24
 71
     3
 72
    14
 73
    10
 74
     0
 42
0.000000001
 43
0.0000000001
 40
0.0
 40
0.0
 40
0.0
 40
0.0
 40
0.2618178353180663
 40
0.2618178353180663
 40
0.5236356706361328
 40
0.5236356706361328
 40
0.785453505954199
 40
0.785453505954199
 40
1.0
 40
1.0
 40
1.0
 40
1.0
 10
442.7048419452957
 20
292.7116984830494
 30
0.0
 10
442.7048419452957
 20
292.5264792728531
 30
0.0
 10
442.7048419452957
 20
292.3637578563504
 30
0.0
 10
442.7048419452957
 20
292.0857642864827
 30
0.0
 10
442.7048419452957
 20
291.9704931906232
 30
0.0
 10
442.7048419452957
 20
291.7891405495609
 30
0.0
 10
442.7048419452956
 20
291.7230596942352
 30
0.0
 10
442.7048419452957
 20
291.6484856017335
 30
0.0
 10
442.7048419452957
 20
291.6317492363206
 30
0.0
 10
442.7048419452957
 20
291.6319293599679
 30
0.0
  0
SPLINE
  5
1D5
330
1F
100
AcDbEntity
  8
1
100
AcDbSpline
210
0.0
220
0.0
230
1.0
 70
     8
 71
     3
 72
    28
 73
    24
 74
     0
 42
0.000000001
 43
0.0000000001
 40
0.0
 40
0.0
 40
0.0
 40
0.0
 40
0.1249999999999972
 40
0.1249999999999972
 40
0.2499999999999945
 40
0.2499999999999945
 40
0.3749999999999918
 40
0.3749999999999918
 40
0.4999999999999892
 40
0.4999999999999892
 40
0.6249999999999865
 40
0.6249999999999865
 40
0.6874999999999887
 40
0.6874999999999887
 40
0.749999999999991
 40
0.749999999999991
 40
0.8124999999999932
 40
0.8124999999999932
 40
0.8749999999999953
 40
0.8749999999999953
 40
0.9374999999999978
 40
0.9374999999999978
 40
1.0
 40
1.0
 40
1.0
 40
1.0
 10
436.6094505334195
 20
295.6007189544977
 30
0.0
 10
436.8496710337583
 20
295.4150996269411
 30
0.0
 10
437.0910216967984
 20
295.2386799944184
 30
0.0
 10
437.5761885479309
 20
294.902828815596
 30
0.0
 10
437.8200038394973
 20
294.7434005683049
 30
0.0
 10
438.3104088195191
 20
294.4405677234554
 30
0.0
 10
438.5569969733665
 20
294.2971646406384
 30
0.0
 10
439.0533965037827
 20
294.0257831388923
 30
0.0
 10
439.3032051674089
 20
293.8978046719761
 30
0.0
 10
439.8066956666221
 20
293.6570172144075
 30
0.0
 10
440.0603724119701
 20
293.5442062318092
 30
0.0
 10
440.4445141486304
 20
293.3864545925613
 30
0.0
 10
440.5731838787343
 20
293.3357857738467
 30
0.0
 10
440.8318340040196
 20
293.2383282297099
 30
0.0
 10
440.9617896856262
 20
293.1915368190029
 30
0.0
 10
441.2231997864603
 20
293.1019152261628
 30
0.0
 10
441.3546525470155
 20
293.0590843083687
 30
0.0
 10
441.6194024883443
 20
292.9775251885246
 30
0.0
 10
441.7527897108844
 20
292.9387732980633
 30
0.0
 10
442.0210901409821
 20
292.86581580716
 30
0.0
 10
442.156071796092
 20
292.831582614905
 30
0.0
 10
442.428407367777
 20
292.7679151084669
 30
0.0
 10
442.5657537557933
 20
292.7384767514409
 30
0.0
 10
442.7048419452957
 20
292.7116984830494
 30
0.0
  0
LINE
  5
1EF
330
1F
100
AcDbEntity
  8
4
100
AcDbLine
 10
264.150809
 20
288.907994
 30
0.0
 11
459.604269
 21
288.907994
 31
0.0
  0
LINE
  5
1F0
330
1F
100
AcDbEntity
  8
SK4
100
AcDbLine
 10
210.904842
 20
288.907994
 30
0.0
 11
277.404842
 21
288.907994
 31
0.0
  0
MTEXT
  5
1F6
330
1F
100
AcDbEntity
  8
SK6
100
AcDbMText
 10
304.314982
 20
248.747444
 30
0.0
 40
3.5
 41
0.0
 71
     7
 72
     5
  1
\W0.7147;804D-39-156-S32
  7
cesky
 73
     2
 44
0.8433729999999998
  0
MTEXT
  5
307
330
1F
100
AcDbEntity
  8
2
100
AcDbMText
 10
469.620449
 20
288.586965
 30
0.0
 40
3.5
 41
0.0
 71
     7
 72
     5
  1
\W0.7259;39
  7
cesky
 11
0.0000000000000001
 21
1.0
 31
0.0
 73
     2
 44
0.8433729999999998
  0
MTEXT
  5
308
330
1F
100
AcDbEntity
  8
2
100
AcDbMText
 10
469.620449
 20
281.849465
 30
0.0
 40
3.5
 41
0.0
 71
     7
 72
     5
  1
\W3.0115;\H2.63;%%c\H3.50;
  7
cesky
 11
0.0000000000000001
 21
1.0
 31
0.0
 73
     2
 44
0.8433729999999998
  0
LINE
  5
309
330
1F
100
AcDbEntity
  8
2
100
AcDbLine
 10
457.4048419999999
 20
308.407994
 30
0.0
 11
470.807865
 21
308.407994
 31
0.0
  0
LINE
  5
30A
330
1F
100
AcDbEntity
  8
2
100
AcDbLine
 10
469.807865
 20
308.407994
 30
0.0
 11
469.807865
 21
281.691965
 31
0.0
  0
SOLID
  5
30B
330
1F
100
AcDbEntity
  8
2
100
AcDbTrace
 10
469.807865
 20
308.407994
 30
0.0
 11
470.42501
 21
304.907996
 31
0.0
 12
469.190721
 22
304.9079910000001
 32
0.0
 13
469.190721
 23
304.9079910000001
 33
0.0
  0
MTEXT
  5
30C
330
1F
100
AcDbEntity
  8
2
100
AcDbMText
 10
361.827842
 20
333.821465
 30
0.0
 40
3.5
 41
0.0
 71
     7
 72
     5
  1
\W0.9524;181
  7
cesky
 73
     2
 44
0.8433729999999998
  0
LINE
  5
30D
330
1F
100
AcDbEntity
  8
2
100
AcDbLine
 10
455.4048419999999
 20
308.407994
 30
0.0
 11
455.4048419999999
 21
334.9472990000001
 31
0.0
  0
LINE
  5
30E
330
1F
100
AcDbEntity
  8
2
100
AcDbLine
 10
274.404842
 20
289.907567
 30
0.0
 11
274.404842
 21
334.9472990000001
 31
0.0
  0
LINE
  5
30F
330
1F
100
AcDbEntity
  8
2
100
AcDbLine
 10
455.4048419999999
 20
333.947299
 30
0.0
 11
274.404842
 21
333.947299
 31
0.0
  0
SOLID
  5
310
330
1F
100
AcDbEntity
  8
2
100
AcDbTrace
 10
455.4048419999999
 20
333.947299
 30
0.0
 11
451.904844
 21
333.330154
 31
0.0
 12
451.90484
 22
334.5644430000001
 32
0.0
 13
451.90484
 23
334.5644430000001
 33
0.0
  0
SOLID
  5
311
330
1F
100
AcDbEntity
  8
2
100
AcDbTrace
 10
274.404842
 20
333.947299
 30
0.0
 11
277.90484
 21
334.5644430000001
 31
0.0
 12
277.904844
 22
333.330154
 32
0.0
 13
277.904844
 23
333.330154
 33
0.0
  0
MTEXT
  5
312
330
1F
100
AcDbEntity
  8
2
100
AcDbMText
 10
331.827842
 20
347.267008
 30
0.0
 40
3.5
 41
0.0
 71
     7
 72
     5
  1
\W0.8677;241
  7
cesky
 73
     2
 44
0.8433729999999998
  0
LINE
  5
313
330
1F
100
AcDbEntity
  8
2
100
AcDbLine
 10
455.4048419999999
 20
310.407994
 30
0.0
 11
455.4048419999999
 21
348.392842
 31
0.0
  0
LINE
  5
314
330
1F
100
AcDbEntity
  8
2
100
AcDbLine
 10
214.404842
 20
302.907994
 30
0.0
 11
214.404842
 21
348.392842
 31
0.0
  0
LINE
  5
315
330
1F
100
AcDbEntity
  8
2
100
AcDbLine
 10
455.4048419999999
 20
347.392842
 30
0.0
 11
214.404842
 21
347.392842
 31
0.0
  0
SOLID
  5
316
330
1F
100
AcDbEntity
  8
2
100
AcDbTrace
 10
455.4048419999999
 20
347.392842
 30
0.0
 11
451.904844
 21
346.775697
 31
0.0
 12
451.90484
 22
348.009986
 32
0.0
 13
451.90484
 23
348.009986
 33
0.0
  0
SOLID
  5
317
330
1F
100
AcDbEntity
  8
2
100
AcDbTrace
 10
214.404842
 20
347.392842
 30
0.0
 11
217.90484
 21
348.009986
 31
0.0
 12
217.904844
 22
346.775697
 32
0.0
 13
217.904844
 23
346.775697
 33
0.0
  0
MTEXT
  5
318
330
1F
100
AcDbEntity
  8
2
100
AcDbMText
 10
242.590342
 20
333.821465
 30
0.0
 40
3.5
 41
0.0
 71
     7
 72
     5
  1
\W0.7045;60
  7
cesky
 73
     2
 44
0.8433729999999998
  0
LINE
  5
319
330
1F
100
AcDbEntity
  8
2
100
AcDbLine
 10
274.404842
 20
288.907994
 30
0.0
 11
274.404842
 21
334.9472990000001
 31
0.0
  0
LINE
  5
31A
330
1F
100
AcDbEntity
  8
2
100
AcDbLine
 10
214.404842
 20
302.907994
 30
0.0
 11
214.404842
 21
334.9472990000001
 31
0.0
  0
LINE
  5
31B
330
1F
100
AcDbEntity
  8
2
100
AcDbLine
 10
274.404842
 20
333.947299
 30
0.0
 11
214.404842
 21
333.947299
 31
0.0
  0
SOLID
  5
31C
330
1F
100
AcDbEntity
  8
2
100
AcDbTrace
 10
274.404842
 20
333.947299
 30
0.0
 11
270.904844
 21
333.330154
 31
0.0
 12
270.90484
 22
334.5644430000001
 32
0.0
 13
270.90484
 23
334.5644430000001
 33
0.0
  0
SOLID
  5
31D
330
1F
100
AcDbEntity
  8
2
100
AcDbTrace
 10
214.404842
 20
333.947299
 30
0.0
 11
217.90484
 21
334.5644430000001
 31
0.0
 12
217.904844
 22
333.330154
 32
0.0
 13
217.904844
 23
333.330154
 33
0.0
  0
MTEXT
  5
31E
330
1F
100
AcDbEntity
  8
2
100
AcDbMText
 10
368.812939
 20
319.9926
 30
0.0
 40
3.5
 41
0.0
 71
     7
 72
     5
  1
\W0.7809;167
  7
cesky
 73
     2
 44
0.8433729999999998
  0
LINE
  5
31F
330
1F
100
AcDbEntity
  8
2
100
AcDbLine
 10
455.4048419999999
 20
310.407994
 30
0.0
 11
455.4048419999999
 21
321.118433
 31
0.0
  0
LINE
  5
320
330
1F
100
AcDbEntity
  8
2
100
AcDbLine
 10
288.375035
 20
308.187956
 30
0.0
 11
288.375035
 21
321.118433
 31
0.0
  0
LINE
  5
321
330
1F
100
AcDbEntity
  8
2
100
AcDbLine
 10
455.4048419999999
 20
320.118433
 30
0.0
 11
288.375035
 21
320.118433
 31
0.0
  0
SOLID
  5
322
330
1F
100
AcDbEntity
  8
2
100
AcDbTrace
 10
455.4048419999999
 20
320.118433
 30
0.0
 11
451.904844
 21
319.501288
 31
0.0
 12
451.90484
 22
320.735577
 32
0.0
 13
451.90484
 23
320.735577
 33
0.0
  0
SOLID
  5
323
330
1F
100
AcDbEntity
  8
2
100
AcDbTrace
 10
288.375035
 20
320.118433
 30
0.0
 11
291.875033
 21
320.735577
 31
0.0
 12
291.875038
 22
319.501288
 32
0.0
 13
291.875038
 23
319.501288
 33
0.0
  0
MTEXT
  5
324
330
1F
100
AcDbEntity
  8
SK2
100
AcDbMText
 10
204.480913
 20
290.434244
 30
0.0
 40
3.5
 41
0.0
 71
     7
 72
     5
  1
\W0.7045;32
  7
cesky
 11
0.0000000000000001
 21
1.0
 31
0.0
 73
     2
 44
0.8433729999999998
  0
MTEXT
  5
325
330
1F
100
AcDbEntity
  8
SK2
100
AcDbMText
 10
204.480913
 20
283.696744
 30
0.0
 40
3.5
 41
0.0
 71
     7
 72
     5
  1
\W3.0115;\H2.63;%%c\H3.50;
  7
cesky
 11
0.0000000000000001
 21
1.0
 31
0.0
 73
     2
 44
0.8433729999999998
  0
LINE
  5
326
330
1F
100
AcDbEntity
  8
SK2
100
AcDbLine
 10
216.404842
 20
304.907994
 30
0.0
 11
203.66833
 21
304.907994
 31
0.0
  0
LINE
  5
327
330
1F
100
AcDbEntity
  8
SK2
100
AcDbLine
 10
216.404842
 20
272.907994
 30
0.0
 11
203.66833
 21
272.907994
 31
0.0
  0
LINE
  5
328
330
1F
100
AcDbEntity
  8
SK2
100
AcDbLine
 10
204.66833
 20
304.907994
 30
0.0
 11
204.66833
 21
272.907994
 31
0.0
  0
SOLID
  5
329
330
1F
100
AcDbEntity
  8
SK2
100
AcDbTrace
 10
204.66833
 20
304.907994
 30
0.0
 11
205.285474
 21
301.407996
 31
0.0
 12
204.051185
 22
301.407991
 32
0.0
 13
204.051185
 23
301.407991
 33
0.0
  0
SOLID
  5
32A
330
1F
100
AcDbEntity
  8
SK2
100
AcDbTrace
 10
204.66833
 20
272.907994
 30
0.0
 11
204.051185
 21
276.407991
 31
0.0
 12
205.285474
 22
276.407996
 32
0.0
 13
205.285474
 23
276.407996
 33
0.0
  0
MTEXT
  5
32B
330
1F
100
AcDbEntity
  8
SK2
100
AcDbMText
 10
191.916868
 20
290.434244
 30
0.0
 40
3.5
 41
0.0
 71
     7
 72
     5
  1
\W0.7045;42
  7
cesky
 11
0.0000000000000001
 21
1.0
 31
0.0
 73
     2
 44
0.8433729999999998
  0
MTEXT
  5
32C
330
1F
100
AcDbEntity
  8
SK2
100
AcDbMText
 10
191.916868
 20
283.696744
 30
0.0
 40
3.5
 41
0.0
 71
     7
 72
     5
  1
\W3.0115;\H2.63;%%c\H3.50;
  7
cesky
 11
0.0000000000000001
 21
1.0
 31
0.0
 73
     2
 44
0.8433729999999998
  0
LINE
  5
32D
330
1F
100
AcDbEntity
  8
SK2
100
AcDbLine
 10
274.904842
 20
309.907994
 30
0.0
 11
191.104285
 21
309.907994
 31
0.0
  0
LINE
  5
32E
330
1F
100
AcDbEntity
  8
SK2
100
AcDbLine
 10
274.904842
 20
267.907994
 30
0.0
 11
191.104285
 21
267.907994
 31
0.0
  0
LINE
  5
32F
330
1F
100
AcDbEntity
  8
SK2
100
AcDbLine
 10
192.104285
 20
309.907994
 30
0.0
 11
192.104285
 21
267.907994
 31
0.0
  0
SOLID
  5
330
330
1F
100
AcDbEntity
  8
SK2
100
AcDbTrace
 10
192.104285
 20
309.907994
 30
0.0
 11
192.721429
 21
306.407996
 31
0.0
 12
191.48714
 22
306.407991
 32
0.0
 13
191.48714
 23
306.407991
 33
0.0
  0
SOLID
  5
331
330
1F
100
AcDbEntity
  8
SK2
100
AcDbTrace
 10
192.104285
 20
267.907994
 30
0.0
 11
191.48714
 21
271.4079910000001
 31
0.0
 12
192.721429
 22
271.407996
 32
0.0
 13
192.721429
 23
271.407996
 33
0.0
  0
LINE
  5
332
330
1F
100
AcDbEntity
  8
CUT
100
AcDbLine
 10
454.9489547227034
 20
298.9514815920226
 30
0.0
 11
455.2532685852162
 21
298.4450447125749
 31
0.0
  0
LINE
  5
333
330
1F
100
AcDbEntity
  8
CUT
100
AcDbLine
 10
454.6365862130698
 20
307.6585662292483
 30
0.0
 11
454.9489547227034
 21
298.9514815920226
 31
0.0
  0
LINE
  5
335
330
1F
100
AcDbEntity
  8
CUT
100
AcDbLine
 10
442.6947585857972
 20
307.9980470570311
 30
0.0
 11
453.8329377848754
 21
308.4050962065995
 31
0.0
  0
LINE
  5
337
330
1F
100
AcDbEntity
  8
CUT
100
AcDbLine
 10
455.2532685852162
 20
298.4450447125749
 30
0.0
 11
455.4048419452957
 21
289.7667308204213
 31
0.0
  0
LINE
  5
338
330
1F
100
AcDbEntity
  8
CUT
100
AcDbLine
 10
455.4048419999999
 20
289.766731
 30
0.0
 11
455.4048419999999
 21
288.907994
 31
0.0
  0
LINE
  5
339
330
1F
100
AcDbEntity
  8
CUT
100
AcDbLine
 10
455.4048419999999
 20
288.907994
 30
0.0
 11
441.946641
 21
288.907994
 31
0.0
  0
LINE
  5
33A
330
1F
100
AcDbEntity
  8
CUT
100
AcDbLine
 10
441.946641
 20
288.907994
 30
0.0
 11
441.946641
 21
307.194423
 31
0.0
  0
LINE
  5
33B
330
1F
100
AcDbEntity
  8
CUT
100
AcDbLine
 10
453.8329377848754
 20
308.4050962065995
 30
0.0
 11
453.8329377848754
 21
308.4050962065995
 31
0.0
  0
ARC
  5
33C
330
1F
100
AcDbEntity
  8
CUT
100
AcDbCircle
 10
453.8566629323335
 20
307.624803061219
 30
0.0
 40
0.7806537486938527
100
AcDbArc
 50
2.478807839197411
 51
91.7415661739586
  0
LINE
  5
33D
330
1F
100
AcDbEntity
  8
CUT
100
AcDbLine
 10
441.9466409342531
 20
307.1944233636401
 30
0.0
 11
441.9466409342531
 21
307.1944233636401
 31
0.0
  0
ARC
  5
33E
330
1F
100
AcDbEntity
  8
CUT
100
AcDbCircle
 10
442.7284807279304
 20
307.2166195487237
 30
0.0
 40
0.7821548015639552
100
AcDbArc
 50
92.47103963367761
 51
181.6261723139606
  0
ENDSEC
  0
SECTION
  2
OBJECTS
  0
DICTIONARY
  5
C
330
0
100
AcDbDictionary
281
     1
  3
ACAD_CIP_PREVIOUS_PRODUCT_INFO
350
304
  3
ACAD_COLOR
350
2FF
  3
ACAD_DETAILVIEWSTYLE
350
2FB
  3
ACAD_GROUP
350
D
  3
ACAD_LAYOUT
350
1A
  3
ACAD_MATERIAL
350
43
  3
ACAD_MLEADERSTYLE
350
6B
  3
ACAD_MLINESTYLE
350
17
  3
ACAD_PLOTSETTINGS
350
19
  3
ACAD_PLOTSTYLENAME
350
E
  3
ACAD_SCALELIST
350
47
  3
ACAD_SECTIONVIEWSTYLE
350
2FC
  3
ACAD_TABLESTYLE
350
69
  3
ACAD_VISUALSTYLE
350
2A
  3
ACDB_RECOMPOSE_DATA
350
36A
  3
AcDbVariableDictionary
350
2B8
  0
DICTIONARY
  5
34D
330
10
100
AcDbDictionary
280
     1
281
     1
  3
ADSK_XREC_LAYER_RECONCILED
360
34E
  0
DICTIONARY
  5
34F
330
33F
100
AcDbDictionary
280
     1
281
     1
  3
ADSK_XREC_LAYER_RECONCILED
360
350
  0
DICTIONARY
  5
351
330
340
100
AcDbDictionary
280
     1
281
     1
  3
ADSK_XREC_LAYER_RECONCILED
360
352
  0
DICTIONARY
  5
353
330
341
100
AcDbDictionary
280
     1
281
     1
  3
ADSK_XREC_LAYER_RECONCILED
360
354
  0
DICTIONARY
  5
355
330
343
100
AcDbDictionary
280
     1
281
     1
  3
ADSK_XREC_LAYER_RECONCILED
360
356
  0
DICTIONARY
  5
357
330
344
100
AcDbDictionary
280
     1
281
     1
  3
ADSK_XREC_LAYER_RECONCILED
360
358
  0
DICTIONARY
  5
359
330
346
100
AcDbDictionary
280
     1
281
     1
  3
ADSK_XREC_LAYER_RECONCILED
360
35A
  0
DICTIONARY
  5
35B
330
347
100
AcDbDictionary
280
     1
281
     1
  3
ADSK_XREC_LAYER_RECONCILED
360
35C
  0
DICTIONARY
  5
35D
330
348
100
AcDbDictionary
280
     1
281
     1
  3
ADSK_XREC_LAYER_RECONCILED
360
35E
  0
DICTIONARY
  5
35F
330
349
100
AcDbDictionary
280
     1
281
     1
  3
ADSK_XREC_LAYER_RECONCILED
360
360
  0
DICTIONARY
  5
361
330
34A
100
AcDbDictionary
280
     1
281
     1
  3
ADSK_XREC_LAYER_RECONCILED
360
362
  0
DICTIONARY
  5
363
330
34B
100
AcDbDictionary
280
     1
281
     1
  3
ADSK_XREC_LAYER_RECONCILED
360
364
  0
DICTIONARY
  5
305
330
1F
100
AcDbDictionary
280
     1
281
     1
  3
ACAD_SORTENTS
360
306
  0
XRECORD
  5
304
102
{ACAD_REACTORS
330
C
102
}
330
C
100
AcDbXrecord
280
     1
300
ACD
300
2019
300
87084ACD_2019_0F
  0
DICTIONARY
  5
2FF
102
{ACAD_REACTORS
330
C
102
}
330
C
100
AcDbDictionary
281
     1
  0
DICTIONARY
  5
2FB
102
{ACAD_REACTORS
330
C
102
}
330
C
100
AcDbDictionary
281
     1
  3
Metric50
350
301
  0
DICTIONARY
  5
D
102
{ACAD_REACTORS
330
C
102
}
330
C
100
AcDbDictionary
281
     1
  3
NULOVY_BOD
350
34C
  0
DICTIONARY
  5
1A
102
{ACAD_REACTORS
330
C
102
}
330
C
100
AcDbDictionary
281
     1
  3
Layout1
350
1E
  3
Layout2
350
26
  3
Model
350
22
  0
DICTIONARY
  5
43
102
{ACAD_REACTORS
330
C
102
}
330
C
100
AcDbDictionary
281
     1
  3
ByBlock
350
45
  3
ByLayer
350
44
  3
Global
350
46
  0
DICTIONARY
  5
6B
102
{ACAD_REACTORS
330
C
102
}
330
C
100
AcDbDictionary
281
     1
  3
Standard
350
6C
  0
DICTIONARY
  5
17
102
{ACAD_REACTORS
330
C
102
}
330
C
100
AcDbDictionary
281
     1
  3
Standard
350
18
  0
DICTIONARY
  5
19
102
{ACAD_REACTORS
330
C
102
}
330
C
100
AcDbDictionary
281
     1
  0
ACDBDICTIONARYWDFLT
  5
E
102
{ACAD_REACTORS
330
C
102
}
330
C
100
AcDbDictionary
281
     1
  3
Normal
350
F
100
AcDbDictionaryWithDefault
340
F
  0
DICTIONARY
  5
47
102
{ACAD_REACTORS
330
C
102
}
330
C
100
AcDbDictionary
281
     1
  3
A0
350
48
  3
A1
350
49
  3
A2
350
4A
  3
A3
350
4B
  3
A4
350
4C
  3
A5
350
4D
  3
A6
350
4E
  3
A7
350
4F
  3
A8
350
50
  3
A9
350
51
  3
B0
350
52
  3
B1
350
53
  3
B2
350
54
  3
B3
350
55
  3
B4
350
56
  3
B5
350
57
  3
B6
350
58
  3
B7
350
59
  3
B8
350
5A
  3
B9
350
5B
  3
C0
350
5C
  3
C1
350
5D
  3
C2
350
5E
  3
C3
350
5F
  3
C4
350
60
  3
C5
350
61
  3
C6
350
62
  3
C7
350
63
  3
C8
350
64
  3
C9
350
65
  3
D0
350
66
  3
D1
350
67
  3
D2
350
68
  0
DICTIONARY
  5
2FC
102
{ACAD_REACTORS
330
C
102
}
330
C
100
AcDbDictionary
281
     1
  3
Metric50
350
300
  0
DICTIONARY
  5
69
102
{ACAD_REACTORS
330
C
102
}
330
C
100
AcDbDictionary
281
     1
  3
Standard
350
6A
  0
DICTIONARY
  5
2A
102
{ACAD_REACTORS
330
C
102
}
330
C
100
AcDbDictionary
281
     1
  3
2dWireframe
350
2F
  3
Basic
350
32
  3
Brighten
350
36
  3
ColorChange
350
3A
  3
Conceptual
350
34
  3
Dim
350
35
  3
EdgeColorOff
350
3D
  3
Facepattern
350
39
  3
Flat
350
2B
  3
FlatWithEdges
350
2C
  3
Gouraud
350
2D
  3
GouraudWithEdges
350
2E
  3
Hidden
350
31
  3
JitterOff
350
3B
  3
Linepattern
350
38
  3
OverhangOff
350
3C
  3
Realistic
350
33
  3
Shaded
350
42
  3
Shaded with edges
350
41
  3
Shades of Gray
350
3E
  3
Sketchy
350
3F
  3
Thicken
350
37
  3
Wireframe
350
30
  3
X-Ray
350
40
  0
XRECORD
  5
36A
102
{ACAD_REACTORS
330
C
102
}
330
C
100
AcDbXrecord
280
     1
 90
        1
330
6A
  0
DICTIONARY
  5
2B8
102
{ACAD_REACTORS
330
C
102
}
330
C
100
AcDbDictionary
281
     1
  3
CANNOSCALE
350
2B9
  3
CMLEADERSTYLE
350
2FA
  3
CTABLESTYLE
350
2F9
  3
CVIEWDETAILSTYLE
350
365
  3
CVIEWSECTIONSTYLE
350
366
  3
MSLTSCALE
350
2BA
  3
XCLIPFRAME
350
367
  0
XRECORD
  5
34E
102
{ACAD_REACTORS
330
34D
102
}
330
34D
100
AcDbXrecord
280
     1
290
     1
  0
XRECORD
  5
350
102
{ACAD_REACTORS
330
34F
102
}
330
34F
100
AcDbXrecord
280
     1
290
     1
  0
XRECORD
  5
352
102
{ACAD_REACTORS
330
351
102
}
330
351
100
AcDbXrecord
280
     1
290
     1
  0
XRECORD
  5
354
102
{ACAD_REACTORS
330
353
102
}
330
353
100
AcDbXrecord
280
     1
290
     1
  0
XRECORD
  5
356
102
{ACAD_REACTORS
330
355
102
}
330
355
100
AcDbXrecord
280
     1
290
     1
  0
XRECORD
  5
358
102
{ACAD_REACTORS
330
357
102
}
330
357
100
AcDbXrecord
280
     1
290
     1
  0
XRECORD
  5
35A
102
{ACAD_REACTORS
330
359
102
}
330
359
100
AcDbXrecord
280
     1
290
     1
  0
XRECORD
  5
35C
102
{ACAD_REACTORS
330
35B
102
}
330
35B
100
AcDbXrecord
280
     1
290
     1
  0
XRECORD
  5
35E
102
{ACAD_REACTORS
330
35D
102
}
330
35D
100
AcDbXrecord
280
     1
290
     1
  0
XRECORD
  5
360
102
{ACAD_REACTORS
330
35F
102
}
330
35F
100
AcDbXrecord
280
     1
290
     1
  0
XRECORD
  5
362
102
{ACAD_REACTORS
330
361
102
}
330
361
100
AcDbXrecord
280
     1
290
     1
  0
XRECORD
  5
364
102
{ACAD_REACTORS
330
363
102
}
330
363
100
AcDbXrecord
280
     1
290
     1
  0
SORTENTSTABLE
  5
306
102
{ACAD_REACTORS
330
305
102
}
330
305
100
AcDbSortentsTable
330
1F
331
307
  5
212
331
308
  5
22B
331
309
  5
307
331
30A
  5
308
331
30B
  5
309
331
30C
  5
31A
331
30D
  5
31B
331
30E
  5
31C
331
30F
  5
31D
331
310
  5
31E
331
311
  5
31F
331
312
  5
320
331
313
  5
321
331
314
  5
322
331
315
  5
323
331
316
  5
324
331
317
  5
325
331
318
  5
326
331
319
  5
327
331
31A
  5
328
331
31B
  5
329
331
31C
  5
32A
331
31D
  5
32B
331
31E
  5
32C
331
31F
  5
32D
331
320
  5
32E
331
321
  5
32F
331
322
  5
330
331
323
  5
331
331
324
  5
30C
331
325
  5
30D
331
326
  5
30E
331
327
  5
30F
331
328
  5
310
331
329
  5
311
331
32A
  5
312
331
32B
  5
313
331
32C
  5
314
331
32D
  5
315
331
32E
  5
316
331
32F
  5
317
331
330
  5
318
331
331
  5
319
331
335
  5
338
331
337
  5
33B
331
338
  5
33C
331
339
  5
33D
331
33A
  5
33E
331
33B
  5
335
331
33C
  5
337
331
33D
  5
339
331
33E
  5
33A
  0
ACDBDETAILVIEWSTYLE
  5
301
102
{ACAD_XDICTIONARY
360
39E
102
}
102
{ACAD_REACTORS
330
2FB
102
}
330
2FB
100
AcDbModelDocViewStyle
 70
     0
  3
Metric50
290
     0
100
AcDbDetailViewStyle
 70
     0
 71
     0
 90
        3
 71
     1
340
11
 62
   256
 40
5.0
340
0
 62
   256
 40
5.0
300

 40
0.0
280
     1
 71
     2
340
16
 90
       25
 62
   256
 71
     3
340
11
 62
   256
 40
5.0
 90
        0
 40
15.0
 90
        1
300
%<\AcVar ViewDetailId>% (%<\AcVar ViewScale \f "%sn">%)
 71
     4
340
16
 90
       25
 62
   256
340
16
 90
       25
 62
   256
280
     0
  0
GROUP
  5
34C
102
{ACAD_REACTORS
330
D
102
}
330
D
100
AcDbGroup
300

 70
     0
 71
     1
340
73
  0
LAYOUT
  5
1E
102
{ACAD_REACTORS
330
1A
102
}
330
1A
100
AcDbPlotSettings
  1

  2
none_device
  4

  6

 40
0.0
 41
0.0
 42
0.0
 43
0.0
 44
0.0
 45
0.0
 46
0.0
 47
0.0
 48
0.0
 49
0.0
140
0.0
141
0.0
142
1.0
143
1.0
 70
   688
 72
     0
 73
     0
 74
     5
  7

 75
    16
147
1.0
 76
     0
 77
     2
 78
   300
148
0.0
149
0.0
100
AcDbLayout
  1
Layout1
 70
     1
 71
     1
 10
-0.5
 20
-0.5
 11
5.0
 21
5.0
 12
0.0
 22
0.0
 32
0.0
 14
-0.5
 24
-0.5
 34
-0.5
 15
5.0
 25
5.0
 35
5.0
146
0.0
 13
0.0
 23
0.0
 33
0.0
 16
1.0
 26
0.0
 36
0.0
 17
0.0
 27
1.0
 37
0.0
 76
     0
330
1B
  0
LAYOUT
  5
26
102
{ACAD_REACTORS
330
1A
102
}
330
1A
100
AcDbPlotSettings
  1

  2
none_device
  4

  6

 40
0.0
 41
0.0
 42
0.0
 43
0.0
 44
0.0
 45
0.0
 46
0.0
 47
0.0
 48
0.0
 49
0.0
140
0.0
141
0.0
142
1.0
143
1.0
 70
   688
 72
     0
 73
     0
 74
     5
  7

 75
    16
147
1.0
 76
     0
 77
     2
 78
   300
148
0.0
149
0.0
100
AcDbLayout
  1
Layout2
 70
     1
 71
     2
 10
0.0
 20
0.0
 11
0.0
 21
0.0
 12
0.0
 22
0.0
 32
0.0
 14
0.0
 24
0.0
 34
0.0
 15
0.0
 25
0.0
 35
0.0
146
0.0
 13
0.0
 23
0.0
 33
0.0
 16
1.0
 26
0.0
 36
0.0
 17
0.0
 27
1.0
 37
0.0
 76
     0
330
23
  0
LAYOUT
  5
22
102
{ACAD_REACTORS
330
1A
102
}
330
1A
100
AcDbPlotSettings
  1

  2
none_device
  4
Letter_(8.50_x_11.00_Inches)
  6

 40
6.349999999999999
 41
6.349999999999999
 42
6.350005
 43
6.350005
 44
215.9
 45
279.4
 46
0.0
 47
0.0
 48
0.0
 49
0.0
140
0.0
141
0.0
142
1.0
143
1.0
 70
  1712
 72
     0
 73
     0
 74
     0
  7

 75
     0
147
1.0
 76
     0
 77
     2
 78
   300
148
0.0
149
0.0
100
AcDbLayout
  1
Model
 70
     1
 71
     0
 10
-0.5
 20
-0.5
 11
5.0
 21
5.0
 12
0.0
 22
0.0
 32
0.0
 14
-0.5
 24
-0.5
 34
-0.5
 15
5.0
 25
5.0
 35
5.0
146
0.0
 13
0.0
 23
0.0
 33
0.0
 16
1.0
 26
0.0
 36
0.0
 17
0.0
 27
1.0
 37
0.0
 76
     0
330
1F
331
29
  0
MATERIAL
  5
45
102
{ACAD_XDICTIONARY
360
2EE
102
}
102
{ACAD_REACTORS
330
43
102
}
330
43
100
AcDbMaterial
  1
ByBlock
  0
MATERIAL
  5
44
102
{ACAD_XDICTIONARY
360
2EC
102
}
102
{ACAD_REACTORS
330
43
102
}
330
43
100
AcDbMaterial
  1
ByLayer
  0
MATERIAL
  5
46
102
{ACAD_XDICTIONARY
360
2F0
102
}
102
{ACAD_REACTORS
330
43
102
}
330
43
100
AcDbMaterial
  1
Global
  0
MLEADERSTYLE
  5
6C
102
{ACAD_REACTORS
330
6B
102
}
330
6B
100
AcDbMLeaderStyle
170
     2
171
     1
172
     0
 90
        2
 40
0.0
 41
0.0
173
     1
 91
-1056964608
340
14
 92
       -2
290
     1
 42
0.09
291
     1
 43
0.36
  3
Standard
 44
0.18
300

342
11
174
     1
178
     6
175
     1
176
     0
 93
-1056964608
 45
0.18
292
     0
297
     0
 46
0.18
 94
-1056964608
 47
1.0
 49
1.0
140
1.0
293
     1
141
0.0
294
     1
177
     0
142
1.0
295
     0
296
     0
143
0.125
1001
ACAD_MLEADERVER
1070
     2
  0
MLINESTYLE
  5
18
102
{ACAD_REACTORS
330
17
102
}
330
17
100
AcDbMlineStyle
  2
STANDARD
 70
     0
  3

 62
   256
 51
90.0
 52
90.0
 71
     2
 49
0.5
 62
   256
  6
BYLAYER
 49
-0.5
 62
   256
  6
BYLAYER
  0
ACDBPLACEHOLDER
  5
F
102
{ACAD_REACTORS
330
E
102
}
330
E
  0
SCALE
  5
48
102
{ACAD_REACTORS
330
47
102
}
330
47
100
AcDbScale
 70
     0
300
1:1
140
1.0
141
1.0
290
     1
  0
SCALE
  5
49
102
{ACAD_REACTORS
330
47
102
}
330
47
100
AcDbScale
 70
     0
300
1:2
140
1.0
141
2.0
290
     0
  0
SCALE
  5
4A
102
{ACAD_REACTORS
330
47
102
}
330
47
100
AcDbScale
 70
     0
300
1:4
140
1.0
141
4.0
290
     0
  0
SCALE
  5
4B
102
{ACAD_REACTORS
330
47
102
}
330
47
100
AcDbScale
 70
     0
300
1:5
140
1.0
141
5.0
290
     0
  0
SCALE
  5
4C
102
{ACAD_REACTORS
330
47
102
}
330
47
100
AcDbScale
 70
     0
300
1:8
140
1.0
141
8.0
290
     0
  0
SCALE
  5
4D
102
{ACAD_REACTORS
330
47
102
}
330
47
100
AcDbScale
 70
     0
300
1:10
140
1.0
141
10.0
290
     0
  0
SCALE
  5
4E
102
{ACAD_REACTORS
330
47
102
}
330
47
100
AcDbScale
 70
     0
300
1:16
140
1.0
141
16.0
290
     0
  0
SCALE
  5
4F
102
{ACAD_REACTORS
330
47
102
}
330
47
100
AcDbScale
 70
     0
300
1:20
140
1.0
141
20.0
290
     0
  0
SCALE
  5
50
102
{ACAD_REACTORS
330
47
102
}
330
47
100
AcDbScale
 70
     0
300
1:30
140
1.0
141
30.0
290
     0
  0
SCALE
  5
51
102
{ACAD_REACTORS
330
47
102
}
330
47
100
AcDbScale
 70
     0
300
1:40
140
1.0
141
40.0
290
     0
  0
SCALE
  5
52
102
{ACAD_REACTORS
330
47
102
}
330
47
100
AcDbScale
 70
     0
300
1:50
140
1.0
141
50.0
290
     0
  0
SCALE
  5
53
102
{ACAD_REACTORS
330
47
102
}
330
47
100
AcDbScale
 70
     0
300
1:100
140
1.0
141
100.0
290
     0
  0
SCALE
  5
54
102
{ACAD_REACTORS
330
47
102
}
330
47
100
AcDbScale
 70
     0
300
2:1
140
2.0
141
1.0
290
     0
  0
SCALE
  5
55
102
{ACAD_REACTORS
330
47
102
}
330
47
100
AcDbScale
 70
     0
300
4:1
140
4.0
141
1.0
290
     0
  0
SCALE
  5
56
102
{ACAD_REACTORS
330
47
102
}
330
47
100
AcDbScale
 70
     0
300
8:1
140
8.0
141
1.0
290
     0
  0
SCALE
  5
57
102
{ACAD_REACTORS
330
47
102
}
330
47
100
AcDbScale
 70
     0
300
10:1
140
10.0
141
1.0
290
     0
  0
SCALE
  5
58
102
{ACAD_REACTORS
330
47
102
}
330
47
100
AcDbScale
 70
     0
300
100:1
140
100.0
141
1.0
290
     0
  0
SCALE
  5
59
102
{ACAD_REACTORS
330
47
102
}
330
47
100
AcDbScale
 70
     0
300
1/128" = 1'-0"
140
0.007812
141
12.0
290
     0
  0
SCALE
  5
5A
102
{ACAD_REACTORS
330
47
102
}
330
47
100
AcDbScale
 70
     0
300
1/64" = 1'-0"
140
0.015625
141
12.0
290
     0
  0
SCALE
  5
5B
102
{ACAD_REACTORS
330
47
102
}
330
47
100
AcDbScale
 70
     0
300
1/32" = 1'-0"
140
0.03125
141
12.0
290
     0
  0
SCALE
  5
5C
102
{ACAD_REACTORS
330
47
102
}
330
47
100
AcDbScale
 70
     0
300
1/16" = 1'-0"
140
0.0625
141
12.0
290
     0
  0
SCALE
  5
5D
102
{ACAD_REACTORS
330
47
102
}
330
47
100
AcDbScale
 70
     0
300
3/32" = 1'-0"
140
0.09375
141
12.0
290
     0
  0
SCALE
  5
5E
102
{ACAD_REACTORS
330
47
102
}
330
47
100
AcDbScale
 70
     0
300
1/8" = 1'-0"
140
0.125
141
12.0
290
     0
  0
SCALE
  5
5F
102
{ACAD_REACTORS
330
47
102
}
330
47
100
AcDbScale
 70
     0
300
3/16" = 1'-0"
140
0.1875
141
12.0
290
     0
  0
SCALE
  5
60
102
{ACAD_REACTORS
330
47
102
}
330
47
100
AcDbScale
 70
     0
300
1/4" = 1'-0"
140
0.25
141
12.0
290
     0
  0
SCALE
  5
61
102
{ACAD_REACTORS
330
47
102
}
330
47
100
AcDbScale
 70
     0
300
3/8" = 1'-0"
140
0.375
141
12.0
290
     0
  0
SCALE
  5
62
102
{ACAD_REACTORS
330
47
102
}
330
47
100
AcDbScale
 70
     0
300
1/2" = 1'-0"
140
0.5
141
12.0
290
     0
  0
SCALE
  5
63
102
{ACAD_REACTORS
330
47
102
}
330
47
100
AcDbScale
 70
     0
300
3/4" = 1'-0"
140
0.75
141
12.0
290
     0
  0
SCALE
  5
64
102
{ACAD_REACTORS
330
47
102
}
330
47
100
AcDbScale
 70
     0
300
1" = 1'-0"
140
1.0
141
12.0
290
     0
  0
SCALE
  5
65
102
{ACAD_REACTORS
330
47
102
}
330
47
100
AcDbScale
 70
     0
300
1-1/2" = 1'-0"
140
1.5
141
12.0
290
     0
  0
SCALE
  5
66
102
{ACAD_REACTORS
330
47
102
}
330
47
100
AcDbScale
 70
     0
300
3" = 1'-0"
140
3.0
141
12.0
290
     0
  0
SCALE
  5
67
102
{ACAD_REACTORS
330
47
102
}
330
47
100
AcDbScale
 70
     0
300
6" = 1'-0"
140
6.0
141
12.0
290
     0
  0
SCALE
  5
68
102
{ACAD_REACTORS
330
47
102
}
330
47
100
AcDbScale
 70
     0
300
1'-0" = 1'-0"
140
12.0
141
12.0
290
     0
  0
ACDBSECTIONVIEWSTYLE
  5
300
102
{ACAD_XDICTIONARY
360
39C
102
}
102
{ACAD_REACTORS
330
2FC
102
}
330
2FC
100
AcDbModelDocViewStyle
 70
     0
  3
Metric50
290
     0
100
AcDbSectionViewStyle
 70
     0
 71
     0
 90
      102
 71
     1
340
11
 62
   256
 40
5.0
340
0
340
0
 62
   256
 40
5.0
300
I, O, Q, S, X, Z
 40
10.0
 90
        0
 40
2.5
 90
        0
 71
     2
340
16
 90
       25
 62
   256
340
16
 90
       50
 62
   256
 40
5.0
 40
2.5
 40
5.0
 71
     3
340
11
 62
   256
 40
5.0
 90
        0
 40
15.0
 90
        1
300
%<\AcVar ViewSectionStartId>%-%<\AcVar ViewSectionEndId>% (%<\AcVar ViewScale \f "%sn">%)
 71
     4
 62
   256
 62
   257
300
ANSI31
 40
1.0
 90
        0
290
     0
290
     0
 90
        6
 40
0.0
 40
1.570796326794896
 40
0.2617993877991494
 40
1.308996938995747
 40
-0.2617993877991494
 40
1.832595714594046
  0
TABLESTYLE
  5
6A
102
{ACAD_XDICTIONARY
360
2F2
102
}
102
{ACAD_REACTORS
330
69
102
}
330
69
100
AcDbTableStyle
  3
Standard
 70
     0
 71
     0
 40
0.06
 41
0.06
280
     0
281
     0
  7
Standard
140
0.18
170
     2
 62
     0
 63
     7
283
     0
274
    -2
284
     1
 64
     0
275
    -2
285
     1
 65
     0
276
    -2
286
     1
 66
     0
277
    -2
287
     1
 67
     0
278
    -2
288
     1
 68
     0
279
    -2
289
     1
 69
     0
  7
Standard
140
0.25
170
     5
 62
     0
 63
     7
283
     0
274
    -2
284
     1
 64
     0
275
    -2
285
     1
 65
     0
276
    -2
286
     1
 66
     0
277
    -2
287
     1
 67
     0
278
    -2
288
     1
 68
     0
279
    -2
289
     1
 69
     0
  7
Standard
140
0.18
170
     5
 62
     0
 63
     7
283
     0
274
    -2
284
     1
 64
     0
275
    -2
285
     1
 65
     0
276
    -2
286
     1
 66
     0
277
    -2
287
     1
 67
     0
278
    -2
288
     1
 68
     0
279
    -2
289
     1
 69
     0
  0
VISUALSTYLE
  5
2F
102
{ACAD_XDICTIONARY
360
373
102
}
102
{ACAD_REACTORS
330
2A
102
}
330
2A
100
AcDbVisualStyle
  2

 70
     4
 71
     0
 72
     2
 73
     0
 90
        0
 40
-0.6
 41
-30.0
 62
     5
 63
     7
421
 16777215
 74
     1
 91
        4
 64
     7
 65
   257
 75
     1
175
     1
 42
1.0
 92
        0
 66
   257
 43
1.0
 76
     1
 77
     6
 78
     2
 67
     7
 79
     5
170
     0
171
     0
290
     0
174
     0
 93
        1
 44
0.0
173
     0
291
     0
 45
0.0
1001
ACAD
1000
AcDbSavedByObjectVersion
1070
     0
  0
VISUALSTYLE
  5
32
102
{ACAD_XDICTIONARY
360
379
102
}
102
{ACAD_REACTORS
330
2A
102
}
330
2A
100
AcDbVisualStyle
  2

 70
     7
 71
     1
 72
     0
 73
     1
 90
        0
 40
-0.6
 41
-30.0
 62
     5
 63
     7
421
 16777215
 74
     0
 91
        4
 64
     7
 65
   257
 75
     1
175
     1
 42
1.0
 92
        8
 66
     7
 43
1.0
 76
     1
 77
     6
 78
     2
 67
     7
 79
     5
170
     0
171
     0
290
     0
174
     0
 93
        1
 44
0.0
173
     0
291
     1
 45
0.0
1001
ACAD
1000
AcDbSavedByObjectVersion
1070
     0
  0
VISUALSTYLE
  5
36
102
{ACAD_XDICTIONARY
360
381
102
}
102
{ACAD_REACTORS
330
2A
102
}
330
2A
100
AcDbVisualStyle
  2

 70
    12
 71
     2
 72
     2
 73
     0
 90
        0
 40
-0.6
 41
-30.0
 62
     5
 63
     7
421
 16777215
 74
     1
 91
        4
 64
     7
 65
   257
 75
     1
175
     1
 42
1.0
 92
        8
 66
     7
 43
1.0
 76
     1
 77
     6
 78
     2
 67
     7
 79
     5
170
     0
171
     0
290
     0
174
     0
 93
        1
 44
50.0
173
     0
291
     1
 45
0.0
1001
ACAD
1000
AcDbSavedByObjectVersion
1070
     0
  0
VISUALSTYLE
  5
3A
102
{ACAD_XDICTIONARY
360
389
102
}
102
{ACAD_REACTORS
330
2A
102
}
330
2A
100
AcDbVisualStyle
  2

 70
    16
 71
     2
 72
     2
 73
     3
 90
        0
 40
-0.6
 41
-30.0
 62
     5
 63
     8
421
  8421504
 74
     1
 91
        4
 64
     7
 65
   257
 75
     1
175
     1
 42
1.0
 92
        8
 66
     8
424
  8421504
 43
1.0
 76
     1
 77
     6
 78
     2
 67
     7
 79
     5
170
     0
171
     0
290
     0
174
     0
 93
        1
 44
0.0
173
     0
291
     1
 45
0.0
1001
ACAD
1000
AcDbSavedByObjectVersion
1070
     0
  0
VISUALSTYLE
  5
34
102
{ACAD_XDICTIONARY
360
37D
102
}
102
{ACAD_REACTORS
330
2A
102
}
330
2A
100
AcDbVisualStyle
  2

 70
     9
 71
     3
 72
     2
 73
     0
 90
        0
 40
-0.6
 41
-30.0
 62
     5
 63
     7
421
 16777215
 74
     2
 91
        2
 64
     7
 65
   257
 75
     1
175
     1
 42
179.0
 92
        8
 66
     7
 43
1.0
 76
     1
 77
     6
 78
     2
 67
     7
 79
     3
170
     0
171
     0
290
     0
174
     0
 93
        1
 44
0.0
173
     0
291
     0
 45
0.0
1001
ACAD
1000
AcDbSavedByObjectVersion
1070
     0
  0
VISUALSTYLE
  5
35
102
{ACAD_XDICTIONARY
360
37F
102
}
102
{ACAD_REACTORS
330
2A
102
}
330
2A
100
AcDbVisualStyle
  2

 70
    11
 71
     2
 72
     2
 73
     0
 90
        0
 40
-0.6
 41
-30.0
 62
     5
 63
     7
421
 16777215
 74
     1
 91
        4
 64
     7
 65
   257
 75
     1
175
     1
 42
1.0
 92
        8
 66
     7
 43
1.0
 76
     1
 77
     6
 78
     2
 67
     7
 79
     5
170
     0
171
     0
290
     0
174
     0
 93
        1
 44
-50.0
173
     0
291
     1
 45
0.0
1001
ACAD
1000
AcDbSavedByObjectVersion
1070
     0
  0
VISUALSTYLE
  5
3D
102
{ACAD_XDICTIONARY
360
38F
102
}
102
{ACAD_REACTORS
330
2A
102
}
330
2A
100
AcDbVisualStyle
  2

 70
    22
 71
     2
 72
     2
 73
     0
 90
        0
 40
-0.6
 41
-30.0
 62
     5
 63
     7
421
 16777215
 74
     1
 91
        4
 64
     7
 65
   257
 75
     1
175
     1
 42
1.0
 92
        8
 66
     7
 43
1.0
 76
     1
 77
     6
 78
     2
 67
     7
 79
     5
170
     0
171
     0
290
     0
174
     0
 93
        1
 44
0.0
173
     0
291
     1
 45
0.0
1001
ACAD
1000
AcDbSavedByObjectVersion
1070
     0
  0
VISUALSTYLE
  5
39
102
{ACAD_XDICTIONARY
360
387
102
}
102
{ACAD_REACTORS
330
2A
102
}
330
2A
100
AcDbVisualStyle
  2

 70
    15
 71
     2
 72
     2
 73
     0
 90
        0
 40
-0.6
 41
-30.0
 62
     5
 63
     7
421
 16777215
 74
     1
 91
        4
 64
     7
 65
   257
 75
     1
175
     1
 42
1.0
 92
        8
 66
     7
 43
1.0
 76
     1
 77
     6
 78
     2
 67
     7
 79
     5
170
     0
171
     0
290
     0
174
     0
 93
        1
 44
0.0
173
     0
291
     1
 45
0.0
1001
ACAD
1000
AcDbSavedByObjectVersion
1070
     0
  0
VISUALSTYLE
  5
2B
102
{ACAD_XDICTIONARY
360
36B
102
}
102
{ACAD_REACTORS
330
2A
102
}
330
2A
100
AcDbVisualStyle
  2

 70
     0
 71
     2
 72
     1
 73
     1
 90
        2
 40
-0.6
 41
30.0
 62
     5
 63
     7
421
 16777215
 74
     0
 91
        0
 64
     7
 65
   257
 75
     1
175
     1
 42
1.0
 92
        8
 66
     7
 43
1.0
 76
     1
 77
     6
 78
     2
 67
     7
 79
     5
170
     0
171
     0
290
     0
174
     0
 93
       13
 44
0.0
173
     0
291
     1
 45
0.0
1001
ACAD
1000
AcDbSavedByObjectVersion
1070
     0
  0
VISUALSTYLE
  5
2C
102
{ACAD_XDICTIONARY
360
36D
102
}
102
{ACAD_REACTORS
330
2A
102
}
330
2A
100
AcDbVisualStyle
  2

 70
     1
 71
     2
 72
     1
 73
     1
 90
        2
 40
-0.6
 41
30.0
 62
     5
 63
     7
421
 16777215
 74
     1
 91
        0
 64
     7
 65
   257
 75
     1
175
     1
 42
1.0
 92
        0
 66
   257
 43
1.0
 76
     1
 77
     6
 78
     2
 67
     7
 79
     5
170
     0
171
     0
290
     0
174
     0
 93
       13
 44
0.0
173
     0
291
     1
 45
0.0
1001
ACAD
1000
AcDbSavedByObjectVersion
1070
     0
  0
VISUALSTYLE
  5
2D
102
{ACAD_XDICTIONARY
360
36F
102
}
102
{ACAD_REACTORS
330
2A
102
}
330
2A
100
AcDbVisualStyle
  2

 70
     2
 71
     2
 72
     2
 73
     1
 90
        2
 40
-0.6
 41
30.0
 62
     5
 63
     7
421
 16777215
 74
     0
 91
        0
 64
     7
 65
   257
 75
     1
175
     1
 42
1.0
 92
        0
 66
     7
 43
1.0
 76
     1
 77
     6
 78
     2
 67
     7
 79
     5
170
     0
171
     0
290
     0
174
     0
 93
       13
 44
0.0
173
     0
291
     1
 45
0.0
1001
ACAD
1000
AcDbSavedByObjectVersion
1070
     0
  0
VISUALSTYLE
  5
2E
102
{ACAD_XDICTIONARY
360
371
102
}
102
{ACAD_REACTORS
330
2A
102
}
330
2A
100
AcDbVisualStyle
  2

 70
     3
 71
     2
 72
     2
 73
     1
 90
        2
 40
-0.6
 41
30.0
 62
     5
 63
     7
421
 16777215
 74
     1
 91
        0
 64
     7
 65
   257
 75
     1
175
     1
 42
1.0
 92
        0
 66
   257
 43
1.0
 76
     1
 77
     6
 78
     2
 67
     7
 79
     5
170
     0
171
     0
290
     0
174
     0
 93
       13
 44
0.0
173
     0
291
     1
 45
0.0
1001
ACAD
1000
AcDbSavedByObjectVersion
1070
     0
  0
VISUALSTYLE
  5
31
102
{ACAD_XDICTIONARY
360
377
102
}
102
{ACAD_REACTORS
330
2A
102
}
330
2A
100
AcDbVisualStyle
  2

 70
     6
 71
     1
 72
     2
 73
     2
 90
        0
 40
-0.6
 41
-30.0
 62
     5
 63
     7
421
 16777215
 74
     2
 91
        2
 64
     7
 65
   257
 75
     2
175
     1
 42
40.0
 92
        0
 66
   257
 43
1.0
 76
     1
 77
     6
 78
     2
 67
     7
 79
     3
170
     0
171
     0
290
     0
174
     0
 93
        1
 44
0.0
173
     0
291
     0
 45
0.0
1001
ACAD
1000
AcDbSavedByObjectVersion
1070
     0
  0
VISUALSTYLE
  5
3B
102
{ACAD_XDICTIONARY
360
38B
102
}
102
{ACAD_REACTORS
330
2A
102
}
330
2A
100
AcDbVisualStyle
  2

 70
    20
 71
     2
 72
     2
 73
     0
 90
        0
 40
-0.6
 41
-30.0
 62
     5
 63
     7
421
 16777215
 74
     1
 91
        4
 64
     7
 65
   257
 75
     1
175
     1
 42
1.0
 92
       10
 66
     7
 43
1.0
 76
     1
 77
     6
 78
     2
 67
     7
 79
     5
170
     0
171
     0
290
     0
174
     0
 93
        1
 44
0.0
173
     0
291
     1
 45
0.0
1001
ACAD
1000
AcDbSavedByObjectVersion
1070
     0
  0
VISUALSTYLE
  5
38
102
{ACAD_XDICTIONARY
360
385
102
}
102
{ACAD_REACTORS
330
2A
102
}
330
2A
100
AcDbVisualStyle
  2

 70
    14
 71
     2
 72
     2
 73
     0
 90
        0
 40
-0.6
 41
-30.0
 62
     5
 63
     7
421
 16777215
 74
     1
 91
        4
 64
     7
 65
   257
 75
     7
175
     7
 42
1.0
 92
        8
 66
     7
 43
1.0
 76
     1
 77
     6
 78
     2
 67
     7
 79
     5
170
     0
171
     0
290
     0
174
     0
 93
        1
 44
0.0
173
     0
291
     1
 45
0.0
1001
ACAD
1000
AcDbSavedByObjectVersion
1070
     0
  0
VISUALSTYLE
  5
3C
102
{ACAD_XDICTIONARY
360
38D
102
}
102
{ACAD_REACTORS
330
2A
102
}
330
2A
100
AcDbVisualStyle
  2

 70
    21
 71
     2
 72
     2
 73
     0
 90
        0
 40
-0.6
 41
-30.0
 62
     5
 63
     7
421
 16777215
 74
     1
 91
        4
 64
     7
 65
   257
 75
     1
175
     1
 42
1.0
 92
        9
 66
     7
 43
1.0
 76
     1
 77
     6
 78
     2
 67
     7
 79
     5
170
     0
171
     0
290
     0
174
     0
 93
        1
 44
0.0
173
     0
291
     1
 45
0.0
1001
ACAD
1000
AcDbSavedByObjectVersion
1070
     0
  0
VISUALSTYLE
  5
33
102
{ACAD_XDICTIONARY
360
37B
102
}
102
{ACAD_REACTORS
330
2A
102
}
330
2A
100
AcDbVisualStyle
  2

 70
     8
 71
     2
 72
     3
 73
     0
 90
        2
 40
-0.6
 41
30.0
 62
     5
 63
     7
421
 16777215
 74
     0
 91
        0
 64
     7
 65
   257
 75
     1
175
     1
 42
1.0
 92
        8
 66
   257
 43
1.0
 76
     1
 77
     6
 78
     2
 67
     7
 79
     3
170
     0
171
     0
290
     0
174
     0
 93
       13
 44
0.0
173
     0
291
     0
 45
0.0
1001
ACAD
1000
AcDbSavedByObjectVersion
1070
     0
  0
VISUALSTYLE
  5
42
102
{ACAD_XDICTIONARY
360
399
102
}
102
{ACAD_REACTORS
330
2A
102
}
330
2A
100
AcDbVisualStyle
  2

 70
    27
 71
     2
 72
     2
 73
     1
 90
        2
 40
-0.6
 41
30.0
 62
     5
 63
     7
421
 16777215
 74
     0
 91
        4
 64
     7
 65
   257
 75
     1
175
     1
 42
1.0
 92
        8
 66
   257
 43
1.0
 76
     1
 77
     6
 78
     2
 67
     8
425
  7895160
 79
     3
170
     0
171
     0
290
     0
174
     0
 93
        5
 44
0.0
173
     0
291
     0
 45
0.0
1001
ACAD
1000
AcDbSavedByObjectVersion
1070
     0
  0
VISUALSTYLE
  5
41
102
{ACAD_XDICTIONARY
360
397
102
}
102
{ACAD_REACTORS
330
2A
102
}
330
2A
100
AcDbVisualStyle
  2

 70
    26
 71
     2
 72
     2
 73
     1
 90
        2
 40
-0.6
 41
30.0
 62
     5
 63
     7
421
 16777215
 74
     1
 91
       10
 64
     7
 65
   257
 75
     2
175
     1
 42
1.0
 92
        8
 66
   257
 43
1.0
 76
     1
 77
     6
 78
     2
 67
     7
 79
     3
170
     0
171
     0
290
     0
174
     0
 93
        5
 44
0.0
173
     0
291
     0
 45
0.0
1001
ACAD
1000
AcDbSavedByObjectVersion
1070
     0
  0
VISUALSTYLE
  5
3E
102
{ACAD_XDICTIONARY
360
391
102
}
102
{ACAD_REACTORS
330
2A
102
}
330
2A
100
AcDbVisualStyle
  2

 70
    23
 71
     2
 72
     2
 73
     3
 90
        0
 40
-0.6
 41
-30.0
 62
     5
 63
     7
421
 16777215
 74
     2
 91
        2
 64
     7
 65
     7
 75
     1
175
     1
 42
40.0
 92
        8
 66
     7
 43
1.0
 76
     1
 77
     6
 78
     2
 67
     7
 79
     3
170
     0
171
     0
290
     0
174
     0
 93
        1
 44
0.0
173
     0
291
     0
 45
0.0
1001
ACAD
1000
AcDbSavedByObjectVersion
1070
     0
  0
VISUALSTYLE
  5
3F
102
{ACAD_XDICTIONARY
360
393
102
}
102
{ACAD_REACTORS
330
2A
102
}
330
2A
100
AcDbVisualStyle
  2

 70
    24
 71
     1
 72
     2
 73
     2
 90
        0
 40
-0.6
 41
-30.0
 62
     5
 63
     7
421
 16777215
 74
     2
 91
        2
 64
     7
 65
     7
 75
     1
175
     1
 42
40.0
 92
       11
 66
     7
 43
1.0
 76
     1
 77
     6
 78
     2
 67
     7
 79
     6
170
     0
171
     0
290
     0
174
     0
 93
        1
 44
0.0
173
     0
291
     0
 45
0.0
1001
ACAD
1000
AcDbSavedByObjectVersion
1070
     0
  0
VISUALSTYLE
  5
37
102
{ACAD_XDICTIONARY
360
383
102
}
102
{ACAD_REACTORS
330
2A
102
}
330
2A
100
AcDbVisualStyle
  2

 70
    13
 71
     2
 72
     2
 73
     0
 90
        0
 40
-0.6
 41
-30.0
 62
     5
 63
     7
421
 16777215
 74
     1
 91
        4
 64
     7
 65
   257
 75
     1
175
     1
 42
1.0
 92
       12
 66
     7
 43
1.0
 76
     1
 77
     6
 78
     2
 67
     7
 79
     5
170
     0
171
     0
290
     0
174
     0
 93
        1
 44
0.0
173
     0
291
     1
 45
0.0
1001
ACAD
1000
AcDbSavedByObjectVersion
1070
     0
  0
VISUALSTYLE
  5
30
102
{ACAD_XDICTIONARY
360
375
102
}
102
{ACAD_REACTORS
330
2A
102
}
330
2A
100
AcDbVisualStyle
  2

 70
     5
 71
     0
 72
     2
 73
     0
 90
        0
 40
-0.6
 41
-30.0
 62
     5
 63
     7
421
 16777215
 74
     1
 91
        4
 64
     7
 65
   257
 75
     1
175
     1
 42
1.0
 92
        0
 66
   257
 43
1.0
 76
     1
 77
     6
 78
     2
 67
     7
 79
     3
170
     0
171
     0
290
     0
174
     0
 93
        1
 44
0.0
173
     0
291
     0
 45
0.0
1001
ACAD
1000
AcDbSavedByObjectVersion
1070
     0
  0
VISUALSTYLE
  5
40
102
{ACAD_XDICTIONARY
360
395
102
}
102
{ACAD_REACTORS
330
2A
102
}
330
2A
100
AcDbVisualStyle
  2

 70
    25
 71
     2
 72
     2
 73
     1
 90
        1
 40
0.5
 41
-30.0
 62
     5
 63
     7
421
 16777215
 74
     1
 91
        0
 64
     7
 65
   257
 75
     1
175
     1
 42
1.0
 92
        8
 66
     7
 43
1.0
 76
     1
 77
     6
 78
     2
 67
     7
 79
     3
170
     0
171
     0
290
     0
174
     0
 93
       13
 44
0.0
173
     0
291
     0
 45
0.0
1001
ACAD
1000
AcDbSavedByObjectVersion
1070
     0
  0
DICTIONARYVAR
  5
2B9
102
{ACAD_REACTORS
330
2B8
102
}
330
2B8
100
DictionaryVariables
280
     0
  1
1:1
  0
DICTIONARYVAR
  5
2FA
102
{ACAD_REACTORS
330
2B8
102
}
330
2B8
100
DictionaryVariables
280
     0
  1
STANDARD
  0
DICTIONARYVAR
  5
2F9
102
{ACAD_REACTORS
330
2B8
102
}
330
2B8
100
DictionaryVariables
280
     0
  1
STANDARD
  0
DICTIONARYVAR
  5
365
102
{ACAD_REACTORS
330
2B8
102
}
330
2B8
100
DictionaryVariables
280
     0
  1
Metric50
  0
DICTIONARYVAR
  5
366
102
{ACAD_REACTORS
330
2B8
102
}
330
2B8
100
DictionaryVariables
280
     0
  1
Metric50
  0
DICTIONARYVAR
  5
2BA
102
{ACAD_REACTORS
330
2B8
102
}
330
2B8
100
DictionaryVariables
280
     0
  1
1
  0
DICTIONARYVAR
  5
367
102
{ACAD_REACTORS
330
2B8
102
}
330
2B8
100
DictionaryVariables
280
     0
  1
2
  0
DICTIONARY
  5
39E
330
301
100
AcDbDictionary
280
     1
281
     1
  3
ACAD_XREC_ROUNDTRIP
360
39F
  0
DICTIONARY
  5
2EE
330
45
100
AcDbDictionary
280
     1
281
     1
  3
ACAD_XREC_ROUNDTRIP
360
2EF
  0
DICTIONARY
  5
2EC
330
44
100
AcDbDictionary
280
     1
281
     1
  3
ACAD_XREC_ROUNDTRIP
360
2ED
  0
DICTIONARY
  5
2F0
330
46
100
AcDbDictionary
280
     1
281
     1
  3
ACAD_XREC_ROUNDTRIP
360
2F1
  0
DICTIONARY
  5
39C
330
300
100
AcDbDictionary
280
     1
281
     1
  3
ACAD_XREC_ROUNDTRIP
360
39D
  0
DICTIONARY
  5
2F2
330
6A
100
AcDbDictionary
280
     1
281
     1
  3
ACAD_ROUNDTRIP_2008_TABLESTYLE_CELLSTYLEMAP
360
369
  3
ACAD_XREC_ROUNDTRIP
360
39B
  0
DICTIONARY
  5
373
330
2F
100
AcDbDictionary
280
     1
281
     1
  3
ACAD_XREC_ROUNDTRIP
360
374
  0
DICTIONARY
  5
379
330
32
100
AcDbDictionary
280
     1
281
     1
  3
ACAD_XREC_ROUNDTRIP
360
37A
  0
DICTIONARY
  5
381
330
36
100
AcDbDictionary
280
     1
281
     1
  3
ACAD_XREC_ROUNDTRIP
360
382
  0
DICTIONARY
  5
389
330
3A
100
AcDbDictionary
280
     1
281
     1
  3
ACAD_XREC_ROUNDTRIP
360
38A
  0
DICTIONARY
  5
37D
330
34
100
AcDbDictionary
280
     1
281
     1
  3
ACAD_XREC_ROUNDTRIP
360
37E
  0
DICTIONARY
  5
37F
330
35
100
AcDbDictionary
280
     1
281
     1
  3
ACAD_XREC_ROUNDTRIP
360
380
  0
DICTIONARY
  5
38F
330
3D
100
AcDbDictionary
280
     1
281
     1
  3
ACAD_XREC_ROUNDTRIP
360
390
  0
DICTIONARY
  5
387
330
39
100
AcDbDictionary
280
     1
281
     1
  3
ACAD_XREC_ROUNDTRIP
360
388
  0
DICTIONARY
  5
36B
330
2B
100
AcDbDictionary
280
     1
281
     1
  3
ACAD_XREC_ROUNDTRIP
360
36C
  0
DICTIONARY
  5
36D
330
2C
100
AcDbDictionary
280
     1
281
     1
  3
ACAD_XREC_ROUNDTRIP
360
36E
  0
DICTIONARY
  5
36F
330
2D
100
AcDbDictionary
280
     1
281
     1
  3
ACAD_XREC_ROUNDTRIP
360
370
  0
DICTIONARY
  5
371
330
2E
100
AcDbDictionary
280
     1
281
     1
  3
ACAD_XREC_ROUNDTRIP
360
372
  0
DICTIONARY
  5
377
330
31
100
AcDbDictionary
280
     1
281
     1
  3
ACAD_XREC_ROUNDTRIP
360
378
  0
DICTIONARY
  5
38B
330
3B
100
AcDbDictionary
280
     1
281
     1
  3
ACAD_XREC_ROUNDTRIP
360
38C
  0
DICTIONARY
  5
385
330
38
100
AcDbDictionary
280
     1
281
     1
  3
ACAD_XREC_ROUNDTRIP
360
386
  0
DICTIONARY
  5
38D
330
3C
100
AcDbDictionary
280
     1
281
     1
  3
ACAD_XREC_ROUNDTRIP
360
38E
  0
DICTIONARY
  5
37B
330
33
100
AcDbDictionary
280
     1
281
     1
  3
ACAD_XREC_ROUNDTRIP
360
37C
  0
DICTIONARY
  5
399
330
42
100
AcDbDictionary
280
     1
281
     1
  3
ACAD_XREC_ROUNDTRIP
360
39A
  0
DICTIONARY
  5
397
330
41
100
AcDbDictionary
280
     1
281
     1
  3
ACAD_XREC_ROUNDTRIP
360
398
  0
DICTIONARY
  5
391
330
3E
100
AcDbDictionary
280
     1
281
     1
  3
ACAD_XREC_ROUNDTRIP
360
392
  0
DICTIONARY
  5
393
330
3F
100
AcDbDictionary
280
     1
281
     1
  3
ACAD_XREC_ROUNDTRIP
360
394
  0
DICTIONARY
  5
383
330
37
100
AcDbDictionary
280
     1
281
     1
  3
ACAD_XREC_ROUNDTRIP
360
384
  0
DICTIONARY
  5
375
330
30
100
AcDbDictionary
280
     1
281
     1
  3
ACAD_XREC_ROUNDTRIP
360
376
  0
DICTIONARY
  5
395
330
40
100
AcDbDictionary
280
     1
281
     1
  3
ACAD_XREC_ROUNDTRIP
360
396
  0
XRECORD
  5
39F
102
{ACAD_REACTORS
330
39E
102
}
330
39E
100
AcDbXrecord
280
     1
102
DISPLAYNAME
  1
Metric50
102
FLAGS
 90
        0
  0
XRECORD
  5
2EF
102
{ACAD_REACTORS
330
2EE
102
}
330
2EE
100
AcDbXrecord
280
     1
102
MATERIAL
148
0.0
149
0.0
149
0.0
 93
        0
 94
      127
282
     0
 72
     1
 77
     1
171
     1
175
     1
179
     1
273
     0
  0
XRECORD
  5
2ED
102
{ACAD_REACTORS
330
2EC
102
}
330
2EC
100
AcDbXrecord
280
     1
102
MATERIAL
148
0.0
149
0.0
149
0.0
 93
        0
 94
      127
282
     0
 72
     1
 77
     1
171
     1
175
     1
179
     1
273
     0
  0
XRECORD
  5
2F1
102
{ACAD_REACTORS
330
2F0
102
}
330
2F0
100
AcDbXrecord
280
     1
102
MATERIAL
148
0.0
149
0.0
149
0.0
 93
        0
 94
      127
282
     0
 72
     1
 77
     1
171
     1
175
     1
179
     1
273
     0
  0
XRECORD
  5
39D
102
{ACAD_REACTORS
330
39C
102
}
330
39C
100
AcDbXrecord
280
     1
102
DISPLAYNAME
  1
Metric50
102
FLAGS
 90
        0
  0
CELLSTYLEMAP
  5
369
102
{ACAD_REACTORS
330
2F2
102
}
330
2F2
100
AcDbCellStyleMap
 90
        3
300
CELLSTYLE
  1
TABLEFORMAT_BEGIN
 90
        5
170
     1
 91
        0
 92
    32768
 62
   257
 93
        1
300
CONTENTFORMAT
  1
CONTENTFORMAT_BEGIN
 90
        0
 91
        0
 92
        4
 93
        0
300

 40
0.0
140
1.0
 94
        5
 62
     0
340
11
144
0.25
309
CONTENTFORMAT_END
171
     1
301
MARGIN
  1
CELLMARGIN_BEGIN
 40
0.06
 40
0.06
 40
0.06
 40
0.06
 40
0.18
 40
0.18
309
CELLMARGIN_END
 94
        6
 95
        1
302
GRIDFORMAT
  1
GRIDFORMAT_BEGIN
 90
        0
 91
        1
 62
     0
 92
       -2
340
14
 93
        0
 40
0.045
309
GRIDFORMAT_END
 95
        2
302
GRIDFORMAT
  1
GRIDFORMAT_BEGIN
 90
        0
 91
        1
 62
     0
 92
       -2
340
14
 93
        0
 40
0.045
309
GRIDFORMAT_END
 95
        4
302
GRIDFORMAT
  1
GRIDFORMAT_BEGIN
 90
        0
 91
        1
 62
     0
 92
       -2
340
14
 93
        0
 40
0.045
309
GRIDFORMAT_END
 95
        8
302
GRIDFORMAT
  1
GRIDFORMAT_BEGIN
 90
        0
 91
        1
 62
     0
 92
       -2
340
14
 93
        0
 40
0.045
309
GRIDFORMAT_END
 95
       16
302
GRIDFORMAT
  1
GRIDFORMAT_BEGIN
 90
        0
 91
        1
 62
     0
 92
       -2
340
14
 93
        0
 40
0.045
309
GRIDFORMAT_END
 95
       32
302
GRIDFORMAT
  1
GRIDFORMAT_BEGIN
 90
        0
 91
        1
 62
     0
 92
       -2
340
14
 93
        0
 40
0.045
309
GRIDFORMAT_END
309
TABLEFORMAT_END
  1
CELLSTYLE_BEGIN
 90
        1
 91
        1
300
_TITLE
309
CELLSTYLE_END
300
CELLSTYLE
  1
TABLEFORMAT_BEGIN
 90
        5
170
     1
 91
        0
 92
        0
 62
   257
 93
        1
300
CONTENTFORMAT
  1
CONTENTFORMAT_BEGIN
 90
        0
 91
        0
 92
        4
 93
        0
300

 40
0.0
140
1.0
 94
        5
 62
     0
340
11
144
0.18
309
CONTENTFORMAT_END
171
     1
301
MARGIN
  1
CELLMARGIN_BEGIN
 40
0.06
 40
0.06
 40
0.06
 40
0.06
 40
0.18
 40
0.18
309
CELLMARGIN_END
 94
        6
 95
        1
302
GRIDFORMAT
  1
GRIDFORMAT_BEGIN
 90
        0
 91
        1
 62
     0
 92
       -2
340
14
 93
        0
 40
0.045
309
GRIDFORMAT_END
 95
        2
302
GRIDFORMAT
  1
GRIDFORMAT_BEGIN
 90
        0
 91
        1
 62
     0
 92
       -2
340
14
 93
        0
 40
0.045
309
GRIDFORMAT_END
 95
        4
302
GRIDFORMAT
  1
GRIDFORMAT_BEGIN
 90
        0
 91
        1
 62
     0
 92
       -2
340
14
 93
        0
 40
0.045
309
GRIDFORMAT_END
 95
        8
302
GRIDFORMAT
  1
GRIDFORMAT_BEGIN
 90
        0
 91
        1
 62
     0
 92
       -2
340
14
 93
        0
 40
0.045
309
GRIDFORMAT_END
 95
       16
302
GRIDFORMAT
  1
GRIDFORMAT_BEGIN
 90
        0
 91
        1
 62
     0
 92
       -2
340
14
 93
        0
 40
0.045
309
GRIDFORMAT_END
 95
       32
302
GRIDFORMAT
  1
GRIDFORMAT_BEGIN
 90
        0
 91
        1
 62
     0
 92
       -2
340
14
 93
        0
 40
0.045
309
GRIDFORMAT_END
309
TABLEFORMAT_END
  1
CELLSTYLE_BEGIN
 90
        2
 91
        1
300
_HEADER
309
CELLSTYLE_END
300
CELLSTYLE
  1
TABLEFORMAT_BEGIN
 90
        5
170
     1
 91
        0
 92
        0
 62
   257
 93
        1
300
CONTENTFORMAT
  1
CONTENTFORMAT_BEGIN
 90
        0
 91
        0
 92
        4
 93
        0
300

 40
0.0
140
1.0
 94
        2
 62
     0
340
11
144
0.18
309
CONTENTFORMAT_END
171
     1
301
MARGIN
  1
CELLMARGIN_BEGIN
 40
0.06
 40
0.06
 40
0.06
 40
0.06
 40
0.18
 40
0.18
309
CELLMARGIN_END
 94
        6
 95
        1
302
GRIDFORMAT
  1
GRIDFORMAT_BEGIN
 90
        0
 91
        1
 62
     0
 92
       -2
340
14
 93
        0
 40
0.045
309
GRIDFORMAT_END
 95
        2
302
GRIDFORMAT
  1
GRIDFORMAT_BEGIN
 90
        0
 91
        1
 62
     0
 92
       -2
340
14
 93
        0
 40
0.045
309
GRIDFORMAT_END
 95
        4
302
GRIDFORMAT
  1
GRIDFORMAT_BEGIN
 90
        0
 91
        1
 62
     0
 92
       -2
340
14
 93
        0
 40
0.045
309
GRIDFORMAT_END
 95
        8
302
GRIDFORMAT
  1
GRIDFORMAT_BEGIN
 90
        0
 91
        1
 62
     0
 92
       -2
340
14
 93
        0
 40
0.045
309
GRIDFORMAT_END
 95
       16
302
GRIDFORMAT
  1
GRIDFORMAT_BEGIN
 90
        0
 91
        1
 62
     0
 92
       -2
340
14
 93
        0
 40
0.045
309
GRIDFORMAT_END
 95
       32
302
GRIDFORMAT
  1
GRIDFORMAT_BEGIN
 90
        0
 91
        1
 62
     0
 92
       -2
340
14
 93
        0
 40
0.045
309
GRIDFORMAT_END
309
TABLEFORMAT_END
  1
CELLSTYLE_BEGIN
 90
        3
 91
        2
300
_DATA
309
CELLSTYLE_END
  0
XRECORD
  5
39B
102
{ACAD_REACTORS
330
2F2
102
}
330
2F2
100
AcDbXrecord
280
     1
102
ACAD_ROUNDTRIP_PRE2007_TABLESTYLE
 90
        4
 91
        0
  1

 92
        4
 93
        0
  2

 94
        4
 95
        0
  3

  0
XRECORD
  5
374
102
{ACAD_REACTORS
330
373
102
}
330
373
100
AcDbXrecord
280
     1
102
RTVSPost2010Prop28
280
     1
102
RTVSPost2010PropOp28
 70
     1
102
RTVSPost2010Prop29
280
     1
102
RTVSPost2010PropOp29
 70
     1
102
RTVSPost2010Prop30
280
     0
102
RTVSPost2010PropOp30
 70
     1
102
RTVSPost2010Prop31
280
     0
102
RTVSPost2010PropOp31
 70
     1
102
RTVSPost2010Prop32
280
     0
102
RTVSPost2010PropOp32
 70
     1
102
RTVSPost2010Prop33
280
     0
102
RTVSPost2010PropOp33
 70
     1
102
RTVSPost2010Prop34
280
     0
102
RTVSPost2010PropOp34
 70
     1
102
RTVSPost2010Prop35
280
     0
102
RTVSPost2010PropOp35
 70
     1
102
RTVSPost2010Prop36
280
     0
102
RTVSPost2010PropOp36
 70
     1
102
RTVSPost2010Prop37
 90
       50
102
RTVSPost2010PropOp37
 70
     1
102
RTVSPost2010Prop38
140
0.0
102
RTVSPost2010PropOp38
 70
     1
102
RTVSPost2010Prop39
140
1.0
102
RTVSPost2010PropOp39
 70
     1
102
RTVSPost2010Prop40
 90
        0
102
RTVSPost2010PropOp40
 70
     1
102
RTVSPost2010Prop41ColorIndex
 90
       18
102
RTVSPost2010Prop41ColorRGB
 90
        0
102
RTVSPost2010PropOp41
 70
     1
102
RTVSPost2010Prop42
 90
       50
102
RTVSPost2010PropOp42
 70
     1
102
RTVSPost2010Prop43
 90
        3
102
RTVSPost2010PropOp43
 70
     1
102
RTVSPost2010Prop44ColorIndex
 90
        5
102
RTVSPost2010Prop44ColorRGB
 90
      255
102
RTVSPost2010PropOp44
 70
     1
102
RTVSPost2010Prop45
280
     0
102
RTVSPost2010PropOp45
 70
     1
102
RTVSPost2010Prop46
 90
       50
102
RTVSPost2010PropOp46
 70
     1
102
RTVSPost2010Prop47
 90
       50
102
RTVSPost2010PropOp47
 70
     1
102
RTVSPost2010Prop48
 90
       50
102
RTVSPost2010PropOp48
 70
     1
102
RTVSPost2010Prop49
280
     0
102
RTVSPost2010PropOp49
 70
     1
102
RTVSPost2010Prop50
 90
       50
102
RTVSPost2010PropOp50
 70
     1
102
RTVSPost2010Prop51ColorIndex
 90
      256
102
RTVSPost2010Prop51ColorRGB
 90
-16777216
102
RTVSPost2010PropOp51
 70
     0
102
RTVSPost2010Prop52
140
1.0
102
RTVSPost2010PropOp52
 70
     0
102
RTVSPost2010Prop53
 90
        2
102
RTVSPost2010PropOp53
 70
     1
102
RTVSPost2010Prop54
  1
strokes_ogs.tif
102
RTVSPost2010PropOp54
 70
     1
102
RTVSPost2010Prop55
280
     0
102
RTVSPost2010PropOp55
 70
     1
102
RTVSPost2010Prop56
140
1.0
102
RTVSPost2010PropOp56
 70
     1
102
RTVSPost2010Prop57
140
1.0
102
RTVSPost2010PropOp57
 70
     1
102
RTVSPropertyOp0
 70
     1
102
RTVSPropertyOp1
 70
     1
102
RTVSPropertyOp2
 70
     1
102
RTVSPropertyOp3
 70
     1
102
RTVSPropertyOp4
 70
     1
102
RTVSPropertyOp5
 70
     1
102
RTVSPropertyOp6
 70
     1
102
RTVSPropertyOp7
 70
     1
102
RTVSPropertyOp8
 70
     1
102
RTVSPropertyOp9
 70
     1
102
RTVSPropertyOp10
 70
     1
102
RTVSPropertyOp11
 70
     1
102
RTVSPropertyOp12
 70
     1
102
RTVSPropertyOp13
 70
     1
102
RTVSPropertyOp14
 70
     1
102
RTVSPropertyOp15
 70
     1
102
RTVSPropertyOp16
 70
     1
102
RTVSPropertyOp17
 70
     1
102
RTVSPropertyOp18
 70
     1
102
RTVSPropertyOp19
 70
     1
102
RTVSPropertyOp20
 70
     1
102
RTVSPropertyOp21
 70
     1
102
RTVSPropertyOp22
 70
     1
102
RTVSPropertyOp23
 70
     1
102
RTVSPropertyOp24
 70
     1
102
RTVSPropertyOp25
 70
     1
102
RTVSPropertyOp26
 70
     1
102
RTVSPropertyOp27
 70
     1
102
RTVSPropertyOp28
 70
     1
102
RTVSPropertyOp29
 70
     1
102
RTVSPropertyOp30
 70
     1
102
RTVSPropertyOp31
 70
     1
102
RTVSPropertyOp32
 70
     1
102
RTVSPropertyOp33
 70
     1
102
RTVSPropertyOp34
 70
     1
102
RTVSPropertyOp35
 70
     1
102
RTVSPropertyOp36
 70
     1
102
RTVSPropertyOp37
 70
     1
102
RTVSPropertyOp38
 70
     1
102
RTVSPropertyOp39
 70
     1
102
RTVSPropertyOp40
 70
     1
102
RTVSPropertyOp41
 70
     1
102
RTVSPropertyOp42
 70
     1
102
RTVSPropertyOp43
 70
     1
102
RTVSPropertyOp44
 70
     1
102
RTVSPropertyOp45
 70
     1
102
RTVSPropertyOp46
 70
     1
102
RTVSPropertyOp47
 70
     1
102
RTVSPropertyOp48
 70
     1
102
RTVSPropertyOp49
 70
     1
102
RTVSPropertyOp50
 70
     1
102
RTVSPropertyOp51
 70
     0
102
RTVSPropertyOp52
 70
     0
102
RTVSPropertyOp53
 70
     1
102
RTVSPropertyOp54
 70
     1
102
RTVSPropertyOp55
 70
     1
102
RTVSPropertyOp56
 70
     1
102
RTVSPropertyOp57
 70
     1
102
RTVSPropertyOp58
 70
     1
102
RTVSPropertyOp59
 70
     1
102
RTVSPropertyOp60
 70
     1
102
RTVSPropertyOp61
 70
     1
102
RTVSPropertyOp62
 70
     1
  0
XRECORD
  5
37A
102
{ACAD_REACTORS
330
379
102
}
330
379
100
AcDbXrecord
280
     1
102
RTVSPost2010Prop28
280
     0
102
RTVSPost2010PropOp28
 70
     1
102
RTVSPost2010Prop29
280
     1
102
RTVSPost2010PropOp29
 70
     1
102
RTVSPost2010Prop30
280
     1
102
RTVSPost2010PropOp30
 70
     1
102
RTVSPost2010Prop31
280
     0
102
RTVSPost2010PropOp31
 70
     1
102
RTVSPost2010Prop32
280
     0
102
RTVSPost2010PropOp32
 70
     1
102
RTVSPost2010Prop33
280
     0
102
RTVSPost2010PropOp33
 70
     1
102
RTVSPost2010Prop34
280
     0
102
RTVSPost2010PropOp34
 70
     1
102
RTVSPost2010Prop35
280
     0
102
RTVSPost2010PropOp35
 70
     1
102
RTVSPost2010Prop36
280
     0
102
RTVSPost2010PropOp36
 70
     1
102
RTVSPost2010Prop37
 90
       50
102
RTVSPost2010PropOp37
 70
     1
102
RTVSPost2010Prop38
140
0.0
102
RTVSPost2010PropOp38
 70
     1
102
RTVSPost2010Prop39
140
1.0
102
RTVSPost2010PropOp39
 70
     1
102
RTVSPost2010Prop40
 90
        0
102
RTVSPost2010PropOp40
 70
     1
102
RTVSPost2010Prop41ColorIndex
 90
       18
102
RTVSPost2010Prop41ColorRGB
 90
        0
102
RTVSPost2010PropOp41
 70
     1
102
RTVSPost2010Prop42
 90
       50
102
RTVSPost2010PropOp42
 70
     1
102
RTVSPost2010Prop43
 90
        3
102
RTVSPost2010PropOp43
 70
     1
102
RTVSPost2010Prop44ColorIndex
 90
        5
102
RTVSPost2010Prop44ColorRGB
 90
      255
102
RTVSPost2010PropOp44
 70
     1
102
RTVSPost2010Prop45
280
     0
102
RTVSPost2010PropOp45
 70
     1
102
RTVSPost2010Prop46
 90
       50
102
RTVSPost2010PropOp46
 70
     1
102
RTVSPost2010Prop47
 90
       50
102
RTVSPost2010PropOp47
 70
     1
102
RTVSPost2010Prop48
 90
       50
102
RTVSPost2010PropOp48
 70
     1
102
RTVSPost2010Prop49
280
     0
102
RTVSPost2010PropOp49
 70
     1
102
RTVSPost2010Prop50
 90
       50
102
RTVSPost2010PropOp50
 70
     1
102
RTVSPost2010Prop51ColorIndex
 90
      256
102
RTVSPost2010Prop51ColorRGB
 90
-16777216
102
RTVSPost2010PropOp51
 70
     0
102
RTVSPost2010Prop52
140
1.0
102
RTVSPost2010PropOp52
 70
     0
102
RTVSPost2010Prop53
 90
        2
102
RTVSPost2010PropOp53
 70
     1
102
RTVSPost2010Prop54
  1
strokes_ogs.tif
102
RTVSPost2010PropOp54
 70
     1
102
RTVSPost2010Prop55
280
     0
102
RTVSPost2010PropOp55
 70
     1
102
RTVSPost2010Prop56
140
1.0
102
RTVSPost2010PropOp56
 70
     1
102
RTVSPost2010Prop57
140
1.0
102
RTVSPost2010PropOp57
 70
     1
102
RTVSPropertyOp0
 70
     1
102
RTVSPropertyOp1
 70
     1
102
RTVSPropertyOp2
 70
     1
102
RTVSPropertyOp3
 70
     1
102
RTVSPropertyOp4
 70
     1
102
RTVSPropertyOp5
 70
     1
102
RTVSPropertyOp6
 70
     1
102
RTVSPropertyOp7
 70
     1
102
RTVSPropertyOp8
 70
     1
102
RTVSPropertyOp9
 70
     1
102
RTVSPropertyOp10
 70
     1
102
RTVSPropertyOp11
 70
     1
102
RTVSPropertyOp12
 70
     1
102
RTVSPropertyOp13
 70
     1
102
RTVSPropertyOp14
 70
     1
102
RTVSPropertyOp15
 70
     1
102
RTVSPropertyOp16
 70
     1
102
RTVSPropertyOp17
 70
     1
102
RTVSPropertyOp18
 70
     1
102
RTVSPropertyOp19
 70
     1
102
RTVSPropertyOp20
 70
     1
102
RTVSPropertyOp21
 70
     1
102
RTVSPropertyOp22
 70
     1
102
RTVSPropertyOp23
 70
     1
102
RTVSPropertyOp24
 70
     1
102
RTVSPropertyOp25
 70
     1
102
RTVSPropertyOp26
 70
     1
102
RTVSPropertyOp27
 70
     1
102
RTVSPropertyOp28
 70
     1
102
RTVSPropertyOp29
 70
     1
102
RTVSPropertyOp30
 70
     1
102
RTVSPropertyOp31
 70
     1
102
RTVSPropertyOp32
 70
     1
102
RTVSPropertyOp33
 70
     1
102
RTVSPropertyOp34
 70
     1
102
RTVSPropertyOp35
 70
     1
102
RTVSPropertyOp36
 70
     1
102
RTVSPropertyOp37
 70
     1
102
RTVSPropertyOp38
 70
     1
102
RTVSPropertyOp39
 70
     1
102
RTVSPropertyOp40
 70
     1
102
RTVSPropertyOp41
 70
     1
102
RTVSPropertyOp42
 70
     1
102
RTVSPropertyOp43
 70
     1
102
RTVSPropertyOp44
 70
     1
102
RTVSPropertyOp45
 70
     1
102
RTVSPropertyOp46
 70
     1
102
RTVSPropertyOp47
 70
     1
102
RTVSPropertyOp48
 70
     1
102
RTVSPropertyOp49
 70
     1
102
RTVSPropertyOp50
 70
     1
102
RTVSPropertyOp51
 70
     0
102
RTVSPropertyOp52
 70
     0
102
RTVSPropertyOp53
 70
     1
102
RTVSPropertyOp54
 70
     1
102
RTVSPropertyOp55
 70
     1
102
RTVSPropertyOp56
 70
     1
102
RTVSPropertyOp57
 70
     1
102
RTVSPropertyOp58
 70
     1
102
RTVSPropertyOp59
 70
     1
102
RTVSPropertyOp60
 70
     1
102
RTVSPropertyOp61
 70
     1
102
RTVSPropertyOp62
 70
     1
  0
XRECORD
  5
382
102
{ACAD_REACTORS
330
381
102
}
330
381
100
AcDbXrecord
280
     1
102
RTVSPost2010Prop28
280
     0
102
RTVSPost2010PropOp28
 70
     1
102
RTVSPost2010Prop29
280
     1
102
RTVSPost2010PropOp29
 70
     1
102
RTVSPost2010Prop30
280
     1
102
RTVSPost2010PropOp30
 70
     1
102
RTVSPost2010Prop31
280
     0
102
RTVSPost2010PropOp31
 70
     1
102
RTVSPost2010Prop32
280
     0
102
RTVSPost2010PropOp32
 70
     1
102
RTVSPost2010Prop33
280
     0
102
RTVSPost2010PropOp33
 70
     1
102
RTVSPost2010Prop34
280
     0
102
RTVSPost2010PropOp34
 70
     1
102
RTVSPost2010Prop35
280
     0
102
RTVSPost2010PropOp35
 70
     1
102
RTVSPost2010Prop36
280
     0
102
RTVSPost2010PropOp36
 70
     1
102
RTVSPost2010Prop37
 90
       50
102
RTVSPost2010PropOp37
 70
     1
102
RTVSPost2010Prop38
140
0.0
102
RTVSPost2010PropOp38
 70
     1
102
RTVSPost2010Prop39
140
1.0
102
RTVSPost2010PropOp39
 70
     1
102
RTVSPost2010Prop40
 90
        0
102
RTVSPost2010PropOp40
 70
     1
102
RTVSPost2010Prop41ColorIndex
 90
       18
102
RTVSPost2010Prop41ColorRGB
 90
        0
102
RTVSPost2010PropOp41
 70
     1
102
RTVSPost2010Prop42
 90
       50
102
RTVSPost2010PropOp42
 70
     1
102
RTVSPost2010Prop43
 90
        3
102
RTVSPost2010PropOp43
 70
     1
102
RTVSPost2010Prop44ColorIndex
 90
        5
102
RTVSPost2010Prop44ColorRGB
 90
      255
102
RTVSPost2010PropOp44
 70
     1
102
RTVSPost2010Prop45
280
     0
102
RTVSPost2010PropOp45
 70
     1
102
RTVSPost2010Prop46
 90
       50
102
RTVSPost2010PropOp46
 70
     1
102
RTVSPost2010Prop47
 90
       50
102
RTVSPost2010PropOp47
 70
     1
102
RTVSPost2010Prop48
 90
       50
102
RTVSPost2010PropOp48
 70
     1
102
RTVSPost2010Prop49
280
     0
102
RTVSPost2010PropOp49
 70
     1
102
RTVSPost2010Prop50
 90
       50
102
RTVSPost2010PropOp50
 70
     1
102
RTVSPost2010Prop51ColorIndex
 90
      256
102
RTVSPost2010Prop51ColorRGB
 90
-16777216
102
RTVSPost2010PropOp51
 70
     0
102
RTVSPost2010Prop52
140
1.0
102
RTVSPost2010PropOp52
 70
     0
102
RTVSPost2010Prop53
 90
        2
102
RTVSPost2010PropOp53
 70
     1
102
RTVSPost2010Prop54
  1
strokes_ogs.tif
102
RTVSPost2010PropOp54
 70
     1
102
RTVSPost2010Prop55
280
     0
102
RTVSPost2010PropOp55
 70
     1
102
RTVSPost2010Prop56
140
1.0
102
RTVSPost2010PropOp56
 70
     1
102
RTVSPost2010Prop57
140
1.0
102
RTVSPost2010PropOp57
 70
     1
102
RTVSPropertyOp0
 70
     1
102
RTVSPropertyOp1
 70
     1
102
RTVSPropertyOp2
 70
     1
102
RTVSPropertyOp3
 70
     1
102
RTVSPropertyOp4
 70
     1
102
RTVSPropertyOp5
 70
     1
102
RTVSPropertyOp6
 70
     1
102
RTVSPropertyOp7
 70
     1
102
RTVSPropertyOp8
 70
     1
102
RTVSPropertyOp9
 70
     1
102
RTVSPropertyOp10
 70
     1
102
RTVSPropertyOp11
 70
     1
102
RTVSPropertyOp12
 70
     1
102
RTVSPropertyOp13
 70
     1
102
RTVSPropertyOp14
 70
     1
102
RTVSPropertyOp15
 70
     1
102
RTVSPropertyOp16
 70
     1
102
RTVSPropertyOp17
 70
     1
102
RTVSPropertyOp18
 70
     1
102
RTVSPropertyOp19
 70
     1
102
RTVSPropertyOp20
 70
     1
102
RTVSPropertyOp21
 70
     1
102
RTVSPropertyOp22
 70
     1
102
RTVSPropertyOp23
 70
     1
102
RTVSPropertyOp24
 70
     1
102
RTVSPropertyOp25
 70
     1
102
RTVSPropertyOp26
 70
     1
102
RTVSPropertyOp27
 70
     1
102
RTVSPropertyOp28
 70
     1
102
RTVSPropertyOp29
 70
     1
102
RTVSPropertyOp30
 70
     1
102
RTVSPropertyOp31
 70
     1
102
RTVSPropertyOp32
 70
     1
102
RTVSPropertyOp33
 70
     1
102
RTVSPropertyOp34
 70
     1
102
RTVSPropertyOp35
 70
     1
102
RTVSPropertyOp36
 70
     1
102
RTVSPropertyOp37
 70
     1
102
RTVSPropertyOp38
 70
     1
102
RTVSPropertyOp39
 70
     1
102
RTVSPropertyOp40
 70
     1
102
RTVSPropertyOp41
 70
     1
102
RTVSPropertyOp42
 70
     1
102
RTVSPropertyOp43
 70
     1
102
RTVSPropertyOp44
 70
     1
102
RTVSPropertyOp45
 70
     1
102
RTVSPropertyOp46
 70
     1
102
RTVSPropertyOp47
 70
     1
102
RTVSPropertyOp48
 70
     1
102
RTVSPropertyOp49
 70
     1
102
RTVSPropertyOp50
 70
     1
102
RTVSPropertyOp51
 70
     0
102
RTVSPropertyOp52
 70
     0
102
RTVSPropertyOp53
 70
     1
102
RTVSPropertyOp54
 70
     1
102
RTVSPropertyOp55
 70
     1
102
RTVSPropertyOp56
 70
     1
102
RTVSPropertyOp57
 70
     1
102
RTVSPropertyOp58
 70
     1
102
RTVSPropertyOp59
 70
     1
102
RTVSPropertyOp60
 70
     1
102
RTVSPropertyOp61
 70
     1
102
RTVSPropertyOp62
 70
     1
  0
XRECORD
  5
38A
102
{ACAD_REACTORS
330
389
102
}
330
389
100
AcDbXrecord
280
     1
102
RTVSPost2010Prop28
280
     0
102
RTVSPost2010PropOp28
 70
     1
102
RTVSPost2010Prop29
280
     1
102
RTVSPost2010PropOp29
 70
     1
102
RTVSPost2010Prop30
280
     1
102
RTVSPost2010PropOp30
 70
     1
102
RTVSPost2010Prop31
280
     0
102
RTVSPost2010PropOp31
 70
     1
102
RTVSPost2010Prop32
280
     0
102
RTVSPost2010PropOp32
 70
     1
102
RTVSPost2010Prop33
280
     0
102
RTVSPost2010PropOp33
 70
     1
102
RTVSPost2010Prop34
280
     0
102
RTVSPost2010PropOp34
 70
     1
102
RTVSPost2010Prop35
280
     0
102
RTVSPost2010PropOp35
 70
     1
102
RTVSPost2010Prop36
280
     0
102
RTVSPost2010PropOp36
 70
     1
102
RTVSPost2010Prop37
 90
       50
102
RTVSPost2010PropOp37
 70
     1
102
RTVSPost2010Prop38
140
0.0
102
RTVSPost2010PropOp38
 70
     1
102
RTVSPost2010Prop39
140
1.0
102
RTVSPost2010PropOp39
 70
     1
102
RTVSPost2010Prop40
 90
        0
102
RTVSPost2010PropOp40
 70
     1
102
RTVSPost2010Prop41ColorIndex
 90
       18
102
RTVSPost2010Prop41ColorRGB
 90
        0
102
RTVSPost2010PropOp41
 70
     1
102
RTVSPost2010Prop42
 90
       50
102
RTVSPost2010PropOp42
 70
     1
102
RTVSPost2010Prop43
 90
        3
102
RTVSPost2010PropOp43
 70
     1
102
RTVSPost2010Prop44ColorIndex
 90
        5
102
RTVSPost2010Prop44ColorRGB
 90
      255
102
RTVSPost2010PropOp44
 70
     1
102
RTVSPost2010Prop45
280
     0
102
RTVSPost2010PropOp45
 70
     1
102
RTVSPost2010Prop46
 90
       50
102
RTVSPost2010PropOp46
 70
     1
102
RTVSPost2010Prop47
 90
       50
102
RTVSPost2010PropOp47
 70
     1
102
RTVSPost2010Prop48
 90
       50
102
RTVSPost2010PropOp48
 70
     1
102
RTVSPost2010Prop49
280
     0
102
RTVSPost2010PropOp49
 70
     1
102
RTVSPost2010Prop50
 90
       50
102
RTVSPost2010PropOp50
 70
     1
102
RTVSPost2010Prop51ColorIndex
 90
      256
102
RTVSPost2010Prop51ColorRGB
 90
-16777216
102
RTVSPost2010PropOp51
 70
     0
102
RTVSPost2010Prop52
140
1.0
102
RTVSPost2010PropOp52
 70
     0
102
RTVSPost2010Prop53
 90
        2
102
RTVSPost2010PropOp53
 70
     1
102
RTVSPost2010Prop54
  1
strokes_ogs.tif
102
RTVSPost2010PropOp54
 70
     1
102
RTVSPost2010Prop55
280
     0
102
RTVSPost2010PropOp55
 70
     1
102
RTVSPost2010Prop56
140
1.0
102
RTVSPost2010PropOp56
 70
     1
102
RTVSPost2010Prop57
140
1.0
102
RTVSPost2010PropOp57
 70
     1
102
RTVSPropertyOp0
 70
     1
102
RTVSPropertyOp1
 70
     1
102
RTVSPropertyOp2
 70
     1
102
RTVSPropertyOp3
 70
     1
102
RTVSPropertyOp4
 70
     1
102
RTVSPropertyOp5
 70
     1
102
RTVSPropertyOp6
 70
     1
102
RTVSPropertyOp7
 70
     1
102
RTVSPropertyOp8
 70
     1
102
RTVSPropertyOp9
 70
     1
102
RTVSPropertyOp10
 70
     1
102
RTVSPropertyOp11
 70
     1
102
RTVSPropertyOp12
 70
     1
102
RTVSPropertyOp13
 70
     1
102
RTVSPropertyOp14
 70
     1
102
RTVSPropertyOp15
 70
     1
102
RTVSPropertyOp16
 70
     1
102
RTVSPropertyOp17
 70
     1
102
RTVSPropertyOp18
 70
     1
102
RTVSPropertyOp19
 70
     1
102
RTVSPropertyOp20
 70
     1
102
RTVSPropertyOp21
 70
     1
102
RTVSPropertyOp22
 70
     1
102
RTVSPropertyOp23
 70
     1
102
RTVSPropertyOp24
 70
     1
102
RTVSPropertyOp25
 70
     1
102
RTVSPropertyOp26
 70
     1
102
RTVSPropertyOp27
 70
     1
102
RTVSPropertyOp28
 70
     1
102
RTVSPropertyOp29
 70
     1
102
RTVSPropertyOp30
 70
     1
102
RTVSPropertyOp31
 70
     1
102
RTVSPropertyOp32
 70
     1
102
RTVSPropertyOp33
 70
     1
102
RTVSPropertyOp34
 70
     1
102
RTVSPropertyOp35
 70
     1
102
RTVSPropertyOp36
 70
     1
102
RTVSPropertyOp37
 70
     1
102
RTVSPropertyOp38
 70
     1
102
RTVSPropertyOp39
 70
     1
102
RTVSPropertyOp40
 70
     1
102
RTVSPropertyOp41
 70
     1
102
RTVSPropertyOp42
 70
     1
102
RTVSPropertyOp43
 70
     1
102
RTVSPropertyOp44
 70
     1
102
RTVSPropertyOp45
 70
     1
102
RTVSPropertyOp46
 70
     1
102
RTVSPropertyOp47
 70
     1
102
RTVSPropertyOp48
 70
     1
102
RTVSPropertyOp49
 70
     1
102
RTVSPropertyOp50
 70
     1
102
RTVSPropertyOp51
 70
     0
102
RTVSPropertyOp52
 70
     0
102
RTVSPropertyOp53
 70
     1
102
RTVSPropertyOp54
 70
     1
102
RTVSPropertyOp55
 70
     1
102
RTVSPropertyOp56
 70
     1
102
RTVSPropertyOp57
 70
     1
102
RTVSPropertyOp58
 70
     1
102
RTVSPropertyOp59
 70
     1
102
RTVSPropertyOp60
 70
     1
102
RTVSPropertyOp61
 70
     1
102
RTVSPropertyOp62
 70
     1
  0
XRECORD
  5
37E
102
{ACAD_REACTORS
330
37D
102
}
330
37D
100
AcDbXrecord
280
     1
102
RTVSPost2010Prop28
280
     0
102
RTVSPost2010PropOp28
 70
     1
102
RTVSPost2010Prop29
280
     1
102
RTVSPost2010PropOp29
 70
     1
102
RTVSPost2010Prop30
280
     1
102
RTVSPost2010PropOp30
 70
     1
102
RTVSPost2010Prop31
280
     0
102
RTVSPost2010PropOp31
 70
     1
102
RTVSPost2010Prop32
280
     0
102
RTVSPost2010PropOp32
 70
     1
102
RTVSPost2010Prop33
280
     0
102
RTVSPost2010PropOp33
 70
     1
102
RTVSPost2010Prop34
280
     0
102
RTVSPost2010PropOp34
 70
     1
102
RTVSPost2010Prop35
280
     0
102
RTVSPost2010PropOp35
 70
     1
102
RTVSPost2010Prop36
280
     0
102
RTVSPost2010PropOp36
 70
     1
102
RTVSPost2010Prop37
 90
       50
102
RTVSPost2010PropOp37
 70
     1
102
RTVSPost2010Prop38
140
0.0
102
RTVSPost2010PropOp38
 70
     1
102
RTVSPost2010Prop39
140
1.0
102
RTVSPost2010PropOp39
 70
     1
102
RTVSPost2010Prop40
 90
        0
102
RTVSPost2010PropOp40
 70
     1
102
RTVSPost2010Prop41ColorIndex
 90
       18
102
RTVSPost2010Prop41ColorRGB
 90
        0
102
RTVSPost2010PropOp41
 70
     1
102
RTVSPost2010Prop42
 90
       50
102
RTVSPost2010PropOp42
 70
     1
102
RTVSPost2010Prop43
 90
        3
102
RTVSPost2010PropOp43
 70
     1
102
RTVSPost2010Prop44ColorIndex
 90
        5
102
RTVSPost2010Prop44ColorRGB
 90
      255
102
RTVSPost2010PropOp44
 70
     1
102
RTVSPost2010Prop45
280
     0
102
RTVSPost2010PropOp45
 70
     1
102
RTVSPost2010Prop46
 90
       50
102
RTVSPost2010PropOp46
 70
     1
102
RTVSPost2010Prop47
 90
       50
102
RTVSPost2010PropOp47
 70
     1
102
RTVSPost2010Prop48
 90
       50
102
RTVSPost2010PropOp48
 70
     1
102
RTVSPost2010Prop49
280
     0
102
RTVSPost2010PropOp49
 70
     1
102
RTVSPost2010Prop50
 90
       50
102
RTVSPost2010PropOp50
 70
     1
102
RTVSPost2010Prop51ColorIndex
 90
      256
102
RTVSPost2010Prop51ColorRGB
 90
-16777216
102
RTVSPost2010PropOp51
 70
     0
102
RTVSPost2010Prop52
140
1.0
102
RTVSPost2010PropOp52
 70
     0
102
RTVSPost2010Prop53
 90
        2
102
RTVSPost2010PropOp53
 70
     1
102
RTVSPost2010Prop54
  1
strokes_ogs.tif
102
RTVSPost2010PropOp54
 70
     1
102
RTVSPost2010Prop55
280
     0
102
RTVSPost2010PropOp55
 70
     1
102
RTVSPost2010Prop56
140
1.0
102
RTVSPost2010PropOp56
 70
     1
102
RTVSPost2010Prop57
140
1.0
102
RTVSPost2010PropOp57
 70
     1
102
RTVSPropertyOp0
 70
     1
102
RTVSPropertyOp1
 70
     1
102
RTVSPropertyOp2
 70
     1
102
RTVSPropertyOp3
 70
     1
102
RTVSPropertyOp4
 70
     1
102
RTVSPropertyOp5
 70
     1
102
RTVSPropertyOp6
 70
     1
102
RTVSPropertyOp7
 70
     1
102
RTVSPropertyOp8
 70
     1
102
RTVSPropertyOp9
 70
     1
102
RTVSPropertyOp10
 70
     1
102
RTVSPropertyOp11
 70
     1
102
RTVSPropertyOp12
 70
     1
102
RTVSPropertyOp13
 70
     1
102
RTVSPropertyOp14
 70
     1
102
RTVSPropertyOp15
 70
     1
102
RTVSPropertyOp16
 70
     1
102
RTVSPropertyOp17
 70
     1
102
RTVSPropertyOp18
 70
     1
102
RTVSPropertyOp19
 70
     1
102
RTVSPropertyOp20
 70
     1
102
RTVSPropertyOp21
 70
     1
102
RTVSPropertyOp22
 70
     1
102
RTVSPropertyOp23
 70
     1
102
RTVSPropertyOp24
 70
     1
102
RTVSPropertyOp25
 70
     1
102
RTVSPropertyOp26
 70
     1
102
RTVSPropertyOp27
 70
     1
102
RTVSPropertyOp28
 70
     1
102
RTVSPropertyOp29
 70
     1
102
RTVSPropertyOp30
 70
     1
102
RTVSPropertyOp31
 70
     1
102
RTVSPropertyOp32
 70
     1
102
RTVSPropertyOp33
 70
     1
102
RTVSPropertyOp34
 70
     1
102
RTVSPropertyOp35
 70
     1
102
RTVSPropertyOp36
 70
     1
102
RTVSPropertyOp37
 70
     1
102
RTVSPropertyOp38
 70
     1
102
RTVSPropertyOp39
 70
     1
102
RTVSPropertyOp40
 70
     1
102
RTVSPropertyOp41
 70
     1
102
RTVSPropertyOp42
 70
     1
102
RTVSPropertyOp43
 70
     1
102
RTVSPropertyOp44
 70
     1
102
RTVSPropertyOp45
 70
     1
102
RTVSPropertyOp46
 70
     1
102
RTVSPropertyOp47
 70
     1
102
RTVSPropertyOp48
 70
     1
102
RTVSPropertyOp49
 70
     1
102
RTVSPropertyOp50
 70
     1
102
RTVSPropertyOp51
 70
     0
102
RTVSPropertyOp52
 70
     0
102
RTVSPropertyOp53
 70
     1
102
RTVSPropertyOp54
 70
     1
102
RTVSPropertyOp55
 70
     1
102
RTVSPropertyOp56
 70
     1
102
RTVSPropertyOp57
 70
     1
102
RTVSPropertyOp58
 70
     1
102
RTVSPropertyOp59
 70
     1
102
RTVSPropertyOp60
 70
     1
102
RTVSPropertyOp61
 70
     1
102
RTVSPropertyOp62
 70
     1
  0
XRECORD
  5
380
102
{ACAD_REACTORS
330
37F
102
}
330
37F
100
AcDbXrecord
280
     1
102
RTVSPost2010Prop28
280
     0
102
RTVSPost2010PropOp28
 70
     1
102
RTVSPost2010Prop29
280
     1
102
RTVSPost2010PropOp29
 70
     1
102
RTVSPost2010Prop30
280
     1
102
RTVSPost2010PropOp30
 70
     1
102
RTVSPost2010Prop31
280
     0
102
RTVSPost2010PropOp31
 70
     1
102
RTVSPost2010Prop32
280
     0
102
RTVSPost2010PropOp32
 70
     1
102
RTVSPost2010Prop33
280
     0
102
RTVSPost2010PropOp33
 70
     1
102
RTVSPost2010Prop34
280
     0
102
RTVSPost2010PropOp34
 70
     1
102
RTVSPost2010Prop35
280
     0
102
RTVSPost2010PropOp35
 70
     1
102
RTVSPost2010Prop36
280
     0
102
RTVSPost2010PropOp36
 70
     1
102
RTVSPost2010Prop37
 90
       50
102
RTVSPost2010PropOp37
 70
     1
102
RTVSPost2010Prop38
140
0.0
102
RTVSPost2010PropOp38
 70
     1
102
RTVSPost2010Prop39
140
1.0
102
RTVSPost2010PropOp39
 70
     1
102
RTVSPost2010Prop40
 90
        0
102
RTVSPost2010PropOp40
 70
     1
102
RTVSPost2010Prop41ColorIndex
 90
       18
102
RTVSPost2010Prop41ColorRGB
 90
        0
102
RTVSPost2010PropOp41
 70
     1
102
RTVSPost2010Prop42
 90
       50
102
RTVSPost2010PropOp42
 70
     1
102
RTVSPost2010Prop43
 90
        3
102
RTVSPost2010PropOp43
 70
     1
102
RTVSPost2010Prop44ColorIndex
 90
        5
102
RTVSPost2010Prop44ColorRGB
 90
      255
102
RTVSPost2010PropOp44
 70
     1
102
RTVSPost2010Prop45
280
     0
102
RTVSPost2010PropOp45
 70
     1
102
RTVSPost2010Prop46
 90
       50
102
RTVSPost2010PropOp46
 70
     1
102
RTVSPost2010Prop47
 90
       50
102
RTVSPost2010PropOp47
 70
     1
102
RTVSPost2010Prop48
 90
       50
102
RTVSPost2010PropOp48
 70
     1
102
RTVSPost2010Prop49
280
     0
102
RTVSPost2010PropOp49
 70
     1
102
RTVSPost2010Prop50
 90
       50
102
RTVSPost2010PropOp50
 70
     1
102
RTVSPost2010Prop51ColorIndex
 90
      256
102
RTVSPost2010Prop51ColorRGB
 90
-16777216
102
RTVSPost2010PropOp51
 70
     0
102
RTVSPost2010Prop52
140
1.0
102
RTVSPost2010PropOp52
 70
     0
102
RTVSPost2010Prop53
 90
        2
102
RTVSPost2010PropOp53
 70
     1
102
RTVSPost2010Prop54
  1
strokes_ogs.tif
102
RTVSPost2010PropOp54
 70
     1
102
RTVSPost2010Prop55
280
     0
102
RTVSPost2010PropOp55
 70
     1
102
RTVSPost2010Prop56
140
1.0
102
RTVSPost2010PropOp56
 70
     1
102
RTVSPost2010Prop57
140
1.0
102
RTVSPost2010PropOp57
 70
     1
102
RTVSPropertyOp0
 70
     1
102
RTVSPropertyOp1
 70
     1
102
RTVSPropertyOp2
 70
     1
102
RTVSPropertyOp3
 70
     1
102
RTVSPropertyOp4
 70
     1
102
RTVSPropertyOp5
 70
     1
102
RTVSPropertyOp6
 70
     1
102
RTVSPropertyOp7
 70
     1
102
RTVSPropertyOp8
 70
     1
102
RTVSPropertyOp9
 70
     1
102
RTVSPropertyOp10
 70
     1
102
RTVSPropertyOp11
 70
     1
102
RTVSPropertyOp12
 70
     1
102
RTVSPropertyOp13
 70
     1
102
RTVSPropertyOp14
 70
     1
102
RTVSPropertyOp15
 70
     1
102
RTVSPropertyOp16
 70
     1
102
RTVSPropertyOp17
 70
     1
102
RTVSPropertyOp18
 70
     1
102
RTVSPropertyOp19
 70
     1
102
RTVSPropertyOp20
 70
     1
102
RTVSPropertyOp21
 70
     1
102
RTVSPropertyOp22
 70
     1
102
RTVSPropertyOp23
 70
     1
102
RTVSPropertyOp24
 70
     1
102
RTVSPropertyOp25
 70
     1
102
RTVSPropertyOp26
 70
     1
102
RTVSPropertyOp27
 70
     1
102
RTVSPropertyOp28
 70
     1
102
RTVSPropertyOp29
 70
     1
102
RTVSPropertyOp30
 70
     1
102
RTVSPropertyOp31
 70
     1
102
RTVSPropertyOp32
 70
     1
102
RTVSPropertyOp33
 70
     1
102
RTVSPropertyOp34
 70
     1
102
RTVSPropertyOp35
 70
     1
102
RTVSPropertyOp36
 70
     1
102
RTVSPropertyOp37
 70
     1
102
RTVSPropertyOp38
 70
     1
102
RTVSPropertyOp39
 70
     1
102
RTVSPropertyOp40
 70
     1
102
RTVSPropertyOp41
 70
     1
102
RTVSPropertyOp42
 70
     1
102
RTVSPropertyOp43
 70
     1
102
RTVSPropertyOp44
 70
     1
102
RTVSPropertyOp45
 70
     1
102
RTVSPropertyOp46
 70
     1
102
RTVSPropertyOp47
 70
     1
102
RTVSPropertyOp48
 70
     1
102
RTVSPropertyOp49
 70
     1
102
RTVSPropertyOp50
 70
     1
102
RTVSPropertyOp51
 70
     0
102
RTVSPropertyOp52
 70
     0
102
RTVSPropertyOp53
 70
     1
102
RTVSPropertyOp54
 70
     1
102
RTVSPropertyOp55
 70
     1
102
RTVSPropertyOp56
 70
     1
102
RTVSPropertyOp57
 70
     1
102
RTVSPropertyOp58
 70
     1
102
RTVSPropertyOp59
 70
     1
102
RTVSPropertyOp60
 70
     1
102
RTVSPropertyOp61
 70
     1
102
RTVSPropertyOp62
 70
     1
  0
XRECORD
  5
390
102
{ACAD_REACTORS
330
38F
102
}
330
38F
100
AcDbXrecord
280
     1
102
RTVSPost2010Prop28
280
     0
102
RTVSPost2010PropOp28
 70
     0
102
RTVSPost2010Prop29
280
     1
102
RTVSPost2010PropOp29
 70
     0
102
RTVSPost2010Prop30
280
     1
102
RTVSPost2010PropOp30
 70
     0
102
RTVSPost2010Prop31
280
     0
102
RTVSPost2010PropOp31
 70
     0
102
RTVSPost2010Prop32
280
     0
102
RTVSPost2010PropOp32
 70
     0
102
RTVSPost2010Prop33
280
     0
102
RTVSPost2010PropOp33
 70
     0
102
RTVSPost2010Prop34
280
     0
102
RTVSPost2010PropOp34
 70
     0
102
RTVSPost2010Prop35
280
     0
102
RTVSPost2010PropOp35
 70
     0
102
RTVSPost2010Prop36
280
     0
102
RTVSPost2010PropOp36
 70
     0
102
RTVSPost2010Prop37
 90
       50
102
RTVSPost2010PropOp37
 70
     0
102
RTVSPost2010Prop38
140
0.0
102
RTVSPost2010PropOp38
 70
     0
102
RTVSPost2010Prop39
140
1.0
102
RTVSPost2010PropOp39
 70
     0
102
RTVSPost2010Prop40
 90
        0
102
RTVSPost2010PropOp40
 70
     0
102
RTVSPost2010Prop41ColorIndex
 90
       18
102
RTVSPost2010Prop41ColorRGB
 90
        0
102
RTVSPost2010PropOp41
 70
     0
102
RTVSPost2010Prop42
 90
       50
102
RTVSPost2010PropOp42
 70
     0
102
RTVSPost2010Prop43
 90
        3
102
RTVSPost2010PropOp43
 70
     0
102
RTVSPost2010Prop44ColorIndex
 90
        5
102
RTVSPost2010Prop44ColorRGB
 90
      255
102
RTVSPost2010PropOp44
 70
     0
102
RTVSPost2010Prop45
280
     0
102
RTVSPost2010PropOp45
 70
     0
102
RTVSPost2010Prop46
 90
       50
102
RTVSPost2010PropOp46
 70
     0
102
RTVSPost2010Prop47
 90
       50
102
RTVSPost2010PropOp47
 70
     0
102
RTVSPost2010Prop48
 90
       50
102
RTVSPost2010PropOp48
 70
     0
102
RTVSPost2010Prop49
280
     0
102
RTVSPost2010PropOp49
 70
     0
102
RTVSPost2010Prop50
 90
       50
102
RTVSPost2010PropOp50
 70
     0
102
RTVSPost2010Prop51ColorIndex
 90
      256
102
RTVSPost2010Prop51ColorRGB
 90
-16777216
102
RTVSPost2010PropOp51
 70
     0
102
RTVSPost2010Prop52
140
1.0
102
RTVSPost2010PropOp52
 70
     0
102
RTVSPost2010Prop53
 90
        2
102
RTVSPost2010PropOp53
 70
     0
102
RTVSPost2010Prop54
  1
strokes_ogs.tif
102
RTVSPost2010PropOp54
 70
     0
102
RTVSPost2010Prop55
280
     0
102
RTVSPost2010PropOp55
 70
     0
102
RTVSPost2010Prop56
140
1.0
102
RTVSPost2010PropOp56
 70
     0
102
RTVSPost2010Prop57
140
1.0
102
RTVSPost2010PropOp57
 70
     0
102
RTVSPropertyOp0
 70
     0
102
RTVSPropertyOp1
 70
     0
102
RTVSPropertyOp2
 70
     0
102
RTVSPropertyOp3
 70
     0
102
RTVSPropertyOp4
 70
     0
102
RTVSPropertyOp5
 70
     0
102
RTVSPropertyOp6
 70
     0
102
RTVSPropertyOp7
 70
     0
102
RTVSPropertyOp8
 70
     0
102
RTVSPropertyOp9
 70
     0
102
RTVSPropertyOp10
 70
     0
102
RTVSPropertyOp11
 70
     0
102
RTVSPropertyOp12
 70
     0
102
RTVSPropertyOp13
 70
     0
102
RTVSPropertyOp14
 70
     2
102
RTVSPropertyOp15
 70
     0
102
RTVSPropertyOp16
 70
     0
102
RTVSPropertyOp17
 70
     0
102
RTVSPropertyOp18
 70
     0
102
RTVSPropertyOp19
 70
     0
102
RTVSPropertyOp20
 70
     0
102
RTVSPropertyOp21
 70
     0
102
RTVSPropertyOp22
 70
     0
102
RTVSPropertyOp23
 70
     0
102
RTVSPropertyOp24
 70
     0
102
RTVSPropertyOp25
 70
     0
102
RTVSPropertyOp26
 70
     0
102
RTVSPropertyOp27
 70
     0
102
RTVSPropertyOp28
 70
     0
102
RTVSPropertyOp29
 70
     0
102
RTVSPropertyOp30
 70
     0
102
RTVSPropertyOp31
 70
     0
102
RTVSPropertyOp32
 70
     0
102
RTVSPropertyOp33
 70
     0
102
RTVSPropertyOp34
 70
     0
102
RTVSPropertyOp35
 70
     0
102
RTVSPropertyOp36
 70
     0
102
RTVSPropertyOp37
 70
     0
102
RTVSPropertyOp38
 70
     0
102
RTVSPropertyOp39
 70
     0
102
RTVSPropertyOp40
 70
     0
102
RTVSPropertyOp41
 70
     0
102
RTVSPropertyOp42
 70
     0
102
RTVSPropertyOp43
 70
     0
102
RTVSPropertyOp44
 70
     0
102
RTVSPropertyOp45
 70
     0
102
RTVSPropertyOp46
 70
     0
102
RTVSPropertyOp47
 70
     0
102
RTVSPropertyOp48
 70
     0
102
RTVSPropertyOp49
 70
     0
102
RTVSPropertyOp50
 70
     0
102
RTVSPropertyOp51
 70
     0
102
RTVSPropertyOp52
 70
     0
102
RTVSPropertyOp53
 70
     0
102
RTVSPropertyOp54
 70
     0
102
RTVSPropertyOp55
 70
     0
102
RTVSPropertyOp56
 70
     0
102
RTVSPropertyOp57
 70
     0
102
RTVSPropertyOp58
 70
     1
102
RTVSPropertyOp59
 70
     1
102
RTVSPropertyOp60
 70
     1
102
RTVSPropertyOp61
 70
     1
102
RTVSPropertyOp62
 70
     1
  0
XRECORD
  5
388
102
{ACAD_REACTORS
330
387
102
}
330
387
100
AcDbXrecord
280
     1
102
RTVSPost2010Prop28
280
     0
102
RTVSPost2010PropOp28
 70
     1
102
RTVSPost2010Prop29
280
     1
102
RTVSPost2010PropOp29
 70
     1
102
RTVSPost2010Prop30
280
     1
102
RTVSPost2010PropOp30
 70
     1
102
RTVSPost2010Prop31
280
     0
102
RTVSPost2010PropOp31
 70
     1
102
RTVSPost2010Prop32
280
     0
102
RTVSPost2010PropOp32
 70
     1
102
RTVSPost2010Prop33
280
     0
102
RTVSPost2010PropOp33
 70
     1
102
RTVSPost2010Prop34
280
     0
102
RTVSPost2010PropOp34
 70
     1
102
RTVSPost2010Prop35
280
     0
102
RTVSPost2010PropOp35
 70
     1
102
RTVSPost2010Prop36
280
     0
102
RTVSPost2010PropOp36
 70
     1
102
RTVSPost2010Prop37
 90
       50
102
RTVSPost2010PropOp37
 70
     1
102
RTVSPost2010Prop38
140
0.0
102
RTVSPost2010PropOp38
 70
     1
102
RTVSPost2010Prop39
140
1.0
102
RTVSPost2010PropOp39
 70
     1
102
RTVSPost2010Prop40
 90
        0
102
RTVSPost2010PropOp40
 70
     1
102
RTVSPost2010Prop41ColorIndex
 90
       18
102
RTVSPost2010Prop41ColorRGB
 90
        0
102
RTVSPost2010PropOp41
 70
     1
102
RTVSPost2010Prop42
 90
       50
102
RTVSPost2010PropOp42
 70
     1
102
RTVSPost2010Prop43
 90
        3
102
RTVSPost2010PropOp43
 70
     1
102
RTVSPost2010Prop44ColorIndex
 90
        5
102
RTVSPost2010Prop44ColorRGB
 90
      255
102
RTVSPost2010PropOp44
 70
     1
102
RTVSPost2010Prop45
280
     0
102
RTVSPost2010PropOp45
 70
     1
102
RTVSPost2010Prop46
 90
       50
102
RTVSPost2010PropOp46
 70
     1
102
RTVSPost2010Prop47
 90
       50
102
RTVSPost2010PropOp47
 70
     1
102
RTVSPost2010Prop48
 90
       50
102
RTVSPost2010PropOp48
 70
     1
102
RTVSPost2010Prop49
280
     0
102
RTVSPost2010PropOp49
 70
     1
102
RTVSPost2010Prop50
 90
       50
102
RTVSPost2010PropOp50
 70
     1
102
RTVSPost2010Prop51ColorIndex
 90
      256
102
RTVSPost2010Prop51ColorRGB
 90
-16777216
102
RTVSPost2010PropOp51
 70
     0
102
RTVSPost2010Prop52
140
1.0
102
RTVSPost2010PropOp52
 70
     0
102
RTVSPost2010Prop53
 90
        2
102
RTVSPost2010PropOp53
 70
     1
102
RTVSPost2010Prop54
  1
strokes_ogs.tif
102
RTVSPost2010PropOp54
 70
     1
102
RTVSPost2010Prop55
280
     0
102
RTVSPost2010PropOp55
 70
     1
102
RTVSPost2010Prop56
140
1.0
102
RTVSPost2010PropOp56
 70
     1
102
RTVSPost2010Prop57
140
1.0
102
RTVSPost2010PropOp57
 70
     1
102
RTVSPropertyOp0
 70
     1
102
RTVSPropertyOp1
 70
     1
102
RTVSPropertyOp2
 70
     1
102
RTVSPropertyOp3
 70
     1
102
RTVSPropertyOp4
 70
     1
102
RTVSPropertyOp5
 70
     1
102
RTVSPropertyOp6
 70
     1
102
RTVSPropertyOp7
 70
     1
102
RTVSPropertyOp8
 70
     1
102
RTVSPropertyOp9
 70
     1
102
RTVSPropertyOp10
 70
     1
102
RTVSPropertyOp11
 70
     1
102
RTVSPropertyOp12
 70
     1
102
RTVSPropertyOp13
 70
     1
102
RTVSPropertyOp14
 70
     1
102
RTVSPropertyOp15
 70
     1
102
RTVSPropertyOp16
 70
     1
102
RTVSPropertyOp17
 70
     1
102
RTVSPropertyOp18
 70
     1
102
RTVSPropertyOp19
 70
     1
102
RTVSPropertyOp20
 70
     1
102
RTVSPropertyOp21
 70
     1
102
RTVSPropertyOp22
 70
     1
102
RTVSPropertyOp23
 70
     1
102
RTVSPropertyOp24
 70
     1
102
RTVSPropertyOp25
 70
     1
102
RTVSPropertyOp26
 70
     1
102
RTVSPropertyOp27
 70
     1
102
RTVSPropertyOp28
 70
     1
102
RTVSPropertyOp29
 70
     1
102
RTVSPropertyOp30
 70
     1
102
RTVSPropertyOp31
 70
     1
102
RTVSPropertyOp32
 70
     1
102
RTVSPropertyOp33
 70
     1
102
RTVSPropertyOp34
 70
     1
102
RTVSPropertyOp35
 70
     1
102
RTVSPropertyOp36
 70
     1
102
RTVSPropertyOp37
 70
     1
102
RTVSPropertyOp38
 70
     1
102
RTVSPropertyOp39
 70
     1
102
RTVSPropertyOp40
 70
     1
102
RTVSPropertyOp41
 70
     1
102
RTVSPropertyOp42
 70
     1
102
RTVSPropertyOp43
 70
     1
102
RTVSPropertyOp44
 70
     1
102
RTVSPropertyOp45
 70
     1
102
RTVSPropertyOp46
 70
     1
102
RTVSPropertyOp47
 70
     1
102
RTVSPropertyOp48
 70
     1
102
RTVSPropertyOp49
 70
     1
102
RTVSPropertyOp50
 70
     1
102
RTVSPropertyOp51
 70
     0
102
RTVSPropertyOp52
 70
     0
102
RTVSPropertyOp53
 70
     1
102
RTVSPropertyOp54
 70
     1
102
RTVSPropertyOp55
 70
     1
102
RTVSPropertyOp56
 70
     1
102
RTVSPropertyOp57
 70
     1
102
RTVSPropertyOp58
 70
     1
102
RTVSPropertyOp59
 70
     1
102
RTVSPropertyOp60
 70
     1
102
RTVSPropertyOp61
 70
     1
102
RTVSPropertyOp62
 70
     1
  0
XRECORD
  5
36C
102
{ACAD_REACTORS
330
36B
102
}
330
36B
100
AcDbXrecord
280
     1
102
RTVSPost2010Prop28
280
     0
102
RTVSPost2010PropOp28
 70
     1
102
RTVSPost2010Prop29
280
     1
102
RTVSPost2010PropOp29
 70
     1
102
RTVSPost2010Prop30
280
     1
102
RTVSPost2010PropOp30
 70
     1
102
RTVSPost2010Prop31
280
     0
102
RTVSPost2010PropOp31
 70
     1
102
RTVSPost2010Prop32
280
     0
102
RTVSPost2010PropOp32
 70
     1
102
RTVSPost2010Prop33
280
     0
102
RTVSPost2010PropOp33
 70
     1
102
RTVSPost2010Prop34
280
     0
102
RTVSPost2010PropOp34
 70
     1
102
RTVSPost2010Prop35
280
     0
102
RTVSPost2010PropOp35
 70
     1
102
RTVSPost2010Prop36
280
     0
102
RTVSPost2010PropOp36
 70
     1
102
RTVSPost2010Prop37
 90
       50
102
RTVSPost2010PropOp37
 70
     1
102
RTVSPost2010Prop38
140
0.0
102
RTVSPost2010PropOp38
 70
     1
102
RTVSPost2010Prop39
140
1.0
102
RTVSPost2010PropOp39
 70
     1
102
RTVSPost2010Prop40
 90
        0
102
RTVSPost2010PropOp40
 70
     1
102
RTVSPost2010Prop41ColorIndex
 90
       18
102
RTVSPost2010Prop41ColorRGB
 90
        0
102
RTVSPost2010PropOp41
 70
     1
102
RTVSPost2010Prop42
 90
       50
102
RTVSPost2010PropOp42
 70
     1
102
RTVSPost2010Prop43
 90
        3
102
RTVSPost2010PropOp43
 70
     1
102
RTVSPost2010Prop44ColorIndex
 90
        5
102
RTVSPost2010Prop44ColorRGB
 90
      255
102
RTVSPost2010PropOp44
 70
     1
102
RTVSPost2010Prop45
280
     0
102
RTVSPost2010PropOp45
 70
     1
102
RTVSPost2010Prop46
 90
       50
102
RTVSPost2010PropOp46
 70
     1
102
RTVSPost2010Prop47
 90
       50
102
RTVSPost2010PropOp47
 70
     1
102
RTVSPost2010Prop48
 90
       50
102
RTVSPost2010PropOp48
 70
     1
102
RTVSPost2010Prop49
280
     0
102
RTVSPost2010PropOp49
 70
     1
102
RTVSPost2010Prop50
 90
       50
102
RTVSPost2010PropOp50
 70
     1
102
RTVSPost2010Prop51ColorIndex
 90
      256
102
RTVSPost2010Prop51ColorRGB
 90
-16777216
102
RTVSPost2010PropOp51
 70
     0
102
RTVSPost2010Prop52
140
1.0
102
RTVSPost2010PropOp52
 70
     0
102
RTVSPost2010Prop53
 90
        2
102
RTVSPost2010PropOp53
 70
     1
102
RTVSPost2010Prop54
  1
strokes_ogs.tif
102
RTVSPost2010PropOp54
 70
     1
102
RTVSPost2010Prop55
280
     0
102
RTVSPost2010PropOp55
 70
     1
102
RTVSPost2010Prop56
140
1.0
102
RTVSPost2010PropOp56
 70
     1
102
RTVSPost2010Prop57
140
1.0
102
RTVSPost2010PropOp57
 70
     1
102
RTVSPropertyOp0
 70
     1
102
RTVSPropertyOp1
 70
     1
102
RTVSPropertyOp2
 70
     1
102
RTVSPropertyOp3
 70
     1
102
RTVSPropertyOp4
 70
     1
102
RTVSPropertyOp5
 70
     1
102
RTVSPropertyOp6
 70
     1
102
RTVSPropertyOp7
 70
     1
102
RTVSPropertyOp8
 70
     1
102
RTVSPropertyOp9
 70
     1
102
RTVSPropertyOp10
 70
     1
102
RTVSPropertyOp11
 70
     1
102
RTVSPropertyOp12
 70
     1
102
RTVSPropertyOp13
 70
     1
102
RTVSPropertyOp14
 70
     1
102
RTVSPropertyOp15
 70
     1
102
RTVSPropertyOp16
 70
     1
102
RTVSPropertyOp17
 70
     1
102
RTVSPropertyOp18
 70
     1
102
RTVSPropertyOp19
 70
     1
102
RTVSPropertyOp20
 70
     1
102
RTVSPropertyOp21
 70
     1
102
RTVSPropertyOp22
 70
     1
102
RTVSPropertyOp23
 70
     1
102
RTVSPropertyOp24
 70
     1
102
RTVSPropertyOp25
 70
     1
102
RTVSPropertyOp26
 70
     1
102
RTVSPropertyOp27
 70
     1
102
RTVSPropertyOp28
 70
     1
102
RTVSPropertyOp29
 70
     1
102
RTVSPropertyOp30
 70
     1
102
RTVSPropertyOp31
 70
     1
102
RTVSPropertyOp32
 70
     1
102
RTVSPropertyOp33
 70
     1
102
RTVSPropertyOp34
 70
     1
102
RTVSPropertyOp35
 70
     1
102
RTVSPropertyOp36
 70
     1
102
RTVSPropertyOp37
 70
     1
102
RTVSPropertyOp38
 70
     1
102
RTVSPropertyOp39
 70
     1
102
RTVSPropertyOp40
 70
     1
102
RTVSPropertyOp41
 70
     1
102
RTVSPropertyOp42
 70
     1
102
RTVSPropertyOp43
 70
     1
102
RTVSPropertyOp44
 70
     1
102
RTVSPropertyOp45
 70
     1
102
RTVSPropertyOp46
 70
     1
102
RTVSPropertyOp47
 70
     1
102
RTVSPropertyOp48
 70
     1
102
RTVSPropertyOp49
 70
     1
102
RTVSPropertyOp50
 70
     1
102
RTVSPropertyOp51
 70
     0
102
RTVSPropertyOp52
 70
     0
102
RTVSPropertyOp53
 70
     1
102
RTVSPropertyOp54
 70
     1
102
RTVSPropertyOp55
 70
     1
102
RTVSPropertyOp56
 70
     1
102
RTVSPropertyOp57
 70
     1
102
RTVSPropertyOp58
 70
     1
102
RTVSPropertyOp59
 70
     1
102
RTVSPropertyOp60
 70
     1
102
RTVSPropertyOp61
 70
     1
102
RTVSPropertyOp62
 70
     1
  0
XRECORD
  5
36E
102
{ACAD_REACTORS
330
36D
102
}
330
36D
100
AcDbXrecord
280
     1
102
RTVSPost2010Prop28
280
     0
102
RTVSPost2010PropOp28
 70
     1
102
RTVSPost2010Prop29
280
     1
102
RTVSPost2010PropOp29
 70
     1
102
RTVSPost2010Prop30
280
     1
102
RTVSPost2010PropOp30
 70
     1
102
RTVSPost2010Prop31
280
     0
102
RTVSPost2010PropOp31
 70
     1
102
RTVSPost2010Prop32
280
     0
102
RTVSPost2010PropOp32
 70
     1
102
RTVSPost2010Prop33
280
     0
102
RTVSPost2010PropOp33
 70
     1
102
RTVSPost2010Prop34
280
     0
102
RTVSPost2010PropOp34
 70
     1
102
RTVSPost2010Prop35
280
     0
102
RTVSPost2010PropOp35
 70
     1
102
RTVSPost2010Prop36
280
     0
102
RTVSPost2010PropOp36
 70
     1
102
RTVSPost2010Prop37
 90
       50
102
RTVSPost2010PropOp37
 70
     1
102
RTVSPost2010Prop38
140
0.0
102
RTVSPost2010PropOp38
 70
     1
102
RTVSPost2010Prop39
140
1.0
102
RTVSPost2010PropOp39
 70
     1
102
RTVSPost2010Prop40
 90
        0
102
RTVSPost2010PropOp40
 70
     1
102
RTVSPost2010Prop41ColorIndex
 90
       18
102
RTVSPost2010Prop41ColorRGB
 90
        0
102
RTVSPost2010PropOp41
 70
     1
102
RTVSPost2010Prop42
 90
       50
102
RTVSPost2010PropOp42
 70
     1
102
RTVSPost2010Prop43
 90
        3
102
RTVSPost2010PropOp43
 70
     1
102
RTVSPost2010Prop44ColorIndex
 90
        5
102
RTVSPost2010Prop44ColorRGB
 90
      255
102
RTVSPost2010PropOp44
 70
     1
102
RTVSPost2010Prop45
280
     0
102
RTVSPost2010PropOp45
 70
     1
102
RTVSPost2010Prop46
 90
       50
102
RTVSPost2010PropOp46
 70
     1
102
RTVSPost2010Prop47
 90
       50
102
RTVSPost2010PropOp47
 70
     1
102
RTVSPost2010Prop48
 90
       50
102
RTVSPost2010PropOp48
 70
     1
102
RTVSPost2010Prop49
280
     0
102
RTVSPost2010PropOp49
 70
     1
102
RTVSPost2010Prop50
 90
       50
102
RTVSPost2010PropOp50
 70
     1
102
RTVSPost2010Prop51ColorIndex
 90
      256
102
RTVSPost2010Prop51ColorRGB
 90
-16777216
102
RTVSPost2010PropOp51
 70
     0
102
RTVSPost2010Prop52
140
1.0
102
RTVSPost2010PropOp52
 70
     0
102
RTVSPost2010Prop53
 90
        2
102
RTVSPost2010PropOp53
 70
     1
102
RTVSPost2010Prop54
  1
strokes_ogs.tif
102
RTVSPost2010PropOp54
 70
     1
102
RTVSPost2010Prop55
280
     0
102
RTVSPost2010PropOp55
 70
     1
102
RTVSPost2010Prop56
140
1.0
102
RTVSPost2010PropOp56
 70
     1
102
RTVSPost2010Prop57
140
1.0
102
RTVSPost2010PropOp57
 70
     1
102
RTVSPropertyOp0
 70
     1
102
RTVSPropertyOp1
 70
     1
102
RTVSPropertyOp2
 70
     1
102
RTVSPropertyOp3
 70
     1
102
RTVSPropertyOp4
 70
     1
102
RTVSPropertyOp5
 70
     1
102
RTVSPropertyOp6
 70
     1
102
RTVSPropertyOp7
 70
     1
102
RTVSPropertyOp8
 70
     1
102
RTVSPropertyOp9
 70
     1
102
RTVSPropertyOp10
 70
     1
102
RTVSPropertyOp11
 70
     1
102
RTVSPropertyOp12
 70
     1
102
RTVSPropertyOp13
 70
     1
102
RTVSPropertyOp14
 70
     1
102
RTVSPropertyOp15
 70
     1
102
RTVSPropertyOp16
 70
     1
102
RTVSPropertyOp17
 70
     1
102
RTVSPropertyOp18
 70
     1
102
RTVSPropertyOp19
 70
     1
102
RTVSPropertyOp20
 70
     1
102
RTVSPropertyOp21
 70
     1
102
RTVSPropertyOp22
 70
     1
102
RTVSPropertyOp23
 70
     1
102
RTVSPropertyOp24
 70
     1
102
RTVSPropertyOp25
 70
     1
102
RTVSPropertyOp26
 70
     1
102
RTVSPropertyOp27
 70
     1
102
RTVSPropertyOp28
 70
     1
102
RTVSPropertyOp29
 70
     1
102
RTVSPropertyOp30
 70
     1
102
RTVSPropertyOp31
 70
     1
102
RTVSPropertyOp32
 70
     1
102
RTVSPropertyOp33
 70
     1
102
RTVSPropertyOp34
 70
     1
102
RTVSPropertyOp35
 70
     1
102
RTVSPropertyOp36
 70
     1
102
RTVSPropertyOp37
 70
     1
102
RTVSPropertyOp38
 70
     1
102
RTVSPropertyOp39
 70
     1
102
RTVSPropertyOp40
 70
     1
102
RTVSPropertyOp41
 70
     1
102
RTVSPropertyOp42
 70
     1
102
RTVSPropertyOp43
 70
     1
102
RTVSPropertyOp44
 70
     1
102
RTVSPropertyOp45
 70
     1
102
RTVSPropertyOp46
 70
     1
102
RTVSPropertyOp47
 70
     1
102
RTVSPropertyOp48
 70
     1
102
RTVSPropertyOp49
 70
     1
102
RTVSPropertyOp50
 70
     1
102
RTVSPropertyOp51
 70
     0
102
RTVSPropertyOp52
 70
     0
102
RTVSPropertyOp53
 70
     1
102
RTVSPropertyOp54
 70
     1
102
RTVSPropertyOp55
 70
     1
102
RTVSPropertyOp56
 70
     1
102
RTVSPropertyOp57
 70
     1
102
RTVSPropertyOp58
 70
     1
102
RTVSPropertyOp59
 70
     1
102
RTVSPropertyOp60
 70
     1
102
RTVSPropertyOp61
 70
     1
102
RTVSPropertyOp62
 70
     1
  0
XRECORD
  5
370
102
{ACAD_REACTORS
330
36F
102
}
330
36F
100
AcDbXrecord
280
     1
102
RTVSPost2010Prop28
280
     0
102
RTVSPost2010PropOp28
 70
     1
102
RTVSPost2010Prop29
280
     1
102
RTVSPost2010PropOp29
 70
     1
102
RTVSPost2010Prop30
280
     1
102
RTVSPost2010PropOp30
 70
     1
102
RTVSPost2010Prop31
280
     0
102
RTVSPost2010PropOp31
 70
     1
102
RTVSPost2010Prop32
280
     0
102
RTVSPost2010PropOp32
 70
     1
102
RTVSPost2010Prop33
280
     0
102
RTVSPost2010PropOp33
 70
     1
102
RTVSPost2010Prop34
280
     0
102
RTVSPost2010PropOp34
 70
     1
102
RTVSPost2010Prop35
280
     0
102
RTVSPost2010PropOp35
 70
     1
102
RTVSPost2010Prop36
280
     0
102
RTVSPost2010PropOp36
 70
     1
102
RTVSPost2010Prop37
 90
       50
102
RTVSPost2010PropOp37
 70
     1
102
RTVSPost2010Prop38
140
0.0
102
RTVSPost2010PropOp38
 70
     1
102
RTVSPost2010Prop39
140
1.0
102
RTVSPost2010PropOp39
 70
     1
102
RTVSPost2010Prop40
 90
        0
102
RTVSPost2010PropOp40
 70
     1
102
RTVSPost2010Prop41ColorIndex
 90
       18
102
RTVSPost2010Prop41ColorRGB
 90
        0
102
RTVSPost2010PropOp41
 70
     1
102
RTVSPost2010Prop42
 90
       50
102
RTVSPost2010PropOp42
 70
     1
102
RTVSPost2010Prop43
 90
        3
102
RTVSPost2010PropOp43
 70
     1
102
RTVSPost2010Prop44ColorIndex
 90
        5
102
RTVSPost2010Prop44ColorRGB
 90
      255
102
RTVSPost2010PropOp44
 70
     1
102
RTVSPost2010Prop45
280
     0
102
RTVSPost2010PropOp45
 70
     1
102
RTVSPost2010Prop46
 90
       50
102
RTVSPost2010PropOp46
 70
     1
102
RTVSPost2010Prop47
 90
       50
102
RTVSPost2010PropOp47
 70
     1
102
RTVSPost2010Prop48
 90
       50
102
RTVSPost2010PropOp48
 70
     1
102
RTVSPost2010Prop49
280
     0
102
RTVSPost2010PropOp49
 70
     1
102
RTVSPost2010Prop50
 90
       50
102
RTVSPost2010PropOp50
 70
     1
102
RTVSPost2010Prop51ColorIndex
 90
      256
102
RTVSPost2010Prop51ColorRGB
 90
-16777216
102
RTVSPost2010PropOp51
 70
     0
102
RTVSPost2010Prop52
140
1.0
102
RTVSPost2010PropOp52
 70
     0
102
RTVSPost2010Prop53
 90
        2
102
RTVSPost2010PropOp53
 70
     1
102
RTVSPost2010Prop54
  1
strokes_ogs.tif
102
RTVSPost2010PropOp54
 70
     1
102
RTVSPost2010Prop55
280
     0
102
RTVSPost2010PropOp55
 70
     1
102
RTVSPost2010Prop56
140
1.0
102
RTVSPost2010PropOp56
 70
     1
102
RTVSPost2010Prop57
140
1.0
102
RTVSPost2010PropOp57
 70
     1
102
RTVSPropertyOp0
 70
     1
102
RTVSPropertyOp1
 70
     1
102
RTVSPropertyOp2
 70
     1
102
RTVSPropertyOp3
 70
     1
102
RTVSPropertyOp4
 70
     1
102
RTVSPropertyOp5
 70
     1
102
RTVSPropertyOp6
 70
     1
102
RTVSPropertyOp7
 70
     1
102
RTVSPropertyOp8
 70
     1
102
RTVSPropertyOp9
 70
     1
102
RTVSPropertyOp10
 70
     1
102
RTVSPropertyOp11
 70
     1
102
RTVSPropertyOp12
 70
     1
102
RTVSPropertyOp13
 70
     1
102
RTVSPropertyOp14
 70
     1
102
RTVSPropertyOp15
 70
     1
102
RTVSPropertyOp16
 70
     1
102
RTVSPropertyOp17
 70
     1
102
RTVSPropertyOp18
 70
     1
102
RTVSPropertyOp19
 70
     1
102
RTVSPropertyOp20
 70
     1
102
RTVSPropertyOp21
 70
     1
102
RTVSPropertyOp22
 70
     1
102
RTVSPropertyOp23
 70
     1
102
RTVSPropertyOp24
 70
     1
102
RTVSPropertyOp25
 70
     1
102
RTVSPropertyOp26
 70
     1
102
RTVSPropertyOp27
 70
     1
102
RTVSPropertyOp28
 70
     1
102
RTVSPropertyOp29
 70
     1
102
RTVSPropertyOp30
 70
     1
102
RTVSPropertyOp31
 70
     1
102
RTVSPropertyOp32
 70
     1
102
RTVSPropertyOp33
 70
     1
102
RTVSPropertyOp34
 70
     1
102
RTVSPropertyOp35
 70
     1
102
RTVSPropertyOp36
 70
     1
102
RTVSPropertyOp37
 70
     1
102
RTVSPropertyOp38
 70
     1
102
RTVSPropertyOp39
 70
     1
102
RTVSPropertyOp40
 70
     1
102
RTVSPropertyOp41
 70
     1
102
RTVSPropertyOp42
 70
     1
102
RTVSPropertyOp43
 70
     1
102
RTVSPropertyOp44
 70
     1
102
RTVSPropertyOp45
 70
     1
102
RTVSPropertyOp46
 70
     1
102
RTVSPropertyOp47
 70
     1
102
RTVSPropertyOp48
 70
     1
102
RTVSPropertyOp49
 70
     1
102
RTVSPropertyOp50
 70
     1
102
RTVSPropertyOp51
 70
     0
102
RTVSPropertyOp52
 70
     0
102
RTVSPropertyOp53
 70
     1
102
RTVSPropertyOp54
 70
     1
102
RTVSPropertyOp55
 70
     1
102
RTVSPropertyOp56
 70
     1
102
RTVSPropertyOp57
 70
     1
102
RTVSPropertyOp58
 70
     1
102
RTVSPropertyOp59
 70
     1
102
RTVSPropertyOp60
 70
     1
102
RTVSPropertyOp61
 70
     1
102
RTVSPropertyOp62
 70
     1
  0
XRECORD
  5
372
102
{ACAD_REACTORS
330
371
102
}
330
371
100
AcDbXrecord
280
     1
102
RTVSPost2010Prop28
280
     0
102
RTVSPost2010PropOp28
 70
     1
102
RTVSPost2010Prop29
280
     1
102
RTVSPost2010PropOp29
 70
     1
102
RTVSPost2010Prop30
280
     1
102
RTVSPost2010PropOp30
 70
     1
102
RTVSPost2010Prop31
280
     0
102
RTVSPost2010PropOp31
 70
     1
102
RTVSPost2010Prop32
280
     0
102
RTVSPost2010PropOp32
 70
     1
102
RTVSPost2010Prop33
280
     0
102
RTVSPost2010PropOp33
 70
     1
102
RTVSPost2010Prop34
280
     0
102
RTVSPost2010PropOp34
 70
     1
102
RTVSPost2010Prop35
280
     0
102
RTVSPost2010PropOp35
 70
     1
102
RTVSPost2010Prop36
280
     0
102
RTVSPost2010PropOp36
 70
     1
102
RTVSPost2010Prop37
 90
       50
102
RTVSPost2010PropOp37
 70
     1
102
RTVSPost2010Prop38
140
0.0
102
RTVSPost2010PropOp38
 70
     1
102
RTVSPost2010Prop39
140
1.0
102
RTVSPost2010PropOp39
 70
     1
102
RTVSPost2010Prop40
 90
        0
102
RTVSPost2010PropOp40
 70
     1
102
RTVSPost2010Prop41ColorIndex
 90
       18
102
RTVSPost2010Prop41ColorRGB
 90
        0
102
RTVSPost2010PropOp41
 70
     1
102
RTVSPost2010Prop42
 90
       50
102
RTVSPost2010PropOp42
 70
     1
102
RTVSPost2010Prop43
 90
        3
102
RTVSPost2010PropOp43
 70
     1
102
RTVSPost2010Prop44ColorIndex
 90
        5
102
RTVSPost2010Prop44ColorRGB
 90
      255
102
RTVSPost2010PropOp44
 70
     1
102
RTVSPost2010Prop45
280
     0
102
RTVSPost2010PropOp45
 70
     1
102
RTVSPost2010Prop46
 90
       50
102
RTVSPost2010PropOp46
 70
     1
102
RTVSPost2010Prop47
 90
       50
102
RTVSPost2010PropOp47
 70
     1
102
RTVSPost2010Prop48
 90
       50
102
RTVSPost2010PropOp48
 70
     1
102
RTVSPost2010Prop49
280
     0
102
RTVSPost2010PropOp49
 70
     1
102
RTVSPost2010Prop50
 90
       50
102
RTVSPost2010PropOp50
 70
     1
102
RTVSPost2010Prop51ColorIndex
 90
      256
102
RTVSPost2010Prop51ColorRGB
 90
-16777216
102
RTVSPost2010PropOp51
 70
     0
102
RTVSPost2010Prop52
140
1.0
102
RTVSPost2010PropOp52
 70
     0
102
RTVSPost2010Prop53
 90
        2
102
RTVSPost2010PropOp53
 70
     1
102
RTVSPost2010Prop54
  1
strokes_ogs.tif
102
RTVSPost2010PropOp54
 70
     1
102
RTVSPost2010Prop55
280
     0
102
RTVSPost2010PropOp55
 70
     1
102
RTVSPost2010Prop56
140
1.0
102
RTVSPost2010PropOp56
 70
     1
102
RTVSPost2010Prop57
140
1.0
102
RTVSPost2010PropOp57
 70
     1
102
RTVSPropertyOp0
 70
     1
102
RTVSPropertyOp1
 70
     1
102
RTVSPropertyOp2
 70
     1
102
RTVSPropertyOp3
 70
     1
102
RTVSPropertyOp4
 70
     1
102
RTVSPropertyOp5
 70
     1
102
RTVSPropertyOp6
 70
     1
102
RTVSPropertyOp7
 70
     1
102
RTVSPropertyOp8
 70
     1
102
RTVSPropertyOp9
 70
     1
102
RTVSPropertyOp10
 70
     1
102
RTVSPropertyOp11
 70
     1
102
RTVSPropertyOp12
 70
     1
102
RTVSPropertyOp13
 70
     1
102
RTVSPropertyOp14
 70
     1
102
RTVSPropertyOp15
 70
     1
102
RTVSPropertyOp16
 70
     1
102
RTVSPropertyOp17
 70
     1
102
RTVSPropertyOp18
 70
     1
102
RTVSPropertyOp19
 70
     1
102
RTVSPropertyOp20
 70
     1
102
RTVSPropertyOp21
 70
     1
102
RTVSPropertyOp22
 70
     1
102
RTVSPropertyOp23
 70
     1
102
RTVSPropertyOp24
 70
     1
102
RTVSPropertyOp25
 70
     1
102
RTVSPropertyOp26
 70
     1
102
RTVSPropertyOp27
 70
     1
102
RTVSPropertyOp28
 70
     1
102
RTVSPropertyOp29
 70
     1
102
RTVSPropertyOp30
 70
     1
102
RTVSPropertyOp31
 70
     1
102
RTVSPropertyOp32
 70
     1
102
RTVSPropertyOp33
 70
     1
102
RTVSPropertyOp34
 70
     1
102
RTVSPropertyOp35
 70
     1
102
RTVSPropertyOp36
 70
     1
102
RTVSPropertyOp37
 70
     1
102
RTVSPropertyOp38
 70
     1
102
RTVSPropertyOp39
 70
     1
102
RTVSPropertyOp40
 70
     1
102
RTVSPropertyOp41
 70
     1
102
RTVSPropertyOp42
 70
     1
102
RTVSPropertyOp43
 70
     1
102
RTVSPropertyOp44
 70
     1
102
RTVSPropertyOp45
 70
     1
102
RTVSPropertyOp46
 70
     1
102
RTVSPropertyOp47
 70
     1
102
RTVSPropertyOp48
 70
     1
102
RTVSPropertyOp49
 70
     1
102
RTVSPropertyOp50
 70
     1
102
RTVSPropertyOp51
 70
     0
102
RTVSPropertyOp52
 70
     0
102
RTVSPropertyOp53
 70
     1
102
RTVSPropertyOp54
 70
     1
102
RTVSPropertyOp55
 70
     1
102
RTVSPropertyOp56
 70
     1
102
RTVSPropertyOp57
 70
     1
102
RTVSPropertyOp58
 70
     1
102
RTVSPropertyOp59
 70
     1
102
RTVSPropertyOp60
 70
     1
102
RTVSPropertyOp61
 70
     1
102
RTVSPropertyOp62
 70
     1
  0
XRECORD
  5
378
102
{ACAD_REACTORS
330
377
102
}
330
377
100
AcDbXrecord
280
     1
102
RTVSPost2010Prop28
280
     0
102
RTVSPost2010PropOp28
 70
     1
102
RTVSPost2010Prop29
280
     1
102
RTVSPost2010PropOp29
 70
     1
102
RTVSPost2010Prop30
280
     1
102
RTVSPost2010PropOp30
 70
     1
102
RTVSPost2010Prop31
280
     0
102
RTVSPost2010PropOp31
 70
     1
102
RTVSPost2010Prop32
280
     0
102
RTVSPost2010PropOp32
 70
     1
102
RTVSPost2010Prop33
280
     0
102
RTVSPost2010PropOp33
 70
     1
102
RTVSPost2010Prop34
280
     0
102
RTVSPost2010PropOp34
 70
     1
102
RTVSPost2010Prop35
280
     0
102
RTVSPost2010PropOp35
 70
     1
102
RTVSPost2010Prop36
280
     0
102
RTVSPost2010PropOp36
 70
     1
102
RTVSPost2010Prop37
 90
       50
102
RTVSPost2010PropOp37
 70
     1
102
RTVSPost2010Prop38
140
0.0
102
RTVSPost2010PropOp38
 70
     1
102
RTVSPost2010Prop39
140
1.0
102
RTVSPost2010PropOp39
 70
     1
102
RTVSPost2010Prop40
 90
        0
102
RTVSPost2010PropOp40
 70
     1
102
RTVSPost2010Prop41ColorIndex
 90
       18
102
RTVSPost2010Prop41ColorRGB
 90
        0
102
RTVSPost2010PropOp41
 70
     1
102
RTVSPost2010Prop42
 90
       50
102
RTVSPost2010PropOp42
 70
     1
102
RTVSPost2010Prop43
 90
        3
102
RTVSPost2010PropOp43
 70
     1
102
RTVSPost2010Prop44ColorIndex
 90
        5
102
RTVSPost2010Prop44ColorRGB
 90
      255
102
RTVSPost2010PropOp44
 70
     1
102
RTVSPost2010Prop45
280
     0
102
RTVSPost2010PropOp45
 70
     1
102
RTVSPost2010Prop46
 90
       50
102
RTVSPost2010PropOp46
 70
     1
102
RTVSPost2010Prop47
 90
       50
102
RTVSPost2010PropOp47
 70
     1
102
RTVSPost2010Prop48
 90
       50
102
RTVSPost2010PropOp48
 70
     1
102
RTVSPost2010Prop49
280
     0
102
RTVSPost2010PropOp49
 70
     1
102
RTVSPost2010Prop50
 90
       50
102
RTVSPost2010PropOp50
 70
     1
102
RTVSPost2010Prop51ColorIndex
 90
      256
102
RTVSPost2010Prop51ColorRGB
 90
-16777216
102
RTVSPost2010PropOp51
 70
     0
102
RTVSPost2010Prop52
140
1.0
102
RTVSPost2010PropOp52
 70
     0
102
RTVSPost2010Prop53
 90
        2
102
RTVSPost2010PropOp53
 70
     1
102
RTVSPost2010Prop54
  1
strokes_ogs.tif
102
RTVSPost2010PropOp54
 70
     1
102
RTVSPost2010Prop55
280
     0
102
RTVSPost2010PropOp55
 70
     1
102
RTVSPost2010Prop56
140
1.0
102
RTVSPost2010PropOp56
 70
     1
102
RTVSPost2010Prop57
140
1.0
102
RTVSPost2010PropOp57
 70
     1
102
RTVSPropertyOp0
 70
     1
102
RTVSPropertyOp1
 70
     1
102
RTVSPropertyOp2
 70
     1
102
RTVSPropertyOp3
 70
     1
102
RTVSPropertyOp4
 70
     1
102
RTVSPropertyOp5
 70
     1
102
RTVSPropertyOp6
 70
     1
102
RTVSPropertyOp7
 70
     1
102
RTVSPropertyOp8
 70
     1
102
RTVSPropertyOp9
 70
     1
102
RTVSPropertyOp10
 70
     1
102
RTVSPropertyOp11
 70
     1
102
RTVSPropertyOp12
 70
     1
102
RTVSPropertyOp13
 70
     1
102
RTVSPropertyOp14
 70
     1
102
RTVSPropertyOp15
 70
     1
102
RTVSPropertyOp16
 70
     1
102
RTVSPropertyOp17
 70
     1
102
RTVSPropertyOp18
 70
     1
102
RTVSPropertyOp19
 70
     1
102
RTVSPropertyOp20
 70
     1
102
RTVSPropertyOp21
 70
     1
102
RTVSPropertyOp22
 70
     1
102
RTVSPropertyOp23
 70
     1
102
RTVSPropertyOp24
 70
     1
102
RTVSPropertyOp25
 70
     1
102
RTVSPropertyOp26
 70
     1
102
RTVSPropertyOp27
 70
     1
102
RTVSPropertyOp28
 70
     1
102
RTVSPropertyOp29
 70
     1
102
RTVSPropertyOp30
 70
     1
102
RTVSPropertyOp31
 70
     1
102
RTVSPropertyOp32
 70
     1
102
RTVSPropertyOp33
 70
     1
102
RTVSPropertyOp34
 70
     1
102
RTVSPropertyOp35
 70
     1
102
RTVSPropertyOp36
 70
     1
102
RTVSPropertyOp37
 70
     1
102
RTVSPropertyOp38
 70
     1
102
RTVSPropertyOp39
 70
     1
102
RTVSPropertyOp40
 70
     1
102
RTVSPropertyOp41
 70
     1
102
RTVSPropertyOp42
 70
     1
102
RTVSPropertyOp43
 70
     1
102
RTVSPropertyOp44
 70
     1
102
RTVSPropertyOp45
 70
     1
102
RTVSPropertyOp46
 70
     1
102
RTVSPropertyOp47
 70
     1
102
RTVSPropertyOp48
 70
     1
102
RTVSPropertyOp49
 70
     1
102
RTVSPropertyOp50
 70
     1
102
RTVSPropertyOp51
 70
     0
102
RTVSPropertyOp52
 70
     0
102
RTVSPropertyOp53
 70
     1
102
RTVSPropertyOp54
 70
     1
102
RTVSPropertyOp55
 70
     1
102
RTVSPropertyOp56
 70
     1
102
RTVSPropertyOp57
 70
     1
102
RTVSPropertyOp58
 70
     1
102
RTVSPropertyOp59
 70
     1
102
RTVSPropertyOp60
 70
     1
102
RTVSPropertyOp61
 70
     1
102
RTVSPropertyOp62
 70
     1
  0
XRECORD
  5
38C
102
{ACAD_REACTORS
330
38B
102
}
330
38B
100
AcDbXrecord
280
     1
102
RTVSPost2010Prop28
280
     0
102
RTVSPost2010PropOp28
 70
     0
102
RTVSPost2010Prop29
280
     1
102
RTVSPost2010PropOp29
 70
     0
102
RTVSPost2010Prop30
280
     1
102
RTVSPost2010PropOp30
 70
     0
102
RTVSPost2010Prop31
280
     0
102
RTVSPost2010PropOp31
 70
     0
102
RTVSPost2010Prop32
280
     0
102
RTVSPost2010PropOp32
 70
     0
102
RTVSPost2010Prop33
280
     0
102
RTVSPost2010PropOp33
 70
     0
102
RTVSPost2010Prop34
280
     0
102
RTVSPost2010PropOp34
 70
     0
102
RTVSPost2010Prop35
280
     0
102
RTVSPost2010PropOp35
 70
     0
102
RTVSPost2010Prop36
280
     0
102
RTVSPost2010PropOp36
 70
     0
102
RTVSPost2010Prop37
 90
       50
102
RTVSPost2010PropOp37
 70
     0
102
RTVSPost2010Prop38
140
0.0
102
RTVSPost2010PropOp38
 70
     0
102
RTVSPost2010Prop39
140
1.0
102
RTVSPost2010PropOp39
 70
     0
102
RTVSPost2010Prop40
 90
        0
102
RTVSPost2010PropOp40
 70
     0
102
RTVSPost2010Prop41ColorIndex
 90
       18
102
RTVSPost2010Prop41ColorRGB
 90
        0
102
RTVSPost2010PropOp41
 70
     0
102
RTVSPost2010Prop42
 90
       50
102
RTVSPost2010PropOp42
 70
     0
102
RTVSPost2010Prop43
 90
        3
102
RTVSPost2010PropOp43
 70
     0
102
RTVSPost2010Prop44ColorIndex
 90
        5
102
RTVSPost2010Prop44ColorRGB
 90
      255
102
RTVSPost2010PropOp44
 70
     0
102
RTVSPost2010Prop45
280
     0
102
RTVSPost2010PropOp45
 70
     0
102
RTVSPost2010Prop46
 90
       50
102
RTVSPost2010PropOp46
 70
     0
102
RTVSPost2010Prop47
 90
       50
102
RTVSPost2010PropOp47
 70
     0
102
RTVSPost2010Prop48
 90
       50
102
RTVSPost2010PropOp48
 70
     0
102
RTVSPost2010Prop49
280
     0
102
RTVSPost2010PropOp49
 70
     0
102
RTVSPost2010Prop50
 90
       50
102
RTVSPost2010PropOp50
 70
     0
102
RTVSPost2010Prop51ColorIndex
 90
      256
102
RTVSPost2010Prop51ColorRGB
 90
-16777216
102
RTVSPost2010PropOp51
 70
     0
102
RTVSPost2010Prop52
140
1.0
102
RTVSPost2010PropOp52
 70
     0
102
RTVSPost2010Prop53
 90
        2
102
RTVSPost2010PropOp53
 70
     0
102
RTVSPost2010Prop54
  1
strokes_ogs.tif
102
RTVSPost2010PropOp54
 70
     0
102
RTVSPost2010Prop55
280
     0
102
RTVSPost2010PropOp55
 70
     0
102
RTVSPost2010Prop56
140
1.0
102
RTVSPost2010PropOp56
 70
     0
102
RTVSPost2010Prop57
140
1.0
102
RTVSPost2010PropOp57
 70
     0
102
RTVSPropertyOp0
 70
     0
102
RTVSPropertyOp1
 70
     0
102
RTVSPropertyOp2
 70
     0
102
RTVSPropertyOp3
 70
     0
102
RTVSPropertyOp4
 70
     0
102
RTVSPropertyOp5
 70
     0
102
RTVSPropertyOp6
 70
     0
102
RTVSPropertyOp7
 70
     0
102
RTVSPropertyOp8
 70
     0
102
RTVSPropertyOp9
 70
     0
102
RTVSPropertyOp10
 70
     0
102
RTVSPropertyOp11
 70
     0
102
RTVSPropertyOp12
 70
     0
102
RTVSPropertyOp13
 70
     0
102
RTVSPropertyOp14
 70
     2
102
RTVSPropertyOp15
 70
     0
102
RTVSPropertyOp16
 70
     0
102
RTVSPropertyOp17
 70
     0
102
RTVSPropertyOp18
 70
     0
102
RTVSPropertyOp19
 70
     0
102
RTVSPropertyOp20
 70
     0
102
RTVSPropertyOp21
 70
     0
102
RTVSPropertyOp22
 70
     0
102
RTVSPropertyOp23
 70
     0
102
RTVSPropertyOp24
 70
     0
102
RTVSPropertyOp25
 70
     0
102
RTVSPropertyOp26
 70
     0
102
RTVSPropertyOp27
 70
     0
102
RTVSPropertyOp28
 70
     0
102
RTVSPropertyOp29
 70
     0
102
RTVSPropertyOp30
 70
     0
102
RTVSPropertyOp31
 70
     0
102
RTVSPropertyOp32
 70
     0
102
RTVSPropertyOp33
 70
     0
102
RTVSPropertyOp34
 70
     0
102
RTVSPropertyOp35
 70
     0
102
RTVSPropertyOp36
 70
     0
102
RTVSPropertyOp37
 70
     0
102
RTVSPropertyOp38
 70
     0
102
RTVSPropertyOp39
 70
     0
102
RTVSPropertyOp40
 70
     0
102
RTVSPropertyOp41
 70
     0
102
RTVSPropertyOp42
 70
     0
102
RTVSPropertyOp43
 70
     0
102
RTVSPropertyOp44
 70
     0
102
RTVSPropertyOp45
 70
     0
102
RTVSPropertyOp46
 70
     0
102
RTVSPropertyOp47
 70
     0
102
RTVSPropertyOp48
 70
     0
102
RTVSPropertyOp49
 70
     0
102
RTVSPropertyOp50
 70
     0
102
RTVSPropertyOp51
 70
     0
102
RTVSPropertyOp52
 70
     0
102
RTVSPropertyOp53
 70
     0
102
RTVSPropertyOp54
 70
     0
102
RTVSPropertyOp55
 70
     0
102
RTVSPropertyOp56
 70
     0
102
RTVSPropertyOp57
 70
     0
102
RTVSPropertyOp58
 70
     1
102
RTVSPropertyOp59
 70
     1
102
RTVSPropertyOp60
 70
     1
102
RTVSPropertyOp61
 70
     1
102
RTVSPropertyOp62
 70
     1
  0
XRECORD
  5
386
102
{ACAD_REACTORS
330
385
102
}
330
385
100
AcDbXrecord
280
     1
102
RTVSPost2010Prop28
280
     0
102
RTVSPost2010PropOp28
 70
     1
102
RTVSPost2010Prop29
280
     1
102
RTVSPost2010PropOp29
 70
     1
102
RTVSPost2010Prop30
280
     1
102
RTVSPost2010PropOp30
 70
     1
102
RTVSPost2010Prop31
280
     0
102
RTVSPost2010PropOp31
 70
     1
102
RTVSPost2010Prop32
280
     0
102
RTVSPost2010PropOp32
 70
     1
102
RTVSPost2010Prop33
280
     0
102
RTVSPost2010PropOp33
 70
     1
102
RTVSPost2010Prop34
280
     0
102
RTVSPost2010PropOp34
 70
     1
102
RTVSPost2010Prop35
280
     0
102
RTVSPost2010PropOp35
 70
     1
102
RTVSPost2010Prop36
280
     0
102
RTVSPost2010PropOp36
 70
     1
102
RTVSPost2010Prop37
 90
       50
102
RTVSPost2010PropOp37
 70
     1
102
RTVSPost2010Prop38
140
0.0
102
RTVSPost2010PropOp38
 70
     1
102
RTVSPost2010Prop39
140
1.0
102
RTVSPost2010PropOp39
 70
     1
102
RTVSPost2010Prop40
 90
        0
102
RTVSPost2010PropOp40
 70
     1
102
RTVSPost2010Prop41ColorIndex
 90
       18
102
RTVSPost2010Prop41ColorRGB
 90
        0
102
RTVSPost2010PropOp41
 70
     1
102
RTVSPost2010Prop42
 90
       50
102
RTVSPost2010PropOp42
 70
     1
102
RTVSPost2010Prop43
 90
        3
102
RTVSPost2010PropOp43
 70
     1
102
RTVSPost2010Prop44ColorIndex
 90
        5
102
RTVSPost2010Prop44ColorRGB
 90
      255
102
RTVSPost2010PropOp44
 70
     1
102
RTVSPost2010Prop45
280
     0
102
RTVSPost2010PropOp45
 70
     1
102
RTVSPost2010Prop46
 90
       50
102
RTVSPost2010PropOp46
 70
     1
102
RTVSPost2010Prop47
 90
       50
102
RTVSPost2010PropOp47
 70
     1
102
RTVSPost2010Prop48
 90
       50
102
RTVSPost2010PropOp48
 70
     1
102
RTVSPost2010Prop49
280
     0
102
RTVSPost2010PropOp49
 70
     1
102
RTVSPost2010Prop50
 90
       50
102
RTVSPost2010PropOp50
 70
     1
102
RTVSPost2010Prop51ColorIndex
 90
      256
102
RTVSPost2010Prop51ColorRGB
 90
-16777216
102
RTVSPost2010PropOp51
 70
     0
102
RTVSPost2010Prop52
140
1.0
102
RTVSPost2010PropOp52
 70
     0
102
RTVSPost2010Prop53
 90
        2
102
RTVSPost2010PropOp53
 70
     1
102
RTVSPost2010Prop54
  1
strokes_ogs.tif
102
RTVSPost2010PropOp54
 70
     1
102
RTVSPost2010Prop55
280
     0
102
RTVSPost2010PropOp55
 70
     1
102
RTVSPost2010Prop56
140
1.0
102
RTVSPost2010PropOp56
 70
     1
102
RTVSPost2010Prop57
140
1.0
102
RTVSPost2010PropOp57
 70
     1
102
RTVSPropertyOp0
 70
     1
102
RTVSPropertyOp1
 70
     1
102
RTVSPropertyOp2
 70
     1
102
RTVSPropertyOp3
 70
     1
102
RTVSPropertyOp4
 70
     1
102
RTVSPropertyOp5
 70
     1
102
RTVSPropertyOp6
 70
     1
102
RTVSPropertyOp7
 70
     1
102
RTVSPropertyOp8
 70
     1
102
RTVSPropertyOp9
 70
     1
102
RTVSPropertyOp10
 70
     1
102
RTVSPropertyOp11
 70
     1
102
RTVSPropertyOp12
 70
     1
102
RTVSPropertyOp13
 70
     1
102
RTVSPropertyOp14
 70
     1
102
RTVSPropertyOp15
 70
     1
102
RTVSPropertyOp16
 70
     1
102
RTVSPropertyOp17
 70
     1
102
RTVSPropertyOp18
 70
     1
102
RTVSPropertyOp19
 70
     1
102
RTVSPropertyOp20
 70
     1
102
RTVSPropertyOp21
 70
     1
102
RTVSPropertyOp22
 70
     1
102
RTVSPropertyOp23
 70
     1
102
RTVSPropertyOp24
 70
     1
102
RTVSPropertyOp25
 70
     1
102
RTVSPropertyOp26
 70
     1
102
RTVSPropertyOp27
 70
     1
102
RTVSPropertyOp28
 70
     1
102
RTVSPropertyOp29
 70
     1
102
RTVSPropertyOp30
 70
     1
102
RTVSPropertyOp31
 70
     1
102
RTVSPropertyOp32
 70
     1
102
RTVSPropertyOp33
 70
     1
102
RTVSPropertyOp34
 70
     1
102
RTVSPropertyOp35
 70
     1
102
RTVSPropertyOp36
 70
     1
102
RTVSPropertyOp37
 70
     1
102
RTVSPropertyOp38
 70
     1
102
RTVSPropertyOp39
 70
     1
102
RTVSPropertyOp40
 70
     1
102
RTVSPropertyOp41
 70
     1
102
RTVSPropertyOp42
 70
     1
102
RTVSPropertyOp43
 70
     1
102
RTVSPropertyOp44
 70
     1
102
RTVSPropertyOp45
 70
     1
102
RTVSPropertyOp46
 70
     1
102
RTVSPropertyOp47
 70
     1
102
RTVSPropertyOp48
 70
     1
102
RTVSPropertyOp49
 70
     1
102
RTVSPropertyOp50
 70
     1
102
RTVSPropertyOp51
 70
     0
102
RTVSPropertyOp52
 70
     0
102
RTVSPropertyOp53
 70
     1
102
RTVSPropertyOp54
 70
     1
102
RTVSPropertyOp55
 70
     1
102
RTVSPropertyOp56
 70
     1
102
RTVSPropertyOp57
 70
     1
102
RTVSPropertyOp58
 70
     1
102
RTVSPropertyOp59
 70
     1
102
RTVSPropertyOp60
 70
     1
102
RTVSPropertyOp61
 70
     1
102
RTVSPropertyOp62
 70
     1
  0
XRECORD
  5
38E
102
{ACAD_REACTORS
330
38D
102
}
330
38D
100
AcDbXrecord
280
     1
102
RTVSPost2010Prop28
280
     0
102
RTVSPost2010PropOp28
 70
     0
102
RTVSPost2010Prop29
280
     1
102
RTVSPost2010PropOp29
 70
     0
102
RTVSPost2010Prop30
280
     1
102
RTVSPost2010PropOp30
 70
     0
102
RTVSPost2010Prop31
280
     0
102
RTVSPost2010PropOp31
 70
     0
102
RTVSPost2010Prop32
280
     0
102
RTVSPost2010PropOp32
 70
     0
102
RTVSPost2010Prop33
280
     0
102
RTVSPost2010PropOp33
 70
     0
102
RTVSPost2010Prop34
280
     0
102
RTVSPost2010PropOp34
 70
     0
102
RTVSPost2010Prop35
280
     0
102
RTVSPost2010PropOp35
 70
     0
102
RTVSPost2010Prop36
280
     0
102
RTVSPost2010PropOp36
 70
     0
102
RTVSPost2010Prop37
 90
       50
102
RTVSPost2010PropOp37
 70
     0
102
RTVSPost2010Prop38
140
0.0
102
RTVSPost2010PropOp38
 70
     0
102
RTVSPost2010Prop39
140
1.0
102
RTVSPost2010PropOp39
 70
     0
102
RTVSPost2010Prop40
 90
        0
102
RTVSPost2010PropOp40
 70
     0
102
RTVSPost2010Prop41ColorIndex
 90
       18
102
RTVSPost2010Prop41ColorRGB
 90
        0
102
RTVSPost2010PropOp41
 70
     0
102
RTVSPost2010Prop42
 90
       50
102
RTVSPost2010PropOp42
 70
     0
102
RTVSPost2010Prop43
 90
        3
102
RTVSPost2010PropOp43
 70
     0
102
RTVSPost2010Prop44ColorIndex
 90
        5
102
RTVSPost2010Prop44ColorRGB
 90
      255
102
RTVSPost2010PropOp44
 70
     0
102
RTVSPost2010Prop45
280
     0
102
RTVSPost2010PropOp45
 70
     0
102
RTVSPost2010Prop46
 90
       50
102
RTVSPost2010PropOp46
 70
     0
102
RTVSPost2010Prop47
 90
       50
102
RTVSPost2010PropOp47
 70
     0
102
RTVSPost2010Prop48
 90
       50
102
RTVSPost2010PropOp48
 70
     0
102
RTVSPost2010Prop49
280
     0
102
RTVSPost2010PropOp49
 70
     0
102
RTVSPost2010Prop50
 90
       50
102
RTVSPost2010PropOp50
 70
     0
102
RTVSPost2010Prop51ColorIndex
 90
      256
102
RTVSPost2010Prop51ColorRGB
 90
-16777216
102
RTVSPost2010PropOp51
 70
     0
102
RTVSPost2010Prop52
140
1.0
102
RTVSPost2010PropOp52
 70
     0
102
RTVSPost2010Prop53
 90
        2
102
RTVSPost2010PropOp53
 70
     0
102
RTVSPost2010Prop54
  1
strokes_ogs.tif
102
RTVSPost2010PropOp54
 70
     0
102
RTVSPost2010Prop55
280
     0
102
RTVSPost2010PropOp55
 70
     0
102
RTVSPost2010Prop56
140
1.0
102
RTVSPost2010PropOp56
 70
     0
102
RTVSPost2010Prop57
140
1.0
102
RTVSPost2010PropOp57
 70
     0
102
RTVSPropertyOp0
 70
     0
102
RTVSPropertyOp1
 70
     0
102
RTVSPropertyOp2
 70
     0
102
RTVSPropertyOp3
 70
     0
102
RTVSPropertyOp4
 70
     0
102
RTVSPropertyOp5
 70
     0
102
RTVSPropertyOp6
 70
     0
102
RTVSPropertyOp7
 70
     0
102
RTVSPropertyOp8
 70
     0
102
RTVSPropertyOp9
 70
     0
102
RTVSPropertyOp10
 70
     0
102
RTVSPropertyOp11
 70
     0
102
RTVSPropertyOp12
 70
     0
102
RTVSPropertyOp13
 70
     0
102
RTVSPropertyOp14
 70
     2
102
RTVSPropertyOp15
 70
     0
102
RTVSPropertyOp16
 70
     0
102
RTVSPropertyOp17
 70
     0
102
RTVSPropertyOp18
 70
     0
102
RTVSPropertyOp19
 70
     0
102
RTVSPropertyOp20
 70
     0
102
RTVSPropertyOp21
 70
     0
102
RTVSPropertyOp22
 70
     0
102
RTVSPropertyOp23
 70
     0
102
RTVSPropertyOp24
 70
     0
102
RTVSPropertyOp25
 70
     0
102
RTVSPropertyOp26
 70
     0
102
RTVSPropertyOp27
 70
     0
102
RTVSPropertyOp28
 70
     0
102
RTVSPropertyOp29
 70
     0
102
RTVSPropertyOp30
 70
     0
102
RTVSPropertyOp31
 70
     0
102
RTVSPropertyOp32
 70
     0
102
RTVSPropertyOp33
 70
     0
102
RTVSPropertyOp34
 70
     0
102
RTVSPropertyOp35
 70
     0
102
RTVSPropertyOp36
 70
     0
102
RTVSPropertyOp37
 70
     0
102
RTVSPropertyOp38
 70
     0
102
RTVSPropertyOp39
 70
     0
102
RTVSPropertyOp40
 70
     0
102
RTVSPropertyOp41
 70
     0
102
RTVSPropertyOp42
 70
     0
102
RTVSPropertyOp43
 70
     0
102
RTVSPropertyOp44
 70
     0
102
RTVSPropertyOp45
 70
     0
102
RTVSPropertyOp46
 70
     0
102
RTVSPropertyOp47
 70
     0
102
RTVSPropertyOp48
 70
     0
102
RTVSPropertyOp49
 70
     0
102
RTVSPropertyOp50
 70
     0
102
RTVSPropertyOp51
 70
     0
102
RTVSPropertyOp52
 70
     0
102
RTVSPropertyOp53
 70
     0
102
RTVSPropertyOp54
 70
     0
102
RTVSPropertyOp55
 70
     0
102
RTVSPropertyOp56
 70
     0
102
RTVSPropertyOp57
 70
     0
102
RTVSPropertyOp58
 70
     1
102
RTVSPropertyOp59
 70
     1
102
RTVSPropertyOp60
 70
     1
102
RTVSPropertyOp61
 70
     1
102
RTVSPropertyOp62
 70
     1
  0
XRECORD
  5
37C
102
{ACAD_REACTORS
330
37B
102
}
330
37B
100
AcDbXrecord
280
     1
102
RTVSPost2010Prop28
280
     0
102
RTVSPost2010PropOp28
 70
     1
102
RTVSPost2010Prop29
280
     1
102
RTVSPost2010PropOp29
 70
     1
102
RTVSPost2010Prop30
280
     1
102
RTVSPost2010PropOp30
 70
     1
102
RTVSPost2010Prop31
280
     0
102
RTVSPost2010PropOp31
 70
     1
102
RTVSPost2010Prop32
280
     0
102
RTVSPost2010PropOp32
 70
     1
102
RTVSPost2010Prop33
280
     0
102
RTVSPost2010PropOp33
 70
     1
102
RTVSPost2010Prop34
280
     0
102
RTVSPost2010PropOp34
 70
     1
102
RTVSPost2010Prop35
280
     0
102
RTVSPost2010PropOp35
 70
     1
102
RTVSPost2010Prop36
280
     0
102
RTVSPost2010PropOp36
 70
     1
102
RTVSPost2010Prop37
 90
       50
102
RTVSPost2010PropOp37
 70
     1
102
RTVSPost2010Prop38
140
0.0
102
RTVSPost2010PropOp38
 70
     1
102
RTVSPost2010Prop39
140
1.0
102
RTVSPost2010PropOp39
 70
     1
102
RTVSPost2010Prop40
 90
        0
102
RTVSPost2010PropOp40
 70
     1
102
RTVSPost2010Prop41ColorIndex
 90
       18
102
RTVSPost2010Prop41ColorRGB
 90
        0
102
RTVSPost2010PropOp41
 70
     1
102
RTVSPost2010Prop42
 90
       50
102
RTVSPost2010PropOp42
 70
     1
102
RTVSPost2010Prop43
 90
        3
102
RTVSPost2010PropOp43
 70
     1
102
RTVSPost2010Prop44ColorIndex
 90
        5
102
RTVSPost2010Prop44ColorRGB
 90
      255
102
RTVSPost2010PropOp44
 70
     1
102
RTVSPost2010Prop45
280
     0
102
RTVSPost2010PropOp45
 70
     1
102
RTVSPost2010Prop46
 90
       50
102
RTVSPost2010PropOp46
 70
     1
102
RTVSPost2010Prop47
 90
       50
102
RTVSPost2010PropOp47
 70
     1
102
RTVSPost2010Prop48
 90
       50
102
RTVSPost2010PropOp48
 70
     1
102
RTVSPost2010Prop49
280
     0
102
RTVSPost2010PropOp49
 70
     1
102
RTVSPost2010Prop50
 90
       50
102
RTVSPost2010PropOp50
 70
     1
102
RTVSPost2010Prop51ColorIndex
 90
      256
102
RTVSPost2010Prop51ColorRGB
 90
-16777216
102
RTVSPost2010PropOp51
 70
     0
102
RTVSPost2010Prop52
140
1.0
102
RTVSPost2010PropOp52
 70
     0
102
RTVSPost2010Prop53
 90
        2
102
RTVSPost2010PropOp53
 70
     1
102
RTVSPost2010Prop54
  1
strokes_ogs.tif
102
RTVSPost2010PropOp54
 70
     1
102
RTVSPost2010Prop55
280
     0
102
RTVSPost2010PropOp55
 70
     1
102
RTVSPost2010Prop56
140
1.0
102
RTVSPost2010PropOp56
 70
     1
102
RTVSPost2010Prop57
140
1.0
102
RTVSPost2010PropOp57
 70
     1
102
RTVSPropertyOp0
 70
     1
102
RTVSPropertyOp1
 70
     1
102
RTVSPropertyOp2
 70
     1
102
RTVSPropertyOp3
 70
     1
102
RTVSPropertyOp4
 70
     1
102
RTVSPropertyOp5
 70
     1
102
RTVSPropertyOp6
 70
     1
102
RTVSPropertyOp7
 70
     1
102
RTVSPropertyOp8
 70
     1
102
RTVSPropertyOp9
 70
     1
102
RTVSPropertyOp10
 70
     1
102
RTVSPropertyOp11
 70
     1
102
RTVSPropertyOp12
 70
     1
102
RTVSPropertyOp13
 70
     1
102
RTVSPropertyOp14
 70
     1
102
RTVSPropertyOp15
 70
     1
102
RTVSPropertyOp16
 70
     1
102
RTVSPropertyOp17
 70
     1
102
RTVSPropertyOp18
 70
     1
102
RTVSPropertyOp19
 70
     1
102
RTVSPropertyOp20
 70
     1
102
RTVSPropertyOp21
 70
     1
102
RTVSPropertyOp22
 70
     1
102
RTVSPropertyOp23
 70
     1
102
RTVSPropertyOp24
 70
     1
102
RTVSPropertyOp25
 70
     1
102
RTVSPropertyOp26
 70
     1
102
RTVSPropertyOp27
 70
     1
102
RTVSPropertyOp28
 70
     1
102
RTVSPropertyOp29
 70
     1
102
RTVSPropertyOp30
 70
     1
102
RTVSPropertyOp31
 70
     1
102
RTVSPropertyOp32
 70
     1
102
RTVSPropertyOp33
 70
     1
102
RTVSPropertyOp34
 70
     1
102
RTVSPropertyOp35
 70
     1
102
RTVSPropertyOp36
 70
     1
102
RTVSPropertyOp37
 70
     1
102
RTVSPropertyOp38
 70
     1
102
RTVSPropertyOp39
 70
     1
102
RTVSPropertyOp40
 70
     1
102
RTVSPropertyOp41
 70
     1
102
RTVSPropertyOp42
 70
     1
102
RTVSPropertyOp43
 70
     1
102
RTVSPropertyOp44
 70
     1
102
RTVSPropertyOp45
 70
     1
102
RTVSPropertyOp46
 70
     1
102
RTVSPropertyOp47
 70
     1
102
RTVSPropertyOp48
 70
     1
102
RTVSPropertyOp49
 70
     1
102
RTVSPropertyOp50
 70
     1
102
RTVSPropertyOp51
 70
     0
102
RTVSPropertyOp52
 70
     0
102
RTVSPropertyOp53
 70
     1
102
RTVSPropertyOp54
 70
     1
102
RTVSPropertyOp55
 70
     1
102
RTVSPropertyOp56
 70
     1
102
RTVSPropertyOp57
 70
     1
102
RTVSPropertyOp58
 70
     1
102
RTVSPropertyOp59
 70
     1
102
RTVSPropertyOp60
 70
     1
102
RTVSPropertyOp61
 70
     1
102
RTVSPropertyOp62
 70
     1
  0
XRECORD
  5
39A
102
{ACAD_REACTORS
330
399
102
}
330
399
100
AcDbXrecord
280
     1
102
RTVSPost2010Prop28
280
     0
102
RTVSPost2010PropOp28
 70
     1
102
RTVSPost2010Prop29
280
     1
102
RTVSPost2010PropOp29
 70
     1
102
RTVSPost2010Prop30
280
     1
102
RTVSPost2010PropOp30
 70
     1
102
RTVSPost2010Prop31
280
     0
102
RTVSPost2010PropOp31
 70
     1
102
RTVSPost2010Prop32
280
     0
102
RTVSPost2010PropOp32
 70
     1
102
RTVSPost2010Prop33
280
     0
102
RTVSPost2010PropOp33
 70
     1
102
RTVSPost2010Prop34
280
     0
102
RTVSPost2010PropOp34
 70
     1
102
RTVSPost2010Prop35
280
     0
102
RTVSPost2010PropOp35
 70
     1
102
RTVSPost2010Prop36
280
     0
102
RTVSPost2010PropOp36
 70
     1
102
RTVSPost2010Prop37
 90
       50
102
RTVSPost2010PropOp37
 70
     1
102
RTVSPost2010Prop38
140
0.0
102
RTVSPost2010PropOp38
 70
     1
102
RTVSPost2010Prop39
140
1.0
102
RTVSPost2010PropOp39
 70
     1
102
RTVSPost2010Prop40
 90
        0
102
RTVSPost2010PropOp40
 70
     1
102
RTVSPost2010Prop41ColorIndex
 90
       18
102
RTVSPost2010Prop41ColorRGB
 90
        0
102
RTVSPost2010PropOp41
 70
     1
102
RTVSPost2010Prop42
 90
       50
102
RTVSPost2010PropOp42
 70
     1
102
RTVSPost2010Prop43
 90
        3
102
RTVSPost2010PropOp43
 70
     1
102
RTVSPost2010Prop44ColorIndex
 90
        5
102
RTVSPost2010Prop44ColorRGB
 90
      255
102
RTVSPost2010PropOp44
 70
     1
102
RTVSPost2010Prop45
280
     0
102
RTVSPost2010PropOp45
 70
     1
102
RTVSPost2010Prop46
 90
       50
102
RTVSPost2010PropOp46
 70
     1
102
RTVSPost2010Prop47
 90
       50
102
RTVSPost2010PropOp47
 70
     1
102
RTVSPost2010Prop48
 90
       50
102
RTVSPost2010PropOp48
 70
     1
102
RTVSPost2010Prop49
280
     0
102
RTVSPost2010PropOp49
 70
     1
102
RTVSPost2010Prop50
 90
       50
102
RTVSPost2010PropOp50
 70
     1
102
RTVSPost2010Prop51ColorIndex
 90
      256
102
RTVSPost2010Prop51ColorRGB
 90
-16777216
102
RTVSPost2010PropOp51
 70
     0
102
RTVSPost2010Prop52
140
1.0
102
RTVSPost2010PropOp52
 70
     0
102
RTVSPost2010Prop53
 90
        2
102
RTVSPost2010PropOp53
 70
     1
102
RTVSPost2010Prop54
  1
strokes_ogs.tif
102
RTVSPost2010PropOp54
 70
     1
102
RTVSPost2010Prop55
280
     0
102
RTVSPost2010PropOp55
 70
     1
102
RTVSPost2010Prop56
140
1.0
102
RTVSPost2010PropOp56
 70
     1
102
RTVSPost2010Prop57
140
1.0
102
RTVSPost2010PropOp57
 70
     1
102
RTVSPropertyOp0
 70
     1
102
RTVSPropertyOp1
 70
     1
102
RTVSPropertyOp2
 70
     1
102
RTVSPropertyOp3
 70
     1
102
RTVSPropertyOp4
 70
     1
102
RTVSPropertyOp5
 70
     1
102
RTVSPropertyOp6
 70
     1
102
RTVSPropertyOp7
 70
     1
102
RTVSPropertyOp8
 70
     1
102
RTVSPropertyOp9
 70
     1
102
RTVSPropertyOp10
 70
     1
102
RTVSPropertyOp11
 70
     1
102
RTVSPropertyOp12
 70
     1
102
RTVSPropertyOp13
 70
     1
102
RTVSPropertyOp14
 70
     1
102
RTVSPropertyOp15
 70
     1
102
RTVSPropertyOp16
 70
     1
102
RTVSPropertyOp17
 70
     1
102
RTVSPropertyOp18
 70
     1
102
RTVSPropertyOp19
 70
     1
102
RTVSPropertyOp20
 70
     1
102
RTVSPropertyOp21
 70
     1
102
RTVSPropertyOp22
 70
     1
102
RTVSPropertyOp23
 70
     1
102
RTVSPropertyOp24
 70
     1
102
RTVSPropertyOp25
 70
     1
102
RTVSPropertyOp26
 70
     1
102
RTVSPropertyOp27
 70
     1
102
RTVSPropertyOp28
 70
     1
102
RTVSPropertyOp29
 70
     1
102
RTVSPropertyOp30
 70
     1
102
RTVSPropertyOp31
 70
     1
102
RTVSPropertyOp32
 70
     1
102
RTVSPropertyOp33
 70
     1
102
RTVSPropertyOp34
 70
     1
102
RTVSPropertyOp35
 70
     1
102
RTVSPropertyOp36
 70
     1
102
RTVSPropertyOp37
 70
     1
102
RTVSPropertyOp38
 70
     1
102
RTVSPropertyOp39
 70
     1
102
RTVSPropertyOp40
 70
     1
102
RTVSPropertyOp41
 70
     1
102
RTVSPropertyOp42
 70
     1
102
RTVSPropertyOp43
 70
     1
102
RTVSPropertyOp44
 70
     1
102
RTVSPropertyOp45
 70
     1
102
RTVSPropertyOp46
 70
     1
102
RTVSPropertyOp47
 70
     1
102
RTVSPropertyOp48
 70
     1
102
RTVSPropertyOp49
 70
     1
102
RTVSPropertyOp50
 70
     1
102
RTVSPropertyOp51
 70
     0
102
RTVSPropertyOp52
 70
     0
102
RTVSPropertyOp53
 70
     1
102
RTVSPropertyOp54
 70
     1
102
RTVSPropertyOp55
 70
     1
102
RTVSPropertyOp56
 70
     1
102
RTVSPropertyOp57
 70
     1
102
RTVSPropertyOp58
 70
     1
102
RTVSPropertyOp59
 70
     1
102
RTVSPropertyOp60
 70
     1
102
RTVSPropertyOp61
 70
     1
102
RTVSPropertyOp62
 70
     1
  0
XRECORD
  5
398
102
{ACAD_REACTORS
330
397
102
}
330
397
100
AcDbXrecord
280
     1
102
RTVSPost2010Prop28
280
     0
102
RTVSPost2010PropOp28
 70
     1
102
RTVSPost2010Prop29
280
     1
102
RTVSPost2010PropOp29
 70
     1
102
RTVSPost2010Prop30
280
     1
102
RTVSPost2010PropOp30
 70
     1
102
RTVSPost2010Prop31
280
     0
102
RTVSPost2010PropOp31
 70
     1
102
RTVSPost2010Prop32
280
     0
102
RTVSPost2010PropOp32
 70
     1
102
RTVSPost2010Prop33
280
     0
102
RTVSPost2010PropOp33
 70
     1
102
RTVSPost2010Prop34
280
     0
102
RTVSPost2010PropOp34
 70
     1
102
RTVSPost2010Prop35
280
     0
102
RTVSPost2010PropOp35
 70
     1
102
RTVSPost2010Prop36
280
     0
102
RTVSPost2010PropOp36
 70
     1
102
RTVSPost2010Prop37
 90
       50
102
RTVSPost2010PropOp37
 70
     1
102
RTVSPost2010Prop38
140
0.0
102
RTVSPost2010PropOp38
 70
     1
102
RTVSPost2010Prop39
140
1.0
102
RTVSPost2010PropOp39
 70
     1
102
RTVSPost2010Prop40
 90
        0
102
RTVSPost2010PropOp40
 70
     1
102
RTVSPost2010Prop41ColorIndex
 90
       18
102
RTVSPost2010Prop41ColorRGB
 90
        0
102
RTVSPost2010PropOp41
 70
     1
102
RTVSPost2010Prop42
 90
       50
102
RTVSPost2010PropOp42
 70
     1
102
RTVSPost2010Prop43
 90
        3
102
RTVSPost2010PropOp43
 70
     1
102
RTVSPost2010Prop44ColorIndex
 90
        5
102
RTVSPost2010Prop44ColorRGB
 90
      255
102
RTVSPost2010PropOp44
 70
     1
102
RTVSPost2010Prop45
280
     0
102
RTVSPost2010PropOp45
 70
     1
102
RTVSPost2010Prop46
 90
       50
102
RTVSPost2010PropOp46
 70
     1
102
RTVSPost2010Prop47
 90
       50
102
RTVSPost2010PropOp47
 70
     1
102
RTVSPost2010Prop48
 90
       50
102
RTVSPost2010PropOp48
 70
     1
102
RTVSPost2010Prop49
280
     0
102
RTVSPost2010PropOp49
 70
     1
102
RTVSPost2010Prop50
 90
       50
102
RTVSPost2010PropOp50
 70
     1
102
RTVSPost2010Prop51ColorIndex
 90
      256
102
RTVSPost2010Prop51ColorRGB
 90
-16777216
102
RTVSPost2010PropOp51
 70
     0
102
RTVSPost2010Prop52
140
1.0
102
RTVSPost2010PropOp52
 70
     0
102
RTVSPost2010Prop53
 90
        2
102
RTVSPost2010PropOp53
 70
     1
102
RTVSPost2010Prop54
  1
strokes_ogs.tif
102
RTVSPost2010PropOp54
 70
     1
102
RTVSPost2010Prop55
280
     0
102
RTVSPost2010PropOp55
 70
     1
102
RTVSPost2010Prop56
140
1.0
102
RTVSPost2010PropOp56
 70
     1
102
RTVSPost2010Prop57
140
1.0
102
RTVSPost2010PropOp57
 70
     1
102
RTVSPropertyOp0
 70
     1
102
RTVSPropertyOp1
 70
     1
102
RTVSPropertyOp2
 70
     1
102
RTVSPropertyOp3
 70
     1
102
RTVSPropertyOp4
 70
     1
102
RTVSPropertyOp5
 70
     1
102
RTVSPropertyOp6
 70
     1
102
RTVSPropertyOp7
 70
     1
102
RTVSPropertyOp8
 70
     1
102
RTVSPropertyOp9
 70
     1
102
RTVSPropertyOp10
 70
     1
102
RTVSPropertyOp11
 70
     1
102
RTVSPropertyOp12
 70
     1
102
RTVSPropertyOp13
 70
     1
102
RTVSPropertyOp14
 70
     1
102
RTVSPropertyOp15
 70
     1
102
RTVSPropertyOp16
 70
     1
102
RTVSPropertyOp17
 70
     1
102
RTVSPropertyOp18
 70
     1
102
RTVSPropertyOp19
 70
     1
102
RTVSPropertyOp20
 70
     1
102
RTVSPropertyOp21
 70
     1
102
RTVSPropertyOp22
 70
     1
102
RTVSPropertyOp23
 70
     1
102
RTVSPropertyOp24
 70
     1
102
RTVSPropertyOp25
 70
     1
102
RTVSPropertyOp26
 70
     1
102
RTVSPropertyOp27
 70
     1
102
RTVSPropertyOp28
 70
     1
102
RTVSPropertyOp29
 70
     1
102
RTVSPropertyOp30
 70
     1
102
RTVSPropertyOp31
 70
     1
102
RTVSPropertyOp32
 70
     1
102
RTVSPropertyOp33
 70
     1
102
RTVSPropertyOp34
 70
     1
102
RTVSPropertyOp35
 70
     1
102
RTVSPropertyOp36
 70
     1
102
RTVSPropertyOp37
 70
     1
102
RTVSPropertyOp38
 70
     1
102
RTVSPropertyOp39
 70
     1
102
RTVSPropertyOp40
 70
     1
102
RTVSPropertyOp41
 70
     1
102
RTVSPropertyOp42
 70
     1
102
RTVSPropertyOp43
 70
     1
102
RTVSPropertyOp44
 70
     1
102
RTVSPropertyOp45
 70
     1
102
RTVSPropertyOp46
 70
     1
102
RTVSPropertyOp47
 70
     1
102
RTVSPropertyOp48
 70
     1
102
RTVSPropertyOp49
 70
     1
102
RTVSPropertyOp50
 70
     1
102
RTVSPropertyOp51
 70
     0
102
RTVSPropertyOp52
 70
     0
102
RTVSPropertyOp53
 70
     1
102
RTVSPropertyOp54
 70
     1
102
RTVSPropertyOp55
 70
     1
102
RTVSPropertyOp56
 70
     1
102
RTVSPropertyOp57
 70
     1
102
RTVSPropertyOp58
 70
     1
102
RTVSPropertyOp59
 70
     1
102
RTVSPropertyOp60
 70
     1
102
RTVSPropertyOp61
 70
     1
102
RTVSPropertyOp62
 70
     1
  0
XRECORD
  5
392
102
{ACAD_REACTORS
330
391
102
}
330
391
100
AcDbXrecord
280
     1
102
RTVSPost2010Prop28
280
     0
102
RTVSPost2010PropOp28
 70
     1
102
RTVSPost2010Prop29
280
     1
102
RTVSPost2010PropOp29
 70
     1
102
RTVSPost2010Prop30
280
     1
102
RTVSPost2010PropOp30
 70
     1
102
RTVSPost2010Prop31
280
     0
102
RTVSPost2010PropOp31
 70
     1
102
RTVSPost2010Prop32
280
     0
102
RTVSPost2010PropOp32
 70
     1
102
RTVSPost2010Prop33
280
     0
102
RTVSPost2010PropOp33
 70
     1
102
RTVSPost2010Prop34
280
     0
102
RTVSPost2010PropOp34
 70
     1
102
RTVSPost2010Prop35
280
     0
102
RTVSPost2010PropOp35
 70
     1
102
RTVSPost2010Prop36
280
     0
102
RTVSPost2010PropOp36
 70
     1
102
RTVSPost2010Prop37
 90
       50
102
RTVSPost2010PropOp37
 70
     1
102
RTVSPost2010Prop38
140
0.0
102
RTVSPost2010PropOp38
 70
     1
102
RTVSPost2010Prop39
140
1.0
102
RTVSPost2010PropOp39
 70
     1
102
RTVSPost2010Prop40
 90
        0
102
RTVSPost2010PropOp40
 70
     1
102
RTVSPost2010Prop41ColorIndex
 90
       18
102
RTVSPost2010Prop41ColorRGB
 90
        0
102
RTVSPost2010PropOp41
 70
     1
102
RTVSPost2010Prop42
 90
       50
102
RTVSPost2010PropOp42
 70
     1
102
RTVSPost2010Prop43
 90
        3
102
RTVSPost2010PropOp43
 70
     1
102
RTVSPost2010Prop44ColorIndex
 90
        5
102
RTVSPost2010Prop44ColorRGB
 90
      255
102
RTVSPost2010PropOp44
 70
     1
102
RTVSPost2010Prop45
280
     0
102
RTVSPost2010PropOp45
 70
     1
102
RTVSPost2010Prop46
 90
       50
102
RTVSPost2010PropOp46
 70
     1
102
RTVSPost2010Prop47
 90
       50
102
RTVSPost2010PropOp47
 70
     1
102
RTVSPost2010Prop48
 90
       50
102
RTVSPost2010PropOp48
 70
     1
102
RTVSPost2010Prop49
280
     0
102
RTVSPost2010PropOp49
 70
     1
102
RTVSPost2010Prop50
 90
       50
102
RTVSPost2010PropOp50
 70
     1
102
RTVSPost2010Prop51ColorIndex
 90
      256
102
RTVSPost2010Prop51ColorRGB
 90
-16777216
102
RTVSPost2010PropOp51
 70
     0
102
RTVSPost2010Prop52
140
1.0
102
RTVSPost2010PropOp52
 70
     0
102
RTVSPost2010Prop53
 90
        2
102
RTVSPost2010PropOp53
 70
     1
102
RTVSPost2010Prop54
  1
strokes_ogs.tif
102
RTVSPost2010PropOp54
 70
     1
102
RTVSPost2010Prop55
280
     0
102
RTVSPost2010PropOp55
 70
     1
102
RTVSPost2010Prop56
140
1.0
102
RTVSPost2010PropOp56
 70
     1
102
RTVSPost2010Prop57
140
1.0
102
RTVSPost2010PropOp57
 70
     1
102
RTVSPropertyOp0
 70
     1
102
RTVSPropertyOp1
 70
     1
102
RTVSPropertyOp2
 70
     1
102
RTVSPropertyOp3
 70
     1
102
RTVSPropertyOp4
 70
     1
102
RTVSPropertyOp5
 70
     1
102
RTVSPropertyOp6
 70
     1
102
RTVSPropertyOp7
 70
     1
102
RTVSPropertyOp8
 70
     1
102
RTVSPropertyOp9
 70
     1
102
RTVSPropertyOp10
 70
     1
102
RTVSPropertyOp11
 70
     1
102
RTVSPropertyOp12
 70
     1
102
RTVSPropertyOp13
 70
     1
102
RTVSPropertyOp14
 70
     1
102
RTVSPropertyOp15
 70
     1
102
RTVSPropertyOp16
 70
     1
102
RTVSPropertyOp17
 70
     1
102
RTVSPropertyOp18
 70
     1
102
RTVSPropertyOp19
 70
     1
102
RTVSPropertyOp20
 70
     1
102
RTVSPropertyOp21
 70
     1
102
RTVSPropertyOp22
 70
     1
102
RTVSPropertyOp23
 70
     1
102
RTVSPropertyOp24
 70
     1
102
RTVSPropertyOp25
 70
     1
102
RTVSPropertyOp26
 70
     1
102
RTVSPropertyOp27
 70
     1
102
RTVSPropertyOp28
 70
     1
102
RTVSPropertyOp29
 70
     1
102
RTVSPropertyOp30
 70
     1
102
RTVSPropertyOp31
 70
     1
102
RTVSPropertyOp32
 70
     1
102
RTVSPropertyOp33
 70
     1
102
RTVSPropertyOp34
 70
     1
102
RTVSPropertyOp35
 70
     1
102
RTVSPropertyOp36
 70
     1
102
RTVSPropertyOp37
 70
     1
102
RTVSPropertyOp38
 70
     1
102
RTVSPropertyOp39
 70
     1
102
RTVSPropertyOp40
 70
     1
102
RTVSPropertyOp41
 70
     1
102
RTVSPropertyOp42
 70
     1
102
RTVSPropertyOp43
 70
     1
102
RTVSPropertyOp44
 70
     1
102
RTVSPropertyOp45
 70
     1
102
RTVSPropertyOp46
 70
     1
102
RTVSPropertyOp47
 70
     1
102
RTVSPropertyOp48
 70
     1
102
RTVSPropertyOp49
 70
     1
102
RTVSPropertyOp50
 70
     1
102
RTVSPropertyOp51
 70
     0
102
RTVSPropertyOp52
 70
     0
102
RTVSPropertyOp53
 70
     1
102
RTVSPropertyOp54
 70
     1
102
RTVSPropertyOp55
 70
     1
102
RTVSPropertyOp56
 70
     1
102
RTVSPropertyOp57
 70
     1
102
RTVSPropertyOp58
 70
     1
102
RTVSPropertyOp59
 70
     1
102
RTVSPropertyOp60
 70
     1
102
RTVSPropertyOp61
 70
     1
102
RTVSPropertyOp62
 70
     1
  0
XRECORD
  5
394
102
{ACAD_REACTORS
330
393
102
}
330
393
100
AcDbXrecord
280
     1
102
RTVSPost2010Prop28
280
     0
102
RTVSPost2010PropOp28
 70
     1
102
RTVSPost2010Prop29
280
     1
102
RTVSPost2010PropOp29
 70
     1
102
RTVSPost2010Prop30
280
     1
102
RTVSPost2010PropOp30
 70
     1
102
RTVSPost2010Prop31
280
     0
102
RTVSPost2010PropOp31
 70
     1
102
RTVSPost2010Prop32
280
     0
102
RTVSPost2010PropOp32
 70
     1
102
RTVSPost2010Prop33
280
     0
102
RTVSPost2010PropOp33
 70
     1
102
RTVSPost2010Prop34
280
     0
102
RTVSPost2010PropOp34
 70
     1
102
RTVSPost2010Prop35
280
     0
102
RTVSPost2010PropOp35
 70
     1
102
RTVSPost2010Prop36
280
     0
102
RTVSPost2010PropOp36
 70
     1
102
RTVSPost2010Prop37
 90
       50
102
RTVSPost2010PropOp37
 70
     1
102
RTVSPost2010Prop38
140
0.0
102
RTVSPost2010PropOp38
 70
     1
102
RTVSPost2010Prop39
140
1.0
102
RTVSPost2010PropOp39
 70
     1
102
RTVSPost2010Prop40
 90
        0
102
RTVSPost2010PropOp40
 70
     1
102
RTVSPost2010Prop41ColorIndex
 90
       18
102
RTVSPost2010Prop41ColorRGB
 90
        0
102
RTVSPost2010PropOp41
 70
     1
102
RTVSPost2010Prop42
 90
       50
102
RTVSPost2010PropOp42
 70
     1
102
RTVSPost2010Prop43
 90
        3
102
RTVSPost2010PropOp43
 70
     1
102
RTVSPost2010Prop44ColorIndex
 90
        5
102
RTVSPost2010Prop44ColorRGB
 90
      255
102
RTVSPost2010PropOp44
 70
     1
102
RTVSPost2010Prop45
280
     0
102
RTVSPost2010PropOp45
 70
     1
102
RTVSPost2010Prop46
 90
       50
102
RTVSPost2010PropOp46
 70
     1
102
RTVSPost2010Prop47
 90
       50
102
RTVSPost2010PropOp47
 70
     1
102
RTVSPost2010Prop48
 90
       50
102
RTVSPost2010PropOp48
 70
     1
102
RTVSPost2010Prop49
280
     0
102
RTVSPost2010PropOp49
 70
     1
102
RTVSPost2010Prop50
 90
       50
102
RTVSPost2010PropOp50
 70
     1
102
RTVSPost2010Prop51ColorIndex
 90
      256
102
RTVSPost2010Prop51ColorRGB
 90
-16777216
102
RTVSPost2010PropOp51
 70
     0
102
RTVSPost2010Prop52
140
1.0
102
RTVSPost2010PropOp52
 70
     0
102
RTVSPost2010Prop53
 90
        2
102
RTVSPost2010PropOp53
 70
     1
102
RTVSPost2010Prop54
  1
strokes_ogs.tif
102
RTVSPost2010PropOp54
 70
     1
102
RTVSPost2010Prop55
280
     0
102
RTVSPost2010PropOp55
 70
     1
102
RTVSPost2010Prop56
140
1.0
102
RTVSPost2010PropOp56
 70
     1
102
RTVSPost2010Prop57
140
1.0
102
RTVSPost2010PropOp57
 70
     1
102
RTVSPropertyOp0
 70
     1
102
RTVSPropertyOp1
 70
     1
102
RTVSPropertyOp2
 70
     1
102
RTVSPropertyOp3
 70
     1
102
RTVSPropertyOp4
 70
     1
102
RTVSPropertyOp5
 70
     1
102
RTVSPropertyOp6
 70
     1
102
RTVSPropertyOp7
 70
     1
102
RTVSPropertyOp8
 70
     1
102
RTVSPropertyOp9
 70
     1
102
RTVSPropertyOp10
 70
     1
102
RTVSPropertyOp11
 70
     1
102
RTVSPropertyOp12
 70
     1
102
RTVSPropertyOp13
 70
     1
102
RTVSPropertyOp14
 70
     1
102
RTVSPropertyOp15
 70
     1
102
RTVSPropertyOp16
 70
     1
102
RTVSPropertyOp17
 70
     1
102
RTVSPropertyOp18
 70
     1
102
RTVSPropertyOp19
 70
     1
102
RTVSPropertyOp20
 70
     1
102
RTVSPropertyOp21
 70
     1
102
RTVSPropertyOp22
 70
     1
102
RTVSPropertyOp23
 70
     1
102
RTVSPropertyOp24
 70
     1
102
RTVSPropertyOp25
 70
     1
102
RTVSPropertyOp26
 70
     1
102
RTVSPropertyOp27
 70
     1
102
RTVSPropertyOp28
 70
     1
102
RTVSPropertyOp29
 70
     1
102
RTVSPropertyOp30
 70
     1
102
RTVSPropertyOp31
 70
     1
102
RTVSPropertyOp32
 70
     1
102
RTVSPropertyOp33
 70
     1
102
RTVSPropertyOp34
 70
     1
102
RTVSPropertyOp35
 70
     1
102
RTVSPropertyOp36
 70
     1
102
RTVSPropertyOp37
 70
     1
102
RTVSPropertyOp38
 70
     1
102
RTVSPropertyOp39
 70
     1
102
RTVSPropertyOp40
 70
     1
102
RTVSPropertyOp41
 70
     1
102
RTVSPropertyOp42
 70
     1
102
RTVSPropertyOp43
 70
     1
102
RTVSPropertyOp44
 70
     1
102
RTVSPropertyOp45
 70
     1
102
RTVSPropertyOp46
 70
     1
102
RTVSPropertyOp47
 70
     1
102
RTVSPropertyOp48
 70
     1
102
RTVSPropertyOp49
 70
     1
102
RTVSPropertyOp50
 70
     1
102
RTVSPropertyOp51
 70
     0
102
RTVSPropertyOp52
 70
     0
102
RTVSPropertyOp53
 70
     1
102
RTVSPropertyOp54
 70
     1
102
RTVSPropertyOp55
 70
     1
102
RTVSPropertyOp56
 70
     1
102
RTVSPropertyOp57
 70
     1
102
RTVSPropertyOp58
 70
     1
102
RTVSPropertyOp59
 70
     1
102
RTVSPropertyOp60
 70
     1
102
RTVSPropertyOp61
 70
     1
102
RTVSPropertyOp62
 70
     1
  0
XRECORD
  5
384
102
{ACAD_REACTORS
330
383
102
}
330
383
100
AcDbXrecord
280
     1
102
RTVSPost2010Prop28
280
     0
102
RTVSPost2010PropOp28
 70
     1
102
RTVSPost2010Prop29
280
     1
102
RTVSPost2010PropOp29
 70
     1
102
RTVSPost2010Prop30
280
     1
102
RTVSPost2010PropOp30
 70
     1
102
RTVSPost2010Prop31
280
     0
102
RTVSPost2010PropOp31
 70
     1
102
RTVSPost2010Prop32
280
     0
102
RTVSPost2010PropOp32
 70
     1
102
RTVSPost2010Prop33
280
     0
102
RTVSPost2010PropOp33
 70
     1
102
RTVSPost2010Prop34
280
     0
102
RTVSPost2010PropOp34
 70
     1
102
RTVSPost2010Prop35
280
     0
102
RTVSPost2010PropOp35
 70
     1
102
RTVSPost2010Prop36
280
     0
102
RTVSPost2010PropOp36
 70
     1
102
RTVSPost2010Prop37
 90
       50
102
RTVSPost2010PropOp37
 70
     1
102
RTVSPost2010Prop38
140
0.0
102
RTVSPost2010PropOp38
 70
     1
102
RTVSPost2010Prop39
140
1.0
102
RTVSPost2010PropOp39
 70
     1
102
RTVSPost2010Prop40
 90
        0
102
RTVSPost2010PropOp40
 70
     1
102
RTVSPost2010Prop41ColorIndex
 90
       18
102
RTVSPost2010Prop41ColorRGB
 90
        0
102
RTVSPost2010PropOp41
 70
     1
102
RTVSPost2010Prop42
 90
       50
102
RTVSPost2010PropOp42
 70
     1
102
RTVSPost2010Prop43
 90
        3
102
RTVSPost2010PropOp43
 70
     1
102
RTVSPost2010Prop44ColorIndex
 90
        5
102
RTVSPost2010Prop44ColorRGB
 90
      255
102
RTVSPost2010PropOp44
 70
     1
102
RTVSPost2010Prop45
280
     0
102
RTVSPost2010PropOp45
 70
     1
102
RTVSPost2010Prop46
 90
       50
102
RTVSPost2010PropOp46
 70
     1
102
RTVSPost2010Prop47
 90
       50
102
RTVSPost2010PropOp47
 70
     1
102
RTVSPost2010Prop48
 90
       50
102
RTVSPost2010PropOp48
 70
     1
102
RTVSPost2010Prop49
280
     0
102
RTVSPost2010PropOp49
 70
     1
102
RTVSPost2010Prop50
 90
       50
102
RTVSPost2010PropOp50
 70
     1
102
RTVSPost2010Prop51ColorIndex
 90
      256
102
RTVSPost2010Prop51ColorRGB
 90
-16777216
102
RTVSPost2010PropOp51
 70
     0
102
RTVSPost2010Prop52
140
1.0
102
RTVSPost2010PropOp52
 70
     0
102
RTVSPost2010Prop53
 90
        2
102
RTVSPost2010PropOp53
 70
     1
102
RTVSPost2010Prop54
  1
strokes_ogs.tif
102
RTVSPost2010PropOp54
 70
     1
102
RTVSPost2010Prop55
280
     0
102
RTVSPost2010PropOp55
 70
     1
102
RTVSPost2010Prop56
140
1.0
102
RTVSPost2010PropOp56
 70
     1
102
RTVSPost2010Prop57
140
1.0
102
RTVSPost2010PropOp57
 70
     1
102
RTVSPropertyOp0
 70
     1
102
RTVSPropertyOp1
 70
     1
102
RTVSPropertyOp2
 70
     1
102
RTVSPropertyOp3
 70
     1
102
RTVSPropertyOp4
 70
     1
102
RTVSPropertyOp5
 70
     1
102
RTVSPropertyOp6
 70
     1
102
RTVSPropertyOp7
 70
     1
102
RTVSPropertyOp8
 70
     1
102
RTVSPropertyOp9
 70
     1
102
RTVSPropertyOp10
 70
     1
102
RTVSPropertyOp11
 70
     1
102
RTVSPropertyOp12
 70
     1
102
RTVSPropertyOp13
 70
     1
102
RTVSPropertyOp14
 70
     1
102
RTVSPropertyOp15
 70
     1
102
RTVSPropertyOp16
 70
     1
102
RTVSPropertyOp17
 70
     1
102
RTVSPropertyOp18
 70
     1
102
RTVSPropertyOp19
 70
     1
102
RTVSPropertyOp20
 70
     1
102
RTVSPropertyOp21
 70
     1
102
RTVSPropertyOp22
 70
     1
102
RTVSPropertyOp23
 70
     1
102
RTVSPropertyOp24
 70
     1
102
RTVSPropertyOp25
 70
     1
102
RTVSPropertyOp26
 70
     1
102
RTVSPropertyOp27
 70
     1
102
RTVSPropertyOp28
 70
     1
102
RTVSPropertyOp29
 70
     1
102
RTVSPropertyOp30
 70
     1
102
RTVSPropertyOp31
 70
     1
102
RTVSPropertyOp32
 70
     1
102
RTVSPropertyOp33
 70
     1
102
RTVSPropertyOp34
 70
     1
102
RTVSPropertyOp35
 70
     1
102
RTVSPropertyOp36
 70
     1
102
RTVSPropertyOp37
 70
     1
102
RTVSPropertyOp38
 70
     1
102
RTVSPropertyOp39
 70
     1
102
RTVSPropertyOp40
 70
     1
102
RTVSPropertyOp41
 70
     1
102
RTVSPropertyOp42
 70
     1
102
RTVSPropertyOp43
 70
     1
102
RTVSPropertyOp44
 70
     1
102
RTVSPropertyOp45
 70
     1
102
RTVSPropertyOp46
 70
     1
102
RTVSPropertyOp47
 70
     1
102
RTVSPropertyOp48
 70
     1
102
RTVSPropertyOp49
 70
     1
102
RTVSPropertyOp50
 70
     1
102
RTVSPropertyOp51
 70
     0
102
RTVSPropertyOp52
 70
     0
102
RTVSPropertyOp53
 70
     1
102
RTVSPropertyOp54
 70
     1
102
RTVSPropertyOp55
 70
     1
102
RTVSPropertyOp56
 70
     1
102
RTVSPropertyOp57
 70
     1
102
RTVSPropertyOp58
 70
     1
102
RTVSPropertyOp59
 70
     1
102
RTVSPropertyOp60
 70
     1
102
RTVSPropertyOp61
 70
     1
102
RTVSPropertyOp62
 70
     1
  0
XRECORD
  5
376
102
{ACAD_REACTORS
330
375
102
}
330
375
100
AcDbXrecord
280
     1
102
RTVSPost2010Prop28
280
     0
102
RTVSPost2010PropOp28
 70
     1
102
RTVSPost2010Prop29
280
     1
102
RTVSPost2010PropOp29
 70
     1
102
RTVSPost2010Prop30
280
     1
102
RTVSPost2010PropOp30
 70
     1
102
RTVSPost2010Prop31
280
     0
102
RTVSPost2010PropOp31
 70
     1
102
RTVSPost2010Prop32
280
     0
102
RTVSPost2010PropOp32
 70
     1
102
RTVSPost2010Prop33
280
     0
102
RTVSPost2010PropOp33
 70
     1
102
RTVSPost2010Prop34
280
     0
102
RTVSPost2010PropOp34
 70
     1
102
RTVSPost2010Prop35
280
     0
102
RTVSPost2010PropOp35
 70
     1
102
RTVSPost2010Prop36
280
     0
102
RTVSPost2010PropOp36
 70
     1
102
RTVSPost2010Prop37
 90
       50
102
RTVSPost2010PropOp37
 70
     1
102
RTVSPost2010Prop38
140
0.0
102
RTVSPost2010PropOp38
 70
     1
102
RTVSPost2010Prop39
140
1.0
102
RTVSPost2010PropOp39
 70
     1
102
RTVSPost2010Prop40
 90
        0
102
RTVSPost2010PropOp40
 70
     1
102
RTVSPost2010Prop41ColorIndex
 90
       18
102
RTVSPost2010Prop41ColorRGB
 90
        0
102
RTVSPost2010PropOp41
 70
     1
102
RTVSPost2010Prop42
 90
       50
102
RTVSPost2010PropOp42
 70
     1
102
RTVSPost2010Prop43
 90
        3
102
RTVSPost2010PropOp43
 70
     1
102
RTVSPost2010Prop44ColorIndex
 90
        5
102
RTVSPost2010Prop44ColorRGB
 90
      255
102
RTVSPost2010PropOp44
 70
     1
102
RTVSPost2010Prop45
280
     0
102
RTVSPost2010PropOp45
 70
     1
102
RTVSPost2010Prop46
 90
       50
102
RTVSPost2010PropOp46
 70
     1
102
RTVSPost2010Prop47
 90
       50
102
RTVSPost2010PropOp47
 70
     1
102
RTVSPost2010Prop48
 90
       50
102
RTVSPost2010PropOp48
 70
     1
102
RTVSPost2010Prop49
280
     0
102
RTVSPost2010PropOp49
 70
     1
102
RTVSPost2010Prop50
 90
       50
102
RTVSPost2010PropOp50
 70
     1
102
RTVSPost2010Prop51ColorIndex
 90
      256
102
RTVSPost2010Prop51ColorRGB
 90
-16777216
102
RTVSPost2010PropOp51
 70
     0
102
RTVSPost2010Prop52
140
1.0
102
RTVSPost2010PropOp52
 70
     0
102
RTVSPost2010Prop53
 90
        2
102
RTVSPost2010PropOp53
 70
     1
102
RTVSPost2010Prop54
  1
strokes_ogs.tif
102
RTVSPost2010PropOp54
 70
     1
102
RTVSPost2010Prop55
280
     0
102
RTVSPost2010PropOp55
 70
     1
102
RTVSPost2010Prop56
140
1.0
102
RTVSPost2010PropOp56
 70
     1
102
RTVSPost2010Prop57
140
1.0
102
RTVSPost2010PropOp57
 70
     1
102
RTVSPropertyOp0
 70
     1
102
RTVSPropertyOp1
 70
     1
102
RTVSPropertyOp2
 70
     1
102
RTVSPropertyOp3
 70
     1
102
RTVSPropertyOp4
 70
     1
102
RTVSPropertyOp5
 70
     1
102
RTVSPropertyOp6
 70
     1
102
RTVSPropertyOp7
 70
     1
102
RTVSPropertyOp8
 70
     1
102
RTVSPropertyOp9
 70
     1
102
RTVSPropertyOp10
 70
     1
102
RTVSPropertyOp11
 70
     1
102
RTVSPropertyOp12
 70
     1
102
RTVSPropertyOp13
 70
     1
102
RTVSPropertyOp14
 70
     1
102
RTVSPropertyOp15
 70
     1
102
RTVSPropertyOp16
 70
     1
102
RTVSPropertyOp17
 70
     1
102
RTVSPropertyOp18
 70
     1
102
RTVSPropertyOp19
 70
     1
102
RTVSPropertyOp20
 70
     1
102
RTVSPropertyOp21
 70
     1
102
RTVSPropertyOp22
 70
     1
102
RTVSPropertyOp23
 70
     1
102
RTVSPropertyOp24
 70
     1
102
RTVSPropertyOp25
 70
     1
102
RTVSPropertyOp26
 70
     1
102
RTVSPropertyOp27
 70
     1
102
RTVSPropertyOp28
 70
     1
102
RTVSPropertyOp29
 70
     1
102
RTVSPropertyOp30
 70
     1
102
RTVSPropertyOp31
 70
     1
102
RTVSPropertyOp32
 70
     1
102
RTVSPropertyOp33
 70
     1
102
RTVSPropertyOp34
 70
     1
102
RTVSPropertyOp35
 70
     1
102
RTVSPropertyOp36
 70
     1
102
RTVSPropertyOp37
 70
     1
102
RTVSPropertyOp38
 70
     1
102
RTVSPropertyOp39
 70
     1
102
RTVSPropertyOp40
 70
     1
102
RTVSPropertyOp41
 70
     1
102
RTVSPropertyOp42
 70
     1
102
RTVSPropertyOp43
 70
     1
102
RTVSPropertyOp44
 70
     1
102
RTVSPropertyOp45
 70
     1
102
RTVSPropertyOp46
 70
     1
102
RTVSPropertyOp47
 70
     1
102
RTVSPropertyOp48
 70
     1
102
RTVSPropertyOp49
 70
     1
102
RTVSPropertyOp50
 70
     1
102
RTVSPropertyOp51
 70
     0
102
RTVSPropertyOp52
 70
     0
102
RTVSPropertyOp53
 70
     1
102
RTVSPropertyOp54
 70
     1
102
RTVSPropertyOp55
 70
     1
102
RTVSPropertyOp56
 70
     1
102
RTVSPropertyOp57
 70
     1
102
RTVSPropertyOp58
 70
     1
102
RTVSPropertyOp59
 70
     1
102
RTVSPropertyOp60
 70
     1
102
RTVSPropertyOp61
 70
     1
102
RTVSPropertyOp62
 70
     1
  0
XRECORD
  5
396
102
{ACAD_REACTORS
330
395
102
}
330
395
100
AcDbXrecord
280
     1
102
RTVSPost2010Prop28
280
     0
102
RTVSPost2010PropOp28
 70
     1
102
RTVSPost2010Prop29
280
     1
102
RTVSPost2010PropOp29
 70
     1
102
RTVSPost2010Prop30
280
     1
102
RTVSPost2010PropOp30
 70
     1
102
RTVSPost2010Prop31
280
     0
102
RTVSPost2010PropOp31
 70
     1
102
RTVSPost2010Prop32
280
     0
102
RTVSPost2010PropOp32
 70
     1
102
RTVSPost2010Prop33
280
     0
102
RTVSPost2010PropOp33
 70
     1
102
RTVSPost2010Prop34
280
     0
102
RTVSPost2010PropOp34
 70
     1
102
RTVSPost2010Prop35
280
     0
102
RTVSPost2010PropOp35
 70
     1
102
RTVSPost2010Prop36
280
     0
102
RTVSPost2010PropOp36
 70
     1
102
RTVSPost2010Prop37
 90
       50
102
RTVSPost2010PropOp37
 70
     1
102
RTVSPost2010Prop38
140
0.0
102
RTVSPost2010PropOp38
 70
     1
102
RTVSPost2010Prop39
140
1.0
102
RTVSPost2010PropOp39
 70
     1
102
RTVSPost2010Prop40
 90
        0
102
RTVSPost2010PropOp40
 70
     1
102
RTVSPost2010Prop41ColorIndex
 90
       18
102
RTVSPost2010Prop41ColorRGB
 90
        0
102
RTVSPost2010PropOp41
 70
     1
102
RTVSPost2010Prop42
 90
       50
102
RTVSPost2010PropOp42
 70
     1
102
RTVSPost2010Prop43
 90
        3
102
RTVSPost2010PropOp43
 70
     1
102
RTVSPost2010Prop44ColorIndex
 90
        5
102
RTVSPost2010Prop44ColorRGB
 90
      255
102
RTVSPost2010PropOp44
 70
     1
102
RTVSPost2010Prop45
280
     0
102
RTVSPost2010PropOp45
 70
     1
102
RTVSPost2010Prop46
 90
       50
102
RTVSPost2010PropOp46
 70
     1
102
RTVSPost2010Prop47
 90
       50
102
RTVSPost2010PropOp47
 70
     1
102
RTVSPost2010Prop48
 90
       50
102
RTVSPost2010PropOp48
 70
     1
102
RTVSPost2010Prop49
280
     0
102
RTVSPost2010PropOp49
 70
     1
102
RTVSPost2010Prop50
 90
       50
102
RTVSPost2010PropOp50
 70
     1
102
RTVSPost2010Prop51ColorIndex
 90
      256
102
RTVSPost2010Prop51ColorRGB
 90
-16777216
102
RTVSPost2010PropOp51
 70
     0
102
RTVSPost2010Prop52
140
1.0
102
RTVSPost2010PropOp52
 70
     0
102
RTVSPost2010Prop53
 90
        2
102
RTVSPost2010PropOp53
 70
     1
102
RTVSPost2010Prop54
  1
strokes_ogs.tif
102
RTVSPost2010PropOp54
 70
     1
102
RTVSPost2010Prop55
280
     0
102
RTVSPost2010PropOp55
 70
     1
102
RTVSPost2010Prop56
140
1.0
102
RTVSPost2010PropOp56
 70
     1
102
RTVSPost2010Prop57
140
1.0
102
RTVSPost2010PropOp57
 70
     1
102
RTVSPropertyOp0
 70
     1
102
RTVSPropertyOp1
 70
     1
102
RTVSPropertyOp2
 70
     1
102
RTVSPropertyOp3
 70
     1
102
RTVSPropertyOp4
 70
     1
102
RTVSPropertyOp5
 70
     1
102
RTVSPropertyOp6
 70
     1
102
RTVSPropertyOp7
 70
     1
102
RTVSPropertyOp8
 70
     1
102
RTVSPropertyOp9
 70
     1
102
RTVSPropertyOp10
 70
     1
102
RTVSPropertyOp11
 70
     1
102
RTVSPropertyOp12
 70
     1
102
RTVSPropertyOp13
 70
     1
102
RTVSPropertyOp14
 70
     1
102
RTVSPropertyOp15
 70
     1
102
RTVSPropertyOp16
 70
     1
102
RTVSPropertyOp17
 70
     1
102
RTVSPropertyOp18
 70
     1
102
RTVSPropertyOp19
 70
     1
102
RTVSPropertyOp20
 70
     1
102
RTVSPropertyOp21
 70
     1
102
RTVSPropertyOp22
 70
     1
102
RTVSPropertyOp23
 70
     1
102
RTVSPropertyOp24
 70
     1
102
RTVSPropertyOp25
 70
     1
102
RTVSPropertyOp26
 70
     1
102
RTVSPropertyOp27
 70
     1
102
RTVSPropertyOp28
 70
     1
102
RTVSPropertyOp29
 70
     1
102
RTVSPropertyOp30
 70
     1
102
RTVSPropertyOp31
 70
     1
102
RTVSPropertyOp32
 70
     1
102
RTVSPropertyOp33
 70
     1
102
RTVSPropertyOp34
 70
     1
102
RTVSPropertyOp35
 70
     1
102
RTVSPropertyOp36
 70
     1
102
RTVSPropertyOp37
 70
     1
102
RTVSPropertyOp38
 70
     1
102
RTVSPropertyOp39
 70
     1
102
RTVSPropertyOp40
 70
     1
102
RTVSPropertyOp41
 70
     1
102
RTVSPropertyOp42
 70
     1
102
RTVSPropertyOp43
 70
     1
102
RTVSPropertyOp44
 70
     1
102
RTVSPropertyOp45
 70
     1
102
RTVSPropertyOp46
 70
     1
102
RTVSPropertyOp47
 70
     1
102
RTVSPropertyOp48
 70
     1
102
RTVSPropertyOp49
 70
     1
102
RTVSPropertyOp50
 70
     1
102
RTVSPropertyOp51
 70
     0
102
RTVSPropertyOp52
 70
     0
102
RTVSPropertyOp53
 70
     1
102
RTVSPropertyOp54
 70
     1
102
RTVSPropertyOp55
 70
     1
102
RTVSPropertyOp56
 70
     1
102
RTVSPropertyOp57
 70
     1
102
RTVSPropertyOp58
 70
     1
102
RTVSPropertyOp59
 70
     1
102
RTVSPropertyOp60
 70
     1
102
RTVSPropertyOp61
 70
     1
102
RTVSPropertyOp62
 70
     1
  0
ENDSEC
  0
EOF
