  0
SECTION
  2
HEADER
  9
$ACADVER
  1
AC1018
  9
$ACADMAINTVER
 70
   104
  9
$DWGCODEPAGE
  3
ANSI_1250
  9
$LASTSAVEDBY
  1
wq7085
  9
$INSBASE
 10
0.0
 20
0.0
 30
0.0
  9
$EXTMIN
 10
187.2502013333333
 20
118.534924
 30
0.0
  9
$EXTMAX
 10
468.823882
 20
351.9336746666668
 30
0.0
  9
$LIMMIN
 10
-0.5
 20
-0.5
  9
$LIMMAX
 10
5.0
 20
5.0
  9
$ORTHOMODE
 70
     0
  9
$REGENMODE
 70
     1
  9
$FILLMODE
 70
     1
  9
$QTEXTMODE
 70
     0
  9
$MIRRTEXT
 70
     1
  9
$LTSCALE
 40
1.0
  9
$ATTMODE
 70
     1
  9
$TEXTSIZE
 40
0.2
  9
$TRACEWID
 40
0.05
  9
$TEXTSTYLE
  7
Standard
  9
$CLAYER
  8
0
  9
$CELTYPE
  6
ByLayer
  9
$CECOLOR
 62
   256
  9
$CELTSCALE
 40
1.0
  9
$DISPSILH
 70
     0
  9
$DIMSCALE
 40
1.0
  9
$DIMASZ
 40
0.18
  9
$DIMEXO
 40
0.0625
  9
$DIMDLI
 40
0.38
  9
$DIMRND
 40
0.0
  9
$DIMDLE
 40
0.0
  9
$DIMEXE
 40
0.18
  9
$DIMTP
 40
0.0
  9
$DIMTM
 40
0.0
  9
$DIMTXT
 40
0.18
  9
$DIMCEN
 40
0.09
  9
$DIMTSZ
 40
0.0
  9
$DIMTOL
 70
     0
  9
$DIMLIM
 70
     0
  9
$DIMTIH
 70
     1
  9
$DIMTOH
 70
     1
  9
$DIMSE1
 70
     0
  9
$DIMSE2
 70
     0
  9
$DIMTAD
 70
     0
  9
$DIMZIN
 70
     0
  9
$DIMBLK
  1

  9
$DIMASO
 70
     1
  9
$DIMSHO
 70
     1
  9
$DIMPOST
  1

  9
$DIMAPOST
  1

  9
$DIMALT
 70
     0
  9
$DIMALTD
 70
     2
  9
$DIMALTF
 40
25.4
  9
$DIMLFAC
 40
1.0
  9
$DIMTOFL
 70
     0
  9
$DIMTVP
 40
0.0
  9
$DIMTIX
 70
     0
  9
$DIMSOXD
 70
     0
  9
$DIMSAH
 70
     0
  9
$DIMBLK1
  1

  9
$DIMBLK2
  1

  9
$DIMSTYLE
  2
Standard
  9
$DIMCLRD
 70
     0
  9
$DIMCLRE
 70
     0
  9
$DIMCLRT
 70
     0
  9
$DIMTFAC
 40
1.0
  9
$DIMGAP
 40
0.09
  9
$DIMJUST
 70
     0
  9
$DIMSD1
 70
     0
  9
$DIMSD2
 70
     0
  9
$DIMTOLJ
 70
     1
  9
$DIMTZIN
 70
     0
  9
$DIMALTZ
 70
     0
  9
$DIMALTTZ
 70
     0
  9
$DIMUPT
 70
     0
  9
$DIMDEC
 70
     4
  9
$DIMTDEC
 70
     4
  9
$DIMALTU
 70
     2
  9
$DIMALTTD
 70
     2
  9
$DIMTXSTY
  7
Standard
  9
$DIMAUNIT
 70
     0
  9
$DIMADEC
 70
     0
  9
$DIMALTRND
 40
0.0
  9
$DIMAZIN
 70
     0
  9
$DIMDSEP
 70
    46
  9
$DIMATFIT
 70
     3
  9
$DIMFRAC
 70
     0
  9
$DIMLDRBLK
  1

  9
$DIMLUNIT
 70
     2
  9
$DIMLWD
 70
    -2
  9
$DIMLWE
 70
    -2
  9
$DIMTMOVE
 70
     0
  9
$LUNITS
 70
     2
  9
$LUPREC
 70
     4
  9
$SKETCHINC
 40
0.1
  9
$FILLETRAD
 40
0.5
  9
$AUNITS
 70
     0
  9
$AUPREC
 70
     0
  9
$MENU
  1
.
  9
$ELEVATION
 40
0.0
  9
$PELEVATION
 40
0.0
  9
$THICKNESS
 40
0.0
  9
$LIMCHECK
 70
     0
  9
$CHAMFERA
 40
0.0
  9
$CHAMFERB
 40
0.0
  9
$CHAMFERC
 40
0.0
  9
$CHAMFERD
 40
0.0
  9
$SKPOLY
 70
     0
  9
$TDCREATE
 40
2459089.423715278
  9
$TDUCREATE
 40
2459089.340382732
  9
$TDUPDATE
 40
2459089.444375000
  9
$TDUUPDATE
 40
2459089.361041666
  9
$TDINDWG
 40
0.0003125116
  9
$TDUSRTIMER
 40
0.0003125116
  9
$USRTIMER
 70
     1
  9
$ANGBASE
 50
0.0
  9
$ANGDIR
 70
     0
  9
$PDMODE
 70
     0
  9
$PDSIZE
 40
0.0
  9
$PLINEWID
 40
0.0
  9
$SPLFRAME
 70
     0
  9
$SPLINETYPE
 70
     6
  9
$SPLINESEGS
 70
     8
  9
$HANDSEED
  5
3E8
  9
$SURFTAB1
 70
     6
  9
$SURFTAB2
 70
     6
  9
$SURFTYPE
 70
     6
  9
$SURFU
 70
     6
  9
$SURFV
 70
     6
  9
$UCSBASE
  2

  9
$UCSNAME
  2

  9
$UCSORG
 10
274.404842
 20
288.907994
 30
0.0
  9
$UCSXDIR
 10
1.0
 20
0.0
 30
0.0
  9
$UCSYDIR
 10
0.0
 20
1.0
 30
0.0
  9
$UCSORTHOREF
  2

  9
$UCSORTHOVIEW
 70
     0
  9
$UCSORGTOP
 10
0.0
 20
0.0
 30
0.0
  9
$UCSORGBOTTOM
 10
0.0
 20
0.0
 30
0.0
  9
$UCSORGLEFT
 10
0.0
 20
0.0
 30
0.0
  9
$UCSORGRIGHT
 10
0.0
 20
0.0
 30
0.0
  9
$UCSORGFRONT
 10
0.0
 20
0.0
 30
0.0
  9
$UCSORGBACK
 10
0.0
 20
0.0
 30
0.0
  9
$PUCSBASE
  2

  9
$PUCSNAME
  2

  9
$PUCSORG
 10
0.0
 20
0.0
 30
0.0
  9
$PUCSXDIR
 10
1.0
 20
0.0
 30
0.0
  9
$PUCSYDIR
 10
0.0
 20
1.0
 30
0.0
  9
$PUCSORTHOREF
  2

  9
$PUCSORTHOVIEW
 70
     0
  9
$PUCSORGTOP
 10
0.0
 20
0.0
 30
0.0
  9
$PUCSORGBOTTOM
 10
0.0
 20
0.0
 30
0.0
  9
$PUCSORGLEFT
 10
0.0
 20
0.0
 30
0.0
  9
$PUCSORGRIGHT
 10
0.0
 20
0.0
 30
0.0
  9
$PUCSORGFRONT
 10
0.0
 20
0.0
 30
0.0
  9
$PUCSORGBACK
 10
0.0
 20
0.0
 30
0.0
  9
$USERI1
 70
     0
  9
$USERI2
 70
     0
  9
$USERI3
 70
     0
  9
$USERI4
 70
     0
  9
$USERI5
 70
     0
  9
$USERR1
 40
0.0
  9
$USERR2
 40
0.0
  9
$USERR3
 40
0.0
  9
$USERR4
 40
0.0
  9
$USERR5
 40
0.0
  9
$WORLDVIEW
 70
     1
  9
$SHADEDGE
 70
     3
  9
$SHADEDIF
 70
    70
  9
$TILEMODE
 70
     1
  9
$MAXACTVP
 70
    64
  9
$PINSBASE
 10
0.0
 20
0.0
 30
0.0
  9
$PLIMCHECK
 70
     0
  9
$PEXTMIN
 10
-0.5
 20
-0.5
 30
-0.5
  9
$PEXTMAX
 10
5.0
 20
5.0
 30
5.0
  9
$PLIMMIN
 10
-0.5
 20
-0.5
  9
$PLIMMAX
 10
5.0
 20
5.0
  9
$UNITMODE
 70
     0
  9
$VISRETAIN
 70
     1
  9
$PLINEGEN
 70
     0
  9
$PSLTSCALE
 70
     1
  9
$TREEDEPTH
 70
  3020
  9
$CMLSTYLE
  2
Standard
  9
$CMLJUST
 70
     0
  9
$CMLSCALE
 40
1.0
  9
$PROXYGRAPHICS
 70
     1
  9
$MEASUREMENT
 70
     1
  9
$CELWEIGHT
370
    13
  9
$ENDCAPS
280
     0
  9
$JOINSTYLE
280
     0
  9
$LWDISPLAY
290
     0
  9
$INSUNITS
 70
     4
  9
$HYPERLINKBASE
  1

  9
$STYLESHEET
  1

  9
$XEDIT
290
     1
  9
$CEPSNTYPE
380
     0
  9
$PSTYLEMODE
290
     1
  9
$FINGERPRINTGUID
  2
{C557EAF7-1EDE-4014-9EEE-12073532ECD9}
  9
$VERSIONGUID
  2
{589BB8F5-CBD2-584F-8D65-F9F1C49BACD5}
  9
$EXTNAMES
290
     1
  9
$PSVPSCALE
 40
0.0
  9
$OLESTARTUP
290
     0
  9
$SORTENTS
280
   127
  9
$INDEXCTL
280
     0
  9
$HIDETEXT
280
     1
  9
$XCLIPFRAME
290
     0
  9
$HALOGAP
280
     0
  9
$OBSCOLOR
 70
   257
  9
$OBSLTYPE
280
     0
  9
$INTERSECTIONDISPLAY
280
     0
  9
$INTERSECTIONCOLOR
 70
   257
  9
$DIMASSOC
280
     2
  9
$PROJECTNAME
  1

  0
ENDSEC
  0
SECTION
  2
CLASSES
  0
CLASS
  1
ACDBDICTIONARYWDFLT
  2
AcDbDictionaryWithDefault
  3
ObjectDBX Classes
 90
        0
 91
        1
280
     0
281
     0
  0
CLASS
  1
VISUALSTYLE
  2
AcDbVisualStyle
  3
ObjectDBX Classes
 90
     4095
 91
       24
280
     0
281
     0
  0
CLASS
  1
MATERIAL
  2
AcDbMaterial
  3
ObjectDBX Classes
 90
     1153
 91
        3
280
     0
281
     0
  0
CLASS
  1
SCALE
  2
AcDbScale
  3
ObjectDBX Classes
 90
     1153
 91
       33
280
     0
281
     0
  0
CLASS
  1
TABLESTYLE
  2
AcDbTableStyle
  3
ObjectDBX Classes
 90
     4095
 91
        1
280
     0
281
     0
  0
CLASS
  1
MLEADERSTYLE
  2
AcDbMLeaderStyle
  3
ACDB_MLEADERSTYLE_CLASS
 90
     4095
 91
        1
280
     0
281
     0
  0
CLASS
  1
SUN
  2
AcDbSun
  3
SCENEOE
 90
     1153
 91
        0
280
     0
281
     0
  0
CLASS
  1
DIMASSOC
  2
AcDbDimAssoc
  3
"AcDbDimAssoc|Product Desc:     AcDim ARX App For Dimension|Company:          Autodesk, Inc.|WEB Address:      www.autodesk.com"
 90
        0
 91
        7
280
     0
281
     0
  0
CLASS
  1
DICTIONARYVAR
  2
AcDbDictionaryVar
  3
ObjectDBX Classes
 90
        0
 91
        8
280
     0
281
     0
  0
CLASS
  1
CELLSTYLEMAP
  2
AcDbCellStyleMap
  3
ObjectDBX Classes
 90
     1152
 91
        2
280
     0
281
     0
  0
CLASS
  1
ACDBSECTIONVIEWSTYLE
  2
AcDbSectionViewStyle
  3
ObjectDBX Classes
 90
     1025
 91
        1
280
     0
281
     0
  0
CLASS
  1
ACDBDETAILVIEWSTYLE
  2
AcDbDetailViewStyle
  3
ObjectDBX Classes
 90
     1025
 91
        1
280
     0
281
     0
  0
CLASS
  1
SORTENTSTABLE
  2
AcDbSortentsTable
  3
ObjectDBX Classes
 90
        0
 91
        1
280
     0
281
     0
  0
ENDSEC
  0
SECTION
  2
TABLES
  0
TABLE
  2
VPORT
  5
8
330
0
100
AcDbSymbolTable
 70
    16
  0
VPORT
  5
29
330
8
100
AcDbSymbolTableRecord
100
AcDbViewportTableRecord
  2
*Active
 70
     0
 10
0.0
 20
0.0
 11
1.0
 21
1.0
 12
327.9932247177671
 22
290.6709708950875
 13
0.0
 23
0.0
 14
0.5
 24
0.5
 15
0.5
 25
0.5
 16
0.0
 26
0.0
 36
1.0
 17
0.0
 27
0.0
 37
0.0
 40
202.5677747878949
 41
2.292712066905615
 42
50.0
 43
489.1937069999999
 44
-489.1937069999999
 50
0.0
 51
0.0
 71
     0
 72
   100
 73
     1
 74
     3
 75
     0
 76
     0
 77
     0
 78
     0
281
     0
 65
     1
110
274.404842
120
288.907994
130
0.0
111
1.0
121
0.0
131
0.0
112
0.0
122
1.0
132
0.0
 79
     0
146
0.0
1001
ACAD_NAV_VCDISPLAY
1070
     3
  0
VPORT
  5
2EA
330
8
100
AcDbSymbolTableRecord
100
AcDbViewportTableRecord
  2
L1
 70
     0
 10
0.0
 20
0.0
 11
1.0
 21
1.0
 12
327.532837
 22
235.17495
 13
0.0
 23
0.0
 14
0.5
 24
0.5
 15
0.5
 25
0.5
 16
0.0
 26
0.0
 36
1.0
 17
0.0
 27
0.0
 37
0.0
 40
207.433333
 41
0.085602
 42
50.0
 43
489.1937069999999
 44
-489.1937069999999
 50
0.0
 51
0.0
 71
     0
 72
   100
 73
     1
 74
     3
 75
     0
 76
     0
 77
     0
 78
     0
281
     0
 65
     1
110
0.0
120
0.0
130
0.0
111
1.0
121
0.0
131
0.0
112
0.0
122
1.0
132
0.0
 79
     0
146
0.0
  0
VPORT
  5
2EB
330
8
100
AcDbSymbolTableRecord
100
AcDbViewportTableRecord
  2
L2
 70
     0
 10
0.0
 20
0.0
 11
0.5
 21
1.0
 12
0.0
 22
0.0
 13
0.0
 23
0.0
 14
0.5
 24
0.5
 15
0.5
 25
0.5
 16
0.0
 26
-1.0
 36
0.0
 17
0.0
 27
0.0
 37
0.0
 40
1316.18997
 41
0.013491
 42
50.0
 43
678.00864
 44
-678.00864
 50
0.0
 51
0.0
 71
     0
 72
   100
 73
     1
 74
     3
 75
     0
 76
     0
 77
     0
 78
     0
281
     0
 65
     1
110
0.0
120
0.0
130
0.0
111
1.0
121
0.0
131
0.0
112
0.0
122
1.0
132
0.0
 79
     0
146
0.0
  0
VPORT
  5
2EC
330
8
100
AcDbSymbolTableRecord
100
AcDbViewportTableRecord
  2
L2
 70
     0
 10
0.5
 20
0.0
 11
1.0
 21
1.0
 12
0.0
 22
0.0
 13
0.0
 23
0.0
 14
0.5
 24
0.5
 15
0.5
 25
0.5
 16
1.0
 26
0.0
 36
0.0
 17
0.0
 27
0.0
 37
0.0
 40
1316.18997
 41
0.013491
 42
50.0
 43
666.2177989999999
 44
-666.2177989999999
 50
0.0
 51
0.0
 71
     0
 72
   100
 73
     1
 74
     3
 75
     0
 76
     0
 77
     0
 78
     0
281
     0
 65
     1
110
0.0
120
0.0
130
0.0
111
1.0
121
0.0
131
0.0
112
0.0
122
1.0
132
0.0
 79
     0
146
0.0
  0
VPORT
  5
2ED
330
8
100
AcDbSymbolTableRecord
100
AcDbViewportTableRecord
  2
L3
 70
     0
 10
0.0
 20
0.5
 11
1.0
 21
1.0
 12
327.532837
 22
235.17495
 13
0.0
 23
0.0
 14
0.5
 24
0.5
 15
0.5
 25
0.5
 16
0.0
 26
0.0
 36
1.0
 17
0.0
 27
0.0
 37
0.0
 40
207.433333
 41
0.085602
 42
50.0
 43
489.1937069999999
 44
-489.1937069999999
 50
0.0
 51
0.0
 71
     0
 72
   100
 73
     1
 74
     3
 75
     0
 76
     0
 77
     0
 78
     0
281
     0
 65
     1
110
0.0
120
0.0
130
0.0
111
1.0
121
0.0
131
0.0
112
0.0
122
1.0
132
0.0
 79
     0
146
0.0
  0
VPORT
  5
2EE
330
8
100
AcDbSymbolTableRecord
100
AcDbViewportTableRecord
  2
L3
 70
     0
 10
0.0
 20
0.0
 11
1.0
 21
0.5
 12
0.0
 22
0.0
 13
0.0
 23
0.0
 14
0.5
 24
0.5
 15
0.5
 25
0.5
 16
0.0
 26
-1.0
 36
0.0
 17
0.0
 27
0.0
 37
0.0
 40
1316.18997
 41
0.013491
 42
50.0
 43
678.00864
 44
-678.00864
 50
0.0
 51
0.0
 71
     0
 72
   100
 73
     1
 74
     3
 75
     0
 76
     0
 77
     0
 78
     0
281
     0
 65
     1
110
0.0
120
0.0
130
0.0
111
1.0
121
0.0
131
0.0
112
0.0
122
1.0
132
0.0
 79
     0
146
0.0
  0
VPORT
  5
2EF
330
8
100
AcDbSymbolTableRecord
100
AcDbViewportTableRecord
  2
L4
 70
     0
 10
0.0
 20
0.5
 11
0.5
 21
1.0
 12
327.532837
 22
235.17495
 13
0.0
 23
0.0
 14
0.5
 24
0.5
 15
0.5
 25
0.5
 16
0.0
 26
0.0
 36
1.0
 17
0.0
 27
0.0
 37
0.0
 40
207.433333
 41
0.085602
 42
50.0
 43
489.1937069999999
 44
-489.1937069999999
 50
0.0
 51
0.0
 71
     0
 72
   100
 73
     1
 74
     3
 75
     0
 76
     0
 77
     0
 78
     0
281
     0
 65
     1
110
0.0
120
0.0
130
0.0
111
1.0
121
0.0
131
0.0
112
0.0
122
1.0
132
0.0
 79
     0
146
0.0
  0
VPORT
  5
2F0
330
8
100
AcDbSymbolTableRecord
100
AcDbViewportTableRecord
  2
L4
 70
     0
 10
0.0
 20
0.0
 11
0.5
 21
0.5
 12
0.0
 22
0.0
 13
0.0
 23
0.0
 14
0.5
 24
0.5
 15
0.5
 25
0.5
 16
0.0
 26
-1.0
 36
0.0
 17
0.0
 27
0.0
 37
0.0
 40
1316.18997
 41
0.013491
 42
50.0
 43
678.00864
 44
-678.00864
 50
0.0
 51
0.0
 71
     0
 72
   100
 73
     1
 74
     3
 75
     0
 76
     0
 77
     0
 78
     0
281
     0
 65
     1
110
0.0
120
0.0
130
0.0
111
1.0
121
0.0
131
0.0
112
0.0
122
1.0
132
0.0
 79
     0
146
0.0
  0
VPORT
  5
2F1
330
8
100
AcDbSymbolTableRecord
100
AcDbViewportTableRecord
  2
L4
 70
     0
 10
0.5
 20
0.0
 11
1.0
 21
0.5
 12
0.0
 22
0.0
 13
0.0
 23
0.0
 14
0.5
 24
0.5
 15
0.5
 25
0.5
 16
1.0
 26
0.0
 36
0.0
 17
0.0
 27
0.0
 37
0.0
 40
1316.18997
 41
0.013491
 42
50.0
 43
666.2177989999999
 44
-666.2177989999999
 50
0.0
 51
0.0
 71
     0
 72
   100
 73
     1
 74
     3
 75
     0
 76
     0
 77
     0
 78
     0
281
     0
 65
     1
110
0.0
120
0.0
130
0.0
111
1.0
121
0.0
131
0.0
112
0.0
122
1.0
132
0.0
 79
     0
146
0.0
  0
VPORT
  5
2F2
330
8
100
AcDbSymbolTableRecord
100
AcDbViewportTableRecord
  2
L4
 70
     0
 10
0.5
 20
0.5
 11
1.0
 21
1.0
 12
0.0
 22
0.0
 13
0.0
 23
0.0
 14
0.5
 24
0.5
 15
0.5
 25
0.5
 16
0.5773502691896259
 26
-0.5773502691896259
 36
0.5773502691896259
 17
0.0
 27
0.0
 37
0.0
 40
1292.532264
 41
0.013738
 42
50.0
 43
673.245608
 44
-673.245608
 50
0.0
 51
0.0
 71
     0
 72
   100
 73
     1
 74
     3
 75
     0
 76
     0
 77
     0
 78
     0
281
     0
 65
     1
110
0.0
120
0.0
130
0.0
111
1.0
121
0.0
131
0.0
112
0.0
122
1.0
132
0.0
 79
     0
146
0.0
  0
VPORT
  5
2F3
330
8
100
AcDbSymbolTableRecord
100
AcDbViewportTableRecord
  2
L6
 70
     0
 10
0.0
 20
0.5
 11
0.333333
 21
1.0
 12
0.0
 22
0.0
 13
0.0
 23
0.0
 14
0.5
 24
0.5
 15
0.5
 25
0.5
 16
0.7188730927569434
 26
-0.5850486126764433
 36
0.3754192287502549
 17
0.0
 27
0.0
 37
0.0
 40
1364.064247
 41
0.013018
 42
50.0
 43
706.2613849999999
 44
-706.2613849999999
 50
0.0
 51
0.0
 71
     0
 72
   100
 73
     1
 74
     3
 75
     0
 76
     0
 77
     0
 78
     0
281
     0
 65
     1
110
0.0
120
0.0
130
0.0
111
1.0
121
0.0
131
0.0
112
0.0
122
1.0
132
0.0
 79
     0
146
0.0
  0
VPORT
  5
2F4
330
8
100
AcDbSymbolTableRecord
100
AcDbViewportTableRecord
  2
L6
 70
     0
 10
0.0
 20
0.0
 11
0.333333
 21
0.5
 12
0.0
 22
0.0
 13
0.0
 23
0.0
 14
0.5
 24
0.5
 15
0.5
 25
0.5
 16
-1.0
 26
0.0
 36
0.0
 17
0.0
 27
0.0
 37
0.0
 40
1316.18997
 41
0.013491
 42
50.0
 43
666.2177989999999
 44
-666.2177989999999
 50
0.0
 51
0.0
 71
     0
 72
   100
 73
     1
 74
     3
 75
     0
 76
     0
 77
     0
 78
     0
281
     0
 65
     1
110
0.0
120
0.0
130
0.0
111
1.0
121
0.0
131
0.0
112
0.0
122
1.0
132
0.0
 79
     0
146
0.0
  0
VPORT
  5
2F5
330
8
100
AcDbSymbolTableRecord
100
AcDbViewportTableRecord
  2
L6
 70
     0
 10
0.333333
 20
0.5
 11
0.666667
 21
1.0
 12
327.532837
 22
235.17495
 13
0.0
 23
0.0
 14
0.5
 24
0.5
 15
0.5
 25
0.5
 16
0.0
 26
0.0
 36
1.0
 17
0.0
 27
0.0
 37
0.0
 40
207.433333
 41
0.085602
 42
50.0
 43
489.1937069999999
 44
-489.1937069999999
 50
0.0
 51
0.0
 71
     0
 72
   100
 73
     1
 74
     3
 75
     0
 76
     0
 77
     0
 78
     0
281
     0
 65
     1
110
0.0
120
0.0
130
0.0
111
1.0
121
0.0
131
0.0
112
0.0
122
1.0
132
0.0
 79
     0
146
0.0
  0
VPORT
  5
2F6
330
8
100
AcDbSymbolTableRecord
100
AcDbViewportTableRecord
  2
L6
 70
     0
 10
0.333333
 20
0.0
 11
0.666667
 21
0.5
 12
0.0
 22
0.0
 13
0.0
 23
0.0
 14
0.5
 24
0.5
 15
0.5
 25
0.5
 16
0.0
 26
-1.0
 36
0.0
 17
0.0
 27
0.0
 37
0.0
 40
1316.18997
 41
0.013491
 42
50.0
 43
678.00864
 44
-678.00864
 50
0.0
 51
0.0
 71
     0
 72
   100
 73
     1
 74
     3
 75
     0
 76
     0
 77
     0
 78
     0
281
     0
 65
     1
110
0.0
120
0.0
130
0.0
111
1.0
121
0.0
131
0.0
112
0.0
122
1.0
132
0.0
 79
     0
146
0.0
  0
VPORT
  5
2F7
330
8
100
AcDbSymbolTableRecord
100
AcDbViewportTableRecord
  2
L6
 70
     0
 10
0.666667
 20
0.5
 11
1.0
 21
1.0
 12
0.0
 22
0.0
 13
0.0
 23
0.0
 14
0.5
 24
0.5
 15
0.5
 25
0.5
 16
0.5773502691896259
 26
-0.5773502691896259
 36
0.5773502691896259
 17
0.0
 27
0.0
 37
0.0
 40
1292.532264
 41
0.013738
 42
50.0
 43
673.245608
 44
-673.245608
 50
0.0
 51
0.0
 71
     0
 72
   100
 73
     1
 74
     3
 75
     0
 76
     0
 77
     0
 78
     0
281
     0
 65
     1
110
0.0
120
0.0
130
0.0
111
1.0
121
0.0
131
0.0
112
0.0
122
1.0
132
0.0
 79
     0
146
0.0
  0
VPORT
  5
2F8
330
8
100
AcDbSymbolTableRecord
100
AcDbViewportTableRecord
  2
L6
 70
     0
 10
0.666667
 20
0.0
 11
1.0
 21
0.5
 12
0.0
 22
0.0
 13
0.0
 23
0.0
 14
0.5
 24
0.5
 15
0.5
 25
0.5
 16
1.0
 26
0.0
 36
0.0
 17
0.0
 27
0.0
 37
0.0
 40
1316.18997
 41
0.013491
 42
50.0
 43
666.2177989999999
 44
-666.2177989999999
 50
0.0
 51
0.0
 71
     0
 72
   100
 73
     1
 74
     3
 75
     0
 76
     0
 77
     0
 78
     0
281
     0
 65
     1
110
0.0
120
0.0
130
0.0
111
1.0
121
0.0
131
0.0
112
0.0
122
1.0
132
0.0
 79
     0
146
0.0
  0
ENDTAB
  0
TABLE
  2
LTYPE
  5
5
330
0
100
AcDbSymbolTable
 70
     7
  0
LTYPE
  5
14
330
5
100
AcDbSymbolTableRecord
100
AcDbLinetypeTableRecord
  2
ByBlock
 70
     0
  3

 72
    65
 73
     0
 40
0.0
  0
LTYPE
  5
15
330
5
100
AcDbSymbolTableRecord
100
AcDbLinetypeTableRecord
  2
ByLayer
 70
     0
  3

 72
    65
 73
     0
 40
0.0
  0
LTYPE
  5
16
330
5
100
AcDbSymbolTableRecord
100
AcDbLinetypeTableRecord
  2
Continuous
 70
     0
  3
Solid line
 72
    65
 73
     0
 40
0.0
  0
LTYPE
  5
6E
330
5
100
AcDbSymbolTableRecord
100
AcDbLinetypeTableRecord
  2
CENTER
 70
     0
  3
____ _ ____ _ ____ _ ____
 72
    65
 73
     4
 40
47.4
 49
22.0
 74
     4
 75
     0
340
0
 46
0.0
 50
0.0
 44
0.0
 45
0.0
 49
-8.5
 74
     4
 75
     0
340
0
 46
0.0
 50
0.0
 44
0.0
 45
0.0
 49
8.5
 74
     4
 75
     0
340
0
 46
0.0
 50
0.0
 44
0.0
 45
0.0
 49
-8.5
 74
     4
 75
     0
340
0
 46
0.0
 50
0.0
 44
0.0
 45
0.0
  0
LTYPE
  5
6F
330
5
100
AcDbSymbolTableRecord
100
AcDbLinetypeTableRecord
  2
DASHDOT
 70
     0
  3
_._._._._._._._._._._._._._._._.
 72
    65
 73
     4
 40
70.0
 49
31.0
 74
     4
 75
     0
340
0
 46
0.0
 50
0.0
 44
0.0
 45
0.0
 49
-13.0
 74
     4
 75
     0
340
0
 46
0.0
 50
0.0
 44
0.0
 45
0.0
 49
13.0
 74
     4
 75
     0
340
0
 46
0.0
 50
0.0
 44
0.0
 45
0.0
 49
-13.0
 74
     4
 75
     0
340
0
 46
0.0
 50
0.0
 44
0.0
 45
0.0
  0
LTYPE
  5
70
330
5
100
AcDbSymbolTableRecord
100
AcDbLinetypeTableRecord
  2
DASHED
 70
     0
  3
__ __ __ __ __ __ __ __ __
 72
    65
 73
     2
 40
25.72
 49
12.86
 74
     4
 75
     0
340
0
 46
0.0
 50
0.0
 44
0.0
 45
0.0
 49
-12.86
 74
     4
 75
     0
340
0
 46
0.0
 50
0.0
 44
0.0
 45
0.0
  0
LTYPE
  5
71
330
5
100
AcDbSymbolTableRecord
100
AcDbLinetypeTableRecord
  2
DOT
 70
     0
  3
.........................
 72
    65
 73
     2
 40
10.0
 49
0.0
 74
     4
 75
     0
340
0
 46
0.0
 50
0.0
 44
0.0
 45
0.0
 49
-10.0
 74
     4
 75
     0
340
0
 46
0.0
 50
0.0
 44
0.0
 45
0.0
  0
LTYPE
  5
72
330
5
100
AcDbSymbolTableRecord
100
AcDbLinetypeTableRecord
  2
PHANTOM
 70
     0
  3
____ _ _ ____ _ _ _____ _ _ ____
 72
    65
 73
     6
 40
50.5
 49
18.0
 74
     4
 75
     0
340
0
 46
0.0
 50
0.0
 44
0.0
 45
0.0
 49
-6.5
 74
     4
 75
     0
340
0
 46
0.0
 50
0.0
 44
0.0
 45
0.0
 49
6.5
 74
     4
 75
     0
340
0
 46
0.0
 50
0.0
 44
0.0
 45
0.0
 49
-6.5
 74
     4
 75
     0
340
0
 46
0.0
 50
0.0
 44
0.0
 45
0.0
 49
6.5
 74
     4
 75
     0
340
0
 46
0.0
 50
0.0
 44
0.0
 45
0.0
 49
-6.5
 74
     4
 75
     0
340
0
 46
0.0
 50
0.0
 44
0.0
 45
0.0
  0
LTYPE
  5
388
330
5
100
AcDbSymbolTableRecord
100
AcDbLinetypeTableRecord
  2
CENTER2
 70
     0
  3
Center (.5x) ___ _ ___ _ ___ _ ___ _ ___ _ ___
 72
    65
 73
     4
 40
1.125
 49
0.75
 74
     0
 49
-0.125
 74
     0
 49
0.125
 74
     0
 49
-0.125
 74
     0
  0
ENDTAB
  0
TABLE
  2
LAYER
  5
2
330
0
100
AcDbSymbolTable
 70
    22
  0
LAYER
  5
10
102
{ACAD_XDICTIONARY
360
393
102
}
330
2
100
AcDbSymbolTableRecord
100
AcDbLayerTableRecord
  2
0
 70
     0
 62
     7
  6
Continuous
370
    -3
390
F
  0
LAYER
  5
E7
102
{ACAD_XDICTIONARY
360
395
102
}
330
2
100
AcDbSymbolTableRecord
100
AcDbLayerTableRecord
  2
95
 70
     0
 62
     7
420
 16777215
  6
Continuous
370
    -3
390
F
  0
LAYER
  5
244
330
2
100
AcDbSymbolTableRecord
100
AcDbLayerTableRecord
  2
Defpoints
 70
     0
 62
     7
  6
Continuous
290
     0
370
    -3
390
F
  0
LAYER
  5
385
102
{ACAD_XDICTIONARY
360
397
102
}
330
2
100
AcDbSymbolTableRecord
100
AcDbLayerTableRecord
  2
1
 70
     0
 62
     4
  6
Continuous
370
    -3
390
F
  0
LAYER
  5
386
102
{ACAD_XDICTIONARY
360
399
102
}
330
2
100
AcDbSymbolTableRecord
100
AcDbLayerTableRecord
  2
2
 70
     0
 62
     7
  6
Continuous
370
    -3
390
F
  0
LAYER
  5
387
102
{ACAD_XDICTIONARY
360
39B
102
}
330
2
100
AcDbSymbolTableRecord
100
AcDbLayerTableRecord
  2
4
 70
     0
 62
     2
  6
CENTER2
370
    -3
390
F
  0
LAYER
  5
389
102
{ACAD_XDICTIONARY
360
39D
102
}
330
2
100
AcDbSymbolTableRecord
100
AcDbLayerTableRecord
  2
SK1
 70
     0
 62
     4
  6
Continuous
370
    -3
390
F
  0
LAYER
  5
38A
102
{ACAD_XDICTIONARY
360
39F
102
}
330
2
100
AcDbSymbolTableRecord
100
AcDbLayerTableRecord
  2
SK2
 70
     0
 62
     7
  6
Continuous
370
    -3
390
F
  0
LAYER
  5
38C
102
{ACAD_XDICTIONARY
360
3A1
102
}
330
2
100
AcDbSymbolTableRecord
100
AcDbLayerTableRecord
  2
SK4
 70
     0
 62
     2
  6
CENTER2
370
    -3
390
F
  0
LAYER
  5
38D
102
{ACAD_XDICTIONARY
360
3A3
102
}
330
2
100
AcDbSymbolTableRecord
100
AcDbLayerTableRecord
  2
SK6
 70
     0
 62
     5
  6
Continuous
370
    -3
390
F
  0
LAYER
  5
38E
102
{ACAD_XDICTIONARY
360
3A5
102
}
330
2
100
AcDbSymbolTableRecord
100
AcDbLayerTableRecord
  2
CUT
 70
     0
 62
     1
  6
Continuous
370
    -3
390
F
  0
LAYER
  5
38F
102
{ACAD_XDICTIONARY
360
3A7
102
}
330
2
100
AcDbSymbolTableRecord
100
AcDbLayerTableRecord
  2
NOCUT
 70
     0
 62
     7
  6
Continuous
370
    -3
390
F
  0
LAYER
  5
390
102
{ACAD_XDICTIONARY
360
3A9
102
}
330
2
100
AcDbSymbolTableRecord
100
AcDbLayerTableRecord
  2
80
 70
     0
 62
     6
  6
Continuous
370
    -3
390
F
  0
LAYER
  5
391
102
{ACAD_XDICTIONARY
360
3AB
102
}
330
2
100
AcDbSymbolTableRecord
100
AcDbLayerTableRecord
  2
81
 70
     0
 62
     3
  6
Continuous
370
    -3
390
F
  0
ENDTAB
  0
TABLE
  2
STYLE
  5
3
330
0
100
AcDbSymbolTable
 70
     3
  0
STYLE
  5
11
330
3
100
AcDbSymbolTableRecord
100
AcDbTextStyleTableRecord
  2
Standard
 70
     0
 40
0.0
 41
1.0
 50
0.0
 71
     0
 42
0.2
  3
txt
  4

  0
STYLE
  5
23D
330
3
100
AcDbSymbolTableRecord
100
AcDbTextStyleTableRecord
  2
cesky
 70
     0
 40
0.0
 41
1.0
 50
0.0
 71
     0
 42
0.2
  3
simplex.shx
  4

  0
STYLE
  5
23E
330
3
100
AcDbSymbolTableRecord
100
AcDbTextStyleTableRecord
  2
DWGDirectTextStyle
 70
     0
 40
0.0
 41
1.0
 50
0.0
 71
     0
 42
0.2
  3
simplex
  4

  0
ENDTAB
  0
TABLE
  2
VIEW
  5
6
330
0
100
AcDbSymbolTable
 70
     0
  0
ENDTAB
  0
TABLE
  2
UCS
  5
7
330
0
100
AcDbSymbolTable
 70
     0
  0
ENDTAB
  0
TABLE
  2
APPID
  5
9
330
0
100
AcDbSymbolTable
 70
     7
  0
APPID
  5
12
330
9
100
AcDbSymbolTableRecord
100
AcDbRegAppTableRecord
  2
ACAD
 70
     0
  0
APPID
  5
240
330
9
100
AcDbSymbolTableRecord
100
AcDbRegAppTableRecord
  2
ACAD_DSTYLE_DIMBREAK
 70
     0
  0
APPID
  5
2F9
330
9
100
AcDbSymbolTableRecord
100
AcDbRegAppTableRecord
  2
ACAD_DSTYLE_DIM_LINETYPE
 70
     0
  0
APPID
  5
2FA
330
9
100
AcDbSymbolTableRecord
100
AcDbRegAppTableRecord
  2
ACAD_DSTYLE_DIM_EXT1_LINETYPE
 70
     0
  0
APPID
  5
2FB
330
9
100
AcDbSymbolTableRecord
100
AcDbRegAppTableRecord
  2
ACAD_DSTYLE_DIM_EXT2_LINETYPE
 70
     0
  0
APPID
  5
33B
330
9
100
AcDbSymbolTableRecord
100
AcDbRegAppTableRecord
  2
ACAD_MLEADERVER
 70
     0
  0
APPID
  5
3B0
330
9
100
AcDbSymbolTableRecord
100
AcDbRegAppTableRecord
  2
ACAD_NAV_VCDISPLAY
 70
     0
  0
ENDTAB
  0
TABLE
  2
DIMSTYLE
  5
A
330
0
100
AcDbSymbolTable
 70
     1
100
AcDbDimStyleTable
 71
     0
  0
DIMSTYLE
105
27
330
A
100
AcDbSymbolTableRecord
100
AcDbDimStyleTableRecord
  2
Standard
 70
     0
340
11
1001
ACAD_DSTYLE_DIMBREAK
1070
   391
1040
6.349999999999999
  0
ENDTAB
  0
TABLE
  2
BLOCK_RECORD
  5
1
330
0
100
AcDbSymbolTable
 70
    16
  0
BLOCK_RECORD
  5
1F
102
{ACAD_XDICTIONARY
360
34B
102
}
330
1
100
AcDbSymbolTableRecord
100
AcDbBlockTableRecord
  2
*Model_Space
340
22
  0
BLOCK_RECORD
  5
1B
330
1
100
AcDbSymbolTableRecord
100
AcDbBlockTableRecord
  2
*Paper_Space
340
1E
  0
BLOCK_RECORD
  5
23
330
1
100
AcDbSymbolTableRecord
100
AcDbBlockTableRecord
  2
*Paper_Space0
340
26
  0
BLOCK_RECORD
  5
237
330
1
100
AcDbSymbolTableRecord
100
AcDbBlockTableRecord
  2
ASSORTED_DRAFT1
340
0
  0
BLOCK_RECORD
  5
245
330
1
100
AcDbSymbolTableRecord
100
AcDbBlockTableRecord
  2
*D2
340
0
  0
BLOCK_RECORD
  5
251
330
1
100
AcDbSymbolTableRecord
100
AcDbBlockTableRecord
  2
_U0
340
0
  0
BLOCK_RECORD
  5
25D
330
1
100
AcDbSymbolTableRecord
100
AcDbBlockTableRecord
  2
*D4
340
0
  0
BLOCK_RECORD
  5
269
330
1
100
AcDbSymbolTableRecord
100
AcDbBlockTableRecord
  2
_U1
340
0
  0
BLOCK_RECORD
  5
275
330
1
100
AcDbSymbolTableRecord
100
AcDbBlockTableRecord
  2
*D6
340
0
  0
BLOCK_RECORD
  5
281
330
1
100
AcDbSymbolTableRecord
100
AcDbBlockTableRecord
  2
_U2
340
0
  0
BLOCK_RECORD
  5
28D
330
1
100
AcDbSymbolTableRecord
100
AcDbBlockTableRecord
  2
*D8
340
0
  0
BLOCK_RECORD
  5
298
330
1
100
AcDbSymbolTableRecord
100
AcDbBlockTableRecord
  2
_U3
340
0
  0
BLOCK_RECORD
  5
2A3
330
1
100
AcDbSymbolTableRecord
100
AcDbBlockTableRecord
  2
*D10
340
0
  0
BLOCK_RECORD
  5
2AF
330
1
100
AcDbSymbolTableRecord
100
AcDbBlockTableRecord
  2
_U4
340
0
  0
BLOCK_RECORD
  5
2BC
330
1
100
AcDbSymbolTableRecord
100
AcDbBlockTableRecord
  2
*D12
340
0
  0
BLOCK_RECORD
  5
2C8
330
1
100
AcDbSymbolTableRecord
100
AcDbBlockTableRecord
  2
_U5
340
0
  0
BLOCK_RECORD
  5
2D5
330
1
100
AcDbSymbolTableRecord
100
AcDbBlockTableRecord
  2
*D14
340
0
  0
BLOCK_RECORD
  5
2E1
330
1
100
AcDbSymbolTableRecord
100
AcDbBlockTableRecord
  2
_U6
340
0
  0
ENDTAB
  0
ENDSEC
  0
SECTION
  2
BLOCKS
  0
BLOCK
  5
20
330
1F
100
AcDbEntity
  8
0
100
AcDbBlockBegin
  2
*Model_Space
 70
     0
 10
0.0
 20
0.0
 30
0.0
  3
*Model_Space
  1

  0
ENDBLK
  5
21
330
1F
100
AcDbEntity
  8
0
100
AcDbBlockEnd
  0
BLOCK
  5
1C
330
1B
100
AcDbEntity
 67
     1
  8
0
100
AcDbBlockBegin
  2
*Paper_Space
 70
     0
 10
0.0
 20
0.0
 30
0.0
  3
*Paper_Space
  1

  0
ENDBLK
  5
1D
330
1B
100
AcDbEntity
 67
     1
  8
0
100
AcDbBlockEnd
  0
BLOCK
  5
24
330
23
100
AcDbEntity
 67
     1
  8
0
100
AcDbBlockBegin
  2
*Paper_Space0
 70
     0
 10
0.0
 20
0.0
 30
0.0
  3
*Paper_Space0
  1

  0
ENDBLK
  5
25
330
23
100
AcDbEntity
 67
     1
  8
0
100
AcDbBlockEnd
  0
BLOCK
  5
23A
330
237
100
AcDbEntity
  8
0
100
AcDbBlockBegin
  2
ASSORTED_DRAFT1
 70
     0
 10
0.0
 20
0.0
 30
0.0
  3
ASSORTED_DRAFT1
  1

  0
SOLID
  5
238
330
237
100
AcDbEntity
  8
0
 62
   254
370
    13
100
AcDbTrace
 10
270.185042
 20
164.534924
 30
0.0
 11
265.185046
 21
163.42645
 31
0.0
 12
265.1850379999999
 22
165.643397
 32
0.0
 13
270.185042
 23
164.534924
 33
0.0
  0
ENDBLK
  5
23B
330
237
100
AcDbEntity
  8
0
100
AcDbBlockEnd
  0
BLOCK
  5
246
330
245
100
AcDbEntity
  8
0
100
AcDbBlockBegin
  2
*D2
 70
     1
 10
0.0
 20
0.0
 30
0.0
  3
*D2
  1

  0
LINE
  5
248
330
245
100
AcDbEntity
  8
0
 62
   254
370
    -2
100
AcDbLine
 10
451.4048419999999
 20
309.907994
 30
0.0
 11
451.4048419999999
 21
348.392842
 31
0.0
  0
LINE
  5
249
330
245
100
AcDbEntity
  8
0
 62
   254
370
    -2
100
AcDbLine
 10
214.404842
 20
302.907994
 30
0.0
 11
214.404842
 21
348.392842
 31
0.0
  0
LINE
  5
24A
330
245
100
AcDbEntity
  8
0
 62
   254
370
    -2
100
AcDbLine
 10
447.9048419999999
 20
347.392842
 30
0.0
 11
217.904842
 21
347.392842
 31
0.0
  0
SOLID
  5
24B
330
245
100
AcDbEntity
  8
0
 62
   254
100
AcDbTrace
 10
447.9048419999999
 20
346.809508
 30
0.0
 11
447.9048419999999
 21
347.976175
 31
0.0
 12
451.4048419999999
 22
347.392842
 32
0.0
 13
451.4048419999999
 23
347.392842
 33
0.0
  0
SOLID
  5
24C
330
245
100
AcDbEntity
  8
0
 62
   254
100
AcDbTrace
 10
217.904842
 20
347.976175
 30
0.0
 11
217.904842
 21
346.809508
 31
0.0
 12
214.404842
 22
347.392842
 32
0.0
 13
214.404842
 23
347.392842
 33
0.0
  0
MTEXT
  5
24D
330
245
100
AcDbEntity
  8
0
 62
   254
370
    13
100
AcDbMText
 10
332.904842
 20
352.642842
 30
0.0
 40
3.5
 41
0.0
 71
     5
 72
     1
  1
\A1;237
  7
cesky
 73
     1
 44
1.0
  0
POINT
  5
24E
330
245
100
AcDbEntity
  8
Defpoints
 62
     0
100
AcDbPoint
 10
451.4048419999999
 20
309.907994
 30
0.0
  0
POINT
  5
24F
330
245
100
AcDbEntity
  8
Defpoints
 62
     0
100
AcDbPoint
 10
214.404842
 20
302.907994
 30
0.0
  0
POINT
  5
250
330
245
100
AcDbEntity
  8
Defpoints
 62
     0
100
AcDbPoint
 10
214.404842
 20
347.392842
 30
0.0
  0
ENDBLK
  5
247
330
245
100
AcDbEntity
  8
0
100
AcDbBlockEnd
  0
BLOCK
  5
258
330
251
100
AcDbEntity
  8
0
100
AcDbBlockBegin
  2
_U0
 70
     0
 10
0.0
 20
0.0
 30
0.0
  3
_U0
  1

  0
ENDBLK
  5
259
330
251
100
AcDbEntity
  8
0
100
AcDbBlockEnd
  0
BLOCK
  5
25E
330
25D
100
AcDbEntity
  8
0
100
AcDbBlockBegin
  2
*D4
 70
     1
 10
0.0
 20
0.0
 30
0.0
  3
*D4
  1

  0
LINE
  5
260
330
25D
100
AcDbEntity
  8
0
 62
   254
370
    -2
100
AcDbLine
 10
274.404842
 20
288.907994
 30
0.0
 11
274.404842
 21
334.9472990000001
 31
0.0
  0
LINE
  5
261
330
25D
100
AcDbEntity
  8
0
 62
   254
370
    -2
100
AcDbLine
 10
214.404842
 20
295.907994
 30
0.0
 11
214.404842
 21
334.9472990000001
 31
0.0
  0
LINE
  5
262
330
25D
100
AcDbEntity
  8
0
 62
   254
370
    -2
100
AcDbLine
 10
270.904842
 20
333.947299
 30
0.0
 11
217.904842
 21
333.947299
 31
0.0
  0
SOLID
  5
263
330
25D
100
AcDbEntity
  8
0
 62
   254
100
AcDbTrace
 10
270.904842
 20
333.363965
 30
0.0
 11
270.904842
 21
334.530632
 31
0.0
 12
274.404842
 22
333.947299
 32
0.0
 13
274.404842
 23
333.947299
 33
0.0
  0
SOLID
  5
264
330
25D
100
AcDbEntity
  8
0
 62
   254
100
AcDbTrace
 10
217.904842
 20
334.530632
 30
0.0
 11
217.904842
 21
333.363965
 31
0.0
 12
214.404842
 22
333.947299
 32
0.0
 13
214.404842
 23
333.947299
 33
0.0
  0
MTEXT
  5
265
330
25D
100
AcDbEntity
  8
0
 62
   254
370
    13
100
AcDbMText
 10
244.404842
 20
339.1972990000001
 30
0.0
 40
3.5
 41
0.0
 71
     5
 72
     1
  1
\A1;60
  7
cesky
 73
     1
 44
1.0
  0
POINT
  5
266
330
25D
100
AcDbEntity
  8
Defpoints
 62
     0
100
AcDbPoint
 10
274.404842
 20
288.907994
 30
0.0
  0
POINT
  5
267
330
25D
100
AcDbEntity
  8
Defpoints
 62
     0
100
AcDbPoint
 10
214.404842
 20
295.907994
 30
0.0
  0
POINT
  5
268
330
25D
100
AcDbEntity
  8
Defpoints
 62
     0
100
AcDbPoint
 10
214.404842
 20
333.947299
 30
0.0
  0
ENDBLK
  5
25F
330
25D
100
AcDbEntity
  8
0
100
AcDbBlockEnd
  0
BLOCK
  5
270
330
269
100
AcDbEntity
  8
0
100
AcDbBlockBegin
  2
_U1
 70
     0
 10
0.0
 20
0.0
 30
0.0
  3
_U1
  1

  0
ENDBLK
  5
271
330
269
100
AcDbEntity
  8
0
100
AcDbBlockEnd
  0
BLOCK
  5
276
330
275
100
AcDbEntity
  8
0
100
AcDbBlockBegin
  2
*D6
 70
     1
 10
0.0
 20
0.0
 30
0.0
  3
*D6
  1

  0
LINE
  5
278
330
275
100
AcDbEntity
  8
0
 62
   254
370
    -2
100
AcDbLine
 10
451.4048419999999
 20
307.907994
 30
0.0
 11
451.4048419999999
 21
321.550884
 31
0.0
  0
LINE
  5
279
330
275
100
AcDbEntity
  8
0
 62
   254
370
    -2
100
AcDbLine
 10
288.924056
 20
307.67311
 30
0.0
 11
288.924056
 21
321.550884
 31
0.0
  0
LINE
  5
27A
330
275
100
AcDbEntity
  8
0
 62
   254
370
    -2
100
AcDbLine
 10
447.9048419999999
 20
320.550884
 30
0.0
 11
292.424056
 21
320.550884
 31
0.0
  0
SOLID
  5
27B
330
275
100
AcDbEntity
  8
0
 62
   254
100
AcDbTrace
 10
447.9048419999999
 20
319.967551
 30
0.0
 11
447.9048419999999
 21
321.134217
 31
0.0
 12
451.4048419999999
 22
320.550884
 32
0.0
 13
451.4048419999999
 23
320.550884
 33
0.0
  0
SOLID
  5
27C
330
275
100
AcDbEntity
  8
0
 62
   254
100
AcDbTrace
 10
292.424056
 20
321.134217
 30
0.0
 11
292.424056
 21
319.967551
 31
0.0
 12
288.924056
 22
320.550884
 32
0.0
 13
288.924056
 23
320.550884
 33
0.0
  0
MTEXT
  5
27D
330
275
100
AcDbEntity
  8
0
 62
   254
370
    13
100
AcDbMText
 10
370.164449
 20
325.800884
 30
0.0
 40
3.5
 41
0.0
 71
     5
 72
     1
  1
\A1;162.5
  7
cesky
 73
     1
 44
1.0
  0
POINT
  5
27E
330
275
100
AcDbEntity
  8
Defpoints
 62
     0
100
AcDbPoint
 10
451.4048419999999
 20
307.907994
 30
0.0
  0
POINT
  5
27F
330
275
100
AcDbEntity
  8
Defpoints
 62
     0
100
AcDbPoint
 10
288.924056
 20
307.67311
 30
0.0
  0
POINT
  5
280
330
275
100
AcDbEntity
  8
Defpoints
 62
     0
100
AcDbPoint
 10
288.924056
 20
320.550884
 30
0.0
  0
ENDBLK
  5
277
330
275
100
AcDbEntity
  8
0
100
AcDbBlockEnd
  0
BLOCK
  5
288
330
281
100
AcDbEntity
  8
0
100
AcDbBlockBegin
  2
_U2
 70
     0
 10
0.0
 20
0.0
 30
0.0
  3
_U2
  1

  0
ENDBLK
  5
289
330
281
100
AcDbEntity
  8
0
100
AcDbBlockEnd
  0
BLOCK
  5
28E
330
28D
100
AcDbEntity
  8
0
100
AcDbBlockBegin
  2
*D8
 70
     1
 10
0.0
 20
0.0
 30
0.0
  3
*D8
  1

  0
LINE
  5
290
330
28D
100
AcDbEntity
  8
0
 62
   254
370
    -2
100
AcDbLine
 10
287.9926240000001
 20
288.907994
 30
0.0
 11
468.823882
 21
288.907994
 31
0.0
  0
LINE
  5
291
330
28D
100
AcDbEntity
  8
0
 62
   254
370
    -2
100
AcDbLine
 10
330.83929
 20
307.907994
 30
0.0
 11
468.823882
 21
307.907994
 31
0.0
  0
LINE
  5
292
330
28D
100
AcDbEntity
  8
0
 62
   254
370
    -2
100
AcDbLine
 10
467.823882
 20
288.907994
 30
0.0
 11
467.823882
 21
307.907994
 31
0.0
  0
SOLID
  5
293
330
28D
100
AcDbEntity
  8
0
 62
   254
100
AcDbTrace
 10
468.407216
 20
304.407994
 30
0.0
 11
467.240549
 21
304.407994
 31
0.0
 12
467.823882
 22
307.907994
 32
0.0
 13
467.823882
 23
307.907994
 33
0.0
  0
MTEXT
  5
294
330
28D
100
AcDbEntity
  8
0
 62
   254
370
    13
100
AcDbMText
 10
462.573882
 20
279.07466
 30
0.0
 40
3.5
 41
0.0
 71
     5
 72
     1
  1
\A1;38
  7
cesky
 11
0.0
 21
1.0
 31
0.0
 73
     1
 44
1.0
  0
POINT
  5
295
330
28D
100
AcDbEntity
  8
Defpoints
 62
     0
100
AcDbPoint
 10
287.9926240000001
 20
288.907994
 30
0.0
  0
POINT
  5
296
330
28D
100
AcDbEntity
  8
Defpoints
 62
     0
100
AcDbPoint
 10
330.83929
 20
307.907994
 30
0.0
  0
POINT
  5
297
330
28D
100
AcDbEntity
  8
Defpoints
 62
     0
100
AcDbPoint
 10
467.823882
 20
307.907994
 30
0.0
  0
ENDBLK
  5
28F
330
28D
100
AcDbEntity
  8
0
100
AcDbBlockEnd
  0
BLOCK
  5
29E
330
298
100
AcDbEntity
  8
0
100
AcDbBlockBegin
  2
_U3
 70
     0
 10
0.0
 20
0.0
 30
0.0
  3
_U3
  1

  0
ENDBLK
  5
29F
330
298
100
AcDbEntity
  8
0
100
AcDbBlockEnd
  0
BLOCK
  5
2A4
330
2A3
100
AcDbEntity
  8
0
100
AcDbBlockBegin
  2
*D10
 70
     1
 10
0.0
 20
0.0
 30
0.0
  3
*D10
  1

  0
LINE
  5
2A6
330
2A3
100
AcDbEntity
  8
0
 62
    95
370
    -2
100
AcDbLine
 10
216.404842
 20
304.907994
 30
0.0
 11
203.66833
 21
304.907994
 31
0.0
  0
LINE
  5
2A7
330
2A3
100
AcDbEntity
  8
0
 62
    95
370
    -2
100
AcDbLine
 10
216.404842
 20
272.907994
 30
0.0
 11
203.66833
 21
272.907994
 31
0.0
  0
LINE
  5
2A8
330
2A3
100
AcDbEntity
  8
0
 62
    95
370
    -2
100
AcDbLine
 10
204.66833
 20
301.407994
 30
0.0
 11
204.66833
 21
276.407994
 31
0.0
  0
SOLID
  5
2A9
330
2A3
100
AcDbEntity
  8
0
 62
    95
100
AcDbTrace
 10
205.251663
 20
301.407994
 30
0.0
 11
204.084996
 21
301.407994
 31
0.0
 12
204.66833
 22
304.907994
 32
0.0
 13
204.66833
 23
304.907994
 33
0.0
  0
SOLID
  5
2AA
330
2A3
100
AcDbEntity
  8
0
 62
    95
100
AcDbTrace
 10
204.084996
 20
276.407994
 30
0.0
 11
205.251663
 21
276.407994
 31
0.0
 12
204.66833
 22
272.907994
 32
0.0
 13
204.66833
 23
272.907994
 33
0.0
  0
MTEXT
  5
2AB
330
2A3
100
AcDbEntity
  8
0
 62
    95
370
    13
100
AcDbMText
 10
199.41833
 20
288.907994
 30
0.0
 40
3.5
 41
0.0
 71
     5
 72
     1
  1
\A1;32
  7
cesky
 11
0.0
 21
1.0
 31
0.0
 73
     1
 44
1.0
  0
POINT
  5
2AC
330
2A3
100
AcDbEntity
  8
Defpoints
 62
     0
100
AcDbPoint
 10
216.404842
 20
304.907994
 30
0.0
  0
POINT
  5
2AD
330
2A3
100
AcDbEntity
  8
Defpoints
 62
     0
100
AcDbPoint
 10
216.404842
 20
272.907994
 30
0.0
  0
POINT
  5
2AE
330
2A3
100
AcDbEntity
  8
Defpoints
 62
     0
100
AcDbPoint
 10
204.66833
 20
272.907994
 30
0.0
  0
ENDBLK
  5
2A5
330
2A3
100
AcDbEntity
  8
0
100
AcDbBlockEnd
  0
BLOCK
  5
2B7
330
2AF
100
AcDbEntity
  8
0
100
AcDbBlockBegin
  2
_U4
 70
     0
 10
0.0
 20
0.0
 30
0.0
  3
_U4
  1

  0
ENDBLK
  5
2B8
330
2AF
100
AcDbEntity
  8
0
100
AcDbBlockEnd
  0
BLOCK
  5
2BD
330
2BC
100
AcDbEntity
  8
0
100
AcDbBlockBegin
  2
*D12
 70
     1
 10
0.0
 20
0.0
 30
0.0
  3
*D12
  1

  0
LINE
  5
2BF
330
2BC
100
AcDbEntity
  8
0
 62
    95
370
    -2
100
AcDbLine
 10
277.154842
 20
309.907994
 30
0.0
 11
191.104285
 21
309.907994
 31
0.0
  0
LINE
  5
2C0
330
2BC
100
AcDbEntity
  8
0
 62
    95
370
    -2
100
AcDbLine
 10
277.154842
 20
267.907994
 30
0.0
 11
191.104285
 21
267.907994
 31
0.0
  0
LINE
  5
2C1
330
2BC
100
AcDbEntity
  8
0
 62
    95
370
    -2
100
AcDbLine
 10
192.104285
 20
306.407994
 30
0.0
 11
192.104285
 21
271.407994
 31
0.0
  0
SOLID
  5
2C2
330
2BC
100
AcDbEntity
  8
0
 62
    95
100
AcDbTrace
 10
192.687618
 20
306.407994
 30
0.0
 11
191.520952
 21
306.407994
 31
0.0
 12
192.104285
 22
309.907994
 32
0.0
 13
192.104285
 23
309.907994
 33
0.0
  0
SOLID
  5
2C3
330
2BC
100
AcDbEntity
  8
0
 62
    95
100
AcDbTrace
 10
191.520952
 20
271.407994
 30
0.0
 11
192.687618
 21
271.407994
 31
0.0
 12
192.104285
 22
267.907994
 32
0.0
 13
192.104285
 23
267.907994
 33
0.0
  0
MTEXT
  5
2C4
330
2BC
100
AcDbEntity
  8
0
 62
    95
370
    13
100
AcDbMText
 10
186.854285
 20
288.907994
 30
0.0
 40
3.5
 41
0.0
 71
     5
 72
     1
  1
\A1;42
  7
cesky
 11
0.0
 21
1.0
 31
0.0
 73
     1
 44
1.0
  0
POINT
  5
2C5
330
2BC
100
AcDbEntity
  8
Defpoints
 62
     0
100
AcDbPoint
 10
277.154842
 20
309.907994
 30
0.0
  0
POINT
  5
2C6
330
2BC
100
AcDbEntity
  8
Defpoints
 62
     0
100
AcDbPoint
 10
277.154842
 20
267.907994
 30
0.0
  0
POINT
  5
2C7
330
2BC
100
AcDbEntity
  8
Defpoints
 62
     0
100
AcDbPoint
 10
192.104285
 20
267.907994
 30
0.0
  0
ENDBLK
  5
2BE
330
2BC
100
AcDbEntity
  8
0
100
AcDbBlockEnd
  0
BLOCK
  5
2D0
330
2C8
100
AcDbEntity
  8
0
100
AcDbBlockBegin
  2
_U5
 70
     0
 10
0.0
 20
0.0
 30
0.0
  3
_U5
  1

  0
ENDBLK
  5
2D1
330
2C8
100
AcDbEntity
  8
0
100
AcDbBlockEnd
  0
BLOCK
  5
2D6
330
2D5
100
AcDbEntity
  8
0
100
AcDbBlockBegin
  2
*D14
 70
     1
 10
0.0
 20
0.0
 30
0.0
  3
*D14
  1

  0
LINE
  5
2D8
330
2D5
100
AcDbEntity
  8
0
 62
   254
370
    -2
100
AcDbLine
 10
451.4048419999999
 20
307.907994
 30
0.0
 11
451.4048419999999
 21
334.9472990000001
 31
0.0
  0
LINE
  5
2D9
330
2D5
100
AcDbEntity
  8
0
 62
   254
370
    -2
100
AcDbLine
 10
274.404842
 20
288.907994
 30
0.0
 11
274.404842
 21
334.9472990000001
 31
0.0
  0
LINE
  5
2DA
330
2D5
100
AcDbEntity
  8
0
 62
   254
370
    -2
100
AcDbLine
 10
447.9048419999999
 20
333.947299
 30
0.0
 11
277.904842
 21
333.947299
 31
0.0
  0
SOLID
  5
2DB
330
2D5
100
AcDbEntity
  8
0
 62
   254
100
AcDbTrace
 10
447.9048419999999
 20
333.363965
 30
0.0
 11
447.9048419999999
 21
334.530632
 31
0.0
 12
451.4048419999999
 22
333.947299
 32
0.0
 13
451.4048419999999
 23
333.947299
 33
0.0
  0
SOLID
  5
2DC
330
2D5
100
AcDbEntity
  8
0
 62
   254
100
AcDbTrace
 10
277.904842
 20
334.530632
 30
0.0
 11
277.904842
 21
333.363965
 31
0.0
 12
274.404842
 22
333.947299
 32
0.0
 13
274.404842
 23
333.947299
 33
0.0
  0
MTEXT
  5
2DD
330
2D5
100
AcDbEntity
  8
0
 62
   254
370
    13
100
AcDbMText
 10
362.904842
 20
339.1972990000001
 30
0.0
 40
3.5
 41
0.0
 71
     5
 72
     1
  1
\A1;177
  7
cesky
 73
     1
 44
1.0
  0
POINT
  5
2DE
330
2D5
100
AcDbEntity
  8
Defpoints
 62
     0
100
AcDbPoint
 10
451.4048419999999
 20
307.907994
 30
0.0
  0
POINT
  5
2DF
330
2D5
100
AcDbEntity
  8
Defpoints
 62
     0
100
AcDbPoint
 10
274.404842
 20
288.907994
 30
0.0
  0
POINT
  5
2E0
330
2D5
100
AcDbEntity
  8
Defpoints
 62
     0
100
AcDbPoint
 10
274.404842
 20
333.947299
 30
0.0
  0
ENDBLK
  5
2D7
330
2D5
100
AcDbEntity
  8
0
100
AcDbBlockEnd
  0
BLOCK
  5
2E8
330
2E1
100
AcDbEntity
  8
0
100
AcDbBlockBegin
  2
_U6
 70
     0
 10
0.0
 20
0.0
 30
0.0
  3
_U6
  1

  0
ENDBLK
  5
2E9
330
2E1
100
AcDbEntity
  8
0
100
AcDbBlockEnd
  0
ENDSEC
  0
SECTION
  2
ENTITIES
  0
POINT
  5
73
102
{ACAD_REACTORS
330
392
102
}
330
1F
100
AcDbEntity
  8
80
100
AcDbPoint
 10
274.404842
 20
288.907994
 30
0.0
  0
POINT
  5
76
330
1F
100
AcDbEntity
  8
SK4
 60
     1
100
AcDbPoint
 10
216.404842
 20
288.907994
 30
0.0
  0
POINT
  5
78
330
1F
100
AcDbEntity
  8
SK4
 60
     1
100
AcDbPoint
 10
274.404842
 20
288.907994
 30
0.0
  0
POINT
  5
79
330
1F
100
AcDbEntity
  8
4
 60
     1
100
AcDbPoint
 10
287.9926240000001
 20
288.907994
 30
0.0
  0
POINT
  5
7A
330
1F
100
AcDbEntity
  8
4
 60
     1
100
AcDbPoint
 10
450.408963
 20
288.907994
 30
0.0
  0
POINT
  5
7B
330
1F
100
AcDbEntity
  8
SK6
 60
     1
100
AcDbPoint
 10
274.404842
 20
288.907994
 30
0.0
  0
POINT
  5
7C
330
1F
100
AcDbEntity
  8
SK6
 60
     1
100
AcDbPoint
 10
288.924056
 20
307.67311
 30
0.0
  0
LINE
  5
7D
330
1F
100
AcDbEntity
  8
1
100
AcDbLine
 10
274.404842
 20
309.407994
 30
0.0
 11
274.404842
 21
288.907994
 31
0.0
  0
LINE
  5
7F
330
1F
100
AcDbEntity
  8
1
100
AcDbLine
 10
274.404842
 20
288.907994
 30
0.0
 11
274.404842
 21
268.407994
 31
0.0
  0
LINE
  5
80
330
1F
100
AcDbEntity
  8
81
100
AcDbLine
 10
451.4048419999999
 20
309.907994
 30
0.0
 11
451.4048419999999
 21
305.907994
 31
0.0
  0
LINE
  5
81
330
1F
100
AcDbEntity
  8
SK1
100
AcDbLine
 10
216.404842
 20
272.907994
 30
0.0
 11
274.404842
 21
272.907994
 31
0.0
  0
LINE
  5
82
330
1F
100
AcDbEntity
  8
80
100
AcDbLine
 10
274.404842
 20
287.90842
 30
0.0
 11
274.404842
 21
289.907567
 31
0.0
  0
LINE
  5
83
330
1F
100
AcDbEntity
  8
81
100
AcDbLine
 10
449.4048419999999
 20
307.907994
 30
0.0
 11
453.4048419999999
 21
307.907994
 31
0.0
  0
LINE
  5
84
330
1F
100
AcDbEntity
  8
1
100
AcDbLine
 10
274.904842
 20
267.907994
 30
0.0
 11
279.404842
 21
267.907994
 31
0.0
  0
LINE
  5
85
330
1F
100
AcDbEntity
  8
1
100
AcDbLine
 10
439.895842
 20
291.30774
 30
0.0
 11
439.895842
 21
291.308334
 31
0.0
  0
LINE
  5
86
330
1F
100
AcDbEntity
  8
1
100
AcDbLine
 10
439.469033
 20
305.599352
 30
0.0
 11
448.4619079999999
 21
305.913063
 31
0.0
  0
LINE
  5
88
330
1F
100
AcDbEntity
  8
1
100
AcDbLine
 10
439.790848
 20
296.615839
 30
0.0
 11
439.469033
 21
305.599352
 31
0.0
  0
LINE
  5
89
330
1F
100
AcDbEntity
  8
1
100
AcDbLine
 10
448.7837219999999
 20
296.92955
 30
0.0
 11
439.790848
 21
296.615839
 31
0.0
  0
LINE
  5
8A
330
1F
100
AcDbEntity
  8
1
100
AcDbLine
 10
448.4619079999999
 20
305.913063
 30
0.0
 11
448.7837219999999
 21
296.92955
 31
0.0
  0
LINE
  5
8B
330
1F
100
AcDbEntity
  8
1
100
AcDbLine
 10
449.475194
 20
278.876144
 30
0.0
 11
449.299424
 21
278.878956
 31
0.0
  0
LINE
  5
8C
330
1F
100
AcDbEntity
  8
1
100
AcDbLine
 10
449.282258
 20
279.379295
 30
0.0
 11
449.6828409999999
 21
283.153494
 31
0.0
  0
LINE
  5
8D
330
1F
100
AcDbEntity
  8
1
100
AcDbLine
 10
449.6828409999999
 20
283.153494
 30
0.0
 11
449.6828409999999
 21
289.1720259999999
 31
0.0
  0
LINE
  5
8E
330
1F
100
AcDbEntity
  8
1
100
AcDbLine
 10
449.753111
 20
289.670876
 30
0.0
 11
449.9291799999999
 21
289.667803
 31
0.0
  0
LINE
  5
8F
330
1F
100
AcDbEntity
  8
1
100
AcDbLine
 10
449.986649
 20
294.234807
 30
0.0
 11
449.996029
 21
294.238407
 31
0.0
  0
LINE
  5
90
330
1F
100
AcDbEntity
  8
1
100
AcDbLine
 10
450.1034139999999
 20
294.948128
 30
0.0
 11
441.349249
 21
294.642744
 31
0.0
  0
LINE
  5
91
330
1F
100
AcDbEntity
  8
1
100
AcDbLine
 10
441.344016
 20
294.627909
 30
0.0
 11
441.349249
 21
294.642744
 31
0.0
  0
LINE
  5
92
330
1F
100
AcDbEntity
  8
1
100
AcDbLine
 10
449.9291799999999
 20
289.667803
 30
0.0
 11
450.21268
 21
290.051976
 31
0.0
  0
LINE
  5
93
330
1F
100
AcDbEntity
  8
1
100
AcDbLine
 10
450.21268
 20
290.290586
 30
0.0
 11
450.21268
 21
290.051976
 31
0.0
  0
LINE
  5
94
330
1F
100
AcDbEntity
  8
1
100
AcDbLine
 10
450.21268
 20
290.290586
 30
0.0
 11
450.254842
 21
290.28985
 31
0.0
  0
LINE
  5
95
330
1F
100
AcDbEntity
  8
1
100
AcDbLine
 10
450.254842
 20
295.229948
 30
0.0
 11
450.254842
 21
290.389866
 31
0.0
  0
LINE
  5
96
330
1F
100
AcDbEntity
  8
1
100
AcDbLine
 10
450.1034139999999
 20
294.948128
 30
0.0
 11
450.101858
 21
295.172205
 31
0.0
  0
LINE
  5
97
330
1F
100
AcDbEntity
  8
1
100
AcDbLine
 10
450.1034139999999
 20
294.948128
 30
0.0
 11
450.061409
 21
294.932011
 31
0.0
  0
LINE
  5
98
330
1F
100
AcDbEntity
  8
1
100
AcDbLine
 10
448.902071
 20
270.407994
 30
0.0
 11
449.7337929999999
 21
278.244289
 31
0.0
  0
LINE
  5
99
330
1F
100
AcDbEntity
  8
1
100
AcDbLine
 10
449.7337929999999
 20
278.244289
 30
0.0
 11
449.6917019999999
 21
278.244963
 31
0.0
  0
LINE
  5
9A
330
1F
100
AcDbEntity
  8
1
100
AcDbLine
 10
449.7169839999999
 20
278.483163
 30
0.0
 11
449.6917019999999
 21
278.244963
 31
0.0
  0
LINE
  5
9B
330
1F
100
AcDbEntity
  8
1
100
AcDbLine
 10
449.7169839999999
 20
278.483163
 30
0.0
 11
449.475194
 21
278.876144
 31
0.0
  0
LINE
  5
9C
330
1F
100
AcDbEntity
  8
1
100
AcDbLine
 10
448.9246419999999
 20
283.153494
 30
0.0
 11
449.6828409999999
 21
283.153494
 31
0.0
  0
LINE
  5
9D
330
1F
100
AcDbEntity
  8
SK1
100
AcDbLine
 10
216.404842
 20
304.907994
 30
0.0
 11
216.404842
 21
272.907994
 31
0.0
  0
LINE
  5
9E
330
1F
100
AcDbEntity
  8
SK1
100
AcDbLine
 10
214.404842
 20
302.907994
 30
0.0
 11
214.404842
 21
274.907994
 31
0.0
  0
LINE
  5
9F
330
1F
100
AcDbEntity
  8
1
100
AcDbLine
 10
437.6852249999999
 20
298.027225
 30
0.0
 11
437.6799919999999
 21
298.01239
 31
0.0
  0
LINE
  5
A0
330
1F
100
AcDbEntity
  8
1
100
AcDbLine
 10
437.6852249999999
 20
298.027225
 30
0.0
 11
437.3648559999999
 21
307.349572
 31
0.0
  0
LINE
  5
A1
330
1F
100
AcDbEntity
  8
1
100
AcDbLine
 10
437.360016
 20
307.323308
 30
0.0
 11
437.6799919999999
 21
298.01239
 31
0.0
  0
LINE
  5
A2
330
1F
100
AcDbEntity
  8
1
100
AcDbLine
 10
432.5336639999999
 20
295.515432
 30
0.0
 11
431.678379
 21
296.002977
 31
0.0
  0
LINE
  5
A3
330
1F
100
AcDbEntity
  8
1
100
AcDbLine
 10
279.404842
 20
309.907994
 30
0.0
 11
279.404842
 21
279.62861
 31
0.0
  0
LINE
  5
A4
330
1F
100
AcDbEntity
  8
1
100
AcDbLine
 10
279.404842
 20
267.907994
 30
0.0
 11
279.404842
 21
271.61077
 31
0.0
  0
LINE
  5
A5
330
1F
100
AcDbEntity
  8
1
100
AcDbLine
 10
447.783817
 20
283.153494
 30
0.0
 11
448.347313
 21
283.153494
 31
0.0
  0
LINE
  5
A6
330
1F
100
AcDbEntity
  8
1
100
AcDbLine
 10
437.8775309999999
 20
307.245895
 30
0.0
 11
437.87224
 21
307.399842
 31
0.0
  0
LINE
  5
A7
330
1F
100
AcDbEntity
  8
1
100
AcDbLine
 10
441.344016
 20
294.627909
 30
0.0
 11
450.061409
 21
294.932011
 31
0.0
  0
LINE
  5
A8
330
1F
100
AcDbEntity
  8
1
100
AcDbLine
 10
450.254842
 20
290.28985
 30
0.0
 11
450.254842
 21
290.389866
 31
0.0
  0
LINE
  5
A9
330
1F
100
AcDbEntity
  8
1
100
AcDbLine
 10
450.062569
 20
294.764856
 30
0.0
 11
450.061409
 21
294.932011
 31
0.0
  0
LINE
  5
AA
330
1F
100
AcDbEntity
  8
1
100
AcDbLine
 10
437.6077079999999
 20
306.811265
 30
0.0
 11
437.58922
 21
307.349261
 31
0.0
  0
LINE
  5
AB
330
1F
100
AcDbEntity
  8
1
100
AcDbLine
 10
449.986649
 20
294.234807
 30
0.0
 11
439.2930709999999
 21
293.8617680000001
 31
0.0
  0
LINE
  5
AC
330
1F
100
AcDbEntity
  8
1
100
AcDbLine
 10
449.986649
 20
294.234807
 30
0.0
 11
447.6631389999999
 21
290.385284
 31
0.0
  0
LINE
  5
AD
330
1F
100
AcDbEntity
  8
1
100
AcDbLine
 10
449.7278190000001
 20
288.369925
 30
0.0
 11
450.061292
 21
287.768323
 31
0.0
  0
LINE
  5
AE
330
1F
100
AcDbEntity
  8
1
100
AcDbLine
 10
449.682861
 20
289.180902
 30
0.0
 11
450.131403
 21
288.911391
 31
0.0
  0
LINE
  5
AF
330
1F
100
AcDbEntity
  8
1
100
AcDbLine
 10
449.95972
 20
280.972711
 30
0.0
 11
450.077223
 21
287.704428
 31
0.0
  0
LINE
  5
B0
330
1F
100
AcDbEntity
  8
1
100
AcDbLine
 10
449.587303
 20
280.319813
 30
0.0
 11
449.941569
 21
280.90941
 31
0.0
  0
LINE
  5
B1
330
1F
100
AcDbEntity
  8
1
100
AcDbLine
 10
451.359382
 20
288.136592
 30
0.0
 11
450.728011
 21
289.275615
 31
0.0
  0
LINE
  5
B2
330
1F
100
AcDbEntity
  8
1
100
AcDbLine
 10
451.399861
 20
287.769483
 30
0.0
 11
451.275424
 21
280.640477
 31
0.0
  0
LINE
  5
B3
330
1F
100
AcDbEntity
  8
1
100
AcDbLine
 10
451.399861
 20
287.769483
 30
0.0
 11
451.3982219999999
 21
287.989171
 31
0.0
  0
LINE
  5
B4
330
1F
100
AcDbEntity
  8
1
100
AcDbLine
 10
450.556683
 20
279.378314
 30
0.0
 11
450.67449
 21
279.563751
 31
0.0
  0
LINE
  5
B5
330
1F
100
AcDbEntity
  8
1
100
AcDbLine
 10
451.2334059999999
 20
280.493944
 30
0.0
 11
450.67449
 21
279.563751
 31
0.0
  0
LINE
  5
B6
330
1F
100
AcDbEntity
  8
1
100
AcDbLine
 10
450.623573
 20
289.386675
 30
0.0
 11
450.438136
 21
289.504481
 31
0.0
  0
LINE
  5
B7
330
1F
100
AcDbEntity
  8
1
100
AcDbLine
 10
450.002021
 20
289.766525
 30
0.0
 11
450.438136
 21
289.504481
 31
0.0
  0
LINE
  5
B8
330
1F
100
AcDbEntity
  8
1
100
AcDbLine
 10
449.539513
 20
278.771611
 30
0.0
 11
450.445624
 21
279.273876
 31
0.0
  0
LINE
  5
B9
330
1F
100
AcDbEntity
  8
1
100
AcDbLine
 10
450.734349
 20
287.823649
 30
0.0
 11
450.6122849999999
 21
280.830629
 31
0.0
  0
LINE
  5
BA
330
1F
100
AcDbEntity
  8
1
100
AcDbLine
 10
450.237296
 20
288.801736
 30
0.0
 11
450.6974699999999
 21
287.971559
 31
0.0
  0
LINE
  5
BB
330
1F
100
AcDbEntity
  8
1
100
AcDbLine
 10
450.5702669999999
 20
280.684096
 30
0.0
 11
450.0814
 21
279.870484
 31
0.0
  0
LINE
  5
BC
330
1F
100
AcDbEntity
  8
1
100
AcDbLine
 10
449.971745
 20
279.764592
 30
0.0
 11
449.28262
 21
279.3826029999999
 31
0.0
  0
LINE
  5
BD
330
1F
100
AcDbEntity
  8
1
100
AcDbLine
 10
448.902071
 20
270.407994
 30
0.0
 11
423.62012
 21
270.407994
 31
0.0
  0
LINE
  5
BE
330
1F
100
AcDbEntity
  8
1
100
AcDbLine
 10
274.904842
 20
267.907994
 30
0.0
 11
274.904842
 21
288.907994
 31
0.0
  0
LINE
  5
BF
330
1F
100
AcDbEntity
  8
1
100
AcDbLine
 10
274.904842
 20
288.907994
 30
0.0
 11
274.904842
 21
309.907994
 31
0.0
  0
LINE
  5
C0
330
1F
100
AcDbEntity
  8
1
100
AcDbLine
 10
443.2517059999999
 20
299.744904
 30
0.0
 11
443.2859889999999
 21
299.842102
 31
0.0
  0
LINE
  5
C2
330
1F
100
AcDbEntity
  8
1
100
AcDbLine
 10
444.0474739999999
 20
299.688882
 30
0.0
 11
444.0130599999999
 21
299.591314
 31
0.0
  0
LINE
  5
C3
330
1F
100
AcDbEntity
  8
1
100
AcDbLine
 10
442.6775769999998
 20
301.288685
 30
0.0
 11
442.7130679999999
 21
301.389306
 31
0.0
  0
LINE
  5
C4
330
1F
100
AcDbEntity
  8
1
100
AcDbLine
 10
445.265332
 20
300.939248
 30
0.0
 11
445.229841
 21
300.838627
 31
0.0
  0
LINE
  5
C5
330
1F
100
AcDbEntity
  8
1
100
AcDbLine
 10
443.894359
 20
302.535998
 30
0.0
 11
443.928773
 21
302.633567
 31
0.0
  0
LINE
  5
C6
330
1F
100
AcDbEntity
  8
1
100
AcDbLine
 10
444.671759
 20
302.427904
 30
0.0
 11
444.655712
 21
302.382408
 31
0.0
  0
LINE
  5
C7
330
1F
100
AcDbEntity
  8
1
100
AcDbLine
 10
440.584867
 20
302.335304
 30
0.0
 11
440.5687369999999
 21
302.289574
 31
0.0
  0
LINE
  5
C8
330
1F
100
AcDbEntity
  8
1
100
AcDbLine
 10
447.358747
 20
299.894628
 30
0.0
 11
447.3748769999999
 21
299.940358
 31
0.0
  0
LINE
  5
C9
330
1F
100
AcDbEntity
  8
SK1
100
AcDbLine
 10
214.404842
 20
274.907994
 30
0.0
 11
216.404842
 21
272.907994
 31
0.0
  0
LINE
  5
CA
330
1F
100
AcDbEntity
  8
SK1
100
AcDbLine
 10
216.404842
 20
304.907994
 30
0.0
 11
214.404842
 21
302.907994
 31
0.0
  0
LINE
  5
CB
330
1F
100
AcDbEntity
  8
SK1
100
AcDbLine
 10
274.404842
 20
304.907994
 30
0.0
 11
216.404842
 21
304.907994
 31
0.0
  0
LINE
  5
CC
330
1F
100
AcDbEntity
  8
1
100
AcDbLine
 10
274.904842
 20
267.907994
 30
0.0
 11
274.404842
 21
268.407994
 31
0.0
  0
LINE
  5
CD
330
1F
100
AcDbEntity
  8
1
100
AcDbLine
 10
274.404842
 20
309.407994
 30
0.0
 11
274.904842
 21
309.907994
 31
0.0
  0
LINE
  5
CE
330
1F
100
AcDbEntity
  8
1
100
AcDbLine
 10
279.404842
 20
309.907994
 30
0.0
 11
274.904842
 21
309.907994
 31
0.0
  0
LINE
  5
CF
330
1F
100
AcDbEntity
  8
1
100
AcDbLine
 10
450.276191
 20
307.060804
 30
0.0
 11
450.6747769999999
 21
295.934219
 31
0.0
  0
LINE
  5
D0
330
1F
100
AcDbEntity
  8
1
100
AcDbLine
 10
438.3343639999999
 20
307.420264
 30
0.0
 11
449.4725429999999
 21
307.808813
 31
0.0
  0
LINE
  5
D1
330
1F
100
AcDbEntity
  8
1
100
AcDbLine
 10
437.984832
 20
295.491538
 30
0.0
 11
437.586246
 21
306.618123
 31
0.0
  0
LINE
  5
D2
330
1F
100
AcDbEntity
  8
1
100
AcDbLine
 10
449.9266589999999
 20
295.132077
 30
0.0
 11
438.78848
 21
294.743528
 31
0.0
  0
LINE
  5
D3
330
1F
100
AcDbEntity
  8
1
100
AcDbLine
 10
442.611752
 20
301.912201
 30
0.0
 11
442.5779249999999
 21
301.816297
 31
0.0
  0
LINE
  5
D4
330
1F
100
AcDbEntity
  8
1
100
AcDbLine
 10
442.676883
 20
301.852561
 30
0.0
 11
442.6425059999999
 21
301.755098
 31
0.0
  0
LINE
  5
D5
330
1F
100
AcDbEntity
  8
1
100
AcDbLine
 10
445.432899
 20
301.110432
 30
0.0
 11
445.467291
 21
301.207937
 31
0.0
  0
LINE
  5
D6
330
1F
100
AcDbEntity
  8
1
100
AcDbLine
 10
442.72569
 20
300.37025
 30
0.0
 11
442.691367
 21
300.272942
 31
0.0
  0
LINE
  5
D7
330
1F
100
AcDbEntity
  8
1
100
AcDbLine
 10
442.682378
 20
300.349689
 30
0.0
 11
442.648356
 21
300.25323
 31
0.0
  0
LINE
  5
D8
330
1F
100
AcDbEntity
  8
1
100
AcDbLine
 10
444.741394
 20
299.801526
 30
0.0
 11
444.7757299999999
 21
299.898875
 31
0.0
  0
LINE
  5
D9
330
1F
100
AcDbEntity
  8
1
100
AcDbLine
 10
444.778965
 20
299.758573
 30
0.0
 11
444.81294
 21
299.854896
 31
0.0
  0
LINE
  5
DA
330
1F
100
AcDbEntity
  8
1
100
AcDbLine
 10
450.682658
 20
289.337775
 30
0.0
 11
450.190758
 21
288.862752
 31
0.0
  0
LINE
  5
DB
330
1F
100
AcDbEntity
  8
1
100
AcDbLine
 10
449.708098
 20
288.396653
 30
0.0
 11
450.190758
 21
288.862752
 31
0.0
  0
LINE
  5
DC
330
1F
100
AcDbEntity
  8
1
100
AcDbLine
 10
451.388062
 20
288.06519
 30
0.0
 11
450.724553
 21
287.8997589999999
 31
0.0
  0
LINE
  5
DD
330
1F
100
AcDbEntity
  8
1
100
AcDbLine
 10
450.073508
 20
287.737435
 30
0.0
 11
450.724553
 21
287.8997589999999
 31
0.0
  0
LINE
  5
DE
330
1F
100
AcDbEntity
  8
1
100
AcDbLine
 10
449.954856
 20
280.939853
 30
0.0
 11
450.59984
 21
280.754907
 31
0.0
  0
LINE
  5
DF
330
1F
100
AcDbEntity
  8
1
100
AcDbLine
 10
450.59984
 20
280.754907
 30
0.0
 11
451.264067
 21
280.564443
 31
0.0
  0
LINE
  5
E0
330
1F
100
AcDbEntity
  8
1
100
AcDbLine
 10
449.566662
 20
280.293789
 30
0.0
 11
450.032761
 21
279.81113
 31
0.0
  0
LINE
  5
E1
330
1F
100
AcDbEntity
  8
1
100
AcDbLine
 10
450.507783
 20
279.31923
 30
0.0
 11
450.032761
 21
279.81113
 31
0.0
  0
LINE
  5
E2
330
1F
100
AcDbEntity
  8
1
100
AcDbLine
 10
435.8395349999999
 20
294.209693
 30
0.0
 11
435.8429
 21
294.219234
 31
0.0
  0
LINE
  5
E3
330
1F
100
AcDbEntity
  8
1
100
AcDbLine
 10
430.2263009999999
 20
296.908493
 30
0.0
 11
432.555161
 21
295.566034
 31
0.0
  0
LINE
  5
E4
330
1F
100
AcDbEntity
  8
1
100
AcDbLine
 10
448.515248
 20
294.211171
 30
0.0
 11
439.2852389999999
 21
293.889188
 31
0.0
  0
LINE
  5
E5
330
1F
100
AcDbEntity
  8
1
100
AcDbLine
 10
440.584867
 20
302.335304
 30
0.0
 11
440.5847589999999
 21
302.334996
 31
0.0
  0
LINE
  5
EA
330
1F
100
AcDbEntity
  8
80
100
AcDbLine
 10
275.404416
 20
288.907994
 30
0.0
 11
273.405268
 21
288.907994
 31
0.0
  0
LINE
  5
EB
330
1F
100
AcDbEntity
  8
1
100
AcDbLine
 10
435.694183
 20
294.245649
 30
0.0
 11
435.72245
 21
293.419481
 31
0.0
  0
LINE
  5
EC
330
1F
100
AcDbEntity
  8
1
100
AcDbLine
 10
435.7908139999999
 20
291.421344
 30
0.0
 11
435.82342
 21
290.468356
 31
0.0
  0
LINE
  5
ED
330
1F
100
AcDbEntity
  8
1
100
AcDbLine
 10
449.367048
 20
280.178237
 30
0.0
 11
449.5399339999999
 21
280.274069
 31
0.0
  0
LINE
  5
EE
330
1F
100
AcDbEntity
  8
1
100
AcDbLine
 10
287.9926240000001
 20
270.407994
 30
0.0
 11
301.255479
 21
270.407994
 31
0.0
  0
LINE
  5
EF
330
1F
100
AcDbEntity
  8
1
100
AcDbLine
 10
437.7947809999999
 20
307.407994
 30
0.0
 11
427.4934329999999
 21
307.407994
 31
0.0
  0
LINE
  5
F0
330
1F
100
AcDbEntity
  8
1
100
AcDbLine
 10
304.087791
 20
307.407994
 30
0.0
 11
287.9926240000001
 21
307.407994
 31
0.0
  0
LINE
  5
145
330
1F
100
AcDbEntity
  8
NOCUT
100
AcDbLine
 10
274.404842
 20
304.907994
 30
0.0
 11
216.404842
 21
304.907994
 31
0.0
  0
LINE
  5
146
330
1F
100
AcDbEntity
  8
NOCUT
100
AcDbLine
 10
214.404842
 20
302.907994
 30
0.0
 11
214.404842
 21
288.907994
 31
0.0
  0
LINE
  5
147
330
1F
100
AcDbEntity
  8
NOCUT
100
AcDbLine
 10
279.404842
 20
309.907994
 30
0.0
 11
274.904842
 21
309.907994
 31
0.0
  0
LINE
  5
148
330
1F
100
AcDbEntity
  8
NOCUT
100
AcDbLine
 10
287.9926240000001
 20
307.407994
 30
0.0
 11
449.8346009999999
 21
307.407994
 31
0.0
  0
LINE
  5
149
330
1F
100
AcDbEntity
  8
NOCUT
100
AcDbLine
 10
274.404842
 20
304.907994
 30
0.0
 11
274.404842
 21
309.407994
 31
0.0
  0
LINE
  5
14A
330
1F
100
AcDbEntity
  8
NOCUT
100
AcDbLine
 10
274.404842
 20
309.407994
 30
0.0
 11
274.904842
 21
309.907994
 31
0.0
  0
LINE
  5
14B
330
1F
100
AcDbEntity
  8
NOCUT
100
AcDbLine
 10
214.404842
 20
302.907994
 30
0.0
 11
216.404842
 21
304.907994
 31
0.0
  0
LINE
  5
14C
330
1F
100
AcDbEntity
  8
NOCUT
100
AcDbLine
 10
449.8346009999999
 20
307.407994
 30
0.0
 11
450.254842
 21
295.477222
 31
0.0
  0
LINE
  5
14D
330
1F
100
AcDbEntity
  8
NOCUT
100
AcDbLine
 10
450.254842
 20
295.477222
 30
0.0
 11
450.254842
 21
288.907994
 31
0.0
  0
LINE
  5
14E
330
1F
100
AcDbEntity
  8
NOCUT
100
AcDbLine
 10
450.254842
 20
288.907994
 30
0.0
 11
214.404842
 21
288.907994
 31
0.0
  0
ARC
  5
157
330
1F
100
AcDbEntity
  8
1
100
AcDbCircle
 10
287.9926240000001
 20
323.407994
 30
0.0
 40
16.0
100
AcDbArc
 50
237.538255
 51
270.0
  0
CIRCLE
  5
158
330
1F
100
AcDbEntity
  8
1
100
AcDbCircle
 10
445.418941
 20
284.5888799999999
 30
0.0
 40
1.35
  0
ARC
  5
159
330
1F
100
AcDbEntity
  8
1
100
AcDbCircle
 10
445.418941
 20
284.5888799999999
 30
0.0
 40
1.75
100
AcDbArc
 50
75.0
 51
345.0
  0
ARC
  5
15A
330
1F
100
AcDbEntity
  8
1
100
AcDbCircle
 10
287.9926240000001
 20
254.407994
 30
0.0
 40
16.0
100
AcDbArc
 50
90.0
 51
122.461745
  0
ARC
  5
166
330
1F
100
AcDbEntity
  8
NOCUT
100
AcDbCircle
 10
287.9926240000001
 20
323.407994
 30
0.0
 40
16.0
100
AcDbArc
 50
237.538255
 51
270.0
  0
ELLIPSE
  5
167
330
1F
100
AcDbEntity
  8
1
100
AcDbEllipse
 10
448.867021
 20
306.339344
 30
0.0
 11
0.4817434594803974
 21
0.5170545788814748
 31
0.0
210
0.0
220
0.0
230
1.0
 40
0.01483
 41
1.536779664833015
 42
2.553685504922085
  0
ELLIPSE
  5
168
330
1F
100
AcDbEntity
  8
1
100
AcDbEllipse
 10
444.126378
 20
301.2644509999999
 30
0.0
 11
-3.677921936877201
 21
1.297262589546717
 31
0.0
210
0.0
220
0.0
230
1.0
 40
0.9986239999999998
 41
0.0
 42
6.283185307179585
  0
ELLIPSE
  5
169
330
1F
100
AcDbEntity
  8
1
100
AcDbEllipse
 10
449.352409
 20
279.378172
 30
0.0
 11
0.0538770024347378
 21
0.4991611425065178
 31
0.0
210
0.0
220
0.0
230
0.9999999999999998
 40
0.139171
 41
1.583568179242813
 42
3.154364506043567
  0
ELLIPSE
  5
16A
330
1F
100
AcDbEntity
  8
1
100
AcDbEllipse
 10
449.753111
 20
289.1708
 30
0.0
 11
0.0001758288816824
 21
-0.5000776676615974
 31
0.0
210
0.0
220
0.0
230
0.9999999999999998
 40
0.140519
 41
3.13909047596914
 42
4.709886802772879
  0
ELLIPSE
  5
16B
330
1F
100
AcDbEntity
  8
1
100
AcDbEllipse
 10
326.174591
 20
288.907994
 30
0.0
 11
69.00031808861239
 21
-14.37990995659814
 31
0.0
210
0.0
220
0.0
230
1.0
 40
0.168682
 41
4.278139773918251
 42
4.443311242268837
  0
ELLIPSE
  5
16C
330
1F
100
AcDbEntity
  8
1
100
AcDbEllipse
 10
439.629486
 20
296.456262
 30
0.0
 11
-2.357642267228975
 21
0.8315785830427675
 31
0.0
210
0.0
220
0.0
230
1.0
 40
0.9986239999999998
 41
2.66819997972174
 42
2.776747666076885
  0
ELLIPSE
  5
16D
330
1F
100
AcDbEntity
  8
1
100
AcDbEllipse
 10
449.992561
 20
294.737993
 30
0.0
 11
0.0003016037636859
 21
0.5003084758530552
 31
0.0
210
0.0
220
0.0
230
0.9999999999999998
 40
0.140101
 41
3.195395734393113
 42
4.766192061198964
  0
ELLIPSE
  5
16E
330
1F
100
AcDbEntity
  8
1
100
AcDbEllipse
 10
450.865608
 20
288.907994
 30
0.0
 11
2.002417234275806
 21
18.49790774640636
 31
0.0
210
0.0
220
0.0
230
1.0
 40
0.138944
 41
1.90213797299286
 42
3.156632395651097
  0
ELLIPSE
  5
16F
330
1F
100
AcDbEntity
  8
1
100
AcDbEllipse
 10
450.254842
 20
288.907994
 30
0.0
 11
0.0
 21
18.50000000077953
 31
0.0
210
0.0
220
0.0
230
1.0
 40
0.140541
 41
1.490857676493615
 42
1.887098230917938
  0
ELLIPSE
  5
170
330
1F
100
AcDbEntity
  8
1
100
AcDbEllipse
 10
439.710765
 20
296.686699
 30
0.0
 11
-2.357642267228975
 21
0.8315785830427671
 31
0.0
210
0.0
220
0.0
230
1.0
 40
0.9986239999999998
 41
0.0520252572636132
 42
1.945227431237595
  0
ELLIPSE
  5
171
330
1F
100
AcDbEntity
  8
1
100
AcDbEllipse
 10
439.710765
 20
296.686699
 30
0.0
 11
-2.357642267228975
 21
0.8315785830427671
 31
0.0
210
0.0
220
0.0
230
1.0
 40
0.9986239999999998
 41
1.945227431237596
 42
2.645311779347058
  0
ELLIPSE
  5
172
330
1F
100
AcDbEntity
  8
1
100
AcDbEllipse
 10
439.629486
 20
296.456262
 30
0.0
 11
-2.357642267228975
 21
0.8315785830427675
 31
0.0
210
0.0
220
0.0
230
1.0
 40
0.9986239999999998
 41
5.822888314034135
 42
5.942244189143315
  0
ELLIPSE
  5
173
330
1F
100
AcDbEntity
  8
1
100
AcDbEllipse
 10
439.624254
 20
296.441427
 30
0.0
 11
2.357642267228976
 21
-0.8315785830427666
 31
0.0
210
0.0
220
0.0
230
1.0
 40
0.9986239999999998
 41
2.800651535553513
 42
4.438709040114653
  0
ELLIPSE
  5
174
330
1F
100
AcDbEntity
  8
1
100
AcDbEllipse
 10
438.009453
 20
288.908043
 30
0.0
 11
0.6186852247593037
 21
-18.49994631543079
 31
0.0
210
0.0
220
0.0
230
1.0
 40
0.0191
 41
3.220447092998418
 42
3.236673205776102
  0
ELLIPSE
  5
175
330
1F
100
AcDbEntity
  8
1
100
AcDbEllipse
 10
440.4119139999999
 20
310.919657
 30
0.0
 11
7.098809686651067
 21
15.80037918499853
 31
0.0
210
0.0
220
0.0
230
1.0
 40
0.725062
 41
3.072000390655884
 42
3.078208702544128
  0
ELLIPSE
  5
176
330
1F
100
AcDbEntity
  8
1
100
AcDbEllipse
 10
444.4175589999999
 20
288.907994
 30
0.0
 11
31.72935544341743
 21
-18.25148106596398
 31
0.0
210
0.0
220
0.0
230
1.0
 40
0.095248
 41
4.241950592969453
 42
4.390376726545608
  0
ELLIPSE
  5
177
330
1F
100
AcDbEntity
  8
1
100
AcDbEllipse
 10
304.007861
 20
288.90952
 30
0.0
 11
3.853308200266642
 21
18.49078239324928
 31
0.0
210
0.0
220
0.0
230
1.0
 40
0.168694
 41
4.331535532402881
 42
4.336122859111373
  0
ELLIPSE
  5
178
330
1F
100
AcDbEntity
  8
1
100
AcDbEllipse
 10
438.479929
 20
288.907993
 30
0.0
 11
0.6186869863293586
 21
-18.49999625939596
 31
0.0
210
0.0
220
0.0
230
1.0
 40
0.0191
 41
3.020882474837189
 42
3.111267033571966
  0
ELLIPSE
  5
179
330
1F
100
AcDbEntity
  8
1
100
AcDbEllipse
 10
439.624254
 20
296.441427
 30
0.0
 11
2.357642267228976
 21
-0.8315785830427666
 31
0.0
210
0.0
220
0.0
230
1.0
 40
0.9986239999999998
 41
5.701844499995923
 42
5.809792633311543
  0
ELLIPSE
  5
17A
330
1F
100
AcDbEntity
  8
1
100
AcDbEllipse
 10
438.3032599999999
 20
288.907994
 30
0.0
 11
0.5187291150316048
 21
-18.49985635266282
 31
0.0
210
0.0
220
0.0
230
1.0
 40
0.140543
 41
3.10796503717071
 42
3.217356648861974
  0
ELLIPSE
  5
17B
330
1F
100
AcDbEntity
  8
1
100
AcDbEllipse
 10
303.210054
 20
288.907993
 30
0.0
 11
483.3930182216321
 21
18.04104344700396
 31
0.0
210
0.0
220
0.0
230
0.9999999999999998
 40
0.008472
 41
4.997727432696186
 42
5.015540801952111
  0
ELLIPSE
  5
17C
330
1F
100
AcDbEntity
  8
1
100
AcDbEllipse
 10
449.343623
 20
280.524753
 30
0.0
 11
-0.223038816141459
 21
0.2309634552664429
 31
0.0
210
-0.0000000000000001
220
0.0
230
0.9999999999999998
 40
0.6229040000000001
 41
2.97621062644554
 42
3.306974680734076
  0
ELLIPSE
  5
17D
330
1F
100
AcDbEntity
  8
1
100
AcDbEllipse
 10
449.761969
 20
287.65976
 30
0.0
 11
-0.3115396276772998
 21
-0.0776755531752887
 31
0.0
210
-0.0000000000000001
220
0.0
230
1.0
 40
0.6229040000000001
 41
2.976210626445514
 42
3.306974680734071
  0
ELLIPSE
  5
17E
330
1F
100
AcDbEntity
  8
1
100
AcDbEllipse
 10
449.646217
 20
281.028354
 30
0.0
 11
-0.3086390084417319
 21
0.0885008115358406
 31
0.0
210
0.0
220
0.0
230
0.9999999999999998
 40
0.6229040000000001
 41
2.976210626445484
 42
3.306974680734093
  0
ELLIPSE
  5
17F
330
1F
100
AcDbEntity
  8
1
100
AcDbEllipse
 10
450.4734269999999
 20
289.135723
 30
0.0
 11
0.1593661330772595
 21
-0.254667189616474
 31
0.0
210
0.0
220
0.0
230
0.9999999999999998
 40
0.9668319999999999
 41
1.51596520849898
 42
2.029724467108402
  0
ELLIPSE
  5
180
330
1F
100
AcDbEntity
  8
1
100
AcDbEllipse
 10
451.105838
 20
287.994824
 30
0.0
 11
0.1315188409422781
 21
-0.2701031955923264
 31
0.0
210
0.0
220
0.0
230
0.9999999999999998
 40
0.9668319999999999
 41
1.111868187691605
 42
1.625627446434503
  0
ELLIPSE
  5
181
330
1F
100
AcDbEntity
  8
1
100
AcDbEllipse
 10
450.305732
 20
279.52846
 30
0.0
 11
0.254667189501273
 21
0.1593661331950286
 31
0.0
210
0.0
220
0.0
230
1.0
 40
0.9668320000000001
 41
4.657557861527956
 42
5.171317120197449
  0
ELLIPSE
  5
182
330
1F
100
AcDbEntity
  8
1
100
AcDbEllipse
 10
450.969907
 20
280.648792
 30
0.0
 11
-0.2941597133632818
 21
0.0843489404830548
 31
0.0
210
0.0
220
0.0
230
0.9999999999999998
 40
0.9803469999999999
 41
2.884713024277096
 42
3.398472282902498
  0
ELLIPSE
  5
183
330
1F
100
AcDbEntity
  8
1
100
AcDbEllipse
 10
450.2487359999999
 20
280.855584
 30
0.0
 11
0.3598828965706005
 21
-0.063220112378081
 31
0.0
210
0.0
220
0.0
230
1.0
 40
0.81881
 41
6.264719798508606
 42
6.411625105688627
  0
ELLIPSE
  5
184
330
1F
100
AcDbEntity
  8
1
100
AcDbEllipse
 10
450.37015
 20
287.811396
 30
0.0
 11
0.3618699860029747
 21
0.0506218682316918
 31
0.0
210
0.0
220
0.0
230
1.0
 40
0.81881
 41
6.154745494695634
 42
6.301650807811436
  0
ELLIPSE
  5
185
330
1F
100
AcDbEntity
  8
1
100
AcDbEllipse
 10
450.37015
 20
287.811396
 30
0.0
 11
0.3432777841175329
 21
0.1251912230526226
 31
0.0
210
0.0
220
0.0
230
1.0
 40
0.8188099999999998
 41
6.264719800167878
 42
6.411625108027017
  0
ELLIPSE
  5
186
330
1F
100
AcDbEntity
  8
1
100
AcDbEllipse
 10
449.928017
 20
288.6090259999999
 30
0.0
 11
0.2880776399193455
 21
0.2247748023009385
 31
0.0
210
0.0
220
0.0
230
1.0
 40
0.81881
 41
6.154745478341983
 42
6.30165079750751
  0
ELLIPSE
  5
187
330
1F
100
AcDbEntity
  8
1
100
AcDbEllipse
 10
449.928017
 20
288.6090259999999
 30
0.0
 11
0.2346916451557049
 21
0.2800576319456815
 31
0.0
210
0.0
220
0.0
230
1.0
 40
0.81881
 41
6.264719813200909
 42
6.411625130396429
  0
ELLIPSE
  5
188
330
1F
100
AcDbEntity
  8
1
100
AcDbEllipse
 10
449.7790349999999
 20
280.07387
 30
0.0
 11
0.2800576318634374
 21
-0.2346916451531529
 31
0.0
210
0.0
220
0.0
230
0.9999999999999998
 40
0.8188099999999998
 41
6.264719813312531
 42
6.411625130521192
  0
ELLIPSE
  5
189
330
1F
100
AcDbEntity
  8
1
100
AcDbEllipse
 10
450.2487359999999
 20
280.855584
 30
0.0
 11
0.3386995398509137
 21
-0.1370951715231532
 31
0.0
210
0.0
220
0.0
230
1.0
 40
0.81881
 41
6.154745496452112
 42
6.301650808457102
  0
ELLIPSE
  5
18A
330
1F
100
AcDbEntity
  8
1
100
AcDbEllipse
 10
449.7790349999999
 20
280.07387
 30
0.0
 11
0.2247748272437817
 21
-0.2880776834592141
 31
0.0
210
0.0
220
0.0
230
0.9999999999999998
 40
0.8188100000000002
 41
6.154745503037377
 42
6.301650812198675
  0
ELLIPSE
  5
18B
330
1F
100
AcDbEntity
  8
1
100
AcDbEllipse
 10
388.3847970000001
 20
288.926287
 30
0.0
 11
1059.981142466747
 21
-0.9156005470933729
 31
0.0
210
0.0
220
0.0
230
1.0
 40
0.017414
 41
1.524591055290509
 42
1.527848574398559
  0
ELLIPSE
  5
18C
330
1F
100
AcDbEntity
  8
1
100
AcDbEllipse
 10
438.833024
 20
306.441628
 30
0.0
 11
-11.88251702683404
 21
4.19115605853555
 31
0.0
210
0.0
220
0.0
230
0.9999999999999998
 40
0.9986239999999998
 41
1.386722154625875
 42
1.945227515264137
  0
ELLIPSE
  5
18D
330
1F
100
AcDbEntity
  8
1
100
AcDbEllipse
 10
444.5081179999999
 20
299.25731
 30
0.0
 11
-0.5666776289729542
 21
0.1998763706833381
 31
0.0
210
0.0
220
0.0
230
0.9999999999999998
 40
0.9986239999999998
 41
4.7163545345379
 42
5.980884578768097
  0
ELLIPSE
  5
18E
330
1F
100
AcDbEntity
  8
1
100
AcDbEllipse
 10
444.102949
 20
299.559608
 30
0.0
 11
-0.0898897536456661
 21
0.0317055708602405
 31
0.0
210
0.0
220
0.0
230
1.0
 40
0.998624
 41
5.980884578767891
 42
6.657616495648667
  0
ELLIPSE
  5
18F
330
1F
100
AcDbEntity
  8
1
100
AcDbEllipse
 10
443.912466
 20
299.552963
 30
0.0
 11
-0.0898897536456659
 21
0.0317055708602405
 31
0.0
210
0.0
220
0.0
230
0.9999999999999998
 40
0.998624
 41
2.315693149580281
 42
3.516023842058904
  0
ELLIPSE
  5
190
330
1F
100
AcDbEntity
  8
1
100
AcDbEllipse
 10
443.7127150000001
 20
300.016997
 30
0.0
 11
-0.5666776289729544
 21
0.1998763706833382
 31
0.0
210
0.0
220
0.0
230
0.9999999999999998
 40
0.9986239999999998
 41
1.051163105349862
 42
2.31569314958001
  0
ELLIPSE
  5
191
330
1F
100
AcDbEntity
  8
1
100
AcDbEllipse
 10
443.330189
 20
299.687222
 30
0.0
 11
-0.089889753645668
 21
0.0317055708602412
 31
0.0
210
0.0
220
0.0
230
0.9999999999999998
 40
0.9986239999999998
 41
6.134017720050402
 42
7.334348412529534
  0
ELLIPSE
  5
192
330
1F
100
AcDbEntity
  8
1
100
AcDbEllipse
 10
443.161816
 20
299.77661
 30
0.0
 11
-0.089889753645668
 21
0.0317055708602412
 31
0.0
210
0.0
220
0.0
230
0.9999999999999998
 40
0.9986239999999998
 41
2.992425066460505
 42
3.669156983341174
  0
ELLIPSE
  5
193
330
1F
100
AcDbEntity
  8
1
100
AcDbEllipse
 10
442.665309
 20
299.6822160000001
 30
0.0
 11
-0.5666776289729542
 21
0.1998763706833381
 31
0.0
210
0.0
220
0.0
230
0.9999999999999998
 40
0.9986239999999998
 41
3.669156983341314
 42
4.933687027571518
  0
ELLIPSE
  5
194
330
1F
100
AcDbEntity
  8
1
100
AcDbEllipse
 10
442.7245
 20
300.18365
 30
0.0
 11
-0.0898897536456661
 21
0.0317055708602405
 31
0.0
210
0.0
220
0.0
230
1.0
 40
0.998624
 41
4.933687027571693
 42
5.610418944452148
  0
ELLIPSE
  5
195
330
1F
100
AcDbEntity
  8
1
100
AcDbEllipse
 10
442.623354
 20
300.345119
 30
0.0
 11
-0.0898897536456659
 21
0.0317055708602405
 31
0.0
210
0.0
220
0.0
230
0.9999999999999998
 40
0.998624
 41
1.268495598383222
 42
2.468826290862236
  0
ELLIPSE
  5
196
330
1F
100
AcDbEntity
  8
1
100
AcDbEllipse
 10
442.9256269999999
 20
300.749593
 30
0.0
 11
-0.5666776289729544
 21
0.1998763706833382
 31
0.0
210
0.0
220
0.0
230
0.9999999999999998
 40
0.9986239999999998
 41
0.0039655541532313
 42
1.268495598383314
  0
ELLIPSE
  5
197
330
1F
100
AcDbEntity
  8
1
100
AcDbEllipse
 10
442.4481759999999
 20
300.915875
 30
0.0
 11
-0.089889753645668
 21
0.0317055708602412
 31
0.0
210
0.0
220
0.0
230
0.9999999999999998
 40
0.9986239999999998
 41
5.086820168853876
 42
6.287150861333062
  0
ELLIPSE
  5
198
330
1F
100
AcDbEntity
  8
1
100
AcDbEllipse
 10
442.44136
 20
301.10616
 30
0.0
 11
-0.089889753645668
 21
0.0317055708602412
 31
0.0
210
0.0
220
0.0
230
0.9999999999999998
 40
0.9986239999999998
 41
1.945227515264138
 42
2.62195943214483
  0
ELLIPSE
  5
199
330
1F
100
AcDbEntity
  8
1
100
AcDbEllipse
 10
442.1109
 20
301.488562
 30
0.0
 11
-0.5666776289729542
 21
0.1998763706833381
 31
0.0
210
0.0
220
0.0
230
0.9999999999999998
 40
0.9986239999999998
 41
2.621959432144723
 42
3.886489476374944
  0
ELLIPSE
  5
19A
330
1F
100
AcDbEntity
  8
1
100
AcDbEllipse
 10
443.9537089999999
 20
301.063656
 30
0.0
 11
1.98041950447234
 21
-0.6985260097559243
 31
0.0
210
0.0
220
0.0
230
1.0
 40
0.9986239999999998
 41
0.0
 42
6.283185307179585
  0
ELLIPSE
  5
19B
330
1F
100
AcDbEntity
  8
1
100
AcDbEllipse
 10
444.149052
 20
301.328736
 30
0.0
 11
3.531988007444662
 21
-1.245789330883937
 31
0.0
210
0.0
220
0.0
230
0.9999999999999998
 40
0.9986239999999998
 41
1.94522755203838
 42
3.356097206659879
  0
ELLIPSE
  5
19C
330
1F
100
AcDbEntity
  8
1
100
AcDbEllipse
 10
444.149052
 20
301.328736
 30
0.0
 11
3.531988007444662
 21
-1.245789330883937
 31
0.0
210
0.0
220
0.0
230
0.9999999999999998
 40
0.9986239999999998
 41
5.419043491545753
 42
6.283185307179585
  0
ELLIPSE
  5
19D
330
1F
100
AcDbEntity
  8
1
100
AcDbEllipse
 10
444.149052
 20
301.328736
 30
0.0
 11
3.531988007444662
 21
-1.245789330883937
 31
0.0
210
0.0
220
0.0
230
0.9999999999999998
 40
0.9986239999999998
 41
0.0
 42
1.50893877539691
  0
ELLIPSE
  5
19E
330
1F
100
AcDbEntity
  8
1
100
AcDbEllipse
 10
444.149052
 20
301.328736
 30
0.0
 11
3.531988007444662
 21
-1.245789330883937
 31
0.0
210
0.0
220
0.0
230
0.9999999999999998
 40
0.9986239999999998
 41
1.632540859458623
 42
1.94522755203838
  0
ELLIPSE
  5
19F
330
1F
100
AcDbEntity
  8
1
100
AcDbEllipse
 10
439.37656
 20
296.163547
 30
0.0
 11
0.4817434596333639
 21
0.5170545790565346
 31
0.0
210
0.0
220
0.0
230
1.0
 40
0.01483
 41
0.5198738242895651
 42
1.536779664100684
  0
ELLIPSE
  5
1A0
330
1F
100
AcDbEntity
  8
1
100
AcDbEllipse
 10
444.1292559999999
 20
301.27261
 30
0.0
 11
3.588083700633127
 21
-1.265575189707758
 31
0.0
210
0.0
220
0.0
230
1.0
 40
0.9986239999999998
 41
1.945227451328571
 42
3.745261875445964
  0
ELLIPSE
  5
1A1
330
1F
100
AcDbEntity
  8
1
100
AcDbEllipse
 10
444.1292559999999
 20
301.27261
 30
0.0
 11
3.588083700633127
 21
-1.265575189707758
 31
0.0
210
0.0
220
0.0
230
1.0
 40
0.9986239999999998
 41
4.874566385899283
 42
6.283185307179585
  0
ELLIPSE
  5
1A2
330
1F
100
AcDbEntity
  8
1
100
AcDbEllipse
 10
444.1292559999999
 20
301.27261
 30
0.0
 11
3.588083700633127
 21
-1.265575189707758
 31
0.0
210
0.0
220
0.0
230
1.0
 40
0.9986239999999998
 41
0.0
 42
1.945227440221053
  0
ELLIPSE
  5
1A3
330
1F
100
AcDbEntity
  8
1
100
AcDbEllipse
 10
449.219246
 20
296.506904
 30
0.0
 11
0.5172967688074829
 21
-0.4819691095712809
 31
0.0
210
0.0
220
0.0
230
1.0
 40
0.033998
 41
1.585610887856189
 42
2.602516728106028
  0
ELLIPSE
  5
1A4
330
1F
100
AcDbEntity
  8
1
100
AcDbEllipse
 10
439.0243349999999
 20
305.995988
 30
0.0
 11
0.517296768734608
 21
-0.4819691095010812
 31
0.0
210
0.0
220
0.0
230
1.0
 40
0.033998
 41
0.5687050474066267
 42
1.585610887778898
  0
ELLIPSE
  5
1A5
330
1F
100
AcDbEntity
  8
1
100
AcDbEllipse
 10
443.9637419999999
 20
301.092101
 30
0.0
 11
3.395004864809725
 21
-1.197473159581583
 31
0.0
210
0.0
220
0.0
230
1.0
 40
0.9986239999999998
 41
0.0
 42
6.283185307179585
  0
ELLIPSE
  5
1A6
330
1F
100
AcDbEntity
  8
1
100
AcDbEllipse
 10
442.575259
 20
301.687697
 30
0.0
 11
-0.0898897536456661
 21
0.0317055708602405
 31
0.0
210
0.0
220
0.0
230
1.0
 40
0.998624
 41
3.886489476375178
 42
4.563221393255596
  0
ELLIPSE
  5
1A7
330
1F
100
AcDbEntity
  8
1
100
AcDbEllipse
 10
442.664598
 20
301.855812
 30
0.0
 11
-0.0898897536456659
 21
0.0317055708602405
 31
0.0
210
0.0
220
0.0
230
0.9999999999999998
 40
0.998624
 41
0.2212980471868512
 42
1.421628739665555
  0
ELLIPSE
  5
1A8
330
1F
100
AcDbEntity
  8
1
100
AcDbEllipse
 10
443.166621
 20
301.796252
 30
0.0
 11
-0.5666776289729544
 21
0.1998763706833382
 31
0.0
210
0.0
220
0.0
230
0.9999999999999998
 40
0.9986239999999998
 41
5.239953310136215
 42
6.504483354366383
  0
ELLIPSE
  5
1A9
330
1F
100
AcDbEntity
  8
1
100
AcDbEllipse
 10
443.0716969999999
 20
302.292309
 30
0.0
 11
-0.089889753645668
 21
0.0317055708602412
 31
0.0
210
0.0
220
0.0
230
0.9999999999999998
 40
0.9986239999999998
 41
4.039622617656883
 42
5.239953310135673
  0
ELLIPSE
  5
1AA
330
1F
100
AcDbEntity
  8
1
100
AcDbEllipse
 10
443.233253
 20
302.393206
 30
0.0
 11
-0.089889753645668
 21
0.0317055708602412
 31
0.0
210
0.0
220
0.0
230
0.9999999999999998
 40
0.9986239999999998
 41
0.8980299640676975
 42
1.574761880948188
  0
ELLIPSE
  5
1AB
330
1F
100
AcDbEntity
  8
1
100
AcDbEllipse
 10
443.3993
 20
302.870002
 30
0.0
 11
-0.5666776289729542
 21
0.1998763706833381
 31
0.0
210
0.0
220
0.0
230
0.9999999999999998
 40
0.9986239999999998
 41
1.574761880948154
 42
2.83929192517834
  0
ELLIPSE
  5
1AC
330
1F
100
AcDbEntity
  8
1
100
AcDbEllipse
 10
443.804469
 20
302.567704
 30
0.0
 11
-0.0898897536456661
 21
0.0317055708602405
 31
0.0
210
0.0
220
0.0
230
1.0
 40
0.998624
 41
2.839291925178331
 42
3.516023842059044
  0
ELLIPSE
  5
1AD
330
1F
100
AcDbEntity
  8
1
100
AcDbEllipse
 10
443.9949529999999
 20
302.574349
 30
0.0
 11
-0.0898897536456659
 21
0.0317055708602405
 31
0.0
210
0.0
220
0.0
230
0.9999999999999998
 40
0.998624
 41
5.457285803169957
 42
6.657616495648838
  0
ELLIPSE
  5
1AE
330
1F
100
AcDbEntity
  8
1
100
AcDbEllipse
 10
444.194704
 20
302.110314
 30
0.0
 11
-0.5666776289729544
 21
0.1998763706833382
 31
0.0
210
0.0
220
0.0
230
0.9999999999999998
 40
0.9986239999999998
 41
4.192755758939615
 42
5.457285803169787
  0
ELLIPSE
  5
1AF
330
1F
100
AcDbEntity
  8
1
100
AcDbEllipse
 10
444.5772299999999
 20
302.44009
 30
0.0
 11
-0.089889753645668
 21
0.0317055708602412
 31
0.0
210
0.0
220
0.0
230
0.9999999999999998
 40
0.9986239999999998
 41
2.992425066460799
 42
4.19275575893989
  0
ELLIPSE
  5
1B0
330
1F
100
AcDbEntity
  8
1
100
AcDbEllipse
 10
444.7456019999999
 20
302.350702
 30
0.0
 11
-0.089889753645668
 21
0.0317055708602412
 31
0.0
210
0.0
220
0.0
230
0.9999999999999998
 40
0.9986239999999998
 41
6.134017720050445
 42
6.810749636930947
  0
ELLIPSE
  5
1B1
330
1F
100
AcDbEntity
  8
1
100
AcDbEllipse
 10
445.2421099999999
 20
302.445096
 30
0.0
 11
-0.5666776289729542
 21
0.1998763706833381
 31
0.0
210
0.0
220
0.0
230
0.9999999999999998
 40
0.9986239999999998
 41
0.5275643297515212
 42
1.792094373981719
  0
ELLIPSE
  5
1B2
330
1F
100
AcDbEntity
  8
1
100
AcDbEllipse
 10
445.182919
 20
301.943662
 30
0.0
 11
-0.0898897536456661
 21
0.0317055708602405
 31
0.0
210
0.0
220
0.0
230
1.0
 40
0.998624
 41
1.7920943739819
 42
2.46882629086247
  0
ELLIPSE
  5
1B3
330
1F
100
AcDbEntity
  8
1
100
AcDbEllipse
 10
445.2840639999999
 20
301.782193
 30
0.0
 11
-0.0898897536456659
 21
0.0317055708602405
 31
0.0
210
0.0
220
0.0
230
0.9999999999999998
 40
0.998624
 41
4.410088251973014
 42
5.610418944452145
  0
ELLIPSE
  5
1B4
330
1F
100
AcDbEntity
  8
1
100
AcDbEllipse
 10
444.981792
 20
301.377719
 30
0.0
 11
-0.5666776289729544
 21
0.1998763706833382
 31
0.0
210
0.0
220
0.0
230
0.9999999999999998
 40
0.9986239999999998
 41
3.145558207743001
 42
4.410088251973281
  0
ELLIPSE
  5
1B5
330
1F
100
AcDbEntity
  8
1
100
AcDbEllipse
 10
445.4592419999999
 20
301.211437
 30
0.0
 11
-0.089889753645668
 21
0.0317055708602412
 31
0.0
210
0.0
220
0.0
230
0.9999999999999998
 40
0.9986239999999998
 41
1.945227515264028
 42
3.145558207742973
  0
ELLIPSE
  5
1B6
330
1F
100
AcDbEntity
  8
1
100
AcDbEllipse
 10
445.4660589999999
 20
301.021152
 30
0.0
 11
-0.089889753645668
 21
0.0317055708602412
 31
0.0
210
0.0
220
0.0
230
0.9999999999999998
 40
0.9986239999999998
 41
5.086820168853876
 42
5.763552085734494
  0
ELLIPSE
  5
1B7
330
1F
100
AcDbEntity
  8
1
100
AcDbEllipse
 10
445.796519
 20
300.63875
 30
0.0
 11
-0.5666776289729542
 21
0.1998763706833381
 31
0.0
210
0.0
220
0.0
230
0.9999999999999998
 40
0.9986239999999998
 41
5.763552085734519
 42
7.028082129964655
  0
ELLIPSE
  5
1B8
330
1F
100
AcDbEntity
  8
1
100
AcDbEllipse
 10
445.3321589999999
 20
300.439614
 30
0.0
 11
-0.0898897536456661
 21
0.0317055708602405
 31
0.0
210
0.0
220
0.0
230
1.0
 40
0.998624
 41
0.7448968227856792
 42
1.421628739666371
  0
ELLIPSE
  5
1B9
330
1F
100
AcDbEntity
  8
1
100
AcDbEllipse
 10
445.2428199999999
 20
300.2715
 30
0.0
 11
-0.0898897536456659
 21
0.0317055708602405
 31
0.0
210
0.0
220
0.0
230
0.9999999999999998
 40
0.998624
 41
3.362890700776643
 42
4.563221393255619
  0
ELLIPSE
  5
1BA
330
1F
100
AcDbEntity
  8
1
100
AcDbEllipse
 10
444.740798
 20
300.33106
 30
0.0
 11
-0.5666776289729544
 21
0.1998763706833382
 31
0.0
210
0.0
220
0.0
230
0.9999999999999998
 40
0.9986239999999998
 41
2.09836065654641
 42
3.362890700776603
  0
ELLIPSE
  5
1BB
330
1F
100
AcDbEntity
  8
1
100
AcDbEllipse
 10
444.835721
 20
299.835003
 30
0.0
 11
-0.089889753645668
 21
0.0317055708602412
 31
0.0
210
0.0
220
0.0
230
0.9999999999999998
 40
0.9986239999999998
 41
0.8980299640672782
 42
2.09836065654647
  0
ELLIPSE
  5
1BC
330
1F
100
AcDbEntity
  8
1
100
AcDbEllipse
 10
444.6741659999999
 20
299.734105
 30
0.0
 11
-0.089889753645668
 21
0.0317055708602412
 31
0.0
210
0.0
220
0.0
230
0.9999999999999998
 40
0.9986239999999998
 41
4.039622617657256
 42
4.71635453453798
  0
ELLIPSE
  5
1BD
330
1F
100
AcDbEntity
  8
1
100
AcDbEllipse
 10
443.9798719999999
 20
301.137831
 30
0.0
 11
-3.395004864809725
 21
1.197473159581584
 31
0.0
210
0.0
220
0.0
230
0.9999999999999998
 40
0.9986239999999998
 41
3.141585274248861
 42
5.872218228534566
  0
ELLIPSE
  5
1BE
330
1F
100
AcDbEntity
  8
1
100
AcDbEllipse
 10
443.9798719999999
 20
301.137831
 30
0.0
 11
-3.395004864809725
 21
1.197473159581584
 31
0.0
210
0.0
220
0.0
230
0.9999999999999998
 40
0.9986239999999998
 41
5.872218228534568
 42
6.283185307179585
  0
ELLIPSE
  5
1BF
330
1F
100
AcDbEntity
  8
1
100
AcDbEllipse
 10
449.4771339999999
 20
288.173614
 30
0.0
 11
-0.2309634552664442
 21
-0.2230388161414578
 31
0.0
210
0.0
220
0.0
230
1.0
 40
0.6229040000000001
 41
2.976210626445521
 42
3.306974680734081
  0
ELLIPSE
  5
1C0
330
1F
100
AcDbEntity
  8
1
100
AcDbEllipse
 10
248.900524
 20
288.907994
 30
0.0
 11
69.00031810821021
 21
-14.37990996227738
 31
0.0
210
0.0
220
0.0
230
0.9999999999999996
 40
0.168682
 41
5.452947751582136
 42
5.559851517068083
  0
ELLIPSE
  5
1C1
330
1F
100
AcDbEntity
  8
1
100
AcDbEllipse
 10
440.2675389999999
 20
291.837157
 30
0.0
 11
-2.350812473774843
 21
-0.0922637043176426
 31
0.0
210
0.0
220
0.0
230
1.0
 40
0.22151
 41
1.403328073515099
 42
4.862470184787644
  0
SPLINE
  5
1D4
330
1F
100
AcDbEntity
  8
1
100
AcDbSpline
210
0.0
220
0.0
230
1.0
 70
     8
 71
     3
 72
     8
 73
     4
 74
     0
 42
0.000000001
 43
0.0000000001
 40
0.0
 40
0.0
 40
0.0
 40
0.0
 40
1.0
 40
1.0
 40
1.0
 40
1.0
 10
439.895841945296
 20
291.3083342162409
 30
0.0
 10
439.7245241373477
 20
291.2988498268985
 30
0.0
 10
439.5530076616316
 20
291.290205811463
 30
0.0
 10
439.3813270965885
 20
291.2822559015204
 30
0.0
  0
SPLINE
  5
1D5
330
1F
100
AcDbEntity
  8
1
100
AcDbSpline
210
0.0
220
0.0
230
1.0
 70
    24
 71
     3
 72
    14
 73
    10
 74
     0
 42
0.000000001
 43
0.0000000001
 40
0.0
 40
0.0
 40
0.0
 40
0.0
 40
0.3032484092426315
 40
0.3032484092426315
 40
0.606496818485263
 40
0.606496818485263
 40
0.9097452277278943
 40
0.9097452277278943
 40
1.0
 40
1.0
 40
1.0
 40
1.0
 10
439.8958419452957
 20
292.3382379680122
 30
0.0
 10
439.8958419452957
 20
292.1654787361815
 30
0.0
 10
439.8958419452957
 20
292.0132853314976
 30
0.0
 10
439.8958419452957
 20
291.7521171789308
 30
0.0
 10
439.8958419452957
 20
291.6431432523965
 30
0.0
 10
439.8958419452957
 20
291.4699100399143
 30
0.0
 10
439.8958419452957
 20
291.4056512987681
 30
0.0
 10
439.8958419452957
 20
291.3518513246274
 30
0.0
 10
439.8958419452957
 20
291.3415311870633
 30
0.0
 10
439.8958419452957
 20
291.3332339680112
 30
0.0
  0
SPLINE
  5
1D6
330
1F
100
AcDbEntity
  8
1
100
AcDbSpline
210
0.0
220
0.0
230
1.0
 70
     8
 71
     3
 72
     8
 73
     4
 74
     0
 42
0.000000001
 43
0.0000000001
 40
0.0
 40
0.0
 40
0.0
 40
0.0
 40
1.0
 40
1.0
 40
1.0
 40
1.0
 10
439.3434902332778
 20
292.3881420731026
 30
0.0
 10
439.5293862535523
 20
292.3722682111151
 30
0.0
 10
439.7135667357169
 20
292.3556605611587
 30
0.0
 10
439.8958419452957
 20
292.3382379680118
 30
0.0
  0
SPLINE
  5
1D7
330
1F
100
AcDbEntity
  8
1
100
AcDbSpline
210
0.0
220
0.0
230
1.0
 70
     8
 71
     3
 72
    28
 73
    24
 74
     0
 42
0.000000001
 43
0.0000000001
 40
0.0
 40
0.0
 40
0.0
 40
0.0
 40
0.1250000000000034
 40
0.1250000000000034
 40
0.2500000000000067
 40
0.2500000000000067
 40
0.3750000000000102
 40
0.3750000000000102
 40
0.5000000000000135
 40
0.5000000000000135
 40
0.6250000000000169
 40
0.6250000000000169
 40
0.7500000000000204
 40
0.7500000000000204
 40
0.7812500000000178
 40
0.7812500000000178
 40
0.812500000000015
 40
0.812500000000015
 40
0.8750000000000099
 40
0.8750000000000099
 40
0.9375000000000051
 40
0.9375000000000051
 40
1.0
 40
1.0
 40
1.0
 40
1.0
 10
432.6076358252406
 20
295.3036074863533
 30
0.0
 10
432.8678173065571
 20
295.1042366828565
 30
0.0
 10
433.129421712853
 20
294.9156081921909
 30
0.0
 10
433.6555787288315
 20
294.5581407298544
 30
0.0
 10
433.9201282116696
 20
294.3893062068955
 30
0.0
 10
434.4524316320054
 20
294.0702822125826
 30
0.0
 10
434.7201785777473
 20
293.9200938107108
 30
0.0
 10
435.25943142761
 20
293.6376694962298
 30
0.0
 10
435.5309213323358
 20
293.5054299121588
 30
0.0
 10
436.0788324222149
 20
293.2586934689421
 30
0.0
 10
436.3552149968744
 20
293.1441824074999
 30
0.0
 10
436.915452533037
 20
292.9334138212326
 30
0.0
 10
437.1992925430156
 20
292.8371079222053
 30
0.0
 10
437.5631103445128
 20
292.7295309323421
 30
0.0
 10
437.6363811707128
 20
292.7086475082896
 30
0.0
 10
437.7836596231399
 20
292.6683245788686
 30
0.0
 10
437.8576719186668
 20
292.6488822137643
 30
0.0
 10
438.081042562955
 20
292.5928176655708
 30
0.0
 10
438.2317163647675
 20
292.5584454520194
 30
0.0
 10
438.5380977216136
 20
292.4965213627502
 30
0.0
 10
438.6937957076783
 20
292.4689617176585
 30
0.0
 10
439.0124240151248
 20
292.4219573856927
 30
0.0
 10
439.1753422033462
 20
292.4025004150225
 30
0.0
 10
439.3434902332779
 20
292.3881420731028
 30
0.0
  0
SPLINE
  5
1D8
330
1F
100
AcDbEntity
  8
1
100
AcDbSpline
210
0.0
220
0.0
230
1.0
 70
     8
 71
     3
 72
    22
 73
    18
 74
     0
 42
0.000000001
 43
0.0000000001
 40
0.0
 40
0.0
 40
0.0
 40
0.0
 40
0.1250000000000149
 40
0.1250000000000149
 40
0.2500000000000298
 40
0.2500000000000298
 40
0.5000000000000594
 40
0.5000000000000594
 40
0.6250000000000742
 40
0.6250000000000742
 40
0.687500000000081
 40
0.687500000000081
 40
0.750000000000088
 40
0.750000000000088
 40
0.875000000000044
 40
0.875000000000044
 40
1.0
 40
1.0
 40
1.0
 40
1.0
 10
439.2854531464569
 20
293.9558026505449
 30
0.0
 10
439.2366412179031
 20
293.9631174955564
 30
0.0
 10
439.1883718826558
 20
293.9718551530723
 30
0.0
 10
439.092686590119
 20
293.9920835892775
 30
0.0
 10
439.0452725627
 20
294.0035751257689
 30
0.0
 10
438.9040976282077
 20
294.0421441844544
 30
0.0
 10
438.8113977888196
 20
294.0732912711082
 30
0.0
 10
438.6739189510649
 20
294.1284883917751
 30
0.0
 10
438.6283572228731
 20
294.1483062747689
 30
0.0
 10
438.5603508283251
 20
294.1802658801581
 30
0.0
 10
438.5377380421228
 20
294.1912917062786
 30
0.0
 10
438.4926134247311
 20
294.2141128911412
 30
0.0
 10
438.4700569268921
 20
294.2259329212608
 30
0.0
 10
438.4028960164161
 20
294.262385481404
 30
0.0
 10
438.3588426452568
 20
294.2879781230758
 30
0.0
 10
438.2721357727903
 20
294.3417465833577
 30
0.0
 10
438.229482587871
 20
294.3699222914985
 30
0.0
 10
438.1875109502579
 20
294.3994081570961
 30
0.0
  0
SPLINE
  5
1D9
330
1F
100
AcDbEntity
  8
1
100
AcDbSpline
210
0.0
220
0.0
230
1.0
 70
     8
 71
     3
 72
    10
 73
     6
 74
     0
 42
0.000000001
 43
0.0000000001
 40
0.0
 40
0.0
 40
0.0
 40
0.0
 40
0.5
 40
0.5
 40
1.0
 40
1.0
 40
1.0
 40
1.0
 10
434.1107395028841
 20
301.7437111231422
 30
0.0
 10
434.0686995783901
 20
302.6742629685748
 30
0.0
 10
434.032045126144
 20
303.6050245916781
 30
0.0
 10
433.966191005437
 20
305.466838220437
 30
0.0
 10
433.9370153240801
 20
306.397861952375
 30
0.0
 10
433.9105411480112
 20
307.3289673668301
 30
0.0
  0
SPLINE
  5
1DA
330
1F
100
AcDbEntity
  8
1
100
AcDbSpline
210
0.0
220
0.0
230
1.0
 70
     8
 71
     3
 72
    46
 73
    42
 74
     0
 42
0.000000001
 43
0.0000000001
 40
0.0
 40
0.0
 40
0.0
 40
0.0
 40
0.0288492052979641
 40
0.0288492052979641
 40
0.0576984105959282
 40
0.0576984105959282
 40
0.1153968211918575
 40
0.1153968211918575
 40
0.1730952317877868
 40
0.1730952317877868
 40
0.201944437085752
 40
0.201944437085752
 40
0.2307936423837173
 40
0.2307936423837173
 40
0.2884920529796478
 40
0.2884920529796478
 40
0.3461904635755783
 40
0.3461904635755783
 40
0.4038888741715089
 40
0.4038888741715089
 40
0.4615872847674393
 40
0.4615872847674393
 40
0.5192856953633697
 40
0.5192856953633697
 40
0.5769841059593001
 40
0.5769841059593001
 40
0.6923809271511609
 40
0.6923809271511609
 40
0.7500793377470915
 40
0.7500793377470915
 40
0.8077777483430217
 40
0.8077777483430217
 40
0.8654761589389522
 40
0.8654761589389522
 40
0.8943253642369175
 40
0.8943253642369175
 40
0.9231745695348825
 40
0.9231745695348825
 40
0.9808729801308125
 40
0.9808729801308125
 40
1.0
 40
1.0
 40
1.0
 40
1.0
 10
433.9105411480112
 20
307.3289673668301
 30
0.0
 10
433.2580896085794
 20
307.3465214840587
 30
0.0
 10
432.6045051299973
 20
307.3607474177304
 30
0.0
 10
431.2949870106755
 20
307.3833264814002
 30
0.0
 10
430.6390534899446
 20
307.3916805048357
 30
0.0
 10
428.6676843993778
 20
307.4090874461238
 30
0.0
 10
427.3486580225086
 20
307.4105171726048
 30
0.0
 10
424.7013821192604
 20
307.3986162254441
 30
0.0
 10
423.3731372189341
 20
307.3852985815173
 30
0.0
 10
421.3746049126751
 20
307.3575904265327
 30
0.0
 10
420.7074046774061
 20
307.3470553861534
 30
0.0
 10
419.3711332163803
 20
307.3238081551019
 30
0.0
 10
418.7023738512145
 20
307.3111014719523
 30
0.0
 10
416.6947090930833
 20
307.2702351895493
 30
0.0
 10
415.3542780642023
 20
307.2393742740985
 30
0.0
 10
412.670596495624
 20
307.1719206628432
 30
0.0
 10
411.3273484475127
 20
307.1353248640797
 30
0.0
 10
408.6393890641921
 20
307.0564286772624
 30
0.0
 10
407.2946805084957
 20
307.0141252064293
 30
0.0
 10
404.6052792164115
 20
306.9224615577525
 30
0.0
 10
403.2605677507022
 20
306.8730783332236
 30
0.0
 10
400.5712061043582
 20
306.7670398519521
 30
0.0
 10
399.2265253450799
 20
306.7103821884613
 30
0.0
 10
396.5375603567311
 20
306.589529451253
 30
0.0
 10
395.1932581630705
 20
306.5253330278141
 30
0.0
 10
391.1610151564543
 20
306.3209077027358
 30
0.0
 10
388.4737407755724
 20
306.1688778130274
 30
0.0
 10
384.444555609335
 20
305.9145190516938
 30
0.0
 10
383.1017802717362
 20
305.8253403200299
 30
0.0
 10
380.4168795182136
 20
305.6375848451419
 30
0.0
 10
379.0746671360153
 20
305.5390058846866
 30
0.0
 10
376.3916106356587
 20
305.3316589399427
 30
0.0
 10
375.0507351957559
 20
305.2228966173422
 30
0.0
 10
373.0405972839396
 20
305.0511883637607
 30
0.0
 10
372.3707490073151
 20
304.9925186018756
 30
0.0
 10
371.0314882818817
 20
304.8721142555312
 30
0.0
 10
370.362071818488
 20
304.8103894845994
 30
0.0
 10
368.3544214610922
 20
304.6206243229707
 30
0.0
 10
367.0167898341388
 20
304.4879793539323
 30
0.0
 10
365.2366171840199
 20
304.3032650413355
 30
0.0
 10
364.7934855452878
 20
304.2566079276696
 30
0.0
 10
364.3504197656015
 20
304.2092934137056
 30
0.0
  0
SPLINE
  5
1DB
330
1F
100
AcDbEntity
  8
1
100
AcDbSpline
210
0.0
220
0.0
230
1.0
 70
    28
 71
     4
 72
    13
 73
     8
 74
     0
 42
0.000000001
 43
0.0000000001
 40
0.0
 40
0.0
 40
0.0
 40
0.0
 40
0.0
 40
0.2364717651869241
 40
0.2364717651869241
 40
0.2364717651869241
 40
1.0
 40
1.0
 40
1.0
 40
1.0
 40
1.0
 10
302.9048419452957
 20
282.1916725188846
 30
0.0
 41
0.9984678196305193
 10
302.9048419452957
 20
281.5187257432255
 30
0.0
 41
0.9993684488624051
 10
302.9048419452957
 20
280.8169543141755
 30
0.0
 41
1.0005002648723
 10
302.9048419452957
 20
280.1024278963062
 30
0.0
 41
1.001498006703475
 10
302.9048419452957
 20
277.1079955160336
 30
0.0
 41
1.001498006703475
 10
302.9048419452957
 20
274.4419614068495
 30
0.0
 41
0.9910961756057503
 10
302.9048419452957
 20
272.0862711070267
 30
0.0
 41
0.9993651272070597
 10
302.9048419452957
 20
270.4090975188894
 30
0.0
 41
1.001206444259421
  0
SPLINE
  5
1DC
330
1F
100
AcDbEntity
  8
1
100
AcDbSpline
210
0.0
220
0.0
230
1.0
 70
     8
 71
     3
 72
    60
 73
    56
 74
     0
 42
0.000000001
 43
0.0000000001
 40
0.0
 40
0.0
 40
0.0
 40
0.0
 40
0.0625000000000005
 40
0.0625000000000005
 40
0.1250000000000009
 40
0.1250000000000009
 40
0.1562500000000012
 40
0.1562500000000012
 40
0.1718750000000014
 40
0.1718750000000014
 40
0.1875000000000016
 40
0.1875000000000016
 40
0.250000000000002
 40
0.250000000000002
 40
0.3125000000000021
 40
0.3125000000000021
 40
0.3437500000000022
 40
0.3437500000000022
 40
0.3750000000000022
 40
0.3750000000000022
 40
0.4062500000000023
 40
0.4062500000000023
 40
0.4218750000000026
 40
0.4218750000000026
 40
0.4375000000000028
 40
0.4375000000000028
 40
0.4687500000000028
 40
0.4687500000000028
 40
0.5000000000000029
 40
0.5000000000000029
 40
0.5156250000000028
 40
0.5156250000000028
 40
0.5312500000000027
 40
0.5312500000000027
 40
0.5625000000000023
 40
0.5625000000000023
 40
0.5937500000000022
 40
0.5937500000000022
 40
0.6250000000000017
 40
0.6250000000000017
 40
0.6562500000000014
 40
0.6562500000000014
 40
0.687500000000001
 40
0.687500000000001
 40
0.7500000000000008
 40
0.7500000000000008
 40
0.8125000000000007
 40
0.8125000000000007
 40
0.8437500000000005
 40
0.8437500000000005
 40
0.8750000000000003
 40
0.8750000000000003
 40
0.9375000000000001
 40
0.9375000000000001
 40
1.0
 40
1.0
 40
1.0
 40
1.0
 10
305.4713191315207
 20
281.4328036623765
 30
0.0
 10
307.9383624198444
 20
281.0433015968117
 30
0.0
 10
310.4052445630679
 20
280.6599894218493
 30
0.0
 10
315.3382833284555
 20
279.9038139431925
 30
0.0
 10
317.8044367009381
 20
279.5309280653352
 30
0.0
 10
321.5026922626194
 20
278.9777659699495
 30
0.0
 10
322.735280709343
 20
278.7944065180334
 30
0.0
 10
324.5838605026569
 20
278.5207316293468
 30
0.0
 10
325.2000242199333
 20
278.4297312994902
 30
0.0
 10
326.4320730066921
 20
278.248186293924
 30
0.0
 10
327.0479710170112
 20
278.1576396572101
 30
0.0
 10
330.1267956346732
 20
277.7059867157386
 30
0.0
 10
332.5877209771932
 20
277.3480514543323
 30
0.0
 10
337.5044958358558
 20
276.6386980178814
 30
0.0
 10
339.9603367740871
 20
276.2872527578132
 30
0.0
 10
343.6398738263623
 20
275.7664336873851
 30
0.0
 10
344.8656850046953
 20
275.5939058013169
 30
0.0
 10
347.3158845484304
 20
275.2515270357028
 30
0.0
 10
348.5402725940634
 20
275.0816758244792
 30
0.0
 10
350.987648268071
 20
274.7453693761727
 30
0.0
 10
352.210635580051
 20
274.5789141435059
 30
0.0
 10
354.0441228440268
 20
274.3324715027575
 30
0.0
 10
354.6551185062837
 20
274.2508608251067
 30
0.0
 10
355.8768016290421
 20
274.0888778564518
 30
0.0
 10
356.4874986884956
 20
274.0085364597319
 30
0.0
 10
358.3194133423333
 20
273.7703212612927
 30
0.0
 10
359.5404625630196
 20
273.6153020003766
 30
0.0
 10
361.9832944338036
 20
273.3163139565618
 30
0.0
 10
363.2050772557476
 20
273.1723389148791
 30
0.0
 10
365.0389963258443
 20
272.966225072406
 30
0.0
 10
365.6505080736648
 20
272.8991517230347
 30
0.0
 10
366.8740346932915
 20
272.768419760983
 30
0.0
 10
367.486086944853
 20
272.7047570140414
 30
0.0
 10
369.3228350322612
 20
272.5190571801214
 30
0.0
 10
370.5479955492205
 20
272.4023366731822
 30
0.0
 10
373.0001936333789
 20
272.1832352092044
 30
0.0
 10
374.2272360334703
 20
272.0808345577628
 30
0.0
 10
376.6828815921978
 20
271.8883283037546
 30
0.0
 10
377.9114860522482
 20
271.7982321435151
 30
0.0
 10
380.3700749925658
 20
271.628986487726
 30
0.0
 10
381.6000611579297
 20
271.5498444144798
 30
0.0
 10
384.0613263232943
 20
271.4015286048188
 30
0.0
 10
385.2926067136429
 20
271.332359475055
 30
0.0
 10
388.9883251388765
 20
271.1386208079479
 30
0.0
 10
391.4546510345393
 20
271.0278064671838
 30
0.0
 10
396.3920089908008
 20
270.8373958349672
 30
0.0
 10
398.8630465061803
 20
270.7577930671952
 30
0.0
 10
402.5726190919916
 20
270.6582043604947
 30
0.0
 10
403.8097088458578
 20
270.6283157323526
 30
0.0
 10
406.2843268715731
 20
270.5746767773301
 30
0.0
 10
407.5218787925966
 20
270.5509260569405
 30
0.0
 10
411.2351482737159
 20
270.488265171696
 30
0.0
 10
413.7114833698786
 20
270.4579107564836
 30
0.0
 10
418.6652037816899
 20
270.4177784234299
 30
0.0
 10
421.1425927818575
 20
270.4079935137005
 30
0.0
 10
423.6201196330487
 20
270.4079935137005
 30
0.0
  0
SPLINE
  5
1DD
330
1F
100
AcDbEntity
  8
1
100
AcDbSpline
210
0.0
220
0.0
230
1.0
 70
     8
 71
     3
 72
    68
 73
    64
 74
     0
 42
0.000000001
 43
0.0000000001
 40
0.0
 40
0.0
 40
0.0
 40
0.0
 40
0.0536277638225534
 40
0.0536277638225534
 40
0.116719246234383
 40
0.116719246234383
 40
0.1482649874402977
 40
0.1482649874402977
 40
0.1798107286462125
 40
0.1798107286462125
 40
0.2429022110580421
 40
0.2429022110580421
 40
0.2744479522639569
 40
0.2744479522639569
 40
0.3059936934698717
 40
0.3059936934698717
 40
0.3690851758817015
 40
0.3690851758817015
 40
0.4006309170876165
 40
0.4006309170876165
 40
0.4164037876905741
 40
0.4164037876905741
 40
0.4321766582935315
 40
0.4321766582935315
 40
0.4637223994994465
 40
0.4637223994994465
 40
0.4952681407053614
 40
0.4952681407053614
 40
0.5268138819112762
 40
0.5268138819112762
 40
0.5583596231171912
 40
0.5583596231171912
 40
0.5899053643231063
 40
0.5899053643231063
 40
0.6214511055290212
 40
0.6214511055290212
 40
0.6529968467349363
 40
0.6529968467349363
 40
0.6845425879408513
 40
0.6845425879408513
 40
0.7160883291467664
 40
0.7160883291467664
 40
0.7476340703526813
 40
0.7476340703526813
 40
0.7791798115585963
 40
0.7791798115585963
 40
0.8107255527645113
 40
0.8107255527645113
 40
0.8422712939704261
 40
0.8422712939704261
 40
0.8738170351763411
 40
0.8738170351763411
 40
0.9053627763822563
 40
0.9053627763822563
 40
0.9369085175881714
 40
0.9369085175881714
 40
0.9526813881911284
 40
0.9526813881911284
 40
0.9684542587940857
 40
0.9684542587940857
 40
0.9842271293970428
 40
0.9842271293970428
 40
1.0
 40
1.0
 40
1.0
 40
1.0
 10
304.088348964996
 20
307.4079931697012
 30
0.0
 10
306.323559676239
 20
307.4080399225539
 30
0.0
 10
308.5570582699563
 20
307.3979839755147
 30
0.0
 10
313.4147814758839
 20
307.3505725037116
 30
0.0
 10
316.0384007370212
 20
307.3086860694981
 30
0.0
 10
319.9712207962212
 20
307.2178853423626
 30
0.0
 10
321.2817834943333
 20
307.1829611920963
 30
0.0
 10
323.9017799842829
 20
307.1033358549259
 30
0.0
 10
325.2112439408612
 20
307.058633427992
 30
0.0
 10
329.138303481867
 20
306.9093236008224
 30
0.0
 10
331.7545544254417
 20
306.7894277070484
 30
0.0
 10
335.6775832975111
 20
306.578273016104
 30
0.0
 10
336.9850383360538
 20
306.5026902504384
 30
0.0
 10
339.5997597283096
 20
306.3412653929394
 30
0.0
 10
340.9069348018773
 20
306.2554286758656
 30
0.0
 10
344.8279420696431
 20
305.9830647003989
 30
0.0
 10
347.4414078116474
 20
305.7815956989973
 30
0.0
 10
351.3624435799877
 20
305.4531010084588
 30
0.0
 10
352.6695949038472
 20
305.3392418447768
 30
0.0
 10
354.6307249406591
 20
305.1625103648354
 30
0.0
 10
355.2845065746599
 20
305.102622168459
 30
0.0
 10
356.5922081124809
 20
304.9809081447281
 30
0.0
 10
357.2461271513079
 20
304.919067384893
 30
0.0
 10
359.2078393981414
 20
304.7304680739347
 30
0.0
 10
360.5156378749618
 20
304.6006187392063
 30
0.0
 10
363.1309975652539
 20
304.3320800532682
 30
0.0
 10
364.4385591341438
 20
304.1933871220459
 30
0.0
 10
367.053387564412
 20
303.9068656633971
 30
0.0
 10
368.3606553174554
 20
303.7590358153628
 30
0.0
 10
370.9749806395735
 20
303.4543421740147
 30
0.0
 10
372.2820308390694
 20
303.2974498927377
 30
0.0
 10
374.8961606931207
 20
302.9752929256385
 30
0.0
 10
376.2032333683263
 20
302.810094379832
 30
0.0
 10
378.8172896844447
 20
302.4725730785915
 30
0.0
 10
380.1243286591374
 20
302.3002439172398
 30
0.0
 10
382.7386356141442
 20
301.9492870814162
 30
0.0
 10
384.045903122476
 20
301.7706596961144
 30
0.0
 10
386.6607918721827
 20
301.4077083207437
 30
0.0
 10
387.9684127932296
 20
301.2233847851226
 30
0.0
 10
390.5840635912059
 20
300.849395423628
 30
0.0
 10
391.8921351598712
 20
300.6597241700114
 30
0.0
 10
394.5084847363016
 20
300.2751572573868
 30
0.0
 10
395.8166941020913
 20
300.0802728423626
 30
0.0
 10
398.4331210506883
 20
299.6851009876456
 30
0.0
 10
399.741338611629
 20
299.4848145770597
 30
0.0
 10
402.3576617612135
 20
299.078317373946
 30
0.0
 10
403.6657672655097
 20
298.8721073771372
 30
0.0
 10
406.2816882173104
 20
298.4528908338907
 30
0.0
 10
407.5895107770046
 20
298.2399200320879
 30
0.0
 10
410.2045279149911
 20
297.8054437923465
 30
0.0
 10
411.511737905906
 20
297.5838939234811
 30
0.0
 10
414.1249197792721
 20
297.131475735409
 30
0.0
 10
415.4309466425422
 20
296.9005816303408
 30
0.0
 10
418.0421085454343
 20
296.4302550805125
 30
0.0
 10
419.3472402502951
 20
296.1908007882761
 30
0.0
 10
421.3047775345506
 20
295.8274488308024
 30
0.0
 10
421.9572670624099
 20
295.7056555396794
 30
0.0
 10
423.2623363726381
 20
295.4613561179617
 30
0.0
 10
423.9149160201153
 20
295.3388490693715
 30
0.0
 10
425.2203398154208
 20
295.0939666273646
 30
0.0
 10
425.8731804960706
 20
294.971590802568
 30
0.0
 10
427.1791721678379
 20
294.7280840135476
 30
0.0
 10
427.8323406797858
 20
294.6069482983427
 30
0.0
 10
428.4857969220741
 20
294.4871120069736
 30
0.0
  0
SPLINE
  5
1DE
330
1F
100
AcDbEntity
  8
1
100
AcDbSpline
210
0.0
220
0.0
230
1.0
 70
     8
 71
     3
 72
    46
 73
    42
 74
     0
 42
0.000000001
 43
0.0000000001
 40
0.0
 40
0.0
 40
0.0
 40
0.0
 40
0.1250000000000041
 40
0.1250000000000041
 40
0.2500000000000083
 40
0.2500000000000083
 40
0.2812500000000093
 40
0.2812500000000093
 40
0.3125000000000103
 40
0.3125000000000103
 40
0.3750000000000119
 40
0.3750000000000119
 40
0.4375000000000136
 40
0.4375000000000136
 40
0.5000000000000152
 40
0.5000000000000152
 40
0.5625000000000169
 40
0.5625000000000169
 40
0.6250000000000185
 40
0.6250000000000185
 40
0.6562500000000194
 40
0.6562500000000194
 40
0.6875000000000201
 40
0.6875000000000201
 40
0.750000000000021
 40
0.750000000000021
 40
0.8125000000000218
 40
0.8125000000000218
 40
0.8281250000000202
 40
0.8281250000000202
 40
0.8437500000000184
 40
0.8437500000000184
 40
0.8750000000000143
 40
0.8750000000000143
 40
0.9375000000000067
 40
0.9375000000000067
 40
0.9687500000000031
 40
0.9687500000000031
 40
0.9843750000000015
 40
0.9843750000000015
 40
1.0
 40
1.0
 40
1.0
 40
1.0
 10
430.0169752962239
 20
297.6055136249733
 30
0.0
 10
430.2552192582601
 20
297.7039698414671
 30
0.0
 10
430.4907614001987
 20
297.8079279116678
 30
0.0
 10
430.9553820424269
 20
298.0290062943623
 30
0.0
 10
431.1844691343447
 20
298.1461091112876
 30
0.0
 10
431.4658426570523
 20
298.3026395383484
 30
0.0
 10
431.5218665395012
 20
298.3344563855471
 30
0.0
 10
431.6333816219715
 20
298.399174808269
 30
0.0
 10
431.6889007576266
 20
298.4320942619545
 30
0.0
 10
431.8541094483688
 20
298.5322785070231
 30
0.0
 10
431.9625956466463
 20
298.6010461042445
 30
0.0
 10
432.1758877978476
 20
298.742985538505
 30
0.0
 10
432.280694832329
 20
298.8161560812179
 30
0.0
 10
432.4861598400164
 20
298.9674624499657
 30
0.0
 10
432.5868195147084
 20
299.0455962397905
 30
0.0
 10
432.7833845475098
 20
299.2075534266237
 30
0.0
 10
432.879292721186
 20
299.2913734541742
 30
0.0
 10
433.0655476038136
 20
299.4656690504231
 30
0.0
 10
433.1558992783039
 20
299.5561386767394
 30
0.0
 10
433.2864150680858
 20
299.6978407667137
 30
0.0
 10
433.329082161852
 20
299.7460778546828
 30
0.0
 10
433.4125534682505
 20
299.8447813861334
 30
0.0
 10
433.4533895058872
 20
299.8952882952304
 30
0.0
 10
433.5725643143341
 20
300.0503077847296
 30
0.0
 10
433.6464844524646
 20
300.1568659802069
 30
0.0
 10
433.7814262710859
 20
300.3774742607986
 30
0.0
 10
433.8424604786916
 20
300.4915170697127
 30
0.0
 10
433.9090707253466
 20
300.6396945337125
 30
0.0
 10
433.9219061622197
 20
300.6696126685874
 30
0.0
 10
433.9465517184412
 20
300.730044479754
 30
0.0
 10
433.9583524569664
 20
300.7605436470279
 30
0.0
 10
433.9918676559366
 20
300.8521998494917
 30
0.0
 10
434.0117988380368
 20
300.9137609786458
 30
0.0
 10
434.0640802740204
 20
301.0998674949162
 30
0.0
 10
434.0889359632578
 20
301.2258326869074
 30
0.0
 10
434.109838459932
 20
301.4178837740913
 30
0.0
 10
434.1140716436783
 20
301.4824188044183
 30
0.0
 10
434.1161042744041
 20
301.5800392097387
 30
0.0
 10
434.1160607657183
 20
301.612757631302
 30
0.0
 10
434.114499331742
 20
301.6782801494916
 30
0.0
 10
434.1129851608356
 20
301.7110108664389
 30
0.0
 10
434.1107395028841
 20
301.7437111231422
 30
0.0
  0
SPLINE
  5
1DF
330
1F
100
AcDbEntity
  8
1
100
AcDbSpline
210
0.0
220
0.0
230
1.0
 70
    12
 71
     3
 72
     9
 73
     5
 74
     0
 42
0.000000001
 43
0.0000000001
 40
0.0
 40
0.0
 40
0.0
 40
0.0
 40
0.4078122884941319
 40
1.0
 40
1.0
 40
1.0
 40
1.0
 10
386.6047580623444
 20
301.4138406861964
 30
0.0
 41
1.003110556441232
 10
393.0932250414768
 20
301.445294710462
 30
0.0
 41
1.001795502638822
 10
409.0654225226226
 20
301.0926005511674
 30
0.0
 41
0.9985241931210458
 10
424.7832873074334
 20
300.7443215543372
 30
0.0
 41
1.003419002385417
 10
434.1107395028841
 20
301.7437111231422
 30
0.0
 41
1.00256224621138
  0
SPLINE
  5
1E0
330
1F
100
AcDbEntity
  8
1
100
AcDbSpline
210
0.0
220
0.0
230
1.0
 70
     8
 71
     3
 72
    30
 73
    26
 74
     0
 42
0.000000001
 43
0.0000000001
 40
0.0
 40
0.0
 40
0.0
 40
0.0
 40
0.0624999999999998
 40
0.0624999999999998
 40
0.1249999999999996
 40
0.1249999999999996
 40
0.2499999999999991
 40
0.2499999999999991
 40
0.3749999999999987
 40
0.3749999999999987
 40
0.4999999999999983
 40
0.4999999999999983
 40
0.5624999999999982
 40
0.5624999999999982
 40
0.5937499999999984
 40
0.5937499999999984
 40
0.6249999999999988
 40
0.6249999999999988
 40
0.7499999999999992
 40
0.7499999999999992
 40
0.8749999999999996
 40
0.8749999999999996
 40
0.9374999999999998
 40
0.9374999999999998
 40
1.0
 40
1.0
 40
1.0
 40
1.0
 10
287.9926239639547
 20
271.0673583725569
 30
0.0
 10
287.7776588577089
 20
271.0932099102408
 30
0.0
 10
287.5652909367718
 20
271.1165369027624
 30
0.0
 10
287.1453372787349
 20
271.1588632791806
 30
0.0
 10
286.9377525746937
 20
271.1778618606418
 30
0.0
 10
286.3217188509594
 20
271.229333957433
 30
0.0
 10
285.9199600626562
 20
271.2563002310976
 30
0.0
 10
285.1327968184127
 20
271.3001286608286
 30
0.0
 10
284.7474032362222
 20
271.3169764101557
 30
0.0
 10
283.9923427720205
 20
271.3447669761778
 30
0.0
 10
283.6226806658464
 20
271.3556960840035
 30
0.0
 10
283.079974225155
 20
271.3708482235626
 30
0.0
 10
282.9010409642287
 20
271.3756936154094
 30
0.0
 10
282.6356311219718
 20
271.3830844939559
 30
0.0
 10
282.5476512352463
 20
271.3855692414095
 30
0.0
 10
282.3731510076357
 20
271.3906426844064
 30
0.0
 10
282.2865728328207
 20
271.3932329536934
 30
0.0
 10
281.8570373097706
 20
271.4066442568954
 30
0.0
 10
281.5241193830005
 20
271.4188094156356
 30
0.0
 10
280.8800186324876
 20
271.4514140156724
 30
0.0
 10
280.5688305261453
 20
271.47181928496
 30
0.0
 10
280.1191381135455
 20
271.5137118781919
 30
0.0
 10
279.9720951039915
 20
271.529570786593
 30
0.0
 10
279.6839424519264
 20
271.5661739441467
 30
0.0
 10
279.5428319690813
 20
271.5869151532106
 30
0.0
 10
279.4048419453069
 20
271.6107696846938
 30
0.0
  0
SPLINE
  5
1E1
330
1F
100
AcDbEntity
  8
1
100
AcDbSpline
210
0.0
220
0.0
230
1.0
 70
     8
 71
     3
 72
    49
 73
    45
 74
     0
 42
0.000000001
 43
0.0000000001
 40
0.0
 40
0.0
 40
0.0
 40
0.0
 40
0.0625000000000018
 40
0.0625000000000018
 40
0.1250000000000036
 40
0.1250000000000036
 40
0.1875000000000054
 40
0.1875000000000054
 40
0.2187500000000065
 40
0.2343750000000069
 40
0.2343750000000069
 40
0.2500000000000073
 40
0.2500000000000073
 40
0.3125000000000079
 40
0.3750000000000084
 40
0.437500000000009
 40
0.437500000000009
 40
0.4687500000000093
 40
0.484375000000009
 40
0.484375000000009
 40
0.5000000000000088
 40
0.5000000000000088
 40
0.5625000000000081
 40
0.5625000000000081
 40
0.6250000000000076
 40
0.6250000000000076
 40
0.687500000000007
 40
0.687500000000007
 40
0.7031250000000068
 40
0.7031250000000068
 40
0.7187500000000067
 40
0.7187500000000067
 40
0.7500000000000062
 40
0.7500000000000062
 40
0.8125000000000047
 40
0.8125000000000047
 40
0.8750000000000033
 40
0.8750000000000033
 40
0.9375000000000021
 40
0.9375000000000021
 40
0.9531250000000015
 40
0.9531250000000015
 40
0.9687500000000012
 40
1.0
 40
1.0
 40
1.0
 40
1.0
 10
279.4048419452957
 20
279.6286097911351
 30
0.0
 10
279.2571791018854
 20
279.4563357377681
 30
0.0
 10
279.1174410150552
 20
279.2813987522651
 30
0.0
 10
278.853936622912
 20
278.9264961851231
 30
0.0
 10
278.7301694442983
 20
278.7465305562878
 30
0.0
 10
278.4989977960791
 20
278.3817648024808
 30
0.0
 10
278.3915915603008
 20
278.1969649229036
 30
0.0
 10
278.2432782255275
 20
277.9162057790715
 30
0.0
 10
278.1723244144695
 20
277.7749351066225
 30
0.0
 10
278.1063124359873
 20
277.6323279299776
 30
0.0
 10
278.0634209628284
 20
277.5369585715911
 30
0.0
 10
278.042518856153
 20
277.4890873423219
 30
0.0
 10
277.941342418723
 20
277.2501857194246
 30
0.0
 10
277.799972397532
 20
276.8691538854241
 30
0.0
 10
277.6487224103682
 20
276.3019658439803
 30
0.0
 10
277.5886401197477
 20
275.9271569743684
 30
0.0
 10
277.5592134535348
 20
275.6474254608447
 30
0.0
 10
277.5484132369725
 20
275.5079031655713
 30
0.0
 10
277.5435908038165
 20
275.3689179853274
 30
0.0
 10
277.5417193694821
 20
275.2763828156975
 30
0.0
 10
277.5414591625185
 20
275.2303605482516
 30
0.0
 10
277.5434927488612
 20
275.0015422486586
 30
0.0
 10
277.5557723293877
 20
274.8225360594614
 30
0.0
 10
277.6007688904223
 20
274.4722944539216
 30
0.0
 10
277.633488057684
 20
274.3010595768465
 30
0.0
 10
277.718876901598
 20
273.9661071851958
 30
0.0
 10
277.7715477876602
 20
273.8023900486074
 30
0.0
 10
277.8497539576063
 20
273.6023196512749
 30
0.0
 10
277.8660143227993
 20
273.5625344998945
 30
0.0
 10
277.8997737137211
 20
273.4834194731579
 30
0.0
 10
277.9172914773719
 20
273.4440513714389
 30
0.0
 10
277.9714772030893
 20
273.3271049510046
 30
0.0
 10
278.0098184322274
 20
273.2505727553027
 30
0.0
 10
278.1312658140124
 20
273.0250816747384
 30
0.0
 10
278.2207858257315
 20
272.880222887316
 30
0.0
 10
278.4159883771238
 20
272.6005766092726
 30
0.0
 10
278.521673346918
 20
272.4657906599314
 30
0.0
 10
278.7485508298015
 20
272.2055831046796
 30
0.0
 10
278.8697449396608
 20
272.0801625709082
 30
0.0
 10
279.0306619543331
 20
271.9288703564945
 30
0.0
 10
279.0633060681698
 20
271.8988974593387
 30
0.0
 10
279.1293958285628
 20
271.8396100788242
 30
0.0
 10
279.2297786613163
 20
271.7516234487545
 30
0.0
 10
279.3338551778048
 20
271.6664049657236
 30
0.0
 10
279.404841945306
 20
271.6107696846876
 30
0.0
  0
SPLINE
  5
1E2
330
1F
100
AcDbEntity
  8
1
100
AcDbSpline
210
0.0
220
0.0
230
1.0
 70
     9
 71
     3
 72
   133
 73
   129
 74
     0
 42
0.000000001
 43
0.0000000001
 40
0.0
 40
0.0
 40
0.0
 40
0.0
 40
0.0312499999999294
 40
0.0312499999999294
 40
0.0468749999998944
 40
0.0468749999998944
 40
0.0624999999998594
 40
0.0624999999998594
 40
0.0937499999997893
 40
0.0937499999997893
 40
0.1093749999997567
 40
0.1093749999997567
 40
0.1249999999997241
 40
0.1249999999997241
 40
0.1562499999996654
 40
0.1562499999996654
 40
0.1640624999996508
 40
0.1640624999996508
 40
0.1718749999996362
 40
0.1718749999996362
 40
0.1874999999996151
 40
0.2031249999995939
 40
0.2031249999995939
 40
0.2109374999995877
 40
0.2109374999995877
 40
0.2187499999995815
 40
0.2187499999995815
 40
0.2499999999995743
 40
0.2499999999995743
 40
0.2656249999995752
 40
0.2656249999995752
 40
0.2734374999995712
 40
0.2734374999995712
 40
0.2812499999995672
 40
0.2812499999995672
 40
0.3124999999995687
 40
0.3124999999995687
 40
0.3203124999995732
 40
0.3203124999995732
 40
0.3281249999995777
 40
0.3281249999995777
 40
0.3437499999995865
 40
0.3593749999995953
 40
0.3593749999995953
 40
0.3671874999995963
 40
0.3671874999995963
 40
0.3749999999995972
 40
0.3749999999995972
 40
0.4062499999995889
 40
0.4062499999995889
 40
0.4218749999995847
 40
0.4218749999995847
 40
0.4296874999995827
 40
0.4296874999995827
 40
0.4374999999995805
 40
0.4374999999995805
 40
0.4687499999995687
 40
0.4687499999995687
 40
0.4765624999995667
 40
0.4765624999995667
 40
0.4843749999995647
 40
0.4843749999995647
 40
0.4999999999995599
 40
0.4999999999995599
 40
0.5312499999995504
 40
0.5312499999995504
 40
0.5390624999995496
 40
0.5390624999995496
 40
0.5468749999995487
 40
0.5468749999995487
 40
0.5624999999995466
 40
0.5781249999995445
 40
0.5781249999995445
 40
0.5859374999995456
 40
0.5859374999995456
 40
0.5937499999995467
 40
0.5937499999995467
 40
0.6249999999995559
 40
0.6249999999995559
 40
0.6406249999995606
 40
0.6406249999995606
 40
0.648437499999563
 40
0.648437499999563
 40
0.6562499999995654
 40
0.6562499999995654
 40
0.6874999999995822
 40
0.6874999999995822
 40
0.6953124999995905
 40
0.6953124999995905
 40
0.7031249999995988
 40
0.7031249999995988
 40
0.7187499999996154
 40
0.7187499999996154
 40
0.7499999999996573
 40
0.7499999999996573
 40
0.7578124999996656
 40
0.7578124999996656
 40
0.7656249999996739
 40
0.7656249999996739
 40
0.7812499999996902
 40
0.7968749999997068
 40
0.7968749999997068
 40
0.8046874999997191
 40
0.8046874999997191
 40
0.8124999999997315
 40
0.8124999999997315
 40
0.8437499999997731
 40
0.8437499999997731
 40
0.8515624999997836
 40
0.8515624999997836
 40
0.8593749999997941
 40
0.8593749999997941
 40
0.8749999999998152
 40
0.8749999999998152
 40
0.9062499999998511
 40
0.9062499999998511
 40
0.9140624999998639
 40
0.9140624999998639
 40
0.9218749999998763
 40
0.9218749999998763
 40
0.9374999999999015
 40
0.9531249999999271
 40
0.9531249999999271
 40
0.9609374999999399
 40
0.9609374999999399
 40
0.9687499999999527
 40
0.9687499999999527
 40
1.0
 40
1.0
 40
1.0
 40
1.0
 10
443.9691615337857
 20
284.6141862655651
 30
0.0
 10
443.9708110226809
 20
284.7086854210798
 30
0.0
 10
443.9815900477588
 20
284.8017043285171
 30
0.0
 10
444.0110802544626
 20
284.9390541285503
 30
0.0
 10
444.0231461684676
 20
284.984471512963
 30
0.0
 10
444.0518772743424
 20
285.0745472306257
 30
0.0
 10
444.0686414205466
 20
285.1193882918946
 30
0.0
 10
444.1249380483889
 20
285.2499738135322
 30
0.0
 10
444.1705818891703
 20
285.3325826209478
 30
0.0
 10
444.2512041301298
 20
285.4497748934825
 30
0.0
 10
444.2801178890828
 20
285.4877112289194
 30
0.0
 10
444.3422005121415
 20
285.5612202594693
 30
0.0
 10
444.3748653570692
 20
285.596192083408
 30
0.0
 10
444.4774408848257
 20
285.6957495725392
 30
0.0
 10
444.5519504700981
 20
285.7551008842417
 30
0.0
 10
444.6529244186988
 20
285.8202602861547
 30
0.0
 10
444.6735396992048
 20
285.8328510176528
 30
0.0
 10
444.7154735750215
 20
285.8570363631871
 30
0.0
 10
444.7366614802096
 20
285.8685573269728
 30
0.0
 10
444.8008748426994
 20
285.9014379372075
 30
0.0
 10
444.8882217997415
 20
285.9408009429244
 30
0.0
 10
444.9789660922924
 20
285.9713526474066
 30
0.0
 10
445.0483133979087
 20
285.9909188938736
 30
0.0
 10
445.0716444057905
 20
285.9968820479766
 30
0.0
 10
445.118744363382
 20
286.0076705580964
 30
0.0
 10
445.142582575142
 20
286.0125071854546
 30
0.0
 10
445.261911373373
 20
286.0336086097842
 30
0.0
 10
445.3576065139245
 20
286.0407563068297
 30
0.0
 10
445.5014865582278
 20
286.0373234585232
 30
0.0
 10
445.5495032201326
 20
286.0338025067585
 30
0.0
 10
445.6216157319166
 20
286.0248501695854
 30
0.0
 10
445.6456940165239
 20
286.0212446907474
 30
0.0
 10
445.6933351632596
 20
286.0128860909224
 30
0.0
 10
445.7169647886907
 20
286.0081264040541
 30
0.0
 10
445.8341748075778
 20
285.9814776940504
 30
0.0
 10
445.9249685029546
 20
285.9511207989294
 30
0.0
 10
446.0347246638961
 20
285.9018498346651
 30
0.0
 10
446.0564873683971
 20
285.8914242083459
 30
0.0
 10
446.0996281124469
 20
285.8694079390714
 30
0.0
 10
446.1208866397184
 20
285.8578762541183
 30
0.0
 10
446.1834603787018
 20
285.8218946649215
 30
0.0
 10
446.2639397075263
 20
285.7701052253045
 30
0.0
 10
446.3386564177346
 20
285.710888688035
 30
0.0
 10
446.3925233180705
 20
285.6636857669786
 30
0.0
 10
446.4101165364387
 20
285.6474855496813
 30
0.0
 10
446.4445685892155
 20
285.6141422408102
 30
0.0
 10
446.4614660385861
 20
285.5969573054036
 30
0.0
 10
446.5436098189454
 20
285.5091376764233
 30
0.0
 10
446.6012300910936
 20
285.4336580076008
 30
0.0
 10
446.6760664418031
 20
285.3130171820589
 30
0.0
 10
446.6990653058521
 20
285.2715573995504
 30
0.0
 10
446.7305865901379
 20
285.2074688372715
 30
0.0
 10
446.740617584195
 20
285.1857355443343
 30
0.0
 10
446.7594869168141
 20
285.142054604587
 30
0.0
 10
446.768344635759
 20
285.1200741472514
 30
0.0
 10
446.8098091222913
 20
285.009489277428
 30
0.0
 10
446.8340211980017
 20
284.9188570204134
 30
0.0
 10
446.8532470817353
 20
284.802930557382
 30
0.0
 10
446.8565354837107
 20
284.7796122260244
 30
0.0
 10
446.861983157809
 20
284.7327062255411
 30
0.0
 10
446.8641407163028
 20
284.70909505751
 30
0.0
 10
446.8688535079996
 20
284.6385959034577
 30
0.0
 10
446.8696868329486
 20
284.5918024812702
 30
0.0
 10
446.8654750340993
 20
284.452022619399
 30
0.0
 10
446.8537805503883
 20
284.3596322613562
 30
0.0
 10
446.8278052606818
 20
284.2451479952938
 30
0.0
 10
446.8220274348682
 20
284.222278034532
 30
0.0
 10
446.8094426087795
 20
284.1771108855887
 30
0.0
 10
446.8026240219987
 20
284.1547558358247
 30
0.0
 10
446.7806153272367
 20
284.088363747993
 30
0.0
 10
446.7471360375316
 20
284.0016328732657
 30
0.0
 10
446.7054775695684
 20
283.9184288738296
 30
0.0
 10
446.6711106412335
 20
283.8573640611846
 30
0.0
 10
446.6591335557853
 20
283.8372325381183
 30
0.0
 10
446.6341152942581
 20
283.7974238038758
 30
0.0
 10
446.6210384890516
 20
283.7776985608194
 30
0.0
 10
446.5535794090073
 20
283.6811505719845
 30
0.0
 10
446.4928116609129
 20
283.6100588555242
 30
0.0
 10
446.3915653030271
 20
283.5124514938367
 30
0.0
 10
446.3561220490486
 20
283.4814315140846
 30
0.0
 10
446.3003139879892
 20
283.4372535888862
 30
0.0
 10
446.2812183034233
 20
283.422884135806
 30
0.0
 10
446.2423754328299
 20
283.3951362055608
 30
0.0
 10
446.2226730275083
 20
283.3817853015892
 30
0.0
 10
446.1227752650008
 20
283.3176053182569
 30
0.0
 10
446.0384630343996
 20
283.2744240278377
 30
0.0
 10
445.9274760686556
 20
283.2307710324397
 30
0.0
 10
445.9049962982546
 20
283.2225613880997
 30
0.0
 10
445.8594587558363
 20
283.2072069458481
 30
0.0
 10
445.8363387659926
 20
283.2000450427521
 30
0.0
 10
445.7665427387165
 20
283.1803311470039
 30
0.0
 10
445.719692363175
 20
283.1696048137167
 30
0.0
 10
445.5782071732572
 20
283.144473196048
 30
0.0
 10
445.4826473217032
 20
283.1370454882594
 30
0.0
 10
445.3615979568254
 20
283.1398122188605
 30
0.0
 10
445.3372555874363
 20
283.1409805625053
 30
0.0
 10
445.2889682998038
 20
283.1445142510822
 30
0.0
 10
445.2649639402473
 20
283.1468783570124
 30
0.0
 10
445.193360396761
 20
283.1557274812447
 30
0.0
 10
445.0989790898391
 20
283.1722023699354
 30
0.0
 10
445.0067389096179
 20
283.1978744812705
 30
0.0
 10
444.9383704716654
 20
283.2206225807436
 30
0.0
 10
444.9156970969879
 20
283.2287962703593
 30
0.0
 10
444.8707070594484
 20
283.2462997374516
 30
0.0
 10
444.848543071979
 20
283.2555689305169
 30
0.0
 10
444.7393336871751
 20
283.3044365259834
 30
0.0
 10
444.6570728423802
 20
283.3515250756637
 30
0.0
 10
444.5604171165868
 20
283.4201206012395
 30
0.0
 10
444.5413973778848
 20
283.4343310414558
 30
0.0
 10
444.5039869541753
 20
283.4637465680314
 30
0.0
 10
444.4855742244276
 20
283.4789748487064
 30
0.0
 10
444.4318503856569
 20
283.5256753057913
 30
0.0
 10
444.3978605770525
 20
283.5583003558943
 30
0.0
 10
444.3011654622043
 20
283.6605070605394
 30
0.0
 10
444.243684299224
 20
283.7343790902309
 30
0.0
 10
444.1806757240946
 20
283.8340583691472
 30
0.0
 10
444.1685654310604
 20
283.8542975185849
 30
0.0
 10
444.1454611394214
 20
283.8951224293018
 30
0.0
 10
444.1344429769491
 20
283.9157460417742
 30
0.0
 10
444.1029631289876
 20
283.9782417232608
 30
0.0
 10
444.0651817202961
 20
284.0632328583433
 30
0.0
 10
444.0356803282711
 20
284.1515302227317
 30
0.0
 10
444.016710599251
 20
284.2190197034737
 30
0.0
 10
444.0109143418628
 20
284.2417276309115
 30
0.0
 10
444.0003961907552
 20
284.2875753479169
 30
0.0
 10
443.9956888813341
 20
284.3106619804876
 30
0.0
 10
443.9750371812198
 20
284.4262124311216
 30
0.0
 10
443.9675120448906
 20
284.5196871100498
 30
0.0
 10
443.9691615337857
 20
284.614186265565
 30
0.0
  0
SPLINE
  5
1E3
330
1F
100
AcDbEntity
  8
1
100
AcDbSpline
210
0.0
220
0.0
230
1.0
 70
     8
 71
     3
 72
    17
 73
    13
 74
     0
 42
0.000000001
 43
0.0000000001
 40
0.0
 40
0.0
 40
0.0
 40
0.0
 40
0.25
 40
0.5
 40
0.5
 40
0.75
 40
0.75
 40
0.875
 40
0.875
 40
0.9375
 40
0.9375
 40
1.0
 40
1.0
 40
1.0
 40
1.0
 10
300.3179800119612
 20
270.4102246361379
 30
0.0
 10
300.5255062215355
 20
270.4089774139587
 30
0.0
 10
300.9445904991636
 20
270.4078162899089
 30
0.0
 10
301.3717344096263
 20
270.4079830773356
 30
0.0
 10
301.8029719818652
 20
270.4083262246866
 30
0.0
 10
302.0206373240445
 20
270.408585852272
 30
0.0
 10
302.3503062938122
 20
270.4088755274973
 30
0.0
 10
302.4607250202143
 20
270.4089568594629
 30
0.0
 10
302.6271650001214
 20
270.4090402073189
 30
0.0
 10
302.6828533205527
 20
270.4090616520727
 30
0.0
 10
302.7939860037192
 20
270.4090902906007
 30
0.0
 10
302.8494597762699
 20
270.4090975188843
 30
0.0
 10
302.904841945296
 20
270.4090975188843
 30
0.0
  0
SPLINE
  5
1E4
330
1F
100
AcDbEntity
  8
1
100
AcDbSpline
210
0.0
220
0.0
230
1.0
 70
     8
 71
     3
 72
     8
 73
     4
 74
     0
 42
0.000000001
 43
0.0000000001
 40
0.0
 40
0.0
 40
0.0
 40
0.0
 40
1.0
 40
1.0
 40
1.0
 40
1.0
 10
304.7040545867846
 20
270.4144758805957
 30
0.0
 10
304.1044786515461
 20
270.4119150450146
 30
0.0
 10
303.504744082486
 20
270.4101354225041
 30
0.0
 10
302.9048419452957
 20
270.4090975188843
 30
0.0
  0
SPLINE
  5
1E5
330
1F
100
AcDbEntity
  8
1
100
AcDbSpline
210
0.0
220
0.0
230
1.0
 70
     8
 71
     3
 72
   134
 73
   130
 74
     0
 42
0.000000001
 43
0.0000000001
 40
0.0
 40
0.0
 40
0.0
 40
0.0
 40
0.0156249999999989
 40
0.0156249999999989
 40
0.0312499999999979
 40
0.0312499999999979
 40
0.0468749999999968
 40
0.0468749999999968
 40
0.0624999999999957
 40
0.0624999999999957
 40
0.0781249999999946
 40
0.0781249999999946
 40
0.0937499999999936
 40
0.1093749999999925
 40
0.1093749999999925
 40
0.1171874999999923
 40
0.1171874999999923
 40
0.1249999999999921
 40
0.140624999999992
 40
0.140624999999992
 40
0.1484374999999915
 40
0.1484374999999915
 40
0.1562499999999911
 40
0.1562499999999911
 40
0.1874999999999886
 40
0.1874999999999886
 40
0.2031249999999873
 40
0.2031249999999873
 40
0.2187499999999862
 40
0.2187499999999862
 40
0.2343749999999851
 40
0.2343749999999851
 40
0.249999999999984
 40
0.249999999999984
 40
0.2656249999999828
 40
0.2656249999999828
 40
0.2812499999999817
 40
0.2968749999999806
 40
0.2968749999999806
 40
0.3046874999999802
 40
0.3046874999999802
 40
0.3124999999999798
 40
0.3281249999999791
 40
0.3281249999999791
 40
0.3359374999999789
 40
0.3359374999999789
 40
0.3437499999999785
 40
0.3437499999999785
 40
0.3749999999999775
 40
0.3749999999999775
 40
0.3906249999999771
 40
0.3906249999999771
 40
0.4062499999999766
 40
0.4062499999999766
 40
0.4218749999999762
 40
0.4218749999999762
 40
0.4374999999999757
 40
0.4531249999999753
 40
0.4531249999999753
 40
0.4687499999999748
 40
0.4687499999999748
 40
0.4843749999999744
 40
0.4843749999999744
 40
0.4999999999999738
 40
0.4999999999999738
 40
0.5312499999999723
 40
0.5312499999999723
 40
0.5390624999999714
 40
0.5390624999999714
 40
0.5468749999999706
 40
0.562499999999969
 40
0.562499999999969
 40
0.5703124999999681
 40
0.5703124999999681
 40
0.5781249999999671
 40
0.5781249999999671
 40
0.5937499999999666
 40
0.6093749999999662
 40
0.6093749999999662
 40
0.6171874999999658
 40
0.6171874999999658
 40
0.6249999999999654
 40
0.6406249999999647
 40
0.6406249999999647
 40
0.6484374999999646
 40
0.6484374999999646
 40
0.6562499999999645
 40
0.6562499999999645
 40
0.6874999999999668
 40
0.6874999999999668
 40
0.7031249999999682
 40
0.7031249999999682
 40
0.7187499999999698
 40
0.7187499999999698
 40
0.7343749999999713
 40
0.7343749999999713
 40
0.7499999999999727
 40
0.7499999999999727
 40
0.7656249999999743
 40
0.7656249999999743
 40
0.7812499999999757
 40
0.7968749999999773
 40
0.7968749999999773
 40
0.8046874999999772
 40
0.8046874999999772
 40
0.8124999999999774
 40
0.8281249999999777
 40
0.8281249999999777
 40
0.8359374999999783
 40
0.8359374999999783
 40
0.843749999999979
 40
0.843749999999979
 40
0.8749999999999824
 40
0.8749999999999824
 40
0.8828124999999833
 40
0.8828124999999833
 40
0.8906249999999841
 40
0.9062499999999864
 40
0.9062499999999864
 40
0.9218749999999888
 40
0.9218749999999888
 40
0.9374999999999909
 40
0.9374999999999909
 40
0.9531249999999932
 40
0.9531249999999932
 40
0.9687499999999953
 40
0.9843749999999978
 40
0.9843749999999978
 40
1.0
 40
1.0
 40
1.0
 40
1.0
 10
448.3473131786625
 20
283.1534935137042
 30
0.0
 10
448.3380407081472
 20
283.1071653548658
 30
0.0
 10
448.3288913581886
 20
283.0598106295551
 30
0.0
 10
448.3108786776515
 20
282.963276678797
 30
0.0
 10
448.3020085639794
 20
282.9140636408207
 30
0.0
 10
448.2845420479319
 20
282.8137367024287
 30
0.0
 10
448.2759347321803
 20
282.7625501275353
 30
0.0
 10
448.2591200184361
 20
282.659008213251
 30
0.0
 10
448.2508988237073
 20
282.6065782946513
 30
0.0
 10
448.2348280386419
 20
282.500403082761
 30
0.0
 10
448.2269704648977
 20
282.4466008695812
 30
0.0
 10
448.2116664279616
 20
282.3379149185145
 30
0.0
 10
448.1968257639147
 20
282.2285274665953
 30
0.0
 10
448.1829039902822
 20
282.1177489052173
 30
0.0
 10
448.1728091220968
 20
282.034140474828
 30
0.0
 10
448.1694990431376
 20
282.0061577712516
 30
0.0
 10
448.163016258905
 20
281.9501982682097
 30
0.0
 10
448.1534941538126
 20
281.8662373290481
 30
0.0
 10
448.1445739570615
 20
281.7822117981136
 30
0.0
 10
448.1360545506579
 20
281.6981432577084
 30
0.0
 10
448.1332816048053
 20
281.6701132364492
 30
0.0
 10
448.1278700520323
 20
281.6140387777993
 30
0.0
 10
448.1252306270579
 20
281.5859839183947
 30
0.0
 10
448.1124191487159
 20
281.4462015435834
 30
0.0
 10
448.1033583513164
 20
281.3355355568951
 30
0.0
 10
448.0915477586066
 20
281.1712745193895
 30
0.0
 10
448.0879227817836
 20
281.1169990079204
 30
0.0
 10
448.0813142094993
 20
281.0097511289632
 30
0.0
 10
448.0783264996531
 20
280.9567219406913
 30
0.0
 10
448.072984359456
 20
280.8518533049744
 30
0.0
 10
448.070627774366
 20
280.7999400647339
 30
0.0
 10
448.0665815579648
 20
280.698021439308
 30
0.0
 10
448.0648874263616
 20
280.6479442368783
 30
0.0
 10
448.0621533836066
 20
280.549544043694
 30
0.0
 10
448.0611129382668
 20
280.5011839729042
 30
0.0
 10
448.0596938738331
 20
280.4063907944013
 30
0.0
 10
448.0589410266226
 20
280.3138877554951
 30
0.0
 10
448.059505717704
 20
280.2259137898514
 30
0.0
 10
448.0604245474483
 20
280.1616359619727
 30
0.0
 10
448.0608139307094
 20
280.140475287154
 30
0.0
 10
448.0617561159938
 20
280.0988426241515
 30
0.0
 10
448.0634141740958
 20
280.0374191475804
 30
0.0
 10
448.0658008268234
 20
279.9790481520953
 30
0.0
 10
448.0686718116461
 20
279.9227062884589
 30
0.0
 10
448.0697095974746
 20
279.9042641444298
 30
0.0
 10
448.0719473553579
 20
279.8680593431123
 30
0.0
 10
448.0731481612893
 20
279.8502876314673
 30
0.0
 10
448.079537060833
 20
279.7634367530903
 30
0.0
 10
448.0858868886106
 20
279.7001234574818
 30
0.0
 10
448.0972660977173
 20
279.6143867266776
 30
0.0
 10
448.1013595591618
 20
279.587434967885
 30
0.0
 10
448.1101118878676
 20
279.5369593995964
 30
0.0
 10
448.1147750774447
 20
279.5134023685718
 30
0.0
 10
448.1246761043112
 20
279.4696533102022
 30
0.0
 10
448.1299232588623
 20
279.4494363048368
 30
0.0
 10
448.1409245709628
 20
279.4126465159417
 30
0.0
 10
448.1524424884933
 20
279.3794397188714
 30
0.0
 10
448.1649886665534
 20
279.3533645717205
 30
0.0
 10
448.1780535113099
 20
279.3308867126054
 30
0.0
 10
448.1848298924806
 20
279.3214770017709
 30
0.0
 10
448.1988332685111
 20
279.3063663603557
 30
0.0
 10
448.2060702484471
 20
279.3006569040755
 30
0.0
 10
448.2209520495301
 20
279.2929806720679
 30
0.0
 10
448.2286125973657
 20
279.2910057556504
 30
0.0
 10
448.2521542075
 20
279.2906997801966
 30
0.0
 10
448.2685546809981
 20
279.2979410114454
 30
0.0
 10
448.2899400169081
 20
279.3163218519513
 30
0.0
 10
448.2942648287504
 20
279.3204705188191
 30
0.0
 10
448.3029741602186
 20
279.3296795340069
 30
0.0
 10
448.3161357285261
 20
279.3448662443911
 30
0.0
 10
448.3295884385273
 20
279.3641503990219
 30
0.0
 10
448.343235633346
 20
279.3861716768975
 30
0.0
 10
448.3478171398614
 20
279.3939686762395
 30
0.0
 10
448.3570454384234
 20
279.4104814846669
 30
0.0
 10
448.3616953921646
 20
279.4192040749229
 30
0.0
 10
448.3756943636505
 20
279.4466622973599
 30
0.0
 10
448.3945172047137
 20
279.4867550307076
 30
0.0
 10
448.4136538763388
 20
279.533783437491
 30
0.0
 10
448.4281252154601
 20
279.5716810117996
 30
0.0
 10
448.4329711011328
 20
279.584758673453
 30
0.0
 10
448.4426670481025
 20
279.6116965410649
 30
0.0
 10
448.4572296807551
 20
279.6533092171384
 30
0.0
 10
448.4718481852988
 20
279.6985224587627
 30
0.0
 10
448.4865040658976
 20
279.7461443343889
 30
0.0
 10
448.4913955940888
 20
279.7624200744906
 30
0.0
 10
448.5011912067056
 20
279.7957807190863
 30
0.0
 10
448.5060954198892
 20
279.8128670368161
 30
0.0
 10
448.5305553831198
 20
279.900002517258
 30
0.0
 10
448.5500025477652
 20
279.9753874616575
 30
0.0
 10
448.5789905756957
 20
280.097050677871
 30
0.0
 10
448.5885891442689
 20
280.1389036112745
 30
0.0
 10
448.6075962556014
 20
280.2249195767849
 30
0.0
 10
448.617014729307
 20
280.2691241003417
 30
0.0
 10
448.6356807161134
 20
280.359937433134
 30
0.0
 10
448.6449425678216
 20
280.4066252511211
 30
0.0
 10
448.6631654458162
 20
280.5017721737607
 30
0.0
 10
448.6721384674552
 20
280.5502844232645
 30
0.0
 10
448.6898081772486
 20
280.6491830991364
 30
0.0
 10
448.6985099150429
 20
280.6995998416847
 30
0.0
 10
448.7156125788855
 20
280.8022034416824
 30
0.0
 10
448.7323374444024
 20
280.90611097035
 30
0.0
 10
448.7483130113383
 20
281.0126046192723
 30
0.0
 10
448.7600121288539
 20
281.0934500722186
 30
0.0
 10
448.7638682919831
 20
281.1205872322589
 30
0.0
 10
448.7714653721576
 20
281.1750435868112
 30
0.0
 10
448.7826859693313
 20
281.2569829516276
 30
0.0
 10
448.7933852024621
 20
281.3396814206185
 30
0.0
 10
448.8037372400881
 20
281.422885405018
 30
0.0
 10
448.8071300031789
 20
281.4507043921442
 30
0.0
 10
448.8137991475871
 20
281.5065118178407
 30
0.0
 10
448.817077877038
 20
281.5345215525857
 30
0.0
 10
448.8331217592333
 20
281.6744971496582
 30
0.0
 10
448.8448802510491
 20
281.7865470896652
 30
0.0
 10
448.8582341190821
 20
281.9266962444964
 30
0.0
 10
448.8608370712436
 20
281.9547289053994
 30
0.0
 10
448.8658882201693
 20
282.0105894419698
 30
0.0
 10
448.8732404712663
 20
282.0941534093027
 30
0.0
 10
448.8799237075013
 20
282.1770413124641
 30
0.0
 10
448.8882400690329
 20
282.2869576311411
 30
0.0
 10
448.8921064254134
 20
282.3417080628214
 30
0.0
 10
448.899191664948
 20
282.4498834619303
 30
0.0
 10
448.9024156831739
 20
282.5033631061991
 30
0.0
 10
448.9082304358293
 20
282.6091137641744
 30
0.0
 10
448.910821825699
 20
282.6613997145915
 30
0.0
 10
448.9153637653971
 20
282.7646926727003
 30
0.0
 10
448.9192424598698
 20
282.8661890695564
 30
0.0
 10
448.9218105190856
 20
282.9641352915611
 30
0.0
 10
448.9237220958957
 20
283.0603032710578
 30
0.0
 10
448.9243483699271
 20
283.1075153269537
 30
0.0
 10
448.9246419255036
 20
283.1534935136892
 30
0.0
  0
SPLINE
  5
1E6
330
1F
100
AcDbEntity
  8
1
100
AcDbSpline
210
0.0
220
0.0
230
1.0
 70
     8
 71
     3
 72
    58
 73
    54
 74
     0
 42
0.000000001
 43
0.0000000001
 40
0.0
 40
0.0
 40
0.0
 40
0.0
 40
0.031249999999998
 40
0.031249999999998
 40
0.062499999999996
 40
0.062499999999996
 40
0.1249999999999942
 40
0.1249999999999942
 40
0.1562499999999926
 40
0.1562499999999926
 40
0.187499999999991
 40
0.2187499999999894
 40
0.2187499999999894
 40
0.2499999999999878
 40
0.2499999999999878
 40
0.3124999999999867
 40
0.3124999999999867
 40
0.3437499999999857
 40
0.3437499999999857
 40
0.3749999999999846
 40
0.3749999999999846
 40
0.4062499999999837
 40
0.4062499999999837
 40
0.4374999999999825
 40
0.4687499999999815
 40
0.4687499999999815
 40
0.4999999999999803
 40
0.4999999999999803
 40
0.5624999999999807
 40
0.5624999999999807
 40
0.5937499999999809
 40
0.5937499999999809
 40
0.6249999999999809
 40
0.6562499999999813
 40
0.6562499999999813
 40
0.6874999999999815
 40
0.6874999999999815
 40
0.7187499999999817
 40
0.7187499999999817
 40
0.7499999999999819
 40
0.7499999999999819
 40
0.8124999999999841
 40
0.8124999999999841
 40
0.8437499999999868
 40
0.8437499999999868
 40
0.8749999999999893
 40
0.9062499999999921
 40
0.9062499999999921
 40
0.9374999999999948
 40
0.9374999999999948
 40
0.9687499999999971
 40
0.9687499999999971
 40
1.0
 40
1.0
 40
1.0
 40
1.0
 10
448.924641925504
 20
283.1534935136892
 30
0.0
 10
448.9205771817733
 20
283.1949603117008
 30
0.0
 10
448.9163438816656
 20
283.2355316698604
 30
0.0
 10
448.9075403563833
 20
283.3148845035498
 30
0.0
 10
448.9029631129798
 20
283.3537209550475
 30
0.0
 10
448.8887736250601
 20
283.4671017680791
 30
0.0
 10
448.8787301137286
 20
283.538361339884
 30
0.0
 10
448.8627935190457
 20
283.6387922368998
 30
0.0
 10
448.8573276144808
 20
283.6712311816817
 30
0.0
 10
448.8461671664798
 20
283.7335637487845
 30
0.0
 10
448.8347683058915
 20
283.7934239612301
 30
0.0
 10
448.8228947311595
 20
283.8483613559017
 30
0.0
 10
448.8107822666923
 20
283.9008214478625
 30
0.0
 10
448.8046074691866
 20
283.9258016916661
 30
0.0
 10
448.7858438874526
 20
283.9965358149509
 30
0.0
 10
448.7729780028745
 20
284.0382728878299
 30
0.0
 10
448.7531390515434
 20
284.0926758831013
 30
0.0
 10
448.7464582844518
 20
284.1093753694618
 30
0.0
 10
448.7329910784369
 20
284.1398493316669
 30
0.0
 10
448.7262000309615
 20
284.1536365316646
 30
0.0
 10
448.7125027617915
 20
284.1783041694756
 30
0.0
 10
448.7055885023407
 20
284.18919516378
 30
0.0
 10
448.6916800601958
 20
284.2079827304013
 30
0.0
 10
448.6777242487792
 20
284.2237396781147
 30
0.0
 10
448.6636741986288
 20
284.2334673651467
 30
0.0
 10
448.6495767606976
 20
284.2401632490778
 30
0.0
 10
448.6424926906424
 20
284.2419935972014
 30
0.0
 10
448.6212844466518
 20
284.242868809177
 30
0.0
 10
448.607191854839
 20
284.2373441682351
 30
0.0
 10
448.5861227706898
 20
284.2198359439656
 30
0.0
 10
448.5791090856434
 20
284.2124494915491
 30
0.0
 10
448.5651993725094
 20
284.1946778214908
 30
0.0
 10
448.5513837292773
 20
284.1738920067868
 30
0.0
 10
448.5377563341329
 20
284.1470744332127
 30
0.0
 10
448.5242241738561
 20
284.1172053876999
 30
0.0
 10
448.5175282448003
 20
284.1007919916701
 30
0.0
 10
448.5043110708692
 20
284.0651075258
 30
0.0
 10
448.4977841958405
 20
284.045824165707
 30
0.0
 10
448.4848944359197
 20
284.0043652041978
 30
0.0
 10
448.4785224646834
 20
283.9821547008087
 30
0.0
 10
448.45972260962
 20
283.9113753854004
 30
0.0
 10
448.4476486511083
 20
283.85884466591
 30
0.0
 10
448.43022753803
 20
283.7720212637358
 30
0.0
 10
448.424529478001
 20
283.7416970949799
 30
0.0
 10
448.4134397659732
 20
283.6787476926665
 30
0.0
 10
448.4026396976979
 20
283.6134228323608
 30
0.0
 10
448.3924176160102
 20
283.5433577252932
 30
0.0
 10
448.3824871477962
 20
283.4709010059414
 30
0.0
 10
448.3776799580517
 20
283.4335600285653
 30
0.0
 10
448.3684184957643
 20
283.3569670783208
 30
0.0
 10
448.3639580782199
 20
283.317670779991
 30
0.0
 10
448.3553780270396
 20
283.2370776169505
 30
0.0
 10
448.3512530307089
 20
283.1957223604707
 30
0.0
 10
448.3473131786613
 20
283.1534935137043
 30
0.0
  0
SPLINE
  5
1E7
330
1F
100
AcDbEntity
  8
1
100
AcDbSpline
210
0.0
220
0.0
230
1.0
 70
     8
 71
     3
 72
     8
 73
     4
 74
     0
 42
0.000000001
 43
0.0000000001
 40
0.0
 40
0.0
 40
0.0
 40
0.0
 40
1.0
 40
1.0
 40
1.0
 40
1.0
 10
299.0179001511179
 20
270.4250052999346
 30
0.0
 10
299.4511794062264
 20
270.4177683825774
 30
0.0
 10
299.8842539821176
 20
270.4128313079664
 30
0.0
 10
300.3179800119612
 20
270.4102246361379
 30
0.0
  0
SPLINE
  5
1E8
330
1F
100
AcDbEntity
  8
1
100
AcDbSpline
210
0.0
220
0.0
230
1.0
 70
     8
 71
     3
 72
     8
 73
     4
 74
     0
 42
0.000000001
 43
0.0000000001
 40
0.0
 40
0.0
 40
0.0
 40
0.0
 40
1.0
 40
1.0
 40
1.0
 40
1.0
 10
431.6783790423501
 20
296.0029768321284
 30
0.0
 10
431.9962581265357
 20
295.7676976704965
 30
0.0
 10
432.3063322400603
 20
295.5344891677468
 30
0.0
 10
432.6076358252405
 20
295.3036074863531
 30
0.0
  0
SPLINE
  5
1E9
330
1F
100
AcDbEntity
  8
1
100
AcDbSpline
210
0.0
220
0.0
230
1.0
 70
     8
 71
     3
 72
     8
 73
     4
 74
     0
 42
0.000000001
 43
0.0000000001
 40
0.0
 40
0.0
 40
0.0
 40
0.0
 40
1.0
 40
1.0
 40
1.0
 40
1.0
 10
305.4713191315207
 20
281.4328036623765
 30
0.0
 10
305.4715721202593
 20
281.4605376347736
 30
0.0
 10
305.471825183875
 20
281.4882718135148
 30
0.0
 10
305.4720783224354
 20
281.516006198787
 30
0.0
  0
SPLINE
  5
1EA
330
1F
100
AcDbEntity
  8
1
100
AcDbSpline
210
0.0
220
0.0
230
1.0
 70
     8
 71
     3
 72
     8
 73
     4
 74
     0
 42
0.000000001
 43
0.0000000001
 40
0.0
 40
0.0
 40
0.0
 40
0.0
 40
1.0
 40
1.0
 40
1.0
 40
1.0
 10
431.6783790423516
 20
296.0029768321298
 30
0.0
 10
431.2832123290931
 20
296.2444455631121
 30
0.0
 10
430.8824579762887
 20
296.4883391883347
 30
0.0
 10
430.4766647624285
 20
296.7344195518125
 30
0.0
  0
SPLINE
  5
1EB
330
1F
100
AcDbEntity
  8
1
100
AcDbSpline
210
0.0
220
0.0
230
1.0
 70
     8
 71
     3
 72
    14
 73
    10
 74
     0
 42
0.000000001
 43
0.0000000001
 40
0.0
 40
0.0
 40
0.0
 40
0.0
 40
0.2499999999999999
 40
0.2499999999999999
 40
0.4999999999999999
 40
0.4999999999999999
 40
0.75
 40
0.75
 40
1.0
 40
1.0
 40
1.0
 40
1.0
 10
287.9926239639547
 20
271.0673583725568
 30
0.0
 10
288.4556635949588
 20
271.0116735840854
 30
0.0
 10
288.9223084275906
 20
270.9622620441576
 30
0.0
 10
289.8610723006752
 20
270.8729237320832
 30
0.0
 10
290.3331927473828
 20
270.8330019166881
 30
0.0
 10
291.2810629303584
 20
270.7603192498382
 30
0.0
 10
291.756809727211
 20
270.7275592444018
 30
0.0
 10
292.7099872762548
 20
270.6675121228923
 30
0.0
 10
293.1874092955316
 20
270.6402236048313
 30
0.0
 10
293.6647356090903
 20
270.6151537139175
 30
0.0
  0
SPLINE
  5
1EC
330
1F
100
AcDbEntity
  8
1
100
AcDbSpline
210
0.0
220
0.0
230
1.0
 70
     8
 71
     3
 72
    43
 73
    39
 74
     0
 42
0.000000001
 43
0.0000000001
 40
0.0
 40
0.0
 40
0.0
 40
0.0
 40
0.1250000000000291
 40
0.1250000000000291
 40
0.2500000000000582
 40
0.2500000000000582
 40
0.3750000000000873
 40
0.3750000000000873
 40
0.4375000000000802
 40
0.4375000000000802
 40
0.5000000000000732
 40
0.5000000000000732
 40
0.5625000000000661
 40
0.5625000000000661
 40
0.625000000000059
 40
0.625000000000059
 40
0.6875000000000519
 40
0.6875000000000519
 40
0.7500000000000448
 40
0.7500000000000448
 40
0.7812500000000475
 40
0.7812500000000475
 40
0.81250000000005
 40
0.81250000000005
 40
0.8281250000000557
 40
0.8281250000000557
 40
0.8437500000000611
 40
0.8593750000000667
 40
0.8593750000000667
 40
0.8750000000000722
 40
0.8750000000000722
 40
0.9062500000000541
 40
0.9062500000000541
 40
0.9375000000000362
 40
0.9375000000000362
 40
0.9687500000000179
 40
0.9687500000000179
 40
1.0
 40
1.0
 40
1.0
 40
1.0
 10
430.4766647624285
 20
296.7344195518123
 30
0.0
 10
430.4343197502568
 20
296.7600983350713
 30
0.0
 10
430.392896286319
 20
296.7868258923828
 30
0.0
 10
430.3120655966023
 20
296.8425923879108
 30
0.0
 10
430.272655509055
 20
296.871628103795
 30
0.0
 10
430.1961774469023
 20
296.9323950548955
 30
0.0
 10
430.1591020522479
 20
296.9641179815156
 30
0.0
 10
430.1057104665844
 20
297.0142587823876
 30
0.0
 10
430.0882863045544
 20
297.0314015649703
 30
0.0
 10
430.0543202331221
 20
297.0667002688804
 30
0.0
 10
430.0378037388529
 20
297.0848320535467
 30
0.0
 10
430.0060894747771
 20
297.1220365142183
 30
0.0
 10
429.9908633605286
 20
297.141133772878
 30
0.0
 10
429.9620001473591
 20
297.1805691052814
 30
0.0
 10
429.9483437153686
 20
297.200944683977
 30
0.0
 10
429.9235072915464
 20
297.242722506147
 30
0.0
 10
429.9122707932322
 20
297.2641760392152
 30
0.0
 10
429.8930920107761
 20
297.308643287463
 30
0.0
 10
429.8851118629378
 20
297.3316395991284
 30
0.0
 10
429.8770608022068
 20
297.3679726736048
 30
0.0
 10
429.8750562267392
 20
297.3804108305466
 30
0.0
 10
429.8728980414327
 20
297.4053483563576
 30
0.0
 10
429.8727199859304
 20
297.417925404226
 30
0.0
 10
429.8741939287045
 20
297.4369968623932
 30
0.0
 10
429.8749793119333
 20
297.4433683479201
 30
0.0
 10
429.8771625505471
 20
297.455938974605
 30
0.0
 10
429.8799614959075
 20
297.4683920192837
 30
0.0
 10
429.8840791189603
 20
297.4805921816539
 30
0.0
 10
429.8889083741381
 20
297.4926553213417
 30
0.0
 10
429.8916951804556
 20
297.4986482504638
 30
0.0
 10
429.9011061807806
 20
297.5161978103693
 30
0.0
 10
429.908629446009
 20
297.5270810975007
 30
0.0
 10
429.9259910656338
 20
297.5473318139531
 30
0.0
 10
429.935953750246
 20
297.5567756563169
 30
0.0
 10
429.9571311177908
 20
297.573567570884
 30
0.0
 10
429.968390630163
 20
297.581011226134
 30
0.0
 10
429.9919838127311
 20
297.5943730482986
 30
0.0
 10
430.0043526621033
 20
297.6002972208004
 30
0.0
 10
430.0169752962238
 20
297.6055136249733
 30
0.0
  0
SPLINE
  5
1ED
330
1F
100
AcDbEntity
  8
1
100
AcDbSpline
210
0.0
220
0.0
230
1.0
 70
     8
 71
     3
 72
    18
 73
    14
 74
     0
 42
0.000000001
 43
0.0000000001
 40
0.0
 40
0.0
 40
0.0
 40
0.0
 40
0.125
 40
0.125
 40
0.25
 40
0.25
 40
0.5
 40
0.5
 40
0.75
 40
0.75
 40
0.875
 40
0.875
 40
1.0
 40
1.0
 40
1.0
 40
1.0
 10
432.7087972749486
 20
292.3468864870883
 30
0.0
 10
432.5405187148821
 20
292.4248578565671
 30
0.0
 10
432.3709449063703
 20
292.5046978534449
 30
0.0
 10
432.0295269316148
 20
292.66765324404
 30
0.0
 10
431.8576820247505
 20
292.750769706235
 30
0.0
 10
431.3391176198612
 20
293.0044899539526
 30
0.0
 10
430.9893855138568
 20
293.1794399649687
 30
0.0
 10
430.283340445445
 20
293.5388340486456
 30
0.0
 10
429.9270195903154
 20
293.723289507969
 30
0.0
 10
429.3883379849211
 20
294.0060324132276
 30
0.0
 10
429.2079227702408
 20
294.1013756011937
 30
0.0
 10
428.8470529798143
 20
294.2932736163384
 30
0.0
 10
428.6664859366322
 20
294.3898864561093
 30
0.0
 10
428.4857969220741
 20
294.4871120069736
 30
0.0
  0
SPLINE
  5
1EE
330
1F
100
AcDbEntity
  8
1
100
AcDbSpline
210
0.0
220
0.0
230
1.0
 70
     8
 71
     3
 72
    38
 73
    34
 74
     0
 42
0.000000001
 43
0.0000000001
 40
0.0
 40
0.0
 40
0.0
 40
0.0
 40
0.0100410072079227
 40
0.0100410072079227
 40
0.0453966855219255
 40
0.0453966855219255
 40
0.080752363835928
 40
0.080752363835928
 40
0.1514637204639336
 40
0.1514637204639336
 40
0.2221750770919391
 40
0.2221750770919391
 40
0.2928864337199447
 40
0.2928864337199447
 40
0.3635977903479503
 40
0.3635977903479503
 40
0.4343091469759558
 40
0.4343091469759558
 40
0.5050205036039614
 40
0.5050205036039614
 40
0.5757318602319669
 40
0.5757318602319669
 40
0.6464432168599725
 40
0.6464432168599725
 40
0.7171545734879781
 40
0.7171545734879781
 40
0.7878659301159836
 40
0.7878659301159836
 40
0.858577286743989
 40
0.858577286743989
 40
0.9292886433719948
 40
0.9292886433719948
 40
1.0
 40
1.0
 40
1.0
 40
1.0
 10
356.6377983050917
 20
273.9835531874062
 30
0.0
 10
356.4637922250333
 20
273.9615904562855
 30
0.0
 10
356.2897717907544
 20
273.9397763274106
 30
0.0
 10
355.5029352641042
 20
273.8418246738552
 30
0.0
 10
354.8899454469863
 20
273.7673895114069
 30
0.0
 10
353.6635732053337
 20
273.6221141336939
 30
0.0
 10
353.0502025982187
 20
273.5512394218098
 30
0.0
 10
351.2097056370687
 20
273.3432668146523
 30
0.0
 10
349.9821986132549
 20
273.2107891157697
 30
0.0
 10
347.5269660927884
 20
272.9555719145696
 30
0.0
 10
346.299241107465
 20
272.8328368992758
 30
0.0
 10
343.8442250489416
 20
272.5954589089294
 30
0.0
 10
342.6169342323035
 20
272.480820278415
 30
0.0
 10
340.1632790232563
 20
272.2588039005483
 30
0.0
 10
338.9369148108056
 20
272.1514303178679
 30
0.0
 10
336.4854395262969
 20
271.9438003247535
 30
0.0
 10
335.2603286598138
 20
271.8435480702724
 30
0.0
 10
332.8115155367004
 20
271.6505804826108
 30
0.0
 10
331.587813544833
 20
271.5578695950774
 30
0.0
 10
329.1417954097857
 20
271.3808401737997
 30
0.0
 10
327.91947956487
 20
271.2965267197199
 30
0.0
 10
325.4760241347392
 20
271.137441744743
 30
0.0
 10
324.2548848074288
 20
271.0626762329808
 30
0.0
 10
321.8133773244746
 20
270.9239655846518
 30
0.0
 10
320.5930092790012
 20
270.860027517917
 30
0.0
 10
318.1524378086884
 20
270.7441831585019
 30
0.0
 10
316.9322342266637
 20
270.692284830451
 30
0.0
 10
314.4911839094028
 20
270.6014377657586
 30
0.0
 10
313.2703366486899
 20
270.5624972940015
 30
0.0
 10
310.8269998622686
 20
270.4979439186135
 30
0.0
 10
309.6045094024137
 20
270.4723384684668
 30
0.0
 10
307.1567175914586
 20
270.4340526156867
 30
0.0
 10
305.9314149671861
 20
270.4213772471945
 30
0.0
 10
304.7040545867846
 20
270.4144758805957
 30
0.0
  0
SPLINE
  5
1EF
330
1F
100
AcDbEntity
  8
1
100
AcDbSpline
210
0.0
220
0.0
230
1.0
 70
     8
 71
     3
 72
    37
 73
    33
 74
     0
 42
0.000000001
 43
0.0000000001
 40
0.0
 40
0.0
 40
0.0
 40
0.0
 40
0.0584248661307325
 40
0.0584248661307325
 40
0.1168497322614649
 40
0.1752745983921974
 40
0.2336994645229299
 40
0.2921243306536623
 40
0.3505491967843948
 40
0.3505491967843948
 40
0.4089740629151273
 40
0.4089740629151273
 40
0.4673989290458598
 40
0.5258237951765922
 40
0.5258237951765922
 40
0.5842486613073247
 40
0.5842486613073247
 40
0.6426735274380572
 40
0.6426735274380572
 40
0.7010983935687896
 40
0.7010983935687896
 40
0.7595232596995221
 40
0.7595232596995221
 40
0.8179481258302539
 40
0.8179481258302539
 40
0.8763729919609859
 40
0.8763729919609859
 40
0.9347978580917178
 40
0.9347978580917178
 40
0.9932227242224499
 40
0.9932227242224499
 40
1.0
 40
1.0
 40
1.0
 40
1.0
 10
304.7040545867844
 20
270.4144758805967
 30
0.0
 10
305.5139356843507
 20
270.470432634117
 30
0.0
 10
306.3225974489371
 20
270.5324405993699
 30
0.0
 10
307.9381786720003
 20
270.6676563166074
 30
0.0
 10
309.5520171771489
 20
270.8140732026285
 30
0.0
 10
311.9694093095343
 20
271.0642983193235
 30
0.0
 10
314.3850955954063
 20
271.3417741523311
 30
0.0
 10
316.8005479175576
 20
271.6427968765966
 30
0.0
 10
318.4115575060128
 20
271.8564733767961
 30
0.0
 10
320.0232982570168
 20
272.0751791371343
 30
0.0
 10
320.829593883649
 20
272.1870551941039
 30
0.0
 10
322.442920196376
 20
272.4142052520438
 30
0.0
 10
324.0569319560063
 20
272.6447456879811
 30
0.0
 10
325.6729251123216
 20
272.878659448104
 30
0.0
 10
327.2901792065917
 20
273.112449470997
 30
0.0
 10
328.0994369024069
 20
273.2292812542794
 30
0.0
 10
329.719445819143
 20
273.4609255217216
 30
0.0
 10
330.5301974403948
 20
273.575734834279
 30
0.0
 10
332.1533806757213
 20
273.8014185103201
 30
0.0
 10
332.9658129561967
 20
273.9122870222086
 30
0.0
 10
334.5924819694553
 20
274.1282855736322
 30
0.0
 10
335.4067195774473
 20
274.2334068302219
 30
0.0
 10
337.037038193068
 20
274.4364391801746
 30
0.0
 10
337.8531200442415
 20
274.5343398906974
 30
0.0
 10
339.487053656668
 20
274.722086041831
 30
0.0
 10
340.3048320375273
 20
274.8119138113556
 30
0.0
 10
341.9414544498687
 20
274.9835484635441
 30
0.0
 10
342.7603547769698
 20
275.0653592563462
 30
0.0
 10
344.3990689481002
 20
275.2221832629176
 30
0.0
 10
345.2188818637263
 20
275.2972011248
 30
0.0
 10
346.1341132745908
 20
275.3784088826986
 30
0.0
 10
346.2292485657582
 20
275.3868196611339
 30
0.0
 10
346.3243873937635
 20
275.3952027249681
 30
0.0
  0
SPLINE
  5
1F0
330
1F
100
AcDbEntity
  8
1
100
AcDbSpline
210
0.0
220
0.0
230
1.0
 70
     8
 71
     3
 72
    33
 73
    29
 74
     0
 42
0.000000001
 43
0.0000000001
 40
0.0
 40
0.0
 40
0.0
 40
0.0
 40
0.0625000000000002
 40
0.0625000000000002
 40
0.1250000000000004
 40
0.1250000000000004
 40
0.2500000000000004
 40
0.2500000000000004
 40
0.3750000000000004
 40
0.3750000000000004
 40
0.4375000000000002
 40
0.4375000000000002
 40
0.4687500000000004
 40
0.4843750000000007
 40
0.4843750000000007
 40
0.5000000000000007
 40
0.5000000000000007
 40
0.6250000000000002
 40
0.6250000000000002
 40
0.7499999999999999
 40
0.7499999999999999
 40
0.8749999999999992
 40
0.8749999999999992
 40
0.9062499999999996
 40
0.9062499999999996
 40
0.9375
 40
0.9375
 40
1.0
 40
1.0
 40
1.0
 40
1.0
 10
279.4048419452957
 20
279.6286097911351
 30
0.0
 10
279.5398998429951
 20
279.7980604675657
 30
0.0
 10
279.6779881880053
 20
279.9637433864067
 30
0.0
 10
279.960041950929
 20
280.287972135933
 30
0.0
 10
280.1040080456991
 20
280.4465167756275
 30
0.0
 10
280.5445760939899
 20
280.9118446430481
 30
0.0
 10
280.849818127353
 20
281.2083621657732
 30
0.0
 10
281.4833820812406
 20
281.7749848885877
 30
0.0
 10
281.8117043460899
 20
282.0450846891784
 30
0.0
 10
282.3222371940048
 20
282.4302161815864
 30
0.0
 10
282.4954304760668
 20
282.5552477556231
 30
0.0
 10
282.759909840213
 20
282.7376644101042
 30
0.0
 10
282.8933227056818
 20
282.8275891150625
 30
0.0
 10
283.0285344856847
 20
282.9155582637338
 30
0.0
 10
283.1190803867818
 20
282.9737657743122
 30
0.0
 10
283.1645823855378
 20
283.0026668727141
 30
0.0
 10
283.5751871455503
 20
283.2603116768961
 30
0.0
 10
283.9480847764226
 20
283.472033918493
 30
0.0
 10
284.7103715648779
 20
283.8601122561135
 30
0.0
 10
285.0997541034471
 20
284.0364812287975
 30
0.0
 10
285.896414684226
 20
284.3513702758338
 30
0.0
 10
286.3036784679384
 20
284.489920731799
 30
0.0
 10
286.8254742370122
 20
284.6364462195233
 30
0.0
 10
286.9305826174487
 20
284.6644367614177
 30
0.0
 10
287.1413026357438
 20
284.7174282953507
 30
0.0
 10
287.2469679261165
 20
284.7424477158714
 30
0.0
 10
287.5649004847652
 20
284.8129745290114
 30
0.0
 10
287.7781030767625
 20
284.8539568418844
 30
0.0
 10
287.9926239639545
 20
284.8885597396238
 30
0.0
  0
SPLINE
  5
1F1
330
1F
100
AcDbEntity
  8
1
100
AcDbSpline
210
0.0
220
0.0
230
1.0
 70
     8
 71
     3
 72
    36
 73
    32
 74
     0
 42
0.000000001
 43
0.0000000001
 40
0.0
 40
0.0
 40
0.0
 40
0.0
 40
0.062500000000015
 40
0.062500000000015
 40
0.1250000000000301
 40
0.1250000000000301
 40
0.2500000000000602
 40
0.2500000000000602
 40
0.3750000000000903
 40
0.3750000000000903
 40
0.5000000000001204
 40
0.5000000000001204
 40
0.5625000000001355
 40
0.5625000000001355
 40
0.6250000000001505
 40
0.6250000000001505
 40
0.6562500000001581
 40
0.6562500000001581
 40
0.6875000000001658
 40
0.6875000000001658
 40
0.7500000000001405
 40
0.7500000000001405
 40
0.8125000000001152
 40
0.8125000000001152
 40
0.8750000000000902
 40
0.8750000000000902
 40
0.9062500000000776
 40
0.9062500000000776
 40
0.9375000000000651
 40
0.9375000000000651
 40
1.0
 40
1.0
 40
1.0
 40
1.0
 10
441.1385703493706
 20
294.4535479125759
 30
0.0
 10
441.1049980074922
 20
294.4280403164754
 30
0.0
 10
441.0710143832223
 20
294.4034959082328
 30
0.0
 10
441.0022022779135
 20
294.3562412390264
 30
0.0
 10
440.9673740130828
 20
294.3335313563932
 30
0.0
 10
440.8615919396482
 20
294.2680667068412
 30
0.0
 10
440.7893333555573
 20
294.2279612082017
 30
0.0
 10
440.6411954909134
 20
294.1546864922602
 30
0.0
 10
440.5665521675068
 20
294.1221183880835
 30
0.0
 10
440.4156224467159
 20
294.0644272703204
 30
0.0
 10
440.339349702238
 20
294.0393062870091
 30
0.0
 10
440.223143657027
 20
294.0070662629274
 30
0.0
 10
440.1841056123211
 20
293.99723002131
 30
0.0
 10
440.1052533372792
 20
293.9794069299641
 30
0.0
 10
440.0654403404021
 20
293.9714193611907
 30
0.0
 10
440.0049448185563
 20
293.9608850701142
 30
0.0
 10
439.9846494622797
 20
293.9576152953254
 30
0.0
 10
439.9437548090411
 20
293.9515763096697
 30
0.0
 10
439.9231111242086
 20
293.9488018459945
 30
0.0
 10
439.8609573748855
 20
293.9413006648699
 30
0.0
 10
439.8195361265798
 20
293.937430075548
 30
0.0
 10
439.7367492336433
 20
293.931975478706
 30
0.0
 10
439.6953840466048
 20
293.9303922898677
 30
0.0
 10
439.6127118269263
 20
293.9295083872578
 30
0.0
 10
439.571404402594
 20
293.9302068565815
 30
0.0
 10
439.5094680444869
 20
293.9329368051263
 30
0.0
 10
439.488792026115
 20
293.9341296278826
 30
0.0
 10
439.447620111572
 20
293.9370574386135
 30
0.0
 10
439.4271472513439
 20
293.9387894808107
 30
0.0
 10
439.3660058533612
 20
293.9447646214223
 30
0.0
 10
439.3256114891133
 20
293.949784612308
 30
0.0
 10
439.2854531464569
 20
293.9558026505449
 30
0.0
  0
SPLINE
  5
1F2
330
1F
100
AcDbEntity
  8
1
100
AcDbSpline
210
0.0
220
0.0
230
1.0
 70
     8
 71
     3
 72
    27
 73
    23
 74
     0
 42
0.000000001
 43
0.0000000001
 40
0.0
 40
0.0
 40
0.0
 40
0.0
 40
0.125000000000012
 40
0.2500000000000239
 40
0.3750000000000359
 40
0.4062500000000359
 40
0.4062500000000359
 40
0.437500000000036
 40
0.437500000000036
 40
0.500000000000036
 40
0.500000000000036
 40
0.6250000000000245
 40
0.6250000000000245
 40
0.687500000000013
 40
0.687500000000013
 40
0.7187500000000073
 40
0.7187500000000073
 40
0.7500000000000016
 40
0.7500000000000016
 40
0.8750000000000007
 40
0.8750000000000007
 40
1.0
 40
1.0
 40
1.0
 40
1.0
 10
439.2823956729576
 20
293.8613944402912
 30
0.0
 10
438.9907947639557
 20
293.8511508860269
 30
0.0
 10
438.4092526476008
 20
293.8507377390759
 30
0.0
 10
437.5418320264616
 20
293.9092564237067
 30
0.0
 10
436.8949254900598
 20
293.9973299562179
 30
0.0
 10
436.5368183722564
 20
294.0617607886458
 30
0.0
 10
436.393679106556
 20
294.0887816419599
 30
0.0
 10
436.3221939064673
 20
294.1029103911437
 30
0.0
 10
436.1083894949307
 20
294.1470680328765
 30
0.0
 10
435.9665690587749
 20
294.1788960747855
 30
0.0
 10
435.5432421237206
 20
294.2814962824917
 30
0.0
 10
435.2638674014837
 20
294.3593764019377
 30
0.0
 10
434.8490649785013
 20
294.4903553690709
 30
0.0
 10
434.7115080974369
 20
294.5363768678363
 30
0.0
 10
434.5062439174462
 20
294.6089625666928
 30
0.0
 10
434.4379686580648
 20
294.6337625559955
 30
0.0
 10
434.3019971714978
 20
294.6844671777029
 30
0.0
 10
434.2342904826351
 20
294.7103747858842
 30
0.0
 10
433.8971467416676
 20
294.8426746790616
 30
0.0
 10
433.6318736590612
 20
294.9573434171904
 30
0.0
 10
433.1101518647439
 20
295.2041128313585
 30
0.0
 10
432.8537031273175
 20
295.3362140239857
 30
0.0
 10
432.6017023233113
 20
295.4770303643749
 30
0.0
  0
SPLINE
  5
1F3
330
1F
100
AcDbEntity
  8
1
100
AcDbSpline
210
0.0
220
0.0
230
1.0
 70
     8
 71
     3
 72
    27
 73
    23
 74
     0
 42
0.000000001
 43
0.0000000001
 40
0.0
 40
0.0
 40
0.0
 40
0.0
 40
0.1250000000000091
 40
0.1250000000000091
 40
0.2500000000000182
 40
0.2500000000000182
 40
0.3125000000000281
 40
0.3125000000000281
 40
0.375000000000038
 40
0.375000000000038
 40
0.5000000000000579
 40
0.5000000000000579
 40
0.5312500000000542
 40
0.5312500000000542
 40
0.5625000000000507
 40
0.5625000000000507
 40
0.6250000000000435
 40
0.6250000000000435
 40
0.7500000000000289
 40
0.8750000000000143
 40
0.8750000000000143
 40
1.0
 40
1.0
 40
1.0
 40
1.0
 10
432.7269155821558
 20
291.8173292343516
 30
0.0
 10
432.9762323661907
 20
291.6631759804585
 30
0.0
 10
433.2306620070428
 20
291.5185692734315
 30
0.0
 10
433.7496566840731
 20
291.2484634316076
 30
0.0
 10
434.0142213713447
 20
291.1229634552346
 30
0.0
 10
434.4187083216042
 20
290.9492391903336
 30
0.0
 10
434.5548845036796
 20
290.8937321019429
 30
0.0
 10
434.8286579384954
 20
290.7880412729178
 30
0.0
 10
434.9663859662489
 20
290.737797896031
 30
0.0
 10
435.3820787853571
 20
290.5948446385273
 30
0.0
 10
435.662548875765
 20
290.5099015135501
 30
0.0
 10
436.0173136524456
 20
290.4167230062974
 30
0.0
 10
436.0884757352366
 20
290.3987381171684
 30
0.0
 10
436.231219254782
 20
290.3640744771877
 30
0.0
 10
436.3028489278361
 20
290.347385220339
 30
0.0
 10
436.5179598686328
 20
290.2993752624419
 30
0.0
 10
436.66162448009
 20
290.2701153870928
 30
0.0
 10
437.0933800488673
 20
290.1904749399975
 30
0.0
 10
437.6710832156473
 20
290.1059694712018
 30
0.0
 10
438.2527902752407
 20
290.0643090646655
 30
0.0
 10
438.8365076345343
 20
290.0441758802172
 30
0.0
 10
439.1293713750655
 20
290.0448719622913
 30
0.0
 10
439.4232627296166
 20
290.0565719367617
 30
0.0
  0
SPLINE
  5
1F4
330
1F
100
AcDbEntity
  8
1
100
AcDbSpline
210
0.0
220
0.0
230
1.0
 70
     8
 71
     3
 72
     8
 73
     4
 74
     0
 42
0.000000001
 43
0.0000000001
 40
0.0
 40
0.0
 40
0.0
 40
0.0
 40
1.0
 40
1.0
 40
1.0
 40
1.0
 10
439.2823956729576
 20
293.8613944402912
 30
0.0
 10
439.2859532773141
 20
293.861519414227
 30
0.0
 10
439.2895118830366
 20
293.8616439889718
 30
0.0
 10
439.2930714918053
 20
293.8617681638559
 30
0.0
  0
SPLINE
  5
1F5
330
1F
100
AcDbEntity
  8
1
100
AcDbSpline
210
0.0
220
0.0
230
1.0
 70
     8
 71
     3
 72
    32
 73
    28
 74
     0
 42
0.000000001
 43
0.0000000001
 40
0.0
 40
0.0
 40
0.0
 40
0.0
 40
0.062500000000009
 40
0.062500000000009
 40
0.125000000000018
 40
0.125000000000018
 40
0.187500000000027
 40
0.187500000000027
 40
0.250000000000036
 40
0.250000000000036
 40
0.312500000000045
 40
0.312500000000045
 40
0.3437500000000494
 40
0.3437500000000494
 40
0.3750000000000538
 40
0.3750000000000538
 40
0.4375000000000525
 40
0.4375000000000525
 40
0.5000000000000511
 40
0.5000000000000511
 40
0.6250000000000383
 40
0.6250000000000383
 40
0.7500000000000257
 40
0.7500000000000257
 40
0.8750000000000131
 40
0.8750000000000131
 40
1.0
 40
1.0
 40
1.0
 40
1.0
 10
439.3813270965995
 20
291.282255901521
 30
0.0
 10
439.2224703671304
 20
291.2748998173146
 30
0.0
 10
439.0661098845108
 20
291.268587762818
 30
0.0
 10
438.7572268883775
 20
291.2585319446792
 30
0.0
 10
438.6047034239907
 20
291.254790990677
 30
0.0
 10
438.3025685441961
 20
291.250351672197
 30
0.0
 10
438.1529582074448
 20
291.2496539701352
 30
0.0
 10
437.8559521731938
 20
291.2517104926853
 30
0.0
 10
437.7085580235995
 20
291.2544644741219
 30
0.0
 10
437.4154710029753
 20
291.2637667110204
 30
0.0
 10
437.2697795204
 20
291.2703144631178
 30
0.0
 10
437.0522368391936
 20
291.2831982649375
 30
0.0
 10
436.9798491000688
 20
291.2880069053239
 30
0.0
 10
436.835965173083
 20
291.2986283644749
 30
0.0
 10
436.7643963854733
 20
291.3044448058469
 30
0.0
 10
436.5507124155403
 20
291.3234307041415
 30
0.0
 10
436.4096155172306
 20
291.3381371643592
 30
0.0
 10
436.1297416362496
 20
291.3717386950258
 30
0.0
 10
435.9909660964581
 20
291.3906335189795
 30
0.0
 10
435.5776996786858
 20
291.4537191518943
 30
0.0
 10
435.3062435902542
 20
291.5043101725882
 30
0.0
 10
434.7700581722106
 20
291.6231603675528
 30
0.0
 10
434.5053428441158
 20
291.6914153228652
 30
0.0
 10
433.981962448417
 20
291.8462621218525
 30
0.0
 10
433.723304176351
 20
291.9328502155325
 30
0.0
 10
433.2117243236056
 20
292.1252273136047
 30
0.0
 10
432.9587609000981
 20
292.2310665860559
 30
0.0
 10
432.7087972749487
 20
292.3468864870883
 30
0.0
  0
SPLINE
  5
1F6
330
1F
100
AcDbEntity
  8
1
100
AcDbSpline
210
0.0
220
0.0
230
1.0
 70
     8
 71
     3
 72
     8
 73
     4
 74
     0
 42
0.000000001
 43
0.0000000001
 40
0.0
 40
0.0
 40
0.0
 40
0.0
 40
1.0
 40
1.0
 40
1.0
 40
1.0
 10
450.2126469442885
 20
288.8381183071029
 30
0.0
 10
450.1987093355878
 20
288.8551737762851
 30
0.0
 10
450.1834611992762
 20
288.8709636836646
 30
0.0
 10
450.1669025353538
 20
288.8854880292411
 30
0.0
  0
SPLINE
  5
1F7
330
1F
100
AcDbEntity
  8
1
100
AcDbSpline
210
0.0
220
0.0
230
1.0
 70
     8
 71
     3
 72
     8
 73
     4
 74
     0
 42
0.000000001
 43
0.0000000001
 40
0.0
 40
0.0
 40
0.0
 40
0.0
 40
1.0
 40
1.0
 40
1.0
 40
1.0
 10
450.0081269389876
 20
279.7892402055163
 30
0.0
 10
450.0251824081699
 20
279.803177814217
 30
0.0
 10
450.0409723155493
 20
279.8184259505285
 30
0.0
 10
450.0554966611258
 20
279.8349846144508
 30
0.0
  0
SPLINE
  5
1F8
330
1F
100
AcDbEntity
  8
1
100
AcDbSpline
210
0.0
220
0.0
230
1.0
 70
     8
 71
     3
 72
     8
 73
     4
 74
     0
 42
0.000000001
 43
0.0000000001
 40
0.0
 40
0.0
 40
0.0
 40
0.0
 40
1.0
 40
1.0
 40
1.0
 40
1.0
 10
450.5894505876547
 20
280.7236331788933
 30
0.0
 10
450.5972522528897
 20
280.7442312366872
 30
0.0
 10
450.6033026456479
 20
280.7653314637832
 30
0.0
 10
450.6076017659293
 20
280.7869338601809
 30
0.0
  0
SPLINE
  5
1F9
330
1F
100
AcDbEntity
  8
1
100
AcDbSpline
210
0.0
220
0.0
230
1.0
 70
     8
 71
     3
 72
     8
 73
     4
 74
     0
 42
0.000000001
 43
0.0000000001
 40
0.0
 40
0.0
 40
0.0
 40
0.0
 40
1.0
 40
1.0
 40
1.0
 40
1.0
 10
450.7311931720171
 20
287.8674807728481
 30
0.0
 10
450.7276505834055
 20
287.8892200467837
 30
0.0
 10
450.7223402636889
 20
287.9105185758535
 30
0.0
 10
450.7152622128678
 20
287.9313763600573
 30
0.0
  0
SPLINE
  5
1FA
330
1F
100
AcDbEntity
  8
1
100
AcDbSpline
210
0.0
220
0.0
230
1.0
 70
    12
 71
     2
 72
     6
 73
     3
 74
     0
 42
0.000000001
 43
0.0000000001
 40
0.0
 40
0.0
 40
0.0
 40
1.0
 40
1.0
 40
1.0
 10
437.3648559007159
 20
307.349572149902
 30
0.0
 41
0.4999971419995821
 10
437.4770381751956
 20
307.3494166789978
 30
0.0
 41
0.5000028580004181
 10
437.5892197348593
 20
307.3492607950114
 30
0.0
 41
0.4999971419995821
  0
SPLINE
  5
1FB
330
1F
100
AcDbEntity
  8
1
100
AcDbSpline
210
0.0
220
0.0
230
1.0
 70
     8
 71
     3
 72
    36
 73
    32
 74
     0
 42
0.000000001
 43
0.0000000001
 40
0.0
 40
0.0
 40
0.0
 40
0.0
 40
0.1249999999998253
 40
0.1249999999998253
 40
0.1874999999997422
 40
0.1874999999997422
 40
0.2187499999997006
 40
0.2187499999997006
 40
0.249999999999659
 40
0.249999999999659
 40
0.3749999999995421
 40
0.3749999999995421
 40
0.4062499999995313
 40
0.4062499999995313
 40
0.4374999999995204
 40
0.4374999999995204
 40
0.4999999999995439
 40
0.4999999999995439
 40
0.6249999999995345
 40
0.6249999999995345
 40
0.6562499999995609
 40
0.6562499999995609
 40
0.6874999999995875
 40
0.7499999999996443
 40
0.8124999999997012
 40
0.8124999999997012
 40
0.8437499999997626
 40
0.8437499999997626
 40
0.8749999999998241
 40
0.8749999999998241
 40
1.0
 40
1.0
 40
1.0
 40
1.0
 10
450.2761911676127
 20
307.0608039162248
 30
0.0
 10
450.2743599710298
 20
307.1119220707577
 30
0.0
 10
450.2673991469298
 20
307.1619810370129
 30
0.0
 10
450.2497034293871
 20
307.2355715488503
 30
0.0
 10
450.2425859747553
 20
307.2598500392683
 30
0.0
 10
450.2300517129011
 20
307.2958841103019
 30
0.0
 10
450.2255507776947
 20
307.3078617210248
 30
0.0
 10
450.2159805819537
 20
307.3315301724562
 30
0.0
 10
450.2109212989714
 20
307.3432015054287
 30
0.0
 10
450.1842842441068
 20
307.4007616991832
 30
0.0
 10
450.1587239391406
 20
307.4442845462349
 30
0.0
 10
450.1215325172348
 20
307.4955744148448
 30
0.0
 10
450.1138297408003
 20
307.5056752544472
 30
0.0
 10
450.097887085339
 20
307.5255578422393
 30
0.0
 10
450.0896271401031
 20
307.5353605885446
 30
0.0
 10
450.064280931164
 20
307.5639978112274
 30
0.0
 10
450.0465773473556
 20
307.5821376367207
 30
0.0
 10
449.9911170303874
 20
307.6337833285282
 30
0.0
 10
449.9510338714176
 20
307.6645427278327
 30
0.0
 10
449.8969185926964
 20
307.6982563926663
 30
0.0
 10
449.8858726015654
 20
307.7047698514477
 30
0.0
 10
449.8636070575561
 20
307.7171775353819
 30
0.0
 10
449.8298731801221
 20
307.7349097036704
 30
0.0
 10
449.7720023984103
 20
307.7601455508417
 30
0.0
 10
449.7239630650283
 20
307.7757673640151
 30
0.0
 10
449.6872658032745
 20
307.7857338166808
 30
0.0
 10
449.6749218834771
 20
307.7887637775981
 30
0.0
 10
449.6500060183042
 20
307.7942261455547
 30
0.0
 10
449.6374157327399
 20
307.7966602501458
 30
0.0
 10
449.5744671769775
 20
307.8072059902638
 30
0.0
 10
449.5237095705808
 20
307.8105980052203
 30
0.0
 10
449.4725427394183
 20
307.808813080038
 30
0.0
  0
SPLINE
  5
1FC
330
1F
100
AcDbEntity
  8
1
100
AcDbSpline
210
0.0
220
0.0
230
1.0
 70
     8
 71
     3
 72
    36
 73
    32
 74
     0
 42
0.000000001
 43
0.0000000001
 40
0.0
 40
0.0
 40
0.0
 40
0.0
 40
0.1249999999998486
 40
0.1249999999998486
 40
0.1874999999998063
 40
0.1874999999998063
 40
0.2187499999997852
 40
0.2187499999997852
 40
0.2499999999997641
 40
0.2499999999997641
 40
0.3749999999996725
 40
0.3749999999996725
 40
0.4062499999996634
 40
0.4062499999996634
 40
0.4374999999996544
 40
0.4374999999996544
 40
0.4999999999996815
 40
0.4999999999996815
 40
0.6249999999997826
 40
0.6249999999997826
 40
0.6562499999998098
 40
0.6562499999998098
 40
0.6874999999998368
 40
0.7499999999998606
 40
0.8124999999998843
 40
0.8124999999998843
 40
0.8437499999999003
 40
0.8437499999999003
 40
0.8749999999999163
 40
0.8749999999999163
 40
1.0
 40
1.0
 40
1.0
 40
1.0
 10
438.3343635403399
 20
307.420264168839
 30
0.0
 10
438.2831921194791
 20
307.4184790835476
 30
0.0
 10
438.2330854537456
 20
307.4115689501155
 30
0.0
 10
438.1594312655058
 20
307.3939557448731
 30
0.0
 10
438.1351328723933
 20
307.3868668824747
 30
0.0
 10
438.0990709637709
 20
307.3743771677361
 30
0.0
 10
438.0870843888988
 20
307.369891398214
 30
0.0
 10
438.0633988077171
 20
307.3603518948782
 30
0.0
 10
438.0517193214565
 20
307.3553081110817
 30
0.0
 10
437.9941203737365
 20
307.3287493001621
 30
0.0
 10
437.950572904305
 20
307.3032539620305
 30
0.0
 10
437.8992601252011
 20
307.2661466729337
 30
0.0
 10
437.8891551005367
 20
307.2584608706356
 30
0.0
 10
437.8692649488812
 20
307.2425524631266
 30
0.0
 10
437.8594588185751
 20
307.2343098313345
 30
0.0
 10
437.8308127603298
 20
307.2090155034362
 30
0.0
 10
437.8126687617794
 20
307.1913465484576
 30
0.0
 10
437.7610155562534
 20
307.1359902388489
 30
0.0
 10
437.7302577724434
 20
307.0959765780881
 30
0.0
 10
437.6965546726094
 20
307.0419483784858
 30
0.0
 10
437.6900437653766
 20
307.0309198439372
 30
0.0
 10
437.6776419988571
 20
307.0086888641663
 30
0.0
 10
437.6599199400283
 20
306.9750064330116
 30
0.0
 10
437.6347069978133
 20
306.9172194306589
 30
0.0
 10
437.6191099138331
 20
306.8692450429933
 30
0.0
 10
437.6091644623839
 20
306.8325956943776
 30
0.0
 10
437.6061419116813
 20
306.8202676126893
 30
0.0
 10
437.6006952022498
 20
306.7953831518682
 30
0.0
 10
437.5982693599874
 20
306.7828084536557
 30
0.0
 10
437.5877666723663
 20
306.7199364282774
 30
0.0
 10
437.5844148564578
 20
306.6692361163664
 30
0.0
 10
437.5862458887958
 20
306.6181225467541
 30
0.0
  0
SPLINE
  5
1FD
330
1F
100
AcDbEntity
  8
1
100
AcDbSpline
210
0.0
220
0.0
230
1.0
 70
     8
 71
     3
 72
    36
 73
    32
 74
     0
 42
0.000000001
 43
0.0000000001
 40
0.0
 40
0.0
 40
0.0
 40
0.0
 40
0.1249999999998808
 40
0.1249999999998808
 40
0.1874999999998202
 40
0.1874999999998202
 40
0.2187499999997888
 40
0.2187499999997888
 40
0.2499999999997575
 40
0.2499999999997575
 40
0.3749999999996915
 40
0.3749999999996915
 40
0.4062499999996942
 40
0.4062499999996942
 40
0.437499999999697
 40
0.437499999999697
 40
0.4999999999997474
 40
0.4999999999997474
 40
0.624999999999798
 40
0.624999999999798
 40
0.6562499999997815
 40
0.6562499999997815
 40
0.6874999999997651
 40
0.7499999999997322
 40
0.812499999999699
 40
0.812499999999699
 40
0.8437499999997157
 40
0.8437499999997157
 40
0.8749999999997323
 40
0.8749999999997323
 40
1.0
 40
1.0
 40
1.0
 40
1.0
 10
437.9848315709243
 20
295.4915375128587
 30
0.0
 10
437.9866627675073
 20
295.4404193583258
 30
0.0
 10
437.9936235916073
 20
295.3903603920705
 30
0.0
 10
438.0113193091498
 20
295.3167698802332
 30
0.0
 10
438.0184367637816
 20
295.2924913898152
 30
0.0
 10
438.0309710256358
 20
295.2564573187815
 30
0.0
 10
438.0354719608423
 20
295.2444797080586
 30
0.0
 10
438.0450421565833
 20
295.2208112566273
 30
0.0
 10
438.0501014395654
 20
295.2091399236547
 30
0.0
 10
438.0767384944301
 20
295.1515797299002
 30
0.0
 10
438.1022987993962
 20
295.1080568828485
 30
0.0
 10
438.1394902213021
 20
295.0567670142386
 30
0.0
 10
438.1471929977366
 20
295.0466661746363
 30
0.0
 10
438.163135653198
 20
295.0267835868442
 30
0.0
 10
438.1713955984338
 20
295.0169808405389
 30
0.0
 10
438.1967418073729
 20
294.9883436178559
 30
0.0
 10
438.2144453911812
 20
294.9702037923627
 30
0.0
 10
438.2699057081493
 20
294.9185581005551
 30
0.0
 10
438.3099888671194
 20
294.8877987012507
 30
0.0
 10
438.3641041458406
 20
294.8540850364171
 30
0.0
 10
438.3751501369714
 20
294.8475715776358
 30
0.0
 10
438.3974156809808
 20
294.8351638937015
 30
0.0
 10
438.4311495584147
 20
294.8174317254132
 30
0.0
 10
438.4890203110328
 20
294.7921958019997
 30
0.0
 10
438.5370596735088
 20
294.7765740650684
 30
0.0
 10
438.5737569352625
 20
294.7666076124026
 30
0.0
 10
438.58610085506
 20
294.7635776514854
 30
0.0
 10
438.6110167202327
 20
294.7581152835288
 30
0.0
 10
438.6236070057972
 20
294.7556811789376
 30
0.0
 10
438.6865555615595
 20
294.7451354388196
 30
0.0
 10
438.7373131679561
 20
294.7417434238632
 30
0.0
 10
438.7884799991186
 20
294.7435283490455
 30
0.0
  0
SPLINE
  5
1FE
330
1F
100
AcDbEntity
  8
1
100
AcDbSpline
210
0.0
220
0.0
230
1.0
 70
     8
 71
     3
 72
    36
 73
    32
 74
     0
 42
0.000000001
 43
0.0000000001
 40
0.0
 40
0.0
 40
0.0
 40
0.0
 40
0.1249999999998158
 40
0.1249999999998158
 40
0.1874999999997573
 40
0.1874999999997573
 40
0.2187499999997284
 40
0.2187499999997284
 40
0.2499999999996995
 40
0.2499999999996995
 40
0.3749999999997699
 40
0.3749999999997699
 40
0.406249999999801
 40
0.406249999999801
 40
0.4374999999998323
 40
0.4374999999998323
 40
0.4999999999998436
 40
0.4999999999998436
 40
0.6249999999999148
 40
0.6249999999999148
 40
0.656249999999932
 40
0.656249999999932
 40
0.6874999999999494
 40
0.7499999999999556
 40
0.8124999999999619
 40
0.8124999999999619
 40
0.8437499999999658
 40
0.8437499999999658
 40
0.8749999999999701
 40
0.8749999999999701
 40
1.0
 40
1.0
 40
1.0
 40
1.0
 10
449.9266591981968
 20
295.1320772602444
 30
0.0
 10
449.9778306190578
 20
295.1338623455357
 30
0.0
 10
450.0279372847913
 20
295.1407724789678
 30
0.0
 10
450.1015914730311
 20
295.1583856842103
 30
0.0
 10
450.1258898661436
 20
295.1654745466087
 30
0.0
 10
450.161951774766
 20
295.1779642613474
 30
0.0
 10
450.173938349638
 20
295.1824500308695
 30
0.0
 10
450.1976239308199
 20
295.1919895342054
 30
0.0
 10
450.2093034170804
 20
295.1970333180017
 30
0.0
 10
450.2669023648003
 20
295.2235921289212
 30
0.0
 10
450.310449834232
 20
295.2490874670529
 30
0.0
 10
450.3617626133358
 20
295.2861947561497
 30
0.0
 10
450.3718676380001
 20
295.2938805584478
 30
0.0
 10
450.3917577896556
 20
295.3097889659568
 30
0.0
 10
450.4015639199618
 20
295.318031597749
 30
0.0
 10
450.4302099782072
 20
295.3433259256474
 30
0.0
 10
450.4483539767573
 20
295.3609948806258
 30
0.0
 10
450.5000071822836
 20
295.4163511902345
 30
0.0
 10
450.5307649660935
 20
295.4563648509953
 30
0.0
 10
450.5644680659274
 20
295.5103930505977
 30
0.0
 10
450.5709789731603
 20
295.5214215851462
 30
0.0
 10
450.5833807396798
 20
295.5436525649171
 30
0.0
 10
450.6011027985087
 20
295.5773349960718
 30
0.0
 10
450.6263157407237
 20
295.6351219984245
 30
0.0
 10
450.6419128247038
 20
295.6830963860901
 30
0.0
 10
450.6518582761531
 20
295.7197457347058
 30
0.0
 10
450.6548808268556
 20
295.732073816394
 30
0.0
 10
450.6603275362871
 20
295.7569582772152
 30
0.0
 10
450.6627533785494
 20
295.7695329754278
 30
0.0
 10
450.6732560661706
 20
295.832405000806
 30
0.0
 10
450.6766078820791
 20
295.8831053127171
 30
0.0
 10
450.6747768497409
 20
295.9342188823294
 30
0.0
  0
SPLINE
  5
1FF
330
1F
100
AcDbEntity
  8
1
100
AcDbSpline
210
0.0
220
0.0
230
1.0
 70
     8
 71
     3
 72
    27
 73
    23
 74
     0
 42
0.000000001
 43
0.0000000001
 40
0.0
 40
0.0
 40
0.0
 40
0.0
 40
0.1358119458631143
 40
0.1358119458631143
 40
0.2037179187946741
 40
0.2037179187946741
 40
0.271623891726234
 40
0.271623891726234
 40
0.4074358375894219
 40
0.4074358375894219
 40
0.4753418105210156
 40
0.4753418105210156
 40
0.5432477834526094
 40
0.5432477834526094
 40
0.6790597293157697
 40
0.6790597293157697
 40
0.74696570224735
 40
0.74696570224735
 40
0.8148716751789301
 40
0.8148716751789301
 40
0.9506836210420853
 40
1.0
 40
1.0
 40
1.0
 40
1.0
 10
442.5999899797418
 20
300.3641904024534
 30
0.0
 10
442.5744877936523
 20
300.3829311856256
 30
0.0
 10
442.5507102950485
 20
300.4035327229667
 30
0.0
 10
442.5175951106209
 20
300.4371774113015
 30
0.0
 10
442.5069838288266
 20
300.4488514884268
 30
0.0
 10
442.4866333104751
 20
300.4731358144204
 30
0.0
 10
442.4768711321141
 20
300.4857859359062
 30
0.0
 10
442.4493713519549
 20
300.524549093709
 30
0.0
 10
442.4332574894356
 20
300.5516288099213
 30
0.0
 10
442.4123636642836
 20
300.5940737547268
 30
0.0
 10
442.4059477552388
 20
300.6085277274079
 30
0.0
 10
442.3942357909397
 20
300.6380593224138
 30
0.0
 10
442.3889202719307
 20
300.6532086715067
 30
0.0
 10
442.3749194459549
 20
300.698931577218
 30
0.0
 10
442.3681170083026
 20
300.729829570011
 30
0.0
 10
442.3615957088069
 20
300.7767818791198
 30
0.0
 10
442.3600386298984
 20
300.7925340243319
 30
0.0
 10
442.3581737827956
 20
300.8242437300581
 30
0.0
 10
442.3578677579448
 20
300.8402604578764
 30
0.0
 10
442.3588719661164
 20
300.88820708788
 30
0.0
 10
442.3632235524861
 20
300.9311426805834
 30
0.0
 10
442.3720559574238
 20
300.9732472905576
 30
0.0
 10
442.3747302010963
 20
300.9844038555451
 30
0.0
  0
SPLINE
  5
200
330
1F
100
AcDbEntity
  8
1
100
AcDbSpline
210
0.0
220
0.0
230
1.0
 70
     8
 71
     3
 72
    21
 73
    17
 74
     0
 42
0.000000001
 43
0.0000000001
 40
0.0
 40
0.0
 40
0.0
 40
0.0
 40
0.1243620819418488
 40
0.1243620819418488
 40
0.2119258737476621
 40
0.2119258737476621
 40
0.2994896655534755
 40
0.2994896655534755
 40
0.4746172491651022
 40
0.4746172491651022
 40
0.5621810409709184
 40
0.5621810409709184
 40
0.6497448327767347
 40
0.6497448327767347
 40
0.8248724163883673
 40
1.0
 40
1.0
 40
1.0
 40
1.0
 10
445.3071006161834
 20
300.1479797666803
 30
0.0
 10
445.2967154740454
 20
300.128006729067
 30
0.0
 10
445.2852545245633
 20
300.1087049947213
 30
0.0
 10
445.2639111511022
 20
300.0769439157957
 30
0.0
 10
445.2545626543636
 20
300.0641514212375
 30
0.0
 10
445.2347843800874
 20
300.0392411009159
 30
0.0
 10
445.2243021888294
 20
300.0270706321505
 30
0.0
 10
445.1916736284324
 20
299.9921313705798
 30
0.0
 10
445.1683336503693
 20
299.9708556601582
 30
0.0
 10
445.1310147630545
 20
299.9418766205122
 30
0.0
 10
445.1181884650608
 20
299.9327083959262
 30
0.0
 10
445.0917527272426
 20
299.915367707836
 30
0.0
 10
445.0780915383246
 20
299.9071675326536
 30
0.0
 10
445.0362641873771
 20
299.8843067763462
 30
0.0
 10
444.9788521889389
 20
299.8587214007337
 30
0.0
 10
444.918312208076
 20
299.842503110365
 30
0.0
 10
444.8872411729292
 20
299.8368075968496
 30
0.0
  0
SPLINE
  5
201
330
1F
100
AcDbEntity
  8
1
100
AcDbSpline
210
0.0
220
0.0
230
1.0
 70
     8
 71
     3
 72
    18
 73
    14
 74
     0
 42
0.000000001
 43
0.0000000001
 40
0.0
 40
0.0
 40
0.0
 40
0.0
 40
0.2127774583466892
 40
0.2127774583466892
 40
0.4255549166933782
 40
0.4255549166933782
 40
0.531943645866714
 40
0.531943645866714
 40
0.63833237504005
 40
0.63833237504005
 40
0.8511098333867103
 40
0.8511098333867103
 40
1.0
 40
1.0
 40
1.0
 40
1.0
 10
442.6973790318252
 20
301.8232599282248
 30
0.0
 10
442.7098647121225
 20
301.795042382495
 30
0.0
 10
442.7200298443436
 20
301.7660386262294
 30
0.0
 10
442.735750043653
 20
301.7064092709612
 30
0.0
 10
442.741307328762
 20
301.6757845244042
 30
0.0
 10
442.7459232837743
 20
301.628490300566
 30
0.0
 10
442.7468234260746
 20
301.6125966341146
 30
0.0
 10
442.7473319533996
 20
301.5809343722948
 30
0.0
 10
442.7469464784486
 20
301.5651076756768
 30
0.0
 10
442.7438720729504
 20
301.5176369842758
 30
0.0
 10
442.739267036005
 20
301.485951756679
 30
0.0
 10
442.7269014627925
 20
301.4322818925252
 30
0.0
 10
442.7206118611338
 20
301.4106929687084
 30
0.0
 10
442.7131703361222
 20
301.3895895348526
 30
0.0
  0
SPLINE
  5
202
330
1F
100
AcDbEntity
  8
1
100
AcDbSpline
210
0.0
220
0.0
230
1.0
 70
     8
 71
     3
 72
    10
 73
     6
 74
     0
 42
0.000000001
 43
0.0000000001
 40
0.0
 40
0.0
 40
0.0
 40
0.0
 40
0.5
 40
0.5
 40
1.0
 40
1.0
 40
1.0
 40
1.0
 10
442.6541237026174
 20
301.8687021586214
 30
0.0
 10
442.6636866990368
 20
301.8638549169678
 30
0.0
 10
442.6722136216034
 20
301.8575435494034
 30
0.0
 10
442.6870217163926
 20
301.8420450252303
 30
0.0
 10
442.6929703105193
 20
301.8332236059813
 30
0.0
 10
442.6973790318252
 20
301.8232599282248
 30
0.0
  0
SPLINE
  5
203
330
1F
100
AcDbEntity
  8
1
100
AcDbSpline
210
0.0
220
0.0
230
1.0
 70
     8
 71
     3
 72
    20
 73
    16
 74
     0
 42
0.000000001
 43
0.0000000001
 40
0.0
 40
0.0
 40
0.0
 40
0.0
 40
0.1249999999999999
 40
0.1249999999999999
 40
0.2499999999999998
 40
0.2499999999999998
 40
0.3749999999999998
 40
0.3749999999999998
 40
0.4999999999999998
 40
0.4999999999999998
 40
0.6249999999999997
 40
0.6249999999999997
 40
0.7499999999999997
 40
0.7499999999999997
 40
1.0
 40
1.0
 40
1.0
 40
1.0
 10
442.6541237026174
 20
301.8687021586214
 30
0.0
 10
442.6499399467572
 20
301.8708227989297
 30
0.0
 10
442.6459458181973
 20
301.873234865797
 30
0.0
 10
442.6383344298973
 20
301.8786378772182
 30
0.0
 10
442.6347154547406
 20
301.8816371699784
 30
0.0
 10
442.6280278374526
 20
301.8880769898678
 30
0.0
 10
442.6249353348425
 20
301.891532421834
 30
0.0
 10
442.6192616345794
 20
301.8989214696739
 30
0.0
 10
442.6166638596123
 20
301.9028889089367
 30
0.0
 10
442.6121298445622
 20
301.9111324937392
 30
0.0
 10
442.6101853165097
 20
301.9154080410514
 30
0.0
 10
442.606947879493
 20
301.9242687438872
 30
0.0
 10
442.6056490153745
 20
301.9288850368306
 30
0.0
 10
442.6028495748668
 20
301.9430144624298
 30
0.0
 10
442.6024382043772
 20
301.9526031446637
 30
0.0
 10
442.6035743088759
 20
301.962368577845
 30
0.0
  0
SPLINE
  5
204
330
1F
100
AcDbEntity
  8
1
100
AcDbSpline
210
0.0
220
0.0
230
1.0
 70
     8
 71
     3
 72
    14
 73
    10
 74
     0
 42
0.000000001
 43
0.0000000001
 40
0.0
 40
0.0
 40
0.0
 40
0.0
 40
0.0909779694513154
 40
0.0909779694513154
 40
0.3939853129675437
 40
0.3939853129675437
 40
0.696992656483772
 40
0.696992656483772
 40
1.0
 40
1.0
 40
1.0
 40
1.0
 10
445.2653588343003
 20
300.9393309826594
 30
0.0
 10
445.2685319446005
 20
300.9483296085339
 30
0.0
 10
445.2719129914394
 20
300.9572270892777
 30
0.0
 10
445.2874396508653
 20
300.9953283497973
 30
0.0
 10
445.3016547991629
 20
301.0235406459904
 30
0.0
 10
445.3346964555211
 20
301.0776982041333
 30
0.0
 10
445.3530381135898
 20
301.102857698662
 30
0.0
 10
445.3931209055415
 20
301.1496781539043
 30
0.0
 10
445.4148637942534
 20
301.1713372038718
 30
0.0
 10
445.4383292199334
 20
301.1912655042936
 30
0.0
  0
SPLINE
  5
205
330
1F
100
AcDbEntity
  8
1
100
AcDbSpline
210
0.0
220
0.0
230
1.0
 70
     8
 71
     3
 72
    10
 73
     6
 74
     0
 42
0.000000001
 43
0.0000000001
 40
0.0
 40
0.0
 40
0.0
 40
0.0
 40
0.5
 40
0.5
 40
1.0
 40
1.0
 40
1.0
 40
1.0
 10
445.4383292199334
 20
301.1912655042936
 30
0.0
 10
445.4466150270691
 20
301.1983023275794
 30
0.0
 10
445.455846176722
 20
301.2036697786697
 30
0.0
 10
445.4758381057501
 20
301.2111202767556
 30
0.0
 10
445.486173306742
 20
301.2130605984727
 30
0.0
 10
445.4968452684162
 20
301.2132418054313
 30
0.0
  0
SPLINE
  5
206
330
1F
100
AcDbEntity
  8
1
100
AcDbSpline
210
0.0
220
0.0
230
1.0
 70
     8
 71
     3
 72
    16
 73
    12
 74
     0
 42
0.000000001
 43
0.0000000001
 40
0.0
 40
0.0
 40
0.0
 40
0.0
 40
0.0631184671003901
 40
0.0631184671003901
 40
0.2504947736804977
 40
0.2504947736804977
 40
0.4378710802606057
 40
0.4378710802606057
 40
0.6252473868407133
 40
0.6252473868407133
 40
1.0
 40
1.0
 40
1.0
 40
1.0
 10
445.5631980011736
 20
301.2427034224337
 30
0.0
 10
445.5621116109948
 20
301.2415356626024
 30
0.0
 10
445.5609939481679
 20
301.2403951159701
 30
0.0
 10
445.5564339953092
 20
301.2359769896677
 30
0.0
 10
445.5527757579965
 20
301.2329484937686
 30
0.0
 10
445.545161311499
 20
301.2275572831387
 30
0.0
 10
445.5411805549133
 20
301.2251703512859
 30
0.0
 10
445.5328780335153
 20
301.2210049192997
 30
0.0
 10
445.5285202865857
 20
301.2192174366476
 30
0.0
 10
445.5152787770662
 20
301.2149180032605
 30
0.0
 10
445.5061919022451
 20
301.2134005086895
 30
0.0
 10
445.4968452684162
 20
301.2132418054313
 30
0.0
  0
SPLINE
  5
207
330
1F
100
AcDbEntity
  8
1
100
AcDbSpline
210
0.0
220
0.0
230
1.0
 70
     8
 71
     3
 72
     8
 73
     4
 74
     0
 42
0.000000001
 43
0.0000000001
 40
0.0
 40
0.0
 40
0.0
 40
0.0
 40
1.0
 40
1.0
 40
1.0
 40
1.0
 10
442.6035743088759
 20
301.962368577845
 30
0.0
 10
442.6048538840135
 20
301.973367218835
 30
0.0
 10
442.6064380761206
 20
301.9842989486466
 30
0.0
 10
442.6083251945884
 20
301.9951638909034
 30
0.0
  0
SPLINE
  5
208
330
1F
100
AcDbEntity
  8
1
100
AcDbSpline
210
0.0
220
0.0
230
1.0
 70
     8
 71
     3
 72
    10
 73
     6
 74
     0
 42
0.000000001
 43
0.0000000001
 40
0.0
 40
0.0
 40
0.0
 40
0.0
 40
0.6628244121405136
 40
0.6628244121405136
 40
1.0
 40
1.0
 40
1.0
 40
1.0
 10
443.9316430189331
 20
302.6434186755188
 30
0.0
 10
443.9311394495858
 20
302.6412471738246
 30
0.0
 10
443.9305547173477
 20
302.6390860542878
 30
0.0
 10
443.9295498013501
 20
302.6358425231673
 30
0.0
 10
443.9291917404312
 20
302.6347571876681
 30
0.0
 10
443.9288143230694
 20
302.6336802024365
 30
0.0
  0
SPLINE
  5
209
330
1F
100
AcDbEntity
  8
1
100
AcDbSpline
210
0.0
220
0.0
230
1.0
 70
     8
 71
     3
 72
    27
 73
    23
 74
     0
 42
0.000000001
 43
0.0000000001
 40
0.0
 40
0.0
 40
0.0
 40
0.0
 40
0.1249999999998281
 40
0.1249999999998281
 40
0.1874999999997941
 40
0.1874999999997941
 40
0.24999999999976
 40
0.24999999999976
 40
0.3749999999998003
 40
0.3749999999998003
 40
0.4374999999998201
 40
0.4374999999998201
 40
0.4999999999998401
 40
0.4999999999998401
 40
0.6249999999998798
 40
0.6249999999998798
 40
0.6874999999999011
 40
0.6874999999999011
 40
0.7499999999999223
 40
0.7499999999999223
 40
0.874999999999961
 40
1.0
 40
1.0
 40
1.0
 40
1.0
 10
443.9837484445196
 20
299.5608051257881
 30
0.0
 10
443.9545324688029
 20
299.5480836780308
 30
0.0
 10
443.9245945217207
 20
299.5377915954831
 30
0.0
 10
443.8786256693761
 20
299.5259414363621
 30
0.0
 10
443.8631249023217
 20
299.5225921199337
 30
0.0
 10
443.8317611254241
 20
299.517119290543
 30
0.0
 10
443.8158520516164
 20
299.5149958874664
 30
0.0
 10
443.7683364264118
 20
299.5105828770385
 30
0.0
 10
443.7367250448411
 20
299.5101862245968
 30
0.0
 10
443.6894056024456
 20
299.5133484358455
 30
0.0
 10
443.6736487975242
 20
299.5150316237947
 30
0.0
 10
443.6421685945736
 20
299.519681884153
 30
0.0
 10
443.6263733430068
 20
299.5226680415522
 30
0.0
 10
443.5797442789578
 20
299.5334516285243
 30
0.0
 10
443.5495916654011
 20
299.5430446242007
 30
0.0
 10
443.5057208665983
 20
299.5609311697168
 30
0.0
 10
443.4913247184192
 20
299.567479008258
 30
0.0
 10
443.4629933289406
 20
299.5817611933467
 30
0.0
 10
443.4490078316815
 20
299.5895267586191
 30
0.0
 10
443.4081237705068
 20
299.6144384050489
 30
0.0
 10
443.3569958498955
 20
299.6515624272323
 30
0.0
 10
443.3123471596299
 20
299.6961565814358
 30
0.0
 10
443.2916937484839
 20
299.7203755954915
 30
0.0
  0
SPLINE
  5
20A
330
1F
100
AcDbEntity
  8
1
100
AcDbSpline
210
0.0
220
0.0
230
1.0
 70
     8
 71
     3
 72
    16
 73
    12
 74
     0
 42
0.000000001
 43
0.0000000001
 40
0.0
 40
0.0
 40
0.0
 40
0.0
 40
0.3587940320742714
 40
0.3587940320742714
 40
0.5381910481113785
 40
0.5381910481113785
 40
0.7175880641484858
 40
0.7175880641484858
 40
0.8969850801855928
 40
0.8969850801855928
 40
1.0
 40
1.0
 40
1.0
 40
1.0
 10
443.2916937484839
 20
299.7203755954915
 30
0.0
 10
443.2852268953838
 20
299.7279588854877
 30
0.0
 10
443.2800406714116
 20
299.736494998115
 30
0.0
 10
443.2744266137975
 20
299.7499046291265
 30
0.0
 10
443.2728974990695
 20
299.7545009588749
 30
0.0
 10
443.2705288732872
 20
299.7639477378537
 30
0.0
 10
443.2697066014553
 20
299.7687523832848
 30
0.0
 10
443.2687859973643
 20
299.7782960285101
 30
0.0
 10
443.2686789455999
 20
299.7830686656623
 30
0.0
 10
443.2690582180158
 20
299.7905826135173
 30
0.0
 10
443.2693145966504
 20
299.7933356774329
 30
0.0
 10
443.2696846198715
 20
299.7960696512708
 30
0.0
  0
SPLINE
  5
20B
330
1F
100
AcDbEntity
  8
1
100
AcDbSpline
210
0.0
220
0.0
230
1.0
 70
     8
 71
     3
 72
    10
 73
     6
 74
     0
 42
0.000000001
 43
0.0000000001
 40
0.0
 40
0.0
 40
0.0
 40
0.0
 40
0.1325035073439035
 40
0.1325035073439035
 40
1.0
 40
1.0
 40
1.0
 40
1.0
 10
444.0118192576728
 20
299.5795181474139
 30
0.0
 10
444.0107403971234
 20
299.5784837848009
 30
0.0
 10
444.0096358283226
 20
299.577472639744
 30
0.0
 10
444.001118553366
 20
299.5700357589701
 30
0.0
 10
443.9928830631101
 20
299.5647825925791
 30
0.0
 10
443.9837484445196
 20
299.5608051257881
 30
0.0
  0
SPLINE
  5
20C
330
1F
100
AcDbEntity
  8
1
100
AcDbSpline
210
0.0
220
0.0
230
1.0
 70
     8
 71
     3
 72
    10
 73
     6
 74
     0
 42
0.000000001
 43
0.0000000001
 40
0.0
 40
0.0
 40
0.0
 40
0.0
 40
0.6419716905431452
 40
0.6419716905431452
 40
1.0
 40
1.0
 40
1.0
 40
1.0
 10
443.2899969140485
 20
299.8924248773819
 30
0.0
 10
443.2920123256445
 20
299.881458087283
 30
0.0
 10
443.2921145031185
 20
299.8704747075283
 30
0.0
 10
443.2894684104617
 20
299.8535852696764
 30
0.0
 10
443.2879876748145
 20
299.8477216811778
 30
0.0
 10
443.2859774450053
 20
299.8420397247555
 30
0.0
  0
SPLINE
  5
20D
330
1F
100
AcDbEntity
  8
1
100
AcDbSpline
210
0.0
220
0.0
230
1.0
 70
     8
 71
     3
 72
     8
 73
     4
 74
     0
 42
0.000000001
 43
0.0000000001
 40
0.0
 40
0.0
 40
0.0
 40
0.0
 40
1.0
 40
1.0
 40
1.0
 40
1.0
 10
444.0474350580655
 20
299.6887767913593
 30
0.0
 10
444.0506656614167
 20
299.6979934537462
 30
0.0
 10
444.0552084621557
 20
299.706617299013
 30
0.0
 10
444.0611350605273
 20
299.7146197458732
 30
0.0
  0
SPLINE
  5
20E
330
1F
100
AcDbEntity
  8
1
100
AcDbSpline
210
0.0
220
0.0
230
1.0
 70
     8
 71
     3
 72
    20
 73
    16
 74
     0
 42
0.000000001
 43
0.0000000001
 40
0.0
 40
0.0
 40
0.0
 40
0.0
 40
0.1250000000000017
 40
0.1250000000000017
 40
0.2500000000000033
 40
0.2500000000000033
 40
0.3750000000000049
 40
0.3750000000000049
 40
0.5000000000000067
 40
0.5000000000000067
 40
0.6250000000000085
 40
0.6250000000000085
 40
0.75000000000001
 40
0.75000000000001
 40
1.0
 40
1.0
 40
1.0
 40
1.0
 10
442.7081219647104
 20
300.3613317692711
 30
0.0
 10
442.7041063916681
 20
300.3587578931835
 30
0.0
 10
442.6999333468002
 20
300.3564940549682
 30
0.0
 10
442.6912745055225
 20
300.3525824602003
 30
0.0
 10
442.6867810366324
 20
300.3509375854782
 30
0.0
 10
442.6776912724251
 20
300.3483456549127
 30
0.0
 10
442.6730695642693
 20
300.3473853388147
 30
0.0
 10
442.6636705709186
 20
300.3461472366543
 30
0.0
 10
442.6588551504286
 20
300.3458719790655
 30
0.0
 10
442.6492959649935
 20
300.3460497756987
 30
0.0
 10
442.6445477188539
 20
300.3464953158311
 30
0.0
 10
442.6351153542253
 20
300.3481066356956
 30
0.0
 10
442.6304005079148
 20
300.349282931319
 30
0.0
 10
442.6165781471728
 20
300.3539032772209
 30
0.0
 10
442.6079636185614
 20
300.3583308170952
 30
0.0
 10
442.5999899797418
 20
300.3641904024534
 30
0.0
  0
SPLINE
  5
20F
330
1F
100
AcDbEntity
  8
1
100
AcDbSpline
210
0.0
220
0.0
230
1.0
 70
     8
 71
     3
 72
    10
 73
     6
 74
     0
 42
0.000000001
 43
0.0000000001
 40
0.0
 40
0.0
 40
0.0
 40
0.0
 40
0.5
 40
0.5
 40
1.0
 40
1.0
 40
1.0
 40
1.0
 10
442.7081219647104
 20
300.3613317692711
 30
0.0
 10
442.7173006634467
 20
300.3672150723376
 30
0.0
 10
442.7272260444522
 20
300.3714677278091
 30
0.0
 10
442.7484396162896
 20
300.3765889169409
 30
0.0
 10
442.7592337606161
 20
300.377350377833
 30
0.0
 10
442.7702319495133
 20
300.376204777723
 30
0.0
  0
SPLINE
  5
210
330
1F
100
AcDbEntity
  8
1
100
AcDbSpline
210
0.0
220
0.0
230
1.0
 70
     8
 71
     3
 72
    24
 73
    20
 74
     0
 42
0.000000001
 43
0.0000000001
 40
0.0
 40
0.0
 40
0.0
 40
0.0
 40
0.1250000000001262
 40
0.1250000000001262
 40
0.2500000000002525
 40
0.2500000000002525
 40
0.3125000000002672
 40
0.3125000000002672
 40
0.3750000000002821
 40
0.3750000000002821
 40
0.5000000000002257
 40
0.5000000000002257
 40
0.6250000000001693
 40
0.6250000000001693
 40
0.7500000000001128
 40
0.7500000000001128
 40
0.8750000000000564
 40
0.8750000000000564
 40
1.0
 40
1.0
 40
1.0
 40
1.0
 10
442.7702319495133
 20
300.376204777723
 30
0.0
 10
442.8013803228766
 20
300.3729602817172
 30
0.0
 10
442.8320120322761
 20
300.3673072329794
 30
0.0
 10
442.8922897737892
 20
300.3511841544858
 30
0.0
 10
442.9219362310465
 20
300.3407164806357
 30
0.0
 10
442.9656434515692
 20
300.3211021284653
 30
0.0
 10
442.9799913222212
 20
300.313944116889
 30
0.0
 10
443.0078998541342
 20
300.2985671986011
 30
0.0
 10
443.0215146422256
 20
300.2903245251487
 30
0.0
 10
443.0613431017176
 20
300.2639327299311
 30
0.0
 10
443.0865852562662
 20
300.2440966815318
 30
0.0
 10
443.1340703701023
 20
300.199886428307
 30
0.0
 10
443.1556226346323
 20
300.1761668253076
 30
0.0
 10
443.1945978993769
 20
300.1256794710665
 30
0.0
 10
443.212025654267
 20
300.098900862282
 30
0.0
 10
443.2426557154663
 20
300.0422698933174
 30
0.0
 10
443.2554152747786
 20
300.0132459384065
 30
0.0
 10
443.2762330878393
 20
299.9538539425403
 30
0.0
 10
443.2842888261405
 20
299.9234852335277
 30
0.0
 10
443.2899969140485
 20
299.8924248773819
 30
0.0
  0
SPLINE
  5
211
330
1F
100
AcDbEntity
  8
1
100
AcDbSpline
210
0.0
220
0.0
230
1.0
 70
     8
 71
     3
 72
    18
 73
    14
 74
     0
 42
0.000000001
 43
0.0000000001
 40
0.0
 40
0.0
 40
0.0
 40
0.0
 40
0.2500000000000029
 40
0.2500000000000029
 40
0.375000000000007
 40
0.375000000000007
 40
0.5000000000000112
 40
0.5000000000000112
 40
0.6250000000000155
 40
0.6250000000000155
 40
0.7500000000000196
 40
0.7500000000000196
 40
1.0
 40
1.0
 40
1.0
 40
1.0
 10
444.8872411729292
 20
299.8368075968496
 30
0.0
 10
444.8775126272542
 20
299.835024294069
 30
0.0
 10
444.8676215886997
 20
299.8348304503977
 30
0.0
 10
444.8533678162774
 20
299.836721050363
 30
0.0
 10
444.848682481311
 20
299.8377115137779
 30
0.0
 10
444.8394453989226
 20
299.8404180544863
 30
0.0
 10
444.834941352953
 20
299.8421259980423
 30
0.0
 10
444.8263564369462
 20
299.8461361913866
 30
0.0
 10
444.8222425287729
 20
299.8484478313614
 30
0.0
 10
444.8143672063255
 20
299.8536747288421
 30
0.0
 10
444.8105797421832
 20
299.8566170640162
 30
0.0
 10
444.8000547003945
 20
299.8661206451071
 30
0.0
 10
444.7940741340572
 20
299.8733574350673
 30
0.0
 10
444.7891385826467
 20
299.8815014883888
 30
0.0
  0
SPLINE
  5
212
330
1F
100
AcDbEntity
  8
1
100
AcDbSpline
210
0.0
220
0.0
230
1.0
 70
     8
 71
     3
 72
    10
 73
     6
 74
     0
 42
0.000000001
 43
0.0000000001
 40
0.0
 40
0.0
 40
0.0
 40
0.0
 40
0.5
 40
0.5
 40
1.0
 40
1.0
 40
1.0
 40
1.0
 10
444.7400439911428
 20
299.9220154853004
 30
0.0
 10
444.7503987720646
 20
299.9182376118969
 30
0.0
 10
444.7597942450375
 20
299.91279291285
 30
0.0
 10
444.7765153263768
 20
299.8989239893734
 30
0.0
 10
444.7835032933791
 20
299.8908001649625
 30
0.0
 10
444.7891385826467
 20
299.8815014883888
 30
0.0
  0
SPLINE
  5
213
330
1F
100
AcDbEntity
  8
1
100
AcDbSpline
210
0.0
220
0.0
230
1.0
 70
     8
 71
     3
 72
    24
 73
    20
 74
     0
 42
0.000000001
 43
0.0000000001
 40
0.0
 40
0.0
 40
0.0
 40
0.0
 40
0.125
 40
0.125
 40
0.25
 40
0.25
 40
0.3125
 40
0.3125
 40
0.375
 40
0.375
 40
0.5
 40
0.5
 40
0.625
 40
0.625
 40
0.75
 40
0.75
 40
0.875
 40
0.875
 40
1.0
 40
1.0
 40
1.0
 40
1.0
 10
444.0611350605273
 20
299.7146197458732
 30
0.0
 10
444.0799507192346
 20
299.7400257713035
 30
0.0
 10
444.1005568222546
 20
299.7637712865555
 30
0.0
 10
444.1453628753408
 20
299.8079806247285
 30
0.0
 10
444.1695610525138
 20
299.8284460053997
 30
0.0
 10
444.2087880769503
 20
299.8565098281828
 30
0.0
 10
444.2222757552088
 20
299.8653597275963
 30
0.0
 10
444.2497447080167
 20
299.881841271428
 30
0.0
 10
444.2637740071956
 20
299.8895078519367
 30
0.0
 10
444.306747137469
 20
299.9107863419941
 30
0.0
 10
444.3366190770946
 20
299.9227039840927
 30
0.0
 10
444.3986534581127
 20
299.9416446793031
 30
0.0
 10
444.4299048173098
 20
299.9483984516246
 30
0.0
 10
444.4928562249233
 20
299.9567828107142
 30
0.0
 10
444.524568520022
 20
299.9584120420018
 30
0.0
 10
444.58842096732
 20
299.9564525646913
 30
0.0
 10
444.6196311089733
 20
299.9528972201897
 30
0.0
 10
444.6807799338797
 20
299.9410296597067
 30
0.0
 10
444.7107178796246
 20
299.9327149233254
 30
0.0
 10
444.7400439911428
 20
299.9220154853004
 30
0.0
  0
SPLINE
  5
21A
330
1F
100
AcDbEntity
  8
95
100
AcDbSpline
210
0.0
220
0.0
230
1.0
 70
     8
 71
     5
 72
    12
 73
     6
 74
     0
 42
0.000000001
 43
0.0000000001
 40
0.0
 40
0.0
 40
0.0
 40
0.0
 40
0.0
 40
0.0
 40
1.0
 40
1.0
 40
1.0
 40
1.0
 40
1.0
 40
1.0
 10
450.5910066880209
 20
298.3844041148298
 30
0.0
 10
450.6077016796345
 20
298.3580764106396
 30
0.0
 10
450.6243974690447
 20
298.3317492123503
 30
0.0
 10
450.6410940674645
 20
298.3054225271205
 30
0.0
 10
450.6577914864238
 20
298.2790963623097
 30
0.0
 10
450.6744897377932
 20
298.2527707254933
 30
0.0
  0
SPLINE
  5
21B
330
1F
100
AcDbEntity
  8
1
100
AcDbSpline
210
0.0
220
0.0
230
1.0
 70
     8
 71
     3
 72
    20
 73
    16
 74
     0
 42
0.000000001
 43
0.0000000001
 40
0.0
 40
0.0
 40
0.0
 40
0.0
 40
0.1250000000000017
 40
0.1250000000000017
 40
0.1875000000000025
 40
0.1875000000000025
 40
0.2500000000000033
 40
0.2500000000000033
 40
0.5000000000000023
 40
0.5000000000000023
 40
0.7500000000000011
 40
0.7500000000000011
 40
0.8750000000000003
 40
0.8750000000000003
 40
1.0
 40
1.0
 40
1.0
 40
1.0
 10
294.9436335554977
 20
284.3992317934923
 30
0.0
 10
294.6632238263589
 20
284.4809387632944
 30
0.0
 10
294.3800570300583
 20
284.5563557796511
 30
0.0
 10
293.9508353676105
 20
284.6591399075064
 30
0.0
 10
293.8069776359836
 20
284.6916862425601
 30
0.0
 10
293.5178740176001
 20
284.7531487613131
 30
0.0
 10
293.3732607238001
 20
284.7819312066107
 30
0.0
 10
292.6498844505017
 20
284.9159908619837
 30
0.0
 10
292.070192190017
 20
284.9916971055549
 30
0.0
 10
290.9087706306675
 20
285.0777279145047
 30
0.0
 10
290.3270430567898
 20
285.0881063348534
 30
0.0
 10
289.4528601783765
 20
285.0525323516046
 30
0.0
 10
289.1612002150822
 20
285.0321411303966
 30
0.0
 10
288.5773306280122
 20
284.9737440918938
 30
0.0
 10
288.2851210781695
 20
284.9357404494591
 30
0.0
 10
287.9926239639545
 20
284.8885597396238
 30
0.0
  0
LINE
  5
235
330
1F
100
AcDbEntity
  8
SK4
100
AcDbLine
 10
210.904842
 20
288.907994
 30
0.0
 11
277.404842
 21
288.907994
 31
0.0
  0
LINE
  5
236
330
1F
100
AcDbEntity
  8
4
100
AcDbLine
 10
264.992624
 20
288.907994
 30
0.0
 11
455.208963
 21
288.907994
 31
0.0
  0
MTEXT
  5
23C
330
1F
100
AcDbEntity
  8
SK6
100
AcDbMText
 10
304.314982
 20
248.747444
 30
0.0
 40
3.5
 41
0.0
 71
     7
 72
     5
  1
\W0.7147;804D-38-152-S32
  7
cesky
 73
     2
 44
0.8433729999999998
  0
MTEXT
  5
34D
330
1F
100
AcDbEntity
  8
2
100
AcDbMText
 10
329.827842
 20
347.267008
 30
0.0
 40
3.5
 41
0.0
 71
     7
 72
     5
  1
\W0.7231;237
  7
cesky
 73
     2
 44
0.8433729999999998
  0
LINE
  5
34E
330
1F
100
AcDbEntity
  8
2
100
AcDbLine
 10
451.4048419999999
 20
309.907994
 30
0.0
 11
451.4048419999999
 21
348.392842
 31
0.0
  0
LINE
  5
34F
330
1F
100
AcDbEntity
  8
2
100
AcDbLine
 10
214.404842
 20
302.907994
 30
0.0
 11
214.404842
 21
348.392842
 31
0.0
  0
LINE
  5
350
330
1F
100
AcDbEntity
  8
2
100
AcDbLine
 10
451.4048419999999
 20
347.392842
 30
0.0
 11
214.404842
 21
347.392842
 31
0.0
  0
SOLID
  5
351
330
1F
100
AcDbEntity
  8
2
100
AcDbTrace
 10
451.4048419999999
 20
347.392842
 30
0.0
 11
447.904844
 21
346.775697
 31
0.0
 12
447.90484
 22
348.009986
 32
0.0
 13
447.90484
 23
348.009986
 33
0.0
  0
SOLID
  5
352
330
1F
100
AcDbEntity
  8
2
100
AcDbTrace
 10
214.404842
 20
347.392842
 30
0.0
 11
217.90484
 21
348.009986
 31
0.0
 12
217.904844
 22
346.775697
 32
0.0
 13
217.904844
 23
346.775697
 33
0.0
  0
MTEXT
  5
353
330
1F
100
AcDbEntity
  8
2
100
AcDbMText
 10
242.590342
 20
333.821465
 30
0.0
 40
3.5
 41
0.0
 71
     7
 72
     5
  1
\W0.7045;60
  7
cesky
 73
     2
 44
0.8433729999999998
  0
LINE
  5
354
330
1F
100
AcDbEntity
  8
2
100
AcDbLine
 10
274.404842
 20
288.907994
 30
0.0
 11
274.404842
 21
334.9472990000001
 31
0.0
  0
LINE
  5
355
330
1F
100
AcDbEntity
  8
2
100
AcDbLine
 10
214.404842
 20
302.907994
 30
0.0
 11
214.404842
 21
334.9472990000001
 31
0.0
  0
LINE
  5
356
330
1F
100
AcDbEntity
  8
2
100
AcDbLine
 10
274.404842
 20
333.947299
 30
0.0
 11
214.404842
 21
333.947299
 31
0.0
  0
SOLID
  5
357
330
1F
100
AcDbEntity
  8
2
100
AcDbTrace
 10
274.404842
 20
333.947299
 30
0.0
 11
270.904844
 21
333.330154
 31
0.0
 12
270.90484
 22
334.5644430000001
 32
0.0
 13
270.90484
 23
334.5644430000001
 33
0.0
  0
SOLID
  5
358
330
1F
100
AcDbEntity
  8
2
100
AcDbTrace
 10
214.404842
 20
333.947299
 30
0.0
 11
217.90484
 21
334.5644430000001
 31
0.0
 12
217.904844
 22
333.330154
 32
0.0
 13
217.904844
 23
333.330154
 33
0.0
  0
MTEXT
  5
359
330
1F
100
AcDbEntity
  8
2
100
AcDbMText
 10
364.562449
 20
320.425051
 30
0.0
 40
3.5
 41
0.0
 71
     7
 72
     5
  1
\W0.8654;162,5
  7
cesky
 73
     2
 44
0.8433729999999998
  0
LINE
  5
35A
330
1F
100
AcDbEntity
  8
2
100
AcDbLine
 10
451.4048419999999
 20
309.907994
 30
0.0
 11
451.4048419999999
 21
321.550884
 31
0.0
  0
LINE
  5
35B
330
1F
100
AcDbEntity
  8
2
100
AcDbLine
 10
288.924056
 20
307.67311
 30
0.0
 11
288.924056
 21
321.550884
 31
0.0
  0
LINE
  5
35C
330
1F
100
AcDbEntity
  8
2
100
AcDbLine
 10
451.4048419999999
 20
320.550884
 30
0.0
 11
288.924056
 21
320.550884
 31
0.0
  0
SOLID
  5
35D
330
1F
100
AcDbEntity
  8
2
100
AcDbTrace
 10
451.4048419999999
 20
320.550884
 30
0.0
 11
447.904844
 21
319.933739
 31
0.0
 12
447.90484
 22
321.168028
 32
0.0
 13
447.90484
 23
321.168028
 33
0.0
  0
SOLID
  5
35E
330
1F
100
AcDbEntity
  8
2
100
AcDbTrace
 10
288.924056
 20
320.550884
 30
0.0
 11
292.424054
 21
321.168028
 31
0.0
 12
292.424059
 22
319.933739
 32
0.0
 13
292.424059
 23
319.933739
 33
0.0
  0
MTEXT
  5
35F
330
1F
100
AcDbEntity
  8
2
100
AcDbMText
 10
467.636466
 20
288.109592
 30
0.0
 40
3.5
 41
0.0
 71
     7
 72
     5
  1
\W0.7045;38
  7
cesky
 11
0.0000000000000001
 21
1.0
 31
0.0
 73
     2
 44
0.8433729999999998
  0
MTEXT
  5
360
330
1F
100
AcDbEntity
  8
2
100
AcDbMText
 10
467.636466
 20
281.372092
 30
0.0
 40
3.5
 41
0.0
 71
     7
 72
     5
  1
\W3.0115;\H2.63;%%c\H3.50;
  7
cesky
 11
0.0000000000000001
 21
1.0
 31
0.0
 73
     2
 44
0.8433729999999998
  0
LINE
  5
361
330
1F
100
AcDbEntity
  8
2
100
AcDbLine
 10
453.4048419999999
 20
307.907994
 30
0.0
 11
468.823882
 21
307.907994
 31
0.0
  0
LINE
  5
362
330
1F
100
AcDbEntity
  8
2
100
AcDbLine
 10
467.823882
 20
307.907994
 30
0.0
 11
467.823882
 21
281.214592
 31
0.0
  0
SOLID
  5
363
330
1F
100
AcDbEntity
  8
2
100
AcDbTrace
 10
467.823882
 20
307.907994
 30
0.0
 11
468.4410269999999
 21
304.407996
 31
0.0
 12
467.2067379999999
 22
304.4079910000001
 32
0.0
 13
467.2067379999999
 23
304.4079910000001
 33
0.0
  0
MTEXT
  5
364
330
1F
100
AcDbEntity
  8
2
100
AcDbMText
 10
359.827842
 20
333.821465
 30
0.0
 40
3.5
 41
0.0
 71
     7
 72
     5
  1
\W0.7809;177
  7
cesky
 73
     2
 44
0.8433729999999998
  0
LINE
  5
365
330
1F
100
AcDbEntity
  8
2
100
AcDbLine
 10
451.4048419999999
 20
307.907994
 30
0.0
 11
451.4048419999999
 21
334.9472990000001
 31
0.0
  0
LINE
  5
366
330
1F
100
AcDbEntity
  8
2
100
AcDbLine
 10
274.404842
 20
289.907567
 30
0.0
 11
274.404842
 21
334.9472990000001
 31
0.0
  0
LINE
  5
367
330
1F
100
AcDbEntity
  8
2
100
AcDbLine
 10
451.4048419999999
 20
333.947299
 30
0.0
 11
274.404842
 21
333.947299
 31
0.0
  0
SOLID
  5
368
330
1F
100
AcDbEntity
  8
2
100
AcDbTrace
 10
451.4048419999999
 20
333.947299
 30
0.0
 11
447.904844
 21
333.330154
 31
0.0
 12
447.90484
 22
334.5644430000001
 32
0.0
 13
447.90484
 23
334.5644430000001
 33
0.0
  0
SOLID
  5
369
330
1F
100
AcDbEntity
  8
2
100
AcDbTrace
 10
274.404842
 20
333.947299
 30
0.0
 11
277.90484
 21
334.5644430000001
 31
0.0
 12
277.904844
 22
333.330154
 32
0.0
 13
277.904844
 23
333.330154
 33
0.0
  0
MTEXT
  5
36A
330
1F
100
AcDbEntity
  8
SK2
100
AcDbMText
 10
204.480913
 20
290.434244
 30
0.0
 40
3.5
 41
0.0
 71
     7
 72
     5
  1
\W0.7045;32
  7
cesky
 11
0.0000000000000001
 21
1.0
 31
0.0
 73
     2
 44
0.8433729999999998
  0
MTEXT
  5
36B
330
1F
100
AcDbEntity
  8
SK2
100
AcDbMText
 10
204.480913
 20
283.696744
 30
0.0
 40
3.5
 41
0.0
 71
     7
 72
     5
  1
\W3.0115;\H2.63;%%c\H3.50;
  7
cesky
 11
0.0000000000000001
 21
1.0
 31
0.0
 73
     2
 44
0.8433729999999998
  0
LINE
  5
36C
330
1F
100
AcDbEntity
  8
SK2
100
AcDbLine
 10
216.404842
 20
304.907994
 30
0.0
 11
203.66833
 21
304.907994
 31
0.0
  0
LINE
  5
36D
330
1F
100
AcDbEntity
  8
SK2
100
AcDbLine
 10
216.404842
 20
272.907994
 30
0.0
 11
203.66833
 21
272.907994
 31
0.0
  0
LINE
  5
36E
330
1F
100
AcDbEntity
  8
SK2
100
AcDbLine
 10
204.66833
 20
304.907994
 30
0.0
 11
204.66833
 21
272.907994
 31
0.0
  0
SOLID
  5
36F
330
1F
100
AcDbEntity
  8
SK2
100
AcDbTrace
 10
204.66833
 20
304.907994
 30
0.0
 11
205.285474
 21
301.407996
 31
0.0
 12
204.051185
 22
301.407991
 32
0.0
 13
204.051185
 23
301.407991
 33
0.0
  0
SOLID
  5
370
330
1F
100
AcDbEntity
  8
SK2
100
AcDbTrace
 10
204.66833
 20
272.907994
 30
0.0
 11
204.051185
 21
276.407991
 31
0.0
 12
205.285474
 22
276.407996
 32
0.0
 13
205.285474
 23
276.407996
 33
0.0
  0
MTEXT
  5
371
330
1F
100
AcDbEntity
  8
SK2
100
AcDbMText
 10
191.916868
 20
290.434244
 30
0.0
 40
3.5
 41
0.0
 71
     7
 72
     5
  1
\W0.7045;42
  7
cesky
 11
0.0000000000000001
 21
1.0
 31
0.0
 73
     2
 44
0.8433729999999998
  0
MTEXT
  5
372
330
1F
100
AcDbEntity
  8
SK2
100
AcDbMText
 10
191.916868
 20
283.696744
 30
0.0
 40
3.5
 41
0.0
 71
     7
 72
     5
  1
\W3.0115;\H2.63;%%c\H3.50;
  7
cesky
 11
0.0000000000000001
 21
1.0
 31
0.0
 73
     2
 44
0.8433729999999998
  0
LINE
  5
373
330
1F
100
AcDbEntity
  8
SK2
100
AcDbLine
 10
274.904842
 20
309.907994
 30
0.0
 11
191.104285
 21
309.907994
 31
0.0
  0
LINE
  5
374
330
1F
100
AcDbEntity
  8
SK2
100
AcDbLine
 10
274.904842
 20
267.907994
 30
0.0
 11
191.104285
 21
267.907994
 31
0.0
  0
LINE
  5
375
330
1F
100
AcDbEntity
  8
SK2
100
AcDbLine
 10
192.104285
 20
309.907994
 30
0.0
 11
192.104285
 21
267.907994
 31
0.0
  0
SOLID
  5
376
330
1F
100
AcDbEntity
  8
SK2
100
AcDbTrace
 10
192.104285
 20
309.907994
 30
0.0
 11
192.721429
 21
306.407996
 31
0.0
 12
191.48714
 22
306.407991
 32
0.0
 13
191.48714
 23
306.407991
 33
0.0
  0
SOLID
  5
377
330
1F
100
AcDbEntity
  8
SK2
100
AcDbTrace
 10
192.104285
 20
267.907994
 30
0.0
 11
191.48714
 21
271.4079910000001
 31
0.0
 12
192.721429
 22
271.407996
 32
0.0
 13
192.721429
 23
271.407996
 33
0.0
  0
LINE
  5
378
330
1F
100
AcDbEntity
  8
CUT
100
AcDbLine
 10
450.6744897377932
 20
298.2527707254933
 30
0.0
 11
451.2334058386328
 21
297.3226372761577
 31
0.0
  0
LINE
  5
379
330
1F
100
AcDbEntity
  8
CUT
100
AcDbLine
 10
451.2754235247552
 20
297.176114721899
 30
0.0
 11
451.3998607906597
 21
290.0508870445029
 31
0.0
  0
LINE
  5
37A
330
1F
100
AcDbEntity
  8
CUT
100
AcDbLine
 10
438.33436354034
 20
307.4972251080194
 30
0.0
 11
449.4725427394183
 21
307.9044280092425
 31
0.0
  0
LINE
  5
37C
330
1F
100
AcDbEntity
  8
CUT
100
AcDbLine
 10
450.2761911676128
 20
307.1579529786636
 30
0.0
 11
450.5910066880209
 21
298.3844041148298
 31
0.0
  0
LINE
  5
37E
330
1F
100
AcDbEntity
  8
CUT
100
AcDbLine
 10
451.399861
 20
290.050887
 30
0.0
 11
451.399861
 21
288.907994
 31
0.0
  0
LINE
  5
37F
330
1F
100
AcDbEntity
  8
CUT
100
AcDbLine
 10
451.399861
 20
288.907994
 30
0.0
 11
438.3343639999999
 21
288.907994
 31
0.0
  0
LINE
  5
380
330
1F
100
AcDbEntity
  8
CUT
100
AcDbLine
 10
438.3343639999999
 20
288.907994
 30
0.0
 11
438.3343639999999
 21
307.497225
 31
0.0
  0
LINE
  5
381
330
1F
100
AcDbEntity
  8
CUT
100
AcDbLine
 10
449.4725427394183
 20
307.9044280092425
 30
0.0
 11
449.4725427394183
 21
307.9044280092425
 31
0.0
  0
ARC
  5
382
330
1F
100
AcDbEntity
  8
CUT
100
AcDbCircle
 10
449.4963002408323
 20
307.1241672085729
 30
0.0
 40
0.7806224029163845
100
AcDbArc
 50
2.480567928574355
 51
91.74401192828076
  0
LINE
  5
383
330
1F
100
AcDbEntity
  8
CUT
100
AcDbLine
 10
451.2334058386328
 20
297.3226372761577
 30
0.0
 11
451.2334058386328
 21
297.3226372761577
 31
0.0
  0
ARC
  5
384
330
1F
100
AcDbEntity
  8
CUT
100
AcDbCircle
 10
450.9810530726067
 20
297.1709851850908
 30
0.0
 40
0.2944151409931239
100
AcDbArc
 50
0.9983035523748558
 51
31.00387869624016
  0
ENDSEC
  0
SECTION
  2
OBJECTS
  0
DICTIONARY
  5
C
330
0
100
AcDbDictionary
281
     1
  3
ACAD_CIP_PREVIOUS_PRODUCT_INFO
350
34A
  3
ACAD_COLOR
350
345
  3
ACAD_DETAILVIEWSTYLE
350
341
  3
ACAD_GROUP
350
D
  3
ACAD_LAYOUT
350
1A
  3
ACAD_MATERIAL
350
43
  3
ACAD_MLEADERSTYLE
350
6B
  3
ACAD_MLINESTYLE
350
17
  3
ACAD_PLOTSETTINGS
350
19
  3
ACAD_PLOTSTYLENAME
350
E
  3
ACAD_SCALELIST
350
47
  3
ACAD_SECTIONVIEWSTYLE
350
342
  3
ACAD_TABLESTYLE
350
69
  3
ACAD_VISUALSTYLE
350
2A
  3
ACDB_RECOMPOSE_DATA
350
3B2
  3
AcDbVariableDictionary
350
2FE
  0
DICTIONARY
  5
393
330
10
100
AcDbDictionary
280
     1
281
     1
  3
ADSK_XREC_LAYER_RECONCILED
360
394
  0
DICTIONARY
  5
395
330
E7
100
AcDbDictionary
280
     1
281
     1
  3
ADSK_XREC_LAYER_RECONCILED
360
396
  0
DICTIONARY
  5
397
330
385
100
AcDbDictionary
280
     1
281
     1
  3
ADSK_XREC_LAYER_RECONCILED
360
398
  0
DICTIONARY
  5
399
330
386
100
AcDbDictionary
280
     1
281
     1
  3
ADSK_XREC_LAYER_RECONCILED
360
39A
  0
DICTIONARY
  5
39B
330
387
100
AcDbDictionary
280
     1
281
     1
  3
ADSK_XREC_LAYER_RECONCILED
360
39C
  0
DICTIONARY
  5
39D
330
389
100
AcDbDictionary
280
     1
281
     1
  3
ADSK_XREC_LAYER_RECONCILED
360
39E
  0
DICTIONARY
  5
39F
330
38A
100
AcDbDictionary
280
     1
281
     1
  3
ADSK_XREC_LAYER_RECONCILED
360
3A0
  0
DICTIONARY
  5
3A1
330
38C
100
AcDbDictionary
280
     1
281
     1
  3
ADSK_XREC_LAYER_RECONCILED
360
3A2
  0
DICTIONARY
  5
3A3
330
38D
100
AcDbDictionary
280
     1
281
     1
  3
ADSK_XREC_LAYER_RECONCILED
360
3A4
  0
DICTIONARY
  5
3A5
330
38E
100
AcDbDictionary
280
     1
281
     1
  3
ADSK_XREC_LAYER_RECONCILED
360
3A6
  0
DICTIONARY
  5
3A7
330
38F
100
AcDbDictionary
280
     1
281
     1
  3
ADSK_XREC_LAYER_RECONCILED
360
3A8
  0
DICTIONARY
  5
3A9
330
390
100
AcDbDictionary
280
     1
281
     1
  3
ADSK_XREC_LAYER_RECONCILED
360
3AA
  0
DICTIONARY
  5
3AB
330
391
100
AcDbDictionary
280
     1
281
     1
  3
ADSK_XREC_LAYER_RECONCILED
360
3AC
  0
DICTIONARY
  5
34B
330
1F
100
AcDbDictionary
280
     1
281
     1
  3
ACAD_SORTENTS
360
34C
  0
XRECORD
  5
34A
102
{ACAD_REACTORS
330
C
102
}
330
C
100
AcDbXrecord
280
     1
300
ACD
300
2019
300
87084ACD_2019_0F
  0
DICTIONARY
  5
345
102
{ACAD_REACTORS
330
C
102
}
330
C
100
AcDbDictionary
281
     1
  0
DICTIONARY
  5
341
102
{ACAD_REACTORS
330
C
102
}
330
C
100
AcDbDictionary
281
     1
  3
Metric50
350
347
  0
DICTIONARY
  5
D
102
{ACAD_REACTORS
330
C
102
}
330
C
100
AcDbDictionary
281
     1
  3
NULOVY_BOD
350
392
  0
DICTIONARY
  5
1A
102
{ACAD_REACTORS
330
C
102
}
330
C
100
AcDbDictionary
281
     1
  3
Layout1
350
1E
  3
Layout2
350
26
  3
Model
350
22
  0
DICTIONARY
  5
43
102
{ACAD_REACTORS
330
C
102
}
330
C
100
AcDbDictionary
281
     1
  3
ByBlock
350
45
  3
ByLayer
350
44
  3
Global
350
46
  0
DICTIONARY
  5
6B
102
{ACAD_REACTORS
330
C
102
}
330
C
100
AcDbDictionary
281
     1
  3
Standard
350
6C
  0
DICTIONARY
  5
17
102
{ACAD_REACTORS
330
C
102
}
330
C
100
AcDbDictionary
281
     1
  3
Standard
350
18
  0
DICTIONARY
  5
19
102
{ACAD_REACTORS
330
C
102
}
330
C
100
AcDbDictionary
281
     1
  0
ACDBDICTIONARYWDFLT
  5
E
102
{ACAD_REACTORS
330
C
102
}
330
C
100
AcDbDictionary
281
     1
  3
Normal
350
F
100
AcDbDictionaryWithDefault
340
F
  0
DICTIONARY
  5
47
102
{ACAD_REACTORS
330
C
102
}
330
C
100
AcDbDictionary
281
     1
  3
A0
350
48
  3
A1
350
49
  3
A2
350
4A
  3
A3
350
4B
  3
A4
350
4C
  3
A5
350
4D
  3
A6
350
4E
  3
A7
350
4F
  3
A8
350
50
  3
A9
350
51
  3
B0
350
52
  3
B1
350
53
  3
B2
350
54
  3
B3
350
55
  3
B4
350
56
  3
B5
350
57
  3
B6
350
58
  3
B7
350
59
  3
B8
350
5A
  3
B9
350
5B
  3
C0
350
5C
  3
C1
350
5D
  3
C2
350
5E
  3
C3
350
5F
  3
C4
350
60
  3
C5
350
61
  3
C6
350
62
  3
C7
350
63
  3
C8
350
64
  3
C9
350
65
  3
D0
350
66
  3
D1
350
67
  3
D2
350
68
  0
DICTIONARY
  5
342
102
{ACAD_REACTORS
330
C
102
}
330
C
100
AcDbDictionary
281
     1
  3
Metric50
350
346
  0
DICTIONARY
  5
69
102
{ACAD_REACTORS
330
C
102
}
330
C
100
AcDbDictionary
281
     1
  3
Standard
350
6A
  0
DICTIONARY
  5
2A
102
{ACAD_REACTORS
330
C
102
}
330
C
100
AcDbDictionary
281
     1
  3
2dWireframe
350
2F
  3
Basic
350
32
  3
Brighten
350
36
  3
ColorChange
350
3A
  3
Conceptual
350
34
  3
Dim
350
35
  3
EdgeColorOff
350
3D
  3
Facepattern
350
39
  3
Flat
350
2B
  3
FlatWithEdges
350
2C
  3
Gouraud
350
2D
  3
GouraudWithEdges
350
2E
  3
Hidden
350
31
  3
JitterOff
350
3B
  3
Linepattern
350
38
  3
OverhangOff
350
3C
  3
Realistic
350
33
  3
Shaded
350
42
  3
Shaded with edges
350
41
  3
Shades of Gray
350
3E
  3
Sketchy
350
3F
  3
Thicken
350
37
  3
Wireframe
350
30
  3
X-Ray
350
40
  0
XRECORD
  5
3B2
102
{ACAD_REACTORS
330
C
102
}
330
C
100
AcDbXrecord
280
     1
 90
        1
330
6A
  0
DICTIONARY
  5
2FE
102
{ACAD_REACTORS
330
C
102
}
330
C
100
AcDbDictionary
281
     1
  3
CANNOSCALE
350
2FF
  3
CMLEADERSTYLE
350
340
  3
CTABLESTYLE
350
33F
  3
CVIEWDETAILSTYLE
350
3AD
  3
CVIEWSECTIONSTYLE
350
3AE
  3
MSLTSCALE
350
300
  3
XCLIPFRAME
350
3AF
  0
XRECORD
  5
394
102
{ACAD_REACTORS
330
393
102
}
330
393
100
AcDbXrecord
280
     1
290
     1
  0
XRECORD
  5
396
102
{ACAD_REACTORS
330
395
102
}
330
395
100
AcDbXrecord
280
     1
290
     1
  0
XRECORD
  5
398
102
{ACAD_REACTORS
330
397
102
}
330
397
100
AcDbXrecord
280
     1
290
     1
  0
XRECORD
  5
39A
102
{ACAD_REACTORS
330
399
102
}
330
399
100
AcDbXrecord
280
     1
290
     1
  0
XRECORD
  5
39C
102
{ACAD_REACTORS
330
39B
102
}
330
39B
100
AcDbXrecord
280
     1
290
     1
  0
XRECORD
  5
39E
102
{ACAD_REACTORS
330
39D
102
}
330
39D
100
AcDbXrecord
280
     1
290
     1
  0
XRECORD
  5
3A0
102
{ACAD_REACTORS
330
39F
102
}
330
39F
100
AcDbXrecord
280
     1
290
     1
  0
XRECORD
  5
3A2
102
{ACAD_REACTORS
330
3A1
102
}
330
3A1
100
AcDbXrecord
280
     1
290
     1
  0
XRECORD
  5
3A4
102
{ACAD_REACTORS
330
3A3
102
}
330
3A3
100
AcDbXrecord
280
     1
290
     1
  0
XRECORD
  5
3A6
102
{ACAD_REACTORS
330
3A5
102
}
330
3A5
100
AcDbXrecord
280
     1
290
     1
  0
XRECORD
  5
3A8
102
{ACAD_REACTORS
330
3A7
102
}
330
3A7
100
AcDbXrecord
280
     1
290
     1
  0
XRECORD
  5
3AA
102
{ACAD_REACTORS
330
3A9
102
}
330
3A9
100
AcDbXrecord
280
     1
290
     1
  0
XRECORD
  5
3AC
102
{ACAD_REACTORS
330
3AB
102
}
330
3AB
100
AcDbXrecord
280
     1
290
     1
  0
SORTENTSTABLE
  5
34C
102
{ACAD_REACTORS
330
34B
102
}
330
34B
100
AcDbSortentsTable
330
1F
331
34D
  5
2A0
331
34E
  5
2B9
331
34F
  5
34D
331
350
  5
34E
331
351
  5
34F
331
352
  5
350
331
353
  5
351
331
354
  5
352
331
355
  5
353
331
356
  5
354
331
357
  5
355
331
358
  5
356
331
359
  5
357
331
35A
  5
358
331
35B
  5
359
331
35C
  5
35A
331
35D
  5
35B
331
35E
  5
35C
331
35F
  5
35D
331
360
  5
35E
331
361
  5
35F
331
362
  5
360
331
363
  5
361
331
364
  5
372
331
365
  5
373
331
366
  5
374
331
367
  5
375
331
368
  5
376
331
369
  5
377
331
36A
  5
364
331
36B
  5
365
331
36C
  5
366
331
36D
  5
367
331
36E
  5
368
331
36F
  5
369
331
370
  5
36A
331
371
  5
36B
331
372
  5
36C
331
373
  5
36D
331
374
  5
36E
331
375
  5
36F
331
376
  5
370
331
377
  5
371
331
37C
  5
37F
331
37E
  5
382
331
37F
  5
383
331
380
  5
384
331
381
  5
37C
331
382
  5
37E
331
383
  5
380
331
384
  5
381
  0
ACDBDETAILVIEWSTYLE
  5
347
102
{ACAD_XDICTIONARY
360
3E6
102
}
102
{ACAD_REACTORS
330
341
102
}
330
341
100
AcDbModelDocViewStyle
 70
     0
  3
Metric50
290
     0
100
AcDbDetailViewStyle
 70
     0
 71
     0
 90
        3
 71
     1
340
11
 62
   256
 40
5.0
340
0
 62
   256
 40
5.0
300

 40
0.0
280
     1
 71
     2
340
16
 90
       25
 62
   256
 71
     3
340
11
 62
   256
 40
5.0
 90
        0
 40
15.0
 90
        1
300
%<\AcVar ViewDetailId>% (%<\AcVar ViewScale \f "%sn">%)
 71
     4
340
16
 90
       25
 62
   256
340
16
 90
       25
 62
   256
280
     0
  0
GROUP
  5
392
102
{ACAD_REACTORS
330
D
102
}
330
D
100
AcDbGroup
300

 70
     0
 71
     1
340
73
  0
LAYOUT
  5
1E
102
{ACAD_REACTORS
330
1A
102
}
330
1A
100
AcDbPlotSettings
  1

  2
none_device
  4

  6

 40
0.0
 41
0.0
 42
0.0
 43
0.0
 44
0.0
 45
0.0
 46
0.0
 47
0.0
 48
0.0
 49
0.0
140
0.0
141
0.0
142
1.0
143
1.0
 70
   688
 72
     0
 73
     0
 74
     5
  7

 75
    16
147
1.0
 76
     0
 77
     2
 78
   300
148
0.0
149
0.0
100
AcDbLayout
  1
Layout1
 70
     1
 71
     1
 10
-0.5
 20
-0.5
 11
5.0
 21
5.0
 12
0.0
 22
0.0
 32
0.0
 14
-0.5
 24
-0.5
 34
-0.5
 15
5.0
 25
5.0
 35
5.0
146
0.0
 13
0.0
 23
0.0
 33
0.0
 16
1.0
 26
0.0
 36
0.0
 17
0.0
 27
1.0
 37
0.0
 76
     0
330
1B
  0
LAYOUT
  5
26
102
{ACAD_REACTORS
330
1A
102
}
330
1A
100
AcDbPlotSettings
  1

  2
none_device
  4

  6

 40
0.0
 41
0.0
 42
0.0
 43
0.0
 44
0.0
 45
0.0
 46
0.0
 47
0.0
 48
0.0
 49
0.0
140
0.0
141
0.0
142
1.0
143
1.0
 70
   688
 72
     0
 73
     0
 74
     5
  7

 75
    16
147
1.0
 76
     0
 77
     2
 78
   300
148
0.0
149
0.0
100
AcDbLayout
  1
Layout2
 70
     1
 71
     2
 10
0.0
 20
0.0
 11
0.0
 21
0.0
 12
0.0
 22
0.0
 32
0.0
 14
0.0
 24
0.0
 34
0.0
 15
0.0
 25
0.0
 35
0.0
146
0.0
 13
0.0
 23
0.0
 33
0.0
 16
1.0
 26
0.0
 36
0.0
 17
0.0
 27
1.0
 37
0.0
 76
     0
330
23
  0
LAYOUT
  5
22
102
{ACAD_REACTORS
330
1A
102
}
330
1A
100
AcDbPlotSettings
  1

  2
none_device
  4
Letter_(8.50_x_11.00_Inches)
  6

 40
6.349999999999999
 41
6.349999999999999
 42
6.350005
 43
6.350005
 44
215.9
 45
279.4
 46
0.0
 47
0.0
 48
0.0
 49
0.0
140
0.0
141
0.0
142
1.0
143
1.0
 70
  1712
 72
     0
 73
     0
 74
     0
  7

 75
     0
147
1.0
 76
     0
 77
     2
 78
   300
148
0.0
149
0.0
100
AcDbLayout
  1
Model
 70
     1
 71
     0
 10
-0.5
 20
-0.5
 11
5.0
 21
5.0
 12
0.0
 22
0.0
 32
0.0
 14
-0.5
 24
-0.5
 34
-0.5
 15
5.0
 25
5.0
 35
5.0
146
0.0
 13
0.0
 23
0.0
 33
0.0
 16
1.0
 26
0.0
 36
0.0
 17
0.0
 27
1.0
 37
0.0
 76
     0
330
1F
331
29
  0
MATERIAL
  5
45
102
{ACAD_XDICTIONARY
360
334
102
}
102
{ACAD_REACTORS
330
43
102
}
330
43
100
AcDbMaterial
  1
ByBlock
  0
MATERIAL
  5
44
102
{ACAD_XDICTIONARY
360
332
102
}
102
{ACAD_REACTORS
330
43
102
}
330
43
100
AcDbMaterial
  1
ByLayer
  0
MATERIAL
  5
46
102
{ACAD_XDICTIONARY
360
336
102
}
102
{ACAD_REACTORS
330
43
102
}
330
43
100
AcDbMaterial
  1
Global
  0
MLEADERSTYLE
  5
6C
102
{ACAD_REACTORS
330
6B
102
}
330
6B
100
AcDbMLeaderStyle
170
     2
171
     1
172
     0
 90
        2
 40
0.0
 41
0.0
173
     1
 91
-1056964608
340
14
 92
       -2
290
     1
 42
0.09
291
     1
 43
0.36
  3
Standard
 44
0.18
300

342
11
174
     1
178
     6
175
     1
176
     0
 93
-1056964608
 45
0.18
292
     0
297
     0
 46
0.18
 94
-1056964608
 47
1.0
 49
1.0
140
1.0
293
     1
141
0.0
294
     1
177
     0
142
1.0
295
     0
296
     0
143
0.125
1001
ACAD_MLEADERVER
1070
     2
  0
MLINESTYLE
  5
18
102
{ACAD_REACTORS
330
17
102
}
330
17
100
AcDbMlineStyle
  2
STANDARD
 70
     0
  3

 62
   256
 51
90.0
 52
90.0
 71
     2
 49
0.5
 62
   256
  6
BYLAYER
 49
-0.5
 62
   256
  6
BYLAYER
  0
ACDBPLACEHOLDER
  5
F
102
{ACAD_REACTORS
330
E
102
}
330
E
  0
SCALE
  5
48
102
{ACAD_REACTORS
330
47
102
}
330
47
100
AcDbScale
 70
     0
300
1:1
140
1.0
141
1.0
290
     1
  0
SCALE
  5
49
102
{ACAD_REACTORS
330
47
102
}
330
47
100
AcDbScale
 70
     0
300
1:2
140
1.0
141
2.0
290
     0
  0
SCALE
  5
4A
102
{ACAD_REACTORS
330
47
102
}
330
47
100
AcDbScale
 70
     0
300
1:4
140
1.0
141
4.0
290
     0
  0
SCALE
  5
4B
102
{ACAD_REACTORS
330
47
102
}
330
47
100
AcDbScale
 70
     0
300
1:5
140
1.0
141
5.0
290
     0
  0
SCALE
  5
4C
102
{ACAD_REACTORS
330
47
102
}
330
47
100
AcDbScale
 70
     0
300
1:8
140
1.0
141
8.0
290
     0
  0
SCALE
  5
4D
102
{ACAD_REACTORS
330
47
102
}
330
47
100
AcDbScale
 70
     0
300
1:10
140
1.0
141
10.0
290
     0
  0
SCALE
  5
4E
102
{ACAD_REACTORS
330
47
102
}
330
47
100
AcDbScale
 70
     0
300
1:16
140
1.0
141
16.0
290
     0
  0
SCALE
  5
4F
102
{ACAD_REACTORS
330
47
102
}
330
47
100
AcDbScale
 70
     0
300
1:20
140
1.0
141
20.0
290
     0
  0
SCALE
  5
50
102
{ACAD_REACTORS
330
47
102
}
330
47
100
AcDbScale
 70
     0
300
1:30
140
1.0
141
30.0
290
     0
  0
SCALE
  5
51
102
{ACAD_REACTORS
330
47
102
}
330
47
100
AcDbScale
 70
     0
300
1:40
140
1.0
141
40.0
290
     0
  0
SCALE
  5
52
102
{ACAD_REACTORS
330
47
102
}
330
47
100
AcDbScale
 70
     0
300
1:50
140
1.0
141
50.0
290
     0
  0
SCALE
  5
53
102
{ACAD_REACTORS
330
47
102
}
330
47
100
AcDbScale
 70
     0
300
1:100
140
1.0
141
100.0
290
     0
  0
SCALE
  5
54
102
{ACAD_REACTORS
330
47
102
}
330
47
100
AcDbScale
 70
     0
300
2:1
140
2.0
141
1.0
290
     0
  0
SCALE
  5
55
102
{ACAD_REACTORS
330
47
102
}
330
47
100
AcDbScale
 70
     0
300
4:1
140
4.0
141
1.0
290
     0
  0
SCALE
  5
56
102
{ACAD_REACTORS
330
47
102
}
330
47
100
AcDbScale
 70
     0
300
8:1
140
8.0
141
1.0
290
     0
  0
SCALE
  5
57
102
{ACAD_REACTORS
330
47
102
}
330
47
100
AcDbScale
 70
     0
300
10:1
140
10.0
141
1.0
290
     0
  0
SCALE
  5
58
102
{ACAD_REACTORS
330
47
102
}
330
47
100
AcDbScale
 70
     0
300
100:1
140
100.0
141
1.0
290
     0
  0
SCALE
  5
59
102
{ACAD_REACTORS
330
47
102
}
330
47
100
AcDbScale
 70
     0
300
1/128" = 1'-0"
140
0.007812
141
12.0
290
     0
  0
SCALE
  5
5A
102
{ACAD_REACTORS
330
47
102
}
330
47
100
AcDbScale
 70
     0
300
1/64" = 1'-0"
140
0.015625
141
12.0
290
     0
  0
SCALE
  5
5B
102
{ACAD_REACTORS
330
47
102
}
330
47
100
AcDbScale
 70
     0
300
1/32" = 1'-0"
140
0.03125
141
12.0
290
     0
  0
SCALE
  5
5C
102
{ACAD_REACTORS
330
47
102
}
330
47
100
AcDbScale
 70
     0
300
1/16" = 1'-0"
140
0.0625
141
12.0
290
     0
  0
SCALE
  5
5D
102
{ACAD_REACTORS
330
47
102
}
330
47
100
AcDbScale
 70
     0
300
3/32" = 1'-0"
140
0.09375
141
12.0
290
     0
  0
SCALE
  5
5E
102
{ACAD_REACTORS
330
47
102
}
330
47
100
AcDbScale
 70
     0
300
1/8" = 1'-0"
140
0.125
141
12.0
290
     0
  0
SCALE
  5
5F
102
{ACAD_REACTORS
330
47
102
}
330
47
100
AcDbScale
 70
     0
300
3/16" = 1'-0"
140
0.1875
141
12.0
290
     0
  0
SCALE
  5
60
102
{ACAD_REACTORS
330
47
102
}
330
47
100
AcDbScale
 70
     0
300
1/4" = 1'-0"
140
0.25
141
12.0
290
     0
  0
SCALE
  5
61
102
{ACAD_REACTORS
330
47
102
}
330
47
100
AcDbScale
 70
     0
300
3/8" = 1'-0"
140
0.375
141
12.0
290
     0
  0
SCALE
  5
62
102
{ACAD_REACTORS
330
47
102
}
330
47
100
AcDbScale
 70
     0
300
1/2" = 1'-0"
140
0.5
141
12.0
290
     0
  0
SCALE
  5
63
102
{ACAD_REACTORS
330
47
102
}
330
47
100
AcDbScale
 70
     0
300
3/4" = 1'-0"
140
0.75
141
12.0
290
     0
  0
SCALE
  5
64
102
{ACAD_REACTORS
330
47
102
}
330
47
100
AcDbScale
 70
     0
300
1" = 1'-0"
140
1.0
141
12.0
290
     0
  0
SCALE
  5
65
102
{ACAD_REACTORS
330
47
102
}
330
47
100
AcDbScale
 70
     0
300
1-1/2" = 1'-0"
140
1.5
141
12.0
290
     0
  0
SCALE
  5
66
102
{ACAD_REACTORS
330
47
102
}
330
47
100
AcDbScale
 70
     0
300
3" = 1'-0"
140
3.0
141
12.0
290
     0
  0
SCALE
  5
67
102
{ACAD_REACTORS
330
47
102
}
330
47
100
AcDbScale
 70
     0
300
6" = 1'-0"
140
6.0
141
12.0
290
     0
  0
SCALE
  5
68
102
{ACAD_REACTORS
330
47
102
}
330
47
100
AcDbScale
 70
     0
300
1'-0" = 1'-0"
140
12.0
141
12.0
290
     0
  0
ACDBSECTIONVIEWSTYLE
  5
346
102
{ACAD_XDICTIONARY
360
3E4
102
}
102
{ACAD_REACTORS
330
342
102
}
330
342
100
AcDbModelDocViewStyle
 70
     0
  3
Metric50
290
     0
100
AcDbSectionViewStyle
 70
     0
 71
     0
 90
      102
 71
     1
340
11
 62
   256
 40
5.0
340
0
340
0
 62
   256
 40
5.0
300
I, O, Q, S, X, Z
 40
10.0
 90
        0
 40
2.5
 90
        0
 71
     2
340
16
 90
       25
 62
   256
340
16
 90
       50
 62
   256
 40
5.0
 40
2.5
 40
5.0
 71
     3
340
11
 62
   256
 40
5.0
 90
        0
 40
15.0
 90
        1
300
%<\AcVar ViewSectionStartId>%-%<\AcVar ViewSectionEndId>% (%<\AcVar ViewScale \f "%sn">%)
 71
     4
 62
   256
 62
   257
300
ANSI31
 40
1.0
 90
        0
290
     0
290
     0
 90
        6
 40
0.0
 40
1.570796326794896
 40
0.2617993877991494
 40
1.308996938995747
 40
-0.2617993877991494
 40
1.832595714594046
  0
TABLESTYLE
  5
6A
102
{ACAD_XDICTIONARY
360
338
102
}
102
{ACAD_REACTORS
330
69
102
}
330
69
100
AcDbTableStyle
  3
Standard
 70
     0
 71
     0
 40
0.06
 41
0.06
280
     0
281
     0
  7
Standard
140
0.18
170
     2
 62
     0
 63
     7
283
     0
274
    -2
284
     1
 64
     0
275
    -2
285
     1
 65
     0
276
    -2
286
     1
 66
     0
277
    -2
287
     1
 67
     0
278
    -2
288
     1
 68
     0
279
    -2
289
     1
 69
     0
  7
Standard
140
0.25
170
     5
 62
     0
 63
     7
283
     0
274
    -2
284
     1
 64
     0
275
    -2
285
     1
 65
     0
276
    -2
286
     1
 66
     0
277
    -2
287
     1
 67
     0
278
    -2
288
     1
 68
     0
279
    -2
289
     1
 69
     0
  7
Standard
140
0.18
170
     5
 62
     0
 63
     7
283
     0
274
    -2
284
     1
 64
     0
275
    -2
285
     1
 65
     0
276
    -2
286
     1
 66
     0
277
    -2
287
     1
 67
     0
278
    -2
288
     1
 68
     0
279
    -2
289
     1
 69
     0
  0
VISUALSTYLE
  5
2F
102
{ACAD_XDICTIONARY
360
3BB
102
}
102
{ACAD_REACTORS
330
2A
102
}
330
2A
100
AcDbVisualStyle
  2

 70
     4
 71
     0
 72
     2
 73
     0
 90
        0
 40
-0.6
 41
-30.0
 62
     5
 63
     7
421
 16777215
 74
     1
 91
        4
 64
     7
 65
   257
 75
     1
175
     1
 42
1.0
 92
        0
 66
   257
 43
1.0
 76
     1
 77
     6
 78
     2
 67
     7
 79
     5
170
     0
171
     0
290
     0
174
     0
 93
        1
 44
0.0
173
     0
291
     0
 45
0.0
1001
ACAD
1000
AcDbSavedByObjectVersion
1070
     0
  0
VISUALSTYLE
  5
32
102
{ACAD_XDICTIONARY
360
3C1
102
}
102
{ACAD_REACTORS
330
2A
102
}
330
2A
100
AcDbVisualStyle
  2

 70
     7
 71
     1
 72
     0
 73
     1
 90
        0
 40
-0.6
 41
-30.0
 62
     5
 63
     7
421
 16777215
 74
     0
 91
        4
 64
     7
 65
   257
 75
     1
175
     1
 42
1.0
 92
        8
 66
     7
 43
1.0
 76
     1
 77
     6
 78
     2
 67
     7
 79
     5
170
     0
171
     0
290
     0
174
     0
 93
        1
 44
0.0
173
     0
291
     1
 45
0.0
1001
ACAD
1000
AcDbSavedByObjectVersion
1070
     0
  0
VISUALSTYLE
  5
36
102
{ACAD_XDICTIONARY
360
3C9
102
}
102
{ACAD_REACTORS
330
2A
102
}
330
2A
100
AcDbVisualStyle
  2

 70
    12
 71
     2
 72
     2
 73
     0
 90
        0
 40
-0.6
 41
-30.0
 62
     5
 63
     7
421
 16777215
 74
     1
 91
        4
 64
     7
 65
   257
 75
     1
175
     1
 42
1.0
 92
        8
 66
     7
 43
1.0
 76
     1
 77
     6
 78
     2
 67
     7
 79
     5
170
     0
171
     0
290
     0
174
     0
 93
        1
 44
50.0
173
     0
291
     1
 45
0.0
1001
ACAD
1000
AcDbSavedByObjectVersion
1070
     0
  0
VISUALSTYLE
  5
3A
102
{ACAD_XDICTIONARY
360
3D1
102
}
102
{ACAD_REACTORS
330
2A
102
}
330
2A
100
AcDbVisualStyle
  2

 70
    16
 71
     2
 72
     2
 73
     3
 90
        0
 40
-0.6
 41
-30.0
 62
     5
 63
     8
421
  8421504
 74
     1
 91
        4
 64
     7
 65
   257
 75
     1
175
     1
 42
1.0
 92
        8
 66
     8
424
  8421504
 43
1.0
 76
     1
 77
     6
 78
     2
 67
     7
 79
     5
170
     0
171
     0
290
     0
174
     0
 93
        1
 44
0.0
173
     0
291
     1
 45
0.0
1001
ACAD
1000
AcDbSavedByObjectVersion
1070
     0
  0
VISUALSTYLE
  5
34
102
{ACAD_XDICTIONARY
360
3C5
102
}
102
{ACAD_REACTORS
330
2A
102
}
330
2A
100
AcDbVisualStyle
  2

 70
     9
 71
     3
 72
     2
 73
     0
 90
        0
 40
-0.6
 41
-30.0
 62
     5
 63
     7
421
 16777215
 74
     2
 91
        2
 64
     7
 65
   257
 75
     1
175
     1
 42
179.0
 92
        8
 66
     7
 43
1.0
 76
     1
 77
     6
 78
     2
 67
     7
 79
     3
170
     0
171
     0
290
     0
174
     0
 93
        1
 44
0.0
173
     0
291
     0
 45
0.0
1001
ACAD
1000
AcDbSavedByObjectVersion
1070
     0
  0
VISUALSTYLE
  5
35
102
{ACAD_XDICTIONARY
360
3C7
102
}
102
{ACAD_REACTORS
330
2A
102
}
330
2A
100
AcDbVisualStyle
  2

 70
    11
 71
     2
 72
     2
 73
     0
 90
        0
 40
-0.6
 41
-30.0
 62
     5
 63
     7
421
 16777215
 74
     1
 91
        4
 64
     7
 65
   257
 75
     1
175
     1
 42
1.0
 92
        8
 66
     7
 43
1.0
 76
     1
 77
     6
 78
     2
 67
     7
 79
     5
170
     0
171
     0
290
     0
174
     0
 93
        1
 44
-50.0
173
     0
291
     1
 45
0.0
1001
ACAD
1000
AcDbSavedByObjectVersion
1070
     0
  0
VISUALSTYLE
  5
3D
102
{ACAD_XDICTIONARY
360
3D7
102
}
102
{ACAD_REACTORS
330
2A
102
}
330
2A
100
AcDbVisualStyle
  2

 70
    22
 71
     2
 72
     2
 73
     0
 90
        0
 40
-0.6
 41
-30.0
 62
     5
 63
     7
421
 16777215
 74
     1
 91
        4
 64
     7
 65
   257
 75
     1
175
     1
 42
1.0
 92
        8
 66
     7
 43
1.0
 76
     1
 77
     6
 78
     2
 67
     7
 79
     5
170
     0
171
     0
290
     0
174
     0
 93
        1
 44
0.0
173
     0
291
     1
 45
0.0
1001
ACAD
1000
AcDbSavedByObjectVersion
1070
     0
  0
VISUALSTYLE
  5
39
102
{ACAD_XDICTIONARY
360
3CF
102
}
102
{ACAD_REACTORS
330
2A
102
}
330
2A
100
AcDbVisualStyle
  2

 70
    15
 71
     2
 72
     2
 73
     0
 90
        0
 40
-0.6
 41
-30.0
 62
     5
 63
     7
421
 16777215
 74
     1
 91
        4
 64
     7
 65
   257
 75
     1
175
     1
 42
1.0
 92
        8
 66
     7
 43
1.0
 76
     1
 77
     6
 78
     2
 67
     7
 79
     5
170
     0
171
     0
290
     0
174
     0
 93
        1
 44
0.0
173
     0
291
     1
 45
0.0
1001
ACAD
1000
AcDbSavedByObjectVersion
1070
     0
  0
VISUALSTYLE
  5
2B
102
{ACAD_XDICTIONARY
360
3B3
102
}
102
{ACAD_REACTORS
330
2A
102
}
330
2A
100
AcDbVisualStyle
  2

 70
     0
 71
     2
 72
     1
 73
     1
 90
        2
 40
-0.6
 41
30.0
 62
     5
 63
     7
421
 16777215
 74
     0
 91
        0
 64
     7
 65
   257
 75
     1
175
     1
 42
1.0
 92
        8
 66
     7
 43
1.0
 76
     1
 77
     6
 78
     2
 67
     7
 79
     5
170
     0
171
     0
290
     0
174
     0
 93
       13
 44
0.0
173
     0
291
     1
 45
0.0
1001
ACAD
1000
AcDbSavedByObjectVersion
1070
     0
  0
VISUALSTYLE
  5
2C
102
{ACAD_XDICTIONARY
360
3B5
102
}
102
{ACAD_REACTORS
330
2A
102
}
330
2A
100
AcDbVisualStyle
  2

 70
     1
 71
     2
 72
     1
 73
     1
 90
        2
 40
-0.6
 41
30.0
 62
     5
 63
     7
421
 16777215
 74
     1
 91
        0
 64
     7
 65
   257
 75
     1
175
     1
 42
1.0
 92
        0
 66
   257
 43
1.0
 76
     1
 77
     6
 78
     2
 67
     7
 79
     5
170
     0
171
     0
290
     0
174
     0
 93
       13
 44
0.0
173
     0
291
     1
 45
0.0
1001
ACAD
1000
AcDbSavedByObjectVersion
1070
     0
  0
VISUALSTYLE
  5
2D
102
{ACAD_XDICTIONARY
360
3B7
102
}
102
{ACAD_REACTORS
330
2A
102
}
330
2A
100
AcDbVisualStyle
  2

 70
     2
 71
     2
 72
     2
 73
     1
 90
        2
 40
-0.6
 41
30.0
 62
     5
 63
     7
421
 16777215
 74
     0
 91
        0
 64
     7
 65
   257
 75
     1
175
     1
 42
1.0
 92
        0
 66
     7
 43
1.0
 76
     1
 77
     6
 78
     2
 67
     7
 79
     5
170
     0
171
     0
290
     0
174
     0
 93
       13
 44
0.0
173
     0
291
     1
 45
0.0
1001
ACAD
1000
AcDbSavedByObjectVersion
1070
     0
  0
VISUALSTYLE
  5
2E
102
{ACAD_XDICTIONARY
360
3B9
102
}
102
{ACAD_REACTORS
330
2A
102
}
330
2A
100
AcDbVisualStyle
  2

 70
     3
 71
     2
 72
     2
 73
     1
 90
        2
 40
-0.6
 41
30.0
 62
     5
 63
     7
421
 16777215
 74
     1
 91
        0
 64
     7
 65
   257
 75
     1
175
     1
 42
1.0
 92
        0
 66
   257
 43
1.0
 76
     1
 77
     6
 78
     2
 67
     7
 79
     5
170
     0
171
     0
290
     0
174
     0
 93
       13
 44
0.0
173
     0
291
     1
 45
0.0
1001
ACAD
1000
AcDbSavedByObjectVersion
1070
     0
  0
VISUALSTYLE
  5
31
102
{ACAD_XDICTIONARY
360
3BF
102
}
102
{ACAD_REACTORS
330
2A
102
}
330
2A
100
AcDbVisualStyle
  2

 70
     6
 71
     1
 72
     2
 73
     2
 90
        0
 40
-0.6
 41
-30.0
 62
     5
 63
     7
421
 16777215
 74
     2
 91
        2
 64
     7
 65
   257
 75
     2
175
     1
 42
40.0
 92
        0
 66
   257
 43
1.0
 76
     1
 77
     6
 78
     2
 67
     7
 79
     3
170
     0
171
     0
290
     0
174
     0
 93
        1
 44
0.0
173
     0
291
     0
 45
0.0
1001
ACAD
1000
AcDbSavedByObjectVersion
1070
     0
  0
VISUALSTYLE
  5
3B
102
{ACAD_XDICTIONARY
360
3D3
102
}
102
{ACAD_REACTORS
330
2A
102
}
330
2A
100
AcDbVisualStyle
  2

 70
    20
 71
     2
 72
     2
 73
     0
 90
        0
 40
-0.6
 41
-30.0
 62
     5
 63
     7
421
 16777215
 74
     1
 91
        4
 64
     7
 65
   257
 75
     1
175
     1
 42
1.0
 92
       10
 66
     7
 43
1.0
 76
     1
 77
     6
 78
     2
 67
     7
 79
     5
170
     0
171
     0
290
     0
174
     0
 93
        1
 44
0.0
173
     0
291
     1
 45
0.0
1001
ACAD
1000
AcDbSavedByObjectVersion
1070
     0
  0
VISUALSTYLE
  5
38
102
{ACAD_XDICTIONARY
360
3CD
102
}
102
{ACAD_REACTORS
330
2A
102
}
330
2A
100
AcDbVisualStyle
  2

 70
    14
 71
     2
 72
     2
 73
     0
 90
        0
 40
-0.6
 41
-30.0
 62
     5
 63
     7
421
 16777215
 74
     1
 91
        4
 64
     7
 65
   257
 75
     7
175
     7
 42
1.0
 92
        8
 66
     7
 43
1.0
 76
     1
 77
     6
 78
     2
 67
     7
 79
     5
170
     0
171
     0
290
     0
174
     0
 93
        1
 44
0.0
173
     0
291
     1
 45
0.0
1001
ACAD
1000
AcDbSavedByObjectVersion
1070
     0
  0
VISUALSTYLE
  5
3C
102
{ACAD_XDICTIONARY
360
3D5
102
}
102
{ACAD_REACTORS
330
2A
102
}
330
2A
100
AcDbVisualStyle
  2

 70
    21
 71
     2
 72
     2
 73
     0
 90
        0
 40
-0.6
 41
-30.0
 62
     5
 63
     7
421
 16777215
 74
     1
 91
        4
 64
     7
 65
   257
 75
     1
175
     1
 42
1.0
 92
        9
 66
     7
 43
1.0
 76
     1
 77
     6
 78
     2
 67
     7
 79
     5
170
     0
171
     0
290
     0
174
     0
 93
        1
 44
0.0
173
     0
291
     1
 45
0.0
1001
ACAD
1000
AcDbSavedByObjectVersion
1070
     0
  0
VISUALSTYLE
  5
33
102
{ACAD_XDICTIONARY
360
3C3
102
}
102
{ACAD_REACTORS
330
2A
102
}
330
2A
100
AcDbVisualStyle
  2

 70
     8
 71
     2
 72
     3
 73
     0
 90
        2
 40
-0.6
 41
30.0
 62
     5
 63
     7
421
 16777215
 74
     0
 91
        0
 64
     7
 65
   257
 75
     1
175
     1
 42
1.0
 92
        8
 66
   257
 43
1.0
 76
     1
 77
     6
 78
     2
 67
     7
 79
     3
170
     0
171
     0
290
     0
174
     0
 93
       13
 44
0.0
173
     0
291
     0
 45
0.0
1001
ACAD
1000
AcDbSavedByObjectVersion
1070
     0
  0
VISUALSTYLE
  5
42
102
{ACAD_XDICTIONARY
360
3E1
102
}
102
{ACAD_REACTORS
330
2A
102
}
330
2A
100
AcDbVisualStyle
  2

 70
    27
 71
     2
 72
     2
 73
     1
 90
        2
 40
-0.6
 41
30.0
 62
     5
 63
     7
421
 16777215
 74
     0
 91
        4
 64
     7
 65
   257
 75
     1
175
     1
 42
1.0
 92
        8
 66
   257
 43
1.0
 76
     1
 77
     6
 78
     2
 67
     8
425
  7895160
 79
     3
170
     0
171
     0
290
     0
174
     0
 93
        5
 44
0.0
173
     0
291
     0
 45
0.0
1001
ACAD
1000
AcDbSavedByObjectVersion
1070
     0
  0
VISUALSTYLE
  5
41
102
{ACAD_XDICTIONARY
360
3DF
102
}
102
{ACAD_REACTORS
330
2A
102
}
330
2A
100
AcDbVisualStyle
  2

 70
    26
 71
     2
 72
     2
 73
     1
 90
        2
 40
-0.6
 41
30.0
 62
     5
 63
     7
421
 16777215
 74
     1
 91
       10
 64
     7
 65
   257
 75
     2
175
     1
 42
1.0
 92
        8
 66
   257
 43
1.0
 76
     1
 77
     6
 78
     2
 67
     7
 79
     3
170
     0
171
     0
290
     0
174
     0
 93
        5
 44
0.0
173
     0
291
     0
 45
0.0
1001
ACAD
1000
AcDbSavedByObjectVersion
1070
     0
  0
VISUALSTYLE
  5
3E
102
{ACAD_XDICTIONARY
360
3D9
102
}
102
{ACAD_REACTORS
330
2A
102
}
330
2A
100
AcDbVisualStyle
  2

 70
    23
 71
     2
 72
     2
 73
     3
 90
        0
 40
-0.6
 41
-30.0
 62
     5
 63
     7
421
 16777215
 74
     2
 91
        2
 64
     7
 65
     7
 75
     1
175
     1
 42
40.0
 92
        8
 66
     7
 43
1.0
 76
     1
 77
     6
 78
     2
 67
     7
 79
     3
170
     0
171
     0
290
     0
174
     0
 93
        1
 44
0.0
173
     0
291
     0
 45
0.0
1001
ACAD
1000
AcDbSavedByObjectVersion
1070
     0
  0
VISUALSTYLE
  5
3F
102
{ACAD_XDICTIONARY
360
3DB
102
}
102
{ACAD_REACTORS
330
2A
102
}
330
2A
100
AcDbVisualStyle
  2

 70
    24
 71
     1
 72
     2
 73
     2
 90
        0
 40
-0.6
 41
-30.0
 62
     5
 63
     7
421
 16777215
 74
     2
 91
        2
 64
     7
 65
     7
 75
     1
175
     1
 42
40.0
 92
       11
 66
     7
 43
1.0
 76
     1
 77
     6
 78
     2
 67
     7
 79
     6
170
     0
171
     0
290
     0
174
     0
 93
        1
 44
0.0
173
     0
291
     0
 45
0.0
1001
ACAD
1000
AcDbSavedByObjectVersion
1070
     0
  0
VISUALSTYLE
  5
37
102
{ACAD_XDICTIONARY
360
3CB
102
}
102
{ACAD_REACTORS
330
2A
102
}
330
2A
100
AcDbVisualStyle
  2

 70
    13
 71
     2
 72
     2
 73
     0
 90
        0
 40
-0.6
 41
-30.0
 62
     5
 63
     7
421
 16777215
 74
     1
 91
        4
 64
     7
 65
   257
 75
     1
175
     1
 42
1.0
 92
       12
 66
     7
 43
1.0
 76
     1
 77
     6
 78
     2
 67
     7
 79
     5
170
     0
171
     0
290
     0
174
     0
 93
        1
 44
0.0
173
     0
291
     1
 45
0.0
1001
ACAD
1000
AcDbSavedByObjectVersion
1070
     0
  0
VISUALSTYLE
  5
30
102
{ACAD_XDICTIONARY
360
3BD
102
}
102
{ACAD_REACTORS
330
2A
102
}
330
2A
100
AcDbVisualStyle
  2

 70
     5
 71
     0
 72
     2
 73
     0
 90
        0
 40
-0.6
 41
-30.0
 62
     5
 63
     7
421
 16777215
 74
     1
 91
        4
 64
     7
 65
   257
 75
     1
175
     1
 42
1.0
 92
        0
 66
   257
 43
1.0
 76
     1
 77
     6
 78
     2
 67
     7
 79
     3
170
     0
171
     0
290
     0
174
     0
 93
        1
 44
0.0
173
     0
291
     0
 45
0.0
1001
ACAD
1000
AcDbSavedByObjectVersion
1070
     0
  0
VISUALSTYLE
  5
40
102
{ACAD_XDICTIONARY
360
3DD
102
}
102
{ACAD_REACTORS
330
2A
102
}
330
2A
100
AcDbVisualStyle
  2

 70
    25
 71
     2
 72
     2
 73
     1
 90
        1
 40
0.5
 41
-30.0
 62
     5
 63
     7
421
 16777215
 74
     1
 91
        0
 64
     7
 65
   257
 75
     1
175
     1
 42
1.0
 92
        8
 66
     7
 43
1.0
 76
     1
 77
     6
 78
     2
 67
     7
 79
     3
170
     0
171
     0
290
     0
174
     0
 93
       13
 44
0.0
173
     0
291
     0
 45
0.0
1001
ACAD
1000
AcDbSavedByObjectVersion
1070
     0
  0
DICTIONARYVAR
  5
2FF
102
{ACAD_REACTORS
330
2FE
102
}
330
2FE
100
DictionaryVariables
280
     0
  1
1:1
  0
DICTIONARYVAR
  5
340
102
{ACAD_REACTORS
330
2FE
102
}
330
2FE
100
DictionaryVariables
280
     0
  1
STANDARD
  0
DICTIONARYVAR
  5
33F
102
{ACAD_REACTORS
330
2FE
102
}
330
2FE
100
DictionaryVariables
280
     0
  1
STANDARD
  0
DICTIONARYVAR
  5
3AD
102
{ACAD_REACTORS
330
2FE
102
}
330
2FE
100
DictionaryVariables
280
     0
  1
Metric50
  0
DICTIONARYVAR
  5
3AE
102
{ACAD_REACTORS
330
2FE
102
}
330
2FE
100
DictionaryVariables
280
     0
  1
Metric50
  0
DICTIONARYVAR
  5
300
102
{ACAD_REACTORS
330
2FE
102
}
330
2FE
100
DictionaryVariables
280
     0
  1
1
  0
DICTIONARYVAR
  5
3AF
102
{ACAD_REACTORS
330
2FE
102
}
330
2FE
100
DictionaryVariables
280
     0
  1
2
  0
DICTIONARY
  5
3E6
330
347
100
AcDbDictionary
280
     1
281
     1
  3
ACAD_XREC_ROUNDTRIP
360
3E7
  0
DICTIONARY
  5
334
330
45
100
AcDbDictionary
280
     1
281
     1
  3
ACAD_XREC_ROUNDTRIP
360
335
  0
DICTIONARY
  5
332
330
44
100
AcDbDictionary
280
     1
281
     1
  3
ACAD_XREC_ROUNDTRIP
360
333
  0
DICTIONARY
  5
336
330
46
100
AcDbDictionary
280
     1
281
     1
  3
ACAD_XREC_ROUNDTRIP
360
337
  0
DICTIONARY
  5
3E4
330
346
100
AcDbDictionary
280
     1
281
     1
  3
ACAD_XREC_ROUNDTRIP
360
3E5
  0
DICTIONARY
  5
338
330
6A
100
AcDbDictionary
280
     1
281
     1
  3
ACAD_ROUNDTRIP_2008_TABLESTYLE_CELLSTYLEMAP
360
3B1
  3
ACAD_XREC_ROUNDTRIP
360
3E3
  0
DICTIONARY
  5
3BB
330
2F
100
AcDbDictionary
280
     1
281
     1
  3
ACAD_XREC_ROUNDTRIP
360
3BC
  0
DICTIONARY
  5
3C1
330
32
100
AcDbDictionary
280
     1
281
     1
  3
ACAD_XREC_ROUNDTRIP
360
3C2
  0
DICTIONARY
  5
3C9
330
36
100
AcDbDictionary
280
     1
281
     1
  3
ACAD_XREC_ROUNDTRIP
360
3CA
  0
DICTIONARY
  5
3D1
330
3A
100
AcDbDictionary
280
     1
281
     1
  3
ACAD_XREC_ROUNDTRIP
360
3D2
  0
DICTIONARY
  5
3C5
330
34
100
AcDbDictionary
280
     1
281
     1
  3
ACAD_XREC_ROUNDTRIP
360
3C6
  0
DICTIONARY
  5
3C7
330
35
100
AcDbDictionary
280
     1
281
     1
  3
ACAD_XREC_ROUNDTRIP
360
3C8
  0
DICTIONARY
  5
3D7
330
3D
100
AcDbDictionary
280
     1
281
     1
  3
ACAD_XREC_ROUNDTRIP
360
3D8
  0
DICTIONARY
  5
3CF
330
39
100
AcDbDictionary
280
     1
281
     1
  3
ACAD_XREC_ROUNDTRIP
360
3D0
  0
DICTIONARY
  5
3B3
330
2B
100
AcDbDictionary
280
     1
281
     1
  3
ACAD_XREC_ROUNDTRIP
360
3B4
  0
DICTIONARY
  5
3B5
330
2C
100
AcDbDictionary
280
     1
281
     1
  3
ACAD_XREC_ROUNDTRIP
360
3B6
  0
DICTIONARY
  5
3B7
330
2D
100
AcDbDictionary
280
     1
281
     1
  3
ACAD_XREC_ROUNDTRIP
360
3B8
  0
DICTIONARY
  5
3B9
330
2E
100
AcDbDictionary
280
     1
281
     1
  3
ACAD_XREC_ROUNDTRIP
360
3BA
  0
DICTIONARY
  5
3BF
330
31
100
AcDbDictionary
280
     1
281
     1
  3
ACAD_XREC_ROUNDTRIP
360
3C0
  0
DICTIONARY
  5
3D3
330
3B
100
AcDbDictionary
280
     1
281
     1
  3
ACAD_XREC_ROUNDTRIP
360
3D4
  0
DICTIONARY
  5
3CD
330
38
100
AcDbDictionary
280
     1
281
     1
  3
ACAD_XREC_ROUNDTRIP
360
3CE
  0
DICTIONARY
  5
3D5
330
3C
100
AcDbDictionary
280
     1
281
     1
  3
ACAD_XREC_ROUNDTRIP
360
3D6
  0
DICTIONARY
  5
3C3
330
33
100
AcDbDictionary
280
     1
281
     1
  3
ACAD_XREC_ROUNDTRIP
360
3C4
  0
DICTIONARY
  5
3E1
330
42
100
AcDbDictionary
280
     1
281
     1
  3
ACAD_XREC_ROUNDTRIP
360
3E2
  0
DICTIONARY
  5
3DF
330
41
100
AcDbDictionary
280
     1
281
     1
  3
ACAD_XREC_ROUNDTRIP
360
3E0
  0
DICTIONARY
  5
3D9
330
3E
100
AcDbDictionary
280
     1
281
     1
  3
ACAD_XREC_ROUNDTRIP
360
3DA
  0
DICTIONARY
  5
3DB
330
3F
100
AcDbDictionary
280
     1
281
     1
  3
ACAD_XREC_ROUNDTRIP
360
3DC
  0
DICTIONARY
  5
3CB
330
37
100
AcDbDictionary
280
     1
281
     1
  3
ACAD_XREC_ROUNDTRIP
360
3CC
  0
DICTIONARY
  5
3BD
330
30
100
AcDbDictionary
280
     1
281
     1
  3
ACAD_XREC_ROUNDTRIP
360
3BE
  0
DICTIONARY
  5
3DD
330
40
100
AcDbDictionary
280
     1
281
     1
  3
ACAD_XREC_ROUNDTRIP
360
3DE
  0
XRECORD
  5
3E7
102
{ACAD_REACTORS
330
3E6
102
}
330
3E6
100
AcDbXrecord
280
     1
102
DISPLAYNAME
  1
Metric50
102
FLAGS
 90
        0
  0
XRECORD
  5
335
102
{ACAD_REACTORS
330
334
102
}
330
334
100
AcDbXrecord
280
     1
102
MATERIAL
148
0.0
149
0.0
149
0.0
 93
        0
 94
      127
282
     0
 72
     1
 77
     1
171
     1
175
     1
179
     1
273
     0
  0
XRECORD
  5
333
102
{ACAD_REACTORS
330
332
102
}
330
332
100
AcDbXrecord
280
     1
102
MATERIAL
148
0.0
149
0.0
149
0.0
 93
        0
 94
      127
282
     0
 72
     1
 77
     1
171
     1
175
     1
179
     1
273
     0
  0
XRECORD
  5
337
102
{ACAD_REACTORS
330
336
102
}
330
336
100
AcDbXrecord
280
     1
102
MATERIAL
148
0.0
149
0.0
149
0.0
 93
        0
 94
      127
282
     0
 72
     1
 77
     1
171
     1
175
     1
179
     1
273
     0
  0
XRECORD
  5
3E5
102
{ACAD_REACTORS
330
3E4
102
}
330
3E4
100
AcDbXrecord
280
     1
102
DISPLAYNAME
  1
Metric50
102
FLAGS
 90
        0
  0
CELLSTYLEMAP
  5
3B1
102
{ACAD_REACTORS
330
338
102
}
330
338
100
AcDbCellStyleMap
 90
        3
300
CELLSTYLE
  1
TABLEFORMAT_BEGIN
 90
        5
170
     1
 91
        0
 92
    32768
 62
   257
 93
        1
300
CONTENTFORMAT
  1
CONTENTFORMAT_BEGIN
 90
        0
 91
        0
 92
        4
 93
        0
300

 40
0.0
140
1.0
 94
        5
 62
     0
340
11
144
0.25
309
CONTENTFORMAT_END
171
     1
301
MARGIN
  1
CELLMARGIN_BEGIN
 40
0.06
 40
0.06
 40
0.06
 40
0.06
 40
0.18
 40
0.18
309
CELLMARGIN_END
 94
        6
 95
        1
302
GRIDFORMAT
  1
GRIDFORMAT_BEGIN
 90
        0
 91
        1
 62
     0
 92
       -2
340
14
 93
        0
 40
0.045
309
GRIDFORMAT_END
 95
        2
302
GRIDFORMAT
  1
GRIDFORMAT_BEGIN
 90
        0
 91
        1
 62
     0
 92
       -2
340
14
 93
        0
 40
0.045
309
GRIDFORMAT_END
 95
        4
302
GRIDFORMAT
  1
GRIDFORMAT_BEGIN
 90
        0
 91
        1
 62
     0
 92
       -2
340
14
 93
        0
 40
0.045
309
GRIDFORMAT_END
 95
        8
302
GRIDFORMAT
  1
GRIDFORMAT_BEGIN
 90
        0
 91
        1
 62
     0
 92
       -2
340
14
 93
        0
 40
0.045
309
GRIDFORMAT_END
 95
       16
302
GRIDFORMAT
  1
GRIDFORMAT_BEGIN
 90
        0
 91
        1
 62
     0
 92
       -2
340
14
 93
        0
 40
0.045
309
GRIDFORMAT_END
 95
       32
302
GRIDFORMAT
  1
GRIDFORMAT_BEGIN
 90
        0
 91
        1
 62
     0
 92
       -2
340
14
 93
        0
 40
0.045
309
GRIDFORMAT_END
309
TABLEFORMAT_END
  1
CELLSTYLE_BEGIN
 90
        1
 91
        1
300
_TITLE
309
CELLSTYLE_END
300
CELLSTYLE
  1
TABLEFORMAT_BEGIN
 90
        5
170
     1
 91
        0
 92
        0
 62
   257
 93
        1
300
CONTENTFORMAT
  1
CONTENTFORMAT_BEGIN
 90
        0
 91
        0
 92
        4
 93
        0
300

 40
0.0
140
1.0
 94
        5
 62
     0
340
11
144
0.18
309
CONTENTFORMAT_END
171
     1
301
MARGIN
  1
CELLMARGIN_BEGIN
 40
0.06
 40
0.06
 40
0.06
 40
0.06
 40
0.18
 40
0.18
309
CELLMARGIN_END
 94
        6
 95
        1
302
GRIDFORMAT
  1
GRIDFORMAT_BEGIN
 90
        0
 91
        1
 62
     0
 92
       -2
340
14
 93
        0
 40
0.045
309
GRIDFORMAT_END
 95
        2
302
GRIDFORMAT
  1
GRIDFORMAT_BEGIN
 90
        0
 91
        1
 62
     0
 92
       -2
340
14
 93
        0
 40
0.045
309
GRIDFORMAT_END
 95
        4
302
GRIDFORMAT
  1
GRIDFORMAT_BEGIN
 90
        0
 91
        1
 62
     0
 92
       -2
340
14
 93
        0
 40
0.045
309
GRIDFORMAT_END
 95
        8
302
GRIDFORMAT
  1
GRIDFORMAT_BEGIN
 90
        0
 91
        1
 62
     0
 92
       -2
340
14
 93
        0
 40
0.045
309
GRIDFORMAT_END
 95
       16
302
GRIDFORMAT
  1
GRIDFORMAT_BEGIN
 90
        0
 91
        1
 62
     0
 92
       -2
340
14
 93
        0
 40
0.045
309
GRIDFORMAT_END
 95
       32
302
GRIDFORMAT
  1
GRIDFORMAT_BEGIN
 90
        0
 91
        1
 62
     0
 92
       -2
340
14
 93
        0
 40
0.045
309
GRIDFORMAT_END
309
TABLEFORMAT_END
  1
CELLSTYLE_BEGIN
 90
        2
 91
        1
300
_HEADER
309
CELLSTYLE_END
300
CELLSTYLE
  1
TABLEFORMAT_BEGIN
 90
        5
170
     1
 91
        0
 92
        0
 62
   257
 93
        1
300
CONTENTFORMAT
  1
CONTENTFORMAT_BEGIN
 90
        0
 91
        0
 92
        4
 93
        0
300

 40
0.0
140
1.0
 94
        2
 62
     0
340
11
144
0.18
309
CONTENTFORMAT_END
171
     1
301
MARGIN
  1
CELLMARGIN_BEGIN
 40
0.06
 40
0.06
 40
0.06
 40
0.06
 40
0.18
 40
0.18
309
CELLMARGIN_END
 94
        6
 95
        1
302
GRIDFORMAT
  1
GRIDFORMAT_BEGIN
 90
        0
 91
        1
 62
     0
 92
       -2
340
14
 93
        0
 40
0.045
309
GRIDFORMAT_END
 95
        2
302
GRIDFORMAT
  1
GRIDFORMAT_BEGIN
 90
        0
 91
        1
 62
     0
 92
       -2
340
14
 93
        0
 40
0.045
309
GRIDFORMAT_END
 95
        4
302
GRIDFORMAT
  1
GRIDFORMAT_BEGIN
 90
        0
 91
        1
 62
     0
 92
       -2
340
14
 93
        0
 40
0.045
309
GRIDFORMAT_END
 95
        8
302
GRIDFORMAT
  1
GRIDFORMAT_BEGIN
 90
        0
 91
        1
 62
     0
 92
       -2
340
14
 93
        0
 40
0.045
309
GRIDFORMAT_END
 95
       16
302
GRIDFORMAT
  1
GRIDFORMAT_BEGIN
 90
        0
 91
        1
 62
     0
 92
       -2
340
14
 93
        0
 40
0.045
309
GRIDFORMAT_END
 95
       32
302
GRIDFORMAT
  1
GRIDFORMAT_BEGIN
 90
        0
 91
        1
 62
     0
 92
       -2
340
14
 93
        0
 40
0.045
309
GRIDFORMAT_END
309
TABLEFORMAT_END
  1
CELLSTYLE_BEGIN
 90
        3
 91
        2
300
_DATA
309
CELLSTYLE_END
  0
XRECORD
  5
3E3
102
{ACAD_REACTORS
330
338
102
}
330
338
100
AcDbXrecord
280
     1
102
ACAD_ROUNDTRIP_PRE2007_TABLESTYLE
 90
        4
 91
        0
  1

 92
        4
 93
        0
  2

 94
        4
 95
        0
  3

  0
XRECORD
  5
3BC
102
{ACAD_REACTORS
330
3BB
102
}
330
3BB
100
AcDbXrecord
280
     1
102
RTVSPost2010Prop28
280
     1
102
RTVSPost2010PropOp28
 70
     1
102
RTVSPost2010Prop29
280
     1
102
RTVSPost2010PropOp29
 70
     1
102
RTVSPost2010Prop30
280
     0
102
RTVSPost2010PropOp30
 70
     1
102
RTVSPost2010Prop31
280
     0
102
RTVSPost2010PropOp31
 70
     1
102
RTVSPost2010Prop32
280
     0
102
RTVSPost2010PropOp32
 70
     1
102
RTVSPost2010Prop33
280
     0
102
RTVSPost2010PropOp33
 70
     1
102
RTVSPost2010Prop34
280
     0
102
RTVSPost2010PropOp34
 70
     1
102
RTVSPost2010Prop35
280
     0
102
RTVSPost2010PropOp35
 70
     1
102
RTVSPost2010Prop36
280
     0
102
RTVSPost2010PropOp36
 70
     1
102
RTVSPost2010Prop37
 90
       50
102
RTVSPost2010PropOp37
 70
     1
102
RTVSPost2010Prop38
140
0.0
102
RTVSPost2010PropOp38
 70
     1
102
RTVSPost2010Prop39
140
1.0
102
RTVSPost2010PropOp39
 70
     1
102
RTVSPost2010Prop40
 90
        0
102
RTVSPost2010PropOp40
 70
     1
102
RTVSPost2010Prop41ColorIndex
 90
       18
102
RTVSPost2010Prop41ColorRGB
 90
        0
102
RTVSPost2010PropOp41
 70
     1
102
RTVSPost2010Prop42
 90
       50
102
RTVSPost2010PropOp42
 70
     1
102
RTVSPost2010Prop43
 90
        3
102
RTVSPost2010PropOp43
 70
     1
102
RTVSPost2010Prop44ColorIndex
 90
        5
102
RTVSPost2010Prop44ColorRGB
 90
      255
102
RTVSPost2010PropOp44
 70
     1
102
RTVSPost2010Prop45
280
     0
102
RTVSPost2010PropOp45
 70
     1
102
RTVSPost2010Prop46
 90
       50
102
RTVSPost2010PropOp46
 70
     1
102
RTVSPost2010Prop47
 90
       50
102
RTVSPost2010PropOp47
 70
     1
102
RTVSPost2010Prop48
 90
       50
102
RTVSPost2010PropOp48
 70
     1
102
RTVSPost2010Prop49
280
     0
102
RTVSPost2010PropOp49
 70
     1
102
RTVSPost2010Prop50
 90
       50
102
RTVSPost2010PropOp50
 70
     1
102
RTVSPost2010Prop51ColorIndex
 90
      256
102
RTVSPost2010Prop51ColorRGB
 90
-16777216
102
RTVSPost2010PropOp51
 70
     0
102
RTVSPost2010Prop52
140
1.0
102
RTVSPost2010PropOp52
 70
     0
102
RTVSPost2010Prop53
 90
        2
102
RTVSPost2010PropOp53
 70
     1
102
RTVSPost2010Prop54
  1
strokes_ogs.tif
102
RTVSPost2010PropOp54
 70
     1
102
RTVSPost2010Prop55
280
     0
102
RTVSPost2010PropOp55
 70
     1
102
RTVSPost2010Prop56
140
1.0
102
RTVSPost2010PropOp56
 70
     1
102
RTVSPost2010Prop57
140
1.0
102
RTVSPost2010PropOp57
 70
     1
102
RTVSPropertyOp0
 70
     1
102
RTVSPropertyOp1
 70
     1
102
RTVSPropertyOp2
 70
     1
102
RTVSPropertyOp3
 70
     1
102
RTVSPropertyOp4
 70
     1
102
RTVSPropertyOp5
 70
     1
102
RTVSPropertyOp6
 70
     1
102
RTVSPropertyOp7
 70
     1
102
RTVSPropertyOp8
 70
     1
102
RTVSPropertyOp9
 70
     1
102
RTVSPropertyOp10
 70
     1
102
RTVSPropertyOp11
 70
     1
102
RTVSPropertyOp12
 70
     1
102
RTVSPropertyOp13
 70
     1
102
RTVSPropertyOp14
 70
     1
102
RTVSPropertyOp15
 70
     1
102
RTVSPropertyOp16
 70
     1
102
RTVSPropertyOp17
 70
     1
102
RTVSPropertyOp18
 70
     1
102
RTVSPropertyOp19
 70
     1
102
RTVSPropertyOp20
 70
     1
102
RTVSPropertyOp21
 70
     1
102
RTVSPropertyOp22
 70
     1
102
RTVSPropertyOp23
 70
     1
102
RTVSPropertyOp24
 70
     1
102
RTVSPropertyOp25
 70
     1
102
RTVSPropertyOp26
 70
     1
102
RTVSPropertyOp27
 70
     1
102
RTVSPropertyOp28
 70
     1
102
RTVSPropertyOp29
 70
     1
102
RTVSPropertyOp30
 70
     1
102
RTVSPropertyOp31
 70
     1
102
RTVSPropertyOp32
 70
     1
102
RTVSPropertyOp33
 70
     1
102
RTVSPropertyOp34
 70
     1
102
RTVSPropertyOp35
 70
     1
102
RTVSPropertyOp36
 70
     1
102
RTVSPropertyOp37
 70
     1
102
RTVSPropertyOp38
 70
     1
102
RTVSPropertyOp39
 70
     1
102
RTVSPropertyOp40
 70
     1
102
RTVSPropertyOp41
 70
     1
102
RTVSPropertyOp42
 70
     1
102
RTVSPropertyOp43
 70
     1
102
RTVSPropertyOp44
 70
     1
102
RTVSPropertyOp45
 70
     1
102
RTVSPropertyOp46
 70
     1
102
RTVSPropertyOp47
 70
     1
102
RTVSPropertyOp48
 70
     1
102
RTVSPropertyOp49
 70
     1
102
RTVSPropertyOp50
 70
     1
102
RTVSPropertyOp51
 70
     0
102
RTVSPropertyOp52
 70
     0
102
RTVSPropertyOp53
 70
     1
102
RTVSPropertyOp54
 70
     1
102
RTVSPropertyOp55
 70
     1
102
RTVSPropertyOp56
 70
     1
102
RTVSPropertyOp57
 70
     1
102
RTVSPropertyOp58
 70
     1
102
RTVSPropertyOp59
 70
     1
102
RTVSPropertyOp60
 70
     1
102
RTVSPropertyOp61
 70
     1
102
RTVSPropertyOp62
 70
     1
  0
XRECORD
  5
3C2
102
{ACAD_REACTORS
330
3C1
102
}
330
3C1
100
AcDbXrecord
280
     1
102
RTVSPost2010Prop28
280
     0
102
RTVSPost2010PropOp28
 70
     1
102
RTVSPost2010Prop29
280
     1
102
RTVSPost2010PropOp29
 70
     1
102
RTVSPost2010Prop30
280
     1
102
RTVSPost2010PropOp30
 70
     1
102
RTVSPost2010Prop31
280
     0
102
RTVSPost2010PropOp31
 70
     1
102
RTVSPost2010Prop32
280
     0
102
RTVSPost2010PropOp32
 70
     1
102
RTVSPost2010Prop33
280
     0
102
RTVSPost2010PropOp33
 70
     1
102
RTVSPost2010Prop34
280
     0
102
RTVSPost2010PropOp34
 70
     1
102
RTVSPost2010Prop35
280
     0
102
RTVSPost2010PropOp35
 70
     1
102
RTVSPost2010Prop36
280
     0
102
RTVSPost2010PropOp36
 70
     1
102
RTVSPost2010Prop37
 90
       50
102
RTVSPost2010PropOp37
 70
     1
102
RTVSPost2010Prop38
140
0.0
102
RTVSPost2010PropOp38
 70
     1
102
RTVSPost2010Prop39
140
1.0
102
RTVSPost2010PropOp39
 70
     1
102
RTVSPost2010Prop40
 90
        0
102
RTVSPost2010PropOp40
 70
     1
102
RTVSPost2010Prop41ColorIndex
 90
       18
102
RTVSPost2010Prop41ColorRGB
 90
        0
102
RTVSPost2010PropOp41
 70
     1
102
RTVSPost2010Prop42
 90
       50
102
RTVSPost2010PropOp42
 70
     1
102
RTVSPost2010Prop43
 90
        3
102
RTVSPost2010PropOp43
 70
     1
102
RTVSPost2010Prop44ColorIndex
 90
        5
102
RTVSPost2010Prop44ColorRGB
 90
      255
102
RTVSPost2010PropOp44
 70
     1
102
RTVSPost2010Prop45
280
     0
102
RTVSPost2010PropOp45
 70
     1
102
RTVSPost2010Prop46
 90
       50
102
RTVSPost2010PropOp46
 70
     1
102
RTVSPost2010Prop47
 90
       50
102
RTVSPost2010PropOp47
 70
     1
102
RTVSPost2010Prop48
 90
       50
102
RTVSPost2010PropOp48
 70
     1
102
RTVSPost2010Prop49
280
     0
102
RTVSPost2010PropOp49
 70
     1
102
RTVSPost2010Prop50
 90
       50
102
RTVSPost2010PropOp50
 70
     1
102
RTVSPost2010Prop51ColorIndex
 90
      256
102
RTVSPost2010Prop51ColorRGB
 90
-16777216
102
RTVSPost2010PropOp51
 70
     0
102
RTVSPost2010Prop52
140
1.0
102
RTVSPost2010PropOp52
 70
     0
102
RTVSPost2010Prop53
 90
        2
102
RTVSPost2010PropOp53
 70
     1
102
RTVSPost2010Prop54
  1
strokes_ogs.tif
102
RTVSPost2010PropOp54
 70
     1
102
RTVSPost2010Prop55
280
     0
102
RTVSPost2010PropOp55
 70
     1
102
RTVSPost2010Prop56
140
1.0
102
RTVSPost2010PropOp56
 70
     1
102
RTVSPost2010Prop57
140
1.0
102
RTVSPost2010PropOp57
 70
     1
102
RTVSPropertyOp0
 70
     1
102
RTVSPropertyOp1
 70
     1
102
RTVSPropertyOp2
 70
     1
102
RTVSPropertyOp3
 70
     1
102
RTVSPropertyOp4
 70
     1
102
RTVSPropertyOp5
 70
     1
102
RTVSPropertyOp6
 70
     1
102
RTVSPropertyOp7
 70
     1
102
RTVSPropertyOp8
 70
     1
102
RTVSPropertyOp9
 70
     1
102
RTVSPropertyOp10
 70
     1
102
RTVSPropertyOp11
 70
     1
102
RTVSPropertyOp12
 70
     1
102
RTVSPropertyOp13
 70
     1
102
RTVSPropertyOp14
 70
     1
102
RTVSPropertyOp15
 70
     1
102
RTVSPropertyOp16
 70
     1
102
RTVSPropertyOp17
 70
     1
102
RTVSPropertyOp18
 70
     1
102
RTVSPropertyOp19
 70
     1
102
RTVSPropertyOp20
 70
     1
102
RTVSPropertyOp21
 70
     1
102
RTVSPropertyOp22
 70
     1
102
RTVSPropertyOp23
 70
     1
102
RTVSPropertyOp24
 70
     1
102
RTVSPropertyOp25
 70
     1
102
RTVSPropertyOp26
 70
     1
102
RTVSPropertyOp27
 70
     1
102
RTVSPropertyOp28
 70
     1
102
RTVSPropertyOp29
 70
     1
102
RTVSPropertyOp30
 70
     1
102
RTVSPropertyOp31
 70
     1
102
RTVSPropertyOp32
 70
     1
102
RTVSPropertyOp33
 70
     1
102
RTVSPropertyOp34
 70
     1
102
RTVSPropertyOp35
 70
     1
102
RTVSPropertyOp36
 70
     1
102
RTVSPropertyOp37
 70
     1
102
RTVSPropertyOp38
 70
     1
102
RTVSPropertyOp39
 70
     1
102
RTVSPropertyOp40
 70
     1
102
RTVSPropertyOp41
 70
     1
102
RTVSPropertyOp42
 70
     1
102
RTVSPropertyOp43
 70
     1
102
RTVSPropertyOp44
 70
     1
102
RTVSPropertyOp45
 70
     1
102
RTVSPropertyOp46
 70
     1
102
RTVSPropertyOp47
 70
     1
102
RTVSPropertyOp48
 70
     1
102
RTVSPropertyOp49
 70
     1
102
RTVSPropertyOp50
 70
     1
102
RTVSPropertyOp51
 70
     0
102
RTVSPropertyOp52
 70
     0
102
RTVSPropertyOp53
 70
     1
102
RTVSPropertyOp54
 70
     1
102
RTVSPropertyOp55
 70
     1
102
RTVSPropertyOp56
 70
     1
102
RTVSPropertyOp57
 70
     1
102
RTVSPropertyOp58
 70
     1
102
RTVSPropertyOp59
 70
     1
102
RTVSPropertyOp60
 70
     1
102
RTVSPropertyOp61
 70
     1
102
RTVSPropertyOp62
 70
     1
  0
XRECORD
  5
3CA
102
{ACAD_REACTORS
330
3C9
102
}
330
3C9
100
AcDbXrecord
280
     1
102
RTVSPost2010Prop28
280
     0
102
RTVSPost2010PropOp28
 70
     1
102
RTVSPost2010Prop29
280
     1
102
RTVSPost2010PropOp29
 70
     1
102
RTVSPost2010Prop30
280
     1
102
RTVSPost2010PropOp30
 70
     1
102
RTVSPost2010Prop31
280
     0
102
RTVSPost2010PropOp31
 70
     1
102
RTVSPost2010Prop32
280
     0
102
RTVSPost2010PropOp32
 70
     1
102
RTVSPost2010Prop33
280
     0
102
RTVSPost2010PropOp33
 70
     1
102
RTVSPost2010Prop34
280
     0
102
RTVSPost2010PropOp34
 70
     1
102
RTVSPost2010Prop35
280
     0
102
RTVSPost2010PropOp35
 70
     1
102
RTVSPost2010Prop36
280
     0
102
RTVSPost2010PropOp36
 70
     1
102
RTVSPost2010Prop37
 90
       50
102
RTVSPost2010PropOp37
 70
     1
102
RTVSPost2010Prop38
140
0.0
102
RTVSPost2010PropOp38
 70
     1
102
RTVSPost2010Prop39
140
1.0
102
RTVSPost2010PropOp39
 70
     1
102
RTVSPost2010Prop40
 90
        0
102
RTVSPost2010PropOp40
 70
     1
102
RTVSPost2010Prop41ColorIndex
 90
       18
102
RTVSPost2010Prop41ColorRGB
 90
        0
102
RTVSPost2010PropOp41
 70
     1
102
RTVSPost2010Prop42
 90
       50
102
RTVSPost2010PropOp42
 70
     1
102
RTVSPost2010Prop43
 90
        3
102
RTVSPost2010PropOp43
 70
     1
102
RTVSPost2010Prop44ColorIndex
 90
        5
102
RTVSPost2010Prop44ColorRGB
 90
      255
102
RTVSPost2010PropOp44
 70
     1
102
RTVSPost2010Prop45
280
     0
102
RTVSPost2010PropOp45
 70
     1
102
RTVSPost2010Prop46
 90
       50
102
RTVSPost2010PropOp46
 70
     1
102
RTVSPost2010Prop47
 90
       50
102
RTVSPost2010PropOp47
 70
     1
102
RTVSPost2010Prop48
 90
       50
102
RTVSPost2010PropOp48
 70
     1
102
RTVSPost2010Prop49
280
     0
102
RTVSPost2010PropOp49
 70
     1
102
RTVSPost2010Prop50
 90
       50
102
RTVSPost2010PropOp50
 70
     1
102
RTVSPost2010Prop51ColorIndex
 90
      256
102
RTVSPost2010Prop51ColorRGB
 90
-16777216
102
RTVSPost2010PropOp51
 70
     0
102
RTVSPost2010Prop52
140
1.0
102
RTVSPost2010PropOp52
 70
     0
102
RTVSPost2010Prop53
 90
        2
102
RTVSPost2010PropOp53
 70
     1
102
RTVSPost2010Prop54
  1
strokes_ogs.tif
102
RTVSPost2010PropOp54
 70
     1
102
RTVSPost2010Prop55
280
     0
102
RTVSPost2010PropOp55
 70
     1
102
RTVSPost2010Prop56
140
1.0
102
RTVSPost2010PropOp56
 70
     1
102
RTVSPost2010Prop57
140
1.0
102
RTVSPost2010PropOp57
 70
     1
102
RTVSPropertyOp0
 70
     1
102
RTVSPropertyOp1
 70
     1
102
RTVSPropertyOp2
 70
     1
102
RTVSPropertyOp3
 70
     1
102
RTVSPropertyOp4
 70
     1
102
RTVSPropertyOp5
 70
     1
102
RTVSPropertyOp6
 70
     1
102
RTVSPropertyOp7
 70
     1
102
RTVSPropertyOp8
 70
     1
102
RTVSPropertyOp9
 70
     1
102
RTVSPropertyOp10
 70
     1
102
RTVSPropertyOp11
 70
     1
102
RTVSPropertyOp12
 70
     1
102
RTVSPropertyOp13
 70
     1
102
RTVSPropertyOp14
 70
     1
102
RTVSPropertyOp15
 70
     1
102
RTVSPropertyOp16
 70
     1
102
RTVSPropertyOp17
 70
     1
102
RTVSPropertyOp18
 70
     1
102
RTVSPropertyOp19
 70
     1
102
RTVSPropertyOp20
 70
     1
102
RTVSPropertyOp21
 70
     1
102
RTVSPropertyOp22
 70
     1
102
RTVSPropertyOp23
 70
     1
102
RTVSPropertyOp24
 70
     1
102
RTVSPropertyOp25
 70
     1
102
RTVSPropertyOp26
 70
     1
102
RTVSPropertyOp27
 70
     1
102
RTVSPropertyOp28
 70
     1
102
RTVSPropertyOp29
 70
     1
102
RTVSPropertyOp30
 70
     1
102
RTVSPropertyOp31
 70
     1
102
RTVSPropertyOp32
 70
     1
102
RTVSPropertyOp33
 70
     1
102
RTVSPropertyOp34
 70
     1
102
RTVSPropertyOp35
 70
     1
102
RTVSPropertyOp36
 70
     1
102
RTVSPropertyOp37
 70
     1
102
RTVSPropertyOp38
 70
     1
102
RTVSPropertyOp39
 70
     1
102
RTVSPropertyOp40
 70
     1
102
RTVSPropertyOp41
 70
     1
102
RTVSPropertyOp42
 70
     1
102
RTVSPropertyOp43
 70
     1
102
RTVSPropertyOp44
 70
     1
102
RTVSPropertyOp45
 70
     1
102
RTVSPropertyOp46
 70
     1
102
RTVSPropertyOp47
 70
     1
102
RTVSPropertyOp48
 70
     1
102
RTVSPropertyOp49
 70
     1
102
RTVSPropertyOp50
 70
     1
102
RTVSPropertyOp51
 70
     0
102
RTVSPropertyOp52
 70
     0
102
RTVSPropertyOp53
 70
     1
102
RTVSPropertyOp54
 70
     1
102
RTVSPropertyOp55
 70
     1
102
RTVSPropertyOp56
 70
     1
102
RTVSPropertyOp57
 70
     1
102
RTVSPropertyOp58
 70
     1
102
RTVSPropertyOp59
 70
     1
102
RTVSPropertyOp60
 70
     1
102
RTVSPropertyOp61
 70
     1
102
RTVSPropertyOp62
 70
     1
  0
XRECORD
  5
3D2
102
{ACAD_REACTORS
330
3D1
102
}
330
3D1
100
AcDbXrecord
280
     1
102
RTVSPost2010Prop28
280
     0
102
RTVSPost2010PropOp28
 70
     1
102
RTVSPost2010Prop29
280
     1
102
RTVSPost2010PropOp29
 70
     1
102
RTVSPost2010Prop30
280
     1
102
RTVSPost2010PropOp30
 70
     1
102
RTVSPost2010Prop31
280
     0
102
RTVSPost2010PropOp31
 70
     1
102
RTVSPost2010Prop32
280
     0
102
RTVSPost2010PropOp32
 70
     1
102
RTVSPost2010Prop33
280
     0
102
RTVSPost2010PropOp33
 70
     1
102
RTVSPost2010Prop34
280
     0
102
RTVSPost2010PropOp34
 70
     1
102
RTVSPost2010Prop35
280
     0
102
RTVSPost2010PropOp35
 70
     1
102
RTVSPost2010Prop36
280
     0
102
RTVSPost2010PropOp36
 70
     1
102
RTVSPost2010Prop37
 90
       50
102
RTVSPost2010PropOp37
 70
     1
102
RTVSPost2010Prop38
140
0.0
102
RTVSPost2010PropOp38
 70
     1
102
RTVSPost2010Prop39
140
1.0
102
RTVSPost2010PropOp39
 70
     1
102
RTVSPost2010Prop40
 90
        0
102
RTVSPost2010PropOp40
 70
     1
102
RTVSPost2010Prop41ColorIndex
 90
       18
102
RTVSPost2010Prop41ColorRGB
 90
        0
102
RTVSPost2010PropOp41
 70
     1
102
RTVSPost2010Prop42
 90
       50
102
RTVSPost2010PropOp42
 70
     1
102
RTVSPost2010Prop43
 90
        3
102
RTVSPost2010PropOp43
 70
     1
102
RTVSPost2010Prop44ColorIndex
 90
        5
102
RTVSPost2010Prop44ColorRGB
 90
      255
102
RTVSPost2010PropOp44
 70
     1
102
RTVSPost2010Prop45
280
     0
102
RTVSPost2010PropOp45
 70
     1
102
RTVSPost2010Prop46
 90
       50
102
RTVSPost2010PropOp46
 70
     1
102
RTVSPost2010Prop47
 90
       50
102
RTVSPost2010PropOp47
 70
     1
102
RTVSPost2010Prop48
 90
       50
102
RTVSPost2010PropOp48
 70
     1
102
RTVSPost2010Prop49
280
     0
102
RTVSPost2010PropOp49
 70
     1
102
RTVSPost2010Prop50
 90
       50
102
RTVSPost2010PropOp50
 70
     1
102
RTVSPost2010Prop51ColorIndex
 90
      256
102
RTVSPost2010Prop51ColorRGB
 90
-16777216
102
RTVSPost2010PropOp51
 70
     0
102
RTVSPost2010Prop52
140
1.0
102
RTVSPost2010PropOp52
 70
     0
102
RTVSPost2010Prop53
 90
        2
102
RTVSPost2010PropOp53
 70
     1
102
RTVSPost2010Prop54
  1
strokes_ogs.tif
102
RTVSPost2010PropOp54
 70
     1
102
RTVSPost2010Prop55
280
     0
102
RTVSPost2010PropOp55
 70
     1
102
RTVSPost2010Prop56
140
1.0
102
RTVSPost2010PropOp56
 70
     1
102
RTVSPost2010Prop57
140
1.0
102
RTVSPost2010PropOp57
 70
     1
102
RTVSPropertyOp0
 70
     1
102
RTVSPropertyOp1
 70
     1
102
RTVSPropertyOp2
 70
     1
102
RTVSPropertyOp3
 70
     1
102
RTVSPropertyOp4
 70
     1
102
RTVSPropertyOp5
 70
     1
102
RTVSPropertyOp6
 70
     1
102
RTVSPropertyOp7
 70
     1
102
RTVSPropertyOp8
 70
     1
102
RTVSPropertyOp9
 70
     1
102
RTVSPropertyOp10
 70
     1
102
RTVSPropertyOp11
 70
     1
102
RTVSPropertyOp12
 70
     1
102
RTVSPropertyOp13
 70
     1
102
RTVSPropertyOp14
 70
     1
102
RTVSPropertyOp15
 70
     1
102
RTVSPropertyOp16
 70
     1
102
RTVSPropertyOp17
 70
     1
102
RTVSPropertyOp18
 70
     1
102
RTVSPropertyOp19
 70
     1
102
RTVSPropertyOp20
 70
     1
102
RTVSPropertyOp21
 70
     1
102
RTVSPropertyOp22
 70
     1
102
RTVSPropertyOp23
 70
     1
102
RTVSPropertyOp24
 70
     1
102
RTVSPropertyOp25
 70
     1
102
RTVSPropertyOp26
 70
     1
102
RTVSPropertyOp27
 70
     1
102
RTVSPropertyOp28
 70
     1
102
RTVSPropertyOp29
 70
     1
102
RTVSPropertyOp30
 70
     1
102
RTVSPropertyOp31
 70
     1
102
RTVSPropertyOp32
 70
     1
102
RTVSPropertyOp33
 70
     1
102
RTVSPropertyOp34
 70
     1
102
RTVSPropertyOp35
 70
     1
102
RTVSPropertyOp36
 70
     1
102
RTVSPropertyOp37
 70
     1
102
RTVSPropertyOp38
 70
     1
102
RTVSPropertyOp39
 70
     1
102
RTVSPropertyOp40
 70
     1
102
RTVSPropertyOp41
 70
     1
102
RTVSPropertyOp42
 70
     1
102
RTVSPropertyOp43
 70
     1
102
RTVSPropertyOp44
 70
     1
102
RTVSPropertyOp45
 70
     1
102
RTVSPropertyOp46
 70
     1
102
RTVSPropertyOp47
 70
     1
102
RTVSPropertyOp48
 70
     1
102
RTVSPropertyOp49
 70
     1
102
RTVSPropertyOp50
 70
     1
102
RTVSPropertyOp51
 70
     0
102
RTVSPropertyOp52
 70
     0
102
RTVSPropertyOp53
 70
     1
102
RTVSPropertyOp54
 70
     1
102
RTVSPropertyOp55
 70
     1
102
RTVSPropertyOp56
 70
     1
102
RTVSPropertyOp57
 70
     1
102
RTVSPropertyOp58
 70
     1
102
RTVSPropertyOp59
 70
     1
102
RTVSPropertyOp60
 70
     1
102
RTVSPropertyOp61
 70
     1
102
RTVSPropertyOp62
 70
     1
  0
XRECORD
  5
3C6
102
{ACAD_REACTORS
330
3C5
102
}
330
3C5
100
AcDbXrecord
280
     1
102
RTVSPost2010Prop28
280
     0
102
RTVSPost2010PropOp28
 70
     1
102
RTVSPost2010Prop29
280
     1
102
RTVSPost2010PropOp29
 70
     1
102
RTVSPost2010Prop30
280
     1
102
RTVSPost2010PropOp30
 70
     1
102
RTVSPost2010Prop31
280
     0
102
RTVSPost2010PropOp31
 70
     1
102
RTVSPost2010Prop32
280
     0
102
RTVSPost2010PropOp32
 70
     1
102
RTVSPost2010Prop33
280
     0
102
RTVSPost2010PropOp33
 70
     1
102
RTVSPost2010Prop34
280
     0
102
RTVSPost2010PropOp34
 70
     1
102
RTVSPost2010Prop35
280
     0
102
RTVSPost2010PropOp35
 70
     1
102
RTVSPost2010Prop36
280
     0
102
RTVSPost2010PropOp36
 70
     1
102
RTVSPost2010Prop37
 90
       50
102
RTVSPost2010PropOp37
 70
     1
102
RTVSPost2010Prop38
140
0.0
102
RTVSPost2010PropOp38
 70
     1
102
RTVSPost2010Prop39
140
1.0
102
RTVSPost2010PropOp39
 70
     1
102
RTVSPost2010Prop40
 90
        0
102
RTVSPost2010PropOp40
 70
     1
102
RTVSPost2010Prop41ColorIndex
 90
       18
102
RTVSPost2010Prop41ColorRGB
 90
        0
102
RTVSPost2010PropOp41
 70
     1
102
RTVSPost2010Prop42
 90
       50
102
RTVSPost2010PropOp42
 70
     1
102
RTVSPost2010Prop43
 90
        3
102
RTVSPost2010PropOp43
 70
     1
102
RTVSPost2010Prop44ColorIndex
 90
        5
102
RTVSPost2010Prop44ColorRGB
 90
      255
102
RTVSPost2010PropOp44
 70
     1
102
RTVSPost2010Prop45
280
     0
102
RTVSPost2010PropOp45
 70
     1
102
RTVSPost2010Prop46
 90
       50
102
RTVSPost2010PropOp46
 70
     1
102
RTVSPost2010Prop47
 90
       50
102
RTVSPost2010PropOp47
 70
     1
102
RTVSPost2010Prop48
 90
       50
102
RTVSPost2010PropOp48
 70
     1
102
RTVSPost2010Prop49
280
     0
102
RTVSPost2010PropOp49
 70
     1
102
RTVSPost2010Prop50
 90
       50
102
RTVSPost2010PropOp50
 70
     1
102
RTVSPost2010Prop51ColorIndex
 90
      256
102
RTVSPost2010Prop51ColorRGB
 90
-16777216
102
RTVSPost2010PropOp51
 70
     0
102
RTVSPost2010Prop52
140
1.0
102
RTVSPost2010PropOp52
 70
     0
102
RTVSPost2010Prop53
 90
        2
102
RTVSPost2010PropOp53
 70
     1
102
RTVSPost2010Prop54
  1
strokes_ogs.tif
102
RTVSPost2010PropOp54
 70
     1
102
RTVSPost2010Prop55
280
     0
102
RTVSPost2010PropOp55
 70
     1
102
RTVSPost2010Prop56
140
1.0
102
RTVSPost2010PropOp56
 70
     1
102
RTVSPost2010Prop57
140
1.0
102
RTVSPost2010PropOp57
 70
     1
102
RTVSPropertyOp0
 70
     1
102
RTVSPropertyOp1
 70
     1
102
RTVSPropertyOp2
 70
     1
102
RTVSPropertyOp3
 70
     1
102
RTVSPropertyOp4
 70
     1
102
RTVSPropertyOp5
 70
     1
102
RTVSPropertyOp6
 70
     1
102
RTVSPropertyOp7
 70
     1
102
RTVSPropertyOp8
 70
     1
102
RTVSPropertyOp9
 70
     1
102
RTVSPropertyOp10
 70
     1
102
RTVSPropertyOp11
 70
     1
102
RTVSPropertyOp12
 70
     1
102
RTVSPropertyOp13
 70
     1
102
RTVSPropertyOp14
 70
     1
102
RTVSPropertyOp15
 70
     1
102
RTVSPropertyOp16
 70
     1
102
RTVSPropertyOp17
 70
     1
102
RTVSPropertyOp18
 70
     1
102
RTVSPropertyOp19
 70
     1
102
RTVSPropertyOp20
 70
     1
102
RTVSPropertyOp21
 70
     1
102
RTVSPropertyOp22
 70
     1
102
RTVSPropertyOp23
 70
     1
102
RTVSPropertyOp24
 70
     1
102
RTVSPropertyOp25
 70
     1
102
RTVSPropertyOp26
 70
     1
102
RTVSPropertyOp27
 70
     1
102
RTVSPropertyOp28
 70
     1
102
RTVSPropertyOp29
 70
     1
102
RTVSPropertyOp30
 70
     1
102
RTVSPropertyOp31
 70
     1
102
RTVSPropertyOp32
 70
     1
102
RTVSPropertyOp33
 70
     1
102
RTVSPropertyOp34
 70
     1
102
RTVSPropertyOp35
 70
     1
102
RTVSPropertyOp36
 70
     1
102
RTVSPropertyOp37
 70
     1
102
RTVSPropertyOp38
 70
     1
102
RTVSPropertyOp39
 70
     1
102
RTVSPropertyOp40
 70
     1
102
RTVSPropertyOp41
 70
     1
102
RTVSPropertyOp42
 70
     1
102
RTVSPropertyOp43
 70
     1
102
RTVSPropertyOp44
 70
     1
102
RTVSPropertyOp45
 70
     1
102
RTVSPropertyOp46
 70
     1
102
RTVSPropertyOp47
 70
     1
102
RTVSPropertyOp48
 70
     1
102
RTVSPropertyOp49
 70
     1
102
RTVSPropertyOp50
 70
     1
102
RTVSPropertyOp51
 70
     0
102
RTVSPropertyOp52
 70
     0
102
RTVSPropertyOp53
 70
     1
102
RTVSPropertyOp54
 70
     1
102
RTVSPropertyOp55
 70
     1
102
RTVSPropertyOp56
 70
     1
102
RTVSPropertyOp57
 70
     1
102
RTVSPropertyOp58
 70
     1
102
RTVSPropertyOp59
 70
     1
102
RTVSPropertyOp60
 70
     1
102
RTVSPropertyOp61
 70
     1
102
RTVSPropertyOp62
 70
     1
  0
XRECORD
  5
3C8
102
{ACAD_REACTORS
330
3C7
102
}
330
3C7
100
AcDbXrecord
280
     1
102
RTVSPost2010Prop28
280
     0
102
RTVSPost2010PropOp28
 70
     1
102
RTVSPost2010Prop29
280
     1
102
RTVSPost2010PropOp29
 70
     1
102
RTVSPost2010Prop30
280
     1
102
RTVSPost2010PropOp30
 70
     1
102
RTVSPost2010Prop31
280
     0
102
RTVSPost2010PropOp31
 70
     1
102
RTVSPost2010Prop32
280
     0
102
RTVSPost2010PropOp32
 70
     1
102
RTVSPost2010Prop33
280
     0
102
RTVSPost2010PropOp33
 70
     1
102
RTVSPost2010Prop34
280
     0
102
RTVSPost2010PropOp34
 70
     1
102
RTVSPost2010Prop35
280
     0
102
RTVSPost2010PropOp35
 70
     1
102
RTVSPost2010Prop36
280
     0
102
RTVSPost2010PropOp36
 70
     1
102
RTVSPost2010Prop37
 90
       50
102
RTVSPost2010PropOp37
 70
     1
102
RTVSPost2010Prop38
140
0.0
102
RTVSPost2010PropOp38
 70
     1
102
RTVSPost2010Prop39
140
1.0
102
RTVSPost2010PropOp39
 70
     1
102
RTVSPost2010Prop40
 90
        0
102
RTVSPost2010PropOp40
 70
     1
102
RTVSPost2010Prop41ColorIndex
 90
       18
102
RTVSPost2010Prop41ColorRGB
 90
        0
102
RTVSPost2010PropOp41
 70
     1
102
RTVSPost2010Prop42
 90
       50
102
RTVSPost2010PropOp42
 70
     1
102
RTVSPost2010Prop43
 90
        3
102
RTVSPost2010PropOp43
 70
     1
102
RTVSPost2010Prop44ColorIndex
 90
        5
102
RTVSPost2010Prop44ColorRGB
 90
      255
102
RTVSPost2010PropOp44
 70
     1
102
RTVSPost2010Prop45
280
     0
102
RTVSPost2010PropOp45
 70
     1
102
RTVSPost2010Prop46
 90
       50
102
RTVSPost2010PropOp46
 70
     1
102
RTVSPost2010Prop47
 90
       50
102
RTVSPost2010PropOp47
 70
     1
102
RTVSPost2010Prop48
 90
       50
102
RTVSPost2010PropOp48
 70
     1
102
RTVSPost2010Prop49
280
     0
102
RTVSPost2010PropOp49
 70
     1
102
RTVSPost2010Prop50
 90
       50
102
RTVSPost2010PropOp50
 70
     1
102
RTVSPost2010Prop51ColorIndex
 90
      256
102
RTVSPost2010Prop51ColorRGB
 90
-16777216
102
RTVSPost2010PropOp51
 70
     0
102
RTVSPost2010Prop52
140
1.0
102
RTVSPost2010PropOp52
 70
     0
102
RTVSPost2010Prop53
 90
        2
102
RTVSPost2010PropOp53
 70
     1
102
RTVSPost2010Prop54
  1
strokes_ogs.tif
102
RTVSPost2010PropOp54
 70
     1
102
RTVSPost2010Prop55
280
     0
102
RTVSPost2010PropOp55
 70
     1
102
RTVSPost2010Prop56
140
1.0
102
RTVSPost2010PropOp56
 70
     1
102
RTVSPost2010Prop57
140
1.0
102
RTVSPost2010PropOp57
 70
     1
102
RTVSPropertyOp0
 70
     1
102
RTVSPropertyOp1
 70
     1
102
RTVSPropertyOp2
 70
     1
102
RTVSPropertyOp3
 70
     1
102
RTVSPropertyOp4
 70
     1
102
RTVSPropertyOp5
 70
     1
102
RTVSPropertyOp6
 70
     1
102
RTVSPropertyOp7
 70
     1
102
RTVSPropertyOp8
 70
     1
102
RTVSPropertyOp9
 70
     1
102
RTVSPropertyOp10
 70
     1
102
RTVSPropertyOp11
 70
     1
102
RTVSPropertyOp12
 70
     1
102
RTVSPropertyOp13
 70
     1
102
RTVSPropertyOp14
 70
     1
102
RTVSPropertyOp15
 70
     1
102
RTVSPropertyOp16
 70
     1
102
RTVSPropertyOp17
 70
     1
102
RTVSPropertyOp18
 70
     1
102
RTVSPropertyOp19
 70
     1
102
RTVSPropertyOp20
 70
     1
102
RTVSPropertyOp21
 70
     1
102
RTVSPropertyOp22
 70
     1
102
RTVSPropertyOp23
 70
     1
102
RTVSPropertyOp24
 70
     1
102
RTVSPropertyOp25
 70
     1
102
RTVSPropertyOp26
 70
     1
102
RTVSPropertyOp27
 70
     1
102
RTVSPropertyOp28
 70
     1
102
RTVSPropertyOp29
 70
     1
102
RTVSPropertyOp30
 70
     1
102
RTVSPropertyOp31
 70
     1
102
RTVSPropertyOp32
 70
     1
102
RTVSPropertyOp33
 70
     1
102
RTVSPropertyOp34
 70
     1
102
RTVSPropertyOp35
 70
     1
102
RTVSPropertyOp36
 70
     1
102
RTVSPropertyOp37
 70
     1
102
RTVSPropertyOp38
 70
     1
102
RTVSPropertyOp39
 70
     1
102
RTVSPropertyOp40
 70
     1
102
RTVSPropertyOp41
 70
     1
102
RTVSPropertyOp42
 70
     1
102
RTVSPropertyOp43
 70
     1
102
RTVSPropertyOp44
 70
     1
102
RTVSPropertyOp45
 70
     1
102
RTVSPropertyOp46
 70
     1
102
RTVSPropertyOp47
 70
     1
102
RTVSPropertyOp48
 70
     1
102
RTVSPropertyOp49
 70
     1
102
RTVSPropertyOp50
 70
     1
102
RTVSPropertyOp51
 70
     0
102
RTVSPropertyOp52
 70
     0
102
RTVSPropertyOp53
 70
     1
102
RTVSPropertyOp54
 70
     1
102
RTVSPropertyOp55
 70
     1
102
RTVSPropertyOp56
 70
     1
102
RTVSPropertyOp57
 70
     1
102
RTVSPropertyOp58
 70
     1
102
RTVSPropertyOp59
 70
     1
102
RTVSPropertyOp60
 70
     1
102
RTVSPropertyOp61
 70
     1
102
RTVSPropertyOp62
 70
     1
  0
XRECORD
  5
3D8
102
{ACAD_REACTORS
330
3D7
102
}
330
3D7
100
AcDbXrecord
280
     1
102
RTVSPost2010Prop28
280
     0
102
RTVSPost2010PropOp28
 70
     0
102
RTVSPost2010Prop29
280
     1
102
RTVSPost2010PropOp29
 70
     0
102
RTVSPost2010Prop30
280
     1
102
RTVSPost2010PropOp30
 70
     0
102
RTVSPost2010Prop31
280
     0
102
RTVSPost2010PropOp31
 70
     0
102
RTVSPost2010Prop32
280
     0
102
RTVSPost2010PropOp32
 70
     0
102
RTVSPost2010Prop33
280
     0
102
RTVSPost2010PropOp33
 70
     0
102
RTVSPost2010Prop34
280
     0
102
RTVSPost2010PropOp34
 70
     0
102
RTVSPost2010Prop35
280
     0
102
RTVSPost2010PropOp35
 70
     0
102
RTVSPost2010Prop36
280
     0
102
RTVSPost2010PropOp36
 70
     0
102
RTVSPost2010Prop37
 90
       50
102
RTVSPost2010PropOp37
 70
     0
102
RTVSPost2010Prop38
140
0.0
102
RTVSPost2010PropOp38
 70
     0
102
RTVSPost2010Prop39
140
1.0
102
RTVSPost2010PropOp39
 70
     0
102
RTVSPost2010Prop40
 90
        0
102
RTVSPost2010PropOp40
 70
     0
102
RTVSPost2010Prop41ColorIndex
 90
       18
102
RTVSPost2010Prop41ColorRGB
 90
        0
102
RTVSPost2010PropOp41
 70
     0
102
RTVSPost2010Prop42
 90
       50
102
RTVSPost2010PropOp42
 70
     0
102
RTVSPost2010Prop43
 90
        3
102
RTVSPost2010PropOp43
 70
     0
102
RTVSPost2010Prop44ColorIndex
 90
        5
102
RTVSPost2010Prop44ColorRGB
 90
      255
102
RTVSPost2010PropOp44
 70
     0
102
RTVSPost2010Prop45
280
     0
102
RTVSPost2010PropOp45
 70
     0
102
RTVSPost2010Prop46
 90
       50
102
RTVSPost2010PropOp46
 70
     0
102
RTVSPost2010Prop47
 90
       50
102
RTVSPost2010PropOp47
 70
     0
102
RTVSPost2010Prop48
 90
       50
102
RTVSPost2010PropOp48
 70
     0
102
RTVSPost2010Prop49
280
     0
102
RTVSPost2010PropOp49
 70
     0
102
RTVSPost2010Prop50
 90
       50
102
RTVSPost2010PropOp50
 70
     0
102
RTVSPost2010Prop51ColorIndex
 90
      256
102
RTVSPost2010Prop51ColorRGB
 90
-16777216
102
RTVSPost2010PropOp51
 70
     0
102
RTVSPost2010Prop52
140
1.0
102
RTVSPost2010PropOp52
 70
     0
102
RTVSPost2010Prop53
 90
        2
102
RTVSPost2010PropOp53
 70
     0
102
RTVSPost2010Prop54
  1
strokes_ogs.tif
102
RTVSPost2010PropOp54
 70
     0
102
RTVSPost2010Prop55
280
     0
102
RTVSPost2010PropOp55
 70
     0
102
RTVSPost2010Prop56
140
1.0
102
RTVSPost2010PropOp56
 70
     0
102
RTVSPost2010Prop57
140
1.0
102
RTVSPost2010PropOp57
 70
     0
102
RTVSPropertyOp0
 70
     0
102
RTVSPropertyOp1
 70
     0
102
RTVSPropertyOp2
 70
     0
102
RTVSPropertyOp3
 70
     0
102
RTVSPropertyOp4
 70
     0
102
RTVSPropertyOp5
 70
     0
102
RTVSPropertyOp6
 70
     0
102
RTVSPropertyOp7
 70
     0
102
RTVSPropertyOp8
 70
     0
102
RTVSPropertyOp9
 70
     0
102
RTVSPropertyOp10
 70
     0
102
RTVSPropertyOp11
 70
     0
102
RTVSPropertyOp12
 70
     0
102
RTVSPropertyOp13
 70
     0
102
RTVSPropertyOp14
 70
     2
102
RTVSPropertyOp15
 70
     0
102
RTVSPropertyOp16
 70
     0
102
RTVSPropertyOp17
 70
     0
102
RTVSPropertyOp18
 70
     0
102
RTVSPropertyOp19
 70
     0
102
RTVSPropertyOp20
 70
     0
102
RTVSPropertyOp21
 70
     0
102
RTVSPropertyOp22
 70
     0
102
RTVSPropertyOp23
 70
     0
102
RTVSPropertyOp24
 70
     0
102
RTVSPropertyOp25
 70
     0
102
RTVSPropertyOp26
 70
     0
102
RTVSPropertyOp27
 70
     0
102
RTVSPropertyOp28
 70
     0
102
RTVSPropertyOp29
 70
     0
102
RTVSPropertyOp30
 70
     0
102
RTVSPropertyOp31
 70
     0
102
RTVSPropertyOp32
 70
     0
102
RTVSPropertyOp33
 70
     0
102
RTVSPropertyOp34
 70
     0
102
RTVSPropertyOp35
 70
     0
102
RTVSPropertyOp36
 70
     0
102
RTVSPropertyOp37
 70
     0
102
RTVSPropertyOp38
 70
     0
102
RTVSPropertyOp39
 70
     0
102
RTVSPropertyOp40
 70
     0
102
RTVSPropertyOp41
 70
     0
102
RTVSPropertyOp42
 70
     0
102
RTVSPropertyOp43
 70
     0
102
RTVSPropertyOp44
 70
     0
102
RTVSPropertyOp45
 70
     0
102
RTVSPropertyOp46
 70
     0
102
RTVSPropertyOp47
 70
     0
102
RTVSPropertyOp48
 70
     0
102
RTVSPropertyOp49
 70
     0
102
RTVSPropertyOp50
 70
     0
102
RTVSPropertyOp51
 70
     0
102
RTVSPropertyOp52
 70
     0
102
RTVSPropertyOp53
 70
     0
102
RTVSPropertyOp54
 70
     0
102
RTVSPropertyOp55
 70
     0
102
RTVSPropertyOp56
 70
     0
102
RTVSPropertyOp57
 70
     0
102
RTVSPropertyOp58
 70
     1
102
RTVSPropertyOp59
 70
     1
102
RTVSPropertyOp60
 70
     1
102
RTVSPropertyOp61
 70
     1
102
RTVSPropertyOp62
 70
     1
  0
XRECORD
  5
3D0
102
{ACAD_REACTORS
330
3CF
102
}
330
3CF
100
AcDbXrecord
280
     1
102
RTVSPost2010Prop28
280
     0
102
RTVSPost2010PropOp28
 70
     1
102
RTVSPost2010Prop29
280
     1
102
RTVSPost2010PropOp29
 70
     1
102
RTVSPost2010Prop30
280
     1
102
RTVSPost2010PropOp30
 70
     1
102
RTVSPost2010Prop31
280
     0
102
RTVSPost2010PropOp31
 70
     1
102
RTVSPost2010Prop32
280
     0
102
RTVSPost2010PropOp32
 70
     1
102
RTVSPost2010Prop33
280
     0
102
RTVSPost2010PropOp33
 70
     1
102
RTVSPost2010Prop34
280
     0
102
RTVSPost2010PropOp34
 70
     1
102
RTVSPost2010Prop35
280
     0
102
RTVSPost2010PropOp35
 70
     1
102
RTVSPost2010Prop36
280
     0
102
RTVSPost2010PropOp36
 70
     1
102
RTVSPost2010Prop37
 90
       50
102
RTVSPost2010PropOp37
 70
     1
102
RTVSPost2010Prop38
140
0.0
102
RTVSPost2010PropOp38
 70
     1
102
RTVSPost2010Prop39
140
1.0
102
RTVSPost2010PropOp39
 70
     1
102
RTVSPost2010Prop40
 90
        0
102
RTVSPost2010PropOp40
 70
     1
102
RTVSPost2010Prop41ColorIndex
 90
       18
102
RTVSPost2010Prop41ColorRGB
 90
        0
102
RTVSPost2010PropOp41
 70
     1
102
RTVSPost2010Prop42
 90
       50
102
RTVSPost2010PropOp42
 70
     1
102
RTVSPost2010Prop43
 90
        3
102
RTVSPost2010PropOp43
 70
     1
102
RTVSPost2010Prop44ColorIndex
 90
        5
102
RTVSPost2010Prop44ColorRGB
 90
      255
102
RTVSPost2010PropOp44
 70
     1
102
RTVSPost2010Prop45
280
     0
102
RTVSPost2010PropOp45
 70
     1
102
RTVSPost2010Prop46
 90
       50
102
RTVSPost2010PropOp46
 70
     1
102
RTVSPost2010Prop47
 90
       50
102
RTVSPost2010PropOp47
 70
     1
102
RTVSPost2010Prop48
 90
       50
102
RTVSPost2010PropOp48
 70
     1
102
RTVSPost2010Prop49
280
     0
102
RTVSPost2010PropOp49
 70
     1
102
RTVSPost2010Prop50
 90
       50
102
RTVSPost2010PropOp50
 70
     1
102
RTVSPost2010Prop51ColorIndex
 90
      256
102
RTVSPost2010Prop51ColorRGB
 90
-16777216
102
RTVSPost2010PropOp51
 70
     0
102
RTVSPost2010Prop52
140
1.0
102
RTVSPost2010PropOp52
 70
     0
102
RTVSPost2010Prop53
 90
        2
102
RTVSPost2010PropOp53
 70
     1
102
RTVSPost2010Prop54
  1
strokes_ogs.tif
102
RTVSPost2010PropOp54
 70
     1
102
RTVSPost2010Prop55
280
     0
102
RTVSPost2010PropOp55
 70
     1
102
RTVSPost2010Prop56
140
1.0
102
RTVSPost2010PropOp56
 70
     1
102
RTVSPost2010Prop57
140
1.0
102
RTVSPost2010PropOp57
 70
     1
102
RTVSPropertyOp0
 70
     1
102
RTVSPropertyOp1
 70
     1
102
RTVSPropertyOp2
 70
     1
102
RTVSPropertyOp3
 70
     1
102
RTVSPropertyOp4
 70
     1
102
RTVSPropertyOp5
 70
     1
102
RTVSPropertyOp6
 70
     1
102
RTVSPropertyOp7
 70
     1
102
RTVSPropertyOp8
 70
     1
102
RTVSPropertyOp9
 70
     1
102
RTVSPropertyOp10
 70
     1
102
RTVSPropertyOp11
 70
     1
102
RTVSPropertyOp12
 70
     1
102
RTVSPropertyOp13
 70
     1
102
RTVSPropertyOp14
 70
     1
102
RTVSPropertyOp15
 70
     1
102
RTVSPropertyOp16
 70
     1
102
RTVSPropertyOp17
 70
     1
102
RTVSPropertyOp18
 70
     1
102
RTVSPropertyOp19
 70
     1
102
RTVSPropertyOp20
 70
     1
102
RTVSPropertyOp21
 70
     1
102
RTVSPropertyOp22
 70
     1
102
RTVSPropertyOp23
 70
     1
102
RTVSPropertyOp24
 70
     1
102
RTVSPropertyOp25
 70
     1
102
RTVSPropertyOp26
 70
     1
102
RTVSPropertyOp27
 70
     1
102
RTVSPropertyOp28
 70
     1
102
RTVSPropertyOp29
 70
     1
102
RTVSPropertyOp30
 70
     1
102
RTVSPropertyOp31
 70
     1
102
RTVSPropertyOp32
 70
     1
102
RTVSPropertyOp33
 70
     1
102
RTVSPropertyOp34
 70
     1
102
RTVSPropertyOp35
 70
     1
102
RTVSPropertyOp36
 70
     1
102
RTVSPropertyOp37
 70
     1
102
RTVSPropertyOp38
 70
     1
102
RTVSPropertyOp39
 70
     1
102
RTVSPropertyOp40
 70
     1
102
RTVSPropertyOp41
 70
     1
102
RTVSPropertyOp42
 70
     1
102
RTVSPropertyOp43
 70
     1
102
RTVSPropertyOp44
 70
     1
102
RTVSPropertyOp45
 70
     1
102
RTVSPropertyOp46
 70
     1
102
RTVSPropertyOp47
 70
     1
102
RTVSPropertyOp48
 70
     1
102
RTVSPropertyOp49
 70
     1
102
RTVSPropertyOp50
 70
     1
102
RTVSPropertyOp51
 70
     0
102
RTVSPropertyOp52
 70
     0
102
RTVSPropertyOp53
 70
     1
102
RTVSPropertyOp54
 70
     1
102
RTVSPropertyOp55
 70
     1
102
RTVSPropertyOp56
 70
     1
102
RTVSPropertyOp57
 70
     1
102
RTVSPropertyOp58
 70
     1
102
RTVSPropertyOp59
 70
     1
102
RTVSPropertyOp60
 70
     1
102
RTVSPropertyOp61
 70
     1
102
RTVSPropertyOp62
 70
     1
  0
XRECORD
  5
3B4
102
{ACAD_REACTORS
330
3B3
102
}
330
3B3
100
AcDbXrecord
280
     1
102
RTVSPost2010Prop28
280
     0
102
RTVSPost2010PropOp28
 70
     1
102
RTVSPost2010Prop29
280
     1
102
RTVSPost2010PropOp29
 70
     1
102
RTVSPost2010Prop30
280
     1
102
RTVSPost2010PropOp30
 70
     1
102
RTVSPost2010Prop31
280
     0
102
RTVSPost2010PropOp31
 70
     1
102
RTVSPost2010Prop32
280
     0
102
RTVSPost2010PropOp32
 70
     1
102
RTVSPost2010Prop33
280
     0
102
RTVSPost2010PropOp33
 70
     1
102
RTVSPost2010Prop34
280
     0
102
RTVSPost2010PropOp34
 70
     1
102
RTVSPost2010Prop35
280
     0
102
RTVSPost2010PropOp35
 70
     1
102
RTVSPost2010Prop36
280
     0
102
RTVSPost2010PropOp36
 70
     1
102
RTVSPost2010Prop37
 90
       50
102
RTVSPost2010PropOp37
 70
     1
102
RTVSPost2010Prop38
140
0.0
102
RTVSPost2010PropOp38
 70
     1
102
RTVSPost2010Prop39
140
1.0
102
RTVSPost2010PropOp39
 70
     1
102
RTVSPost2010Prop40
 90
        0
102
RTVSPost2010PropOp40
 70
     1
102
RTVSPost2010Prop41ColorIndex
 90
       18
102
RTVSPost2010Prop41ColorRGB
 90
        0
102
RTVSPost2010PropOp41
 70
     1
102
RTVSPost2010Prop42
 90
       50
102
RTVSPost2010PropOp42
 70
     1
102
RTVSPost2010Prop43
 90
        3
102
RTVSPost2010PropOp43
 70
     1
102
RTVSPost2010Prop44ColorIndex
 90
        5
102
RTVSPost2010Prop44ColorRGB
 90
      255
102
RTVSPost2010PropOp44
 70
     1
102
RTVSPost2010Prop45
280
     0
102
RTVSPost2010PropOp45
 70
     1
102
RTVSPost2010Prop46
 90
       50
102
RTVSPost2010PropOp46
 70
     1
102
RTVSPost2010Prop47
 90
       50
102
RTVSPost2010PropOp47
 70
     1
102
RTVSPost2010Prop48
 90
       50
102
RTVSPost2010PropOp48
 70
     1
102
RTVSPost2010Prop49
280
     0
102
RTVSPost2010PropOp49
 70
     1
102
RTVSPost2010Prop50
 90
       50
102
RTVSPost2010PropOp50
 70
     1
102
RTVSPost2010Prop51ColorIndex
 90
      256
102
RTVSPost2010Prop51ColorRGB
 90
-16777216
102
RTVSPost2010PropOp51
 70
     0
102
RTVSPost2010Prop52
140
1.0
102
RTVSPost2010PropOp52
 70
     0
102
RTVSPost2010Prop53
 90
        2
102
RTVSPost2010PropOp53
 70
     1
102
RTVSPost2010Prop54
  1
strokes_ogs.tif
102
RTVSPost2010PropOp54
 70
     1
102
RTVSPost2010Prop55
280
     0
102
RTVSPost2010PropOp55
 70
     1
102
RTVSPost2010Prop56
140
1.0
102
RTVSPost2010PropOp56
 70
     1
102
RTVSPost2010Prop57
140
1.0
102
RTVSPost2010PropOp57
 70
     1
102
RTVSPropertyOp0
 70
     1
102
RTVSPropertyOp1
 70
     1
102
RTVSPropertyOp2
 70
     1
102
RTVSPropertyOp3
 70
     1
102
RTVSPropertyOp4
 70
     1
102
RTVSPropertyOp5
 70
     1
102
RTVSPropertyOp6
 70
     1
102
RTVSPropertyOp7
 70
     1
102
RTVSPropertyOp8
 70
     1
102
RTVSPropertyOp9
 70
     1
102
RTVSPropertyOp10
 70
     1
102
RTVSPropertyOp11
 70
     1
102
RTVSPropertyOp12
 70
     1
102
RTVSPropertyOp13
 70
     1
102
RTVSPropertyOp14
 70
     1
102
RTVSPropertyOp15
 70
     1
102
RTVSPropertyOp16
 70
     1
102
RTVSPropertyOp17
 70
     1
102
RTVSPropertyOp18
 70
     1
102
RTVSPropertyOp19
 70
     1
102
RTVSPropertyOp20
 70
     1
102
RTVSPropertyOp21
 70
     1
102
RTVSPropertyOp22
 70
     1
102
RTVSPropertyOp23
 70
     1
102
RTVSPropertyOp24
 70
     1
102
RTVSPropertyOp25
 70
     1
102
RTVSPropertyOp26
 70
     1
102
RTVSPropertyOp27
 70
     1
102
RTVSPropertyOp28
 70
     1
102
RTVSPropertyOp29
 70
     1
102
RTVSPropertyOp30
 70
     1
102
RTVSPropertyOp31
 70
     1
102
RTVSPropertyOp32
 70
     1
102
RTVSPropertyOp33
 70
     1
102
RTVSPropertyOp34
 70
     1
102
RTVSPropertyOp35
 70
     1
102
RTVSPropertyOp36
 70
     1
102
RTVSPropertyOp37
 70
     1
102
RTVSPropertyOp38
 70
     1
102
RTVSPropertyOp39
 70
     1
102
RTVSPropertyOp40
 70
     1
102
RTVSPropertyOp41
 70
     1
102
RTVSPropertyOp42
 70
     1
102
RTVSPropertyOp43
 70
     1
102
RTVSPropertyOp44
 70
     1
102
RTVSPropertyOp45
 70
     1
102
RTVSPropertyOp46
 70
     1
102
RTVSPropertyOp47
 70
     1
102
RTVSPropertyOp48
 70
     1
102
RTVSPropertyOp49
 70
     1
102
RTVSPropertyOp50
 70
     1
102
RTVSPropertyOp51
 70
     0
102
RTVSPropertyOp52
 70
     0
102
RTVSPropertyOp53
 70
     1
102
RTVSPropertyOp54
 70
     1
102
RTVSPropertyOp55
 70
     1
102
RTVSPropertyOp56
 70
     1
102
RTVSPropertyOp57
 70
     1
102
RTVSPropertyOp58
 70
     1
102
RTVSPropertyOp59
 70
     1
102
RTVSPropertyOp60
 70
     1
102
RTVSPropertyOp61
 70
     1
102
RTVSPropertyOp62
 70
     1
  0
XRECORD
  5
3B6
102
{ACAD_REACTORS
330
3B5
102
}
330
3B5
100
AcDbXrecord
280
     1
102
RTVSPost2010Prop28
280
     0
102
RTVSPost2010PropOp28
 70
     1
102
RTVSPost2010Prop29
280
     1
102
RTVSPost2010PropOp29
 70
     1
102
RTVSPost2010Prop30
280
     1
102
RTVSPost2010PropOp30
 70
     1
102
RTVSPost2010Prop31
280
     0
102
RTVSPost2010PropOp31
 70
     1
102
RTVSPost2010Prop32
280
     0
102
RTVSPost2010PropOp32
 70
     1
102
RTVSPost2010Prop33
280
     0
102
RTVSPost2010PropOp33
 70
     1
102
RTVSPost2010Prop34
280
     0
102
RTVSPost2010PropOp34
 70
     1
102
RTVSPost2010Prop35
280
     0
102
RTVSPost2010PropOp35
 70
     1
102
RTVSPost2010Prop36
280
     0
102
RTVSPost2010PropOp36
 70
     1
102
RTVSPost2010Prop37
 90
       50
102
RTVSPost2010PropOp37
 70
     1
102
RTVSPost2010Prop38
140
0.0
102
RTVSPost2010PropOp38
 70
     1
102
RTVSPost2010Prop39
140
1.0
102
RTVSPost2010PropOp39
 70
     1
102
RTVSPost2010Prop40
 90
        0
102
RTVSPost2010PropOp40
 70
     1
102
RTVSPost2010Prop41ColorIndex
 90
       18
102
RTVSPost2010Prop41ColorRGB
 90
        0
102
RTVSPost2010PropOp41
 70
     1
102
RTVSPost2010Prop42
 90
       50
102
RTVSPost2010PropOp42
 70
     1
102
RTVSPost2010Prop43
 90
        3
102
RTVSPost2010PropOp43
 70
     1
102
RTVSPost2010Prop44ColorIndex
 90
        5
102
RTVSPost2010Prop44ColorRGB
 90
      255
102
RTVSPost2010PropOp44
 70
     1
102
RTVSPost2010Prop45
280
     0
102
RTVSPost2010PropOp45
 70
     1
102
RTVSPost2010Prop46
 90
       50
102
RTVSPost2010PropOp46
 70
     1
102
RTVSPost2010Prop47
 90
       50
102
RTVSPost2010PropOp47
 70
     1
102
RTVSPost2010Prop48
 90
       50
102
RTVSPost2010PropOp48
 70
     1
102
RTVSPost2010Prop49
280
     0
102
RTVSPost2010PropOp49
 70
     1
102
RTVSPost2010Prop50
 90
       50
102
RTVSPost2010PropOp50
 70
     1
102
RTVSPost2010Prop51ColorIndex
 90
      256
102
RTVSPost2010Prop51ColorRGB
 90
-16777216
102
RTVSPost2010PropOp51
 70
     0
102
RTVSPost2010Prop52
140
1.0
102
RTVSPost2010PropOp52
 70
     0
102
RTVSPost2010Prop53
 90
        2
102
RTVSPost2010PropOp53
 70
     1
102
RTVSPost2010Prop54
  1
strokes_ogs.tif
102
RTVSPost2010PropOp54
 70
     1
102
RTVSPost2010Prop55
280
     0
102
RTVSPost2010PropOp55
 70
     1
102
RTVSPost2010Prop56
140
1.0
102
RTVSPost2010PropOp56
 70
     1
102
RTVSPost2010Prop57
140
1.0
102
RTVSPost2010PropOp57
 70
     1
102
RTVSPropertyOp0
 70
     1
102
RTVSPropertyOp1
 70
     1
102
RTVSPropertyOp2
 70
     1
102
RTVSPropertyOp3
 70
     1
102
RTVSPropertyOp4
 70
     1
102
RTVSPropertyOp5
 70
     1
102
RTVSPropertyOp6
 70
     1
102
RTVSPropertyOp7
 70
     1
102
RTVSPropertyOp8
 70
     1
102
RTVSPropertyOp9
 70
     1
102
RTVSPropertyOp10
 70
     1
102
RTVSPropertyOp11
 70
     1
102
RTVSPropertyOp12
 70
     1
102
RTVSPropertyOp13
 70
     1
102
RTVSPropertyOp14
 70
     1
102
RTVSPropertyOp15
 70
     1
102
RTVSPropertyOp16
 70
     1
102
RTVSPropertyOp17
 70
     1
102
RTVSPropertyOp18
 70
     1
102
RTVSPropertyOp19
 70
     1
102
RTVSPropertyOp20
 70
     1
102
RTVSPropertyOp21
 70
     1
102
RTVSPropertyOp22
 70
     1
102
RTVSPropertyOp23
 70
     1
102
RTVSPropertyOp24
 70
     1
102
RTVSPropertyOp25
 70
     1
102
RTVSPropertyOp26
 70
     1
102
RTVSPropertyOp27
 70
     1
102
RTVSPropertyOp28
 70
     1
102
RTVSPropertyOp29
 70
     1
102
RTVSPropertyOp30
 70
     1
102
RTVSPropertyOp31
 70
     1
102
RTVSPropertyOp32
 70
     1
102
RTVSPropertyOp33
 70
     1
102
RTVSPropertyOp34
 70
     1
102
RTVSPropertyOp35
 70
     1
102
RTVSPropertyOp36
 70
     1
102
RTVSPropertyOp37
 70
     1
102
RTVSPropertyOp38
 70
     1
102
RTVSPropertyOp39
 70
     1
102
RTVSPropertyOp40
 70
     1
102
RTVSPropertyOp41
 70
     1
102
RTVSPropertyOp42
 70
     1
102
RTVSPropertyOp43
 70
     1
102
RTVSPropertyOp44
 70
     1
102
RTVSPropertyOp45
 70
     1
102
RTVSPropertyOp46
 70
     1
102
RTVSPropertyOp47
 70
     1
102
RTVSPropertyOp48
 70
     1
102
RTVSPropertyOp49
 70
     1
102
RTVSPropertyOp50
 70
     1
102
RTVSPropertyOp51
 70
     0
102
RTVSPropertyOp52
 70
     0
102
RTVSPropertyOp53
 70
     1
102
RTVSPropertyOp54
 70
     1
102
RTVSPropertyOp55
 70
     1
102
RTVSPropertyOp56
 70
     1
102
RTVSPropertyOp57
 70
     1
102
RTVSPropertyOp58
 70
     1
102
RTVSPropertyOp59
 70
     1
102
RTVSPropertyOp60
 70
     1
102
RTVSPropertyOp61
 70
     1
102
RTVSPropertyOp62
 70
     1
  0
XRECORD
  5
3B8
102
{ACAD_REACTORS
330
3B7
102
}
330
3B7
100
AcDbXrecord
280
     1
102
RTVSPost2010Prop28
280
     0
102
RTVSPost2010PropOp28
 70
     1
102
RTVSPost2010Prop29
280
     1
102
RTVSPost2010PropOp29
 70
     1
102
RTVSPost2010Prop30
280
     1
102
RTVSPost2010PropOp30
 70
     1
102
RTVSPost2010Prop31
280
     0
102
RTVSPost2010PropOp31
 70
     1
102
RTVSPost2010Prop32
280
     0
102
RTVSPost2010PropOp32
 70
     1
102
RTVSPost2010Prop33
280
     0
102
RTVSPost2010PropOp33
 70
     1
102
RTVSPost2010Prop34
280
     0
102
RTVSPost2010PropOp34
 70
     1
102
RTVSPost2010Prop35
280
     0
102
RTVSPost2010PropOp35
 70
     1
102
RTVSPost2010Prop36
280
     0
102
RTVSPost2010PropOp36
 70
     1
102
RTVSPost2010Prop37
 90
       50
102
RTVSPost2010PropOp37
 70
     1
102
RTVSPost2010Prop38
140
0.0
102
RTVSPost2010PropOp38
 70
     1
102
RTVSPost2010Prop39
140
1.0
102
RTVSPost2010PropOp39
 70
     1
102
RTVSPost2010Prop40
 90
        0
102
RTVSPost2010PropOp40
 70
     1
102
RTVSPost2010Prop41ColorIndex
 90
       18
102
RTVSPost2010Prop41ColorRGB
 90
        0
102
RTVSPost2010PropOp41
 70
     1
102
RTVSPost2010Prop42
 90
       50
102
RTVSPost2010PropOp42
 70
     1
102
RTVSPost2010Prop43
 90
        3
102
RTVSPost2010PropOp43
 70
     1
102
RTVSPost2010Prop44ColorIndex
 90
        5
102
RTVSPost2010Prop44ColorRGB
 90
      255
102
RTVSPost2010PropOp44
 70
     1
102
RTVSPost2010Prop45
280
     0
102
RTVSPost2010PropOp45
 70
     1
102
RTVSPost2010Prop46
 90
       50
102
RTVSPost2010PropOp46
 70
     1
102
RTVSPost2010Prop47
 90
       50
102
RTVSPost2010PropOp47
 70
     1
102
RTVSPost2010Prop48
 90
       50
102
RTVSPost2010PropOp48
 70
     1
102
RTVSPost2010Prop49
280
     0
102
RTVSPost2010PropOp49
 70
     1
102
RTVSPost2010Prop50
 90
       50
102
RTVSPost2010PropOp50
 70
     1
102
RTVSPost2010Prop51ColorIndex
 90
      256
102
RTVSPost2010Prop51ColorRGB
 90
-16777216
102
RTVSPost2010PropOp51
 70
     0
102
RTVSPost2010Prop52
140
1.0
102
RTVSPost2010PropOp52
 70
     0
102
RTVSPost2010Prop53
 90
        2
102
RTVSPost2010PropOp53
 70
     1
102
RTVSPost2010Prop54
  1
strokes_ogs.tif
102
RTVSPost2010PropOp54
 70
     1
102
RTVSPost2010Prop55
280
     0
102
RTVSPost2010PropOp55
 70
     1
102
RTVSPost2010Prop56
140
1.0
102
RTVSPost2010PropOp56
 70
     1
102
RTVSPost2010Prop57
140
1.0
102
RTVSPost2010PropOp57
 70
     1
102
RTVSPropertyOp0
 70
     1
102
RTVSPropertyOp1
 70
     1
102
RTVSPropertyOp2
 70
     1
102
RTVSPropertyOp3
 70
     1
102
RTVSPropertyOp4
 70
     1
102
RTVSPropertyOp5
 70
     1
102
RTVSPropertyOp6
 70
     1
102
RTVSPropertyOp7
 70
     1
102
RTVSPropertyOp8
 70
     1
102
RTVSPropertyOp9
 70
     1
102
RTVSPropertyOp10
 70
     1
102
RTVSPropertyOp11
 70
     1
102
RTVSPropertyOp12
 70
     1
102
RTVSPropertyOp13
 70
     1
102
RTVSPropertyOp14
 70
     1
102
RTVSPropertyOp15
 70
     1
102
RTVSPropertyOp16
 70
     1
102
RTVSPropertyOp17
 70
     1
102
RTVSPropertyOp18
 70
     1
102
RTVSPropertyOp19
 70
     1
102
RTVSPropertyOp20
 70
     1
102
RTVSPropertyOp21
 70
     1
102
RTVSPropertyOp22
 70
     1
102
RTVSPropertyOp23
 70
     1
102
RTVSPropertyOp24
 70
     1
102
RTVSPropertyOp25
 70
     1
102
RTVSPropertyOp26
 70
     1
102
RTVSPropertyOp27
 70
     1
102
RTVSPropertyOp28
 70
     1
102
RTVSPropertyOp29
 70
     1
102
RTVSPropertyOp30
 70
     1
102
RTVSPropertyOp31
 70
     1
102
RTVSPropertyOp32
 70
     1
102
RTVSPropertyOp33
 70
     1
102
RTVSPropertyOp34
 70
     1
102
RTVSPropertyOp35
 70
     1
102
RTVSPropertyOp36
 70
     1
102
RTVSPropertyOp37
 70
     1
102
RTVSPropertyOp38
 70
     1
102
RTVSPropertyOp39
 70
     1
102
RTVSPropertyOp40
 70
     1
102
RTVSPropertyOp41
 70
     1
102
RTVSPropertyOp42
 70
     1
102
RTVSPropertyOp43
 70
     1
102
RTVSPropertyOp44
 70
     1
102
RTVSPropertyOp45
 70
     1
102
RTVSPropertyOp46
 70
     1
102
RTVSPropertyOp47
 70
     1
102
RTVSPropertyOp48
 70
     1
102
RTVSPropertyOp49
 70
     1
102
RTVSPropertyOp50
 70
     1
102
RTVSPropertyOp51
 70
     0
102
RTVSPropertyOp52
 70
     0
102
RTVSPropertyOp53
 70
     1
102
RTVSPropertyOp54
 70
     1
102
RTVSPropertyOp55
 70
     1
102
RTVSPropertyOp56
 70
     1
102
RTVSPropertyOp57
 70
     1
102
RTVSPropertyOp58
 70
     1
102
RTVSPropertyOp59
 70
     1
102
RTVSPropertyOp60
 70
     1
102
RTVSPropertyOp61
 70
     1
102
RTVSPropertyOp62
 70
     1
  0
XRECORD
  5
3BA
102
{ACAD_REACTORS
330
3B9
102
}
330
3B9
100
AcDbXrecord
280
     1
102
RTVSPost2010Prop28
280
     0
102
RTVSPost2010PropOp28
 70
     1
102
RTVSPost2010Prop29
280
     1
102
RTVSPost2010PropOp29
 70
     1
102
RTVSPost2010Prop30
280
     1
102
RTVSPost2010PropOp30
 70
     1
102
RTVSPost2010Prop31
280
     0
102
RTVSPost2010PropOp31
 70
     1
102
RTVSPost2010Prop32
280
     0
102
RTVSPost2010PropOp32
 70
     1
102
RTVSPost2010Prop33
280
     0
102
RTVSPost2010PropOp33
 70
     1
102
RTVSPost2010Prop34
280
     0
102
RTVSPost2010PropOp34
 70
     1
102
RTVSPost2010Prop35
280
     0
102
RTVSPost2010PropOp35
 70
     1
102
RTVSPost2010Prop36
280
     0
102
RTVSPost2010PropOp36
 70
     1
102
RTVSPost2010Prop37
 90
       50
102
RTVSPost2010PropOp37
 70
     1
102
RTVSPost2010Prop38
140
0.0
102
RTVSPost2010PropOp38
 70
     1
102
RTVSPost2010Prop39
140
1.0
102
RTVSPost2010PropOp39
 70
     1
102
RTVSPost2010Prop40
 90
        0
102
RTVSPost2010PropOp40
 70
     1
102
RTVSPost2010Prop41ColorIndex
 90
       18
102
RTVSPost2010Prop41ColorRGB
 90
        0
102
RTVSPost2010PropOp41
 70
     1
102
RTVSPost2010Prop42
 90
       50
102
RTVSPost2010PropOp42
 70
     1
102
RTVSPost2010Prop43
 90
        3
102
RTVSPost2010PropOp43
 70
     1
102
RTVSPost2010Prop44ColorIndex
 90
        5
102
RTVSPost2010Prop44ColorRGB
 90
      255
102
RTVSPost2010PropOp44
 70
     1
102
RTVSPost2010Prop45
280
     0
102
RTVSPost2010PropOp45
 70
     1
102
RTVSPost2010Prop46
 90
       50
102
RTVSPost2010PropOp46
 70
     1
102
RTVSPost2010Prop47
 90
       50
102
RTVSPost2010PropOp47
 70
     1
102
RTVSPost2010Prop48
 90
       50
102
RTVSPost2010PropOp48
 70
     1
102
RTVSPost2010Prop49
280
     0
102
RTVSPost2010PropOp49
 70
     1
102
RTVSPost2010Prop50
 90
       50
102
RTVSPost2010PropOp50
 70
     1
102
RTVSPost2010Prop51ColorIndex
 90
      256
102
RTVSPost2010Prop51ColorRGB
 90
-16777216
102
RTVSPost2010PropOp51
 70
     0
102
RTVSPost2010Prop52
140
1.0
102
RTVSPost2010PropOp52
 70
     0
102
RTVSPost2010Prop53
 90
        2
102
RTVSPost2010PropOp53
 70
     1
102
RTVSPost2010Prop54
  1
strokes_ogs.tif
102
RTVSPost2010PropOp54
 70
     1
102
RTVSPost2010Prop55
280
     0
102
RTVSPost2010PropOp55
 70
     1
102
RTVSPost2010Prop56
140
1.0
102
RTVSPost2010PropOp56
 70
     1
102
RTVSPost2010Prop57
140
1.0
102
RTVSPost2010PropOp57
 70
     1
102
RTVSPropertyOp0
 70
     1
102
RTVSPropertyOp1
 70
     1
102
RTVSPropertyOp2
 70
     1
102
RTVSPropertyOp3
 70
     1
102
RTVSPropertyOp4
 70
     1
102
RTVSPropertyOp5
 70
     1
102
RTVSPropertyOp6
 70
     1
102
RTVSPropertyOp7
 70
     1
102
RTVSPropertyOp8
 70
     1
102
RTVSPropertyOp9
 70
     1
102
RTVSPropertyOp10
 70
     1
102
RTVSPropertyOp11
 70
     1
102
RTVSPropertyOp12
 70
     1
102
RTVSPropertyOp13
 70
     1
102
RTVSPropertyOp14
 70
     1
102
RTVSPropertyOp15
 70
     1
102
RTVSPropertyOp16
 70
     1
102
RTVSPropertyOp17
 70
     1
102
RTVSPropertyOp18
 70
     1
102
RTVSPropertyOp19
 70
     1
102
RTVSPropertyOp20
 70
     1
102
RTVSPropertyOp21
 70
     1
102
RTVSPropertyOp22
 70
     1
102
RTVSPropertyOp23
 70
     1
102
RTVSPropertyOp24
 70
     1
102
RTVSPropertyOp25
 70
     1
102
RTVSPropertyOp26
 70
     1
102
RTVSPropertyOp27
 70
     1
102
RTVSPropertyOp28
 70
     1
102
RTVSPropertyOp29
 70
     1
102
RTVSPropertyOp30
 70
     1
102
RTVSPropertyOp31
 70
     1
102
RTVSPropertyOp32
 70
     1
102
RTVSPropertyOp33
 70
     1
102
RTVSPropertyOp34
 70
     1
102
RTVSPropertyOp35
 70
     1
102
RTVSPropertyOp36
 70
     1
102
RTVSPropertyOp37
 70
     1
102
RTVSPropertyOp38
 70
     1
102
RTVSPropertyOp39
 70
     1
102
RTVSPropertyOp40
 70
     1
102
RTVSPropertyOp41
 70
     1
102
RTVSPropertyOp42
 70
     1
102
RTVSPropertyOp43
 70
     1
102
RTVSPropertyOp44
 70
     1
102
RTVSPropertyOp45
 70
     1
102
RTVSPropertyOp46
 70
     1
102
RTVSPropertyOp47
 70
     1
102
RTVSPropertyOp48
 70
     1
102
RTVSPropertyOp49
 70
     1
102
RTVSPropertyOp50
 70
     1
102
RTVSPropertyOp51
 70
     0
102
RTVSPropertyOp52
 70
     0
102
RTVSPropertyOp53
 70
     1
102
RTVSPropertyOp54
 70
     1
102
RTVSPropertyOp55
 70
     1
102
RTVSPropertyOp56
 70
     1
102
RTVSPropertyOp57
 70
     1
102
RTVSPropertyOp58
 70
     1
102
RTVSPropertyOp59
 70
     1
102
RTVSPropertyOp60
 70
     1
102
RTVSPropertyOp61
 70
     1
102
RTVSPropertyOp62
 70
     1
  0
XRECORD
  5
3C0
102
{ACAD_REACTORS
330
3BF
102
}
330
3BF
100
AcDbXrecord
280
     1
102
RTVSPost2010Prop28
280
     0
102
RTVSPost2010PropOp28
 70
     1
102
RTVSPost2010Prop29
280
     1
102
RTVSPost2010PropOp29
 70
     1
102
RTVSPost2010Prop30
280
     1
102
RTVSPost2010PropOp30
 70
     1
102
RTVSPost2010Prop31
280
     0
102
RTVSPost2010PropOp31
 70
     1
102
RTVSPost2010Prop32
280
     0
102
RTVSPost2010PropOp32
 70
     1
102
RTVSPost2010Prop33
280
     0
102
RTVSPost2010PropOp33
 70
     1
102
RTVSPost2010Prop34
280
     0
102
RTVSPost2010PropOp34
 70
     1
102
RTVSPost2010Prop35
280
     0
102
RTVSPost2010PropOp35
 70
     1
102
RTVSPost2010Prop36
280
     0
102
RTVSPost2010PropOp36
 70
     1
102
RTVSPost2010Prop37
 90
       50
102
RTVSPost2010PropOp37
 70
     1
102
RTVSPost2010Prop38
140
0.0
102
RTVSPost2010PropOp38
 70
     1
102
RTVSPost2010Prop39
140
1.0
102
RTVSPost2010PropOp39
 70
     1
102
RTVSPost2010Prop40
 90
        0
102
RTVSPost2010PropOp40
 70
     1
102
RTVSPost2010Prop41ColorIndex
 90
       18
102
RTVSPost2010Prop41ColorRGB
 90
        0
102
RTVSPost2010PropOp41
 70
     1
102
RTVSPost2010Prop42
 90
       50
102
RTVSPost2010PropOp42
 70
     1
102
RTVSPost2010Prop43
 90
        3
102
RTVSPost2010PropOp43
 70
     1
102
RTVSPost2010Prop44ColorIndex
 90
        5
102
RTVSPost2010Prop44ColorRGB
 90
      255
102
RTVSPost2010PropOp44
 70
     1
102
RTVSPost2010Prop45
280
     0
102
RTVSPost2010PropOp45
 70
     1
102
RTVSPost2010Prop46
 90
       50
102
RTVSPost2010PropOp46
 70
     1
102
RTVSPost2010Prop47
 90
       50
102
RTVSPost2010PropOp47
 70
     1
102
RTVSPost2010Prop48
 90
       50
102
RTVSPost2010PropOp48
 70
     1
102
RTVSPost2010Prop49
280
     0
102
RTVSPost2010PropOp49
 70
     1
102
RTVSPost2010Prop50
 90
       50
102
RTVSPost2010PropOp50
 70
     1
102
RTVSPost2010Prop51ColorIndex
 90
      256
102
RTVSPost2010Prop51ColorRGB
 90
-16777216
102
RTVSPost2010PropOp51
 70
     0
102
RTVSPost2010Prop52
140
1.0
102
RTVSPost2010PropOp52
 70
     0
102
RTVSPost2010Prop53
 90
        2
102
RTVSPost2010PropOp53
 70
     1
102
RTVSPost2010Prop54
  1
strokes_ogs.tif
102
RTVSPost2010PropOp54
 70
     1
102
RTVSPost2010Prop55
280
     0
102
RTVSPost2010PropOp55
 70
     1
102
RTVSPost2010Prop56
140
1.0
102
RTVSPost2010PropOp56
 70
     1
102
RTVSPost2010Prop57
140
1.0
102
RTVSPost2010PropOp57
 70
     1
102
RTVSPropertyOp0
 70
     1
102
RTVSPropertyOp1
 70
     1
102
RTVSPropertyOp2
 70
     1
102
RTVSPropertyOp3
 70
     1
102
RTVSPropertyOp4
 70
     1
102
RTVSPropertyOp5
 70
     1
102
RTVSPropertyOp6
 70
     1
102
RTVSPropertyOp7
 70
     1
102
RTVSPropertyOp8
 70
     1
102
RTVSPropertyOp9
 70
     1
102
RTVSPropertyOp10
 70
     1
102
RTVSPropertyOp11
 70
     1
102
RTVSPropertyOp12
 70
     1
102
RTVSPropertyOp13
 70
     1
102
RTVSPropertyOp14
 70
     1
102
RTVSPropertyOp15
 70
     1
102
RTVSPropertyOp16
 70
     1
102
RTVSPropertyOp17
 70
     1
102
RTVSPropertyOp18
 70
     1
102
RTVSPropertyOp19
 70
     1
102
RTVSPropertyOp20
 70
     1
102
RTVSPropertyOp21
 70
     1
102
RTVSPropertyOp22
 70
     1
102
RTVSPropertyOp23
 70
     1
102
RTVSPropertyOp24
 70
     1
102
RTVSPropertyOp25
 70
     1
102
RTVSPropertyOp26
 70
     1
102
RTVSPropertyOp27
 70
     1
102
RTVSPropertyOp28
 70
     1
102
RTVSPropertyOp29
 70
     1
102
RTVSPropertyOp30
 70
     1
102
RTVSPropertyOp31
 70
     1
102
RTVSPropertyOp32
 70
     1
102
RTVSPropertyOp33
 70
     1
102
RTVSPropertyOp34
 70
     1
102
RTVSPropertyOp35
 70
     1
102
RTVSPropertyOp36
 70
     1
102
RTVSPropertyOp37
 70
     1
102
RTVSPropertyOp38
 70
     1
102
RTVSPropertyOp39
 70
     1
102
RTVSPropertyOp40
 70
     1
102
RTVSPropertyOp41
 70
     1
102
RTVSPropertyOp42
 70
     1
102
RTVSPropertyOp43
 70
     1
102
RTVSPropertyOp44
 70
     1
102
RTVSPropertyOp45
 70
     1
102
RTVSPropertyOp46
 70
     1
102
RTVSPropertyOp47
 70
     1
102
RTVSPropertyOp48
 70
     1
102
RTVSPropertyOp49
 70
     1
102
RTVSPropertyOp50
 70
     1
102
RTVSPropertyOp51
 70
     0
102
RTVSPropertyOp52
 70
     0
102
RTVSPropertyOp53
 70
     1
102
RTVSPropertyOp54
 70
     1
102
RTVSPropertyOp55
 70
     1
102
RTVSPropertyOp56
 70
     1
102
RTVSPropertyOp57
 70
     1
102
RTVSPropertyOp58
 70
     1
102
RTVSPropertyOp59
 70
     1
102
RTVSPropertyOp60
 70
     1
102
RTVSPropertyOp61
 70
     1
102
RTVSPropertyOp62
 70
     1
  0
XRECORD
  5
3D4
102
{ACAD_REACTORS
330
3D3
102
}
330
3D3
100
AcDbXrecord
280
     1
102
RTVSPost2010Prop28
280
     0
102
RTVSPost2010PropOp28
 70
     0
102
RTVSPost2010Prop29
280
     1
102
RTVSPost2010PropOp29
 70
     0
102
RTVSPost2010Prop30
280
     1
102
RTVSPost2010PropOp30
 70
     0
102
RTVSPost2010Prop31
280
     0
102
RTVSPost2010PropOp31
 70
     0
102
RTVSPost2010Prop32
280
     0
102
RTVSPost2010PropOp32
 70
     0
102
RTVSPost2010Prop33
280
     0
102
RTVSPost2010PropOp33
 70
     0
102
RTVSPost2010Prop34
280
     0
102
RTVSPost2010PropOp34
 70
     0
102
RTVSPost2010Prop35
280
     0
102
RTVSPost2010PropOp35
 70
     0
102
RTVSPost2010Prop36
280
     0
102
RTVSPost2010PropOp36
 70
     0
102
RTVSPost2010Prop37
 90
       50
102
RTVSPost2010PropOp37
 70
     0
102
RTVSPost2010Prop38
140
0.0
102
RTVSPost2010PropOp38
 70
     0
102
RTVSPost2010Prop39
140
1.0
102
RTVSPost2010PropOp39
 70
     0
102
RTVSPost2010Prop40
 90
        0
102
RTVSPost2010PropOp40
 70
     0
102
RTVSPost2010Prop41ColorIndex
 90
       18
102
RTVSPost2010Prop41ColorRGB
 90
        0
102
RTVSPost2010PropOp41
 70
     0
102
RTVSPost2010Prop42
 90
       50
102
RTVSPost2010PropOp42
 70
     0
102
RTVSPost2010Prop43
 90
        3
102
RTVSPost2010PropOp43
 70
     0
102
RTVSPost2010Prop44ColorIndex
 90
        5
102
RTVSPost2010Prop44ColorRGB
 90
      255
102
RTVSPost2010PropOp44
 70
     0
102
RTVSPost2010Prop45
280
     0
102
RTVSPost2010PropOp45
 70
     0
102
RTVSPost2010Prop46
 90
       50
102
RTVSPost2010PropOp46
 70
     0
102
RTVSPost2010Prop47
 90
       50
102
RTVSPost2010PropOp47
 70
     0
102
RTVSPost2010Prop48
 90
       50
102
RTVSPost2010PropOp48
 70
     0
102
RTVSPost2010Prop49
280
     0
102
RTVSPost2010PropOp49
 70
     0
102
RTVSPost2010Prop50
 90
       50
102
RTVSPost2010PropOp50
 70
     0
102
RTVSPost2010Prop51ColorIndex
 90
      256
102
RTVSPost2010Prop51ColorRGB
 90
-16777216
102
RTVSPost2010PropOp51
 70
     0
102
RTVSPost2010Prop52
140
1.0
102
RTVSPost2010PropOp52
 70
     0
102
RTVSPost2010Prop53
 90
        2
102
RTVSPost2010PropOp53
 70
     0
102
RTVSPost2010Prop54
  1
strokes_ogs.tif
102
RTVSPost2010PropOp54
 70
     0
102
RTVSPost2010Prop55
280
     0
102
RTVSPost2010PropOp55
 70
     0
102
RTVSPost2010Prop56
140
1.0
102
RTVSPost2010PropOp56
 70
     0
102
RTVSPost2010Prop57
140
1.0
102
RTVSPost2010PropOp57
 70
     0
102
RTVSPropertyOp0
 70
     0
102
RTVSPropertyOp1
 70
     0
102
RTVSPropertyOp2
 70
     0
102
RTVSPropertyOp3
 70
     0
102
RTVSPropertyOp4
 70
     0
102
RTVSPropertyOp5
 70
     0
102
RTVSPropertyOp6
 70
     0
102
RTVSPropertyOp7
 70
     0
102
RTVSPropertyOp8
 70
     0
102
RTVSPropertyOp9
 70
     0
102
RTVSPropertyOp10
 70
     0
102
RTVSPropertyOp11
 70
     0
102
RTVSPropertyOp12
 70
     0
102
RTVSPropertyOp13
 70
     0
102
RTVSPropertyOp14
 70
     2
102
RTVSPropertyOp15
 70
     0
102
RTVSPropertyOp16
 70
     0
102
RTVSPropertyOp17
 70
     0
102
RTVSPropertyOp18
 70
     0
102
RTVSPropertyOp19
 70
     0
102
RTVSPropertyOp20
 70
     0
102
RTVSPropertyOp21
 70
     0
102
RTVSPropertyOp22
 70
     0
102
RTVSPropertyOp23
 70
     0
102
RTVSPropertyOp24
 70
     0
102
RTVSPropertyOp25
 70
     0
102
RTVSPropertyOp26
 70
     0
102
RTVSPropertyOp27
 70
     0
102
RTVSPropertyOp28
 70
     0
102
RTVSPropertyOp29
 70
     0
102
RTVSPropertyOp30
 70
     0
102
RTVSPropertyOp31
 70
     0
102
RTVSPropertyOp32
 70
     0
102
RTVSPropertyOp33
 70
     0
102
RTVSPropertyOp34
 70
     0
102
RTVSPropertyOp35
 70
     0
102
RTVSPropertyOp36
 70
     0
102
RTVSPropertyOp37
 70
     0
102
RTVSPropertyOp38
 70
     0
102
RTVSPropertyOp39
 70
     0
102
RTVSPropertyOp40
 70
     0
102
RTVSPropertyOp41
 70
     0
102
RTVSPropertyOp42
 70
     0
102
RTVSPropertyOp43
 70
     0
102
RTVSPropertyOp44
 70
     0
102
RTVSPropertyOp45
 70
     0
102
RTVSPropertyOp46
 70
     0
102
RTVSPropertyOp47
 70
     0
102
RTVSPropertyOp48
 70
     0
102
RTVSPropertyOp49
 70
     0
102
RTVSPropertyOp50
 70
     0
102
RTVSPropertyOp51
 70
     0
102
RTVSPropertyOp52
 70
     0
102
RTVSPropertyOp53
 70
     0
102
RTVSPropertyOp54
 70
     0
102
RTVSPropertyOp55
 70
     0
102
RTVSPropertyOp56
 70
     0
102
RTVSPropertyOp57
 70
     0
102
RTVSPropertyOp58
 70
     1
102
RTVSPropertyOp59
 70
     1
102
RTVSPropertyOp60
 70
     1
102
RTVSPropertyOp61
 70
     1
102
RTVSPropertyOp62
 70
     1
  0
XRECORD
  5
3CE
102
{ACAD_REACTORS
330
3CD
102
}
330
3CD
100
AcDbXrecord
280
     1
102
RTVSPost2010Prop28
280
     0
102
RTVSPost2010PropOp28
 70
     1
102
RTVSPost2010Prop29
280
     1
102
RTVSPost2010PropOp29
 70
     1
102
RTVSPost2010Prop30
280
     1
102
RTVSPost2010PropOp30
 70
     1
102
RTVSPost2010Prop31
280
     0
102
RTVSPost2010PropOp31
 70
     1
102
RTVSPost2010Prop32
280
     0
102
RTVSPost2010PropOp32
 70
     1
102
RTVSPost2010Prop33
280
     0
102
RTVSPost2010PropOp33
 70
     1
102
RTVSPost2010Prop34
280
     0
102
RTVSPost2010PropOp34
 70
     1
102
RTVSPost2010Prop35
280
     0
102
RTVSPost2010PropOp35
 70
     1
102
RTVSPost2010Prop36
280
     0
102
RTVSPost2010PropOp36
 70
     1
102
RTVSPost2010Prop37
 90
       50
102
RTVSPost2010PropOp37
 70
     1
102
RTVSPost2010Prop38
140
0.0
102
RTVSPost2010PropOp38
 70
     1
102
RTVSPost2010Prop39
140
1.0
102
RTVSPost2010PropOp39
 70
     1
102
RTVSPost2010Prop40
 90
        0
102
RTVSPost2010PropOp40
 70
     1
102
RTVSPost2010Prop41ColorIndex
 90
       18
102
RTVSPost2010Prop41ColorRGB
 90
        0
102
RTVSPost2010PropOp41
 70
     1
102
RTVSPost2010Prop42
 90
       50
102
RTVSPost2010PropOp42
 70
     1
102
RTVSPost2010Prop43
 90
        3
102
RTVSPost2010PropOp43
 70
     1
102
RTVSPost2010Prop44ColorIndex
 90
        5
102
RTVSPost2010Prop44ColorRGB
 90
      255
102
RTVSPost2010PropOp44
 70
     1
102
RTVSPost2010Prop45
280
     0
102
RTVSPost2010PropOp45
 70
     1
102
RTVSPost2010Prop46
 90
       50
102
RTVSPost2010PropOp46
 70
     1
102
RTVSPost2010Prop47
 90
       50
102
RTVSPost2010PropOp47
 70
     1
102
RTVSPost2010Prop48
 90
       50
102
RTVSPost2010PropOp48
 70
     1
102
RTVSPost2010Prop49
280
     0
102
RTVSPost2010PropOp49
 70
     1
102
RTVSPost2010Prop50
 90
       50
102
RTVSPost2010PropOp50
 70
     1
102
RTVSPost2010Prop51ColorIndex
 90
      256
102
RTVSPost2010Prop51ColorRGB
 90
-16777216
102
RTVSPost2010PropOp51
 70
     0
102
RTVSPost2010Prop52
140
1.0
102
RTVSPost2010PropOp52
 70
     0
102
RTVSPost2010Prop53
 90
        2
102
RTVSPost2010PropOp53
 70
     1
102
RTVSPost2010Prop54
  1
strokes_ogs.tif
102
RTVSPost2010PropOp54
 70
     1
102
RTVSPost2010Prop55
280
     0
102
RTVSPost2010PropOp55
 70
     1
102
RTVSPost2010Prop56
140
1.0
102
RTVSPost2010PropOp56
 70
     1
102
RTVSPost2010Prop57
140
1.0
102
RTVSPost2010PropOp57
 70
     1
102
RTVSPropertyOp0
 70
     1
102
RTVSPropertyOp1
 70
     1
102
RTVSPropertyOp2
 70
     1
102
RTVSPropertyOp3
 70
     1
102
RTVSPropertyOp4
 70
     1
102
RTVSPropertyOp5
 70
     1
102
RTVSPropertyOp6
 70
     1
102
RTVSPropertyOp7
 70
     1
102
RTVSPropertyOp8
 70
     1
102
RTVSPropertyOp9
 70
     1
102
RTVSPropertyOp10
 70
     1
102
RTVSPropertyOp11
 70
     1
102
RTVSPropertyOp12
 70
     1
102
RTVSPropertyOp13
 70
     1
102
RTVSPropertyOp14
 70
     1
102
RTVSPropertyOp15
 70
     1
102
RTVSPropertyOp16
 70
     1
102
RTVSPropertyOp17
 70
     1
102
RTVSPropertyOp18
 70
     1
102
RTVSPropertyOp19
 70
     1
102
RTVSPropertyOp20
 70
     1
102
RTVSPropertyOp21
 70
     1
102
RTVSPropertyOp22
 70
     1
102
RTVSPropertyOp23
 70
     1
102
RTVSPropertyOp24
 70
     1
102
RTVSPropertyOp25
 70
     1
102
RTVSPropertyOp26
 70
     1
102
RTVSPropertyOp27
 70
     1
102
RTVSPropertyOp28
 70
     1
102
RTVSPropertyOp29
 70
     1
102
RTVSPropertyOp30
 70
     1
102
RTVSPropertyOp31
 70
     1
102
RTVSPropertyOp32
 70
     1
102
RTVSPropertyOp33
 70
     1
102
RTVSPropertyOp34
 70
     1
102
RTVSPropertyOp35
 70
     1
102
RTVSPropertyOp36
 70
     1
102
RTVSPropertyOp37
 70
     1
102
RTVSPropertyOp38
 70
     1
102
RTVSPropertyOp39
 70
     1
102
RTVSPropertyOp40
 70
     1
102
RTVSPropertyOp41
 70
     1
102
RTVSPropertyOp42
 70
     1
102
RTVSPropertyOp43
 70
     1
102
RTVSPropertyOp44
 70
     1
102
RTVSPropertyOp45
 70
     1
102
RTVSPropertyOp46
 70
     1
102
RTVSPropertyOp47
 70
     1
102
RTVSPropertyOp48
 70
     1
102
RTVSPropertyOp49
 70
     1
102
RTVSPropertyOp50
 70
     1
102
RTVSPropertyOp51
 70
     0
102
RTVSPropertyOp52
 70
     0
102
RTVSPropertyOp53
 70
     1
102
RTVSPropertyOp54
 70
     1
102
RTVSPropertyOp55
 70
     1
102
RTVSPropertyOp56
 70
     1
102
RTVSPropertyOp57
 70
     1
102
RTVSPropertyOp58
 70
     1
102
RTVSPropertyOp59
 70
     1
102
RTVSPropertyOp60
 70
     1
102
RTVSPropertyOp61
 70
     1
102
RTVSPropertyOp62
 70
     1
  0
XRECORD
  5
3D6
102
{ACAD_REACTORS
330
3D5
102
}
330
3D5
100
AcDbXrecord
280
     1
102
RTVSPost2010Prop28
280
     0
102
RTVSPost2010PropOp28
 70
     0
102
RTVSPost2010Prop29
280
     1
102
RTVSPost2010PropOp29
 70
     0
102
RTVSPost2010Prop30
280
     1
102
RTVSPost2010PropOp30
 70
     0
102
RTVSPost2010Prop31
280
     0
102
RTVSPost2010PropOp31
 70
     0
102
RTVSPost2010Prop32
280
     0
102
RTVSPost2010PropOp32
 70
     0
102
RTVSPost2010Prop33
280
     0
102
RTVSPost2010PropOp33
 70
     0
102
RTVSPost2010Prop34
280
     0
102
RTVSPost2010PropOp34
 70
     0
102
RTVSPost2010Prop35
280
     0
102
RTVSPost2010PropOp35
 70
     0
102
RTVSPost2010Prop36
280
     0
102
RTVSPost2010PropOp36
 70
     0
102
RTVSPost2010Prop37
 90
       50
102
RTVSPost2010PropOp37
 70
     0
102
RTVSPost2010Prop38
140
0.0
102
RTVSPost2010PropOp38
 70
     0
102
RTVSPost2010Prop39
140
1.0
102
RTVSPost2010PropOp39
 70
     0
102
RTVSPost2010Prop40
 90
        0
102
RTVSPost2010PropOp40
 70
     0
102
RTVSPost2010Prop41ColorIndex
 90
       18
102
RTVSPost2010Prop41ColorRGB
 90
        0
102
RTVSPost2010PropOp41
 70
     0
102
RTVSPost2010Prop42
 90
       50
102
RTVSPost2010PropOp42
 70
     0
102
RTVSPost2010Prop43
 90
        3
102
RTVSPost2010PropOp43
 70
     0
102
RTVSPost2010Prop44ColorIndex
 90
        5
102
RTVSPost2010Prop44ColorRGB
 90
      255
102
RTVSPost2010PropOp44
 70
     0
102
RTVSPost2010Prop45
280
     0
102
RTVSPost2010PropOp45
 70
     0
102
RTVSPost2010Prop46
 90
       50
102
RTVSPost2010PropOp46
 70
     0
102
RTVSPost2010Prop47
 90
       50
102
RTVSPost2010PropOp47
 70
     0
102
RTVSPost2010Prop48
 90
       50
102
RTVSPost2010PropOp48
 70
     0
102
RTVSPost2010Prop49
280
     0
102
RTVSPost2010PropOp49
 70
     0
102
RTVSPost2010Prop50
 90
       50
102
RTVSPost2010PropOp50
 70
     0
102
RTVSPost2010Prop51ColorIndex
 90
      256
102
RTVSPost2010Prop51ColorRGB
 90
-16777216
102
RTVSPost2010PropOp51
 70
     0
102
RTVSPost2010Prop52
140
1.0
102
RTVSPost2010PropOp52
 70
     0
102
RTVSPost2010Prop53
 90
        2
102
RTVSPost2010PropOp53
 70
     0
102
RTVSPost2010Prop54
  1
strokes_ogs.tif
102
RTVSPost2010PropOp54
 70
     0
102
RTVSPost2010Prop55
280
     0
102
RTVSPost2010PropOp55
 70
     0
102
RTVSPost2010Prop56
140
1.0
102
RTVSPost2010PropOp56
 70
     0
102
RTVSPost2010Prop57
140
1.0
102
RTVSPost2010PropOp57
 70
     0
102
RTVSPropertyOp0
 70
     0
102
RTVSPropertyOp1
 70
     0
102
RTVSPropertyOp2
 70
     0
102
RTVSPropertyOp3
 70
     0
102
RTVSPropertyOp4
 70
     0
102
RTVSPropertyOp5
 70
     0
102
RTVSPropertyOp6
 70
     0
102
RTVSPropertyOp7
 70
     0
102
RTVSPropertyOp8
 70
     0
102
RTVSPropertyOp9
 70
     0
102
RTVSPropertyOp10
 70
     0
102
RTVSPropertyOp11
 70
     0
102
RTVSPropertyOp12
 70
     0
102
RTVSPropertyOp13
 70
     0
102
RTVSPropertyOp14
 70
     2
102
RTVSPropertyOp15
 70
     0
102
RTVSPropertyOp16
 70
     0
102
RTVSPropertyOp17
 70
     0
102
RTVSPropertyOp18
 70
     0
102
RTVSPropertyOp19
 70
     0
102
RTVSPropertyOp20
 70
     0
102
RTVSPropertyOp21
 70
     0
102
RTVSPropertyOp22
 70
     0
102
RTVSPropertyOp23
 70
     0
102
RTVSPropertyOp24
 70
     0
102
RTVSPropertyOp25
 70
     0
102
RTVSPropertyOp26
 70
     0
102
RTVSPropertyOp27
 70
     0
102
RTVSPropertyOp28
 70
     0
102
RTVSPropertyOp29
 70
     0
102
RTVSPropertyOp30
 70
     0
102
RTVSPropertyOp31
 70
     0
102
RTVSPropertyOp32
 70
     0
102
RTVSPropertyOp33
 70
     0
102
RTVSPropertyOp34
 70
     0
102
RTVSPropertyOp35
 70
     0
102
RTVSPropertyOp36
 70
     0
102
RTVSPropertyOp37
 70
     0
102
RTVSPropertyOp38
 70
     0
102
RTVSPropertyOp39
 70
     0
102
RTVSPropertyOp40
 70
     0
102
RTVSPropertyOp41
 70
     0
102
RTVSPropertyOp42
 70
     0
102
RTVSPropertyOp43
 70
     0
102
RTVSPropertyOp44
 70
     0
102
RTVSPropertyOp45
 70
     0
102
RTVSPropertyOp46
 70
     0
102
RTVSPropertyOp47
 70
     0
102
RTVSPropertyOp48
 70
     0
102
RTVSPropertyOp49
 70
     0
102
RTVSPropertyOp50
 70
     0
102
RTVSPropertyOp51
 70
     0
102
RTVSPropertyOp52
 70
     0
102
RTVSPropertyOp53
 70
     0
102
RTVSPropertyOp54
 70
     0
102
RTVSPropertyOp55
 70
     0
102
RTVSPropertyOp56
 70
     0
102
RTVSPropertyOp57
 70
     0
102
RTVSPropertyOp58
 70
     1
102
RTVSPropertyOp59
 70
     1
102
RTVSPropertyOp60
 70
     1
102
RTVSPropertyOp61
 70
     1
102
RTVSPropertyOp62
 70
     1
  0
XRECORD
  5
3C4
102
{ACAD_REACTORS
330
3C3
102
}
330
3C3
100
AcDbXrecord
280
     1
102
RTVSPost2010Prop28
280
     0
102
RTVSPost2010PropOp28
 70
     1
102
RTVSPost2010Prop29
280
     1
102
RTVSPost2010PropOp29
 70
     1
102
RTVSPost2010Prop30
280
     1
102
RTVSPost2010PropOp30
 70
     1
102
RTVSPost2010Prop31
280
     0
102
RTVSPost2010PropOp31
 70
     1
102
RTVSPost2010Prop32
280
     0
102
RTVSPost2010PropOp32
 70
     1
102
RTVSPost2010Prop33
280
     0
102
RTVSPost2010PropOp33
 70
     1
102
RTVSPost2010Prop34
280
     0
102
RTVSPost2010PropOp34
 70
     1
102
RTVSPost2010Prop35
280
     0
102
RTVSPost2010PropOp35
 70
     1
102
RTVSPost2010Prop36
280
     0
102
RTVSPost2010PropOp36
 70
     1
102
RTVSPost2010Prop37
 90
       50
102
RTVSPost2010PropOp37
 70
     1
102
RTVSPost2010Prop38
140
0.0
102
RTVSPost2010PropOp38
 70
     1
102
RTVSPost2010Prop39
140
1.0
102
RTVSPost2010PropOp39
 70
     1
102
RTVSPost2010Prop40
 90
        0
102
RTVSPost2010PropOp40
 70
     1
102
RTVSPost2010Prop41ColorIndex
 90
       18
102
RTVSPost2010Prop41ColorRGB
 90
        0
102
RTVSPost2010PropOp41
 70
     1
102
RTVSPost2010Prop42
 90
       50
102
RTVSPost2010PropOp42
 70
     1
102
RTVSPost2010Prop43
 90
        3
102
RTVSPost2010PropOp43
 70
     1
102
RTVSPost2010Prop44ColorIndex
 90
        5
102
RTVSPost2010Prop44ColorRGB
 90
      255
102
RTVSPost2010PropOp44
 70
     1
102
RTVSPost2010Prop45
280
     0
102
RTVSPost2010PropOp45
 70
     1
102
RTVSPost2010Prop46
 90
       50
102
RTVSPost2010PropOp46
 70
     1
102
RTVSPost2010Prop47
 90
       50
102
RTVSPost2010PropOp47
 70
     1
102
RTVSPost2010Prop48
 90
       50
102
RTVSPost2010PropOp48
 70
     1
102
RTVSPost2010Prop49
280
     0
102
RTVSPost2010PropOp49
 70
     1
102
RTVSPost2010Prop50
 90
       50
102
RTVSPost2010PropOp50
 70
     1
102
RTVSPost2010Prop51ColorIndex
 90
      256
102
RTVSPost2010Prop51ColorRGB
 90
-16777216
102
RTVSPost2010PropOp51
 70
     0
102
RTVSPost2010Prop52
140
1.0
102
RTVSPost2010PropOp52
 70
     0
102
RTVSPost2010Prop53
 90
        2
102
RTVSPost2010PropOp53
 70
     1
102
RTVSPost2010Prop54
  1
strokes_ogs.tif
102
RTVSPost2010PropOp54
 70
     1
102
RTVSPost2010Prop55
280
     0
102
RTVSPost2010PropOp55
 70
     1
102
RTVSPost2010Prop56
140
1.0
102
RTVSPost2010PropOp56
 70
     1
102
RTVSPost2010Prop57
140
1.0
102
RTVSPost2010PropOp57
 70
     1
102
RTVSPropertyOp0
 70
     1
102
RTVSPropertyOp1
 70
     1
102
RTVSPropertyOp2
 70
     1
102
RTVSPropertyOp3
 70
     1
102
RTVSPropertyOp4
 70
     1
102
RTVSPropertyOp5
 70
     1
102
RTVSPropertyOp6
 70
     1
102
RTVSPropertyOp7
 70
     1
102
RTVSPropertyOp8
 70
     1
102
RTVSPropertyOp9
 70
     1
102
RTVSPropertyOp10
 70
     1
102
RTVSPropertyOp11
 70
     1
102
RTVSPropertyOp12
 70
     1
102
RTVSPropertyOp13
 70
     1
102
RTVSPropertyOp14
 70
     1
102
RTVSPropertyOp15
 70
     1
102
RTVSPropertyOp16
 70
     1
102
RTVSPropertyOp17
 70
     1
102
RTVSPropertyOp18
 70
     1
102
RTVSPropertyOp19
 70
     1
102
RTVSPropertyOp20
 70
     1
102
RTVSPropertyOp21
 70
     1
102
RTVSPropertyOp22
 70
     1
102
RTVSPropertyOp23
 70
     1
102
RTVSPropertyOp24
 70
     1
102
RTVSPropertyOp25
 70
     1
102
RTVSPropertyOp26
 70
     1
102
RTVSPropertyOp27
 70
     1
102
RTVSPropertyOp28
 70
     1
102
RTVSPropertyOp29
 70
     1
102
RTVSPropertyOp30
 70
     1
102
RTVSPropertyOp31
 70
     1
102
RTVSPropertyOp32
 70
     1
102
RTVSPropertyOp33
 70
     1
102
RTVSPropertyOp34
 70
     1
102
RTVSPropertyOp35
 70
     1
102
RTVSPropertyOp36
 70
     1
102
RTVSPropertyOp37
 70
     1
102
RTVSPropertyOp38
 70
     1
102
RTVSPropertyOp39
 70
     1
102
RTVSPropertyOp40
 70
     1
102
RTVSPropertyOp41
 70
     1
102
RTVSPropertyOp42
 70
     1
102
RTVSPropertyOp43
 70
     1
102
RTVSPropertyOp44
 70
     1
102
RTVSPropertyOp45
 70
     1
102
RTVSPropertyOp46
 70
     1
102
RTVSPropertyOp47
 70
     1
102
RTVSPropertyOp48
 70
     1
102
RTVSPropertyOp49
 70
     1
102
RTVSPropertyOp50
 70
     1
102
RTVSPropertyOp51
 70
     0
102
RTVSPropertyOp52
 70
     0
102
RTVSPropertyOp53
 70
     1
102
RTVSPropertyOp54
 70
     1
102
RTVSPropertyOp55
 70
     1
102
RTVSPropertyOp56
 70
     1
102
RTVSPropertyOp57
 70
     1
102
RTVSPropertyOp58
 70
     1
102
RTVSPropertyOp59
 70
     1
102
RTVSPropertyOp60
 70
     1
102
RTVSPropertyOp61
 70
     1
102
RTVSPropertyOp62
 70
     1
  0
XRECORD
  5
3E2
102
{ACAD_REACTORS
330
3E1
102
}
330
3E1
100
AcDbXrecord
280
     1
102
RTVSPost2010Prop28
280
     0
102
RTVSPost2010PropOp28
 70
     1
102
RTVSPost2010Prop29
280
     1
102
RTVSPost2010PropOp29
 70
     1
102
RTVSPost2010Prop30
280
     1
102
RTVSPost2010PropOp30
 70
     1
102
RTVSPost2010Prop31
280
     0
102
RTVSPost2010PropOp31
 70
     1
102
RTVSPost2010Prop32
280
     0
102
RTVSPost2010PropOp32
 70
     1
102
RTVSPost2010Prop33
280
     0
102
RTVSPost2010PropOp33
 70
     1
102
RTVSPost2010Prop34
280
     0
102
RTVSPost2010PropOp34
 70
     1
102
RTVSPost2010Prop35
280
     0
102
RTVSPost2010PropOp35
 70
     1
102
RTVSPost2010Prop36
280
     0
102
RTVSPost2010PropOp36
 70
     1
102
RTVSPost2010Prop37
 90
       50
102
RTVSPost2010PropOp37
 70
     1
102
RTVSPost2010Prop38
140
0.0
102
RTVSPost2010PropOp38
 70
     1
102
RTVSPost2010Prop39
140
1.0
102
RTVSPost2010PropOp39
 70
     1
102
RTVSPost2010Prop40
 90
        0
102
RTVSPost2010PropOp40
 70
     1
102
RTVSPost2010Prop41ColorIndex
 90
       18
102
RTVSPost2010Prop41ColorRGB
 90
        0
102
RTVSPost2010PropOp41
 70
     1
102
RTVSPost2010Prop42
 90
       50
102
RTVSPost2010PropOp42
 70
     1
102
RTVSPost2010Prop43
 90
        3
102
RTVSPost2010PropOp43
 70
     1
102
RTVSPost2010Prop44ColorIndex
 90
        5
102
RTVSPost2010Prop44ColorRGB
 90
      255
102
RTVSPost2010PropOp44
 70
     1
102
RTVSPost2010Prop45
280
     0
102
RTVSPost2010PropOp45
 70
     1
102
RTVSPost2010Prop46
 90
       50
102
RTVSPost2010PropOp46
 70
     1
102
RTVSPost2010Prop47
 90
       50
102
RTVSPost2010PropOp47
 70
     1
102
RTVSPost2010Prop48
 90
       50
102
RTVSPost2010PropOp48
 70
     1
102
RTVSPost2010Prop49
280
     0
102
RTVSPost2010PropOp49
 70
     1
102
RTVSPost2010Prop50
 90
       50
102
RTVSPost2010PropOp50
 70
     1
102
RTVSPost2010Prop51ColorIndex
 90
      256
102
RTVSPost2010Prop51ColorRGB
 90
-16777216
102
RTVSPost2010PropOp51
 70
     0
102
RTVSPost2010Prop52
140
1.0
102
RTVSPost2010PropOp52
 70
     0
102
RTVSPost2010Prop53
 90
        2
102
RTVSPost2010PropOp53
 70
     1
102
RTVSPost2010Prop54
  1
strokes_ogs.tif
102
RTVSPost2010PropOp54
 70
     1
102
RTVSPost2010Prop55
280
     0
102
RTVSPost2010PropOp55
 70
     1
102
RTVSPost2010Prop56
140
1.0
102
RTVSPost2010PropOp56
 70
     1
102
RTVSPost2010Prop57
140
1.0
102
RTVSPost2010PropOp57
 70
     1
102
RTVSPropertyOp0
 70
     1
102
RTVSPropertyOp1
 70
     1
102
RTVSPropertyOp2
 70
     1
102
RTVSPropertyOp3
 70
     1
102
RTVSPropertyOp4
 70
     1
102
RTVSPropertyOp5
 70
     1
102
RTVSPropertyOp6
 70
     1
102
RTVSPropertyOp7
 70
     1
102
RTVSPropertyOp8
 70
     1
102
RTVSPropertyOp9
 70
     1
102
RTVSPropertyOp10
 70
     1
102
RTVSPropertyOp11
 70
     1
102
RTVSPropertyOp12
 70
     1
102
RTVSPropertyOp13
 70
     1
102
RTVSPropertyOp14
 70
     1
102
RTVSPropertyOp15
 70
     1
102
RTVSPropertyOp16
 70
     1
102
RTVSPropertyOp17
 70
     1
102
RTVSPropertyOp18
 70
     1
102
RTVSPropertyOp19
 70
     1
102
RTVSPropertyOp20
 70
     1
102
RTVSPropertyOp21
 70
     1
102
RTVSPropertyOp22
 70
     1
102
RTVSPropertyOp23
 70
     1
102
RTVSPropertyOp24
 70
     1
102
RTVSPropertyOp25
 70
     1
102
RTVSPropertyOp26
 70
     1
102
RTVSPropertyOp27
 70
     1
102
RTVSPropertyOp28
 70
     1
102
RTVSPropertyOp29
 70
     1
102
RTVSPropertyOp30
 70
     1
102
RTVSPropertyOp31
 70
     1
102
RTVSPropertyOp32
 70
     1
102
RTVSPropertyOp33
 70
     1
102
RTVSPropertyOp34
 70
     1
102
RTVSPropertyOp35
 70
     1
102
RTVSPropertyOp36
 70
     1
102
RTVSPropertyOp37
 70
     1
102
RTVSPropertyOp38
 70
     1
102
RTVSPropertyOp39
 70
     1
102
RTVSPropertyOp40
 70
     1
102
RTVSPropertyOp41
 70
     1
102
RTVSPropertyOp42
 70
     1
102
RTVSPropertyOp43
 70
     1
102
RTVSPropertyOp44
 70
     1
102
RTVSPropertyOp45
 70
     1
102
RTVSPropertyOp46
 70
     1
102
RTVSPropertyOp47
 70
     1
102
RTVSPropertyOp48
 70
     1
102
RTVSPropertyOp49
 70
     1
102
RTVSPropertyOp50
 70
     1
102
RTVSPropertyOp51
 70
     0
102
RTVSPropertyOp52
 70
     0
102
RTVSPropertyOp53
 70
     1
102
RTVSPropertyOp54
 70
     1
102
RTVSPropertyOp55
 70
     1
102
RTVSPropertyOp56
 70
     1
102
RTVSPropertyOp57
 70
     1
102
RTVSPropertyOp58
 70
     1
102
RTVSPropertyOp59
 70
     1
102
RTVSPropertyOp60
 70
     1
102
RTVSPropertyOp61
 70
     1
102
RTVSPropertyOp62
 70
     1
  0
XRECORD
  5
3E0
102
{ACAD_REACTORS
330
3DF
102
}
330
3DF
100
AcDbXrecord
280
     1
102
RTVSPost2010Prop28
280
     0
102
RTVSPost2010PropOp28
 70
     1
102
RTVSPost2010Prop29
280
     1
102
RTVSPost2010PropOp29
 70
     1
102
RTVSPost2010Prop30
280
     1
102
RTVSPost2010PropOp30
 70
     1
102
RTVSPost2010Prop31
280
     0
102
RTVSPost2010PropOp31
 70
     1
102
RTVSPost2010Prop32
280
     0
102
RTVSPost2010PropOp32
 70
     1
102
RTVSPost2010Prop33
280
     0
102
RTVSPost2010PropOp33
 70
     1
102
RTVSPost2010Prop34
280
     0
102
RTVSPost2010PropOp34
 70
     1
102
RTVSPost2010Prop35
280
     0
102
RTVSPost2010PropOp35
 70
     1
102
RTVSPost2010Prop36
280
     0
102
RTVSPost2010PropOp36
 70
     1
102
RTVSPost2010Prop37
 90
       50
102
RTVSPost2010PropOp37
 70
     1
102
RTVSPost2010Prop38
140
0.0
102
RTVSPost2010PropOp38
 70
     1
102
RTVSPost2010Prop39
140
1.0
102
RTVSPost2010PropOp39
 70
     1
102
RTVSPost2010Prop40
 90
        0
102
RTVSPost2010PropOp40
 70
     1
102
RTVSPost2010Prop41ColorIndex
 90
       18
102
RTVSPost2010Prop41ColorRGB
 90
        0
102
RTVSPost2010PropOp41
 70
     1
102
RTVSPost2010Prop42
 90
       50
102
RTVSPost2010PropOp42
 70
     1
102
RTVSPost2010Prop43
 90
        3
102
RTVSPost2010PropOp43
 70
     1
102
RTVSPost2010Prop44ColorIndex
 90
        5
102
RTVSPost2010Prop44ColorRGB
 90
      255
102
RTVSPost2010PropOp44
 70
     1
102
RTVSPost2010Prop45
280
     0
102
RTVSPost2010PropOp45
 70
     1
102
RTVSPost2010Prop46
 90
       50
102
RTVSPost2010PropOp46
 70
     1
102
RTVSPost2010Prop47
 90
       50
102
RTVSPost2010PropOp47
 70
     1
102
RTVSPost2010Prop48
 90
       50
102
RTVSPost2010PropOp48
 70
     1
102
RTVSPost2010Prop49
280
     0
102
RTVSPost2010PropOp49
 70
     1
102
RTVSPost2010Prop50
 90
       50
102
RTVSPost2010PropOp50
 70
     1
102
RTVSPost2010Prop51ColorIndex
 90
      256
102
RTVSPost2010Prop51ColorRGB
 90
-16777216
102
RTVSPost2010PropOp51
 70
     0
102
RTVSPost2010Prop52
140
1.0
102
RTVSPost2010PropOp52
 70
     0
102
RTVSPost2010Prop53
 90
        2
102
RTVSPost2010PropOp53
 70
     1
102
RTVSPost2010Prop54
  1
strokes_ogs.tif
102
RTVSPost2010PropOp54
 70
     1
102
RTVSPost2010Prop55
280
     0
102
RTVSPost2010PropOp55
 70
     1
102
RTVSPost2010Prop56
140
1.0
102
RTVSPost2010PropOp56
 70
     1
102
RTVSPost2010Prop57
140
1.0
102
RTVSPost2010PropOp57
 70
     1
102
RTVSPropertyOp0
 70
     1
102
RTVSPropertyOp1
 70
     1
102
RTVSPropertyOp2
 70
     1
102
RTVSPropertyOp3
 70
     1
102
RTVSPropertyOp4
 70
     1
102
RTVSPropertyOp5
 70
     1
102
RTVSPropertyOp6
 70
     1
102
RTVSPropertyOp7
 70
     1
102
RTVSPropertyOp8
 70
     1
102
RTVSPropertyOp9
 70
     1
102
RTVSPropertyOp10
 70
     1
102
RTVSPropertyOp11
 70
     1
102
RTVSPropertyOp12
 70
     1
102
RTVSPropertyOp13
 70
     1
102
RTVSPropertyOp14
 70
     1
102
RTVSPropertyOp15
 70
     1
102
RTVSPropertyOp16
 70
     1
102
RTVSPropertyOp17
 70
     1
102
RTVSPropertyOp18
 70
     1
102
RTVSPropertyOp19
 70
     1
102
RTVSPropertyOp20
 70
     1
102
RTVSPropertyOp21
 70
     1
102
RTVSPropertyOp22
 70
     1
102
RTVSPropertyOp23
 70
     1
102
RTVSPropertyOp24
 70
     1
102
RTVSPropertyOp25
 70
     1
102
RTVSPropertyOp26
 70
     1
102
RTVSPropertyOp27
 70
     1
102
RTVSPropertyOp28
 70
     1
102
RTVSPropertyOp29
 70
     1
102
RTVSPropertyOp30
 70
     1
102
RTVSPropertyOp31
 70
     1
102
RTVSPropertyOp32
 70
     1
102
RTVSPropertyOp33
 70
     1
102
RTVSPropertyOp34
 70
     1
102
RTVSPropertyOp35
 70
     1
102
RTVSPropertyOp36
 70
     1
102
RTVSPropertyOp37
 70
     1
102
RTVSPropertyOp38
 70
     1
102
RTVSPropertyOp39
 70
     1
102
RTVSPropertyOp40
 70
     1
102
RTVSPropertyOp41
 70
     1
102
RTVSPropertyOp42
 70
     1
102
RTVSPropertyOp43
 70
     1
102
RTVSPropertyOp44
 70
     1
102
RTVSPropertyOp45
 70
     1
102
RTVSPropertyOp46
 70
     1
102
RTVSPropertyOp47
 70
     1
102
RTVSPropertyOp48
 70
     1
102
RTVSPropertyOp49
 70
     1
102
RTVSPropertyOp50
 70
     1
102
RTVSPropertyOp51
 70
     0
102
RTVSPropertyOp52
 70
     0
102
RTVSPropertyOp53
 70
     1
102
RTVSPropertyOp54
 70
     1
102
RTVSPropertyOp55
 70
     1
102
RTVSPropertyOp56
 70
     1
102
RTVSPropertyOp57
 70
     1
102
RTVSPropertyOp58
 70
     1
102
RTVSPropertyOp59
 70
     1
102
RTVSPropertyOp60
 70
     1
102
RTVSPropertyOp61
 70
     1
102
RTVSPropertyOp62
 70
     1
  0
XRECORD
  5
3DA
102
{ACAD_REACTORS
330
3D9
102
}
330
3D9
100
AcDbXrecord
280
     1
102
RTVSPost2010Prop28
280
     0
102
RTVSPost2010PropOp28
 70
     1
102
RTVSPost2010Prop29
280
     1
102
RTVSPost2010PropOp29
 70
     1
102
RTVSPost2010Prop30
280
     1
102
RTVSPost2010PropOp30
 70
     1
102
RTVSPost2010Prop31
280
     0
102
RTVSPost2010PropOp31
 70
     1
102
RTVSPost2010Prop32
280
     0
102
RTVSPost2010PropOp32
 70
     1
102
RTVSPost2010Prop33
280
     0
102
RTVSPost2010PropOp33
 70
     1
102
RTVSPost2010Prop34
280
     0
102
RTVSPost2010PropOp34
 70
     1
102
RTVSPost2010Prop35
280
     0
102
RTVSPost2010PropOp35
 70
     1
102
RTVSPost2010Prop36
280
     0
102
RTVSPost2010PropOp36
 70
     1
102
RTVSPost2010Prop37
 90
       50
102
RTVSPost2010PropOp37
 70
     1
102
RTVSPost2010Prop38
140
0.0
102
RTVSPost2010PropOp38
 70
     1
102
RTVSPost2010Prop39
140
1.0
102
RTVSPost2010PropOp39
 70
     1
102
RTVSPost2010Prop40
 90
        0
102
RTVSPost2010PropOp40
 70
     1
102
RTVSPost2010Prop41ColorIndex
 90
       18
102
RTVSPost2010Prop41ColorRGB
 90
        0
102
RTVSPost2010PropOp41
 70
     1
102
RTVSPost2010Prop42
 90
       50
102
RTVSPost2010PropOp42
 70
     1
102
RTVSPost2010Prop43
 90
        3
102
RTVSPost2010PropOp43
 70
     1
102
RTVSPost2010Prop44ColorIndex
 90
        5
102
RTVSPost2010Prop44ColorRGB
 90
      255
102
RTVSPost2010PropOp44
 70
     1
102
RTVSPost2010Prop45
280
     0
102
RTVSPost2010PropOp45
 70
     1
102
RTVSPost2010Prop46
 90
       50
102
RTVSPost2010PropOp46
 70
     1
102
RTVSPost2010Prop47
 90
       50
102
RTVSPost2010PropOp47
 70
     1
102
RTVSPost2010Prop48
 90
       50
102
RTVSPost2010PropOp48
 70
     1
102
RTVSPost2010Prop49
280
     0
102
RTVSPost2010PropOp49
 70
     1
102
RTVSPost2010Prop50
 90
       50
102
RTVSPost2010PropOp50
 70
     1
102
RTVSPost2010Prop51ColorIndex
 90
      256
102
RTVSPost2010Prop51ColorRGB
 90
-16777216
102
RTVSPost2010PropOp51
 70
     0
102
RTVSPost2010Prop52
140
1.0
102
RTVSPost2010PropOp52
 70
     0
102
RTVSPost2010Prop53
 90
        2
102
RTVSPost2010PropOp53
 70
     1
102
RTVSPost2010Prop54
  1
strokes_ogs.tif
102
RTVSPost2010PropOp54
 70
     1
102
RTVSPost2010Prop55
280
     0
102
RTVSPost2010PropOp55
 70
     1
102
RTVSPost2010Prop56
140
1.0
102
RTVSPost2010PropOp56
 70
     1
102
RTVSPost2010Prop57
140
1.0
102
RTVSPost2010PropOp57
 70
     1
102
RTVSPropertyOp0
 70
     1
102
RTVSPropertyOp1
 70
     1
102
RTVSPropertyOp2
 70
     1
102
RTVSPropertyOp3
 70
     1
102
RTVSPropertyOp4
 70
     1
102
RTVSPropertyOp5
 70
     1
102
RTVSPropertyOp6
 70
     1
102
RTVSPropertyOp7
 70
     1
102
RTVSPropertyOp8
 70
     1
102
RTVSPropertyOp9
 70
     1
102
RTVSPropertyOp10
 70
     1
102
RTVSPropertyOp11
 70
     1
102
RTVSPropertyOp12
 70
     1
102
RTVSPropertyOp13
 70
     1
102
RTVSPropertyOp14
 70
     1
102
RTVSPropertyOp15
 70
     1
102
RTVSPropertyOp16
 70
     1
102
RTVSPropertyOp17
 70
     1
102
RTVSPropertyOp18
 70
     1
102
RTVSPropertyOp19
 70
     1
102
RTVSPropertyOp20
 70
     1
102
RTVSPropertyOp21
 70
     1
102
RTVSPropertyOp22
 70
     1
102
RTVSPropertyOp23
 70
     1
102
RTVSPropertyOp24
 70
     1
102
RTVSPropertyOp25
 70
     1
102
RTVSPropertyOp26
 70
     1
102
RTVSPropertyOp27
 70
     1
102
RTVSPropertyOp28
 70
     1
102
RTVSPropertyOp29
 70
     1
102
RTVSPropertyOp30
 70
     1
102
RTVSPropertyOp31
 70
     1
102
RTVSPropertyOp32
 70
     1
102
RTVSPropertyOp33
 70
     1
102
RTVSPropertyOp34
 70
     1
102
RTVSPropertyOp35
 70
     1
102
RTVSPropertyOp36
 70
     1
102
RTVSPropertyOp37
 70
     1
102
RTVSPropertyOp38
 70
     1
102
RTVSPropertyOp39
 70
     1
102
RTVSPropertyOp40
 70
     1
102
RTVSPropertyOp41
 70
     1
102
RTVSPropertyOp42
 70
     1
102
RTVSPropertyOp43
 70
     1
102
RTVSPropertyOp44
 70
     1
102
RTVSPropertyOp45
 70
     1
102
RTVSPropertyOp46
 70
     1
102
RTVSPropertyOp47
 70
     1
102
RTVSPropertyOp48
 70
     1
102
RTVSPropertyOp49
 70
     1
102
RTVSPropertyOp50
 70
     1
102
RTVSPropertyOp51
 70
     0
102
RTVSPropertyOp52
 70
     0
102
RTVSPropertyOp53
 70
     1
102
RTVSPropertyOp54
 70
     1
102
RTVSPropertyOp55
 70
     1
102
RTVSPropertyOp56
 70
     1
102
RTVSPropertyOp57
 70
     1
102
RTVSPropertyOp58
 70
     1
102
RTVSPropertyOp59
 70
     1
102
RTVSPropertyOp60
 70
     1
102
RTVSPropertyOp61
 70
     1
102
RTVSPropertyOp62
 70
     1
  0
XRECORD
  5
3DC
102
{ACAD_REACTORS
330
3DB
102
}
330
3DB
100
AcDbXrecord
280
     1
102
RTVSPost2010Prop28
280
     0
102
RTVSPost2010PropOp28
 70
     1
102
RTVSPost2010Prop29
280
     1
102
RTVSPost2010PropOp29
 70
     1
102
RTVSPost2010Prop30
280
     1
102
RTVSPost2010PropOp30
 70
     1
102
RTVSPost2010Prop31
280
     0
102
RTVSPost2010PropOp31
 70
     1
102
RTVSPost2010Prop32
280
     0
102
RTVSPost2010PropOp32
 70
     1
102
RTVSPost2010Prop33
280
     0
102
RTVSPost2010PropOp33
 70
     1
102
RTVSPost2010Prop34
280
     0
102
RTVSPost2010PropOp34
 70
     1
102
RTVSPost2010Prop35
280
     0
102
RTVSPost2010PropOp35
 70
     1
102
RTVSPost2010Prop36
280
     0
102
RTVSPost2010PropOp36
 70
     1
102
RTVSPost2010Prop37
 90
       50
102
RTVSPost2010PropOp37
 70
     1
102
RTVSPost2010Prop38
140
0.0
102
RTVSPost2010PropOp38
 70
     1
102
RTVSPost2010Prop39
140
1.0
102
RTVSPost2010PropOp39
 70
     1
102
RTVSPost2010Prop40
 90
        0
102
RTVSPost2010PropOp40
 70
     1
102
RTVSPost2010Prop41ColorIndex
 90
       18
102
RTVSPost2010Prop41ColorRGB
 90
        0
102
RTVSPost2010PropOp41
 70
     1
102
RTVSPost2010Prop42
 90
       50
102
RTVSPost2010PropOp42
 70
     1
102
RTVSPost2010Prop43
 90
        3
102
RTVSPost2010PropOp43
 70
     1
102
RTVSPost2010Prop44ColorIndex
 90
        5
102
RTVSPost2010Prop44ColorRGB
 90
      255
102
RTVSPost2010PropOp44
 70
     1
102
RTVSPost2010Prop45
280
     0
102
RTVSPost2010PropOp45
 70
     1
102
RTVSPost2010Prop46
 90
       50
102
RTVSPost2010PropOp46
 70
     1
102
RTVSPost2010Prop47
 90
       50
102
RTVSPost2010PropOp47
 70
     1
102
RTVSPost2010Prop48
 90
       50
102
RTVSPost2010PropOp48
 70
     1
102
RTVSPost2010Prop49
280
     0
102
RTVSPost2010PropOp49
 70
     1
102
RTVSPost2010Prop50
 90
       50
102
RTVSPost2010PropOp50
 70
     1
102
RTVSPost2010Prop51ColorIndex
 90
      256
102
RTVSPost2010Prop51ColorRGB
 90
-16777216
102
RTVSPost2010PropOp51
 70
     0
102
RTVSPost2010Prop52
140
1.0
102
RTVSPost2010PropOp52
 70
     0
102
RTVSPost2010Prop53
 90
        2
102
RTVSPost2010PropOp53
 70
     1
102
RTVSPost2010Prop54
  1
strokes_ogs.tif
102
RTVSPost2010PropOp54
 70
     1
102
RTVSPost2010Prop55
280
     0
102
RTVSPost2010PropOp55
 70
     1
102
RTVSPost2010Prop56
140
1.0
102
RTVSPost2010PropOp56
 70
     1
102
RTVSPost2010Prop57
140
1.0
102
RTVSPost2010PropOp57
 70
     1
102
RTVSPropertyOp0
 70
     1
102
RTVSPropertyOp1
 70
     1
102
RTVSPropertyOp2
 70
     1
102
RTVSPropertyOp3
 70
     1
102
RTVSPropertyOp4
 70
     1
102
RTVSPropertyOp5
 70
     1
102
RTVSPropertyOp6
 70
     1
102
RTVSPropertyOp7
 70
     1
102
RTVSPropertyOp8
 70
     1
102
RTVSPropertyOp9
 70
     1
102
RTVSPropertyOp10
 70
     1
102
RTVSPropertyOp11
 70
     1
102
RTVSPropertyOp12
 70
     1
102
RTVSPropertyOp13
 70
     1
102
RTVSPropertyOp14
 70
     1
102
RTVSPropertyOp15
 70
     1
102
RTVSPropertyOp16
 70
     1
102
RTVSPropertyOp17
 70
     1
102
RTVSPropertyOp18
 70
     1
102
RTVSPropertyOp19
 70
     1
102
RTVSPropertyOp20
 70
     1
102
RTVSPropertyOp21
 70
     1
102
RTVSPropertyOp22
 70
     1
102
RTVSPropertyOp23
 70
     1
102
RTVSPropertyOp24
 70
     1
102
RTVSPropertyOp25
 70
     1
102
RTVSPropertyOp26
 70
     1
102
RTVSPropertyOp27
 70
     1
102
RTVSPropertyOp28
 70
     1
102
RTVSPropertyOp29
 70
     1
102
RTVSPropertyOp30
 70
     1
102
RTVSPropertyOp31
 70
     1
102
RTVSPropertyOp32
 70
     1
102
RTVSPropertyOp33
 70
     1
102
RTVSPropertyOp34
 70
     1
102
RTVSPropertyOp35
 70
     1
102
RTVSPropertyOp36
 70
     1
102
RTVSPropertyOp37
 70
     1
102
RTVSPropertyOp38
 70
     1
102
RTVSPropertyOp39
 70
     1
102
RTVSPropertyOp40
 70
     1
102
RTVSPropertyOp41
 70
     1
102
RTVSPropertyOp42
 70
     1
102
RTVSPropertyOp43
 70
     1
102
RTVSPropertyOp44
 70
     1
102
RTVSPropertyOp45
 70
     1
102
RTVSPropertyOp46
 70
     1
102
RTVSPropertyOp47
 70
     1
102
RTVSPropertyOp48
 70
     1
102
RTVSPropertyOp49
 70
     1
102
RTVSPropertyOp50
 70
     1
102
RTVSPropertyOp51
 70
     0
102
RTVSPropertyOp52
 70
     0
102
RTVSPropertyOp53
 70
     1
102
RTVSPropertyOp54
 70
     1
102
RTVSPropertyOp55
 70
     1
102
RTVSPropertyOp56
 70
     1
102
RTVSPropertyOp57
 70
     1
102
RTVSPropertyOp58
 70
     1
102
RTVSPropertyOp59
 70
     1
102
RTVSPropertyOp60
 70
     1
102
RTVSPropertyOp61
 70
     1
102
RTVSPropertyOp62
 70
     1
  0
XRECORD
  5
3CC
102
{ACAD_REACTORS
330
3CB
102
}
330
3CB
100
AcDbXrecord
280
     1
102
RTVSPost2010Prop28
280
     0
102
RTVSPost2010PropOp28
 70
     1
102
RTVSPost2010Prop29
280
     1
102
RTVSPost2010PropOp29
 70
     1
102
RTVSPost2010Prop30
280
     1
102
RTVSPost2010PropOp30
 70
     1
102
RTVSPost2010Prop31
280
     0
102
RTVSPost2010PropOp31
 70
     1
102
RTVSPost2010Prop32
280
     0
102
RTVSPost2010PropOp32
 70
     1
102
RTVSPost2010Prop33
280
     0
102
RTVSPost2010PropOp33
 70
     1
102
RTVSPost2010Prop34
280
     0
102
RTVSPost2010PropOp34
 70
     1
102
RTVSPost2010Prop35
280
     0
102
RTVSPost2010PropOp35
 70
     1
102
RTVSPost2010Prop36
280
     0
102
RTVSPost2010PropOp36
 70
     1
102
RTVSPost2010Prop37
 90
       50
102
RTVSPost2010PropOp37
 70
     1
102
RTVSPost2010Prop38
140
0.0
102
RTVSPost2010PropOp38
 70
     1
102
RTVSPost2010Prop39
140
1.0
102
RTVSPost2010PropOp39
 70
     1
102
RTVSPost2010Prop40
 90
        0
102
RTVSPost2010PropOp40
 70
     1
102
RTVSPost2010Prop41ColorIndex
 90
       18
102
RTVSPost2010Prop41ColorRGB
 90
        0
102
RTVSPost2010PropOp41
 70
     1
102
RTVSPost2010Prop42
 90
       50
102
RTVSPost2010PropOp42
 70
     1
102
RTVSPost2010Prop43
 90
        3
102
RTVSPost2010PropOp43
 70
     1
102
RTVSPost2010Prop44ColorIndex
 90
        5
102
RTVSPost2010Prop44ColorRGB
 90
      255
102
RTVSPost2010PropOp44
 70
     1
102
RTVSPost2010Prop45
280
     0
102
RTVSPost2010PropOp45
 70
     1
102
RTVSPost2010Prop46
 90
       50
102
RTVSPost2010PropOp46
 70
     1
102
RTVSPost2010Prop47
 90
       50
102
RTVSPost2010PropOp47
 70
     1
102
RTVSPost2010Prop48
 90
       50
102
RTVSPost2010PropOp48
 70
     1
102
RTVSPost2010Prop49
280
     0
102
RTVSPost2010PropOp49
 70
     1
102
RTVSPost2010Prop50
 90
       50
102
RTVSPost2010PropOp50
 70
     1
102
RTVSPost2010Prop51ColorIndex
 90
      256
102
RTVSPost2010Prop51ColorRGB
 90
-16777216
102
RTVSPost2010PropOp51
 70
     0
102
RTVSPost2010Prop52
140
1.0
102
RTVSPost2010PropOp52
 70
     0
102
RTVSPost2010Prop53
 90
        2
102
RTVSPost2010PropOp53
 70
     1
102
RTVSPost2010Prop54
  1
strokes_ogs.tif
102
RTVSPost2010PropOp54
 70
     1
102
RTVSPost2010Prop55
280
     0
102
RTVSPost2010PropOp55
 70
     1
102
RTVSPost2010Prop56
140
1.0
102
RTVSPost2010PropOp56
 70
     1
102
RTVSPost2010Prop57
140
1.0
102
RTVSPost2010PropOp57
 70
     1
102
RTVSPropertyOp0
 70
     1
102
RTVSPropertyOp1
 70
     1
102
RTVSPropertyOp2
 70
     1
102
RTVSPropertyOp3
 70
     1
102
RTVSPropertyOp4
 70
     1
102
RTVSPropertyOp5
 70
     1
102
RTVSPropertyOp6
 70
     1
102
RTVSPropertyOp7
 70
     1
102
RTVSPropertyOp8
 70
     1
102
RTVSPropertyOp9
 70
     1
102
RTVSPropertyOp10
 70
     1
102
RTVSPropertyOp11
 70
     1
102
RTVSPropertyOp12
 70
     1
102
RTVSPropertyOp13
 70
     1
102
RTVSPropertyOp14
 70
     1
102
RTVSPropertyOp15
 70
     1
102
RTVSPropertyOp16
 70
     1
102
RTVSPropertyOp17
 70
     1
102
RTVSPropertyOp18
 70
     1
102
RTVSPropertyOp19
 70
     1
102
RTVSPropertyOp20
 70
     1
102
RTVSPropertyOp21
 70
     1
102
RTVSPropertyOp22
 70
     1
102
RTVSPropertyOp23
 70
     1
102
RTVSPropertyOp24
 70
     1
102
RTVSPropertyOp25
 70
     1
102
RTVSPropertyOp26
 70
     1
102
RTVSPropertyOp27
 70
     1
102
RTVSPropertyOp28
 70
     1
102
RTVSPropertyOp29
 70
     1
102
RTVSPropertyOp30
 70
     1
102
RTVSPropertyOp31
 70
     1
102
RTVSPropertyOp32
 70
     1
102
RTVSPropertyOp33
 70
     1
102
RTVSPropertyOp34
 70
     1
102
RTVSPropertyOp35
 70
     1
102
RTVSPropertyOp36
 70
     1
102
RTVSPropertyOp37
 70
     1
102
RTVSPropertyOp38
 70
     1
102
RTVSPropertyOp39
 70
     1
102
RTVSPropertyOp40
 70
     1
102
RTVSPropertyOp41
 70
     1
102
RTVSPropertyOp42
 70
     1
102
RTVSPropertyOp43
 70
     1
102
RTVSPropertyOp44
 70
     1
102
RTVSPropertyOp45
 70
     1
102
RTVSPropertyOp46
 70
     1
102
RTVSPropertyOp47
 70
     1
102
RTVSPropertyOp48
 70
     1
102
RTVSPropertyOp49
 70
     1
102
RTVSPropertyOp50
 70
     1
102
RTVSPropertyOp51
 70
     0
102
RTVSPropertyOp52
 70
     0
102
RTVSPropertyOp53
 70
     1
102
RTVSPropertyOp54
 70
     1
102
RTVSPropertyOp55
 70
     1
102
RTVSPropertyOp56
 70
     1
102
RTVSPropertyOp57
 70
     1
102
RTVSPropertyOp58
 70
     1
102
RTVSPropertyOp59
 70
     1
102
RTVSPropertyOp60
 70
     1
102
RTVSPropertyOp61
 70
     1
102
RTVSPropertyOp62
 70
     1
  0
XRECORD
  5
3BE
102
{ACAD_REACTORS
330
3BD
102
}
330
3BD
100
AcDbXrecord
280
     1
102
RTVSPost2010Prop28
280
     0
102
RTVSPost2010PropOp28
 70
     1
102
RTVSPost2010Prop29
280
     1
102
RTVSPost2010PropOp29
 70
     1
102
RTVSPost2010Prop30
280
     1
102
RTVSPost2010PropOp30
 70
     1
102
RTVSPost2010Prop31
280
     0
102
RTVSPost2010PropOp31
 70
     1
102
RTVSPost2010Prop32
280
     0
102
RTVSPost2010PropOp32
 70
     1
102
RTVSPost2010Prop33
280
     0
102
RTVSPost2010PropOp33
 70
     1
102
RTVSPost2010Prop34
280
     0
102
RTVSPost2010PropOp34
 70
     1
102
RTVSPost2010Prop35
280
     0
102
RTVSPost2010PropOp35
 70
     1
102
RTVSPost2010Prop36
280
     0
102
RTVSPost2010PropOp36
 70
     1
102
RTVSPost2010Prop37
 90
       50
102
RTVSPost2010PropOp37
 70
     1
102
RTVSPost2010Prop38
140
0.0
102
RTVSPost2010PropOp38
 70
     1
102
RTVSPost2010Prop39
140
1.0
102
RTVSPost2010PropOp39
 70
     1
102
RTVSPost2010Prop40
 90
        0
102
RTVSPost2010PropOp40
 70
     1
102
RTVSPost2010Prop41ColorIndex
 90
       18
102
RTVSPost2010Prop41ColorRGB
 90
        0
102
RTVSPost2010PropOp41
 70
     1
102
RTVSPost2010Prop42
 90
       50
102
RTVSPost2010PropOp42
 70
     1
102
RTVSPost2010Prop43
 90
        3
102
RTVSPost2010PropOp43
 70
     1
102
RTVSPost2010Prop44ColorIndex
 90
        5
102
RTVSPost2010Prop44ColorRGB
 90
      255
102
RTVSPost2010PropOp44
 70
     1
102
RTVSPost2010Prop45
280
     0
102
RTVSPost2010PropOp45
 70
     1
102
RTVSPost2010Prop46
 90
       50
102
RTVSPost2010PropOp46
 70
     1
102
RTVSPost2010Prop47
 90
       50
102
RTVSPost2010PropOp47
 70
     1
102
RTVSPost2010Prop48
 90
       50
102
RTVSPost2010PropOp48
 70
     1
102
RTVSPost2010Prop49
280
     0
102
RTVSPost2010PropOp49
 70
     1
102
RTVSPost2010Prop50
 90
       50
102
RTVSPost2010PropOp50
 70
     1
102
RTVSPost2010Prop51ColorIndex
 90
      256
102
RTVSPost2010Prop51ColorRGB
 90
-16777216
102
RTVSPost2010PropOp51
 70
     0
102
RTVSPost2010Prop52
140
1.0
102
RTVSPost2010PropOp52
 70
     0
102
RTVSPost2010Prop53
 90
        2
102
RTVSPost2010PropOp53
 70
     1
102
RTVSPost2010Prop54
  1
strokes_ogs.tif
102
RTVSPost2010PropOp54
 70
     1
102
RTVSPost2010Prop55
280
     0
102
RTVSPost2010PropOp55
 70
     1
102
RTVSPost2010Prop56
140
1.0
102
RTVSPost2010PropOp56
 70
     1
102
RTVSPost2010Prop57
140
1.0
102
RTVSPost2010PropOp57
 70
     1
102
RTVSPropertyOp0
 70
     1
102
RTVSPropertyOp1
 70
     1
102
RTVSPropertyOp2
 70
     1
102
RTVSPropertyOp3
 70
     1
102
RTVSPropertyOp4
 70
     1
102
RTVSPropertyOp5
 70
     1
102
RTVSPropertyOp6
 70
     1
102
RTVSPropertyOp7
 70
     1
102
RTVSPropertyOp8
 70
     1
102
RTVSPropertyOp9
 70
     1
102
RTVSPropertyOp10
 70
     1
102
RTVSPropertyOp11
 70
     1
102
RTVSPropertyOp12
 70
     1
102
RTVSPropertyOp13
 70
     1
102
RTVSPropertyOp14
 70
     1
102
RTVSPropertyOp15
 70
     1
102
RTVSPropertyOp16
 70
     1
102
RTVSPropertyOp17
 70
     1
102
RTVSPropertyOp18
 70
     1
102
RTVSPropertyOp19
 70
     1
102
RTVSPropertyOp20
 70
     1
102
RTVSPropertyOp21
 70
     1
102
RTVSPropertyOp22
 70
     1
102
RTVSPropertyOp23
 70
     1
102
RTVSPropertyOp24
 70
     1
102
RTVSPropertyOp25
 70
     1
102
RTVSPropertyOp26
 70
     1
102
RTVSPropertyOp27
 70
     1
102
RTVSPropertyOp28
 70
     1
102
RTVSPropertyOp29
 70
     1
102
RTVSPropertyOp30
 70
     1
102
RTVSPropertyOp31
 70
     1
102
RTVSPropertyOp32
 70
     1
102
RTVSPropertyOp33
 70
     1
102
RTVSPropertyOp34
 70
     1
102
RTVSPropertyOp35
 70
     1
102
RTVSPropertyOp36
 70
     1
102
RTVSPropertyOp37
 70
     1
102
RTVSPropertyOp38
 70
     1
102
RTVSPropertyOp39
 70
     1
102
RTVSPropertyOp40
 70
     1
102
RTVSPropertyOp41
 70
     1
102
RTVSPropertyOp42
 70
     1
102
RTVSPropertyOp43
 70
     1
102
RTVSPropertyOp44
 70
     1
102
RTVSPropertyOp45
 70
     1
102
RTVSPropertyOp46
 70
     1
102
RTVSPropertyOp47
 70
     1
102
RTVSPropertyOp48
 70
     1
102
RTVSPropertyOp49
 70
     1
102
RTVSPropertyOp50
 70
     1
102
RTVSPropertyOp51
 70
     0
102
RTVSPropertyOp52
 70
     0
102
RTVSPropertyOp53
 70
     1
102
RTVSPropertyOp54
 70
     1
102
RTVSPropertyOp55
 70
     1
102
RTVSPropertyOp56
 70
     1
102
RTVSPropertyOp57
 70
     1
102
RTVSPropertyOp58
 70
     1
102
RTVSPropertyOp59
 70
     1
102
RTVSPropertyOp60
 70
     1
102
RTVSPropertyOp61
 70
     1
102
RTVSPropertyOp62
 70
     1
  0
XRECORD
  5
3DE
102
{ACAD_REACTORS
330
3DD
102
}
330
3DD
100
AcDbXrecord
280
     1
102
RTVSPost2010Prop28
280
     0
102
RTVSPost2010PropOp28
 70
     1
102
RTVSPost2010Prop29
280
     1
102
RTVSPost2010PropOp29
 70
     1
102
RTVSPost2010Prop30
280
     1
102
RTVSPost2010PropOp30
 70
     1
102
RTVSPost2010Prop31
280
     0
102
RTVSPost2010PropOp31
 70
     1
102
RTVSPost2010Prop32
280
     0
102
RTVSPost2010PropOp32
 70
     1
102
RTVSPost2010Prop33
280
     0
102
RTVSPost2010PropOp33
 70
     1
102
RTVSPost2010Prop34
280
     0
102
RTVSPost2010PropOp34
 70
     1
102
RTVSPost2010Prop35
280
     0
102
RTVSPost2010PropOp35
 70
     1
102
RTVSPost2010Prop36
280
     0
102
RTVSPost2010PropOp36
 70
     1
102
RTVSPost2010Prop37
 90
       50
102
RTVSPost2010PropOp37
 70
     1
102
RTVSPost2010Prop38
140
0.0
102
RTVSPost2010PropOp38
 70
     1
102
RTVSPost2010Prop39
140
1.0
102
RTVSPost2010PropOp39
 70
     1
102
RTVSPost2010Prop40
 90
        0
102
RTVSPost2010PropOp40
 70
     1
102
RTVSPost2010Prop41ColorIndex
 90
       18
102
RTVSPost2010Prop41ColorRGB
 90
        0
102
RTVSPost2010PropOp41
 70
     1
102
RTVSPost2010Prop42
 90
       50
102
RTVSPost2010PropOp42
 70
     1
102
RTVSPost2010Prop43
 90
        3
102
RTVSPost2010PropOp43
 70
     1
102
RTVSPost2010Prop44ColorIndex
 90
        5
102
RTVSPost2010Prop44ColorRGB
 90
      255
102
RTVSPost2010PropOp44
 70
     1
102
RTVSPost2010Prop45
280
     0
102
RTVSPost2010PropOp45
 70
     1
102
RTVSPost2010Prop46
 90
       50
102
RTVSPost2010PropOp46
 70
     1
102
RTVSPost2010Prop47
 90
       50
102
RTVSPost2010PropOp47
 70
     1
102
RTVSPost2010Prop48
 90
       50
102
RTVSPost2010PropOp48
 70
     1
102
RTVSPost2010Prop49
280
     0
102
RTVSPost2010PropOp49
 70
     1
102
RTVSPost2010Prop50
 90
       50
102
RTVSPost2010PropOp50
 70
     1
102
RTVSPost2010Prop51ColorIndex
 90
      256
102
RTVSPost2010Prop51ColorRGB
 90
-16777216
102
RTVSPost2010PropOp51
 70
     0
102
RTVSPost2010Prop52
140
1.0
102
RTVSPost2010PropOp52
 70
     0
102
RTVSPost2010Prop53
 90
        2
102
RTVSPost2010PropOp53
 70
     1
102
RTVSPost2010Prop54
  1
strokes_ogs.tif
102
RTVSPost2010PropOp54
 70
     1
102
RTVSPost2010Prop55
280
     0
102
RTVSPost2010PropOp55
 70
     1
102
RTVSPost2010Prop56
140
1.0
102
RTVSPost2010PropOp56
 70
     1
102
RTVSPost2010Prop57
140
1.0
102
RTVSPost2010PropOp57
 70
     1
102
RTVSPropertyOp0
 70
     1
102
RTVSPropertyOp1
 70
     1
102
RTVSPropertyOp2
 70
     1
102
RTVSPropertyOp3
 70
     1
102
RTVSPropertyOp4
 70
     1
102
RTVSPropertyOp5
 70
     1
102
RTVSPropertyOp6
 70
     1
102
RTVSPropertyOp7
 70
     1
102
RTVSPropertyOp8
 70
     1
102
RTVSPropertyOp9
 70
     1
102
RTVSPropertyOp10
 70
     1
102
RTVSPropertyOp11
 70
     1
102
RTVSPropertyOp12
 70
     1
102
RTVSPropertyOp13
 70
     1
102
RTVSPropertyOp14
 70
     1
102
RTVSPropertyOp15
 70
     1
102
RTVSPropertyOp16
 70
     1
102
RTVSPropertyOp17
 70
     1
102
RTVSPropertyOp18
 70
     1
102
RTVSPropertyOp19
 70
     1
102
RTVSPropertyOp20
 70
     1
102
RTVSPropertyOp21
 70
     1
102
RTVSPropertyOp22
 70
     1
102
RTVSPropertyOp23
 70
     1
102
RTVSPropertyOp24
 70
     1
102
RTVSPropertyOp25
 70
     1
102
RTVSPropertyOp26
 70
     1
102
RTVSPropertyOp27
 70
     1
102
RTVSPropertyOp28
 70
     1
102
RTVSPropertyOp29
 70
     1
102
RTVSPropertyOp30
 70
     1
102
RTVSPropertyOp31
 70
     1
102
RTVSPropertyOp32
 70
     1
102
RTVSPropertyOp33
 70
     1
102
RTVSPropertyOp34
 70
     1
102
RTVSPropertyOp35
 70
     1
102
RTVSPropertyOp36
 70
     1
102
RTVSPropertyOp37
 70
     1
102
RTVSPropertyOp38
 70
     1
102
RTVSPropertyOp39
 70
     1
102
RTVSPropertyOp40
 70
     1
102
RTVSPropertyOp41
 70
     1
102
RTVSPropertyOp42
 70
     1
102
RTVSPropertyOp43
 70
     1
102
RTVSPropertyOp44
 70
     1
102
RTVSPropertyOp45
 70
     1
102
RTVSPropertyOp46
 70
     1
102
RTVSPropertyOp47
 70
     1
102
RTVSPropertyOp48
 70
     1
102
RTVSPropertyOp49
 70
     1
102
RTVSPropertyOp50
 70
     1
102
RTVSPropertyOp51
 70
     0
102
RTVSPropertyOp52
 70
     0
102
RTVSPropertyOp53
 70
     1
102
RTVSPropertyOp54
 70
     1
102
RTVSPropertyOp55
 70
     1
102
RTVSPropertyOp56
 70
     1
102
RTVSPropertyOp57
 70
     1
102
RTVSPropertyOp58
 70
     1
102
RTVSPropertyOp59
 70
     1
102
RTVSPropertyOp60
 70
     1
102
RTVSPropertyOp61
 70
     1
102
RTVSPropertyOp62
 70
     1
  0
ENDSEC
  0
EOF
