  0
SECTION
  2
HEADER
  9
$ACADVER
  1
AC1018
  9
$ACADMAINTVER
 70
   104
  9
$DWGCODEPAGE
  3
ANSI_1250
  9
$LASTSAVEDBY
  1
wq7085
  9
$INSBASE
 10
0.0
 20
0.0
 30
0.0
  9
$EXTMIN
 10
187.2502013333333
 20
118.534924
 30
0.0
  9
$EXTMAX
 10
461.182398
 20
351.9336746666668
 30
0.0
  9
$LIMMIN
 10
-0.5
 20
-0.5
  9
$LIMMAX
 10
5.0
 20
5.0
  9
$ORTHOMODE
 70
     0
  9
$REGENMODE
 70
     1
  9
$FILLMODE
 70
     1
  9
$QTEXTMODE
 70
     0
  9
$MIRRTEXT
 70
     1
  9
$LTSCALE
 40
1.0
  9
$ATTMODE
 70
     1
  9
$TEXTSIZE
 40
0.2
  9
$TRACEWID
 40
0.05
  9
$TEXTSTYLE
  7
Standard
  9
$CLAYER
  8
0
  9
$CELTYPE
  6
ByLayer
  9
$CECOLOR
 62
   256
  9
$CELTSCALE
 40
1.0
  9
$DISPSILH
 70
     0
  9
$DIMSCALE
 40
1.0
  9
$DIMASZ
 40
0.18
  9
$DIMEXO
 40
0.0625
  9
$DIMDLI
 40
0.38
  9
$DIMRND
 40
0.0
  9
$DIMDLE
 40
0.0
  9
$DIMEXE
 40
0.18
  9
$DIMTP
 40
0.0
  9
$DIMTM
 40
0.0
  9
$DIMTXT
 40
0.18
  9
$DIMCEN
 40
0.09
  9
$DIMTSZ
 40
0.0
  9
$DIMTOL
 70
     0
  9
$DIMLIM
 70
     0
  9
$DIMTIH
 70
     1
  9
$DIMTOH
 70
     1
  9
$DIMSE1
 70
     0
  9
$DIMSE2
 70
     0
  9
$DIMTAD
 70
     0
  9
$DIMZIN
 70
     0
  9
$DIMBLK
  1

  9
$DIMASO
 70
     1
  9
$DIMSHO
 70
     1
  9
$DIMPOST
  1

  9
$DIMAPOST
  1

  9
$DIMALT
 70
     0
  9
$DIMALTD
 70
     2
  9
$DIMALTF
 40
25.4
  9
$DIMLFAC
 40
1.0
  9
$DIMTOFL
 70
     0
  9
$DIMTVP
 40
0.0
  9
$DIMTIX
 70
     0
  9
$DIMSOXD
 70
     0
  9
$DIMSAH
 70
     0
  9
$DIMBLK1
  1

  9
$DIMBLK2
  1

  9
$DIMSTYLE
  2
Standard
  9
$DIMCLRD
 70
     0
  9
$DIMCLRE
 70
     0
  9
$DIMCLRT
 70
     0
  9
$DIMTFAC
 40
1.0
  9
$DIMGAP
 40
0.09
  9
$DIMJUST
 70
     0
  9
$DIMSD1
 70
     0
  9
$DIMSD2
 70
     0
  9
$DIMTOLJ
 70
     1
  9
$DIMTZIN
 70
     0
  9
$DIMALTZ
 70
     0
  9
$DIMALTTZ
 70
     0
  9
$DIMUPT
 70
     0
  9
$DIMDEC
 70
     4
  9
$DIMTDEC
 70
     4
  9
$DIMALTU
 70
     2
  9
$DIMALTTD
 70
     2
  9
$DIMTXSTY
  7
Standard
  9
$DIMAUNIT
 70
     0
  9
$DIMADEC
 70
     0
  9
$DIMALTRND
 40
0.0
  9
$DIMAZIN
 70
     0
  9
$DIMDSEP
 70
    46
  9
$DIMATFIT
 70
     3
  9
$DIMFRAC
 70
     0
  9
$DIMLDRBLK
  1

  9
$DIMLUNIT
 70
     2
  9
$DIMLWD
 70
    -2
  9
$DIMLWE
 70
    -2
  9
$DIMTMOVE
 70
     0
  9
$LUNITS
 70
     2
  9
$LUPREC
 70
     4
  9
$SKETCHINC
 40
0.1
  9
$FILLETRAD
 40
0.5
  9
$AUNITS
 70
     0
  9
$AUPREC
 70
     0
  9
$MENU
  1
.
  9
$ELEVATION
 40
0.0
  9
$PELEVATION
 40
0.0
  9
$THICKNESS
 40
0.0
  9
$LIMCHECK
 70
     0
  9
$CHAMFERA
 40
0.0
  9
$CHAMFERB
 40
0.0
  9
$CHAMFERC
 40
0.0
  9
$CHAMFERD
 40
0.0
  9
$SKPOLY
 70
     0
  9
$TDCREATE
 40
2459089.403159723
  9
$TDUCREATE
 40
2459089.319833785
  9
$TDUPDATE
 40
2459089.404247686
  9
$TDUUPDATE
 40
2459089.320914352
  9
$TDINDWG
 40
0.0004166782
  9
$TDUSRTIMER
 40
0.0004166782
  9
$USRTIMER
 70
     1
  9
$ANGBASE
 50
0.0
  9
$ANGDIR
 70
     0
  9
$PDMODE
 70
     0
  9
$PDSIZE
 40
0.0
  9
$PLINEWID
 40
0.0
  9
$SPLFRAME
 70
     0
  9
$SPLINETYPE
 70
     6
  9
$SPLINESEGS
 70
     8
  9
$HANDSEED
  5
3D9
  9
$SURFTAB1
 70
     6
  9
$SURFTAB2
 70
     6
  9
$SURFTYPE
 70
     6
  9
$SURFU
 70
     6
  9
$SURFV
 70
     6
  9
$UCSBASE
  2

  9
$UCSNAME
  2

  9
$UCSORG
 10
274.404842
 20
288.907994
 30
0.0
  9
$UCSXDIR
 10
1.0
 20
0.0
 30
0.0
  9
$UCSYDIR
 10
0.0
 20
1.0
 30
0.0
  9
$UCSORTHOREF
  2

  9
$UCSORTHOVIEW
 70
     0
  9
$UCSORGTOP
 10
0.0
 20
0.0
 30
0.0
  9
$UCSORGBOTTOM
 10
0.0
 20
0.0
 30
0.0
  9
$UCSORGLEFT
 10
0.0
 20
0.0
 30
0.0
  9
$UCSORGRIGHT
 10
0.0
 20
0.0
 30
0.0
  9
$UCSORGFRONT
 10
0.0
 20
0.0
 30
0.0
  9
$UCSORGBACK
 10
0.0
 20
0.0
 30
0.0
  9
$PUCSBASE
  2

  9
$PUCSNAME
  2

  9
$PUCSORG
 10
0.0
 20
0.0
 30
0.0
  9
$PUCSXDIR
 10
1.0
 20
0.0
 30
0.0
  9
$PUCSYDIR
 10
0.0
 20
1.0
 30
0.0
  9
$PUCSORTHOREF
  2

  9
$PUCSORTHOVIEW
 70
     0
  9
$PUCSORGTOP
 10
0.0
 20
0.0
 30
0.0
  9
$PUCSORGBOTTOM
 10
0.0
 20
0.0
 30
0.0
  9
$PUCSORGLEFT
 10
0.0
 20
0.0
 30
0.0
  9
$PUCSORGRIGHT
 10
0.0
 20
0.0
 30
0.0
  9
$PUCSORGFRONT
 10
0.0
 20
0.0
 30
0.0
  9
$PUCSORGBACK
 10
0.0
 20
0.0
 30
0.0
  9
$USERI1
 70
     0
  9
$USERI2
 70
     0
  9
$USERI3
 70
     0
  9
$USERI4
 70
     0
  9
$USERI5
 70
     0
  9
$USERR1
 40
0.0
  9
$USERR2
 40
0.0
  9
$USERR3
 40
0.0
  9
$USERR4
 40
0.0
  9
$USERR5
 40
0.0
  9
$WORLDVIEW
 70
     1
  9
$SHADEDGE
 70
     3
  9
$SHADEDIF
 70
    70
  9
$TILEMODE
 70
     1
  9
$MAXACTVP
 70
    64
  9
$PINSBASE
 10
0.0
 20
0.0
 30
0.0
  9
$PLIMCHECK
 70
     0
  9
$PEXTMIN
 10
-0.5
 20
-0.5
 30
-0.5
  9
$PEXTMAX
 10
5.0
 20
5.0
 30
5.0
  9
$PLIMMIN
 10
-0.5
 20
-0.5
  9
$PLIMMAX
 10
5.0
 20
5.0
  9
$UNITMODE
 70
     0
  9
$VISRETAIN
 70
     1
  9
$PLINEGEN
 70
     0
  9
$PSLTSCALE
 70
     1
  9
$TREEDEPTH
 70
  3020
  9
$CMLSTYLE
  2
Standard
  9
$CMLJUST
 70
     0
  9
$CMLSCALE
 40
1.0
  9
$PROXYGRAPHICS
 70
     1
  9
$MEASUREMENT
 70
     1
  9
$CELWEIGHT
370
    13
  9
$ENDCAPS
280
     0
  9
$JOINSTYLE
280
     0
  9
$LWDISPLAY
290
     0
  9
$INSUNITS
 70
     4
  9
$HYPERLINKBASE
  1

  9
$STYLESHEET
  1

  9
$XEDIT
290
     1
  9
$CEPSNTYPE
380
     0
  9
$PSTYLEMODE
290
     1
  9
$FINGERPRINTGUID
  2
{44A2381A-45CA-4631-B9F7-03E0BE752A6A}
  9
$VERSIONGUID
  2
{FA99A623-A902-DB40-BA9A-C386B17421C6}
  9
$EXTNAMES
290
     1
  9
$PSVPSCALE
 40
0.0
  9
$OLESTARTUP
290
     0
  9
$SORTENTS
280
   127
  9
$INDEXCTL
280
     0
  9
$HIDETEXT
280
     1
  9
$XCLIPFRAME
290
     0
  9
$HALOGAP
280
     0
  9
$OBSCOLOR
 70
   257
  9
$OBSLTYPE
280
     0
  9
$INTERSECTIONDISPLAY
280
     0
  9
$INTERSECTIONCOLOR
 70
   257
  9
$DIMASSOC
280
     2
  9
$PROJECTNAME
  1

  0
ENDSEC
  0
SECTION
  2
CLASSES
  0
CLASS
  1
ACDBDICTIONARYWDFLT
  2
AcDbDictionaryWithDefault
  3
ObjectDBX Classes
 90
        0
 91
        1
280
     0
281
     0
  0
CLASS
  1
VISUALSTYLE
  2
AcDbVisualStyle
  3
ObjectDBX Classes
 90
     4095
 91
       24
280
     0
281
     0
  0
CLASS
  1
MATERIAL
  2
AcDbMaterial
  3
ObjectDBX Classes
 90
     1153
 91
        3
280
     0
281
     0
  0
CLASS
  1
SCALE
  2
AcDbScale
  3
ObjectDBX Classes
 90
     1153
 91
       33
280
     0
281
     0
  0
CLASS
  1
TABLESTYLE
  2
AcDbTableStyle
  3
ObjectDBX Classes
 90
     4095
 91
        1
280
     0
281
     0
  0
CLASS
  1
MLEADERSTYLE
  2
AcDbMLeaderStyle
  3
ACDB_MLEADERSTYLE_CLASS
 90
     4095
 91
        1
280
     0
281
     0
  0
CLASS
  1
SUN
  2
AcDbSun
  3
SCENEOE
 90
     1153
 91
        0
280
     0
281
     0
  0
CLASS
  1
DIMASSOC
  2
AcDbDimAssoc
  3
"AcDbDimAssoc|Product Desc:     AcDim ARX App For Dimension|Company:          Autodesk, Inc.|WEB Address:      www.autodesk.com"
 90
        0
 91
        7
280
     0
281
     0
  0
CLASS
  1
DICTIONARYVAR
  2
AcDbDictionaryVar
  3
ObjectDBX Classes
 90
        0
 91
        8
280
     0
281
     0
  0
CLASS
  1
CELLSTYLEMAP
  2
AcDbCellStyleMap
  3
ObjectDBX Classes
 90
     1152
 91
        2
280
     0
281
     0
  0
CLASS
  1
ACDBSECTIONVIEWSTYLE
  2
AcDbSectionViewStyle
  3
ObjectDBX Classes
 90
     1025
 91
        1
280
     0
281
     0
  0
CLASS
  1
ACDBDETAILVIEWSTYLE
  2
AcDbDetailViewStyle
  3
ObjectDBX Classes
 90
     1025
 91
        1
280
     0
281
     0
  0
CLASS
  1
SORTENTSTABLE
  2
AcDbSortentsTable
  3
ObjectDBX Classes
 90
        0
 91
        1
280
     0
281
     0
  0
ENDSEC
  0
SECTION
  2
TABLES
  0
TABLE
  2
VPORT
  5
8
330
0
100
AcDbSymbolTable
 70
    16
  0
VPORT
  5
29
330
8
100
AcDbSymbolTableRecord
100
AcDbViewportTableRecord
  2
*Active
 70
     0
 10
0.0
 20
0.0
 11
1.0
 21
1.0
 12
332.5857717742246
 22
294.8780654610376
 13
0.0
 23
0.0
 14
0.5
 24
0.5
 15
0.5
 25
0.5
 16
0.0
 26
0.0
 36
1.0
 17
0.0
 27
0.0
 37
0.0
 40
202.5677750721867
 41
2.292712066905615
 42
50.0
 43
479.7088549999999
 44
-479.7088549999999
 50
0.0
 51
0.0
 71
     0
 72
   100
 73
     1
 74
     3
 75
     0
 76
     0
 77
     0
 78
     0
281
     0
 65
     1
110
274.404842
120
288.907994
130
0.0
111
1.0
121
0.0
131
0.0
112
0.0
122
1.0
132
0.0
 79
     0
146
0.0
1001
ACAD_NAV_VCDISPLAY
1070
     3
  0
VPORT
  5
2DD
330
8
100
AcDbSymbolTableRecord
100
AcDbViewportTableRecord
  2
L1
 70
     0
 10
0.0
 20
0.0
 11
1.0
 21
1.0
 12
323.712097
 22
235.152832
 13
0.0
 23
0.0
 14
0.5
 24
0.5
 15
0.5
 25
0.5
 16
0.0
 26
0.0
 36
1.0
 17
0.0
 27
0.0
 37
0.0
 40
207.433333
 41
0.085602
 42
50.0
 43
479.7088549999999
 44
-479.7088549999999
 50
0.0
 51
0.0
 71
     0
 72
   100
 73
     1
 74
     3
 75
     0
 76
     0
 77
     0
 78
     0
281
     0
 65
     1
110
0.0
120
0.0
130
0.0
111
1.0
121
0.0
131
0.0
112
0.0
122
1.0
132
0.0
 79
     0
146
0.0
  0
VPORT
  5
2DE
330
8
100
AcDbSymbolTableRecord
100
AcDbViewportTableRecord
  2
L2
 70
     0
 10
0.0
 20
0.0
 11
0.5
 21
1.0
 12
0.0
 22
0.0
 13
0.0
 23
0.0
 14
0.5
 24
0.5
 15
0.5
 25
0.5
 16
0.0
 26
-1.0
 36
0.0
 17
0.0
 27
0.0
 37
0.0
 40
1316.18997
 41
0.013491
 42
50.0
 43
678.00864
 44
-678.00864
 50
0.0
 51
0.0
 71
     0
 72
   100
 73
     1
 74
     3
 75
     0
 76
     0
 77
     0
 78
     0
281
     0
 65
     1
110
0.0
120
0.0
130
0.0
111
1.0
121
0.0
131
0.0
112
0.0
122
1.0
132
0.0
 79
     0
146
0.0
  0
VPORT
  5
2DF
330
8
100
AcDbSymbolTableRecord
100
AcDbViewportTableRecord
  2
L2
 70
     0
 10
0.5
 20
0.0
 11
1.0
 21
1.0
 12
0.0
 22
0.0
 13
0.0
 23
0.0
 14
0.5
 24
0.5
 15
0.5
 25
0.5
 16
1.0
 26
0.0
 36
0.0
 17
0.0
 27
0.0
 37
0.0
 40
1316.18997
 41
0.013491
 42
50.0
 43
666.2177989999999
 44
-666.2177989999999
 50
0.0
 51
0.0
 71
     0
 72
   100
 73
     1
 74
     3
 75
     0
 76
     0
 77
     0
 78
     0
281
     0
 65
     1
110
0.0
120
0.0
130
0.0
111
1.0
121
0.0
131
0.0
112
0.0
122
1.0
132
0.0
 79
     0
146
0.0
  0
VPORT
  5
2E0
330
8
100
AcDbSymbolTableRecord
100
AcDbViewportTableRecord
  2
L3
 70
     0
 10
0.0
 20
0.5
 11
1.0
 21
1.0
 12
323.712097
 22
235.152832
 13
0.0
 23
0.0
 14
0.5
 24
0.5
 15
0.5
 25
0.5
 16
0.0
 26
0.0
 36
1.0
 17
0.0
 27
0.0
 37
0.0
 40
207.433333
 41
0.085602
 42
50.0
 43
479.7088549999999
 44
-479.7088549999999
 50
0.0
 51
0.0
 71
     0
 72
   100
 73
     1
 74
     3
 75
     0
 76
     0
 77
     0
 78
     0
281
     0
 65
     1
110
0.0
120
0.0
130
0.0
111
1.0
121
0.0
131
0.0
112
0.0
122
1.0
132
0.0
 79
     0
146
0.0
  0
VPORT
  5
2E1
330
8
100
AcDbSymbolTableRecord
100
AcDbViewportTableRecord
  2
L3
 70
     0
 10
0.0
 20
0.0
 11
1.0
 21
0.5
 12
0.0
 22
0.0
 13
0.0
 23
0.0
 14
0.5
 24
0.5
 15
0.5
 25
0.5
 16
0.0
 26
-1.0
 36
0.0
 17
0.0
 27
0.0
 37
0.0
 40
1316.18997
 41
0.013491
 42
50.0
 43
678.00864
 44
-678.00864
 50
0.0
 51
0.0
 71
     0
 72
   100
 73
     1
 74
     3
 75
     0
 76
     0
 77
     0
 78
     0
281
     0
 65
     1
110
0.0
120
0.0
130
0.0
111
1.0
121
0.0
131
0.0
112
0.0
122
1.0
132
0.0
 79
     0
146
0.0
  0
VPORT
  5
2E2
330
8
100
AcDbSymbolTableRecord
100
AcDbViewportTableRecord
  2
L4
 70
     0
 10
0.0
 20
0.5
 11
0.5
 21
1.0
 12
323.712097
 22
235.152832
 13
0.0
 23
0.0
 14
0.5
 24
0.5
 15
0.5
 25
0.5
 16
0.0
 26
0.0
 36
1.0
 17
0.0
 27
0.0
 37
0.0
 40
207.433333
 41
0.085602
 42
50.0
 43
479.7088549999999
 44
-479.7088549999999
 50
0.0
 51
0.0
 71
     0
 72
   100
 73
     1
 74
     3
 75
     0
 76
     0
 77
     0
 78
     0
281
     0
 65
     1
110
0.0
120
0.0
130
0.0
111
1.0
121
0.0
131
0.0
112
0.0
122
1.0
132
0.0
 79
     0
146
0.0
  0
VPORT
  5
2E3
330
8
100
AcDbSymbolTableRecord
100
AcDbViewportTableRecord
  2
L4
 70
     0
 10
0.0
 20
0.0
 11
0.5
 21
0.5
 12
0.0
 22
0.0
 13
0.0
 23
0.0
 14
0.5
 24
0.5
 15
0.5
 25
0.5
 16
0.0
 26
-1.0
 36
0.0
 17
0.0
 27
0.0
 37
0.0
 40
1316.18997
 41
0.013491
 42
50.0
 43
678.00864
 44
-678.00864
 50
0.0
 51
0.0
 71
     0
 72
   100
 73
     1
 74
     3
 75
     0
 76
     0
 77
     0
 78
     0
281
     0
 65
     1
110
0.0
120
0.0
130
0.0
111
1.0
121
0.0
131
0.0
112
0.0
122
1.0
132
0.0
 79
     0
146
0.0
  0
VPORT
  5
2E4
330
8
100
AcDbSymbolTableRecord
100
AcDbViewportTableRecord
  2
L4
 70
     0
 10
0.5
 20
0.0
 11
1.0
 21
0.5
 12
0.0
 22
0.0
 13
0.0
 23
0.0
 14
0.5
 24
0.5
 15
0.5
 25
0.5
 16
1.0
 26
0.0
 36
0.0
 17
0.0
 27
0.0
 37
0.0
 40
1316.18997
 41
0.013491
 42
50.0
 43
666.2177989999999
 44
-666.2177989999999
 50
0.0
 51
0.0
 71
     0
 72
   100
 73
     1
 74
     3
 75
     0
 76
     0
 77
     0
 78
     0
281
     0
 65
     1
110
0.0
120
0.0
130
0.0
111
1.0
121
0.0
131
0.0
112
0.0
122
1.0
132
0.0
 79
     0
146
0.0
  0
VPORT
  5
2E5
330
8
100
AcDbSymbolTableRecord
100
AcDbViewportTableRecord
  2
L4
 70
     0
 10
0.5
 20
0.5
 11
1.0
 21
1.0
 12
0.0
 22
0.0
 13
0.0
 23
0.0
 14
0.5
 24
0.5
 15
0.5
 25
0.5
 16
0.5773502691896259
 26
-0.5773502691896259
 36
0.5773502691896259
 17
0.0
 27
0.0
 37
0.0
 40
1292.532264
 41
0.013738
 42
50.0
 43
673.245608
 44
-673.245608
 50
0.0
 51
0.0
 71
     0
 72
   100
 73
     1
 74
     3
 75
     0
 76
     0
 77
     0
 78
     0
281
     0
 65
     1
110
0.0
120
0.0
130
0.0
111
1.0
121
0.0
131
0.0
112
0.0
122
1.0
132
0.0
 79
     0
146
0.0
  0
VPORT
  5
2E6
330
8
100
AcDbSymbolTableRecord
100
AcDbViewportTableRecord
  2
L6
 70
     0
 10
0.0
 20
0.5
 11
0.333333
 21
1.0
 12
0.0
 22
0.0
 13
0.0
 23
0.0
 14
0.5
 24
0.5
 15
0.5
 25
0.5
 16
0.7188730927569434
 26
-0.5850486126764433
 36
0.3754192287502549
 17
0.0
 27
0.0
 37
0.0
 40
1364.064247
 41
0.013018
 42
50.0
 43
706.2613849999999
 44
-706.2613849999999
 50
0.0
 51
0.0
 71
     0
 72
   100
 73
     1
 74
     3
 75
     0
 76
     0
 77
     0
 78
     0
281
     0
 65
     1
110
0.0
120
0.0
130
0.0
111
1.0
121
0.0
131
0.0
112
0.0
122
1.0
132
0.0
 79
     0
146
0.0
  0
VPORT
  5
2E7
330
8
100
AcDbSymbolTableRecord
100
AcDbViewportTableRecord
  2
L6
 70
     0
 10
0.0
 20
0.0
 11
0.333333
 21
0.5
 12
0.0
 22
0.0
 13
0.0
 23
0.0
 14
0.5
 24
0.5
 15
0.5
 25
0.5
 16
-1.0
 26
0.0
 36
0.0
 17
0.0
 27
0.0
 37
0.0
 40
1316.18997
 41
0.013491
 42
50.0
 43
666.2177989999999
 44
-666.2177989999999
 50
0.0
 51
0.0
 71
     0
 72
   100
 73
     1
 74
     3
 75
     0
 76
     0
 77
     0
 78
     0
281
     0
 65
     1
110
0.0
120
0.0
130
0.0
111
1.0
121
0.0
131
0.0
112
0.0
122
1.0
132
0.0
 79
     0
146
0.0
  0
VPORT
  5
2E8
330
8
100
AcDbSymbolTableRecord
100
AcDbViewportTableRecord
  2
L6
 70
     0
 10
0.333333
 20
0.5
 11
0.666667
 21
1.0
 12
323.712097
 22
235.152832
 13
0.0
 23
0.0
 14
0.5
 24
0.5
 15
0.5
 25
0.5
 16
0.0
 26
0.0
 36
1.0
 17
0.0
 27
0.0
 37
0.0
 40
207.433333
 41
0.085602
 42
50.0
 43
479.7088549999999
 44
-479.7088549999999
 50
0.0
 51
0.0
 71
     0
 72
   100
 73
     1
 74
     3
 75
     0
 76
     0
 77
     0
 78
     0
281
     0
 65
     1
110
0.0
120
0.0
130
0.0
111
1.0
121
0.0
131
0.0
112
0.0
122
1.0
132
0.0
 79
     0
146
0.0
  0
VPORT
  5
2E9
330
8
100
AcDbSymbolTableRecord
100
AcDbViewportTableRecord
  2
L6
 70
     0
 10
0.333333
 20
0.0
 11
0.666667
 21
0.5
 12
0.0
 22
0.0
 13
0.0
 23
0.0
 14
0.5
 24
0.5
 15
0.5
 25
0.5
 16
0.0
 26
-1.0
 36
0.0
 17
0.0
 27
0.0
 37
0.0
 40
1316.18997
 41
0.013491
 42
50.0
 43
678.00864
 44
-678.00864
 50
0.0
 51
0.0
 71
     0
 72
   100
 73
     1
 74
     3
 75
     0
 76
     0
 77
     0
 78
     0
281
     0
 65
     1
110
0.0
120
0.0
130
0.0
111
1.0
121
0.0
131
0.0
112
0.0
122
1.0
132
0.0
 79
     0
146
0.0
  0
VPORT
  5
2EA
330
8
100
AcDbSymbolTableRecord
100
AcDbViewportTableRecord
  2
L6
 70
     0
 10
0.666667
 20
0.5
 11
1.0
 21
1.0
 12
0.0
 22
0.0
 13
0.0
 23
0.0
 14
0.5
 24
0.5
 15
0.5
 25
0.5
 16
0.5773502691896259
 26
-0.5773502691896259
 36
0.5773502691896259
 17
0.0
 27
0.0
 37
0.0
 40
1292.532264
 41
0.013738
 42
50.0
 43
673.245608
 44
-673.245608
 50
0.0
 51
0.0
 71
     0
 72
   100
 73
     1
 74
     3
 75
     0
 76
     0
 77
     0
 78
     0
281
     0
 65
     1
110
0.0
120
0.0
130
0.0
111
1.0
121
0.0
131
0.0
112
0.0
122
1.0
132
0.0
 79
     0
146
0.0
  0
VPORT
  5
2EB
330
8
100
AcDbSymbolTableRecord
100
AcDbViewportTableRecord
  2
L6
 70
     0
 10
0.666667
 20
0.0
 11
1.0
 21
0.5
 12
0.0
 22
0.0
 13
0.0
 23
0.0
 14
0.5
 24
0.5
 15
0.5
 25
0.5
 16
1.0
 26
0.0
 36
0.0
 17
0.0
 27
0.0
 37
0.0
 40
1316.18997
 41
0.013491
 42
50.0
 43
666.2177989999999
 44
-666.2177989999999
 50
0.0
 51
0.0
 71
     0
 72
   100
 73
     1
 74
     3
 75
     0
 76
     0
 77
     0
 78
     0
281
     0
 65
     1
110
0.0
120
0.0
130
0.0
111
1.0
121
0.0
131
0.0
112
0.0
122
1.0
132
0.0
 79
     0
146
0.0
  0
ENDTAB
  0
TABLE
  2
LTYPE
  5
5
330
0
100
AcDbSymbolTable
 70
     7
  0
LTYPE
  5
14
330
5
100
AcDbSymbolTableRecord
100
AcDbLinetypeTableRecord
  2
ByBlock
 70
     0
  3

 72
    65
 73
     0
 40
0.0
  0
LTYPE
  5
15
330
5
100
AcDbSymbolTableRecord
100
AcDbLinetypeTableRecord
  2
ByLayer
 70
     0
  3

 72
    65
 73
     0
 40
0.0
  0
LTYPE
  5
16
330
5
100
AcDbSymbolTableRecord
100
AcDbLinetypeTableRecord
  2
Continuous
 70
     0
  3
Solid line
 72
    65
 73
     0
 40
0.0
  0
LTYPE
  5
6E
330
5
100
AcDbSymbolTableRecord
100
AcDbLinetypeTableRecord
  2
CENTER
 70
     0
  3
____ _ ____ _ ____ _ ____
 72
    65
 73
     4
 40
47.4
 49
22.0
 74
     4
 75
     0
340
0
 46
0.0
 50
0.0
 44
0.0
 45
0.0
 49
-8.5
 74
     4
 75
     0
340
0
 46
0.0
 50
0.0
 44
0.0
 45
0.0
 49
8.5
 74
     4
 75
     0
340
0
 46
0.0
 50
0.0
 44
0.0
 45
0.0
 49
-8.5
 74
     4
 75
     0
340
0
 46
0.0
 50
0.0
 44
0.0
 45
0.0
  0
LTYPE
  5
6F
330
5
100
AcDbSymbolTableRecord
100
AcDbLinetypeTableRecord
  2
DASHDOT
 70
     0
  3
_._._._._._._._._._._._._._._._.
 72
    65
 73
     4
 40
70.0
 49
31.0
 74
     4
 75
     0
340
0
 46
0.0
 50
0.0
 44
0.0
 45
0.0
 49
-13.0
 74
     4
 75
     0
340
0
 46
0.0
 50
0.0
 44
0.0
 45
0.0
 49
13.0
 74
     4
 75
     0
340
0
 46
0.0
 50
0.0
 44
0.0
 45
0.0
 49
-13.0
 74
     4
 75
     0
340
0
 46
0.0
 50
0.0
 44
0.0
 45
0.0
  0
LTYPE
  5
70
330
5
100
AcDbSymbolTableRecord
100
AcDbLinetypeTableRecord
  2
DASHED
 70
     0
  3
__ __ __ __ __ __ __ __ __
 72
    65
 73
     2
 40
25.72
 49
12.86
 74
     4
 75
     0
340
0
 46
0.0
 50
0.0
 44
0.0
 45
0.0
 49
-12.86
 74
     4
 75
     0
340
0
 46
0.0
 50
0.0
 44
0.0
 45
0.0
  0
LTYPE
  5
71
330
5
100
AcDbSymbolTableRecord
100
AcDbLinetypeTableRecord
  2
DOT
 70
     0
  3
.........................
 72
    65
 73
     2
 40
10.0
 49
0.0
 74
     4
 75
     0
340
0
 46
0.0
 50
0.0
 44
0.0
 45
0.0
 49
-10.0
 74
     4
 75
     0
340
0
 46
0.0
 50
0.0
 44
0.0
 45
0.0
  0
LTYPE
  5
72
330
5
100
AcDbSymbolTableRecord
100
AcDbLinetypeTableRecord
  2
PHANTOM
 70
     0
  3
____ _ _ ____ _ _ _____ _ _ ____
 72
    65
 73
     6
 40
50.5
 49
18.0
 74
     4
 75
     0
340
0
 46
0.0
 50
0.0
 44
0.0
 45
0.0
 49
-6.5
 74
     4
 75
     0
340
0
 46
0.0
 50
0.0
 44
0.0
 45
0.0
 49
6.5
 74
     4
 75
     0
340
0
 46
0.0
 50
0.0
 44
0.0
 45
0.0
 49
-6.5
 74
     4
 75
     0
340
0
 46
0.0
 50
0.0
 44
0.0
 45
0.0
 49
6.5
 74
     4
 75
     0
340
0
 46
0.0
 50
0.0
 44
0.0
 45
0.0
 49
-6.5
 74
     4
 75
     0
340
0
 46
0.0
 50
0.0
 44
0.0
 45
0.0
  0
LTYPE
  5
37B
330
5
100
AcDbSymbolTableRecord
100
AcDbLinetypeTableRecord
  2
CENTER2
 70
     0
  3
Center (.5x) ___ _ ___ _ ___ _ ___ _ ___ _ ___
 72
    65
 73
     4
 40
1.125
 49
0.75
 74
     0
 49
-0.125
 74
     0
 49
0.125
 74
     0
 49
-0.125
 74
     0
  0
ENDTAB
  0
TABLE
  2
LAYER
  5
2
330
0
100
AcDbSymbolTable
 70
    22
  0
LAYER
  5
10
102
{ACAD_XDICTIONARY
360
386
102
}
330
2
100
AcDbSymbolTableRecord
100
AcDbLayerTableRecord
  2
0
 70
     0
 62
     7
  6
Continuous
370
    -3
390
F
  0
LAYER
  5
237
330
2
100
AcDbSymbolTableRecord
100
AcDbLayerTableRecord
  2
Defpoints
 70
     0
 62
     7
  6
Continuous
290
     0
370
    -3
390
F
  0
LAYER
  5
378
102
{ACAD_XDICTIONARY
360
388
102
}
330
2
100
AcDbSymbolTableRecord
100
AcDbLayerTableRecord
  2
1
 70
     0
 62
     4
  6
Continuous
370
    -3
390
F
  0
LAYER
  5
379
102
{ACAD_XDICTIONARY
360
38A
102
}
330
2
100
AcDbSymbolTableRecord
100
AcDbLayerTableRecord
  2
2
 70
     0
 62
     7
  6
Continuous
370
    -3
390
F
  0
LAYER
  5
37A
102
{ACAD_XDICTIONARY
360
38C
102
}
330
2
100
AcDbSymbolTableRecord
100
AcDbLayerTableRecord
  2
4
 70
     0
 62
     2
  6
CENTER2
370
    -3
390
F
  0
LAYER
  5
37C
102
{ACAD_XDICTIONARY
360
38E
102
}
330
2
100
AcDbSymbolTableRecord
100
AcDbLayerTableRecord
  2
SK1
 70
     0
 62
     4
  6
Continuous
370
    -3
390
F
  0
LAYER
  5
37D
102
{ACAD_XDICTIONARY
360
390
102
}
330
2
100
AcDbSymbolTableRecord
100
AcDbLayerTableRecord
  2
SK2
 70
     0
 62
     7
  6
Continuous
370
    -3
390
F
  0
LAYER
  5
37F
102
{ACAD_XDICTIONARY
360
392
102
}
330
2
100
AcDbSymbolTableRecord
100
AcDbLayerTableRecord
  2
SK4
 70
     0
 62
     2
  6
CENTER2
370
    -3
390
F
  0
LAYER
  5
380
102
{ACAD_XDICTIONARY
360
394
102
}
330
2
100
AcDbSymbolTableRecord
100
AcDbLayerTableRecord
  2
SK6
 70
     0
 62
     5
  6
Continuous
370
    -3
390
F
  0
LAYER
  5
381
102
{ACAD_XDICTIONARY
360
396
102
}
330
2
100
AcDbSymbolTableRecord
100
AcDbLayerTableRecord
  2
CUT
 70
     0
 62
     1
  6
Continuous
370
    -3
390
F
  0
LAYER
  5
382
102
{ACAD_XDICTIONARY
360
398
102
}
330
2
100
AcDbSymbolTableRecord
100
AcDbLayerTableRecord
  2
NOCUT
 70
     0
 62
     7
  6
Continuous
370
    -3
390
F
  0
LAYER
  5
383
102
{ACAD_XDICTIONARY
360
39A
102
}
330
2
100
AcDbSymbolTableRecord
100
AcDbLayerTableRecord
  2
80
 70
     0
 62
     6
  6
Continuous
370
    -3
390
F
  0
LAYER
  5
384
102
{ACAD_XDICTIONARY
360
39C
102
}
330
2
100
AcDbSymbolTableRecord
100
AcDbLayerTableRecord
  2
81
 70
     0
 62
     3
  6
Continuous
370
    -3
390
F
  0
ENDTAB
  0
TABLE
  2
STYLE
  5
3
330
0
100
AcDbSymbolTable
 70
     3
  0
STYLE
  5
11
330
3
100
AcDbSymbolTableRecord
100
AcDbTextStyleTableRecord
  2
Standard
 70
     0
 40
0.0
 41
1.0
 50
0.0
 71
     0
 42
0.2
  3
txt
  4

  0
STYLE
  5
22B
330
3
100
AcDbSymbolTableRecord
100
AcDbTextStyleTableRecord
  2
cesky
 70
     0
 40
0.0
 41
1.0
 50
0.0
 71
     0
 42
0.2
  3
simplex.shx
  4

  0
STYLE
  5
22C
330
3
100
AcDbSymbolTableRecord
100
AcDbTextStyleTableRecord
  2
DWGDirectTextStyle
 70
     0
 40
0.0
 41
1.0
 50
0.0
 71
     0
 42
0.2
  3
simplex
  4

  0
ENDTAB
  0
TABLE
  2
VIEW
  5
6
330
0
100
AcDbSymbolTable
 70
     0
  0
ENDTAB
  0
TABLE
  2
UCS
  5
7
330
0
100
AcDbSymbolTable
 70
     0
  0
ENDTAB
  0
TABLE
  2
APPID
  5
9
330
0
100
AcDbSymbolTable
 70
     7
  0
APPID
  5
12
330
9
100
AcDbSymbolTableRecord
100
AcDbRegAppTableRecord
  2
ACAD
 70
     0
  0
APPID
  5
233
330
9
100
AcDbSymbolTableRecord
100
AcDbRegAppTableRecord
  2
ACAD_DSTYLE_DIMBREAK
 70
     0
  0
APPID
  5
2EC
330
9
100
AcDbSymbolTableRecord
100
AcDbRegAppTableRecord
  2
ACAD_DSTYLE_DIM_LINETYPE
 70
     0
  0
APPID
  5
2ED
330
9
100
AcDbSymbolTableRecord
100
AcDbRegAppTableRecord
  2
ACAD_DSTYLE_DIM_EXT1_LINETYPE
 70
     0
  0
APPID
  5
2EE
330
9
100
AcDbSymbolTableRecord
100
AcDbRegAppTableRecord
  2
ACAD_DSTYLE_DIM_EXT2_LINETYPE
 70
     0
  0
APPID
  5
32E
330
9
100
AcDbSymbolTableRecord
100
AcDbRegAppTableRecord
  2
ACAD_MLEADERVER
 70
     0
  0
APPID
  5
3A1
330
9
100
AcDbSymbolTableRecord
100
AcDbRegAppTableRecord
  2
ACAD_NAV_VCDISPLAY
 70
     0
  0
ENDTAB
  0
TABLE
  2
DIMSTYLE
  5
A
330
0
100
AcDbSymbolTable
 70
     1
100
AcDbDimStyleTable
 71
     0
  0
DIMSTYLE
105
27
330
A
100
AcDbSymbolTableRecord
100
AcDbDimStyleTableRecord
  2
Standard
 70
     0
340
11
1001
ACAD_DSTYLE_DIMBREAK
1070
   391
1040
6.349999999999999
  0
ENDTAB
  0
TABLE
  2
BLOCK_RECORD
  5
1
330
0
100
AcDbSymbolTable
 70
    16
  0
BLOCK_RECORD
  5
1F
102
{ACAD_XDICTIONARY
360
33E
102
}
330
1
100
AcDbSymbolTableRecord
100
AcDbBlockTableRecord
  2
*Model_Space
340
22
  0
BLOCK_RECORD
  5
1B
330
1
100
AcDbSymbolTableRecord
100
AcDbBlockTableRecord
  2
*Paper_Space
340
1E
  0
BLOCK_RECORD
  5
23
330
1
100
AcDbSymbolTableRecord
100
AcDbBlockTableRecord
  2
*Paper_Space0
340
26
  0
BLOCK_RECORD
  5
22E
330
1
100
AcDbSymbolTableRecord
100
AcDbBlockTableRecord
  2
ASSORTED_DRAFT1
340
0
  0
BLOCK_RECORD
  5
238
330
1
100
AcDbSymbolTableRecord
100
AcDbBlockTableRecord
  2
*D2
340
0
  0
BLOCK_RECORD
  5
244
330
1
100
AcDbSymbolTableRecord
100
AcDbBlockTableRecord
  2
_U0
340
0
  0
BLOCK_RECORD
  5
250
330
1
100
AcDbSymbolTableRecord
100
AcDbBlockTableRecord
  2
*D4
340
0
  0
BLOCK_RECORD
  5
25B
330
1
100
AcDbSymbolTableRecord
100
AcDbBlockTableRecord
  2
_U1
340
0
  0
BLOCK_RECORD
  5
266
330
1
100
AcDbSymbolTableRecord
100
AcDbBlockTableRecord
  2
*D6
340
0
  0
BLOCK_RECORD
  5
272
330
1
100
AcDbSymbolTableRecord
100
AcDbBlockTableRecord
  2
_U2
340
0
  0
BLOCK_RECORD
  5
27F
330
1
100
AcDbSymbolTableRecord
100
AcDbBlockTableRecord
  2
*D8
340
0
  0
BLOCK_RECORD
  5
28B
330
1
100
AcDbSymbolTableRecord
100
AcDbBlockTableRecord
  2
_U3
340
0
  0
BLOCK_RECORD
  5
298
330
1
100
AcDbSymbolTableRecord
100
AcDbBlockTableRecord
  2
*D10
340
0
  0
BLOCK_RECORD
  5
2A4
330
1
100
AcDbSymbolTableRecord
100
AcDbBlockTableRecord
  2
_U4
340
0
  0
BLOCK_RECORD
  5
2B0
330
1
100
AcDbSymbolTableRecord
100
AcDbBlockTableRecord
  2
*D12
340
0
  0
BLOCK_RECORD
  5
2BC
330
1
100
AcDbSymbolTableRecord
100
AcDbBlockTableRecord
  2
_U5
340
0
  0
BLOCK_RECORD
  5
2C8
330
1
100
AcDbSymbolTableRecord
100
AcDbBlockTableRecord
  2
*D14
340
0
  0
BLOCK_RECORD
  5
2D4
330
1
100
AcDbSymbolTableRecord
100
AcDbBlockTableRecord
  2
_U6
340
0
  0
ENDTAB
  0
ENDSEC
  0
SECTION
  2
BLOCKS
  0
BLOCK
  5
20
330
1F
100
AcDbEntity
  8
0
100
AcDbBlockBegin
  2
*Model_Space
 70
     0
 10
0.0
 20
0.0
 30
0.0
  3
*Model_Space
  1

  0
ENDBLK
  5
21
330
1F
100
AcDbEntity
  8
0
100
AcDbBlockEnd
  0
BLOCK
  5
1C
330
1B
100
AcDbEntity
 67
     1
  8
0
100
AcDbBlockBegin
  2
*Paper_Space
 70
     0
 10
0.0
 20
0.0
 30
0.0
  3
*Paper_Space
  1

  0
ENDBLK
  5
1D
330
1B
100
AcDbEntity
 67
     1
  8
0
100
AcDbBlockEnd
  0
BLOCK
  5
24
330
23
100
AcDbEntity
 67
     1
  8
0
100
AcDbBlockBegin
  2
*Paper_Space0
 70
     0
 10
0.0
 20
0.0
 30
0.0
  3
*Paper_Space0
  1

  0
ENDBLK
  5
25
330
23
100
AcDbEntity
 67
     1
  8
0
100
AcDbBlockEnd
  0
BLOCK
  5
231
330
22E
100
AcDbEntity
  8
0
100
AcDbBlockBegin
  2
ASSORTED_DRAFT1
 70
     0
 10
0.0
 20
0.0
 30
0.0
  3
ASSORTED_DRAFT1
  1

  0
SOLID
  5
22F
330
22E
100
AcDbEntity
  8
0
 62
   254
370
    13
100
AcDbTrace
 10
270.185042
 20
164.534924
 30
0.0
 11
265.185046
 21
163.42645
 31
0.0
 12
265.1850379999999
 22
165.643397
 32
0.0
 13
270.185042
 23
164.534924
 33
0.0
  0
ENDBLK
  5
232
330
22E
100
AcDbEntity
  8
0
100
AcDbBlockEnd
  0
BLOCK
  5
239
330
238
100
AcDbEntity
  8
0
100
AcDbBlockBegin
  2
*D2
 70
     1
 10
0.0
 20
0.0
 30
0.0
  3
*D2
  1

  0
LINE
  5
23B
330
238
100
AcDbEntity
  8
0
 62
   254
370
    -2
100
AcDbLine
 10
443.4048419999999
 20
306.907994
 30
0.0
 11
443.4048419999999
 21
334.9472990000001
 31
0.0
  0
LINE
  5
23C
330
238
100
AcDbEntity
  8
0
 62
   254
370
    -2
100
AcDbLine
 10
274.404842
 20
288.907994
 30
0.0
 11
274.404842
 21
334.9472990000001
 31
0.0
  0
LINE
  5
23D
330
238
100
AcDbEntity
  8
0
 62
   254
370
    -2
100
AcDbLine
 10
439.9048419999999
 20
333.947299
 30
0.0
 11
277.904842
 21
333.947299
 31
0.0
  0
SOLID
  5
23E
330
238
100
AcDbEntity
  8
0
 62
   254
100
AcDbTrace
 10
439.9048419999999
 20
333.363965
 30
0.0
 11
439.9048419999999
 21
334.530632
 31
0.0
 12
443.4048419999999
 22
333.947299
 32
0.0
 13
443.4048419999999
 23
333.947299
 33
0.0
  0
SOLID
  5
23F
330
238
100
AcDbEntity
  8
0
 62
   254
100
AcDbTrace
 10
277.904842
 20
334.530632
 30
0.0
 11
277.904842
 21
333.363965
 31
0.0
 12
274.404842
 22
333.947299
 32
0.0
 13
274.404842
 23
333.947299
 33
0.0
  0
MTEXT
  5
240
330
238
100
AcDbEntity
  8
0
 62
   254
370
    13
100
AcDbMText
 10
358.904842
 20
339.1972990000001
 30
0.0
 40
3.5
 41
0.0
 71
     5
 72
     1
  1
\A1;169
  7
cesky
 73
     1
 44
1.0
  0
POINT
  5
241
330
238
100
AcDbEntity
  8
Defpoints
 62
     0
100
AcDbPoint
 10
443.4048419999999
 20
306.907994
 30
0.0
  0
POINT
  5
242
330
238
100
AcDbEntity
  8
Defpoints
 62
     0
100
AcDbPoint
 10
274.404842
 20
288.907994
 30
0.0
  0
POINT
  5
243
330
238
100
AcDbEntity
  8
Defpoints
 62
     0
100
AcDbPoint
 10
274.404842
 20
333.947299
 30
0.0
  0
ENDBLK
  5
23A
330
238
100
AcDbEntity
  8
0
100
AcDbBlockEnd
  0
BLOCK
  5
24B
330
244
100
AcDbEntity
  8
0
100
AcDbBlockBegin
  2
_U0
 70
     0
 10
0.0
 20
0.0
 30
0.0
  3
_U0
  1

  0
ENDBLK
  5
24C
330
244
100
AcDbEntity
  8
0
100
AcDbBlockEnd
  0
BLOCK
  5
251
330
250
100
AcDbEntity
  8
0
100
AcDbBlockBegin
  2
*D4
 70
     1
 10
0.0
 20
0.0
 30
0.0
  3
*D4
  1

  0
LINE
  5
253
330
250
100
AcDbEntity
  8
0
 62
   254
370
    -2
100
AcDbLine
 10
289.392334
 20
288.907994
 30
0.0
 11
461.182398
 21
288.907994
 31
0.0
  0
LINE
  5
254
330
250
100
AcDbEntity
  8
0
 62
   254
370
    -2
100
AcDbLine
 10
330.83929
 20
306.907994
 30
0.0
 11
461.182398
 21
306.907994
 31
0.0
  0
LINE
  5
255
330
250
100
AcDbEntity
  8
0
 62
   254
370
    -2
100
AcDbLine
 10
460.182398
 20
288.907994
 30
0.0
 11
460.182398
 21
306.907994
 31
0.0
  0
SOLID
  5
256
330
250
100
AcDbEntity
  8
0
 62
   254
100
AcDbTrace
 10
460.765732
 20
303.407994
 30
0.0
 11
459.599065
 21
303.407994
 31
0.0
 12
460.182398
 22
306.907994
 32
0.0
 13
460.182398
 23
306.907994
 33
0.0
  0
MTEXT
  5
257
330
250
100
AcDbEntity
  8
0
 62
   254
370
    13
100
AcDbMText
 10
454.932398
 20
279.157994
 30
0.0
 40
3.5
 41
0.0
 71
     5
 72
     1
  1
\A1;36
  7
cesky
 11
0.0
 21
1.0
 31
0.0
 73
     1
 44
1.0
  0
POINT
  5
258
330
250
100
AcDbEntity
  8
Defpoints
 62
     0
100
AcDbPoint
 10
289.392334
 20
288.907994
 30
0.0
  0
POINT
  5
259
330
250
100
AcDbEntity
  8
Defpoints
 62
     0
100
AcDbPoint
 10
330.83929
 20
306.907994
 30
0.0
  0
POINT
  5
25A
330
250
100
AcDbEntity
  8
Defpoints
 62
     0
100
AcDbPoint
 10
460.182398
 20
306.907994
 30
0.0
  0
ENDBLK
  5
252
330
250
100
AcDbEntity
  8
0
100
AcDbBlockEnd
  0
BLOCK
  5
261
330
25B
100
AcDbEntity
  8
0
100
AcDbBlockBegin
  2
_U1
 70
     0
 10
0.0
 20
0.0
 30
0.0
  3
_U1
  1

  0
ENDBLK
  5
262
330
25B
100
AcDbEntity
  8
0
100
AcDbBlockEnd
  0
BLOCK
  5
267
330
266
100
AcDbEntity
  8
0
100
AcDbBlockBegin
  2
*D6
 70
     1
 10
0.0
 20
0.0
 30
0.0
  3
*D6
  1

  0
LINE
  5
269
330
266
100
AcDbEntity
  8
0
 62
    95
370
    -2
100
AcDbLine
 10
216.404842
 20
304.907994
 30
0.0
 11
203.66833
 21
304.907994
 31
0.0
  0
LINE
  5
26A
330
266
100
AcDbEntity
  8
0
 62
    95
370
    -2
100
AcDbLine
 10
216.404842
 20
272.907994
 30
0.0
 11
203.66833
 21
272.907994
 31
0.0
  0
LINE
  5
26B
330
266
100
AcDbEntity
  8
0
 62
    95
370
    -2
100
AcDbLine
 10
204.66833
 20
301.407994
 30
0.0
 11
204.66833
 21
276.407994
 31
0.0
  0
SOLID
  5
26C
330
266
100
AcDbEntity
  8
0
 62
    95
100
AcDbTrace
 10
205.251663
 20
301.407994
 30
0.0
 11
204.084996
 21
301.407994
 31
0.0
 12
204.66833
 22
304.907994
 32
0.0
 13
204.66833
 23
304.907994
 33
0.0
  0
SOLID
  5
26D
330
266
100
AcDbEntity
  8
0
 62
    95
100
AcDbTrace
 10
204.084996
 20
276.407994
 30
0.0
 11
205.251663
 21
276.407994
 31
0.0
 12
204.66833
 22
272.907994
 32
0.0
 13
204.66833
 23
272.907994
 33
0.0
  0
MTEXT
  5
26E
330
266
100
AcDbEntity
  8
0
 62
    95
370
    13
100
AcDbMText
 10
199.41833
 20
288.907994
 30
0.0
 40
3.5
 41
0.0
 71
     5
 72
     1
  1
\A1;32
  7
cesky
 11
0.0
 21
1.0
 31
0.0
 73
     1
 44
1.0
  0
POINT
  5
26F
330
266
100
AcDbEntity
  8
Defpoints
 62
     0
100
AcDbPoint
 10
216.404842
 20
304.907994
 30
0.0
  0
POINT
  5
270
330
266
100
AcDbEntity
  8
Defpoints
 62
     0
100
AcDbPoint
 10
216.404842
 20
272.907994
 30
0.0
  0
POINT
  5
271
330
266
100
AcDbEntity
  8
Defpoints
 62
     0
100
AcDbPoint
 10
204.66833
 20
272.907994
 30
0.0
  0
ENDBLK
  5
268
330
266
100
AcDbEntity
  8
0
100
AcDbBlockEnd
  0
BLOCK
  5
27A
330
272
100
AcDbEntity
  8
0
100
AcDbBlockBegin
  2
_U2
 70
     0
 10
0.0
 20
0.0
 30
0.0
  3
_U2
  1

  0
ENDBLK
  5
27B
330
272
100
AcDbEntity
  8
0
100
AcDbBlockEnd
  0
BLOCK
  5
280
330
27F
100
AcDbEntity
  8
0
100
AcDbBlockBegin
  2
*D8
 70
     1
 10
0.0
 20
0.0
 30
0.0
  3
*D8
  1

  0
LINE
  5
282
330
27F
100
AcDbEntity
  8
0
 62
    95
370
    -2
100
AcDbLine
 10
277.154842
 20
309.907994
 30
0.0
 11
191.104285
 21
309.907994
 31
0.0
  0
LINE
  5
283
330
27F
100
AcDbEntity
  8
0
 62
    95
370
    -2
100
AcDbLine
 10
277.154842
 20
267.907994
 30
0.0
 11
191.104285
 21
267.907994
 31
0.0
  0
LINE
  5
284
330
27F
100
AcDbEntity
  8
0
 62
    95
370
    -2
100
AcDbLine
 10
192.104285
 20
306.407994
 30
0.0
 11
192.104285
 21
271.407994
 31
0.0
  0
SOLID
  5
285
330
27F
100
AcDbEntity
  8
0
 62
    95
100
AcDbTrace
 10
192.687618
 20
306.407994
 30
0.0
 11
191.520952
 21
306.407994
 31
0.0
 12
192.104285
 22
309.907994
 32
0.0
 13
192.104285
 23
309.907994
 33
0.0
  0
SOLID
  5
286
330
27F
100
AcDbEntity
  8
0
 62
    95
100
AcDbTrace
 10
191.520952
 20
271.407994
 30
0.0
 11
192.687618
 21
271.407994
 31
0.0
 12
192.104285
 22
267.907994
 32
0.0
 13
192.104285
 23
267.907994
 33
0.0
  0
MTEXT
  5
287
330
27F
100
AcDbEntity
  8
0
 62
    95
370
    13
100
AcDbMText
 10
186.854285
 20
288.907994
 30
0.0
 40
3.5
 41
0.0
 71
     5
 72
     1
  1
\A1;42
  7
cesky
 11
0.0
 21
1.0
 31
0.0
 73
     1
 44
1.0
  0
POINT
  5
288
330
27F
100
AcDbEntity
  8
Defpoints
 62
     0
100
AcDbPoint
 10
277.154842
 20
309.907994
 30
0.0
  0
POINT
  5
289
330
27F
100
AcDbEntity
  8
Defpoints
 62
     0
100
AcDbPoint
 10
277.154842
 20
267.907994
 30
0.0
  0
POINT
  5
28A
330
27F
100
AcDbEntity
  8
Defpoints
 62
     0
100
AcDbPoint
 10
192.104285
 20
267.907994
 30
0.0
  0
ENDBLK
  5
281
330
27F
100
AcDbEntity
  8
0
100
AcDbBlockEnd
  0
BLOCK
  5
293
330
28B
100
AcDbEntity
  8
0
100
AcDbBlockBegin
  2
_U3
 70
     0
 10
0.0
 20
0.0
 30
0.0
  3
_U3
  1

  0
ENDBLK
  5
294
330
28B
100
AcDbEntity
  8
0
100
AcDbBlockEnd
  0
BLOCK
  5
299
330
298
100
AcDbEntity
  8
0
100
AcDbBlockBegin
  2
*D10
 70
     1
 10
0.0
 20
0.0
 30
0.0
  3
*D10
  1

  0
LINE
  5
29B
330
298
100
AcDbEntity
  8
0
 62
   254
370
    -2
100
AcDbLine
 10
443.4048419999999
 20
308.907994
 30
0.0
 11
443.4048419999999
 21
348.392842
 31
0.0
  0
LINE
  5
29C
330
298
100
AcDbEntity
  8
0
 62
   254
370
    -2
100
AcDbLine
 10
214.404842
 20
302.907994
 30
0.0
 11
214.404842
 21
348.392842
 31
0.0
  0
LINE
  5
29D
330
298
100
AcDbEntity
  8
0
 62
   254
370
    -2
100
AcDbLine
 10
439.9048419999999
 20
347.392842
 30
0.0
 11
217.904842
 21
347.392842
 31
0.0
  0
SOLID
  5
29E
330
298
100
AcDbEntity
  8
0
 62
   254
100
AcDbTrace
 10
439.9048419999999
 20
346.809508
 30
0.0
 11
439.9048419999999
 21
347.976175
 31
0.0
 12
443.4048419999999
 22
347.392842
 32
0.0
 13
443.4048419999999
 23
347.392842
 33
0.0
  0
SOLID
  5
29F
330
298
100
AcDbEntity
  8
0
 62
   254
100
AcDbTrace
 10
217.904842
 20
347.976175
 30
0.0
 11
217.904842
 21
346.809508
 31
0.0
 12
214.404842
 22
347.392842
 32
0.0
 13
214.404842
 23
347.392842
 33
0.0
  0
MTEXT
  5
2A0
330
298
100
AcDbEntity
  8
0
 62
   254
370
    13
100
AcDbMText
 10
328.904842
 20
352.642842
 30
0.0
 40
3.5
 41
0.0
 71
     5
 72
     1
  1
\A1;229
  7
cesky
 73
     1
 44
1.0
  0
POINT
  5
2A1
330
298
100
AcDbEntity
  8
Defpoints
 62
     0
100
AcDbPoint
 10
443.4048419999999
 20
308.907994
 30
0.0
  0
POINT
  5
2A2
330
298
100
AcDbEntity
  8
Defpoints
 62
     0
100
AcDbPoint
 10
214.404842
 20
302.907994
 30
0.0
  0
POINT
  5
2A3
330
298
100
AcDbEntity
  8
Defpoints
 62
     0
100
AcDbPoint
 10
214.404842
 20
347.392842
 30
0.0
  0
ENDBLK
  5
29A
330
298
100
AcDbEntity
  8
0
100
AcDbBlockEnd
  0
BLOCK
  5
2AB
330
2A4
100
AcDbEntity
  8
0
100
AcDbBlockBegin
  2
_U4
 70
     0
 10
0.0
 20
0.0
 30
0.0
  3
_U4
  1

  0
ENDBLK
  5
2AC
330
2A4
100
AcDbEntity
  8
0
100
AcDbBlockEnd
  0
BLOCK
  5
2B1
330
2B0
100
AcDbEntity
  8
0
100
AcDbBlockBegin
  2
*D12
 70
     1
 10
0.0
 20
0.0
 30
0.0
  3
*D12
  1

  0
LINE
  5
2B3
330
2B0
100
AcDbEntity
  8
0
 62
   254
370
    -2
100
AcDbLine
 10
274.404842
 20
288.907994
 30
0.0
 11
274.404842
 21
334.9472990000001
 31
0.0
  0
LINE
  5
2B4
330
2B0
100
AcDbEntity
  8
0
 62
   254
370
    -2
100
AcDbLine
 10
214.404842
 20
295.907994
 30
0.0
 11
214.404842
 21
334.9472990000001
 31
0.0
  0
LINE
  5
2B5
330
2B0
100
AcDbEntity
  8
0
 62
   254
370
    -2
100
AcDbLine
 10
270.904842
 20
333.947299
 30
0.0
 11
217.904842
 21
333.947299
 31
0.0
  0
SOLID
  5
2B6
330
2B0
100
AcDbEntity
  8
0
 62
   254
100
AcDbTrace
 10
270.904842
 20
333.363965
 30
0.0
 11
270.904842
 21
334.530632
 31
0.0
 12
274.404842
 22
333.947299
 32
0.0
 13
274.404842
 23
333.947299
 33
0.0
  0
SOLID
  5
2B7
330
2B0
100
AcDbEntity
  8
0
 62
   254
100
AcDbTrace
 10
217.904842
 20
334.530632
 30
0.0
 11
217.904842
 21
333.363965
 31
0.0
 12
214.404842
 22
333.947299
 32
0.0
 13
214.404842
 23
333.947299
 33
0.0
  0
MTEXT
  5
2B8
330
2B0
100
AcDbEntity
  8
0
 62
   254
370
    13
100
AcDbMText
 10
244.404842
 20
339.1972990000001
 30
0.0
 40
3.5
 41
0.0
 71
     5
 72
     1
  1
\A1;60
  7
cesky
 73
     1
 44
1.0
  0
POINT
  5
2B9
330
2B0
100
AcDbEntity
  8
Defpoints
 62
     0
100
AcDbPoint
 10
274.404842
 20
288.907994
 30
0.0
  0
POINT
  5
2BA
330
2B0
100
AcDbEntity
  8
Defpoints
 62
     0
100
AcDbPoint
 10
214.404842
 20
295.907994
 30
0.0
  0
POINT
  5
2BB
330
2B0
100
AcDbEntity
  8
Defpoints
 62
     0
100
AcDbPoint
 10
214.404842
 20
333.947299
 30
0.0
  0
ENDBLK
  5
2B2
330
2B0
100
AcDbEntity
  8
0
100
AcDbBlockEnd
  0
BLOCK
  5
2C3
330
2BC
100
AcDbEntity
  8
0
100
AcDbBlockBegin
  2
_U5
 70
     0
 10
0.0
 20
0.0
 30
0.0
  3
_U5
  1

  0
ENDBLK
  5
2C4
330
2BC
100
AcDbEntity
  8
0
100
AcDbBlockEnd
  0
BLOCK
  5
2C9
330
2C8
100
AcDbEntity
  8
0
100
AcDbBlockBegin
  2
*D14
 70
     1
 10
0.0
 20
0.0
 30
0.0
  3
*D14
  1

  0
LINE
  5
2CB
330
2C8
100
AcDbEntity
  8
0
 62
   254
370
    -2
100
AcDbLine
 10
443.4048419999999
 20
306.907994
 30
0.0
 11
443.4048419999999
 21
321.118433
 31
0.0
  0
LINE
  5
2CC
330
2C8
100
AcDbEntity
  8
0
 62
   254
370
    -2
100
AcDbLine
 10
289.933194
 20
306.620915
 30
0.0
 11
289.933194
 21
321.118433
 31
0.0
  0
LINE
  5
2CD
330
2C8
100
AcDbEntity
  8
0
 62
   254
370
    -2
100
AcDbLine
 10
439.9048419999999
 20
320.118433
 30
0.0
 11
293.433194
 21
320.118433
 31
0.0
  0
SOLID
  5
2CE
330
2C8
100
AcDbEntity
  8
0
 62
   254
100
AcDbTrace
 10
439.9048419999999
 20
319.5351
 30
0.0
 11
439.9048419999999
 21
320.701766
 31
0.0
 12
443.4048419999999
 22
320.118433
 32
0.0
 13
443.4048419999999
 23
320.118433
 33
0.0
  0
SOLID
  5
2CF
330
2C8
100
AcDbEntity
  8
0
 62
   254
100
AcDbTrace
 10
293.433194
 20
320.701766
 30
0.0
 11
293.433194
 21
319.5351
 31
0.0
 12
289.933194
 22
320.118433
 32
0.0
 13
289.933194
 23
320.118433
 33
0.0
  0
MTEXT
  5
2D0
330
2C8
100
AcDbEntity
  8
0
 62
   254
370
    13
100
AcDbMText
 10
366.669018
 20
325.368433
 30
0.0
 40
3.5
 41
0.0
 71
     5
 72
     1
  1
\A1;153.5
  7
cesky
 73
     1
 44
1.0
  0
POINT
  5
2D1
330
2C8
100
AcDbEntity
  8
Defpoints
 62
     0
100
AcDbPoint
 10
443.4048419999999
 20
306.907994
 30
0.0
  0
POINT
  5
2D2
330
2C8
100
AcDbEntity
  8
Defpoints
 62
     0
100
AcDbPoint
 10
289.933194
 20
306.620915
 30
0.0
  0
POINT
  5
2D3
330
2C8
100
AcDbEntity
  8
Defpoints
 62
     0
100
AcDbPoint
 10
289.933194
 20
320.118433
 30
0.0
  0
ENDBLK
  5
2CA
330
2C8
100
AcDbEntity
  8
0
100
AcDbBlockEnd
  0
BLOCK
  5
2DB
330
2D4
100
AcDbEntity
  8
0
100
AcDbBlockBegin
  2
_U6
 70
     0
 10
0.0
 20
0.0
 30
0.0
  3
_U6
  1

  0
ENDBLK
  5
2DC
330
2D4
100
AcDbEntity
  8
0
100
AcDbBlockEnd
  0
ENDSEC
  0
SECTION
  2
ENTITIES
  0
POINT
  5
73
102
{ACAD_REACTORS
330
385
102
}
330
1F
100
AcDbEntity
  8
80
100
AcDbPoint
 10
274.404842
 20
288.907994
 30
0.0
  0
POINT
  5
76
330
1F
100
AcDbEntity
  8
4
 60
     1
100
AcDbPoint
 10
289.392334
 20
288.907994
 30
0.0
  0
POINT
  5
78
330
1F
100
AcDbEntity
  8
4
 60
     1
100
AcDbPoint
 10
442.6789209999999
 20
288.907994
 30
0.0
  0
POINT
  5
79
330
1F
100
AcDbEntity
  8
SK4
 60
     1
100
AcDbPoint
 10
216.404842
 20
288.907994
 30
0.0
  0
POINT
  5
7A
330
1F
100
AcDbEntity
  8
SK4
 60
     1
100
AcDbPoint
 10
274.404842
 20
288.907994
 30
0.0
  0
POINT
  5
7B
330
1F
100
AcDbEntity
  8
SK6
 60
     1
100
AcDbPoint
 10
274.404842
 20
288.907994
 30
0.0
  0
POINT
  5
7C
330
1F
100
AcDbEntity
  8
SK6
 60
     1
100
AcDbPoint
 10
289.933194
 20
306.620915
 30
0.0
  0
LINE
  5
7D
330
1F
100
AcDbEntity
  8
1
100
AcDbLine
 10
442.012839
 20
287.8757339999999
 30
0.0
 11
442.0612919999999
 21
287.788323
 31
0.0
  0
LINE
  5
7F
330
1F
100
AcDbEntity
  8
1
100
AcDbLine
 10
289.392334
 20
271.407994
 30
0.0
 11
298.233506
 21
271.407994
 31
0.0
  0
LINE
  5
81
330
1F
100
AcDbEntity
  8
1
100
AcDbLine
 10
430.118982
 20
306.407994
 30
0.0
 11
420.841553
 21
306.407994
 31
0.0
  0
LINE
  5
82
330
1F
100
AcDbEntity
  8
1
100
AcDbLine
 10
299.2023299999999
 20
306.407994
 30
0.0
 11
289.392334
 21
306.407994
 31
0.0
  0
LINE
  5
83
330
1F
100
AcDbEntity
  8
1
100
AcDbLine
 10
435.5820679999999
 20
298.744664
 30
0.0
 11
435.6163519999999
 21
298.841862
 31
0.0
  0
LINE
  5
85
330
1F
100
AcDbEntity
  8
1
100
AcDbLine
 10
436.377836
 20
298.688642
 30
0.0
 11
436.343422
 21
298.591073
 31
0.0
  0
LINE
  5
86
330
1F
100
AcDbEntity
  8
1
100
AcDbLine
 10
435.0079389999999
 20
300.288445
 30
0.0
 11
435.0434299999999
 21
300.389066
 31
0.0
  0
LINE
  5
87
330
1F
100
AcDbEntity
  8
1
100
AcDbLine
 10
437.595694
 20
299.939008
 30
0.0
 11
437.560203
 21
299.838386
 31
0.0
  0
LINE
  5
88
330
1F
100
AcDbEntity
  8
1
100
AcDbLine
 10
436.2247209999999
 20
301.535758
 30
0.0
 11
436.2591349999999
 21
301.633327
 31
0.0
  0
LINE
  5
89
330
1F
100
AcDbEntity
  8
1
100
AcDbLine
 10
437.0021219999999
 20
301.427664
 30
0.0
 11
436.986074
 21
301.382168
 31
0.0
  0
LINE
  5
8A
330
1F
100
AcDbEntity
  8
1
100
AcDbLine
 10
434.9421139999999
 20
300.9119609999999
 30
0.0
 11
434.908287
 21
300.816057
 31
0.0
  0
LINE
  5
8B
330
1F
100
AcDbEntity
  8
1
100
AcDbLine
 10
435.0072449999999
 20
300.85232
 30
0.0
 11
434.9728679999999
 21
300.754858
 31
0.0
  0
LINE
  5
8C
330
1F
100
AcDbEntity
  8
1
100
AcDbLine
 10
437.763261
 20
300.110192
 30
0.0
 11
437.797653
 21
300.207697
 31
0.0
  0
LINE
  5
8D
330
1F
100
AcDbEntity
  8
1
100
AcDbLine
 10
435.056052
 20
299.37001
 30
0.0
 11
435.0217289999999
 21
299.272701
 31
0.0
  0
LINE
  5
8E
330
1F
100
AcDbEntity
  8
1
100
AcDbLine
 10
435.0127409999999
 20
299.3494490000001
 30
0.0
 11
434.9787179999999
 21
299.25299
 31
0.0
  0
LINE
  5
8F
330
1F
100
AcDbEntity
  8
1
100
AcDbLine
 10
437.0717559999999
 20
298.801286
 30
0.0
 11
437.1060919999999
 21
298.898635
 31
0.0
  0
LINE
  5
90
330
1F
100
AcDbEntity
  8
1
100
AcDbLine
 10
437.109328
 20
298.758333
 30
0.0
 11
437.1433019999999
 21
298.8546559999999
 31
0.0
  0
LINE
  5
91
330
1F
100
AcDbEntity
  8
1
100
AcDbLine
 10
442.682658
 20
289.357775
 30
0.0
 11
442.190758
 21
288.882752
 31
0.0
  0
LINE
  5
92
330
1F
100
AcDbEntity
  8
1
100
AcDbLine
 10
441.708098
 20
288.416653
 30
0.0
 11
441.886018
 21
288.588469
 31
0.0
  0
LINE
  5
93
330
1F
100
AcDbEntity
  8
1
100
AcDbLine
 10
443.388062
 20
288.08519
 30
0.0
 11
442.724553
 21
287.919759
 31
0.0
  0
LINE
  5
94
330
1F
100
AcDbEntity
  8
1
100
AcDbLine
 10
442.073508
 20
287.757435
 30
0.0
 11
442.724553
 21
287.919759
 31
0.0
  0
LINE
  5
95
330
1F
100
AcDbEntity
  8
1
100
AcDbLine
 10
441.9548559999999
 20
280.959853
 30
0.0
 11
442.59984
 21
280.774907
 31
0.0
  0
LINE
  5
96
330
1F
100
AcDbEntity
  8
1
100
AcDbLine
 10
442.59984
 20
280.774907
 30
0.0
 11
443.264067
 21
280.584443
 31
0.0
  0
LINE
  5
97
330
1F
100
AcDbEntity
  8
1
100
AcDbLine
 10
441.697111
 20
280.178705
 30
0.0
 11
442.032761
 21
279.83113
 31
0.0
  0
LINE
  5
98
330
1F
100
AcDbEntity
  8
1
100
AcDbLine
 10
442.507783
 20
279.33923
 30
0.0
 11
442.032761
 21
279.83113
 31
0.0
  0
LINE
  5
99
330
1F
100
AcDbEntity
  8
1
100
AcDbLine
 10
427.8395349999999
 20
293.109511
 30
0.0
 11
427.8429
 21
293.119052
 31
0.0
  0
LINE
  5
9A
330
1F
100
AcDbEntity
  8
1
100
AcDbLine
 10
421.768674
 20
296.0721069999999
 30
0.0
 11
424.555161
 21
294.465853
 31
0.0
  0
LINE
  5
9B
330
1F
100
AcDbEntity
  8
1
100
AcDbLine
 10
440.852144
 20
293.122742
 30
0.0
 11
431.2852389999999
 21
292.789006
 31
0.0
  0
LINE
  5
9C
330
1F
100
AcDbEntity
  8
1
100
AcDbLine
 10
432.915229
 20
301.335064
 30
0.0
 11
432.915121
 21
301.334756
 31
0.0
  0
LINE
  5
9D
330
1F
100
AcDbEntity
  8
1
100
AcDbLine
 10
442.606553
 20
306.060564
 30
0.0
 11
443.005139
 21
294.933979
 31
0.0
  0
LINE
  5
9E
330
1F
100
AcDbEntity
  8
1
100
AcDbLine
 10
430.664726
 20
306.420024
 30
0.0
 11
441.802905
 21
306.808573
 31
0.0
  0
LINE
  5
9F
330
1F
100
AcDbEntity
  8
1
100
AcDbLine
 10
430.315194
 20
294.491297
 30
0.0
 11
429.916608
 21
305.617882
 31
0.0
  0
LINE
  5
A0
330
1F
100
AcDbEntity
  8
1
100
AcDbLine
 10
442.2570209999999
 20
294.131837
 30
0.0
 11
431.1188419999999
 21
293.743288
 31
0.0
  0
LINE
  5
A1
330
1F
100
AcDbEntity
  8
1
100
AcDbLine
 10
431.7993949999999
 20
304.599112
 30
0.0
 11
440.79227
 21
304.912823
 31
0.0
  0
LINE
  5
A2
330
1F
100
AcDbEntity
  8
1
100
AcDbLine
 10
432.1212099999999
 20
295.615599
 30
0.0
 11
431.7993949999999
 21
304.599112
 31
0.0
  0
LINE
  5
A3
330
1F
100
AcDbEntity
  8
1
100
AcDbLine
 10
441.1140839999999
 20
295.92931
 30
0.0
 11
432.1212099999999
 21
295.615599
 31
0.0
  0
LINE
  5
A4
330
1F
100
AcDbEntity
  8
1
100
AcDbLine
 10
440.79227
 20
304.912823
 30
0.0
 11
441.1140839999999
 21
295.92931
 31
0.0
  0
LINE
  5
A5
330
1F
100
AcDbEntity
  8
1
100
AcDbLine
 10
442.0128319999999
 20
289.002636
 30
0.0
 11
442.131403
 21
288.931391
 31
0.0
  0
LINE
  5
A6
330
1F
100
AcDbEntity
  8
1
100
AcDbLine
 10
441.95972
 20
280.992711
 30
0.0
 11
441.9944059999999
 21
282.97983
 31
0.0
  0
LINE
  5
A7
330
1F
100
AcDbEntity
  8
1
100
AcDbLine
 10
442.012843
 20
284.036078
 30
0.0
 11
442.077223
 21
287.724428
 31
0.0
  0
LINE
  5
A8
330
1F
100
AcDbEntity
  8
1
100
AcDbLine
 10
441.7414309999999
 20
280.596325
 30
0.0
 11
441.941569
 21
280.92941
 31
0.0
  0
LINE
  5
A9
330
1F
100
AcDbEntity
  8
1
100
AcDbLine
 10
443.359382
 20
288.156592
 30
0.0
 11
442.728011
 21
289.295615
 31
0.0
  0
LINE
  5
AA
330
1F
100
AcDbEntity
  8
1
100
AcDbLine
 10
443.399861
 20
287.789483
 30
0.0
 11
443.275424
 21
280.660477
 31
0.0
  0
LINE
  5
AB
330
1F
100
AcDbEntity
  8
1
100
AcDbLine
 10
443.399861
 20
287.789483
 30
0.0
 11
443.3982219999999
 21
288.009171
 31
0.0
  0
LINE
  5
AC
330
1F
100
AcDbEntity
  8
1
100
AcDbLine
 10
442.556683
 20
279.398314
 30
0.0
 11
442.67449
 21
279.583751
 31
0.0
  0
LINE
  5
AD
330
1F
100
AcDbEntity
  8
1
100
AcDbLine
 10
443.2334059999999
 20
280.513944
 30
0.0
 11
442.67449
 21
279.583751
 31
0.0
  0
LINE
  5
AE
330
1F
100
AcDbEntity
  8
1
100
AcDbLine
 10
442.623573
 20
289.406675
 30
0.0
 11
442.438136
 21
289.524481
 31
0.0
  0
LINE
  5
AF
330
1F
100
AcDbEntity
  8
1
100
AcDbLine
 10
442.173409
 20
289.6835450000001
 30
0.0
 11
442.438136
 21
289.524481
 31
0.0
  0
LINE
  5
B0
330
1F
100
AcDbEntity
  8
1
100
AcDbLine
 10
441.721009
 20
278.892216
 30
0.0
 11
442.445624
 21
279.293876
 31
0.0
  0
LINE
  5
B1
330
1F
100
AcDbEntity
  8
1
100
AcDbLine
 10
442.734349
 20
287.843649
 30
0.0
 11
442.6122849999999
 21
280.850629
 31
0.0
  0
LINE
  5
B2
330
1F
100
AcDbEntity
  8
1
100
AcDbLine
 10
442.237296
 20
288.821736
 30
0.0
 11
442.69747
 21
287.991559
 31
0.0
  0
LINE
  5
B3
330
1F
100
AcDbEntity
  8
1
100
AcDbLine
 10
442.5702669999999
 20
280.704096
 30
0.0
 11
442.0814
 21
279.890484
 31
0.0
  0
LINE
  5
B4
330
1F
100
AcDbEntity
  8
1
100
AcDbLine
 10
441.971745
 20
279.784592
 30
0.0
 11
441.6354839999999
 21
279.598199
 31
0.0
  0
LINE
  5
B5
330
1F
100
AcDbEntity
  8
1
100
AcDbLine
 10
424.5336639999999
 20
294.41525
 30
0.0
 11
423.162545
 21
295.196841
 31
0.0
  0
LINE
  5
B6
330
1F
100
AcDbEntity
  8
1
100
AcDbLine
 10
279.404842
 20
309.907994
 30
0.0
 11
279.404842
 21
280.05775
 31
0.0
  0
LINE
  5
B7
330
1F
100
AcDbEntity
  8
1
100
AcDbLine
 10
279.404842
 20
267.907994
 30
0.0
 11
279.404842
 21
271.205012
 31
0.0
  0
LINE
  5
B8
330
1F
100
AcDbEntity
  8
1
100
AcDbLine
 10
440.262149
 20
283.153494
 30
0.0
 11
440.600873
 21
283.153494
 31
0.0
  0
LINE
  5
B9
330
1F
100
AcDbEntity
  8
1
100
AcDbLine
 10
430.207892
 20
306.245683
 30
0.0
 11
430.2026589999999
 21
306.397945
 31
0.0
  0
LINE
  5
BA
330
1F
100
AcDbEntity
  8
1
100
AcDbLine
 10
433.674378
 20
293.627669
 30
0.0
 11
442.3975429999999
 21
293.931972
 31
0.0
  0
LINE
  5
BB
330
1F
100
AcDbEntity
  8
1
100
AcDbLine
 10
442.584842
 20
290.30409
 30
0.0
 11
442.584842
 21
290.404106
 31
0.0
  0
LINE
  5
BC
330
1F
100
AcDbEntity
  8
1
100
AcDbLine
 10
442.399317
 20
293.676422
 30
0.0
 11
442.3975429999999
 21
293.931972
 31
0.0
  0
LINE
  5
BD
330
1F
100
AcDbEntity
  8
1
100
AcDbLine
 10
429.938073
 20
305.810938
 30
0.0
 11
429.9195639999999
 21
306.349532
 31
0.0
  0
LINE
  5
BE
330
1F
100
AcDbEntity
  8
1
100
AcDbLine
 10
442.323397
 20
293.146373
 30
0.0
 11
431.2930709999999
 21
292.761587
 31
0.0
  0
LINE
  5
BF
330
1F
100
AcDbEntity
  8
1
100
AcDbLine
 10
442.323397
 20
293.146373
 30
0.0
 11
440.126819
 21
289.507146
 31
0.0
  0
LINE
  5
C0
330
1F
100
AcDbEntity
  8
1
100
AcDbLine
 10
441.806754
 20
278.890839
 30
0.0
 11
441.630984
 21
278.893651
 31
0.0
  0
LINE
  5
C1
330
1F
100
AcDbEntity
  8
1
100
AcDbLine
 10
441.6138179999999
 20
279.39399
 30
0.0
 11
442.012841
 21
283.153494
 31
0.0
  0
LINE
  5
C2
330
1F
100
AcDbEntity
  8
1
100
AcDbLine
 10
442.012841
 20
283.153494
 30
0.0
 11
442.012841
 21
289.186266
 31
0.0
  0
LINE
  5
C3
330
1F
100
AcDbEntity
  8
1
100
AcDbLine
 10
442.083111
 20
289.685116
 30
0.0
 11
442.2591799999999
 21
289.682042
 31
0.0
  0
LINE
  5
C4
330
1F
100
AcDbEntity
  8
1
100
AcDbLine
 10
442.323397
 20
293.146373
 30
0.0
 11
442.3327769999999
 21
293.1499720000001
 31
0.0
  0
LINE
  5
C5
330
1F
100
AcDbEntity
  8
1
100
AcDbLine
 10
442.439548
 20
293.94809
 30
0.0
 11
433.679611
 21
293.6425040000001
 31
0.0
  0
LINE
  5
C6
330
1F
100
AcDbEntity
  8
1
100
AcDbLine
 10
433.674378
 20
293.627669
 30
0.0
 11
433.679611
 21
293.6425040000001
 31
0.0
  0
LINE
  5
C7
330
1F
100
AcDbEntity
  8
1
100
AcDbLine
 10
442.2591799999999
 20
289.682042
 30
0.0
 11
442.5426799999999
 21
290.066215
 31
0.0
  0
LINE
  5
C8
330
1F
100
AcDbEntity
  8
1
100
AcDbLine
 10
442.5426799999999
 20
290.304826
 30
0.0
 11
442.5426799999999
 21
290.066215
 31
0.0
  0
LINE
  5
C9
330
1F
100
AcDbEntity
  8
1
100
AcDbLine
 10
442.5426799999999
 20
290.304826
 30
0.0
 11
442.584842
 21
290.30409
 31
0.0
  0
LINE
  5
CA
330
1F
100
AcDbEntity
  8
1
100
AcDbLine
 10
442.584842
 20
294.2294589999999
 30
0.0
 11
442.584842
 21
290.404106
 31
0.0
  0
LINE
  5
CB
330
1F
100
AcDbEntity
  8
1
100
AcDbLine
 10
442.439548
 20
293.94809
 30
0.0
 11
442.4379929999999
 21
294.172166
 31
0.0
  0
LINE
  5
CC
330
1F
100
AcDbEntity
  8
1
100
AcDbLine
 10
442.439548
 20
293.94809
 30
0.0
 11
442.3975429999999
 21
293.931972
 31
0.0
  0
LINE
  5
CD
330
1F
100
AcDbEntity
  8
1
100
AcDbLine
 10
441.3382079999999
 20
271.407994
 30
0.0
 11
442.065353
 21
278.258984
 31
0.0
  0
LINE
  5
CE
330
1F
100
AcDbEntity
  8
1
100
AcDbLine
 10
442.065353
 20
278.258984
 30
0.0
 11
442.023262
 21
278.259657
 31
0.0
  0
LINE
  5
CF
330
1F
100
AcDbEntity
  8
1
100
AcDbLine
 10
442.048544
 20
278.497858
 30
0.0
 11
442.023262
 21
278.259657
 31
0.0
  0
LINE
  5
D0
330
1F
100
AcDbEntity
  8
1
100
AcDbLine
 10
442.048544
 20
278.497858
 30
0.0
 11
441.806754
 21
278.890839
 31
0.0
  0
LINE
  5
D1
330
1F
100
AcDbEntity
  8
1
100
AcDbLine
 10
441.2467209999999
 20
283.153494
 30
0.0
 11
442.012841
 21
283.153494
 31
0.0
  0
LINE
  5
D2
330
1F
100
AcDbEntity
  8
SK1
100
AcDbLine
 10
216.404842
 20
304.907994
 30
0.0
 11
216.404842
 21
272.907994
 31
0.0
  0
LINE
  5
D3
330
1F
100
AcDbEntity
  8
SK1
100
AcDbLine
 10
214.404842
 20
302.907994
 30
0.0
 11
214.404842
 21
274.907994
 31
0.0
  0
LINE
  5
D4
330
1F
100
AcDbEntity
  8
1
100
AcDbLine
 10
430.015587
 20
297.026985
 30
0.0
 11
430.010354
 21
297.01215
 31
0.0
  0
LINE
  5
D5
330
1F
100
AcDbEntity
  8
1
100
AcDbLine
 10
430.015587
 20
297.026985
 30
0.0
 11
429.6952
 21
306.349851
 31
0.0
  0
LINE
  5
D6
330
1F
100
AcDbEntity
  8
1
100
AcDbLine
 10
429.690386
 20
306.322834
 30
0.0
 11
430.010354
 21
297.01215
 31
0.0
  0
LINE
  5
D7
330
1F
100
AcDbEntity
  8
1
100
AcDbLine
 10
441.3382079999999
 20
271.407994
 30
0.0
 11
418.014336
 21
271.407994
 31
0.0
  0
LINE
  5
D8
330
1F
100
AcDbEntity
  8
1
100
AcDbLine
 10
274.904842
 20
267.907994
 30
0.0
 11
274.904842
 21
288.907994
 31
0.0
  0
LINE
  5
D9
330
1F
100
AcDbEntity
  8
1
100
AcDbLine
 10
274.904842
 20
288.907994
 30
0.0
 11
274.904842
 21
309.907994
 31
0.0
  0
LINE
  5
DA
330
1F
100
AcDbEntity
  8
1
100
AcDbLine
 10
432.915229
 20
301.335064
 30
0.0
 11
432.8991
 21
301.289334
 31
0.0
  0
LINE
  5
DB
330
1F
100
AcDbEntity
  8
1
100
AcDbLine
 10
439.6891089999999
 20
298.894388
 30
0.0
 11
439.7052389999999
 21
298.9401180000001
 31
0.0
  0
LINE
  5
DC
330
1F
100
AcDbEntity
  8
SK1
100
AcDbLine
 10
214.404842
 20
274.907994
 30
0.0
 11
216.404842
 21
272.907994
 31
0.0
  0
LINE
  5
DD
330
1F
100
AcDbEntity
  8
SK1
100
AcDbLine
 10
216.404842
 20
304.907994
 30
0.0
 11
214.404842
 21
302.907994
 31
0.0
  0
LINE
  5
DE
330
1F
100
AcDbEntity
  8
SK1
100
AcDbLine
 10
274.404842
 20
304.907994
 30
0.0
 11
216.404842
 21
304.907994
 31
0.0
  0
LINE
  5
DF
330
1F
100
AcDbEntity
  8
1
100
AcDbLine
 10
274.904842
 20
267.907994
 30
0.0
 11
274.404842
 21
268.407994
 31
0.0
  0
LINE
  5
E0
330
1F
100
AcDbEntity
  8
1
100
AcDbLine
 10
274.404842
 20
309.407994
 30
0.0
 11
274.904842
 21
309.907994
 31
0.0
  0
LINE
  5
E1
330
1F
100
AcDbEntity
  8
1
100
AcDbLine
 10
279.404842
 20
309.907994
 30
0.0
 11
274.904842
 21
309.907994
 31
0.0
  0
LINE
  5
E6
330
1F
100
AcDbEntity
  8
80
100
AcDbLine
 10
275.404416
 20
288.907994
 30
0.0
 11
273.405268
 21
288.907994
 31
0.0
  0
LINE
  5
E7
330
1F
100
AcDbEntity
  8
1
100
AcDbLine
 10
274.404842
 20
309.407994
 30
0.0
 11
274.404842
 21
288.907994
 31
0.0
  0
LINE
  5
E8
330
1F
100
AcDbEntity
  8
1
100
AcDbLine
 10
274.404842
 20
288.907994
 30
0.0
 11
274.404842
 21
268.407994
 31
0.0
  0
LINE
  5
E9
330
1F
100
AcDbEntity
  8
SK1
100
AcDbLine
 10
216.404842
 20
272.907994
 30
0.0
 11
274.404842
 21
272.907994
 31
0.0
  0
LINE
  5
EA
330
1F
100
AcDbEntity
  8
80
100
AcDbLine
 10
274.404842
 20
287.90842
 30
0.0
 11
274.404842
 21
289.907567
 31
0.0
  0
LINE
  5
EB
330
1F
100
AcDbEntity
  8
81
100
AcDbLine
 10
443.4048419999999
 20
308.907994
 30
0.0
 11
443.4048419999999
 21
304.907994
 31
0.0
  0
LINE
  5
EC
330
1F
100
AcDbEntity
  8
81
100
AcDbLine
 10
441.4048419999999
 20
306.907994
 30
0.0
 11
445.4048419999999
 21
306.907994
 31
0.0
  0
LINE
  5
ED
330
1F
100
AcDbEntity
  8
1
100
AcDbLine
 10
274.904842
 20
267.907994
 30
0.0
 11
279.404842
 21
267.907994
 31
0.0
  0
LINE
  5
143
330
1F
100
AcDbEntity
  8
NOCUT
100
AcDbLine
 10
289.392334
 20
306.407994
 30
0.0
 11
442.1645169999999
 21
306.407994
 31
0.0
  0
LINE
  5
144
330
1F
100
AcDbEntity
  8
NOCUT
100
AcDbLine
 10
442.1645169999999
 20
306.407994
 30
0.0
 11
442.584842
 21
294.474829
 31
0.0
  0
LINE
  5
145
330
1F
100
AcDbEntity
  8
NOCUT
100
AcDbLine
 10
442.584842
 20
294.474829
 30
0.0
 11
442.584842
 21
288.907994
 31
0.0
  0
LINE
  5
146
330
1F
100
AcDbEntity
  8
NOCUT
100
AcDbLine
 10
442.584842
 20
288.907994
 30
0.0
 11
214.404842
 21
288.907994
 31
0.0
  0
LINE
  5
147
330
1F
100
AcDbEntity
  8
NOCUT
100
AcDbLine
 10
274.404842
 20
304.907994
 30
0.0
 11
274.404842
 21
309.407994
 31
0.0
  0
LINE
  5
148
330
1F
100
AcDbEntity
  8
NOCUT
100
AcDbLine
 10
274.404842
 20
309.407994
 30
0.0
 11
274.904842
 21
309.907994
 31
0.0
  0
LINE
  5
149
330
1F
100
AcDbEntity
  8
NOCUT
100
AcDbLine
 10
214.404842
 20
302.907994
 30
0.0
 11
216.404842
 21
304.907994
 31
0.0
  0
LINE
  5
14A
330
1F
100
AcDbEntity
  8
NOCUT
100
AcDbLine
 10
274.404842
 20
304.907994
 30
0.0
 11
216.404842
 21
304.907994
 31
0.0
  0
LINE
  5
14B
330
1F
100
AcDbEntity
  8
NOCUT
100
AcDbLine
 10
214.404842
 20
302.907994
 30
0.0
 11
214.404842
 21
288.907994
 31
0.0
  0
LINE
  5
14C
330
1F
100
AcDbEntity
  8
NOCUT
100
AcDbLine
 10
279.404842
 20
309.907994
 30
0.0
 11
274.904842
 21
309.907994
 31
0.0
  0
ARC
  5
155
330
1F
100
AcDbEntity
  8
1
100
AcDbCircle
 10
289.392334
 20
255.407994
 30
0.0
 40
16.0
100
AcDbArc
 50
90.0
 51
128.624833
  0
ARC
  5
156
330
1F
100
AcDbEntity
  8
1
100
AcDbCircle
 10
289.392334
 20
322.407994
 30
0.0
 40
16.0
100
AcDbArc
 50
231.375167
 51
270.0
  0
ARC
  5
157
330
1F
100
AcDbEntity
  8
1
100
AcDbCircle
 10
437.418941
 20
284.60888
 30
0.0
 40
1.75
100
AcDbArc
 50
75.0
 51
345.0
  0
CIRCLE
  5
158
330
1F
100
AcDbEntity
  8
1
100
AcDbCircle
 10
437.418941
 20
284.60888
 30
0.0
 40
1.35
  0
ARC
  5
163
330
1F
100
AcDbEntity
  8
NOCUT
100
AcDbCircle
 10
289.392334
 20
322.407994
 30
0.0
 40
16.0
100
AcDbArc
 50
231.375167
 51
270.0
  0
ELLIPSE
  5
164
330
1F
100
AcDbEntity
  8
1
100
AcDbEllipse
 10
441.761969
 20
287.67976
 30
0.0
 11
-0.3115396276772998
 21
-0.0776755531752887
 31
0.0
210
-0.0000000000000001
220
0.0
230
1.0
 40
0.6229040000000001
 41
2.976210626445514
 42
3.306974680734071
  0
ELLIPSE
  5
165
330
1F
100
AcDbEntity
  8
1
100
AcDbEllipse
 10
436.310234
 20
300.1375910000001
 30
0.0
 11
-3.395004864809728
 21
1.197473159581581
 31
0.0
210
0.0
220
0.0
230
0.9999999999999998
 40
0.9986239999999998
 41
3.141585274248858
 42
5.872218228534562
  0
ELLIPSE
  5
166
330
1F
100
AcDbEntity
  8
1
100
AcDbEllipse
 10
436.310234
 20
300.1375910000001
 30
0.0
 11
-3.395004864809728
 21
1.197473159581581
 31
0.0
210
0.0
220
0.0
230
0.9999999999999998
 40
0.9986239999999998
 41
5.872218228534567
 42
6.283185307179585
  0
ELLIPSE
  5
167
330
1F
100
AcDbEntity
  8
1
100
AcDbEllipse
 10
436.2941039999999
 20
300.091861
 30
0.0
 11
3.395004864809725
 21
-1.197473159581583
 31
0.0
210
0.0
220
0.0
230
1.0
 40
0.9986239999999998
 41
0.0
 42
6.283185307179585
  0
ELLIPSE
  5
168
330
1F
100
AcDbEntity
  8
1
100
AcDbEllipse
 10
434.905622
 20
300.687457
 30
0.0
 11
-0.0898897536456661
 21
0.0317055708602404
 31
0.0
210
0.0
220
0.0
230
0.9999999999999998
 40
0.998624
 41
3.886489476374975
 42
4.563221393255915
  0
ELLIPSE
  5
169
330
1F
100
AcDbEntity
  8
1
100
AcDbEllipse
 10
434.9949599999999
 20
300.855572
 30
0.0
 11
-0.089889753645666
 21
0.0317055708602404
 31
0.0
210
0.0
220
0.0
230
0.9999999999999998
 40
0.998624
 41
0.2212980471867858
 42
1.421628739665532
  0
ELLIPSE
  5
16A
330
1F
100
AcDbEntity
  8
1
100
AcDbEllipse
 10
435.4969829999999
 20
300.7960109999999
 30
0.0
 11
-0.5666776289729548
 21
0.1998763706833374
 31
0.0
210
0.0
220
0.0
230
1.0
 40
0.9986239999999998
 41
5.239953310136202
 42
6.504483354366371
  0
ELLIPSE
  5
16B
330
1F
100
AcDbEntity
  8
1
100
AcDbEllipse
 10
435.402059
 20
301.292069
 30
0.0
 11
-0.0898897536456681
 21
0.0317055708602411
 31
0.0
210
0.0
220
0.0
230
1.0
 40
0.9986239999999998
 41
4.039622617657117
 42
5.239953310135856
  0
ELLIPSE
  5
16C
330
1F
100
AcDbEntity
  8
1
100
AcDbEllipse
 10
435.563615
 20
301.392966
 30
0.0
 11
-0.0898897536456681
 21
0.0317055708602411
 31
0.0
210
0.0
220
0.0
230
1.0
 40
0.9986239999999998
 41
0.898029964067464
 42
1.57476188094789
  0
ELLIPSE
  5
16D
330
1F
100
AcDbEntity
  8
1
100
AcDbEllipse
 10
435.729662
 20
301.869761
 30
0.0
 11
-0.5666776289729545
 21
0.1998763706833373
 31
0.0
210
0.0
220
0.0
230
1.0
 40
0.9986239999999998
 41
1.574761880948154
 42
2.83929192517834
  0
ELLIPSE
  5
16E
330
1F
100
AcDbEntity
  8
1
100
AcDbEllipse
 10
436.1348309999999
 20
301.567464
 30
0.0
 11
-0.0898897536456661
 21
0.0317055708602404
 31
0.0
210
0.0
220
0.0
230
0.9999999999999998
 40
0.998624
 41
2.839291925178419
 42
3.516023842059044
  0
ELLIPSE
  5
16F
330
1F
100
AcDbEntity
  8
1
100
AcDbEllipse
 10
436.325315
 20
301.574109
 30
0.0
 11
-0.089889753645666
 21
0.0317055708602404
 31
0.0
210
0.0
220
0.0
230
0.9999999999999998
 40
0.998624
 41
5.457285803169855
 42
6.657616495648807
  0
ELLIPSE
  5
170
330
1F
100
AcDbEntity
  8
1
100
AcDbEllipse
 10
436.525066
 20
301.110074
 30
0.0
 11
-0.5666776289729548
 21
0.1998763706833374
 31
0.0
210
0.0
220
0.0
230
1.0
 40
0.9986239999999998
 41
4.192755758939573
 42
5.457285803169768
  0
ELLIPSE
  5
171
330
1F
100
AcDbEntity
  8
1
100
AcDbEllipse
 10
436.9075919999999
 20
301.43985
 30
0.0
 11
-0.0898897536456681
 21
0.0317055708602411
 31
0.0
210
0.0
220
0.0
230
1.0
 40
0.9986239999999998
 41
2.992425066460651
 42
4.19275575893989
  0
ELLIPSE
  5
172
330
1F
100
AcDbEntity
  8
1
100
AcDbEllipse
 10
437.0759639999999
 20
301.350462
 30
0.0
 11
-0.0898897536456681
 21
0.0317055708602411
 31
0.0
210
0.0
220
0.0
230
1.0
 40
0.9986239999999998
 41
6.134017720050445
 42
6.810749636930967
  0
ELLIPSE
  5
173
330
1F
100
AcDbEntity
  8
1
100
AcDbEllipse
 10
437.572472
 20
301.444856
 30
0.0
 11
-0.5666776289729545
 21
0.1998763706833373
 31
0.0
210
0.0
220
0.0
230
1.0
 40
0.9986239999999998
 41
0.5275643297515483
 42
1.79209437398177
  0
ELLIPSE
  5
174
330
1F
100
AcDbEntity
  8
1
100
AcDbEllipse
 10
437.5132809999999
 20
300.943422
 30
0.0
 11
-0.0898897536456661
 21
0.0317055708602404
 31
0.0
210
0.0
220
0.0
230
0.9999999999999998
 40
0.998624
 41
1.792094373982191
 42
2.468826290862772
  0
ELLIPSE
  5
175
330
1F
100
AcDbEntity
  8
1
100
AcDbEllipse
 10
437.614426
 20
300.781952
 30
0.0
 11
-0.089889753645666
 21
0.0317055708602404
 31
0.0
210
0.0
220
0.0
230
0.9999999999999998
 40
0.998624
 41
4.410088251973014
 42
5.610418944452263
  0
ELLIPSE
  5
176
330
1F
100
AcDbEntity
  8
1
100
AcDbEllipse
 10
437.312154
 20
300.377479
 30
0.0
 11
-0.5666776289729548
 21
0.1998763706833374
 31
0.0
210
0.0
220
0.0
230
1.0
 40
0.9986239999999998
 41
3.145558207742977
 42
4.410088251973183
  0
ELLIPSE
  5
177
330
1F
100
AcDbEntity
  8
1
100
AcDbEllipse
 10
437.789604
 20
300.211197
 30
0.0
 11
-0.0898897536456681
 21
0.0317055708602411
 31
0.0
210
0.0
220
0.0
230
1.0
 40
0.9986239999999998
 41
1.945227515264083
 42
3.145558207743123
  0
ELLIPSE
  5
178
330
1F
100
AcDbEntity
  8
1
100
AcDbEllipse
 10
437.796421
 20
300.020912
 30
0.0
 11
-0.0898897536456681
 21
0.0317055708602411
 31
0.0
210
0.0
220
0.0
230
1.0
 40
0.9986239999999998
 41
5.086820168853931
 42
5.763552085734752
  0
ELLIPSE
  5
179
330
1F
100
AcDbEntity
  8
1
100
AcDbEllipse
 10
438.1268809999999
 20
299.63851
 30
0.0
 11
-0.5666776289729545
 21
0.1998763706833373
 31
0.0
210
0.0
220
0.0
230
1.0
 40
0.9986239999999998
 41
5.76355208573454
 42
7.02808212996469
  0
ELLIPSE
  5
17A
330
1F
100
AcDbEntity
  8
1
100
AcDbEllipse
 10
437.6625209999999
 20
299.4393740000001
 30
0.0
 11
-0.0898897536456661
 21
0.0317055708602404
 31
0.0
210
0.0
220
0.0
230
0.9999999999999998
 40
0.998624
 41
0.7448968227853845
 42
1.421628739666121
  0
ELLIPSE
  5
17B
330
1F
100
AcDbEntity
  8
1
100
AcDbEllipse
 10
437.573183
 20
299.27126
 30
0.0
 11
-0.089889753645666
 21
0.0317055708602404
 31
0.0
210
0.0
220
0.0
230
0.9999999999999998
 40
0.998624
 41
3.362890700776578
 42
4.563221393255326
  0
ELLIPSE
  5
17C
330
1F
100
AcDbEntity
  8
1
100
AcDbEllipse
 10
437.0711599999999
 20
299.33082
 30
0.0
 11
-0.5666776289729548
 21
0.1998763706833374
 31
0.0
210
0.0
220
0.0
230
1.0
 40
0.9986239999999998
 41
2.09836065654641
 42
3.362890700776566
  0
ELLIPSE
  5
17D
330
1F
100
AcDbEntity
  8
1
100
AcDbEllipse
 10
437.166084
 20
298.834763
 30
0.0
 11
-0.0898897536456681
 21
0.0317055708602411
 31
0.0
210
0.0
220
0.0
230
1.0
 40
0.9986239999999998
 41
0.8980299640672775
 42
2.098360656546101
  0
ELLIPSE
  5
17E
330
1F
100
AcDbEntity
  8
1
100
AcDbEllipse
 10
437.004528
 20
298.733865
 30
0.0
 11
-0.0898897536456681
 21
0.0317055708602411
 31
0.0
210
0.0
220
0.0
230
1.0
 40
0.9986239999999998
 41
4.039622617656931
 42
4.716354534537384
  0
ELLIPSE
  5
17F
330
1F
100
AcDbEntity
  8
1
100
AcDbEllipse
 10
436.8384809999999
 20
298.25707
 30
0.0
 11
-0.5666776289729545
 21
0.1998763706833373
 31
0.0
210
0.0
220
0.0
230
1.0
 40
0.9986239999999998
 41
4.7163545345379
 42
5.980884578768056
  0
ELLIPSE
  5
180
330
1F
100
AcDbEntity
  8
1
100
AcDbEllipse
 10
436.433312
 20
298.559368
 30
0.0
 11
-0.0898897536456661
 21
0.0317055708602404
 31
0.0
210
0.0
220
0.0
230
0.9999999999999998
 40
0.998624
 41
5.980884578768052
 42
6.657616495648557
  0
ELLIPSE
  5
181
330
1F
100
AcDbEntity
  8
1
100
AcDbEllipse
 10
436.242828
 20
298.552723
 30
0.0
 11
-0.089889753645666
 21
0.0317055708602404
 31
0.0
210
0.0
220
0.0
230
0.9999999999999998
 40
0.998624
 41
2.315693149579844
 42
3.516023842058904
  0
ELLIPSE
  5
182
330
1F
100
AcDbEntity
  8
1
100
AcDbEllipse
 10
436.0430769999999
 20
299.016757
 30
0.0
 11
-0.5666776289729548
 21
0.1998763706833374
 31
0.0
210
0.0
220
0.0
230
1.0
 40
0.9986239999999998
 41
1.05116310534978
 42
2.315693149579983
  0
ELLIPSE
  5
183
330
1F
100
AcDbEntity
  8
1
100
AcDbEllipse
 10
435.660551
 20
298.686981
 30
0.0
 11
-0.0898897536456681
 21
0.0317055708602411
 31
0.0
210
0.0
220
0.0
230
1.0
 40
0.9986239999999998
 41
6.134017720050519
 42
7.334348412529018
  0
ELLIPSE
  5
184
330
1F
100
AcDbEntity
  8
1
100
AcDbEllipse
 10
435.492179
 20
298.77637
 30
0.0
 11
-0.0898897536456681
 21
0.0317055708602411
 31
0.0
210
0.0
220
0.0
230
1.0
 40
0.9986239999999998
 41
2.992425066460799
 42
3.669156983341283
  0
ELLIPSE
  5
185
330
1F
100
AcDbEntity
  8
1
100
AcDbEllipse
 10
434.9956709999999
 20
298.6819759999999
 30
0.0
 11
-0.5666776289729545
 21
0.1998763706833373
 31
0.0
210
0.0
220
0.0
230
1.0
 40
0.9986239999999998
 41
3.66915698334133
 42
4.933687027571508
  0
ELLIPSE
  5
186
330
1F
100
AcDbEntity
  8
1
100
AcDbEllipse
 10
435.054862
 20
299.183409
 30
0.0
 11
-0.0898897536456661
 21
0.0317055708602404
 31
0.0
210
0.0
220
0.0
230
0.9999999999999998
 40
0.998624
 41
4.93368702757171
 42
5.610418944452497
  0
ELLIPSE
  5
187
330
1F
100
AcDbEntity
  8
1
100
AcDbEllipse
 10
434.9537169999999
 20
299.344879
 30
0.0
 11
-0.089889753645666
 21
0.0317055708602404
 31
0.0
210
0.0
220
0.0
230
0.9999999999999998
 40
0.998624
 41
1.268495598383265
 42
2.46882629086205
  0
ELLIPSE
  5
188
330
1F
100
AcDbEntity
  8
1
100
AcDbEllipse
 10
435.2559889999999
 20
299.749353
 30
0.0
 11
-0.5666776289729548
 21
0.1998763706833374
 31
0.0
210
0.0
220
0.0
230
1.0
 40
0.9986239999999998
 41
0.0039655541532317
 42
1.2684955983834
  0
ELLIPSE
  5
189
330
1F
100
AcDbEntity
  8
1
100
AcDbEllipse
 10
434.7785389999999
 20
299.915634
 30
0.0
 11
-0.0898897536456681
 21
0.0317055708602411
 31
0.0
210
0.0
220
0.0
230
1.0
 40
0.9986239999999998
 41
5.086820168853903
 42
6.287150861332914
  0
ELLIPSE
  5
18A
330
1F
100
AcDbEntity
  8
1
100
AcDbEllipse
 10
434.7717219999999
 20
300.10592
 30
0.0
 11
-0.0898897536456681
 21
0.0317055708602411
 31
0.0
210
0.0
220
0.0
230
1.0
 40
0.9986239999999998
 41
1.945227515264056
 42
2.621959432144766
  0
ELLIPSE
  5
18B
330
1F
100
AcDbEntity
  8
1
100
AcDbEllipse
 10
434.4412619999999
 20
300.488322
 30
0.0
 11
-0.5666776289729545
 21
0.1998763706833373
 31
0.0
210
0.0
220
0.0
230
1.0
 40
0.9986239999999998
 41
2.621959432144693
 42
3.88648947637488
  0
ELLIPSE
  5
18C
330
1F
100
AcDbEntity
  8
1
100
AcDbEllipse
 10
436.2840709999999
 20
300.063416
 30
0.0
 11
1.98041950447234
 21
-0.698526009755924
 31
0.0
210
0.0
220
0.0
230
1.0
 40
0.9986239999999998
 41
0.0
 42
6.283185307179585
  0
ELLIPSE
  5
18D
330
1F
100
AcDbEntity
  8
1
100
AcDbEllipse
 10
436.4794139999999
 20
300.328496
 30
0.0
 11
3.531988007444661
 21
-1.245789330883938
 31
0.0
210
0.0
220
0.0
230
1.0
 40
0.9986239999999998
 41
1.945227552038378
 42
3.356097206659879
  0
ELLIPSE
  5
18E
330
1F
100
AcDbEntity
  8
1
100
AcDbEllipse
 10
436.4794139999999
 20
300.328496
 30
0.0
 11
3.531988007444661
 21
-1.245789330883938
 31
0.0
210
0.0
220
0.0
230
1.0
 40
0.9986239999999998
 41
5.419043491545747
 42
6.283185307179585
  0
ELLIPSE
  5
18F
330
1F
100
AcDbEntity
  8
1
100
AcDbEllipse
 10
436.4794139999999
 20
300.328496
 30
0.0
 11
3.531988007444661
 21
-1.245789330883938
 31
0.0
210
0.0
220
0.0
230
1.0
 40
0.9986239999999998
 41
0.0
 42
1.508938775396913
  0
ELLIPSE
  5
190
330
1F
100
AcDbEntity
  8
1
100
AcDbEllipse
 10
436.4794139999999
 20
300.328496
 30
0.0
 11
3.531988007444661
 21
-1.245789330883938
 31
0.0
210
0.0
220
0.0
230
1.0
 40
0.9986239999999998
 41
1.63254085945862
 42
1.945227552038378
  0
ELLIPSE
  5
191
330
1F
100
AcDbEntity
  8
1
100
AcDbEllipse
 10
431.706923
 20
295.163307
 30
0.0
 11
0.4817434592764955
 21
0.5170545786645403
 31
0.0
210
0.0
220
0.0
230
1.0
 40
0.01483
 41
0.5198738242325245
 42
1.536779664698268
  0
ELLIPSE
  5
192
330
1F
100
AcDbEntity
  8
1
100
AcDbEllipse
 10
436.4596179999999
 20
300.27237
 30
0.0
 11
3.588083700633127
 21
-1.265575189707758
 31
0.0
210
0.0
220
0.0
230
1.0
 40
0.9986239999999998
 41
1.945227451328575
 42
3.745261875445966
  0
ELLIPSE
  5
193
330
1F
100
AcDbEntity
  8
1
100
AcDbEllipse
 10
436.4596179999999
 20
300.27237
 30
0.0
 11
3.588083700633127
 21
-1.265575189707758
 31
0.0
210
0.0
220
0.0
230
1.0
 40
0.9986239999999998
 41
4.874566385899286
 42
6.283185307179585
  0
ELLIPSE
  5
194
330
1F
100
AcDbEntity
  8
1
100
AcDbEllipse
 10
436.4596179999999
 20
300.27237
 30
0.0
 11
3.588083700633127
 21
-1.265575189707758
 31
0.0
210
0.0
220
0.0
230
1.0
 40
0.9986239999999998
 41
0.0
 42
1.945227440221053
  0
ELLIPSE
  5
195
330
1F
100
AcDbEntity
  8
1
100
AcDbEllipse
 10
441.549608
 20
295.506664
 30
0.0
 11
0.5172967686527624
 21
-0.4819691094191736
 31
0.0
210
0.0
220
0.0
230
1.0
 40
0.033998
 41
1.585610887602733
 42
2.602516728116674
  0
ELLIPSE
  5
196
330
1F
100
AcDbEntity
  8
1
100
AcDbEllipse
 10
431.3546969999999
 20
304.995748
 30
0.0
 11
0.5172967686990733
 21
-0.4819691094696372
 31
0.0
210
0.0
220
0.0
230
1.0
 40
0.033998
 41
0.568705047412263
 42
1.58561088783953
  0
ELLIPSE
  5
197
330
1F
100
AcDbEntity
  8
1
100
AcDbEllipse
 10
441.1973829999999
 20
305.339104
 30
0.0
 11
0.4817434596853455
 21
0.5170545790964183
 31
0.0
210
0.0
220
0.0
230
1.0
 40
0.01483
 41
1.536779665203448
 42
2.553685504933253
  0
ELLIPSE
  5
198
330
1F
100
AcDbEntity
  8
1
100
AcDbEllipse
 10
436.45674
 20
300.264211
 30
0.0
 11
-3.677921936877202
 21
1.297262589546711
 31
0.0
210
0.0
220
0.0
230
1.0
 40
0.9986239999999998
 41
0.0
 42
6.283185307179585
  0
ELLIPSE
  5
199
330
1F
100
AcDbEntity
  8
1
100
AcDbEllipse
 10
441.6462169999999
 20
281.048354
 30
0.0
 11
-0.3086390084417319
 21
0.0885008115358406
 31
0.0
210
0.0
220
0.0
230
0.9999999999999998
 40
0.6229040000000001
 41
2.976210626445484
 42
3.306974680734084
  0
ELLIPSE
  5
19A
330
1F
100
AcDbEntity
  8
1
100
AcDbEllipse
 10
442.473427
 20
289.155723
 30
0.0
 11
0.1593661331055318
 21
-0.2546671895828672
 31
0.0
210
0.0
220
0.0
230
1.0
 40
0.9668319999999999
 41
1.515965208353228
 42
2.029724466986313
  0
ELLIPSE
  5
19B
330
1F
100
AcDbEntity
  8
1
100
AcDbEllipse
 10
443.105838
 20
288.014824
 30
0.0
 11
0.131518841336674
 21
-0.2701031954874948
 31
0.0
210
0.0
220
0.0
230
1.0
 40
0.9668319999999999
 41
1.111868186431208
 42
1.625627445041127
  0
ELLIPSE
  5
19C
330
1F
100
AcDbEntity
  8
1
100
AcDbEllipse
 10
442.305732
 20
279.54846
 30
0.0
 11
0.2546671892146737
 21
0.1593661335173118
 31
0.0
210
0.0
220
0.0
230
1.0
 40
0.9668319999999999
 41
4.657557860050578
 42
5.171317118840738
  0
ELLIPSE
  5
19D
330
1F
100
AcDbEntity
  8
1
100
AcDbEllipse
 10
442.969907
 20
280.668792
 30
0.0
 11
-0.2941597133632818
 21
0.0843489404830548
 31
0.0
210
0.0
220
0.0
230
0.9999999999999998
 40
0.9803469999999999
 41
2.884713024277101
 42
3.398472282902498
  0
ELLIPSE
  5
19E
330
1F
100
AcDbEntity
  8
1
100
AcDbEllipse
 10
442.2487359999999
 20
280.875584
 30
0.0
 11
0.3598828442838686
 21
-0.0632201113303071
 31
0.0
210
0.0
220
0.0
230
0.9999999999999998
 40
0.81881
 41
6.264719815152937
 42
6.411625132744285
  0
ELLIPSE
  5
19F
330
1F
100
AcDbEntity
  8
1
100
AcDbEllipse
 10
442.3701499999999
 20
287.831396
 30
0.0
 11
0.3618699860539712
 21
0.0506218687033943
 31
0.0
210
0.0
220
0.0
230
0.9999999999999998
 40
0.81881
 41
6.154745493683691
 42
6.301650806778289
  0
ELLIPSE
  5
1A0
330
1F
100
AcDbEntity
  8
1
100
AcDbEllipse
 10
442.3701499999999
 20
287.831396
 30
0.0
 11
0.3432777556512248
 21
0.1251912078041474
 31
0.0
210
0.0
220
0.0
230
0.9999999999999996
 40
0.8188099999999998
 41
6.264719809601582
 42
6.411625123899657
  0
ELLIPSE
  5
1A1
330
1F
100
AcDbEntity
  8
1
100
AcDbEllipse
 10
441.928017
 20
288.6290259999999
 30
0.0
 11
0.288077652097305
 21
0.2247748087115096
 31
0.0
210
0.0
220
0.0
230
0.9999999999999998
 40
0.81881
 41
6.154745486187633
 42
6.301650802623576
  0
ELLIPSE
  5
1A2
330
1F
100
AcDbEntity
  8
1
100
AcDbEllipse
 10
441.928017
 20
288.6290259999999
 30
0.0
 11
0.2346916489567667
 21
0.2800576377522885
 31
0.0
210
0.0
220
0.0
230
1.0
 40
0.8188099999999998
 41
6.264719811546395
 42
6.411625127353691
  0
ELLIPSE
  5
1A3
330
1F
100
AcDbEntity
  8
1
100
AcDbEllipse
 10
441.7790349999999
 20
280.0938700000001
 30
0.0
 11
0.2800576451639861
 21
-0.2346916538219
 31
0.0
210
0.0
220
0.0
230
1.0
 40
0.81881
 41
6.264719809456401
 42
6.411625123492272
  0
ELLIPSE
  5
1A4
330
1F
100
AcDbEntity
  8
1
100
AcDbEllipse
 10
442.2487359999999
 20
280.875584
 30
0.0
 11
0.3386995422297377
 21
-0.1370951729220757
 31
0.0
210
0.0
220
0.0
230
1.0
 40
0.81881
 41
6.154745497838299
 42
6.301650809293642
  0
ELLIPSE
  5
1A5
330
1F
100
AcDbEntity
  8
1
100
AcDbEllipse
 10
441.7790349999999
 20
280.0938700000001
 30
0.0
 11
0.2247748100979873
 21
-0.2880776536382202
 31
0.0
210
0.0
220
0.0
230
1.0
 40
0.8188100000000002
 41
6.154745486226036
 42
6.301650802248072
  0
ELLIPSE
  5
1A6
330
1F
100
AcDbEntity
  8
1
100
AcDbEllipse
 10
432.4143309999999
 20
309.824231
 30
0.0
 11
7.101484973171639
 21
15.8050187592769
 31
0.0
210
0.0
220
0.0
230
0.9999999999999998
 40
0.724951
 41
3.072033633658511
 42
3.078240988785712
  0
ELLIPSE
  5
1A7
330
1F
100
AcDbEntity
  8
1
100
AcDbEllipse
 10
434.55256
 20
288.907994
 30
0.0
 11
30.01425516125606
 21
-17.26491452781028
 31
0.0
210
0.0
220
0.0
230
1.0
 40
0.095248
 41
4.263899034076017
 42
4.433900572935892
  0
ELLIPSE
  5
1A8
330
1F
100
AcDbEntity
  8
1
100
AcDbEllipse
 10
303.956
 20
288.906823
 30
0.0
 11
3.491173331442691
 21
17.48882534772284
 31
0.0
210
0.0
220
0.0
230
1.0
 40
0.164641
 41
4.34451087934629
 42
4.349517502586321
  0
ELLIPSE
  5
1A9
330
1F
100
AcDbEntity
  8
1
100
AcDbEllipse
 10
430.7760159999999
 20
288.907993
 30
0.0
 11
0.5852444493037057
 21
-17.49999654899476
 31
0.0
210
0.0
220
0.0
230
0.9999999999999998
 40
0.0191
 41
3.01761010803714
 42
3.107063563927289
  0
ELLIPSE
  5
1AA
330
1F
100
AcDbEntity
  8
1
100
AcDbEllipse
 10
431.9546159999999
 20
295.441187
 30
0.0
 11
2.357642267228976
 21
-0.8315785830427662
 31
0.0
210
0.0
220
0.0
230
1.0
 40
0.9986239999999998
 41
5.637542175041879
 42
5.809792633311536
  0
ELLIPSE
  5
1AB
330
1F
100
AcDbEntity
  8
1
100
AcDbEllipse
 10
430.5999759999999
 20
288.907994
 30
0.0
 11
0.4906897036468618
 21
-17.49986412547022
 31
0.0
210
0.0
220
0.0
230
0.9999999999999998
 40
0.140543
 41
3.103761567445046
 42
3.219413948443471
  0
ELLIPSE
  5
1AC
330
1F
100
AcDbEntity
  8
1
100
AcDbEllipse
 10
323.557446
 20
288.907993
 30
0.0
 11
457.2636835367638
 21
17.06585258824078
 31
0.0
210
0.0
220
0.0
230
0.9999999999999998
 40
0.008472
 41
4.950195404938511
 42
4.969846154269625
  0
ELLIPSE
  5
1AD
330
1F
100
AcDbEntity
  8
1
100
AcDbEllipse
 10
441.683969
 20
279.392867
 30
0.0
 11
0.053877002434844
 21
0.4991611425064957
 31
0.0
210
0.0
220
0.0
230
1.0
 40
0.139171
 41
1.583568179242821
 42
3.154364506042884
  0
ELLIPSE
  5
1AE
330
1F
100
AcDbEntity
  8
1
100
AcDbEllipse
 10
442.083111
 20
289.18504
 30
0.0
 11
0.0001758288822695
 21
-0.5000776676664265
 31
0.0
210
0.0
220
0.0
230
0.9999999999999998
 40
0.140519
 41
3.139090475969517
 42
4.70988680276308
  0
ELLIPSE
  5
1AF
330
1F
100
AcDbEntity
  8
1
100
AcDbEllipse
 10
327.131461
 20
288.907994
 30
0.0
 11
67.63096134237194
 21
-13.50001670763588
 31
0.0
210
0.0
220
0.0
230
0.9999999999999998
 40
0.164651
 41
4.26300360792454
 42
4.418434149521531
  0
ELLIPSE
  5
1B0
330
1F
100
AcDbEntity
  8
1
100
AcDbEllipse
 10
431.959848
 20
295.456022
 30
0.0
 11
-2.357642267228976
 21
0.8315785830427641
 31
0.0
210
0.0
220
0.0
230
1.0
 40
0.9986239999999998
 41
2.668199979721745
 42
2.776747666076893
  0
ELLIPSE
  5
1B1
330
1F
100
AcDbEntity
  8
1
100
AcDbEllipse
 10
442.3293089999999
 20
293.649559
 30
0.0
 11
0.0003016037634527
 21
0.5003084758555556
 31
0.0
210
0.0
220
0.0
230
1.0
 40
0.140101
 41
3.195395734393259
 42
4.766192061193645
  0
ELLIPSE
  5
1B2
330
1F
100
AcDbEntity
  8
1
100
AcDbEllipse
 10
443.1956079999999
 20
288.907994
 30
0.0
 11
1.894178464854908
 21
17.49802084119105
 31
0.0
210
0.0
220
0.0
230
1.0
 40
0.138944
 41
1.920898967582173
 42
3.156632395651073
  0
ELLIPSE
  5
1B3
330
1F
100
AcDbEntity
  8
1
100
AcDbEllipse
 10
442.584842
 20
288.907994
 30
0.0
 11
0.0
 21
17.49999999824769
 31
0.0
210
0.0
220
0.0
230
1.0
 40
0.140541
 41
1.5365523212614
 42
1.905859225555159
  0
ELLIPSE
  5
1B4
330
1F
100
AcDbEntity
  8
1
100
AcDbEllipse
 10
432.041127
 20
295.686459
 30
0.0
 11
-2.357642267228976
 21
0.8315785830427637
 31
0.0
210
0.0
220
0.0
230
1.0
 40
0.998624
 41
0.0520252572636104
 42
1.945227431237593
  0
ELLIPSE
  5
1B5
330
1F
100
AcDbEntity
  8
1
100
AcDbEllipse
 10
432.041127
 20
295.686459
 30
0.0
 11
-2.357642267228976
 21
0.8315785830427637
 31
0.0
210
0.0
220
0.0
230
1.0
 40
0.998624
 41
1.945227431237593
 42
2.645311779347055
  0
ELLIPSE
  5
1B6
330
1F
100
AcDbEntity
  8
1
100
AcDbEllipse
 10
431.959848
 20
295.456022
 30
0.0
 11
-2.357642267228976
 21
0.8315785830427641
 31
0.0
210
0.0
220
0.0
230
1.0
 40
0.9986239999999998
 41
5.822888314034132
 42
5.942244189143312
  0
ELLIPSE
  5
1B7
330
1F
100
AcDbEntity
  8
1
100
AcDbEllipse
 10
431.9546159999999
 20
295.441187
 30
0.0
 11
2.357642267228976
 21
-0.8315785830427662
 31
0.0
210
0.0
220
0.0
230
1.0
 40
0.9986239999999998
 41
2.800651535553513
 42
4.525803034524075
  0
ELLIPSE
  5
1B8
330
1F
100
AcDbEntity
  8
1
100
AcDbEllipse
 10
430.3055409999999
 20
288.908004
 30
0.0
 11
0.5852440721021671
 21
-17.49998585753993
 31
0.0
210
0.0
220
0.0
230
0.9999999999999998
 40
0.0191
 41
3.222492201461196
 42
3.239647247004866
  0
ELLIPSE
  5
1B9
330
1F
100
AcDbEntity
  8
1
100
AcDbEllipse
 10
380.409637
 20
288.934009
 30
0.0
 11
1002.432978219619
 21
-0.866366949094607
 31
0.0
210
0.0
220
0.0
230
0.9999999999999998
 40
0.01741
 41
1.521630408920376
 42
1.524385393983344
  0
ELLIPSE
  5
1BA
330
1F
100
AcDbEntity
  8
1
100
AcDbEllipse
 10
430.833024
 20
305.341446
 30
0.0
 11
-11.88251702683405
 21
4.191156058535533
 31
0.0
210
0.0
220
0.0
230
1.0
 40
0.9986239999999998
 41
1.386722154625867
 42
1.945227515264127
  0
SPLINE
  5
1CC
330
1F
100
AcDbEntity
  8
1
100
AcDbSpline
210
0.0
220
0.0
230
1.0
 70
     8
 71
     3
 72
    12
 73
     8
 74
     0
 42
0.000000001
 43
0.0000000001
 40
0.0
 40
0.0
 40
0.0
 40
0.0
 40
0.2500000000000001
 40
0.5
 40
0.75
 40
0.75
 40
1.0
 40
1.0
 40
1.0
 40
1.0
 10
300.4305763687542
 20
271.425465208184
 30
0.0
 10
300.630963649855
 20
271.4285446326695
 30
0.0
 10
301.034625764875
 20
271.4347460063926
 30
0.0
 10
301.6487468821384
 20
271.442608762853
 30
0.0
 10
302.0639649381976
 20
271.4461153125754
 30
0.0
 10
302.4821506079201
 20
271.4484951475329
 30
0.0
 10
302.6927270452579
 20
271.4491214043869
 30
0.0
 10
302.904841945291
 20
271.4491214043869
 30
0.0
  0
SPLINE
  5
1CD
330
1F
100
AcDbEntity
  8
1
100
AcDbSpline
210
0.0
220
0.0
230
1.0
 70
     8
 71
     3
 72
    14
 73
    10
 74
     0
 42
0.000000001
 43
0.0000000001
 40
0.0
 40
0.0
 40
0.0
 40
0.0
 40
0.25
 40
0.25
 40
0.5
 40
0.5
 40
0.75
 40
0.75
 40
1.0
 40
1.0
 40
1.0
 40
1.0
 10
322.5648376256412
 20
272.0009969871969
 30
0.0
 10
320.9299690431693
 20
271.9238089684158
 30
0.0
 10
319.2944996847129
 20
271.8549514127214
 30
0.0
 10
316.0219715947572
 20
271.733259840253
 30
0.0
 10
314.3849119204659
 20
271.6804280261878
 30
0.0
 10
311.1087898385555
 20
271.5898791438208
 30
0.0
 10
309.4697265102334
 20
271.5521626473234
 30
0.0
 10
306.1891882406579
 20
271.4906149386157
 30
0.0
 10
304.5477124727774
 20
271.4667827510919
 30
0.0
 10
302.9048419452957
 20
271.4491214043869
 30
0.0
  0
SPLINE
  5
1CE
330
1F
100
AcDbEntity
  8
1
100
AcDbSpline
210
0.0
220
0.0
230
1.0
 70
     8
 71
     3
 72
   109
 73
   105
 74
     0
 42
0.000000001
 43
0.0000000001
 40
0.0
 40
0.0
 40
0.0
 40
0.0
 40
0.0156249999999991
 40
0.0156249999999991
 40
0.0312499999999983
 40
0.0312499999999983
 40
0.0624999999999978
 40
0.0624999999999978
 40
0.0781249999999975
 40
0.0781249999999975
 40
0.0937499999999972
 40
0.0937499999999972
 40
0.109374999999997
 40
0.109374999999997
 40
0.1249999999999967
 40
0.1406249999999964
 40
0.1406249999999964
 40
0.1562499999999962
 40
0.1562499999999962
 40
0.1874999999999959
 40
0.1874999999999959
 40
0.2031249999999959
 40
0.2031249999999959
 40
0.218749999999996
 40
0.218749999999996
 40
0.2343749999999961
 40
0.2343749999999961
 40
0.2499999999999962
 40
0.2656249999999963
 40
0.2656249999999963
 40
0.2812499999999964
 40
0.2812499999999964
 40
0.3124999999999972
 40
0.3124999999999972
 40
0.3281249999999974
 40
0.3281249999999974
 40
0.3437499999999976
 40
0.3437499999999976
 40
0.3515624999999977
 40
0.3515624999999977
 40
0.3593749999999979
 40
0.3593749999999979
 40
0.3749999999999986
 40
0.3749999999999986
 40
0.4062500000000008
 40
0.4375000000000031
 40
0.4375000000000031
 40
0.4453125000000034
 40
0.4453125000000034
 40
0.4531250000000038
 40
0.4687500000000047
 40
0.4843750000000055
 40
0.4843750000000055
 40
0.4921875000000063
 40
0.4921875000000063
 40
0.5000000000000068
 40
0.5000000000000068
 40
0.5312500000000059
 40
0.5312500000000059
 40
0.5468750000000057
 40
0.5468750000000057
 40
0.5625000000000055
 40
0.5781250000000054
 40
0.5781250000000054
 40
0.5937500000000052
 40
0.5937500000000052
 40
0.6250000000000046
 40
0.6250000000000046
 40
0.6562500000000039
 40
0.6562500000000039
 40
0.6718750000000043
 40
0.6718750000000043
 40
0.6875000000000045
 40
0.7031250000000047
 40
0.7031250000000047
 40
0.7187500000000052
 40
0.7187500000000052
 40
0.7500000000000061
 40
0.7500000000000061
 40
0.7656250000000061
 40
0.7656250000000061
 40
0.7812500000000059
 40
0.7812500000000059
 40
0.7968750000000059
 40
0.7968750000000059
 40
0.8125000000000056
 40
0.8281250000000056
 40
0.8281250000000056
 40
0.8437500000000056
 40
0.8437500000000056
 40
0.8750000000000055
 40
0.8750000000000055
 40
0.8906250000000049
 40
0.8906250000000049
 40
0.9062500000000039
 40
0.9062500000000039
 40
0.9218750000000031
 40
0.9218750000000031
 40
0.9375000000000028
 40
0.9531250000000019
 40
0.9531250000000019
 40
0.9687500000000012
 40
0.9687500000000012
 40
1.0
 40
1.0
 40
1.0
 40
1.0
 10
440.6008731967711
 20
283.1534935136935
 30
0.0
 10
440.5932818435831
 20
283.1066098768946
 30
0.0
 10
440.5858342549429
 20
283.0591360417987
 30
0.0
 10
440.5712279647003
 20
282.9630024002368
 30
0.0
 10
440.5640614213451
 20
282.9142829509674
 30
0.0
 10
440.5431385433258
 20
282.7673021477692
 30
0.0
 10
440.5299140337255
 20
282.6679548169093
 30
0.0
 10
440.5111680170858
 20
282.5168849225964
 30
0.0
 10
440.5051184926397
 20
282.4663170149248
 30
0.0
 10
440.4934597284722
 20
282.3651378607568
 30
0.0
 10
440.4878432754457
 20
282.3144688077483
 30
0.0
 10
440.4770360325791
 20
282.2129718226396
 30
0.0
 10
440.4718380948787
 20
282.1620698509297
 30
0.0
 10
440.461907378671
 20
282.0604651641917
 30
0.0
 10
440.4524567040344
 20
281.9592271492449
 30
0.0
 10
440.4439578557044
 20
281.8587161710333
 30
0.0
 10
440.4359362325299
 20
281.7585697133404
 30
0.0
 10
440.4321610559487
 20
281.7086272808213
 30
0.0
 10
440.4216270501773
 20
281.5603340795139
 30
0.0
 10
440.4156310056631
 20
281.4632141442542
 30
0.0
 10
440.4081781887226
 20
281.3201497642806
 30
0.0
 10
440.4059592135753
 20
281.2730368257799
 30
0.0
 10
440.4020611426558
 20
281.1802526867836
 30
0.0
 10
440.400379519367
 20
281.1345335079286
 30
0.0
 10
440.3975502026107
 20
281.0444386806165
 30
0.0
 10
440.3964013347585
 20
280.9999985917471
 30
0.0
 10
440.3946486655432
 20
280.912796483751
 30
0.0
 10
440.3934415257363
 20
280.8273833368911
 30
0.0
 10
440.3933155052061
 20
280.7455155174532
 30
0.0
 10
440.3937311899977
 20
280.6654241187802
 30
0.0
 10
440.3942113943166
 20
280.6262356487477
 30
0.0
 10
440.3964558886319
 20
280.5120926183267
 30
0.0
 10
440.3990202499965
 20
280.4403013758023
 30
0.0
 10
440.404470460974
 20
280.3390772119971
 30
0.0
 10
440.4065500477269
 20
280.3065227660234
 30
0.0
 10
440.4112191881925
 20
280.2439374107335
 30
0.0
 10
440.4138102398621
 20
280.2138782324151
 30
0.0
 10
440.4180812025592
 20
280.1706380933699
 30
0.0
 10
440.4195689656098
 20
280.1565330330165
 30
0.0
 10
440.4226731920778
 20
280.1289418725643
 30
0.0
 10
440.4242914210571
 20
280.1154433345152
 30
0.0
 10
440.4293168669193
 20
280.0760585400243
 30
0.0
 10
440.4328995103126
 20
280.0512320155922
 30
0.0
 10
440.4443288921528
 20
279.9809465269799
 30
0.0
 10
440.4613805586395
 20
279.8983877567301
 30
0.0
 10
440.4820139262794
 20
279.8378730415929
 30
0.0
 10
440.4960657044661
 20
279.8071656286843
 30
0.0
 10
440.4989351179644
 20
279.8013806906541
 30
0.0
 10
440.5047590920624
 20
279.7905900737555
 30
0.0
 10
440.5136340705398
 20
279.77554736111
 30
0.0
 10
440.5291154373482
 20
279.7561482357351
 30
0.0
 10
440.542232556763
 20
279.746648770374
 30
0.0
 10
440.5523465957273
 20
279.7417955044614
 30
0.0
 10
440.5557640070418
 20
279.7405565658493
 30
0.0
 10
440.5626916309795
 20
279.7388418426418
 30
0.0
 10
440.5662051298377
 20
279.7383663497549
 30
0.0
 10
440.5839479741059
 20
279.7379138460475
 30
0.0
 10
440.5987221753401
 20
279.7436725480409
 30
0.0
 10
440.621752424597
 20
279.7614817234717
 30
0.0
 10
440.6295858828925
 20
279.7689669054306
 30
0.0
 10
440.6454494778626
 20
279.7869293373633
 30
0.0
 10
440.6615256897416
 20
279.8078880955975
 30
0.0
 10
440.6780259913604
 20
279.834823383397
 30
0.0
 10
440.6947401525775
 20
279.864772510228
 30
0.0
 10
440.7031988897836
 20
279.8812498377838
 30
0.0
 10
440.728727054895
 20
279.9348830188968
 30
0.0
 10
440.7460024891793
 20
279.9763184707702
 30
0.0
 10
440.7810714459243
 20
280.070688593522
 30
0.0
 10
440.7986870404107
 20
280.1231443423844
 30
0.0
 10
440.8252316944943
 20
280.2097072382704
 30
0.0
 10
440.8341151660161
 20
280.2399326408456
 30
0.0
 10
440.8518399371621
 20
280.3027580631288
 30
0.0
 10
440.8695146132378
 20
280.3679193765607
 30
0.0
 10
440.8870895118976
 20
280.4377332272431
 30
0.0
 10
440.9046141608142
 20
280.5098901813525
 30
0.0
 10
440.9133566639298
 20
280.5471683791835
 30
0.0
 10
440.9393303269238
 20
280.6617735807292
 30
0.0
 10
440.956366812213
 20
280.7420919330349
 30
0.0
 10
440.9814986037552
 20
280.8684978761628
 30
0.0
 10
440.9897745473722
 20
280.9114720595586
 30
0.0
 10
441.0060876338678
 20
280.9988920784137
 30
0.0
 10
441.0141308766476
 20
281.0433685240226
 30
0.0
 10
441.0299902619493
 20
281.1338576653362
 30
0.0
 10
441.0378189055208
 20
281.1799472547686
 30
0.0
 10
441.0531806180655
 20
281.2732827484572
 30
0.0
 10
441.0682333630981
 20
281.3676816348481
 30
0.0
 10
441.0826719267565
 20
281.4641943874722
 30
0.0
 10
441.0968017593466
 20
281.5617697190171
 30
0.0
 10
441.1037164131628
 20
281.6111250600728
 30
0.0
 10
441.1238542879058
 20
281.7597774357646
 30
0.0
 10
441.1365215545085
 20
281.8599778592995
 30
0.0
 10
441.1543792542189
 20
282.0119357790389
 30
0.0
 10
441.1601176578991
 20
282.0626715374273
 30
0.0
 10
441.1711469066201
 20
282.1641034231837
 30
0.0
 10
441.176441633736
 20
282.2148325280332
 30
0.0
 10
441.1865912262543
 20
282.3163170656985
 30
0.0
 10
441.191453623253
 20
282.3671568294286
 30
0.0
 10
441.2006928699849
 20
282.468411062113
 30
0.0
 10
441.2094418110752
 20
282.5691679332418
 30
0.0
 10
441.2172179450514
 20
282.668937997736
 30
0.0
 10
441.2245060232077
 20
282.7682129828726
 30
0.0
 10
441.2279067801211
 20
282.8176281218682
 30
0.0
 10
441.2373076869925
 20
282.9641283016772
 30
0.0
 10
441.2425352922743
 20
283.059807109079
 30
0.0
 10
441.2467209181263
 20
283.1534935136936
 30
0.0
  0
SPLINE
  5
1CF
330
1F
100
AcDbEntity
  8
1
100
AcDbSpline
210
0.0
220
0.0
230
1.0
 70
     8
 71
     3
 72
    75
 73
    71
 74
     0
 42
0.000000001
 43
0.0000000001
 40
0.0
 40
0.0
 40
0.0
 40
0.0
 40
0.0624999999999908
 40
0.0624999999999908
 40
0.0937499999999857
 40
0.0937499999999857
 40
0.1249999999999806
 40
0.1249999999999806
 40
0.1406249999999783
 40
0.1406249999999783
 40
0.156249999999976
 40
0.1874999999999705
 40
0.1874999999999705
 40
0.218749999999965
 40
0.218749999999965
 40
0.2499999999999595
 40
0.2499999999999595
 40
0.2656249999999573
 40
0.2656249999999573
 40
0.281249999999955
 40
0.281249999999955
 40
0.3124999999999526
 40
0.3437499999999503
 40
0.3437499999999503
 40
0.3593749999999497
 40
0.3593749999999497
 40
0.374999999999949
 40
0.4062499999999504
 40
0.4062499999999504
 40
0.4374999999999519
 40
0.4374999999999519
 40
0.4687499999999532
 40
0.4687499999999532
 40
0.484374999999953
 40
0.484374999999953
 40
0.4999999999999526
 40
0.4999999999999526
 40
0.5624999999999573
 40
0.5624999999999573
 40
0.624999999999962
 40
0.624999999999962
 40
0.6406249999999629
 40
0.6406249999999629
 40
0.656249999999964
 40
0.6874999999999658
 40
0.6874999999999658
 40
0.7187499999999679
 40
0.7187499999999679
 40
0.7499999999999698
 40
0.7499999999999698
 40
0.7656249999999712
 40
0.7656249999999712
 40
0.7812499999999726
 40
0.7812499999999726
 40
0.812499999999976
 40
0.812499999999976
 40
0.8281249999999776
 40
0.8281249999999776
 40
0.843749999999979
 40
0.843749999999979
 40
0.8749999999999833
 40
0.9062499999999875
 40
0.9062499999999875
 40
0.9374999999999914
 40
0.9374999999999914
 40
0.9687499999999957
 40
0.9687499999999957
 40
0.9843749999999978
 40
0.9843749999999978
 40
1.0
 40
1.0
 40
1.0
 40
1.0
 10
441.2467209181263
 20
283.1534935136936
 30
0.0
 10
441.2399917702422
 20
283.2653013554466
 30
0.0
 10
441.2321415700245
 20
283.3737655122861
 30
0.0
 10
441.2186300023296
 20
283.5312831034883
 30
0.0
 10
441.2138688346868
 20
283.582528623325
 30
0.0
 10
441.2038575131251
 20
283.6823094162775
 30
0.0
 10
441.1986042297094
 20
283.7308811922698
 30
0.0
 10
441.1903517204266
 20
283.8017548005431
 30
0.0
 10
441.1875358433261
 20
283.8250707283062
 30
0.0
 10
441.1817966721196
 20
283.8708954556373
 30
0.0
 10
441.1730262545603
 20
283.9384312413181
 30
0.0
 10
441.1637745889719
 20
284.0023908601362
 30
0.0
 10
441.1510114491598
 20
284.0844929512632
 30
0.0
 10
441.1444027386293
 20
284.1240244310952
 30
0.0
 10
441.1308416772795
 20
284.1993761469141
 30
0.0
 10
441.1238860308048
 20
284.2352304579024
 30
0.0
 10
441.113190846442
 20
284.2862895799796
 30
0.0
 10
441.1095821222582
 20
284.3028551095276
 30
0.0
 10
441.1022769828353
 20
284.3350740100869
 30
0.0
 10
441.0985772846282
 20
284.3507405369406
 30
0.0
 10
441.0873701198591
 20
284.3962619887833
 30
0.0
 10
441.0721633276382
 20
284.452932453219
 30
0.0
 10
441.0564324248111
 20
284.5016097537067
 30
0.0
 10
441.0444359246064
 20
284.5350931214597
 30
0.0
 10
441.0404036530542
 20
284.5457490015045
 30
0.0
 10
441.0323048366511
 20
284.5659654728333
 30
0.0
 10
441.0200932801813
 20
284.5946805907193
 30
0.0
 10
441.0076926460275
 20
284.6185902701347
 30
0.0
 10
440.9909894889282
 20
284.6461752349971
 30
0.0
 10
440.9825429357019
 20
284.6578240397133
 30
0.0
 10
440.9656105242285
 20
284.676617451332
 30
0.0
 10
440.9571102101999
 20
284.6837916242977
 30
0.0
 10
440.9443084893356
 20
284.691213390513
 30
0.0
 10
440.9400326988535
 20
284.6931301727748
 30
0.0
 10
440.9314638985876
 20
284.6958417091608
 30
0.0
 10
440.9271679400963
 20
284.6966356769477
 30
0.0
 10
440.9057281418988
 20
284.6977743953336
 30
0.0
 10
440.8886469239114
 20
284.6897022310908
 30
0.0
 10
440.8546273793675
 20
284.6553817031405
 30
0.0
 10
440.8378963852324
 20
284.629342047079
 30
0.0
 10
440.8173341851277
 20
284.5856586919188
 30
0.0
 10
440.8132363049888
 20
284.5763540619812
 30
0.0
 10
440.8051077753701
 20
284.5566933480811
 30
0.0
 10
440.7930060422041
 20
284.5256058199494
 30
0.0
 10
440.7811761356653
 20
284.4897527132673
 30
0.0
 10
440.7656458671608
 20
284.4376894199448
 30
0.0
 10
440.75799214318
 20
284.4094786571576
 30
0.0
 10
440.7430505785865
 20
284.3492134947836
 30
0.0
 10
440.7357490616127
 20
284.3171203959404
 30
0.0
 10
440.7250509766836
 20
284.2660365827637
 30
0.0
 10
440.7215273568072
 20
284.2485174488452
 30
0.0
 10
440.7145655107013
 20
284.2124901080564
 30
0.0
 10
440.7111264886108
 20
284.1939756618983
 30
0.0
 10
440.7009806864891
 20
284.1371769200002
 30
0.0
 10
440.6944304383526
 20
284.0975664997774
 30
0.0
 10
440.6849244247808
 20
284.0355427299692
 30
0.0
 10
440.6818090349696
 20
284.014433001434
 30
0.0
 10
440.6756853020683
 20
283.971339314735
 30
0.0
 10
440.6726742717657
 20
283.9493347231036
 30
0.0
 10
440.6638230911428
 20
283.8821509467308
 30
0.0
 10
440.6525261845482
 20
283.7896225460727
 30
0.0
 10
440.642230654481
 20
283.6912406031192
 30
0.0
 10
440.6324401731817
 20
283.5899063997076
 30
0.0
 10
440.6278182203338
 20
283.5379694179015
 30
0.0
 10
440.6191452732849
 20
283.4319070670364
 30
0.0
 10
440.6150893141196
 20
283.3777306618267
 30
0.0
 10
440.6094278816874
 20
283.2947411269375
 30
0.0
 10
440.6076095914646
 20
283.2667621400741
 30
0.0
 10
440.6041273796058
 20
283.2104276262214
 30
0.0
 10
440.6024624445041
 20
283.1820600793205
 30
0.0
 10
440.6008731967711
 20
283.1534935136935
 30
0.0
  0
SPLINE
  5
1D0
330
1F
100
AcDbEntity
  8
1
100
AcDbSpline
210
0.0
220
0.0
230
1.0
 70
     8
 71
     3
 72
    15
 73
    11
 74
     0
 42
0.000000001
 43
0.0000000001
 40
0.0
 40
0.0
 40
0.0
 40
0.0
 40
0.1250000000000017
 40
0.1875000000000026
 40
0.1875000000000026
 40
0.2500000000000035
 40
0.2500000000000035
 40
0.5000000000000023
 40
0.5000000000000023
 40
1.0
 40
1.0
 40
1.0
 40
1.0
 10
302.904841945292
 20
306.393427110577
 30
0.0
 10
302.8118762677802
 20
306.393427110577
 30
0.0
 10
302.6721700192882
 20
306.3935193956625
 30
0.0
 10
302.5320723949118
 20
306.3937491301597
 30
0.0
 10
302.4385863722555
 20
306.393932196463
 30
0.0
 10
302.3917771703962
 20
306.3940387857341
 30
0.0
 10
302.1582216157234
 20
306.3946425405705
 30
0.0
 10
301.9724383592096
 20
306.3953554626355
 30
0.0
 10
301.4182081064519
 20
306.3980031966331
 30
0.0
 10
301.0528715266843
 20
306.4004793789465
 30
0.0
 10
300.6916300952223
 20
306.4027947823263
 30
0.0
  0
SPLINE
  5
1D1
330
1F
100
AcDbEntity
  8
1
100
AcDbSpline
210
0.0
220
0.0
230
1.0
 70
     8
 71
     3
 72
     8
 73
     4
 74
     0
 42
0.000000001
 43
0.0000000001
 40
0.0
 40
0.0
 40
0.0
 40
0.0
 40
1.0
 40
1.0
 40
1.0
 40
1.0
 10
300.6916300952223
 20
306.4027947823263
 30
0.0
 10
300.1924135851852
 20
306.4059945470652
 30
0.0
 10
299.6957308623499
 20
306.4079539222053
 30
0.0
 10
299.2012456340031
 20
306.4079811142587
 30
0.0
  0
SPLINE
  5
1D2
330
1F
100
AcDbEntity
  8
1
100
AcDbSpline
210
0.0
220
0.0
230
1.0
 70
     8
 71
     3
 72
    19
 73
    15
 74
     0
 42
0.000000001
 43
0.0000000001
 40
0.0
 40
0.0
 40
0.0
 40
0.0
 40
0.2500000000000024
 40
0.2500000000000024
 40
0.5000000000000049
 40
0.5000000000000049
 40
0.5625000000000063
 40
0.5625000000000063
 40
0.5937500000000062
 40
0.5937500000000062
 40
0.6250000000000061
 40
0.750000000000004
 40
0.750000000000004
 40
1.0
 40
1.0
 40
1.0
 40
1.0
 10
295.7496584270626
 20
284.7426515113523
 30
0.0
 10
295.2396655538276
 20
284.887243604188
 30
0.0
 10
294.7244762067228
 20
285.0141027483552
 30
0.0
 10
293.6820470006047
 20
285.2258485738667
 30
0.0
 10
293.1548182308577
 20
285.3107703661833
 30
0.0
 10
292.4873253029264
 20
285.3870939415172
 30
0.0
 10
292.3534037837167
 20
285.4008674156611
 30
0.0
 10
292.151868700228
 20
285.4192213649516
 30
0.0
 10
292.0845560172145
 20
285.4249566376104
 30
0.0
 10
291.9499843713961
 20
285.4356261807515
 30
0.0
 10
291.6135476535123
 20
285.4603118308943
 30
0.0
 10
291.2770727413292
 20
285.4750028290628
 30
0.0
 10
290.4694580811602
 20
285.4906443922711
 30
0.0
 10
289.9309486459413
 20
285.4749499643406
 30
0.0
 10
289.3923341230378
 20
285.4317583304382
 30
0.0
  0
SPLINE
  5
1D3
330
1F
100
AcDbEntity
  8
1
100
AcDbSpline
210
0.0
220
0.0
230
1.0
 70
     8
 71
     3
 72
     8
 73
     4
 74
     0
 42
0.000000001
 43
0.0000000001
 40
0.0
 40
0.0
 40
0.0
 40
0.0
 40
1.0
 40
1.0
 40
1.0
 40
1.0
 10
434.9339364338781
 20
300.9621284892224
 30
0.0
 10
434.935216009016
 20
300.9731271302124
 30
0.0
 10
434.936800201123
 20
300.984058860024
 30
0.0
 10
434.9386873195908
 20
300.9949238022808
 30
0.0
  0
SPLINE
  5
1D4
330
1F
100
AcDbEntity
  8
1
100
AcDbSpline
210
0.0
220
0.0
230
1.0
 70
     8
 71
     3
 72
    10
 73
     6
 74
     0
 42
0.000000001
 43
0.0000000001
 40
0.0
 40
0.0
 40
0.0
 40
0.0
 40
0.6628244121506119
 40
0.6628244121506119
 40
1.0
 40
1.0
 40
1.0
 40
1.0
 10
436.2620051439353
 20
301.6431785868963
 30
0.0
 10
436.261501574588
 20
301.6410070852022
 30
0.0
 10
436.2609168423501
 20
301.6388459656653
 30
0.0
 10
436.2599119263524
 20
301.6356024345448
 30
0.0
 10
436.2595538654335
 20
301.6345170990456
 30
0.0
 10
436.2591764480717
 20
301.6334401138141
 30
0.0
  0
SPLINE
  5
1D5
330
1F
100
AcDbEntity
  8
1
100
AcDbSpline
210
0.0
220
0.0
230
1.0
 70
     8
 71
     3
 72
    27
 73
    23
 74
     0
 42
0.000000001
 43
0.0000000001
 40
0.0
 40
0.0
 40
0.0
 40
0.0
 40
0.1250000000001701
 40
0.1250000000001701
 40
0.1875000000002016
 40
0.1875000000002016
 40
0.2500000000002331
 40
0.2500000000002331
 40
0.3750000000002958
 40
0.3750000000002958
 40
0.4375000000003272
 40
0.4375000000003272
 40
0.5000000000003583
 40
0.5000000000003583
 40
0.6250000000003148
 40
0.6250000000003148
 40
0.6875000000002942
 40
0.6875000000002942
 40
0.7500000000002738
 40
0.7500000000002738
 40
0.8750000000001369
 40
1.0
 40
1.0
 40
1.0
 40
1.0
 10
436.3141105695221
 20
298.5605650371655
 30
0.0
 10
436.2848945938051
 20
298.5478435894082
 30
0.0
 10
436.254956646723
 20
298.5375515068606
 30
0.0
 10
436.2089877943787
 20
298.5257013477395
 30
0.0
 10
436.1934870273241
 20
298.5223520313111
 30
0.0
 10
436.1621232504266
 20
298.5168792019203
 30
0.0
 10
436.1462141766188
 20
298.5147557988438
 30
0.0
 10
436.098698551414
 20
298.5103427884158
 30
0.0
 10
436.0670871698435
 20
298.5099461359742
 30
0.0
 10
436.0197677274481
 20
298.5131083472229
 30
0.0
 10
436.0040109225265
 20
298.5147915351721
 30
0.0
 10
435.9725307195761
 20
298.5194417955304
 30
0.0
 10
435.9567354680091
 20
298.5224279529295
 30
0.0
 10
435.9101064039601
 20
298.5332115399017
 30
0.0
 10
435.8799537904035
 20
298.5428045355781
 30
0.0
 10
435.8360829916006
 20
298.5606910810941
 30
0.0
 10
435.8216868434214
 20
298.5672389196354
 30
0.0
 10
435.7933554539428
 20
298.5815211047241
 30
0.0
 10
435.7793699566839
 20
298.5892866699965
 30
0.0
 10
435.738485895509
 20
298.6141983164262
 30
0.0
 10
435.6873579748978
 20
298.6513223386097
 30
0.0
 10
435.6427092846321
 20
298.6959164928132
 30
0.0
 10
435.6220558734863
 20
298.7201355068689
 30
0.0
  0
SPLINE
  5
1D6
330
1F
100
AcDbEntity
  8
1
100
AcDbSpline
210
0.0
220
0.0
230
1.0
 70
     8
 71
     3
 72
    16
 73
    12
 74
     0
 42
0.000000001
 43
0.0000000001
 40
0.0
 40
0.0
 40
0.0
 40
0.0
 40
0.3587940320774866
 40
0.3587940320774866
 40
0.5381910481162015
 40
0.5381910481162015
 40
0.7175880641549164
 40
0.7175880641549164
 40
0.8969850801936313
 40
0.8969850801936313
 40
1.0
 40
1.0
 40
1.0
 40
1.0
 10
435.6220558734864
 20
298.7201355068689
 30
0.0
 10
435.6155890203861
 20
298.7277187968651
 30
0.0
 10
435.610402796414
 20
298.7362549094924
 30
0.0
 10
435.6047887387997
 20
298.7496645405039
 30
0.0
 10
435.6032596240718
 20
298.7542608702523
 30
0.0
 10
435.6008909982895
 20
298.7637076492311
 30
0.0
 10
435.6000687264575
 20
298.7685122946622
 30
0.0
 10
435.5991481223667
 20
298.7780559398875
 30
0.0
 10
435.5990410706024
 20
298.7828285770398
 30
0.0
 10
435.599420343018
 20
298.7903425248944
 30
0.0
 10
435.5996767216526
 20
298.7930955888098
 30
0.0
 10
435.6000467448736
 20
298.7958295626473
 30
0.0
  0
SPLINE
  5
1D7
330
1F
100
AcDbEntity
  8
1
100
AcDbSpline
210
0.0
220
0.0
230
1.0
 70
     8
 71
     3
 72
    10
 73
     6
 74
     0
 42
0.000000001
 43
0.0000000001
 40
0.0
 40
0.0
 40
0.0
 40
0.0
 40
0.1325035073277015
 40
0.1325035073277015
 40
1.0
 40
1.0
 40
1.0
 40
1.0
 10
436.3421813826747
 20
298.5792780587907
 30
0.0
 10
436.3411025221254
 20
298.5782436961779
 30
0.0
 10
436.3399979533248
 20
298.5772325511213
 30
0.0
 10
436.3314806783684
 20
298.5697956703475
 30
0.0
 10
436.3232451881124
 20
298.5645425039565
 30
0.0
 10
436.3141105695221
 20
298.5605650371655
 30
0.0
  0
SPLINE
  5
1D8
330
1F
100
AcDbEntity
  8
1
100
AcDbSpline
210
0.0
220
0.0
230
1.0
 70
     8
 71
     3
 72
    10
 73
     6
 74
     0
 42
0.000000001
 43
0.0000000001
 40
0.0
 40
0.0
 40
0.0
 40
0.0
 40
0.6419716905414762
 40
0.6419716905414762
 40
1.0
 40
1.0
 40
1.0
 40
1.0
 10
435.6203590390507
 20
298.8921847887593
 30
0.0
 10
435.6223744506467
 20
298.8812179986604
 30
0.0
 10
435.6224766281208
 20
298.8702346189056
 30
0.0
 10
435.6198305354641
 20
298.8533451810538
 30
0.0
 10
435.6183497998168
 20
298.8474815925552
 30
0.0
 10
435.6163395700074
 20
298.8417996361328
 30
0.0
  0
SPLINE
  5
1D9
330
1F
100
AcDbEntity
  8
1
100
AcDbSpline
210
0.0
220
0.0
230
1.0
 70
     8
 71
     3
 72
     8
 73
     4
 74
     0
 42
0.000000001
 43
0.0000000001
 40
0.0
 40
0.0
 40
0.0
 40
0.0
 40
1.0
 40
1.0
 40
1.0
 40
1.0
 10
436.3777971830677
 20
298.6885367027365
 30
0.0
 10
436.381027786419
 20
298.6977533651236
 30
0.0
 10
436.385570587158
 20
298.7063772103903
 30
0.0
 10
436.3914971855296
 20
298.7143796572505
 30
0.0
  0
SPLINE
  5
1DA
330
1F
100
AcDbEntity
  8
1
100
AcDbSpline
210
0.0
220
0.0
230
1.0
 70
     8
 71
     3
 72
    20
 73
    16
 74
     0
 42
0.000000001
 43
0.0000000001
 40
0.0
 40
0.0
 40
0.0
 40
0.0
 40
0.1250000000000017
 40
0.1250000000000017
 40
0.2500000000000033
 40
0.2500000000000033
 40
0.3750000000000049
 40
0.3750000000000049
 40
0.5000000000000067
 40
0.5000000000000067
 40
0.6250000000000085
 40
0.6250000000000085
 40
0.75000000000001
 40
0.75000000000001
 40
1.0
 40
1.0
 40
1.0
 40
1.0
 10
435.0384840897127
 20
299.3610916806484
 30
0.0
 10
435.0344685166706
 20
299.3585178045608
 30
0.0
 10
435.0302954718023
 20
299.3562539663455
 30
0.0
 10
435.0216366305247
 20
299.3523423715777
 30
0.0
 10
435.0171431616348
 20
299.3506974968556
 30
0.0
 10
435.0080533974276
 20
299.34810556629
 30
0.0
 10
435.0034316892716
 20
299.3471452501921
 30
0.0
 10
434.994032695921
 20
299.3459071480317
 30
0.0
 10
434.9892172754309
 20
299.3456318904429
 30
0.0
 10
434.9796580899957
 20
299.3458096870761
 30
0.0
 10
434.9749098438563
 20
299.3462552272085
 30
0.0
 10
434.9654774792278
 20
299.347866547073
 30
0.0
 10
434.9607626329172
 20
299.3490428426963
 30
0.0
 10
434.9469402721751
 20
299.3536631885983
 30
0.0
 10
434.9383257435638
 20
299.3580907284727
 30
0.0
 10
434.9303521047442
 20
299.3639503138308
 30
0.0
  0
SPLINE
  5
1DB
330
1F
100
AcDbEntity
  8
1
100
AcDbSpline
210
0.0
220
0.0
230
1.0
 70
     8
 71
     3
 72
    10
 73
     6
 74
     0
 42
0.000000001
 43
0.0000000001
 40
0.0
 40
0.0
 40
0.0
 40
0.0
 40
0.5
 40
0.5
 40
1.0
 40
1.0
 40
1.0
 40
1.0
 10
435.0384840897127
 20
299.3610916806484
 30
0.0
 10
435.047662788449
 20
299.3669749837149
 30
0.0
 10
435.0575881694545
 20
299.3712276391864
 30
0.0
 10
435.078801741292
 20
299.3763488283183
 30
0.0
 10
435.0895958856185
 20
299.3771102892103
 30
0.0
 10
435.1005940745157
 20
299.3759646891004
 30
0.0
  0
SPLINE
  5
1DC
330
1F
100
AcDbEntity
  8
1
100
AcDbSpline
210
0.0
220
0.0
230
1.0
 70
     8
 71
     3
 72
    24
 73
    20
 74
     0
 42
0.000000001
 43
0.0000000001
 40
0.0
 40
0.0
 40
0.0
 40
0.0
 40
0.1249999999999415
 40
0.1249999999999415
 40
0.2499999999998829
 40
0.2499999999998829
 40
0.3124999999998536
 40
0.3124999999998536
 40
0.3749999999998244
 40
0.3749999999998244
 40
0.4999999999998594
 40
0.4999999999998594
 40
0.6249999999998945
 40
0.6249999999998945
 40
0.7499999999999298
 40
0.7499999999999298
 40
0.8749999999999648
 40
0.8749999999999648
 40
1.0
 40
1.0
 40
1.0
 40
1.0
 10
435.1005940745157
 20
299.3759646891004
 30
0.0
 10
435.131742447879
 20
299.3727201930946
 30
0.0
 10
435.1623741572786
 20
299.3670671443568
 30
0.0
 10
435.2226518987915
 20
299.3509440658632
 30
0.0
 10
435.2522983560489
 20
299.3404763920132
 30
0.0
 10
435.2960055765715
 20
299.3208620398427
 30
0.0
 10
435.3103534472236
 20
299.3137040282663
 30
0.0
 10
435.3382619791363
 20
299.2983271099785
 30
0.0
 10
435.351876767228
 20
299.2900844365261
 30
0.0
 10
435.3917052267201
 20
299.2636926413085
 30
0.0
 10
435.4169473812684
 20
299.2438565929093
 30
0.0
 10
435.4644324951046
 20
299.1996463396844
 30
0.0
 10
435.4859847596347
 20
299.175926736685
 30
0.0
 10
435.5249600243793
 20
299.1254393824439
 30
0.0
 10
435.5423877792694
 20
299.0986607736594
 30
0.0
 10
435.5730178404686
 20
299.0420298046948
 30
0.0
 10
435.585777399781
 20
299.0130058497838
 30
0.0
 10
435.6065952128417
 20
298.9536138539177
 30
0.0
 10
435.6146509511428
 20
298.9232451449051
 30
0.0
 10
435.6203590390509
 20
298.8921847887593
 30
0.0
  0
SPLINE
  5
1DD
330
1F
100
AcDbEntity
  8
1
100
AcDbSpline
210
0.0
220
0.0
230
1.0
 70
     8
 71
     3
 72
    18
 73
    14
 74
     0
 42
0.000000001
 43
0.0000000001
 40
0.0
 40
0.0
 40
0.0
 40
0.0
 40
0.2500000000000029
 40
0.2500000000000029
 40
0.375000000000007
 40
0.375000000000007
 40
0.5000000000000112
 40
0.5000000000000112
 40
0.6250000000000155
 40
0.6250000000000155
 40
0.7500000000000196
 40
0.7500000000000196
 40
1.0
 40
1.0
 40
1.0
 40
1.0
 10
437.2176032979315
 20
298.8365675082271
 30
0.0
 10
437.2078747522564
 20
298.8347842054464
 30
0.0
 10
437.1979837137021
 20
298.8345903617751
 30
0.0
 10
437.1837299412797
 20
298.8364809617404
 30
0.0
 10
437.1790446063134
 20
298.8374714251553
 30
0.0
 10
437.169807523925
 20
298.8401779658636
 30
0.0
 10
437.1653034779553
 20
298.8418859094196
 30
0.0
 10
437.1567185619483
 20
298.845896102764
 30
0.0
 10
437.1526046537754
 20
298.8482077427388
 30
0.0
 10
437.1447293313279
 20
298.8534346402194
 30
0.0
 10
437.1409418671857
 20
298.8563769753936
 30
0.0
 10
437.1304168253969
 20
298.8658805564845
 30
0.0
 10
437.1244362590596
 20
298.8731173464447
 30
0.0
 10
437.1195007076491
 20
298.8812613997662
 30
0.0
  0
SPLINE
  5
1DE
330
1F
100
AcDbEntity
  8
1
100
AcDbSpline
210
0.0
220
0.0
230
1.0
 70
     8
 71
     3
 72
    10
 73
     6
 74
     0
 42
0.000000001
 43
0.0000000001
 40
0.0
 40
0.0
 40
0.0
 40
0.0
 40
0.5
 40
0.5
 40
1.0
 40
1.0
 40
1.0
 40
1.0
 10
437.070406116145
 20
298.9217753966778
 30
0.0
 10
437.080760897067
 20
298.9179975232744
 30
0.0
 10
437.0901563700396
 20
298.9125528242274
 30
0.0
 10
437.1068774513791
 20
298.8986839007509
 30
0.0
 10
437.1138654183815
 20
298.8905600763398
 30
0.0
 10
437.1195007076491
 20
298.8812613997662
 30
0.0
  0
SPLINE
  5
1DF
330
1F
100
AcDbEntity
  8
1
100
AcDbSpline
210
0.0
220
0.0
230
1.0
 70
     8
 71
     3
 72
    24
 73
    20
 74
     0
 42
0.000000001
 43
0.0000000001
 40
0.0
 40
0.0
 40
0.0
 40
0.0
 40
0.1249999999999351
 40
0.1249999999999351
 40
0.2499999999998701
 40
0.2499999999998701
 40
0.312499999999881
 40
0.312499999999881
 40
0.3749999999998918
 40
0.3749999999998918
 40
0.4999999999999134
 40
0.4999999999999134
 40
0.6249999999999351
 40
0.6249999999999351
 40
0.7499999999999567
 40
0.7499999999999567
 40
0.8749999999999783
 40
0.8749999999999783
 40
1.0
 40
1.0
 40
1.0
 40
1.0
 10
436.3914971855296
 20
298.7143796572506
 30
0.0
 10
436.4103128442372
 20
298.7397856826809
 30
0.0
 10
436.4309189472568
 20
298.7635311979328
 30
0.0
 10
436.4757250003432
 20
298.8077405361059
 30
0.0
 10
436.499923177516
 20
298.8282059167771
 30
0.0
 10
436.5391502019527
 20
298.8562697395602
 30
0.0
 10
436.552637880211
 20
298.8651196389737
 30
0.0
 10
436.5801068330191
 20
298.8816011828054
 30
0.0
 10
436.5941361321981
 20
298.8892677633142
 30
0.0
 10
436.6371092624713
 20
298.9105462533715
 30
0.0
 10
436.6669812020971
 20
298.92246389547
 30
0.0
 10
436.7290155831151
 20
298.9414045906805
 30
0.0
 10
436.7602669423122
 20
298.9481583630021
 30
0.0
 10
436.8232183499257
 20
298.9565427220916
 30
0.0
 10
436.8549306450243
 20
298.9581719533792
 30
0.0
 10
436.9187830923223
 20
298.9562124760687
 30
0.0
 10
436.9499932339755
 20
298.952657131567
 30
0.0
 10
437.0111420588821
 20
298.9407895710841
 30
0.0
 10
437.0410800046268
 20
298.9324748347028
 30
0.0
 10
437.070406116145
 20
298.9217753966778
 30
0.0
  0
SPLINE
  5
1E0
330
1F
100
AcDbEntity
  8
1
100
AcDbSpline
210
0.0
220
0.0
230
1.0
 70
     8
 71
     3
 72
    27
 73
    23
 74
     0
 42
0.000000001
 43
0.0000000001
 40
0.0
 40
0.0
 40
0.0
 40
0.0
 40
0.1358119458616223
 40
0.1358119458616223
 40
0.2037179187924363
 40
0.2037179187924363
 40
0.27162389172325
 40
0.27162389172325
 40
0.4074358375848098
 40
0.4074358375848098
 40
0.4753418105155895
 40
0.4753418105155895
 40
0.5432477834463694
 40
0.5432477834463694
 40
0.6790597293079708
 40
0.6790597293079708
 40
0.7469657022387714
 40
0.7469657022387714
 40
0.8148716751695721
 40
0.8148716751695721
 40
0.9506836210311659
 40
1.0
 40
1.0
 40
1.0
 40
1.0
 10
434.9303521047442
 20
299.3639503138308
 30
0.0
 10
434.9048499186547
 20
299.382691097003
 30
0.0
 10
434.8810724200509
 20
299.4032926343442
 30
0.0
 10
434.8479572356232
 20
299.4369373226789
 30
0.0
 10
434.8373459538291
 20
299.4486113998043
 30
0.0
 10
434.8169954354775
 20
299.4728957257977
 30
0.0
 10
434.8072332571166
 20
299.4855458472834
 30
0.0
 10
434.7797334769571
 20
299.5243090050863
 30
0.0
 10
434.7636196144381
 20
299.5513887212987
 30
0.0
 10
434.7427257892861
 20
299.5938336661042
 30
0.0
 10
434.7363098802413
 20
299.6082876387853
 30
0.0
 10
434.7245979159421
 20
299.6378192337912
 30
0.0
 10
434.7192823969332
 20
299.6529685828841
 30
0.0
 10
434.7052815709574
 20
299.6986914885954
 30
0.0
 10
434.6984791333049
 20
299.7295894813884
 30
0.0
 10
434.6919578338092
 20
299.7765417904972
 30
0.0
 10
434.6904007549007
 20
299.7922939357093
 30
0.0
 10
434.6885359077979
 20
299.8240036414355
 30
0.0
 10
434.6882298829471
 20
299.8400203692538
 30
0.0
 10
434.6892340911187
 20
299.8879669992574
 30
0.0
 10
434.6935856774887
 20
299.9309025919635
 30
0.0
 10
434.7024180824272
 20
299.9730072019403
 30
0.0
 10
434.7050923261003
 20
299.9841637669302
 30
0.0
  0
SPLINE
  5
1E1
330
1F
100
AcDbEntity
  8
1
100
AcDbSpline
210
0.0
220
0.0
230
1.0
 70
     8
 71
     3
 72
    21
 73
    17
 74
     0
 42
0.000000001
 43
0.0000000001
 40
0.0
 40
0.0
 40
0.0
 40
0.0
 40
0.1243620819249151
 40
0.1243620819249151
 40
0.2119258737324369
 40
0.2119258737324369
 40
0.2994896655399586
 40
0.2994896655399586
 40
0.4746172491548983
 40
0.4746172491548983
 40
0.5621810409623711
 40
0.5621810409623711
 40
0.6497448327698438
 40
0.6497448327698438
 40
0.8248724163849219
 40
1.0
 40
1.0
 40
1.0
 40
1.0
 10
437.637462741181
 20
299.1477396780483
 30
0.0
 10
437.6270775990441
 20
299.1277666404383
 30
0.0
 10
437.6156166495638
 20
299.1084649060958
 30
0.0
 10
437.5942732761046
 20
299.076703827173
 30
0.0
 10
437.5849247793659
 20
299.0639113326149
 30
0.0
 10
437.5651465050897
 20
299.0390010122933
 30
0.0
 10
437.5546643138317
 20
299.0268305435279
 30
0.0
 10
437.5220357534348
 20
298.9918912819572
 30
0.0
 10
437.4986957753717
 20
298.9706155715357
 30
0.0
 10
437.4613768880567
 20
298.9416365318896
 30
0.0
 10
437.4485505900631
 20
298.9324683073036
 30
0.0
 10
437.422114852245
 20
298.9151276192134
 30
0.0
 10
437.4084536633269
 20
298.906927444031
 30
0.0
 10
437.3666263123795
 20
298.8840666877237
 30
0.0
 10
437.3092143139413
 20
298.8584813121111
 30
0.0
 10
437.2486743330783
 20
298.8422630217424
 30
0.0
 10
437.2176032979315
 20
298.8365675082271
 30
0.0
  0
SPLINE
  5
1E2
330
1F
100
AcDbEntity
  8
1
100
AcDbSpline
210
0.0
220
0.0
230
1.0
 70
     8
 71
     3
 72
    18
 73
    14
 74
     0
 42
0.000000001
 43
0.0000000001
 40
0.0
 40
0.0
 40
0.0
 40
0.0
 40
0.2127774583458243
 40
0.2127774583458243
 40
0.4255549166916486
 40
0.4255549166916486
 40
0.5319436458645606
 40
0.5319436458645606
 40
0.6383323750374725
 40
0.6383323750374725
 40
0.8511098333832855
 40
0.8511098333832855
 40
1.0
 40
1.0
 40
1.0
 40
1.0
 10
435.0277411568274
 20
300.8230198396023
 30
0.0
 10
435.040226837125
 20
300.7948022938723
 30
0.0
 10
435.0503919693459
 20
300.7657985376068
 30
0.0
 10
435.0661121686554
 20
300.7061691823386
 30
0.0
 10
435.0716694537641
 20
300.6755444357816
 30
0.0
 10
435.0762854087767
 20
300.6282502119433
 30
0.0
 10
435.077185551077
 20
300.6123565454919
 30
0.0
 10
435.077694078402
 20
300.5806942836722
 30
0.0
 10
435.0773086034508
 20
300.5648675870542
 30
0.0
 10
435.0742341979528
 20
300.5173968956533
 30
0.0
 10
435.0696291610071
 20
300.4857116680564
 30
0.0
 10
435.0572635877949
 20
300.4320418039019
 30
0.0
 10
435.050973986136
 20
300.4104528800845
 30
0.0
 10
435.0435324611243
 20
300.3893494462281
 30
0.0
  0
SPLINE
  5
1E3
330
1F
100
AcDbEntity
  8
1
100
AcDbSpline
210
0.0
220
0.0
230
1.0
 70
     8
 71
     3
 72
    10
 73
     6
 74
     0
 42
0.000000001
 43
0.0000000001
 40
0.0
 40
0.0
 40
0.0
 40
0.0
 40
0.5
 40
0.5
 40
1.0
 40
1.0
 40
1.0
 40
1.0
 10
434.9844858276197
 20
300.8684620699988
 30
0.0
 10
434.9940488240391
 20
300.8636148283452
 30
0.0
 10
435.0025757466059
 20
300.8573034607808
 30
0.0
 10
435.017383841395
 20
300.8418049366077
 30
0.0
 10
435.0233324355218
 20
300.8329835173587
 30
0.0
 10
435.0277411568274
 20
300.8230198396023
 30
0.0
  0
SPLINE
  5
1E4
330
1F
100
AcDbEntity
  8
1
100
AcDbSpline
210
0.0
220
0.0
230
1.0
 70
     8
 71
     3
 72
    20
 73
    16
 74
     0
 42
0.000000001
 43
0.0000000001
 40
0.0
 40
0.0
 40
0.0
 40
0.0
 40
0.1249999999999999
 40
0.1249999999999999
 40
0.2499999999999998
 40
0.2499999999999998
 40
0.3749999999999998
 40
0.3749999999999998
 40
0.4999999999999998
 40
0.4999999999999998
 40
0.6249999999999997
 40
0.6249999999999997
 40
0.7499999999999997
 40
0.7499999999999997
 40
1.0
 40
1.0
 40
1.0
 40
1.0
 10
434.9844858276197
 20
300.8684620699988
 30
0.0
 10
434.9803020717594
 20
300.870582710307
 30
0.0
 10
434.9763079431997
 20
300.8729947771743
 30
0.0
 10
434.9686965548998
 20
300.8783977885956
 30
0.0
 10
434.9650775797429
 20
300.8813970813558
 30
0.0
 10
434.9583899624549
 20
300.8878369012452
 30
0.0
 10
434.9552974598449
 20
300.8912923332114
 30
0.0
 10
434.9496237595817
 20
300.8986813810513
 30
0.0
 10
434.9470259846147
 20
300.902648820314
 30
0.0
 10
434.9424919695644
 20
300.9108924051166
 30
0.0
 10
434.9405474415122
 20
300.9151679524288
 30
0.0
 10
434.9373100044953
 20
300.9240286552647
 30
0.0
 10
434.9360111403767
 20
300.928644948208
 30
0.0
 10
434.933211699869
 20
300.9427743738072
 30
0.0
 10
434.9328003293795
 20
300.9523630560411
 30
0.0
 10
434.9339364338781
 20
300.9621284892224
 30
0.0
  0
SPLINE
  5
1E5
330
1F
100
AcDbEntity
  8
1
100
AcDbSpline
210
0.0
220
0.0
230
1.0
 70
     8
 71
     3
 72
    14
 73
    10
 74
     0
 42
0.000000001
 43
0.0000000001
 40
0.0
 40
0.0
 40
0.0
 40
0.0
 40
0.09097796946204
 40
0.09097796946204
 40
0.3939853129746932
 40
0.3939853129746932
 40
0.6969926564873466
 40
0.6969926564873466
 40
1.0
 40
1.0
 40
1.0
 40
1.0
 10
437.5957209593013
 20
299.9390908940333
 30
0.0
 10
437.5988940696019
 20
299.9480895199089
 30
0.0
 10
437.6022751164411
 20
299.9569870006539
 30
0.0
 10
437.6178017758676
 20
299.9950882611747
 30
0.0
 10
437.6320169241652
 20
300.0233005573677
 30
0.0
 10
437.6650585805235
 20
300.0774581155108
 30
0.0
 10
437.6834002385923
 20
300.1026176100394
 30
0.0
 10
437.7234830305438
 20
300.1494380652817
 30
0.0
 10
437.7452259192557
 20
300.1710971152491
 30
0.0
 10
437.7686913449359
 20
300.1910254156709
 30
0.0
  0
SPLINE
  5
1E6
330
1F
100
AcDbEntity
  8
1
100
AcDbSpline
210
0.0
220
0.0
230
1.0
 70
     8
 71
     3
 72
    10
 73
     6
 74
     0
 42
0.000000001
 43
0.0000000001
 40
0.0
 40
0.0
 40
0.0
 40
0.0
 40
0.5
 40
0.5
 40
1.0
 40
1.0
 40
1.0
 40
1.0
 10
437.7686913449359
 20
300.1910254156709
 30
0.0
 10
437.7769771520716
 20
300.1980622389568
 30
0.0
 10
437.7862083017243
 20
300.2034296900471
 30
0.0
 10
437.8062002307524
 20
300.2108801881331
 30
0.0
 10
437.8165354317442
 20
300.2128205098501
 30
0.0
 10
437.8272073934184
 20
300.2130017168087
 30
0.0
  0
SPLINE
  5
1E7
330
1F
100
AcDbEntity
  8
1
100
AcDbSpline
210
0.0
220
0.0
230
1.0
 70
     8
 71
     3
 72
    16
 73
    12
 74
     0
 42
0.000000001
 43
0.0000000001
 40
0.0
 40
0.0
 40
0.0
 40
0.0
 40
0.0631184671013805
 40
0.0631184671013805
 40
0.2504947736809189
 40
0.2504947736809189
 40
0.4378710802604572
 40
0.4378710802604572
 40
0.6252473868399956
 40
0.6252473868399956
 40
1.0
 40
1.0
 40
1.0
 40
1.0
 10
437.8935601261759
 20
300.2424633338111
 30
0.0
 10
437.8924737359971
 20
300.2412955739798
 30
0.0
 10
437.8913560731702
 20
300.2401550273475
 30
0.0
 10
437.8867961203116
 20
300.2357369010451
 30
0.0
 10
437.8831378829989
 20
300.232708405146
 30
0.0
 10
437.8755234365013
 20
300.2273171945162
 30
0.0
 10
437.8715426799157
 20
300.2249302626632
 30
0.0
 10
437.8632401585176
 20
300.220764830677
 30
0.0
 10
437.8588824115879
 20
300.218977348025
 30
0.0
 10
437.8456409020686
 20
300.2146779146379
 30
0.0
 10
437.8365540272474
 20
300.2131604200668
 30
0.0
 10
437.8272073934184
 20
300.2130017168087
 30
0.0
  0
SPLINE
  5
1E8
330
1F
100
AcDbEntity
  8
1
100
AcDbSpline
210
0.0
220
0.0
230
1.0
 70
     8
 71
     3
 72
    36
 73
    32
 74
     0
 42
0.000000001
 43
0.0000000001
 40
0.0
 40
0.0
 40
0.0
 40
0.0
 40
0.1250000000001897
 40
0.1250000000001897
 40
0.1875000000002887
 40
0.1875000000002887
 40
0.2187500000003382
 40
0.2187500000003382
 40
0.2500000000003877
 40
0.2500000000003877
 40
0.3750000000005129
 40
0.3750000000005129
 40
0.4062500000005225
 40
0.4062500000005225
 40
0.437500000000532
 40
0.437500000000532
 40
0.5000000000005058
 40
0.5000000000005058
 40
0.6250000000004594
 40
0.6250000000004594
 40
0.6562500000004202
 40
0.6562500000004202
 40
0.687500000000381
 40
0.7500000000003061
 40
0.8125000000002312
 40
0.8125000000002312
 40
0.8437500000001596
 40
0.8437500000001596
 40
0.8750000000000881
 40
0.8750000000000881
 40
1.0
 40
1.0
 40
1.0
 40
1.0
 10
442.6065532926149
 20
306.0605638276022
 30
0.0
 10
442.604722096032
 20
306.1116819821351
 30
0.0
 10
442.5977612719321
 20
306.1617409483903
 30
0.0
 10
442.5800655543894
 20
306.2353314602277
 30
0.0
 10
442.5729480997576
 20
306.2596099506456
 30
0.0
 10
442.5604138379036
 20
306.2956440216793
 30
0.0
 10
442.5559129026971
 20
306.3076216324022
 30
0.0
 10
442.5463427069558
 20
306.3312900838336
 30
0.0
 10
442.5412834239738
 20
306.3429614168061
 30
0.0
 10
442.5146463691091
 20
306.4005216105606
 30
0.0
 10
442.4890860641431
 20
306.4440444576123
 30
0.0
 10
442.4518946422371
 20
306.4953343262222
 30
0.0
 10
442.4441918658026
 20
306.5054351658245
 30
0.0
 10
442.4282492103413
 20
306.5253177536167
 30
0.0
 10
442.4199892651055
 20
306.535120499922
 30
0.0
 10
442.3946430561663
 20
306.5637577226049
 30
0.0
 10
442.376939472358
 20
306.5818975480981
 30
0.0
 10
442.3214791553898
 20
306.6335432399057
 30
0.0
 10
442.2813959964198
 20
306.6643026392101
 30
0.0
 10
442.2272807176985
 20
306.6980163040437
 30
0.0
 10
442.2162347265676
 20
306.7045297628251
 30
0.0
 10
442.1939691825585
 20
306.7169374467593
 30
0.0
 10
442.1602353051245
 20
306.7346696150478
 30
0.0
 10
442.1023645234127
 20
306.7599054622192
 30
0.0
 10
442.0543251900305
 20
306.7755272753924
 30
0.0
 10
442.0176279282769
 20
306.7854937280582
 30
0.0
 10
442.0052840084793
 20
306.7885236889755
 30
0.0
 10
441.9803681433066
 20
306.7939860569321
 30
0.0
 10
441.9677778577421
 20
306.7964201615233
 30
0.0
 10
441.9048293019797
 20
306.8069659016412
 30
0.0
 10
441.8540716955831
 20
306.8103579165976
 30
0.0
 10
441.8029048644206
 20
306.8085729914153
 30
0.0
  0
SPLINE
  5
1E9
330
1F
100
AcDbEntity
  8
1
100
AcDbSpline
210
0.0
220
0.0
230
1.0
 70
     8
 71
     3
 72
    36
 73
    32
 74
     0
 42
0.000000001
 43
0.0000000001
 40
0.0
 40
0.0
 40
0.0
 40
0.0
 40
0.1249999999999615
 40
0.1249999999999615
 40
0.1874999999999756
 40
0.1874999999999756
 40
0.2187499999999827
 40
0.2187499999999827
 40
0.2499999999999897
 40
0.2499999999999897
 40
0.3750000000000108
 40
0.3750000000000108
 40
0.40625000000003
 40
0.40625000000003
 40
0.4375000000000491
 40
0.4375000000000491
 40
0.5000000000000419
 40
0.5000000000000419
 40
0.6250000000000745
 40
0.6250000000000745
 40
0.6562500000000772
 40
0.6562500000000772
 40
0.6875000000000799
 40
0.750000000000055
 40
0.8125000000000301
 40
0.8125000000000301
 40
0.8437500000000218
 40
0.8437500000000218
 40
0.8750000000000136
 40
0.8750000000000136
 40
1.0
 40
1.0
 40
1.0
 40
1.0
 10
430.6647256653422
 20
306.4200240802164
 30
0.0
 10
430.6135542444815
 20
306.4182389949251
 30
0.0
 10
430.563447578748
 20
306.4113288614929
 30
0.0
 10
430.4897933905079
 20
306.3937156562505
 30
0.0
 10
430.4654949973957
 20
306.3866267938522
 30
0.0
 10
430.4294330887731
 20
306.3741370791134
 30
0.0
 10
430.4174465139012
 20
306.3696513095913
 30
0.0
 10
430.3937609327193
 20
306.3601118062555
 30
0.0
 10
430.3820814464589
 20
306.3550680224591
 30
0.0
 10
430.3244824987388
 20
306.3285092115395
 30
0.0
 10
430.2809350293073
 20
306.3030138734078
 30
0.0
 10
430.2296222502034
 20
306.2659065843111
 30
0.0
 10
430.2195172255391
 20
306.258220782013
 30
0.0
 10
430.1996270738836
 20
306.242312374504
 30
0.0
 10
430.1898209435774
 20
306.2340697427118
 30
0.0
 10
430.161174885332
 20
306.2087754148135
 30
0.0
 10
430.1430308867818
 20
306.191106459835
 30
0.0
 10
430.0913776812557
 20
306.1357501502263
 30
0.0
 10
430.0606198974458
 20
306.0957364894655
 30
0.0
 10
430.0269167976118
 20
306.0417082898632
 30
0.0
 10
430.0204058903791
 20
306.0306797553146
 30
0.0
 10
430.0080041238595
 20
306.0084487755437
 30
0.0
 10
429.9902820650307
 20
305.974766344389
 30
0.0
 10
429.9650691228157
 20
305.9169793420364
 30
0.0
 10
429.9494720388355
 20
305.8690049543707
 30
0.0
 10
429.9395265873862
 20
305.832355605755
 30
0.0
 10
429.9365040366835
 20
305.8200275240668
 30
0.0
 10
429.9310573272521
 20
305.7951430632456
 30
0.0
 10
429.9286314849898
 20
305.7825683650331
 30
0.0
 10
429.9181287973687
 20
305.7196963396549
 30
0.0
 10
429.9147769814601
 20
305.6689960277437
 30
0.0
 10
429.9166080137982
 20
305.6178824581313
 30
0.0
  0
SPLINE
  5
1EA
330
1F
100
AcDbEntity
  8
1
100
AcDbSpline
210
0.0
220
0.0
230
1.0
 70
     8
 71
     3
 72
    36
 73
    32
 74
     0
 42
0.000000001
 43
0.0000000001
 40
0.0
 40
0.0
 40
0.0
 40
0.0
 40
0.1249999999999581
 40
0.1249999999999581
 40
0.1874999999999371
 40
0.1874999999999371
 40
0.2187499999999256
 40
0.2187499999999256
 40
0.2499999999999141
 40
0.2499999999999141
 40
0.3749999999998089
 40
0.3749999999998089
 40
0.4062499999998022
 40
0.4062499999998022
 40
0.4374999999997957
 40
0.4374999999997957
 40
0.4999999999997355
 40
0.4999999999997355
 40
0.6249999999996156
 40
0.6249999999996156
 40
0.6562499999996145
 40
0.6562499999996145
 40
0.6874999999996133
 40
0.749999999999611
 40
0.8124999999996086
 40
0.8124999999996086
 40
0.8437499999996402
 40
0.8437499999996402
 40
0.8749999999996719
 40
0.8749999999996719
 40
1.0
 40
1.0
 40
1.0
 40
1.0
 10
430.3151936959266
 20
294.491297424236
 30
0.0
 10
430.3170248925096
 20
294.4401792697032
 30
0.0
 10
430.3239857166095
 20
294.3901203034479
 30
0.0
 10
430.3416814341521
 20
294.3165297916105
 30
0.0
 10
430.348798888784
 20
294.2922513011925
 30
0.0
 10
430.3613331506381
 20
294.2562172301589
 30
0.0
 10
430.3658340858446
 20
294.244239619436
 30
0.0
 10
430.3754042815857
 20
294.2205711680047
 30
0.0
 10
430.3804635645677
 20
294.2088998350321
 30
0.0
 10
430.4071006194323
 20
294.1513396412776
 30
0.0
 10
430.4326609243986
 20
294.1078167942259
 30
0.0
 10
430.4698523463043
 20
294.056526925616
 30
0.0
 10
430.4775551227391
 20
294.0464260860137
 30
0.0
 10
430.4934977782004
 20
294.0265434982215
 30
0.0
 10
430.5017577234361
 20
294.0167407519162
 30
0.0
 10
430.5271039323753
 20
293.9881035292334
 30
0.0
 10
430.5448075161835
 20
293.9699637037401
 30
0.0
 10
430.6002678331516
 20
293.9183180119326
 30
0.0
 10
430.6403509921216
 20
293.8875586126282
 30
0.0
 10
430.694466270843
 20
293.8538449477945
 30
0.0
 10
430.7055122619738
 20
293.8473314890131
 30
0.0
 10
430.7277778059831
 20
293.8349238050789
 30
0.0
 10
430.7615116834171
 20
293.8171916367905
 30
0.0
 10
430.8193824651288
 20
293.791955789619
 30
0.0
 10
430.8674217985109
 20
293.7763339764458
 30
0.0
 10
430.9041190602648
 20
293.76636752378
 30
0.0
 10
430.9164629800624
 20
293.7633375628627
 30
0.0
 10
430.9413788452349
 20
293.7578751949061
 30
0.0
 10
430.9539691307994
 20
293.7554410903149
 30
0.0
 10
431.0169176865618
 20
293.744895350197
 30
0.0
 10
431.0676752929583
 20
293.7415033352406
 30
0.0
 10
431.118842124121
 20
293.7432882604229
 30
0.0
  0
SPLINE
  5
1EB
330
1F
100
AcDbEntity
  8
1
100
AcDbSpline
210
0.0
220
0.0
230
1.0
 70
     8
 71
     3
 72
    36
 73
    32
 74
     0
 42
0.000000001
 43
0.0000000001
 40
0.0
 40
0.0
 40
0.0
 40
0.0
 40
0.1249999999998214
 40
0.1249999999998214
 40
0.1874999999996986
 40
0.1874999999996986
 40
0.2187499999996376
 40
0.2187499999996376
 40
0.2499999999995766
 40
0.2499999999995766
 40
0.3749999999995203
 40
0.3749999999995203
 40
0.4062499999995194
 40
0.4062499999995194
 40
0.4374999999995186
 40
0.4374999999995186
 40
0.4999999999995679
 40
0.4999999999995679
 40
0.6249999999997131
 40
0.6249999999997131
 40
0.6562499999997498
 40
0.6562499999997498
 40
0.6874999999997864
 40
0.7499999999998277
 40
0.8124999999998689
 40
0.8124999999998689
 40
0.8437499999998884
 40
0.8437499999998884
 40
0.8749999999999081
 40
0.8749999999999081
 40
1.0
 40
1.0
 40
1.0
 40
1.0
 10
442.2570213231993
 20
294.1318371716219
 30
0.0
 10
442.3081927440602
 20
294.1336222569131
 30
0.0
 10
442.3582994097936
 20
294.1405323903453
 30
0.0
 10
442.4319535980336
 20
294.1581455955877
 30
0.0
 10
442.4562519911458
 20
294.1652344579861
 30
0.0
 10
442.4923138997683
 20
294.1777241727248
 30
0.0
 10
442.5043004746403
 20
294.1822099422468
 30
0.0
 10
442.5279860558222
 20
294.1917494455827
 30
0.0
 10
442.5396655420828
 20
294.1967932293792
 30
0.0
 10
442.5972644898028
 20
294.2233520402987
 30
0.0
 10
442.6408119592343
 20
294.2488473784304
 30
0.0
 10
442.6921247383382
 20
294.2859546675271
 30
0.0
 10
442.7022297630023
 20
294.2936404698252
 30
0.0
 10
442.7221199146579
 20
294.3095488773342
 30
0.0
 10
442.7319260449642
 20
294.3177915091264
 30
0.0
 10
442.7605721032095
 20
294.3430858370247
 30
0.0
 10
442.7787161017596
 20
294.3607547920032
 30
0.0
 10
442.8303693072858
 20
294.4161111016119
 30
0.0
 10
442.8611270910959
 20
294.4561247623727
 30
0.0
 10
442.8948301909297
 20
294.5101529619751
 30
0.0
 10
442.9013410981625
 20
294.5211814965237
 30
0.0
 10
442.9137428646821
 20
294.5434124762945
 30
0.0
 10
442.9314649235109
 20
294.5770949074492
 30
0.0
 10
442.9566778657259
 20
294.6348819098019
 30
0.0
 10
442.9722749497062
 20
294.6828562974675
 30
0.0
 10
442.9822204011554
 20
294.7195056460832
 30
0.0
 10
442.9852429518579
 20
294.7318337277714
 30
0.0
 10
442.9906896612895
 20
294.7567181885926
 30
0.0
 10
442.9931155035517
 20
294.7692928868051
 30
0.0
 10
443.003618191173
 20
294.8321649121833
 30
0.0
 10
443.0069700070815
 20
294.8828652240946
 30
0.0
 10
443.0051389747434
 20
294.9339787937068
 30
0.0
  0
SPLINE
  5
1EC
330
1F
100
AcDbEntity
  8
1
100
AcDbSpline
210
0.0
220
0.0
230
1.0
 70
     8
 71
     3
 72
     8
 73
     4
 74
     0
 42
0.000000001
 43
0.0000000001
 40
0.0
 40
0.0
 40
0.0
 40
0.0
 40
1.0
 40
1.0
 40
1.0
 40
1.0
 10
442.0081269389876
 20
279.8092402055162
 30
0.0
 10
442.0251824081699
 20
279.8231778142169
 30
0.0
 10
442.0409723155493
 20
279.8384259505285
 30
0.0
 10
442.0554966611258
 20
279.8549846144508
 30
0.0
  0
SPLINE
  5
1ED
330
1F
100
AcDbEntity
  8
1
100
AcDbSpline
210
0.0
220
0.0
230
1.0
 70
     8
 71
     3
 72
     8
 73
     4
 74
     0
 42
0.000000001
 43
0.0000000001
 40
0.0
 40
0.0
 40
0.0
 40
0.0
 40
1.0
 40
1.0
 40
1.0
 40
1.0
 10
442.5894505876547
 20
280.7436331788933
 30
0.0
 10
442.5972522528897
 20
280.7642312366872
 30
0.0
 10
442.6033026456479
 20
280.7853314637831
 30
0.0
 10
442.6076017659293
 20
280.8069338601809
 30
0.0
  0
SPLINE
  5
1EE
330
1F
100
AcDbEntity
  8
1
100
AcDbSpline
210
0.0
220
0.0
230
1.0
 70
     8
 71
     3
 72
     8
 73
     4
 74
     0
 42
0.000000001
 43
0.0000000001
 40
0.0
 40
0.0
 40
0.0
 40
0.0
 40
1.0
 40
1.0
 40
1.0
 40
1.0
 10
442.7311931720171
 20
287.8874807728481
 30
0.0
 10
442.7276505834055
 20
287.9092200467837
 30
0.0
 10
442.722340263689
 20
287.9305185758535
 30
0.0
 10
442.7152622128679
 20
287.9513763600573
 30
0.0
  0
SPLINE
  5
1EF
330
1F
100
AcDbEntity
  8
1
100
AcDbSpline
210
0.0
220
0.0
230
1.0
 70
     8
 71
     3
 72
     8
 73
     4
 74
     0
 42
0.000000001
 43
0.0000000001
 40
0.0
 40
0.0
 40
0.0
 40
0.0
 40
1.0
 40
1.0
 40
1.0
 40
1.0
 10
442.2126469442885
 20
288.8581183071029
 30
0.0
 10
442.1987093355879
 20
288.8751737762852
 30
0.0
 10
442.1834611992762
 20
288.8909636836646
 30
0.0
 10
442.166902535354
 20
288.9054880292412
 30
0.0
  0
SPLINE
  5
1F0
330
1F
100
AcDbEntity
  8
1
100
AcDbSpline
210
0.0
220
0.0
230
1.0
 70
     8
 71
     3
 72
    10
 73
     6
 74
     0
 42
0.000000001
 43
0.0000000001
 40
0.0
 40
0.0
 40
0.0
 40
0.0
 40
0.5
 40
0.5
 40
1.0
 40
1.0
 40
1.0
 40
1.0
 10
423.16254464371
 20
295.1968406888215
 30
0.0
 10
423.417941016916
 20
295.0026937203087
 30
0.0
 10
423.6669345476521
 20
294.8104878071743
 30
0.0
 10
424.1508112366597
 20
294.43035361455
 30
0.0
 10
424.3857010964478
 20
294.2424233034599
 30
0.0
 10
424.6126490489013
 20
294.0569006233588
 30
0.0
  0
SPLINE
  5
1F1
330
1F
100
AcDbEntity
  8
1
100
AcDbSpline
210
0.0
220
0.0
230
1.0
 70
     8
 71
     3
 72
     8
 73
     4
 74
     0
 42
0.000000001
 43
0.0000000001
 40
0.0
 40
0.0
 40
0.0
 40
0.0
 40
1.0
 40
1.0
 40
1.0
 40
1.0
 10
305.3871660098794
 20
282.0808757898575
 30
0.0
 10
305.3874203995817
 20
282.1095641058516
 30
0.0
 10
305.3876748675688
 20
282.1382526439021
 30
0.0
 10
305.3879294139141
 20
282.1669414042182
 30
0.0
  0
SPLINE
  5
1F2
330
1F
100
AcDbEntity
  8
1
100
AcDbSpline
210
0.0
220
0.0
230
1.0
 70
     8
 71
     3
 72
     8
 73
     4
 74
     0
 42
0.000000001
 43
0.0000000001
 40
0.0
 40
0.0
 40
0.0
 40
0.0
 40
1.0
 40
1.0
 40
1.0
 40
1.0
 10
423.1625446437099
 20
295.1968406888213
 30
0.0
 10
422.7779531928296
 20
295.4333398228685
 30
0.0
 10
422.3867160323476
 20
295.6728475676765
 30
0.0
 10
421.9894942917756
 20
295.9150646201636
 30
0.0
  0
SPLINE
  5
1F3
330
1F
100
AcDbEntity
  8
1
100
AcDbSpline
210
0.0
220
0.0
230
1.0
 70
     8
 71
     3
 72
    22
 73
    18
 74
     0
 42
0.000000001
 43
0.0000000001
 40
0.0
 40
0.0
 40
0.0
 40
0.0
 40
0.125
 40
0.125
 40
0.25
 40
0.25
 40
0.375
 40
0.375
 40
0.5
 40
0.5
 40
0.625
 40
0.625
 40
0.75
 40
0.75
 40
0.875
 40
0.875
 40
1.0
 40
1.0
 40
1.0
 40
1.0
 10
289.3923341230149
 20
271.7350345051811
 30
0.0
 10
289.8451009955455
 20
271.6971895565274
 30
0.0
 10
290.3000408321889
 20
271.6639125316977
 30
0.0
 10
291.2129777279162
 20
271.6046536206728
 30
0.0
 10
291.6709721359539
 20
271.5786746064556
 30
0.0
 10
292.5888047970229
 20
271.5327713052674
 30
0.0
 10
293.0486380422152
 20
271.5128495986715
 30
0.0
 10
293.9691268795431
 20
271.4783363705805
 30
0.0
 10
294.4297763237836
 20
271.4637489772045
 30
0.0
 10
295.35124141722
 20
271.4396020032331
 30
0.0
 10
295.8120522934623
 20
271.4300492253781
 30
0.0
 10
296.7337240271563
 20
271.4159303404875
 30
0.0
 10
297.1945842075919
 20
271.4113729981808
 30
0.0
 10
298.1168696360237
 20
271.4072265273202
 30
0.0
 10
298.5782991971959
 20
271.4076453839476
 30
0.0
 10
299.5028160018171
 20
271.4131923107158
 30
0.0
 10
299.9659106946457
 20
271.4183245211775
 30
0.0
 10
300.4305763687543
 20
271.4254652081839
 30
0.0
  0
SPLINE
  5
1F4
330
1F
100
AcDbEntity
  8
1
100
AcDbSpline
210
0.0
220
0.0
230
1.0
 70
     8
 71
     3
 72
    48
 73
    44
 74
     0
 42
0.000000001
 43
0.0000000001
 40
0.0
 40
0.0
 40
0.0
 40
0.0
 40
0.1249999999999346
 40
0.1249999999999346
 40
0.2499999999998693
 40
0.2499999999998693
 40
0.3749999999998039
 40
0.3749999999998039
 40
0.4374999999997938
 40
0.4374999999997938
 40
0.4999999999997835
 40
0.4999999999997835
 40
0.5624999999997735
 40
0.5624999999997735
 40
0.5937499999997829
 40
0.5937499999997829
 40
0.6249999999997924
 40
0.6249999999997924
 40
0.6874999999998117
 40
0.6874999999998117
 40
0.718749999999822
 40
0.718749999999822
 40
0.7499999999998324
 40
0.7499999999998324
 40
0.7812499999998428
 40
0.7812499999998428
 40
0.7968749999998403
 40
0.7968749999998403
 40
0.8124999999998376
 40
0.8124999999998376
 40
0.8437499999998305
 40
0.8437499999998305
 40
0.8749999999998236
 40
0.8749999999998236
 40
0.8906249999998451
 40
0.8906249999998451
 40
0.9062499999998667
 40
0.9062499999998667
 40
0.9374999999999111
 40
0.9374999999999111
 40
0.9687499999999555
 40
0.9687499999999555
 40
1.0
 40
1.0
 40
1.0
 40
1.0
 10
421.9894942917756
 20
295.9150646201636
 30
0.0
 10
421.9513303528324
 20
295.9383361480232
 30
0.0
 10
421.914158070423
 20
295.9626267028501
 30
0.0
 10
421.8420430144593
 20
296.0135129344604
 30
0.0
 10
421.8070958904676
 20
296.0401041883415
 30
0.0
 10
421.7398803394575
 20
296.0960643209581
 30
0.0
 10
421.707599857891
 20
296.1254209921852
 30
0.0
 10
421.6618435657376
 20
296.1722163364194
 30
0.0
 10
421.6470113188523
 20
296.1883122804662
 30
0.0
 10
421.6185739359974
 20
296.2214872898461
 30
0.0
 10
421.6050262711181
 20
296.2384932591469
 30
0.0
 10
421.5795693098203
 20
296.2735229733434
 30
0.0
 10
421.56765573425
 20
296.291544143291
 30
0.0
 10
421.5513732925091
 20
296.319557363689
 30
0.0
 10
421.5462122403411
 20
296.3290597506983
 30
0.0
 10
421.5365170482122
 20
296.3484507628773
 30
0.0
 10
421.5319712220676
 20
296.358367114451
 30
0.0
 10
421.5195555952153
 20
296.3886020343876
 30
0.0
 10
421.5129046384263
 20
296.4092999784775
 30
0.0
 10
421.5064544150412
 20
296.4415073844561
 30
0.0
 10
421.5049029301177
 20
296.4524852674139
 30
0.0
 10
421.5033223618416
 20
296.4744042968152
 30
0.0
 10
421.5032776737166
 20
296.4853941442322
 30
0.0
 10
421.5049482719788
 20
296.5074423926886
 30
0.0
 10
421.5066613847345
 20
296.5185007289451
 30
0.0
 10
421.5108435465985
 20
296.5351482686648
 30
0.0
 10
421.5125160468048
 20
296.5407217121168
 30
0.0
 10
421.5163647458552
 20
296.5516356067728
 30
0.0
 10
421.5185468352756
 20
296.5570059547941
 30
0.0
 10
421.5258804782551
 20
296.5728518256849
 30
0.0
 10
421.5318221368991
 20
296.5830683685498
 30
0.0
 10
421.5458919446797
 20
296.6027331283747
 30
0.0
 10
421.553796650942
 20
296.6118744463638
 30
0.0
 10
421.5668063371642
 20
296.624669048333
 30
0.0
 10
421.571335542397
 20
296.6287805975738
 30
0.0
 10
421.5807593552878
 20
296.6367126484127
 30
0.0
 10
421.5856727414871
 20
296.6405453556239
 30
0.0
 10
421.6007010614786
 20
296.6514651136021
 30
0.0
 10
421.6111504879851
 20
296.6580270527087
 30
0.0
 10
421.6327433535203
 20
296.6699931492182
 30
0.0
 10
421.6438877465571
 20
296.67539572077
 30
0.0
 10
421.6667586657232
 20
296.6852293215627
 30
0.0
 10
421.6784826662913
 20
296.6896547358788
 30
0.0
 10
421.6903283943456
 20
296.6936257738902
 30
0.0
  0
SPLINE
  5
1F5
330
1F
100
AcDbEntity
  8
1
100
AcDbSpline
210
0.0
220
0.0
230
1.0
 70
     8
 71
     3
 72
    24
 73
    20
 74
     0
 42
0.000000001
 43
0.0000000001
 40
0.0
 40
0.0
 40
0.0
 40
0.0
 40
0.125000000000009
 40
0.125000000000009
 40
0.2500000000000181
 40
0.2500000000000181
 40
0.3750000000000271
 40
0.3750000000000271
 40
0.5000000000000363
 40
0.5000000000000363
 40
0.6250000000000453
 40
0.6250000000000453
 40
0.6875000000000436
 40
0.6875000000000436
 40
0.718750000000043
 40
0.718750000000043
 40
0.7500000000000422
 40
0.7500000000000422
 40
1.0
 40
1.0
 40
1.0
 40
1.0
 10
424.6976175501806
 20
291.5734629824969
 30
0.0
 10
424.5221526670455
 20
291.6459688430955
 30
0.0
 10
424.3434063536019
 20
291.7222440987672
 30
0.0
 10
423.9803376786592
 20
291.8811998438331
 30
0.0
 10
423.7960121031639
 20
291.9638840251599
 30
0.0
 10
423.4225239658298
 20
292.1348086577264
 30
0.0
 10
423.2333654850085
 20
292.2230444210807
 30
0.0
 10
422.8508613829571
 20
292.4043257364928
 30
0.0
 10
422.6575041324842
 20
292.4973846471188
 30
0.0
 10
422.2670279157035
 20
292.6878235697809
 30
0.0
 10
422.0699081085395
 20
292.7852045477128
 30
0.0
 10
421.7716774977498
 20
292.9342062459895
 30
0.0
 10
421.6718415488708
 20
292.9843625344404
 30
0.0
 10
421.5214781869953
 20
293.0602970321732
 30
0.0
 10
421.4712343283795
 20
293.0857359990434
 30
0.0
 10
421.3706988931069
 20
293.1367654236203
 30
0.0
 10
421.320398361648
 20
293.1623603423233
 30
0.0
 10
420.8674068963315
 20
293.393415344317
 30
0.0
 10
420.4627232584583
 20
293.6037461690058
 30
0.0
 10
420.0564014713651
 20
293.8180811012578
 30
0.0
  0
SPLINE
  5
1F6
330
1F
100
AcDbEntity
  8
1
100
AcDbSpline
210
0.0
220
0.0
230
1.0
 70
     8
 71
     3
 72
    28
 73
    24
 74
     0
 42
0.000000001
 43
0.0000000001
 40
0.0
 40
0.0
 40
0.0
 40
0.0
 40
0.0880904477580917
 40
0.0880904477580917
 40
0.1792814029822822
 40
0.1792814029822822
 40
0.2704723582064727
 40
0.2704723582064727
 40
0.3616633134306632
 40
0.3616633134306632
 40
0.4528542686548537
 40
0.4528542686548537
 40
0.5440452238790443
 40
0.5440452238790443
 40
0.6352361791032354
 40
0.6352361791032354
 40
0.7264271343274269
 40
0.7264271343274269
 40
0.8176180895516178
 40
0.8176180895516178
 40
0.9088090447758091
 40
0.9088090447758091
 40
1.0
 40
1.0
 40
1.0
 40
1.0
 10
354.3782263289211
 20
274.8809543129265
 30
0.0
 10
353.4438886416038
 20
274.7619716485347
 30
0.0
 10
352.5091382261058
 20
274.6474302586583
 30
0.0
 10
350.6058063593812
 20
274.4230475042666
 30
0.0
 10
349.637215221179
 20
274.3134348292938
 30
0.0
 10
347.6996062477025
 20
274.1014439851665
 30
0.0
 10
346.7305887020314
 20
273.9990677630354
 30
0.0
 10
344.7925621083211
 20
273.8002596232993
 30
0.0
 10
343.8235531938508
 20
273.7038296754226
 30
0.0
 10
341.8858998385575
 20
273.5160742324566
 30
0.0
 10
340.9172554480015
 20
273.4247506454221
 30
0.0
 10
338.9806054071586
 20
273.2467599972388
 30
0.0
 10
338.0125997768609
 20
273.1600947666454
 30
0.0
 10
336.077418949333
 20
272.9913087421281
 30
0.0
 10
335.1102437757857
 20
272.909189735335
 30
0.0
 10
333.1768324417181
 20
272.7496658137273
 30
0.0
 10
332.2105963252898
 20
272.6722627107507
 30
0.0
 10
330.2790876062777
 20
272.5225683035097
 30
0.0
 10
329.3138150698415
 20
272.4502789227827
 30
0.0
 10
327.3841722722331
 20
272.3113820379307
 30
0.0
 10
326.4198020881997
 20
272.244776658367
 30
0.0
 10
324.4918148139106
 20
272.1179298455372
 30
0.0
 10
323.5281977906368
 20
272.0576908103038
 30
0.0
 10
322.5648376256412
 20
272.0009969871969
 30
0.0
  0
SPLINE
  5
1F7
330
1F
100
AcDbEntity
  8
1
100
AcDbSpline
210
0.0
220
0.0
230
1.0
 70
     8
 71
     3
 72
    30
 73
    26
 74
     0
 42
0.000000001
 43
0.0000000001
 40
0.0
 40
0.0
 40
0.0
 40
0.0
 40
0.1445661226039723
 40
0.1445661226039723
 40
0.2891322452079446
 40
0.2891322452079446
 40
0.3614153065099307
 40
0.3614153065099307
 40
0.4336983678119168
 40
0.4336983678119168
 40
0.505981429113903
 40
0.505981429113903
 40
0.57826449041589
 40
0.57826449041589
 40
0.6505475517178767
 40
0.6505475517178767
 40
0.7228306130198638
 40
0.7228306130198638
 40
0.7951136743218506
 40
0.7951136743218506
 40
0.8673967356238375
 40
0.8673967356238375
 40
0.9396797969258244
 40
0.9396797969258244
 40
1.0
 40
1.0
 40
1.0
 40
1.0
 10
322.5648376256412
 20
272.0009969871969
 30
0.0
 10
323.9485222509943
 20
272.1842939392041
 30
0.0
 10
325.3338623779093
 20
272.3701115813374
 30
0.0
 10
328.1090658163245
 20
272.7377756173874
 30
0.0
 10
329.4989343613259
 20
272.9195623469428
 30
0.0
 10
331.5875807341246
 20
273.1832024920671
 30
0.0
 10
332.2844314327455
 20
273.2695894218391
 30
0.0
 10
333.6794042781505
 20
273.4386562125722
 30
0.0
 10
334.3775266002119
 20
273.5213330333427
 30
0.0
 10
335.7749874702636
 20
273.6825503480277
 30
0.0
 10
336.4743260879912
 20
273.7610882276907
 30
0.0
 10
337.8741037770652
 20
273.9139829324568
 30
0.0
 10
338.5745696390195
 20
273.9883408753349
 30
0.0
 10
339.9762189082216
 20
274.1332596202017
 30
0.0
 10
340.6774189785162
 20
274.2038224020518
 30
0.0
 10
342.0803817572463
 20
274.3420417939309
 30
0.0
 10
342.7821441188858
 20
274.4096998126709
 30
0.0
 10
344.1860089498592
 20
274.5434512384646
 30
0.0
 10
344.888111008218
 20
274.6095470992396
 30
0.0
 10
346.2924104471422
 20
274.7419105176661
 30
0.0
 10
346.9946166585931
 20
274.8081818109687
 30
0.0
 10
348.3988153488988
 20
274.9429398253495
 30
0.0
 10
349.1008041137558
 20
275.0114288901024
 30
0.0
 10
350.3881148133532
 20
275.141186069785
 30
0.0
 10
350.9735166568153
 20
275.2017785113507
 30
0.0
 10
351.5586464384672
 20
275.2646317421328
 30
0.0
  0
SPLINE
  5
1F8
330
1F
100
AcDbEntity
  8
1
100
AcDbSpline
210
0.0
220
0.0
230
1.0
 70
     8
 71
     3
 72
    36
 73
    32
 74
     0
 42
0.000000001
 43
0.0000000001
 40
0.0
 40
0.0
 40
0.0
 40
0.0
 40
0.1250000000000008
 40
0.1250000000000008
 40
0.2500000000000014
 40
0.2500000000000014
 40
0.375000000000002
 40
0.375000000000002
 40
0.4062500000000022
 40
0.421875000000002
 40
0.421875000000002
 40
0.4375000000000019
 40
0.4375000000000019
 40
0.5000000000000013
 40
0.5000000000000013
 40
0.6249999999999997
 40
0.6249999999999997
 40
0.6874999999999987
 40
0.6874999999999987
 40
0.7499999999999978
 40
0.7499999999999978
 40
0.7812499999999974
 40
0.7968749999999974
 40
0.7968749999999974
 40
0.8124999999999971
 40
0.8124999999999971
 40
0.8749999999999982
 40
0.8749999999999982
 40
0.9374999999999992
 40
0.9374999999999992
 40
1.0
 40
1.0
 40
1.0
 40
1.0
 10
279.4048419453091
 20
280.0577495044054
 30
0.0
 10
279.7212089313855
 20
280.4218331493528
 30
0.0
 10
280.0505576262818
 20
280.7694391626263
 30
0.0
 10
280.7353545978248
 20
281.4338438637674
 30
0.0
 10
281.0908015193208
 20
281.7506295521806
 30
0.0
 10
281.8288566811363
 20
282.3539570808866
 30
0.0
 10
282.2114553041427
 20
282.6405012444465
 30
0.0
 10
282.7080147092433
 20
282.9792701032514
 30
0.0
 10
282.858360569169
 20
283.0794394502271
 30
0.0
 10
283.0108267506381
 20
283.1773851147522
 30
0.0
 10
283.1129487248921
 20
283.2421837394851
 30
0.0
 10
283.1642721604692
 20
283.2743481013791
 30
0.0
 10
283.4215561345511
 20
283.4335781743992
 30
0.0
 10
283.6298363789357
 20
283.5560828940471
 30
0.0
 10
284.262212480702
 20
283.9088584490334
 30
0.0
 10
284.6938110931238
 20
284.1244600911725
 30
0.0
 10
285.3574538481868
 20
284.416953738933
 30
0.0
 10
285.581383145614
 20
284.5092838671791
 30
0.0
 10
286.0349851890095
 20
284.6831213786677
 30
0.0
 10
286.2646572019663
 20
284.7646302510757
 30
0.0
 10
286.6137783822327
 20
284.8782641443468
 30
0.0
 10
286.7894934791162
 20
284.9329212105023
 30
0.0
 10
286.9670102592497
 20
284.9842161779888
 30
0.0
 10
287.0857639066225
 20
285.017650059727
 30
0.0
 10
287.1453865313699
 20
285.0339965633281
 30
0.0
 10
287.4439767712413
 20
285.1136314969131
 30
0.0
 10
287.6841658229218
 20
285.1705922846931
 30
0.0
 10
288.1672983420622
 20
285.2704085297391
 30
0.0
 10
288.4102415608505
 20
285.3132654333568
 30
0.0
 10
288.8990458922402
 20
285.3840186547341
 30
0.0
 10
289.1449066488721
 20
285.4119170591264
 30
0.0
 10
289.3923341230378
 20
285.4317583304384
 30
0.0
  0
SPLINE
  5
1F9
330
1F
100
AcDbEntity
  8
1
100
AcDbSpline
210
0.0
220
0.0
230
1.0
 70
     8
 71
     3
 72
    34
 73
    30
 74
     0
 42
0.000000001
 43
0.0000000001
 40
0.0
 40
0.0
 40
0.0
 40
0.0
 40
0.0624999999999641
 40
0.0624999999999641
 40
0.1249999999999283
 40
0.1249999999999283
 40
0.2499999999998224
 40
0.2499999999998224
 40
0.281249999999796
 40
0.281249999999796
 40
0.3124999999997696
 40
0.3124999999997696
 40
0.3749999999997526
 40
0.3749999999997526
 40
0.4999999999997181
 40
0.4999999999997181
 40
0.5624999999997199
 40
0.5624999999997199
 40
0.5937499999997398
 40
0.5937499999997398
 40
0.6249999999997599
 40
0.6249999999997599
 40
0.6874999999998
 40
0.6874999999998
 40
0.74999999999984
 40
0.74999999999984
 40
0.8749999999999198
 40
0.8749999999999198
 40
1.0
 40
1.0
 40
1.0
 40
1.0
 10
433.3380126728468
 20
293.3603236991528
 30
0.0
 10
433.2999622560778
 20
293.3350996095003
 30
0.0
 10
433.2614931747654
 20
293.3110332058268
 30
0.0
 10
433.1836865616235
 20
293.2651156681803
 30
0.0
 10
433.144349290975
 20
293.2432649075881
 30
0.0
 10
433.0249876079718
 20
293.180948804018
 30
0.0
 10
432.9436199277822
 20
293.1437048053572
 30
0.0
 10
432.8394437556929
 20
293.1024782751797
 30
0.0
 10
432.8184846943012
 20
293.0945005938551
 30
0.0
 10
432.7763109756411
 20
293.0790841611783
 30
0.0
 10
432.7550711296758
 20
293.0716372135551
 30
0.0
 10
432.6911862639588
 20
293.0501895811628
 30
0.0
 10
432.6483704115791
 20
293.0370749462492
 30
0.0
 10
432.5191604294984
 20
293.0012446648514
 30
0.0
 10
432.4320077790178
 20
292.9820242726894
 30
0.0
 10
432.299338643356
 20
292.9603759293933
 30
0.0
 10
432.2547909606353
 20
292.9543615692643
 30
0.0
 10
432.1874277081407
 20
292.9472054642368
 30
0.0
 10
432.1648830434455
 20
292.9451312653656
 30
0.0
 10
432.1196052335811
 20
292.9416185286848
 30
0.0
 10
432.0968394845829
 20
292.9401784731942
 30
0.0
 10
432.0284641977742
 20
292.9368442450851
 30
0.0
 10
431.9832079565239
 20
292.9359525560919
 30
0.0
 10
431.8933107068904
 20
292.9367159445441
 30
0.0
 10
431.8486691556168
 20
292.9383706921188
 30
0.0
 10
431.7155606072089
 20
292.9470117964417
 30
0.0
 10
431.6279078669567
 20
292.9576572592178
 30
0.0
 10
431.4541012682621
 20
292.9883266981395
 30
0.0
 10
431.3679439677785
 20
293.008349494685
 30
0.0
 10
431.2822360954112
 20
293.0331473106678
 30
0.0
  0
SPLINE
  5
1FA
330
1F
100
AcDbEntity
  8
1
100
AcDbSpline
210
0.0
220
0.0
230
1.0
 70
     8
 71
     3
 72
    27
 73
    23
 74
     0
 42
0.000000001
 43
0.0000000001
 40
0.0
 40
0.0
 40
0.0
 40
0.0
 40
0.125000000000006
 40
0.2500000000000121
 40
0.3750000000000181
 40
0.4062500000000167
 40
0.4062500000000167
 40
0.4375000000000152
 40
0.4375000000000152
 40
0.5000000000000125
 40
0.5000000000000125
 40
0.6249999999999954
 40
0.6249999999999954
 40
0.6874999999999925
 40
0.6874999999999925
 40
0.718749999999991
 40
0.718749999999991
 40
0.7499999999999894
 40
0.7499999999999894
 40
0.8749999999999946
 40
0.8749999999999946
 40
1.0
 40
1.0
 40
1.0
 40
1.0
 10
431.2823956729576
 20
292.7612127972697
 30
0.0
 10
430.9907947639556
 20
292.7509692430054
 30
0.0
 10
430.4092526476011
 20
292.7505560960543
 30
0.0
 10
429.5418320264614
 20
292.8090747806852
 30
0.0
 10
428.8949254900598
 20
292.8971483131963
 30
0.0
 10
428.5368183722564
 20
292.9615791456244
 30
0.0
 10
428.3936791065561
 20
292.9885999989384
 30
0.0
 10
428.3221939064673
 20
293.0027287481222
 30
0.0
 10
428.1083894949307
 20
293.0468863898549
 30
0.0
 10
427.9665690587747
 20
293.078714431764
 30
0.0
 10
427.5432421237207
 20
293.1813146394702
 30
0.0
 10
427.2638674014838
 20
293.2591947589161
 30
0.0
 10
426.8490649785015
 20
293.3901737260494
 30
0.0
 10
426.7115080974369
 20
293.4361952248148
 30
0.0
 10
426.5062439174465
 20
293.5087809236713
 30
0.0
 10
426.4379686580649
 20
293.5335809129739
 30
0.0
 10
426.301997171498
 20
293.5842855346814
 30
0.0
 10
426.2342904826351
 20
293.6101931428627
 30
0.0
 10
425.8971467416677
 20
293.74249303604
 30
0.0
 10
425.6318736590615
 20
293.8571617741689
 30
0.0
 10
425.1101518647439
 20
294.103931188337
 30
0.0
 10
424.8537031273176
 20
294.2360323809642
 30
0.0
 10
424.6017023233115
 20
294.3768487213534
 30
0.0
  0
SPLINE
  5
1FB
330
1F
100
AcDbEntity
  8
1
100
AcDbSpline
210
0.0
220
0.0
230
1.0
 70
     8
 71
     3
 72
    25
 73
    21
 74
     0
 42
0.000000001
 43
0.0000000001
 40
0.0
 40
0.0
 40
0.0
 40
0.0
 40
0.1249999999999835
 40
0.1249999999999835
 40
0.249999999999967
 40
0.249999999999967
 40
0.3124999999999641
 40
0.3124999999999641
 40
0.3749999999999613
 40
0.3749999999999613
 40
0.499999999999967
 40
0.499999999999967
 40
0.5624999999999755
 40
0.5624999999999755
 40
0.624999999999984
 40
0.624999999999984
 40
0.7499999999999893
 40
0.8749999999999946
 40
0.8749999999999946
 40
1.0
 40
1.0
 40
1.0
 40
1.0
 10
424.7204709670388
 20
290.905509154989
 30
0.0
 10
424.9705120538354
 20
290.7524728168351
 30
0.0
 10
425.2255360522744
 20
290.609052023511
 30
0.0
 10
425.7454454580194
 20
290.3413656373776
 30
0.0
 10
426.0103305991629
 20
290.2170993976562
 30
0.0
 10
426.415079994353
 20
290.0452001880041
 30
0.0
 10
426.5513376160275
 20
289.9902846807789
 30
0.0
 10
426.8252508223836
 20
289.8857388061987
 30
0.0
 10
426.9630171644221
 20
289.8360570141542
 30
0.0
 10
427.3787294944591
 20
289.6947432942528
 30
0.0
 10
427.6590855335929
 20
289.6108328811725
 30
0.0
 10
428.0844357620829
 20
289.5004289226824
 30
0.0
 10
428.2270573639949
 20
289.4661994292123
 30
0.0
 10
428.5137743118594
 20
289.4029640207975
 30
0.0
 10
428.6573768756111
 20
289.3740653585336
 30
0.0
 10
429.0889071497464
 20
289.2954212189722
 30
0.0
 10
429.6662056834442
 20
289.2120114046159
 30
0.0
 10
430.247301417646
 20
289.1709351941772
 30
0.0
 10
430.8303023939166
 20
289.1511048441549
 30
0.0
 10
431.122755422781
 20
289.1518117137875
 30
0.0
 10
431.4161812386493
 20
289.1633663019859
 30
0.0
  0
SPLINE
  5
1FC
330
1F
100
AcDbEntity
  8
1
100
AcDbSpline
210
0.0
220
0.0
230
1.0
 70
     8
 71
     3
 72
     8
 73
     4
 74
     0
 42
0.000000001
 43
0.0000000001
 40
0.0
 40
0.0
 40
0.0
 40
0.0
 40
1.0
 40
1.0
 40
1.0
 40
1.0
 10
431.2823956729576
 20
292.7612127972697
 30
0.0
 10
431.285953314028
 20
292.7613377724952
 30
0.0
 10
431.289511919791
 20
292.7614623472323
 30
0.0
 10
431.2930714918053
 20
292.7615865208344
 30
0.0
  0
SPLINE
  5
1FD
330
1F
100
AcDbEntity
  8
1
100
AcDbSpline
210
0.0
220
0.0
230
1.0
 70
     8
 71
     3
 72
    71
 73
    67
 74
     0
 42
0.000000001
 43
0.0000000001
 40
0.0
 40
0.0
 40
0.0
 40
0.0
 40
0.0624999999999982
 40
0.0624999999999982
 40
0.1249999999999964
 40
0.1249999999999964
 40
0.1874999999999946
 40
0.1874999999999946
 40
0.2499999999999927
 40
0.2499999999999927
 40
0.3124999999999909
 40
0.3124999999999909
 40
0.34374999999999
 40
0.34374999999999
 40
0.3593749999999911
 40
0.3593749999999911
 40
0.374999999999992
 40
0.374999999999992
 40
0.4062499999999943
 40
0.4062499999999943
 40
0.4374999999999964
 40
0.4374999999999964
 40
0.4687499999999988
 40
0.4687499999999988
 40
0.4843749999999988
 40
0.4843749999999988
 40
0.499999999999999
 40
0.499999999999999
 40
0.5312499999999982
 40
0.5312499999999982
 40
0.5468749999999976
 40
0.5546874999999972
 40
0.5546874999999972
 40
0.5624999999999967
 40
0.5624999999999967
 40
0.5937499999999958
 40
0.5937499999999958
 40
0.6249999999999949
 40
0.6249999999999949
 40
0.6328124999999945
 40
0.6328124999999945
 40
0.640624999999994
 40
0.640624999999994
 40
0.656249999999996
 40
0.656249999999996
 40
0.6874999999999968
 40
0.6874999999999968
 40
0.7031249999999955
 40
0.7031249999999955
 40
0.7187499999999942
 40
0.7187499999999942
 40
0.7499999999999948
 40
0.7499999999999948
 40
0.7812499999999955
 40
0.7812499999999955
 40
0.812499999999996
 40
0.812499999999996
 40
0.8437499999999968
 40
0.8437499999999968
 40
0.8749999999999975
 40
0.8749999999999975
 40
0.906249999999998
 40
0.906249999999998
 40
0.9374999999999987
 40
0.9374999999999987
 40
1.0
 40
1.0
 40
1.0
 40
1.0
 10
424.6126490489013
 20
294.0569006233591
 30
0.0
 10
424.7965050214313
 20
293.9066042562511
 30
0.0
 10
424.9797574855106
 20
293.7621392699481
 30
0.0
 10
425.3442347067842
 20
293.4839966529576
 30
0.0
 10
425.5254646539204
 20
293.3503210593885
 30
0.0
 10
425.8847630854143
 20
293.0929877102276
 30
0.0
 10
426.0628410012613
 20
292.9693320774851
 30
0.0
 10
426.4141731890911
 20
292.7313095149494
 30
0.0
 10
426.5873943142936
 20
292.6169529000493
 30
0.0
 10
426.926679736379
 20
292.3967317503564
 30
0.0
 10
427.0928389749674
 20
292.2908637064947
 30
0.0
 10
427.3337853878591
 20
292.137769068769
 30
0.0
 10
427.4127032666331
 20
292.087687515038
 30
0.0
 10
427.5283890485283
 20
292.0138912539496
 30
0.0
 10
427.5665212763953
 20
291.9895000735675
 30
0.0
 10
427.6416661470169
 20
291.9412002453614
 30
0.0
 10
427.6786242630751
 20
291.9173267249669
 30
0.0
 10
427.7874341097141
 20
291.8465113820168
 30
0.0
 10
427.857236726778
 20
291.8003746648157
 30
0.0
 10
427.989870696918
 20
291.7101211506344
 30
0.0
 10
428.0527098854611
 20
291.6660038513414
 30
0.0
 10
428.1693474986314
 20
291.5796708131377
 30
0.0
 10
428.2231585299086
 20
291.537453776872
 30
0.0
 10
428.2948818396838
 20
291.4754910137735
 30
0.0
 10
428.3172872453988
 20
291.4550598191398
 30
0.0
 10
428.3585736406573
 20
291.4146680175438
 30
0.0
 10
428.377302320698
 20
291.3948545789042
 30
0.0
 10
428.4270975774988
 20
291.3365891892641
 30
0.0
 10
428.4517901067392
 20
291.2993033239173
 30
0.0
 10
428.4731499326849
 20
291.2459506155193
 30
0.0
 10
428.479903310614
 20
291.2199212918771
 30
0.0
 10
428.4801714689195
 20
291.1949416030996
 30
0.0
 10
428.4788410332629
 20
291.1785334756059
 30
0.0
 10
428.4774213930301
 20
291.1704851479091
 30
0.0
 10
428.4665650808478
 20
291.1312212426231
 30
0.0
 10
428.4457941056345
 20
291.1027412341379
 30
0.0
 10
428.3808648209566
 20
291.0518453372703
 30
0.0
 10
428.336716494341
 20
291.0294307513406
 30
0.0
 10
428.2680805777248
 20
291.0053955620902
 30
0.0
 10
428.2536704612093
 20
291.0007860743495
 30
0.0
 10
428.2238113548249
 20
290.9920415538858
 30
0.0
 10
428.2083342704041
 20
290.9878958150363
 30
0.0
 10
428.1603672666881
 20
290.9761195919511
 30
0.0
 10
428.126351208026
 20
290.9691466587782
 30
0.0
 10
428.018824083424
 20
290.9507890067247
 30
0.0
 10
427.9398972868264
 20
290.9419465809343
 30
0.0
 10
427.8132044463388
 20
290.9334233769789
 30
0.0
 10
427.7695821606424
 20
290.9313742143837
 30
0.0
 10
427.6799000460714
 20
290.9288193048336
 30
0.0
 10
427.6338056157461
 20
290.9283138473126
 30
0.0
 10
427.4925333616867
 20
290.929064956872
 30
0.0
 10
427.3951605216626
 20
290.9325715386686
 30
0.0
 10
427.1958813439745
 20
290.9451089279706
 30
0.0
 10
427.0939661645211
 20
290.9541427119419
 30
0.0
 10
426.8868629413778
 20
290.9774364506623
 30
0.0
 10
426.7816697235883
 20
290.991698021338
 30
0.0
 10
426.568913353408
 20
291.0252629251693
 30
0.0
 10
426.461347032928
 20
291.0445671726791
 30
0.0
 10
426.2445092827596
 20
291.088110873783
 30
0.0
 10
426.13523583829
 20
291.1123508559658
 30
0.0
 10
425.9154854262429
 20
291.1657167273567
 30
0.0
 10
425.8049791684394
 20
291.1948509104159
 30
0.0
 10
425.5832660482321
 20
291.2579680455653
 30
0.0
 10
425.4723224690351
 20
291.2918746848228
 30
0.0
 10
425.1396549936077
 20
291.4005800742834
 30
0.0
 10
424.9181132247156
 20
291.4823494311427
 30
0.0
 10
424.6976175501808
 20
291.573462982497
 30
0.0
  0
SPLINE
  5
1FE
330
1F
100
AcDbEntity
  8
1
100
AcDbSpline
210
0.0
220
0.0
230
1.0
 70
     8
 71
     3
 72
    12
 73
     8
 74
     0
 42
0.000000001
 43
0.0000000001
 40
0.0
 40
0.0
 40
0.0
 40
0.0
 40
0.5000000000000001
 40
0.5000000000000001
 40
0.75
 40
0.75
 40
1.0
 40
1.0
 40
1.0
 40
1.0
 10
431.2822360954103
 20
293.0331473106681
 30
0.0
 10
431.1807343345896
 20
293.0625147645233
 30
0.0
 10
431.0817618230361
 20
293.0979886004818
 30
0.0
 10
430.9366395474031
 20
293.1601504170266
 30
0.0
 10
430.8888241524461
 20
293.1823689883089
 30
0.0
 10
430.7942524540425
 20
293.2298417710137
 30
0.0
 10
430.7474966663955
 20
293.2550956397272
 30
0.0
 10
430.7012400822172
 20
293.2819148097167
 30
0.0
  0
SPLINE
  5
1FF
330
1F
100
AcDbEntity
  8
1
100
AcDbSpline
210
0.0
220
0.0
230
1.0
 70
     8
 71
     3
 72
    10
 73
     6
 74
     0
 42
0.000000001
 43
0.0000000001
 40
0.0
 40
0.0
 40
0.0
 40
0.0
 40
0.5
 40
0.5
 40
1.0
 40
1.0
 40
1.0
 40
1.0
 10
427.2424978925477
 20
301.6234807352445
 30
0.0
 10
427.1796895472284
 20
302.4067714610702
 30
0.0
 10
427.1234987302465
 20
303.1904910161574
 30
0.0
 10
427.0209026709356
 20
304.7585642514222
 30
0.0
 10
426.9745143167376
 20
305.5429190259849
 30
0.0
 10
426.9318541359139
 20
306.3275153937459
 30
0.0
  0
SPLINE
  5
200
330
1F
100
AcDbEntity
  8
1
100
AcDbSpline
210
0.0
220
0.0
230
1.0
 70
     8
 71
     3
 72
    44
 73
    40
 74
     0
 42
0.000000001
 43
0.0000000001
 40
0.0
 40
0.0
 40
0.0
 40
0.0
 40
0.0280253348783163
 40
0.0280253348783163
 40
0.0560506697566326
 40
0.0560506697566326
 40
0.1121013395132641
 40
0.1121013395132641
 40
0.1681520092698955
 40
0.1681520092698955
 40
0.2242026790265269
 40
0.2242026790265269
 40
0.2802533487831584
 40
0.2802533487831584
 40
0.3363040185397898
 40
0.3363040185397898
 40
0.3923546882964212
 40
0.3923546882964212
 40
0.448405358053052
 40
0.448405358053052
 40
0.5044560278096829
 40
0.5044560278096829
 40
0.5605066975663138
 40
0.5605066975663138
 40
0.6726080370795754
 40
0.6726080370795754
 40
0.7286587068362059
 40
0.7286587068362059
 40
0.7847093765928365
 40
0.7847093765928365
 40
0.840760046349467
 40
0.840760046349467
 40
0.8687853812277822
 40
0.8687853812277822
 40
0.8968107161060975
 40
0.8968107161060975
 40
0.9528613858627286
 40
0.9528613858627286
 40
1.0
 40
1.0
 40
1.0
 40
1.0
 10
426.9318541359139
 20
306.327515393746
 30
0.0
 10
426.3161765444341
 20
306.3453465591193
 30
0.0
 10
425.6993764279366
 20
306.3597940935207
 30
0.0
 10
424.4634494012799
 20
306.3827367656547
 30
0.0
 10
423.8443226219329
 20
306.391232766256
 30
0.0
 10
421.9834064942672
 20
306.4089861374652
 30
0.0
 10
420.7380601375876
 20
306.4105420036867
 30
0.0
 10
418.2382026106163
 20
306.3988570920316
 30
0.0
 10
416.9836955721378
 20
306.3856285869562
 30
0.0
 10
414.4664607351457
 20
306.3489693718407
 30
0.0
 10
413.2037356078565
 20
306.3255436275423
 30
0.0
 10
410.6715211375644
 20
306.2716227914514
 30
0.0
 10
409.4034272028118
 20
306.2411588661971
 30
0.0
 10
406.8643716898261
 20
306.1748396180345
 30
0.0
 10
405.5934123153581
 20
306.1389814739841
 30
0.0
 10
403.0499499532879
 20
306.0619792458087
 30
0.0
 10
401.7774489367261
 20
306.0208332457486
 30
0.0
 10
399.2323781478856
 20
305.9319333470185
 30
0.0
 10
397.9598797050539
 20
305.8840364195821
 30
0.0
 10
395.4150577322254
 20
305.7811031509005
 30
0.0
 10
394.14272625107
 20
305.7260775203728
 30
0.0
 10
391.5982744174304
 20
305.6086582832866
 30
0.0
 10
390.326157111875
 20
305.5462635458554
 30
0.0
 10
386.5106425920605
 20
305.3476036400643
 30
0.0
 10
383.967937972985
 20
305.1998690446057
 30
0.0
 10
380.1554977423865
 20
304.9533234895185
 30
0.0
 10
378.8849519235683
 20
304.8669828031154
 30
0.0
 10
376.3444277961358
 20
304.685557297412
 30
0.0
 10
375.0744482805395
 20
304.5904771574843
 30
0.0
 10
372.5351269887994
 20
304.3909736452748
 30
0.0
 10
371.2656967502982
 20
304.2865499171159
 30
0.0
 10
369.3625570663231
 20
304.1222261494161
 30
0.0
 10
368.7283429176372
 20
304.0661667032838
 30
0.0
 10
367.4602848389048
 20
303.9513047022895
 30
0.0
 10
366.826442323402
 20
303.8924975555561
 30
0.0
 10
364.925448134565
 20
303.7119064899633
 30
0.0
 10
363.6588327865317
 20
303.5859417778415
 30
0.0
 10
361.3281394311113
 20
303.3437443150768
 30
0.0
 10
360.2638807491288
 20
303.2291419583734
 30
0.0
 10
359.1999726267776
 20
303.1107075403615
 30
0.0
  0
SPLINE
  5
201
330
1F
100
AcDbEntity
  8
1
100
AcDbSpline
210
0.0
220
0.0
230
1.0
 70
    28
 71
     4
 72
    13
 73
     8
 74
     0
 42
0.000000001
 43
0.0000000001
 40
0.0
 40
0.0
 40
0.0
 40
0.0
 40
0.0
 40
0.292357801820523
 40
0.292357801820523
 40
0.292357801820523
 40
1.0
 40
1.0
 40
1.0
 40
1.0
 40
1.0
 10
302.9048419452957
 20
282.8063804043921
 30
0.0
 41
0.9979679950131682
 10
302.9048419452957
 20
282.0413143403062
 30
0.0
 41
0.9988497636739451
 10
302.9048419452957
 20
281.228554847304
 30
0.0
 41
1.000197926403795
 10
302.9048419452957
 20
280.3929631455563
 30
0.0
 41
1.00156323924462
 10
302.9048419452957
 20
277.5637111877993
 30
0.0
 41
1.00156323924462
 10
302.9048419452957
 20
275.2712934905543
 30
0.0
 41
0.9935643396591068
 10
302.9048419452957
 20
273.1331539300057
 30
0.0
 41
0.9971708073974056
 10
302.9048419452957
 20
271.4491214043869
 30
0.0
 41
0.9999552299323255
  0
SPLINE
  5
202
330
1F
100
AcDbEntity
  8
1
100
AcDbSpline
210
0.0
220
0.0
230
1.0
 70
     8
 71
     3
 72
    60
 73
    56
 74
     0
 42
0.000000001
 43
0.0000000001
 40
0.0
 40
0.0
 40
0.0
 40
0.0
 40
0.0625000000000003
 40
0.0625000000000003
 40
0.1250000000000007
 40
0.1250000000000007
 40
0.1562500000000009
 40
0.1562500000000009
 40
0.1875000000000011
 40
0.1875000000000011
 40
0.2500000000000012
 40
0.2500000000000012
 40
0.3125000000000014
 40
0.3125000000000014
 40
0.3437500000000013
 40
0.3437500000000013
 40
0.3750000000000012
 40
0.3750000000000012
 40
0.4062500000000011
 40
0.4062500000000011
 40
0.4218750000000011
 40
0.4218750000000011
 40
0.4375000000000011
 40
0.4375000000000011
 40
0.4687500000000013
 40
0.4687500000000013
 40
0.5000000000000016
 40
0.5000000000000016
 40
0.5312500000000019
 40
0.5312500000000019
 40
0.5468750000000019
 40
0.5468750000000019
 40
0.5625000000000022
 40
0.5625000000000022
 40
0.5937500000000019
 40
0.5937500000000019
 40
0.6250000000000017
 40
0.6250000000000017
 40
0.6562500000000016
 40
0.6562500000000016
 40
0.6875000000000014
 40
0.6875000000000014
 40
0.7187500000000013
 40
0.7187500000000013
 40
0.750000000000001
 40
0.750000000000001
 40
0.8125000000000008
 40
0.8125000000000008
 40
0.8437500000000007
 40
0.8437500000000007
 40
0.8750000000000005
 40
0.8750000000000005
 40
0.9375000000000003
 40
0.9375000000000003
 40
1.0
 40
1.0
 40
1.0
 40
1.0
 10
305.3871660098794
 20
282.0808757898575
 30
0.0
 10
307.7397178808484
 20
281.7101469841374
 30
0.0
 10
310.092134040198
 20
281.3452139988427
 30
0.0
 10
314.7962300385257
 20
280.6246380970211
 30
0.0
 10
317.1479062475416
 20
280.2689702579885
 30
0.0
 10
320.6743862046219
 20
279.74047149653
 30
0.0
 10
321.8497061226016
 20
279.5651392818558
 30
0.0
 10
324.1999141003433
 20
279.2158625060646
 30
0.0
 10
325.3748875042842
 20
279.041904352867
 30
0.0
 10
328.8979635016123
 20
278.5219441264107
 30
0.0
 10
331.2444449879541
 20
278.1777545348318
 30
0.0
 10
335.9320611857623
 20
277.4938715954387
 30
0.0
 10
338.2731863472628
 20
277.1541493664969
 30
0.0
 10
341.7804306958426
 20
276.6494675834028
 30
0.0
 10
342.9487749419282
 20
276.4820796815653
 30
0.0
 10
345.28397299122
 20
276.1495393879982
 30
0.0
 10
346.4508264531246
 20
275.9843867422485
 30
0.0
 10
348.78307524973
 20
275.6570878879156
 30
0.0
 10
349.9484702541819
 20
275.4949418239505
 30
0.0
 10
351.6955377763181
 20
275.2547187137496
 30
0.0
 10
352.2777137627813
 20
275.1751167155254
 30
0.0
 10
353.4417998378514
 20
275.0172296448848
 30
0.0
 10
354.0237201588552
 20
274.9389765900984
 30
0.0
 10
355.7693535271937
 20
274.707086889339
 30
0.0
 10
356.9329476327874
 20
274.5563649150867
 30
0.0
 10
359.2608972278667
 20
274.2657954819502
 30
0.0
 10
360.4252524261598
 20
274.1259399406136
 30
0.0
 10
362.7555356279809
 20
273.8588766739931
 30
0.0
 10
363.9214614569756
 20
273.7316567142115
 30
0.0
 10
365.6719584586262
 20
273.5508600929715
 30
0.0
 10
366.2557238396898
 20
273.4922598286169
 30
0.0
 10
367.4238443871904
 20
273.3784189057055
 30
0.0
 10
368.0082233633825
 20
273.323188417125
 30
0.0
 10
369.7618994895953
 20
273.1624762402969
 30
0.0
 10
370.9318163629852
 20
273.061857105951
 30
0.0
 10
373.2729983903428
 20
272.8720909536928
 30
0.0
 10
374.4442656524606
 20
272.7829545524395
 30
0.0
 10
376.7880504171932
 20
272.6151517924203
 30
0.0
 10
377.9605698049376
 20
272.5364925907378
 30
0.0
 10
380.3068482705819
 20
272.3889183657977
 30
0.0
 10
381.4806088195282
 20
272.320007510783
 30
0.0
 10
383.8293956030841
 20
272.191312598646
 30
0.0
 10
385.0044228284917
 20
272.131530411878
 30
0.0
 10
387.3557683934779
 20
272.0204961483653
 30
0.0
 10
388.5321620000476
 20
271.9692414260796
 30
0.0
 10
392.0627432484989
 20
271.8273852737965
 30
0.0
 10
394.4179744006292
 20
271.7486883251877
 30
0.0
 10
397.9530334396874
 20
271.6508303129631
 30
0.0
 10
399.1317527532723
 20
271.6215793582405
 30
0.0
 10
401.4898954609407
 20
271.5692758714028
 30
0.0
 10
402.6693128958473
 20
271.5462141932112
 30
0.0
 10
406.2084036461536
 20
271.4854984542396
 30
0.0
 10
408.56892319046
 20
271.4562563780111
 30
0.0
 10
413.2911054424507
 20
271.4175088907462
 30
0.0
 10
415.6527679530098
 20
271.4079935137005
 30
0.0
 10
418.0143362622809
 20
271.4079935137005
 30
0.0
  0
SPLINE
  5
203
330
1F
100
AcDbEntity
  8
1
100
AcDbSpline
210
0.0
220
0.0
230
1.0
 70
     8
 71
     3
 72
    69
 73
    65
 74
     0
 42
0.000000001
 43
0.0000000001
 40
0.0
 40
0.0
 40
0.0
 40
0.0
 40
0.0624999999999998
 40
0.0624999999999998
 40
0.1249999999999995
 40
0.1249999999999995
 40
0.1562499999999994
 40
0.1562499999999994
 40
0.1874999999999993
 40
0.1874999999999993
 40
0.2187499999999992
 40
0.2187499999999992
 40
0.2499999999999991
 40
0.2499999999999991
 40
0.2812499999999989
 40
0.2812499999999989
 40
0.3124999999999988
 40
0.3124999999999988
 40
0.3437499999999987
 40
0.3437499999999987
 40
0.3749999999999986
 40
0.3749999999999986
 40
0.4062499999999984
 40
0.4062499999999984
 40
0.4218749999999986
 40
0.4218749999999986
 40
0.4374999999999988
 40
0.4374999999999988
 40
0.4687499999999986
 40
0.4687499999999986
 40
0.4999999999999984
 40
0.4999999999999984
 40
0.5312499999999984
 40
0.5312499999999984
 40
0.5624999999999983
 40
0.5624999999999983
 40
0.5937499999999982
 40
0.5937499999999982
 40
0.6249999999999979
 40
0.6249999999999979
 40
0.6562499999999979
 40
0.6562499999999979
 40
0.6874999999999978
 40
0.6874999999999978
 40
0.7187499999999977
 40
0.7187499999999977
 40
0.7499999999999975
 40
0.7499999999999975
 40
0.7812499999999977
 40
0.7812499999999977
 40
0.8124999999999978
 40
0.8124999999999978
 40
0.843749999999998
 40
0.843749999999998
 40
0.8749999999999984
 40
0.8749999999999984
 40
0.9062499999999985
 40
0.9062499999999985
 40
0.9374999999999987
 40
0.9374999999999987
 40
0.9687499999999989
 40
0.9687499999999989
 40
0.9843749999999996
 40
1.0
 40
1.0
 40
1.0
 40
1.0
 10
302.9048419452958
 20
306.393427110577
 30
0.0
 10
305.35809746533
 20
306.3778222386842
 30
0.0
 10
307.8095498187717
 20
306.3493031820229
 30
0.0
 10
312.7088709360565
 20
306.2623751625508
 30
0.0
 10
315.1567371026307
 20
306.2039432829799
 30
0.0
 10
318.8261494122195
 20
306.0908007758892
 30
0.0
 10
320.0489250042007
 20
306.0488383050919
 30
0.0
 10
322.4936347817483
 20
305.9559814981501
 30
0.0
 10
323.7154729380212
 20
305.9050898838779
 30
0.0
 10
326.1582368867288
 20
305.7940283354696
 30
0.0
 10
327.3791626357601
 20
305.7338571856994
 30
0.0
 10
329.8202601805729
 20
305.6040019509067
 30
0.0
 10
331.0404320086828
 20
305.5343166855708
 30
0.0
 10
333.4802178926442
 20
305.385354591791
 30
0.0
 10
334.6998320829694
 20
305.3060767766827
 30
0.0
 10
337.1387342369327
 20
305.1380401066225
 30
0.0
 10
338.3580734486529
 20
305.0492766703347
 30
0.0
 10
340.7964267378176
 20
304.8626132673195
 30
0.0
 10
342.0154039447966
 20
304.7647166008456
 30
0.0
 10
344.4532467324078
 20
304.5603484561325
 30
0.0
 10
345.6721127678885
 20
304.4538776163867
 30
0.0
 10
348.1100360936915
 20
304.2331302181563
 30
0.0
 10
349.3290938955024
 20
304.1188549533805
 30
0.0
 10
351.1580513679442
 20
303.9423032489415
 30
0.0
 10
351.7677668960796
 20
303.8826010801787
 30
0.0
 10
352.9873522361707
 20
303.7616031239362
 30
0.0
 10
353.5972159532394
 20
303.7002917640322
 30
0.0
 10
355.4269479988594
 20
303.5137563089286
 30
0.0
 10
356.6470058253082
 20
303.3859164629493
 30
0.0
 10
359.0868920095275
 20
303.1226072118879
 30
0.0
 10
360.3067279700259
 20
302.9871352386741
 30
0.0
 10
362.7460779601904
 20
302.7081459913454
 30
0.0
 10
363.9655928969674
 20
302.5646283188103
 30
0.0
 10
366.4043196813722
 20
302.2694722649613
 30
0.0
 10
367.6235273714528
 20
302.1178165705452
 30
0.0
 10
370.0617768198267
 20
301.8067187811516
 30
0.0
 10
371.2808447209669
 20
301.6473633336925
 30
0.0
 10
373.7191966861417
 20
301.3221991757311
 30
0.0
 10
374.9385253146767
 20
301.1563841179899
 30
0.0
 10
377.3772129645049
 20
300.8192540355256
 30
0.0
 10
378.5966080122429
 20
300.6479343332448
 30
0.0
 10
381.0356351299039
 20
300.3004215477178
 30
0.0
 10
382.2552668287935
 20
300.1242285728417
 30
0.0
 10
384.6948285175228
 20
299.7673394287825
 30
0.0
 10
385.9147582792577
 20
299.5866436738292
 30
0.0
 10
388.3549140359872
 20
299.2208461551597
 30
0.0
 10
389.5751399217821
 20
299.0357451758626
 30
0.0
 10
392.0158274971154
 20
298.6609435987361
 30
0.0
 10
393.2363114275827
 20
298.471240407467
 30
0.0
 10
395.676962845051
 20
298.0867903865746
 30
0.0
 10
396.8971826646058
 20
297.8920370606076
 30
0.0
 10
399.3372296052371
 20
297.496604215271
 30
0.0
 10
400.5570565046271
 20
297.2959248199858
 30
0.0
 10
402.9960694632682
 20
296.8873653701431
 30
0.0
 10
404.2152460720697
 20
296.679438206174
 30
0.0
 10
406.6529011301018
 20
296.2559037870678
 30
0.0
 10
407.8713775520743
 20
296.0402817829888
 30
0.0
 10
410.3079071900319
 20
295.6024689981283
 30
0.0
 10
411.5260043676381
 20
295.38024887952
 30
0.0
 10
413.9622159760579
 20
294.9324436879859
 30
0.0
 10
415.1802665777879
 20
294.7068469056795
 30
0.0
 10
417.0080211088764
 20
294.3703796738357
 30
0.0
 10
418.2267579215861
 20
294.1467586247811
 30
0.0
 10
419.4463132450668
 20
293.9266279453832
 30
0.0
 10
420.0564014713655
 20
293.8180811012577
 30
0.0
  0
SPLINE
  5
204
330
1F
100
AcDbEntity
  8
1
100
AcDbSpline
210
0.0
220
0.0
230
1.0
 70
     8
 71
     3
 72
    50
 73
    46
 74
     0
 42
0.000000001
 43
0.0000000001
 40
0.0
 40
0.0
 40
0.0
 40
0.0
 40
0.0312500000000005
 40
0.0312500000000005
 40
0.0625000000000011
 40
0.125000000000012
 40
0.125000000000012
 40
0.250000000000024
 40
0.250000000000024
 40
0.281250000000032
 40
0.281250000000032
 40
0.31250000000004
 40
0.31250000000004
 40
0.3750000000000469
 40
0.3750000000000469
 40
0.4375000000000539
 40
0.4375000000000539
 40
0.5000000000000608
 40
0.5000000000000608
 40
0.5625000000000676
 40
0.5625000000000676
 40
0.6250000000000745
 40
0.6250000000000745
 40
0.6875000000000813
 40
0.6875000000000813
 40
0.7031250000000827
 40
0.7031250000000827
 40
0.7187500000000843
 40
0.7500000000000808
 40
0.7500000000000808
 40
0.8125000000000675
 40
0.8125000000000675
 40
0.828125000000063
 40
0.828125000000063
 40
0.8437500000000584
 40
0.8437500000000584
 40
0.8750000000000454
 40
0.8750000000000454
 40
0.9375000000000227
 40
0.9375000000000227
 40
0.953125000000017
 40
0.953125000000017
 40
0.9687500000000111
 40
0.9687500000000111
 40
1.0
 40
1.0
 40
1.0
 40
1.0
 10
421.6903283943478
 20
296.693625773891
 30
0.0
 10
421.7686337311626
 20
296.7198760362292
 30
0.0
 10
421.8468577506725
 20
296.7466060923606
 30
0.0
 10
422.0028423904683
 20
296.8009693863767
 30
0.0
 10
422.236242774486
 20
296.8839096606546
 30
0.0
 10
422.4678390516461
 20
296.9712159364756
 30
0.0
 10
422.9283925967201
 20
297.1522149825739
 30
0.0
 10
423.2319309987536
 20
297.2813445884642
 30
0.0
 10
423.6059486505004
 20
297.4558377333532
 30
0.0
 10
423.6804802370111
 20
297.4913944759094
 30
0.0
 10
423.8289659659646
 20
297.5639053958134
 30
0.0
 10
423.9029754178983
 20
297.600888443648
 30
0.0
 10
424.1235175709556
 20
297.7137783547695
 30
0.0
 10
424.268634110859
 20
297.7916487078913
 30
0.0
 10
424.5546077844338
 20
297.9532060216787
 30
0.0
 10
424.6954662916548
 20
298.0368911066373
 30
0.0
 10
424.9723737584471
 20
298.2108291523612
 30
0.0
 10
425.1084249331987
 20
298.3010790880957
 30
0.0
 10
425.3749997824091
 20
298.4891272651622
 30
0.0
 10
425.5055272392643
 20
298.5869203412871
 30
0.0
 10
425.7600823406289
 20
298.7913825798892
 30
0.0
 10
425.8841169320887
 20
298.8980422556723
 30
0.0
 10
426.1243063864841
 20
299.1221220949404
 30
0.0
 10
426.2404753004482
 20
299.2395230704655
 30
0.0
 10
426.379459780361
 20
299.3947773652641
 30
0.0
 10
426.4069735898845
 20
299.4262929658443
 30
0.0
 10
426.4611878923028
 20
299.490074111484
 30
0.0
 10
426.5411178443444
 20
299.5866656955784
 30
0.0
 10
426.616699738122
 20
299.6861316058071
 30
0.0
 10
426.761504748242
 20
299.8892669578307
 30
0.0
 10
426.8496237687014
 20
300.030255097066
 30
0.0
 10
426.9466582186601
 20
300.2151596233968
 30
0.0
 10
426.9654046313966
 20
300.2525771435657
 30
0.0
 10
427.0014897166142
 20
300.3283427842683
 30
0.0
 10
427.0187351123477
 20
300.3664988320683
 30
0.0
 10
427.0678906771508
 20
300.481549840662
 30
0.0
 10
427.0972750490698
 20
300.5591365067771
 30
0.0
 10
427.1746468783025
 20
300.794717573972
 30
0.0
 10
427.2119087785938
 20
300.9555184615264
 30
0.0
 10
427.237808167311
 20
301.1619302447204
 30
0.0
 10
427.2419497958088
 20
301.2034842732602
 30
0.0
 10
427.2480678608571
 20
301.2871588819792
 30
0.0
 10
427.2500396684283
 20
301.3293266798673
 30
0.0
 10
427.2525691226467
 20
301.4554897139959
 30
0.0
 10
427.2497811699482
 20
301.5395230691344
 30
0.0
 10
427.2424978925477
 20
301.6234807352445
 30
0.0
  0
SPLINE
  5
205
330
1F
100
AcDbEntity
  8
1
100
AcDbSpline
210
0.0
220
0.0
230
1.0
 70
    12
 71
     3
 72
     9
 73
     5
 74
     0
 42
0.000000001
 43
0.0000000001
 40
0.0
 40
0.0
 40
0.0
 40
0.0
 40
0.4730496399483193
 40
1.0
 40
1.0
 40
1.0
 40
1.0
 10
375.5318056603195
 20
301.0800542275397
 30
0.0
 41
1.001665290203956
 10
383.6978358223096
 20
301.2987965225538
 30
0.0
 41
1.001725346686422
 10
401.0212647775142
 20
300.8887533784271
 30
0.0
 41
1.000965218770688
 10
418.2477748850828
 20
300.5030053253987
 30
0.0
 41
1.001792841022292
 10
427.2424978925477
 20
301.6234807352445
 30
0.0
 41
1.001636976766612
  0
SPLINE
  5
206
330
1F
100
AcDbEntity
  8
1
100
AcDbSpline
210
0.0
220
0.0
230
1.0
 70
     8
 71
     3
 72
    27
 73
    23
 74
     0
 42
0.000000001
 43
0.0000000001
 40
0.0
 40
0.0
 40
0.0
 40
0.0
 40
0.0625
 40
0.0625
 40
0.1250000000000001
 40
0.1250000000000001
 40
0.2500000000000002
 40
0.2500000000000002
 40
0.3750000000000004
 40
0.3750000000000004
 40
0.5000000000000006
 40
0.5000000000000006
 40
0.5312500000000005
 40
0.5312500000000005
 40
0.5625000000000004
 40
0.6250000000000001
 40
0.6250000000000001
 40
0.7500000000000001
 40
0.7500000000000001
 40
0.875
 40
0.875
 40
1.0
 40
1.0
 40
1.0
 40
1.0
 10
289.3923341230149
 20
271.7350345051811
 30
0.0
 10
289.1431413288864
 20
271.7558635213279
 30
0.0
 10
288.8969680531927
 20
271.7727394800758
 30
0.0
 10
288.410120522117
 20
271.7996126608315
 30
0.0
 10
288.1694477418565
 20
271.8096084232361
 30
0.0
 10
287.4550897831319
 20
271.8305860884305
 30
0.0
 10
286.9890262965379
 20
271.832598388213
 30
0.0
 10
286.0753011867873
 20
271.8184043619051
 30
0.0
 10
285.6276549067244
 20
271.8021770378534
 30
0.0
 10
284.7499329274301
 20
271.7561330787833
 30
0.0
 10
284.3198646652604
 20
271.7263004711766
 30
0.0
 10
283.7932032733167
 20
271.6830956767865
 30
0.0
 10
283.6883895334576
 20
271.6741558247981
 30
0.0
 10
283.4799865603001
 20
271.6557580508387
 30
0.0
 10
283.1696760907425
 20
271.6274252582093
 30
0.0
 10
282.8661851347545
 20
271.5971944674803
 30
0.0
 10
282.2681975032887
 20
271.5350174646734
 30
0.0
 10
281.8815121522343
 20
271.4912656137716
 30
0.0
 10
281.1320763164132
 20
271.4036284957262
 30
0.0
 10
280.7693265771082
 20
271.3597169038121
 30
0.0
 10
280.0683673028649
 20
271.2769155120621
 30
0.0
 10
279.730152871295
 20
271.2379783802129
 30
0.0
 10
279.4048419452954
 20
271.2050115746525
 30
0.0
  0
SPLINE
  5
207
330
1F
100
AcDbEntity
  8
1
100
AcDbSpline
210
0.0
220
0.0
230
1.0
 70
     8
 71
     3
 72
    55
 73
    51
 74
     0
 42
0.000000001
 43
0.0000000001
 40
0.0
 40
0.0
 40
0.0
 40
0.0
 40
0.0625000000000003
 40
0.0625000000000003
 40
0.1250000000000005
 40
0.1250000000000005
 40
0.1875000000000008
 40
0.1875000000000008
 40
0.2187500000000007
 40
0.2187500000000007
 40
0.2343750000000004
 40
0.2343750000000004
 40
0.2500000000000001
 40
0.2500000000000001
 40
0.3124999999999984
 40
0.3124999999999984
 40
0.3749999999999968
 40
0.3749999999999968
 40
0.4374999999999952
 40
0.4374999999999952
 40
0.4453124999999952
 40
0.4453124999999952
 40
0.4531249999999952
 40
0.4687499999999952
 40
0.4999999999999946
 40
0.4999999999999946
 40
0.5624999999999936
 40
0.5624999999999936
 40
0.6249999999999926
 40
0.6249999999999926
 40
0.6406249999999921
 40
0.6406249999999921
 40
0.6484374999999922
 40
0.6484374999999922
 40
0.6562499999999922
 40
0.6874999999999933
 40
0.6874999999999933
 40
0.749999999999996
 40
0.749999999999996
 40
0.8124999999999985
 40
0.8124999999999985
 40
0.8281249999999989
 40
0.8281249999999989
 40
0.8437499999999992
 40
0.8437499999999992
 40
0.8749999999999992
 40
0.8749999999999992
 40
0.9374999999999998
 40
0.9374999999999998
 40
1.0
 40
1.0
 40
1.0
 40
1.0
 10
279.4048419453072
 20
280.0577495044015
 30
0.0
 10
279.2206194361988
 20
279.8725729095851
 30
0.0
 10
279.0457076973049
 20
279.6831736575595
 30
0.0
 10
278.714741775738
 20
279.2963089108218
 30
0.0
 10
278.55868577459
 20
279.0988435950617
 30
0.0
 10
278.2660730475221
 20
278.6960382845915
 30
0.0
 10
278.1295126312485
 20
278.4906992120965
 30
0.0
 10
277.9401429090039
 20
278.1767763911583
 30
0.0
 10
277.8796022921415
 20
278.0711480825897
 30
0.0
 10
277.7928147461683
 20
277.9112066884729
 30
0.0
 10
277.7646495549259
 20
277.8578128088646
 30
0.0
 10
277.7099351882116
 20
277.7510460736061
 30
0.0
 10
277.6833708489045
 20
277.6976453286932
 30
0.0
 10
277.5545029091451
 20
277.4305725106931
 30
0.0
 10
277.464038802139
 20
277.2166968244857
 30
0.0
 10
277.30845139673
 20
276.7889047820586
 30
0.0
 10
277.243326581412
 20
276.5749879975901
 30
0.0
 10
277.1390719902855
 20
276.1474214876697
 30
0.0
 10
277.0999384175237
 20
275.9337716351544
 30
0.0
 10
277.0712694983897
 20
275.6936957361077
 30
0.0
 10
277.0682963985762
 20
275.6670081569818
 30
0.0
 10
277.0627971628511
 20
275.6138068759585
 30
0.0
 10
277.0552119799964
 20
275.5342152646178
 30
0.0
 10
277.0421282519371
 20
275.3499673458765
 30
0.0
 10
277.0387263668159
 20
275.194532519334
 30
0.0
 10
277.0421351168835
 20
274.8869369851192
 30
0.0
 10
277.0580059274495
 20
274.6862365885029
 30
0.0
 10
277.1163321563542
 20
274.2933619696898
 30
0.0
 10
277.1587892551677
 20
274.1011881012333
 30
0.0
 10
277.2284526813927
 20
273.8662163268783
 30
0.0
 10
277.2432163083257
 20
273.8194843987031
 30
0.0
 10
277.2666116836589
 20
273.7497790106745
 30
0.0
 10
277.2746221624126
 20
273.7265997467716
 30
0.0
 10
277.2910156337306
 20
273.6804951085343
 30
0.0
 10
277.3329535760126
 20
273.5657982550643
 30
0.0
 10
277.3796098443401
 20
273.4538880863746
 30
0.0
 10
277.5003152893185
 20
273.1904076801185
 30
0.0
 10
277.5924096671969
 20
273.0215517372864
 30
0.0
 10
277.7985521854959
 20
272.6963396205171
 30
0.0
 10
277.9126044633826
 20
272.5399858074284
 30
0.0
 10
278.0683880021377
 20
272.3518112235112
 30
0.0
 10
278.1002066384037
 20
272.3145401356797
 30
0.0
 10
278.1651589688569
 20
272.2407136004496
 30
0.0
 10
278.1983085862852
 20
272.204141157173
 30
0.0
 10
278.299614449595
 20
272.095591747785
 30
0.0
 10
278.3694064868631
 20
272.0250135296889
 30
0.0
 10
278.5852907858524
 20
271.818341062639
 30
0.0
 10
278.7378802479373
 20
271.6873002413125
 30
0.0
 10
279.0593347364857
 20
271.4373391325923
 30
0.0
 10
279.2282028128114
 20
271.3184215543892
 30
0.0
 10
279.4048419452955
 20
271.2050115746525
 30
0.0
  0
SPLINE
  5
208
330
1F
100
AcDbEntity
  8
1
100
AcDbSpline
210
0.0
220
0.0
230
1.0
 70
     9
 71
     3
 72
   133
 73
   129
 74
     0
 42
0.000000001
 43
0.0000000001
 40
0.0
 40
0.0
 40
0.0
 40
0.0
 40
0.031250000000036
 40
0.031250000000036
 40
0.0468750000000538
 40
0.0468750000000538
 40
0.0546875000000641
 40
0.0546875000000641
 40
0.0625000000000743
 40
0.0625000000000743
 40
0.0937500000001193
 40
0.0937500000001193
 40
0.1093750000001419
 40
0.1093750000001419
 40
0.1250000000001646
 40
0.1250000000001646
 40
0.1562500000002032
 40
0.1562500000002032
 40
0.1640625000002091
 40
0.1640625000002091
 40
0.1718750000002149
 40
0.1718750000002149
 40
0.1875000000002187
 40
0.2031250000002225
 40
0.2031250000002225
 40
0.2109375000002245
 40
0.2109375000002245
 40
0.2187500000002264
 40
0.2187500000002264
 40
0.2500000000002428
 40
0.2500000000002428
 40
0.2656250000002556
 40
0.2656250000002556
 40
0.273437500000262
 40
0.273437500000262
 40
0.2812500000002683
 40
0.2812500000002683
 40
0.3125000000002938
 40
0.3125000000002938
 40
0.3203125000002961
 40
0.3203125000002961
 40
0.3281250000002984
 40
0.3281250000002984
 40
0.3437500000002952
 40
0.3593750000002918
 40
0.3593750000002918
 40
0.3671875000002871
 40
0.3671875000002871
 40
0.375000000000282
 40
0.375000000000282
 40
0.40625000000028
 40
0.40625000000028
 40
0.4218750000002789
 40
0.4218750000002789
 40
0.4296875000002764
 40
0.4296875000002764
 40
0.437500000000274
 40
0.437500000000274
 40
0.4687500000002577
 40
0.4687500000002577
 40
0.4765625000002535
 40
0.4765625000002535
 40
0.4843750000002494
 40
0.4843750000002494
 40
0.5000000000002417
 40
0.5000000000002417
 40
0.5312500000002269
 40
0.5312500000002269
 40
0.5390625000002228
 40
0.5390625000002228
 40
0.5468750000002186
 40
0.5468750000002186
 40
0.5625000000002107
 40
0.5781250000002029
 40
0.5781250000002029
 40
0.5859375000001971
 40
0.5859375000001971
 40
0.5937500000001914
 40
0.5937500000001914
 40
0.6250000000001627
 40
0.6250000000001627
 40
0.6406250000001453
 40
0.6406250000001453
 40
0.6484375000001364
 40
0.6484375000001364
 40
0.6562500000001275
 40
0.6562500000001275
 40
0.6875000000000993
 40
0.6875000000000993
 40
0.6953125000000943
 40
0.6953125000000943
 40
0.7031250000000893
 40
0.7031250000000893
 40
0.718750000000088
 40
0.718750000000088
 40
0.7500000000000852
 40
0.7500000000000852
 40
0.7578125000000845
 40
0.7578125000000845
 40
0.7656250000000839
 40
0.7656250000000839
 40
0.7812500000000826
 40
0.7968750000000812
 40
0.7968750000000812
 40
0.8046875000000804
 40
0.8046875000000804
 40
0.8125000000000797
 40
0.8125000000000797
 40
0.8437500000000689
 40
0.8437500000000689
 40
0.851562500000066
 40
0.851562500000066
 40
0.8593750000000632
 40
0.8593750000000632
 40
0.8750000000000571
 40
0.8750000000000571
 40
0.9062500000000396
 40
0.9062500000000396
 40
0.9218750000000332
 40
0.9218750000000332
 40
0.9375000000000268
 40
0.9531250000000204
 40
0.9531250000000204
 40
0.9609375000000172
 40
0.9609375000000172
 40
0.9687500000000142
 40
0.9687500000000142
 40
1.0
 40
1.0
 40
1.0
 40
1.0
 10
435.9691615337857
 20
284.6341862655649
 30
0.0
 10
435.9708086294634
 20
284.7285483137394
 30
0.0
 10
435.9815596843041
 20
284.8214617960857
 30
0.0
 10
436.0109920926523
 20
284.9586938095029
 30
0.0
 10
436.0230359812998
 20
285.0040786932953
 30
0.0
 10
436.0445492295677
 20
285.0715962215273
 30
0.0
 10
436.0522958839733
 20
285.0940085833115
 30
0.0
 10
436.0689697060514
 20
285.138640450957
 30
0.0
 10
436.0778343814219
 20
285.1606912381801
 30
0.0
 10
436.1247001582289
 20
285.2695049920588
 30
0.0
 10
436.1703115188744
 20
285.3521304625005
 30
0.0
 10
436.2509048667842
 20
285.4693692211115
 30
0.0
 10
436.2798122624907
 20
285.5073246807974
 30
0.0
 10
436.3418903794136
 20
285.5808774733159
 30
0.0
 10
436.3745886708001
 20
285.6159072320845
 30
0.0
 10
436.4772313341851
 20
285.7155786180866
 30
0.0
 10
436.5518019763818
 20
285.7749983729742
 30
0.0
 10
436.6528726661654
 20
285.840228557836
 30
0.0
 10
436.6734991623384
 20
285.8528274632595
 30
0.0
 10
436.715498426099
 20
285.8770508707428
 30
0.0
 10
436.7367194740689
 20
285.8885889378485
 30
0.0
 10
436.8010334522333
 20
285.9215153501564
 30
0.0
 10
436.8885177920612
 20
285.9609246303268
 30
0.0
 10
436.9794047556105
 20
285.9914946232323
 30
0.0
 10
437.0488608354007
 20
286.0110640972192
 30
0.0
 10
437.0722283983409
 20
286.0170265737738
 30
0.0
 10
437.1194020465131
 20
286.0278101581121
 30
0.0
 10
437.1432768447955
 20
286.0326425188198
 30
0.0
 10
437.2628291450478
 20
286.0537196666555
 30
0.0
 10
437.3586917679094
 20
286.0608122271399
 30
0.0
 10
437.5028064407311
 20
286.0572502624133
 30
0.0
 10
437.5508985275947
 20
286.0536784087054
 30
0.0
 10
437.6231198739398
 20
286.0446377383656
 30
0.0
 10
437.6472341468672
 20
286.0410006938856
 30
0.0
 10
437.6949435990713
 20
286.0325758853638
 30
0.0
 10
437.7186057567362
 20
286.0277814786756
 30
0.0
 10
437.8359705406051
 20
286.0009515677269
 30
0.0
 10
437.9268631133489
 20
285.9704257972816
 30
0.0
 10
438.0367114824328
 20
285.9209168466854
 30
0.0
 10
438.0584910385256
 20
285.9104422538556
 30
0.0
 10
438.1016622160053
 20
285.8883252918448
 30
0.0
 10
438.1229221705424
 20
285.8767486928823
 30
0.0
 10
438.1855096379606
 20
285.840623847228
 30
0.0
 10
438.2659922812413
 20
285.7886405504526
 30
0.0
 10
438.3406829723118
 20
285.7292265808474
 30
0.0
 10
438.3945192403338
 20
285.681874993866
 30
0.0
 10
438.4121003913481
 20
285.6656251223863
 30
0.0
 10
438.4465245341274
 20
285.6321824337912
 30
0.0
 10
438.4634094950562
 20
285.6149437691245
 30
0.0
 10
438.5454140858402
 20
285.5269320269634
 30
0.0
 10
438.602903982569
 20
285.4513131690234
 30
0.0
 10
438.6775181804936
 20
285.3304918532365
 30
0.0
 10
438.7004385603607
 20
285.2889766573942
 30
0.0
 10
438.7318357596572
 20
285.2248133159529
 30
0.0
 10
438.7418204096936
 20
285.2030641707803
 30
0.0
 10
438.7605891619966
 20
285.1593751726417
 30
0.0
 10
438.7693970531434
 20
285.1373921315126
 30
0.0
 10
438.810614618534
 20
285.0268017093023
 30
0.0
 10
438.8346358829018
 20
284.9361884348897
 30
0.0
 10
438.8536341286163
 20
284.8203187100777
 30
0.0
 10
438.8568775697264
 20
284.7970133863443
 30
0.0
 10
438.8622366112093
 20
284.7501368549741
 30
0.0
 10
438.8643487083503
 20
284.7265599480396
 30
0.0
 10
438.8689320396466
 20
284.6561713890765
 30
0.0
 10
438.8696872435941
 20
284.6094535938172
 30
0.0
 10
438.8652635527797
 20
284.4699064402897
 30
0.0
 10
438.8534574787141
 20
284.3776790869693
 30
0.0
 10
438.8273788253745
 20
284.2634073410966
 30
0.0
 10
438.8215851563852
 20
284.2405926629918
 30
0.0
 10
438.8089747038221
 20
284.1955369497829
 30
0.0
 10
438.802145524639
 20
284.1732361957004
 30
0.0
 10
438.7801110939056
 20
284.1070028667224
 30
0.0
 10
438.7466134819903
 20
284.0204727218552
 30
0.0
 10
438.7049631173893
 20
283.9374480256119
 30
0.0
 10
438.6706102584041
 20
283.8765094462955
 30
0.0
 10
438.658639195724
 20
283.856418623197
 30
0.0
 10
438.6336353197049
 20
283.8166884554837
 30
0.0
 10
438.6205675328073
 20
283.7970021774925
 30
0.0
 10
438.5531632164448
 20
283.7006462415297
 30
0.0
 10
438.492449625351
 20
283.6296708849723
 30
0.0
 10
438.3912764004986
 20
283.5321925846867
 30
0.0
 10
438.3558561757071
 20
283.5012079783267
 30
0.0
 10
438.3000771434963
 20
283.4570727014486
 30
0.0
 10
438.2809937690388
 20
283.4427181274658
 30
0.0
 10
438.2421460324038
 20
283.4149780053588
 30
0.0
 10
438.2224403596742
 20
283.4016303738588
 30
0.0
 10
438.1225214756756
 20
283.3374642269808
 30
0.0
 10
438.0381772992707
 20
283.2942856788534
 30
0.0
 10
437.9271197206075
 20
283.2506374287022
 30
0.0
 10
437.9046242747681
 20
283.2424288181074
 30
0.0
 10
437.859051884003
 20
283.2270770092375
 30
0.0
 10
437.8359212356476
 20
283.2199189276939
 30
0.0
 10
437.7660027711399
 20
283.2001952440496
 30
0.0
 10
437.7190725345303
 20
283.1894710709746
 30
0.0
 10
437.577352968803
 20
283.164369282669
 30
0.0
 10
437.4816437526532
 20
283.1569921899075
 30
0.0
 10
437.3604167591567
 20
283.1598588418215
 30
0.0
 10
437.3360327807311
 20
283.161049307322
 30
0.0
 10
437.28765810375
 20
283.1646319879065
 30
0.0
 10
437.2636129983156
 20
283.1670225642798
 30
0.0
 10
437.1918956623773
 20
283.1759560558656
 30
0.0
 10
437.0973850820005
 20
283.1925564827342
 30
0.0
 10
437.0050574545437
 20
283.2183719393499
 30
0.0
 10
436.9366384287681
 20
283.241231666625
 30
0.0
 10
436.9139441297321
 20
283.2494458808001
 30
0.0
 10
436.8689466284698
 20
283.2670196525126
 30
0.0
 10
436.8467816386221
 20
283.2763236306297
 30
0.0
 10
436.7375795567116
 20
283.3253624006774
 30
0.0
 10
436.6553634331885
 20
283.3725788101917
 30
0.0
 10
436.5587973072737
 20
283.4413121498816
 30
0.0
 10
436.5397972030983
 20
283.4555490660063
 30
0.0
 10
436.5024292060564
 20
283.4850151372097
 30
0.0
 10
436.4840545526641
 20
283.5002551425025
 30
0.0
 10
436.430453043853
 20
283.5469766597091
 30
0.0
 10
436.3965431485376
 20
283.579609658411
 30
0.0
 10
436.300081456082
 20
283.6818241964123
 30
0.0
 10
436.2427474327599
 20
283.7556801751272
 30
0.0
 10
436.167341011858
 20
283.875246518812
 30
0.0
 10
436.1443168684997
 20
283.9160587603092
 30
0.0
 10
436.1024975613958
 20
283.9992532214971
 30
0.0
 10
436.0648490541769
 20
284.0841119516138
 30
0.0
 10
436.0354449505587
 20
284.1722828187296
 30
0.0
 10
436.0165368547149
 20
284.2396812387314
 30
0.0
 10
436.0107592502474
 20
284.2623594474389
 30
0.0
 10
436.0002749399875
 20
284.3081492639381
 30
0.0
 10
435.9955886116067
 20
284.3311793977173
 30
0.0
 10
435.9750165914593
 20
284.4465043397781
 30
0.0
 10
435.9675144381082
 20
284.5398242173908
 30
0.0
 10
435.9691615337857
 20
284.6341862655649
 30
0.0
  0
SPLINE
  5
209
330
1F
100
AcDbEntity
  8
1
100
AcDbSpline
210
0.0
220
0.0
230
1.0
 70
    12
 71
     2
 72
     6
 73
     3
 74
     0
 42
0.000000001
 43
0.0000000001
 40
0.0
 40
0.0
 40
0.0
 40
1.0
 40
1.0
 40
1.0
 10
429.6952001765017
 20
306.3498514516804
 30
0.0
 41
0.500000604487072
 10
429.8073826368424
 20
306.3496919792026
 30
0.0
 41
0.4999993955129282
 10
429.91956428649
 20
306.3495320700584
 30
0.0
 41
0.500000604487072
  0
LINE
  5
228
330
1F
100
AcDbEntity
  8
4
100
AcDbLine
 10
266.392334
 20
288.907994
 30
0.0
 11
447.4789209999999
 21
288.907994
 31
0.0
  0
LINE
  5
229
330
1F
100
AcDbEntity
  8
SK4
100
AcDbLine
 10
210.904842
 20
288.907994
 30
0.0
 11
277.404842
 21
288.907994
 31
0.0
  0
MTEXT
  5
22A
330
1F
100
AcDbEntity
  8
SK6
100
AcDbMText
 10
304.314982
 20
248.747444
 30
0.0
 40
3.5
 41
0.0
 71
     7
 72
     5
  1
\W0.7147;804D-36-144-S32
  7
cesky
 73
     2
 44
0.8433729999999998
  0
MTEXT
  5
340
330
1F
100
AcDbEntity
  8
2
100
AcDbMText
 10
355.827842
 20
333.821465
 30
0.0
 40
3.5
 41
0.0
 71
     7
 72
     5
  1
\W0.7969;169
  7
cesky
 73
     2
 44
0.8433729999999998
  0
LINE
  5
341
330
1F
100
AcDbEntity
  8
2
100
AcDbLine
 10
443.4048419999999
 20
306.907994
 30
0.0
 11
443.4048419999999
 21
334.9472990000001
 31
0.0
  0
LINE
  5
342
330
1F
100
AcDbEntity
  8
2
100
AcDbLine
 10
274.404842
 20
289.907567
 30
0.0
 11
274.404842
 21
334.9472990000001
 31
0.0
  0
LINE
  5
343
330
1F
100
AcDbEntity
  8
2
100
AcDbLine
 10
443.4048419999999
 20
333.947299
 30
0.0
 11
274.404842
 21
333.947299
 31
0.0
  0
SOLID
  5
344
330
1F
100
AcDbEntity
  8
2
100
AcDbTrace
 10
443.4048419999999
 20
333.947299
 30
0.0
 11
439.904844
 21
333.330154
 31
0.0
 12
439.90484
 22
334.5644430000001
 32
0.0
 13
439.90484
 23
334.5644430000001
 33
0.0
  0
SOLID
  5
345
330
1F
100
AcDbEntity
  8
2
100
AcDbTrace
 10
274.404842
 20
333.947299
 30
0.0
 11
277.90484
 21
334.5644430000001
 31
0.0
 12
277.904844
 22
333.330154
 32
0.0
 13
277.904844
 23
333.330154
 33
0.0
  0
MTEXT
  5
346
330
1F
100
AcDbEntity
  8
2
100
AcDbMText
 10
459.994982
 20
286.331582
 30
0.0
 40
3.5
 41
0.0
 71
     7
 72
     5
  1
\W0.7259;36
  7
cesky
 11
0.0000000000000001
 21
1.0
 31
0.0
 73
     2
 44
0.8433729999999998
  0
MTEXT
  5
347
330
1F
100
AcDbEntity
  8
2
100
AcDbMText
 10
459.994982
 20
279.594082
 30
0.0
 40
3.5
 41
0.0
 71
     7
 72
     5
  1
\W3.0115;\H2.63;%%c\H3.50;
  7
cesky
 11
0.0000000000000001
 21
1.0
 31
0.0
 73
     2
 44
0.8433729999999998
  0
LINE
  5
348
330
1F
100
AcDbEntity
  8
2
100
AcDbLine
 10
445.4048419999999
 20
306.907994
 30
0.0
 11
461.182398
 21
306.907994
 31
0.0
  0
LINE
  5
349
330
1F
100
AcDbEntity
  8
2
100
AcDbLine
 10
460.182398
 20
306.907994
 30
0.0
 11
460.182398
 21
279.436582
 31
0.0
  0
SOLID
  5
34A
330
1F
100
AcDbEntity
  8
2
100
AcDbTrace
 10
460.182398
 20
306.907994
 30
0.0
 11
460.7995429999999
 21
303.407996
 31
0.0
 12
459.5652539999999
 22
303.407991
 32
0.0
 13
459.5652539999999
 23
303.407991
 33
0.0
  0
MTEXT
  5
34B
330
1F
100
AcDbEntity
  8
2
100
AcDbMText
 10
325.827842
 20
347.267008
 30
0.0
 40
3.5
 41
0.0
 71
     7
 72
     5
  1
\W0.7367;229
  7
cesky
 73
     2
 44
0.8433729999999998
  0
LINE
  5
34C
330
1F
100
AcDbEntity
  8
2
100
AcDbLine
 10
443.4048419999999
 20
308.907994
 30
0.0
 11
443.4048419999999
 21
348.392842
 31
0.0
  0
LINE
  5
34D
330
1F
100
AcDbEntity
  8
2
100
AcDbLine
 10
214.404842
 20
302.907994
 30
0.0
 11
214.404842
 21
348.392842
 31
0.0
  0
LINE
  5
34E
330
1F
100
AcDbEntity
  8
2
100
AcDbLine
 10
443.4048419999999
 20
347.392842
 30
0.0
 11
214.404842
 21
347.392842
 31
0.0
  0
SOLID
  5
34F
330
1F
100
AcDbEntity
  8
2
100
AcDbTrace
 10
443.4048419999999
 20
347.392842
 30
0.0
 11
439.904844
 21
346.775697
 31
0.0
 12
439.90484
 22
348.009986
 32
0.0
 13
439.90484
 23
348.009986
 33
0.0
  0
SOLID
  5
350
330
1F
100
AcDbEntity
  8
2
100
AcDbTrace
 10
214.404842
 20
347.392842
 30
0.0
 11
217.90484
 21
348.009986
 31
0.0
 12
217.904844
 22
346.775697
 32
0.0
 13
217.904844
 23
346.775697
 33
0.0
  0
MTEXT
  5
351
330
1F
100
AcDbEntity
  8
2
100
AcDbMText
 10
242.590342
 20
333.821465
 30
0.0
 40
3.5
 41
0.0
 71
     7
 72
     5
  1
\W0.7045;60
  7
cesky
 73
     2
 44
0.8433729999999998
  0
LINE
  5
352
330
1F
100
AcDbEntity
  8
2
100
AcDbLine
 10
274.404842
 20
288.907994
 30
0.0
 11
274.404842
 21
334.9472990000001
 31
0.0
  0
LINE
  5
353
330
1F
100
AcDbEntity
  8
2
100
AcDbLine
 10
214.404842
 20
302.907994
 30
0.0
 11
214.404842
 21
334.9472990000001
 31
0.0
  0
LINE
  5
354
330
1F
100
AcDbEntity
  8
2
100
AcDbLine
 10
274.404842
 20
333.947299
 30
0.0
 11
214.404842
 21
333.947299
 31
0.0
  0
SOLID
  5
355
330
1F
100
AcDbEntity
  8
2
100
AcDbTrace
 10
274.404842
 20
333.947299
 30
0.0
 11
270.904844
 21
333.330154
 31
0.0
 12
270.90484
 22
334.5644430000001
 32
0.0
 13
270.90484
 23
334.5644430000001
 33
0.0
  0
SOLID
  5
356
330
1F
100
AcDbEntity
  8
2
100
AcDbTrace
 10
214.404842
 20
333.947299
 30
0.0
 11
217.90484
 21
334.5644430000001
 31
0.0
 12
217.904844
 22
333.330154
 32
0.0
 13
217.904844
 23
333.330154
 33
0.0
  0
MTEXT
  5
357
330
1F
100
AcDbEntity
  8
2
100
AcDbMText
 10
361.067018
 20
319.9926
 30
0.0
 40
3.5
 41
0.0
 71
     7
 72
     5
  1
\W0.8654;153,5
  7
cesky
 73
     2
 44
0.8433729999999998
  0
LINE
  5
358
330
1F
100
AcDbEntity
  8
2
100
AcDbLine
 10
443.4048419999999
 20
308.907994
 30
0.0
 11
443.4048419999999
 21
321.118433
 31
0.0
  0
LINE
  5
359
330
1F
100
AcDbEntity
  8
2
100
AcDbLine
 10
289.933194
 20
306.620915
 30
0.0
 11
289.933194
 21
321.118433
 31
0.0
  0
LINE
  5
35A
330
1F
100
AcDbEntity
  8
2
100
AcDbLine
 10
443.4048419999999
 20
320.118433
 30
0.0
 11
289.933194
 21
320.118433
 31
0.0
  0
SOLID
  5
35B
330
1F
100
AcDbEntity
  8
2
100
AcDbTrace
 10
443.4048419999999
 20
320.118433
 30
0.0
 11
439.904844
 21
319.501288
 31
0.0
 12
439.90484
 22
320.735577
 32
0.0
 13
439.90484
 23
320.735577
 33
0.0
  0
SOLID
  5
35C
330
1F
100
AcDbEntity
  8
2
100
AcDbTrace
 10
289.933194
 20
320.118433
 30
0.0
 11
293.433192
 21
320.735577
 31
0.0
 12
293.433197
 22
319.501288
 32
0.0
 13
293.433197
 23
319.501288
 33
0.0
  0
MTEXT
  5
35D
330
1F
100
AcDbEntity
  8
SK2
100
AcDbMText
 10
204.480913
 20
290.434244
 30
0.0
 40
3.5
 41
0.0
 71
     7
 72
     5
  1
\W0.7045;32
  7
cesky
 11
0.0000000000000001
 21
1.0
 31
0.0
 73
     2
 44
0.8433729999999998
  0
MTEXT
  5
35E
330
1F
100
AcDbEntity
  8
SK2
100
AcDbMText
 10
204.480913
 20
283.696744
 30
0.0
 40
3.5
 41
0.0
 71
     7
 72
     5
  1
\W3.0115;\H2.63;%%c\H3.50;
  7
cesky
 11
0.0000000000000001
 21
1.0
 31
0.0
 73
     2
 44
0.8433729999999998
  0
LINE
  5
35F
330
1F
100
AcDbEntity
  8
SK2
100
AcDbLine
 10
216.404842
 20
304.907994
 30
0.0
 11
203.66833
 21
304.907994
 31
0.0
  0
LINE
  5
360
330
1F
100
AcDbEntity
  8
SK2
100
AcDbLine
 10
216.404842
 20
272.907994
 30
0.0
 11
203.66833
 21
272.907994
 31
0.0
  0
LINE
  5
361
330
1F
100
AcDbEntity
  8
SK2
100
AcDbLine
 10
204.66833
 20
304.907994
 30
0.0
 11
204.66833
 21
272.907994
 31
0.0
  0
SOLID
  5
362
330
1F
100
AcDbEntity
  8
SK2
100
AcDbTrace
 10
204.66833
 20
304.907994
 30
0.0
 11
205.285474
 21
301.407996
 31
0.0
 12
204.051185
 22
301.407991
 32
0.0
 13
204.051185
 23
301.407991
 33
0.0
  0
SOLID
  5
363
330
1F
100
AcDbEntity
  8
SK2
100
AcDbTrace
 10
204.66833
 20
272.907994
 30
0.0
 11
204.051185
 21
276.407991
 31
0.0
 12
205.285474
 22
276.407996
 32
0.0
 13
205.285474
 23
276.407996
 33
0.0
  0
MTEXT
  5
364
330
1F
100
AcDbEntity
  8
SK2
100
AcDbMText
 10
191.916868
 20
290.434244
 30
0.0
 40
3.5
 41
0.0
 71
     7
 72
     5
  1
\W0.7045;42
  7
cesky
 11
0.0000000000000001
 21
1.0
 31
0.0
 73
     2
 44
0.8433729999999998
  0
MTEXT
  5
365
330
1F
100
AcDbEntity
  8
SK2
100
AcDbMText
 10
191.916868
 20
283.696744
 30
0.0
 40
3.5
 41
0.0
 71
     7
 72
     5
  1
\W3.0115;\H2.63;%%c\H3.50;
  7
cesky
 11
0.0000000000000001
 21
1.0
 31
0.0
 73
     2
 44
0.8433729999999998
  0
LINE
  5
366
330
1F
100
AcDbEntity
  8
SK2
100
AcDbLine
 10
274.904842
 20
309.907994
 30
0.0
 11
191.104285
 21
309.907994
 31
0.0
  0
LINE
  5
367
330
1F
100
AcDbEntity
  8
SK2
100
AcDbLine
 10
274.904842
 20
267.907994
 30
0.0
 11
191.104285
 21
267.907994
 31
0.0
  0
LINE
  5
368
330
1F
100
AcDbEntity
  8
SK2
100
AcDbLine
 10
192.104285
 20
309.907994
 30
0.0
 11
192.104285
 21
267.907994
 31
0.0
  0
SOLID
  5
369
330
1F
100
AcDbEntity
  8
SK2
100
AcDbTrace
 10
192.104285
 20
309.907994
 30
0.0
 11
192.721429
 21
306.407996
 31
0.0
 12
191.48714
 22
306.407991
 32
0.0
 13
191.48714
 23
306.407991
 33
0.0
  0
SOLID
  5
36A
330
1F
100
AcDbEntity
  8
SK2
100
AcDbTrace
 10
192.104285
 20
267.907994
 30
0.0
 11
191.48714
 21
271.4079910000001
 31
0.0
 12
192.721429
 22
271.407996
 32
0.0
 13
192.721429
 23
271.407996
 33
0.0
  0
LINE
  5
36B
330
1F
100
AcDbEntity
  8
CUT
100
AcDbLine
 10
442.9048193077227
 20
297.849462084272
 30
0.0
 11
443.2334058386329
 21
297.3026386918773
 31
0.0
  0
LINE
  5
36C
330
1F
100
AcDbEntity
  8
CUT
100
AcDbLine
 10
443.2754235247553
 20
297.1561161883041
 30
0.0
 11
443.3998607906598
 21
290.0309651127017
 31
0.0
  0
LINE
  5
36D
330
1F
100
AcDbEntity
  8
CUT
100
AcDbLine
 10
430.6647256653422
 20
306.4972119845732
 30
0.0
 11
441.8029048644206
 21
306.9049267109345
 31
0.0
  0
LINE
  5
36F
330
1F
100
AcDbEntity
  8
CUT
100
AcDbLine
 10
442.6065532926149
 20
306.1586309572965
 30
0.0
 11
442.9048193077227
 21
297.849462084272
 31
0.0
  0
LINE
  5
371
330
1F
100
AcDbEntity
  8
CUT
100
AcDbLine
 10
430.664726
 20
288.907994
 30
0.0
 11
430.664726
 21
306.497212
 31
0.0
  0
LINE
  5
372
330
1F
100
AcDbEntity
  8
CUT
100
AcDbLine
 10
443.399861
 20
288.907994
 30
0.0
 11
430.664726
 21
288.907994
 31
0.0
  0
LINE
  5
373
330
1F
100
AcDbEntity
  8
CUT
100
AcDbLine
 10
443.399861
 20
290.030965
 30
0.0
 11
443.399861
 21
288.907994
 31
0.0
  0
LINE
  5
374
330
1F
100
AcDbEntity
  8
CUT
100
AcDbLine
 10
441.8029048644206
 20
306.9049267109345
 30
0.0
 11
441.8029048644206
 21
306.9049267109345
 31
0.0
  0
ARC
  5
375
330
1F
100
AcDbEntity
  8
CUT
100
AcDbCircle
 10
441.8267675322936
 20
306.1247710211134
 30
0.0
 40
0.7805205489147692
100
AcDbArc
 50
2.486341272115004
 51
91.75196314667132
  0
LINE
  5
376
330
1F
100
AcDbEntity
  8
CUT
100
AcDbLine
 10
443.2334058386329
 20
297.3026386918775
 30
0.0
 11
443.2334058386329
 21
297.3026386918775
 31
0.0
  0
ARC
  5
377
330
1F
100
AcDbEntity
  8
CUT
100
AcDbCircle
 10
442.9810532454205
 20
297.1509866485932
 30
0.0
 40
0.2944149682562209
100
AcDbArc
 50
0.9983047031411182
 51
31.00388804908695
  0
ENDSEC
  0
SECTION
  2
OBJECTS
  0
DICTIONARY
  5
C
330
0
100
AcDbDictionary
281
     1
  3
ACAD_CIP_PREVIOUS_PRODUCT_INFO
350
33D
  3
ACAD_COLOR
350
338
  3
ACAD_DETAILVIEWSTYLE
350
334
  3
ACAD_GROUP
350
D
  3
ACAD_LAYOUT
350
1A
  3
ACAD_MATERIAL
350
43
  3
ACAD_MLEADERSTYLE
350
6B
  3
ACAD_MLINESTYLE
350
17
  3
ACAD_PLOTSETTINGS
350
19
  3
ACAD_PLOTSTYLENAME
350
E
  3
ACAD_SCALELIST
350
47
  3
ACAD_SECTIONVIEWSTYLE
350
335
  3
ACAD_TABLESTYLE
350
69
  3
ACAD_VISUALSTYLE
350
2A
  3
ACDB_RECOMPOSE_DATA
350
3A3
  3
AcDbVariableDictionary
350
2F1
  0
DICTIONARY
  5
386
330
10
100
AcDbDictionary
280
     1
281
     1
  3
ADSK_XREC_LAYER_RECONCILED
360
387
  0
DICTIONARY
  5
388
330
378
100
AcDbDictionary
280
     1
281
     1
  3
ADSK_XREC_LAYER_RECONCILED
360
389
  0
DICTIONARY
  5
38A
330
379
100
AcDbDictionary
280
     1
281
     1
  3
ADSK_XREC_LAYER_RECONCILED
360
38B
  0
DICTIONARY
  5
38C
330
37A
100
AcDbDictionary
280
     1
281
     1
  3
ADSK_XREC_LAYER_RECONCILED
360
38D
  0
DICTIONARY
  5
38E
330
37C
100
AcDbDictionary
280
     1
281
     1
  3
ADSK_XREC_LAYER_RECONCILED
360
38F
  0
DICTIONARY
  5
390
330
37D
100
AcDbDictionary
280
     1
281
     1
  3
ADSK_XREC_LAYER_RECONCILED
360
391
  0
DICTIONARY
  5
392
330
37F
100
AcDbDictionary
280
     1
281
     1
  3
ADSK_XREC_LAYER_RECONCILED
360
393
  0
DICTIONARY
  5
394
330
380
100
AcDbDictionary
280
     1
281
     1
  3
ADSK_XREC_LAYER_RECONCILED
360
395
  0
DICTIONARY
  5
396
330
381
100
AcDbDictionary
280
     1
281
     1
  3
ADSK_XREC_LAYER_RECONCILED
360
397
  0
DICTIONARY
  5
398
330
382
100
AcDbDictionary
280
     1
281
     1
  3
ADSK_XREC_LAYER_RECONCILED
360
399
  0
DICTIONARY
  5
39A
330
383
100
AcDbDictionary
280
     1
281
     1
  3
ADSK_XREC_LAYER_RECONCILED
360
39B
  0
DICTIONARY
  5
39C
330
384
100
AcDbDictionary
280
     1
281
     1
  3
ADSK_XREC_LAYER_RECONCILED
360
39D
  0
DICTIONARY
  5
33E
330
1F
100
AcDbDictionary
280
     1
281
     1
  3
ACAD_SORTENTS
360
33F
  0
XRECORD
  5
33D
102
{ACAD_REACTORS
330
C
102
}
330
C
100
AcDbXrecord
280
     1
300
ACD
300
2019
300
87084ACD_2019_0F
  0
DICTIONARY
  5
338
102
{ACAD_REACTORS
330
C
102
}
330
C
100
AcDbDictionary
281
     1
  0
DICTIONARY
  5
334
102
{ACAD_REACTORS
330
C
102
}
330
C
100
AcDbDictionary
281
     1
  3
Metric50
350
33A
  0
DICTIONARY
  5
D
102
{ACAD_REACTORS
330
C
102
}
330
C
100
AcDbDictionary
281
     1
  3
NULOVY_BOD
350
385
  0
DICTIONARY
  5
1A
102
{ACAD_REACTORS
330
C
102
}
330
C
100
AcDbDictionary
281
     1
  3
Layout1
350
1E
  3
Layout2
350
26
  3
Model
350
22
  0
DICTIONARY
  5
43
102
{ACAD_REACTORS
330
C
102
}
330
C
100
AcDbDictionary
281
     1
  3
ByBlock
350
45
  3
ByLayer
350
44
  3
Global
350
46
  0
DICTIONARY
  5
6B
102
{ACAD_REACTORS
330
C
102
}
330
C
100
AcDbDictionary
281
     1
  3
Standard
350
6C
  0
DICTIONARY
  5
17
102
{ACAD_REACTORS
330
C
102
}
330
C
100
AcDbDictionary
281
     1
  3
Standard
350
18
  0
DICTIONARY
  5
19
102
{ACAD_REACTORS
330
C
102
}
330
C
100
AcDbDictionary
281
     1
  0
ACDBDICTIONARYWDFLT
  5
E
102
{ACAD_REACTORS
330
C
102
}
330
C
100
AcDbDictionary
281
     1
  3
Normal
350
F
100
AcDbDictionaryWithDefault
340
F
  0
DICTIONARY
  5
47
102
{ACAD_REACTORS
330
C
102
}
330
C
100
AcDbDictionary
281
     1
  3
A0
350
48
  3
A1
350
49
  3
A2
350
4A
  3
A3
350
4B
  3
A4
350
4C
  3
A5
350
4D
  3
A6
350
4E
  3
A7
350
4F
  3
A8
350
50
  3
A9
350
51
  3
B0
350
52
  3
B1
350
53
  3
B2
350
54
  3
B3
350
55
  3
B4
350
56
  3
B5
350
57
  3
B6
350
58
  3
B7
350
59
  3
B8
350
5A
  3
B9
350
5B
  3
C0
350
5C
  3
C1
350
5D
  3
C2
350
5E
  3
C3
350
5F
  3
C4
350
60
  3
C5
350
61
  3
C6
350
62
  3
C7
350
63
  3
C8
350
64
  3
C9
350
65
  3
D0
350
66
  3
D1
350
67
  3
D2
350
68
  0
DICTIONARY
  5
335
102
{ACAD_REACTORS
330
C
102
}
330
C
100
AcDbDictionary
281
     1
  3
Metric50
350
339
  0
DICTIONARY
  5
69
102
{ACAD_REACTORS
330
C
102
}
330
C
100
AcDbDictionary
281
     1
  3
Standard
350
6A
  0
DICTIONARY
  5
2A
102
{ACAD_REACTORS
330
C
102
}
330
C
100
AcDbDictionary
281
     1
  3
2dWireframe
350
2F
  3
Basic
350
32
  3
Brighten
350
36
  3
ColorChange
350
3A
  3
Conceptual
350
34
  3
Dim
350
35
  3
EdgeColorOff
350
3D
  3
Facepattern
350
39
  3
Flat
350
2B
  3
FlatWithEdges
350
2C
  3
Gouraud
350
2D
  3
GouraudWithEdges
350
2E
  3
Hidden
350
31
  3
JitterOff
350
3B
  3
Linepattern
350
38
  3
OverhangOff
350
3C
  3
Realistic
350
33
  3
Shaded
350
42
  3
Shaded with edges
350
41
  3
Shades of Gray
350
3E
  3
Sketchy
350
3F
  3
Thicken
350
37
  3
Wireframe
350
30
  3
X-Ray
350
40
  0
XRECORD
  5
3A3
102
{ACAD_REACTORS
330
C
102
}
330
C
100
AcDbXrecord
280
     1
 90
        1
330
6A
  0
DICTIONARY
  5
2F1
102
{ACAD_REACTORS
330
C
102
}
330
C
100
AcDbDictionary
281
     1
  3
CANNOSCALE
350
2F2
  3
CMLEADERSTYLE
350
333
  3
CTABLESTYLE
350
332
  3
CVIEWDETAILSTYLE
350
39E
  3
CVIEWSECTIONSTYLE
350
39F
  3
MSLTSCALE
350
2F3
  3
XCLIPFRAME
350
3A0
  0
XRECORD
  5
387
102
{ACAD_REACTORS
330
386
102
}
330
386
100
AcDbXrecord
280
     1
290
     1
  0
XRECORD
  5
389
102
{ACAD_REACTORS
330
388
102
}
330
388
100
AcDbXrecord
280
     1
290
     1
  0
XRECORD
  5
38B
102
{ACAD_REACTORS
330
38A
102
}
330
38A
100
AcDbXrecord
280
     1
290
     1
  0
XRECORD
  5
38D
102
{ACAD_REACTORS
330
38C
102
}
330
38C
100
AcDbXrecord
280
     1
290
     1
  0
XRECORD
  5
38F
102
{ACAD_REACTORS
330
38E
102
}
330
38E
100
AcDbXrecord
280
     1
290
     1
  0
XRECORD
  5
391
102
{ACAD_REACTORS
330
390
102
}
330
390
100
AcDbXrecord
280
     1
290
     1
  0
XRECORD
  5
393
102
{ACAD_REACTORS
330
392
102
}
330
392
100
AcDbXrecord
280
     1
290
     1
  0
XRECORD
  5
395
102
{ACAD_REACTORS
330
394
102
}
330
394
100
AcDbXrecord
280
     1
290
     1
  0
XRECORD
  5
397
102
{ACAD_REACTORS
330
396
102
}
330
396
100
AcDbXrecord
280
     1
290
     1
  0
XRECORD
  5
399
102
{ACAD_REACTORS
330
398
102
}
330
398
100
AcDbXrecord
280
     1
290
     1
  0
XRECORD
  5
39B
102
{ACAD_REACTORS
330
39A
102
}
330
39A
100
AcDbXrecord
280
     1
290
     1
  0
XRECORD
  5
39D
102
{ACAD_REACTORS
330
39C
102
}
330
39C
100
AcDbXrecord
280
     1
290
     1
  0
SORTENTSTABLE
  5
33F
102
{ACAD_REACTORS
330
33E
102
}
330
33E
100
AcDbSortentsTable
330
1F
331
340
  5
263
331
341
  5
27C
331
342
  5
340
331
343
  5
341
331
344
  5
342
331
345
  5
343
331
346
  5
344
331
347
  5
345
331
348
  5
346
331
349
  5
347
331
34A
  5
348
331
34B
  5
359
331
34C
  5
35A
331
34D
  5
35B
331
34E
  5
35C
331
34F
  5
35D
331
350
  5
35E
331
351
  5
35F
331
352
  5
360
331
353
  5
361
331
354
  5
362
331
355
  5
363
331
356
  5
364
331
357
  5
365
331
358
  5
366
331
359
  5
367
331
35A
  5
368
331
35B
  5
369
331
35C
  5
36A
331
35D
  5
34B
331
35E
  5
34C
331
35F
  5
34D
331
360
  5
34E
331
361
  5
34F
331
362
  5
350
331
363
  5
351
331
364
  5
352
331
365
  5
353
331
366
  5
354
331
367
  5
355
331
368
  5
356
331
369
  5
357
331
36A
  5
358
331
36F
  5
372
331
371
  5
375
331
372
  5
376
331
373
  5
377
331
374
  5
36F
331
375
  5
371
331
376
  5
373
331
377
  5
374
  0
ACDBDETAILVIEWSTYLE
  5
33A
102
{ACAD_XDICTIONARY
360
3D7
102
}
102
{ACAD_REACTORS
330
334
102
}
330
334
100
AcDbModelDocViewStyle
 70
     0
  3
Metric50
290
     0
100
AcDbDetailViewStyle
 70
     0
 71
     0
 90
        3
 71
     1
340
11
 62
   256
 40
5.0
340
0
 62
   256
 40
5.0
300

 40
0.0
280
     1
 71
     2
340
16
 90
       25
 62
   256
 71
     3
340
11
 62
   256
 40
5.0
 90
        0
 40
15.0
 90
        1
300
%<\AcVar ViewDetailId>% (%<\AcVar ViewScale \f "%sn">%)
 71
     4
340
16
 90
       25
 62
   256
340
16
 90
       25
 62
   256
280
     0
  0
GROUP
  5
385
102
{ACAD_REACTORS
330
D
102
}
330
D
100
AcDbGroup
300

 70
     0
 71
     1
340
73
  0
LAYOUT
  5
1E
102
{ACAD_REACTORS
330
1A
102
}
330
1A
100
AcDbPlotSettings
  1

  2
none_device
  4

  6

 40
0.0
 41
0.0
 42
0.0
 43
0.0
 44
0.0
 45
0.0
 46
0.0
 47
0.0
 48
0.0
 49
0.0
140
0.0
141
0.0
142
1.0
143
1.0
 70
   688
 72
     0
 73
     0
 74
     5
  7

 75
    16
147
1.0
 76
     0
 77
     2
 78
   300
148
0.0
149
0.0
100
AcDbLayout
  1
Layout1
 70
     1
 71
     1
 10
-0.5
 20
-0.5
 11
5.0
 21
5.0
 12
0.0
 22
0.0
 32
0.0
 14
-0.5
 24
-0.5
 34
-0.5
 15
5.0
 25
5.0
 35
5.0
146
0.0
 13
0.0
 23
0.0
 33
0.0
 16
1.0
 26
0.0
 36
0.0
 17
0.0
 27
1.0
 37
0.0
 76
     0
330
1B
  0
LAYOUT
  5
26
102
{ACAD_REACTORS
330
1A
102
}
330
1A
100
AcDbPlotSettings
  1

  2
none_device
  4

  6

 40
0.0
 41
0.0
 42
0.0
 43
0.0
 44
0.0
 45
0.0
 46
0.0
 47
0.0
 48
0.0
 49
0.0
140
0.0
141
0.0
142
1.0
143
1.0
 70
   688
 72
     0
 73
     0
 74
     5
  7

 75
    16
147
1.0
 76
     0
 77
     2
 78
   300
148
0.0
149
0.0
100
AcDbLayout
  1
Layout2
 70
     1
 71
     2
 10
0.0
 20
0.0
 11
0.0
 21
0.0
 12
0.0
 22
0.0
 32
0.0
 14
0.0
 24
0.0
 34
0.0
 15
0.0
 25
0.0
 35
0.0
146
0.0
 13
0.0
 23
0.0
 33
0.0
 16
1.0
 26
0.0
 36
0.0
 17
0.0
 27
1.0
 37
0.0
 76
     0
330
23
  0
LAYOUT
  5
22
102
{ACAD_REACTORS
330
1A
102
}
330
1A
100
AcDbPlotSettings
  1

  2
none_device
  4
Letter_(8.50_x_11.00_Inches)
  6

 40
6.349999999999999
 41
6.349999999999999
 42
6.350005
 43
6.350005
 44
215.9
 45
279.4
 46
0.0
 47
0.0
 48
0.0
 49
0.0
140
0.0
141
0.0
142
1.0
143
1.0
 70
  1712
 72
     0
 73
     0
 74
     0
  7

 75
     0
147
1.0
 76
     0
 77
     2
 78
   300
148
0.0
149
0.0
100
AcDbLayout
  1
Model
 70
     1
 71
     0
 10
-0.5
 20
-0.5
 11
5.0
 21
5.0
 12
0.0
 22
0.0
 32
0.0
 14
-0.5
 24
-0.5
 34
-0.5
 15
5.0
 25
5.0
 35
5.0
146
0.0
 13
0.0
 23
0.0
 33
0.0
 16
1.0
 26
0.0
 36
0.0
 17
0.0
 27
1.0
 37
0.0
 76
     0
330
1F
331
29
  0
MATERIAL
  5
45
102
{ACAD_XDICTIONARY
360
327
102
}
102
{ACAD_REACTORS
330
43
102
}
330
43
100
AcDbMaterial
  1
ByBlock
  0
MATERIAL
  5
44
102
{ACAD_XDICTIONARY
360
325
102
}
102
{ACAD_REACTORS
330
43
102
}
330
43
100
AcDbMaterial
  1
ByLayer
  0
MATERIAL
  5
46
102
{ACAD_XDICTIONARY
360
329
102
}
102
{ACAD_REACTORS
330
43
102
}
330
43
100
AcDbMaterial
  1
Global
  0
MLEADERSTYLE
  5
6C
102
{ACAD_REACTORS
330
6B
102
}
330
6B
100
AcDbMLeaderStyle
170
     2
171
     1
172
     0
 90
        2
 40
0.0
 41
0.0
173
     1
 91
-1056964608
340
14
 92
       -2
290
     1
 42
0.09
291
     1
 43
0.36
  3
Standard
 44
0.18
300

342
11
174
     1
178
     6
175
     1
176
     0
 93
-1056964608
 45
0.18
292
     0
297
     0
 46
0.18
 94
-1056964608
 47
1.0
 49
1.0
140
1.0
293
     1
141
0.0
294
     1
177
     0
142
1.0
295
     0
296
     0
143
0.125
1001
ACAD_MLEADERVER
1070
     2
  0
MLINESTYLE
  5
18
102
{ACAD_REACTORS
330
17
102
}
330
17
100
AcDbMlineStyle
  2
STANDARD
 70
     0
  3

 62
   256
 51
90.0
 52
90.0
 71
     2
 49
0.5
 62
   256
  6
BYLAYER
 49
-0.5
 62
   256
  6
BYLAYER
  0
ACDBPLACEHOLDER
  5
F
102
{ACAD_REACTORS
330
E
102
}
330
E
  0
SCALE
  5
48
102
{ACAD_REACTORS
330
47
102
}
330
47
100
AcDbScale
 70
     0
300
1:1
140
1.0
141
1.0
290
     1
  0
SCALE
  5
49
102
{ACAD_REACTORS
330
47
102
}
330
47
100
AcDbScale
 70
     0
300
1:2
140
1.0
141
2.0
290
     0
  0
SCALE
  5
4A
102
{ACAD_REACTORS
330
47
102
}
330
47
100
AcDbScale
 70
     0
300
1:4
140
1.0
141
4.0
290
     0
  0
SCALE
  5
4B
102
{ACAD_REACTORS
330
47
102
}
330
47
100
AcDbScale
 70
     0
300
1:5
140
1.0
141
5.0
290
     0
  0
SCALE
  5
4C
102
{ACAD_REACTORS
330
47
102
}
330
47
100
AcDbScale
 70
     0
300
1:8
140
1.0
141
8.0
290
     0
  0
SCALE
  5
4D
102
{ACAD_REACTORS
330
47
102
}
330
47
100
AcDbScale
 70
     0
300
1:10
140
1.0
141
10.0
290
     0
  0
SCALE
  5
4E
102
{ACAD_REACTORS
330
47
102
}
330
47
100
AcDbScale
 70
     0
300
1:16
140
1.0
141
16.0
290
     0
  0
SCALE
  5
4F
102
{ACAD_REACTORS
330
47
102
}
330
47
100
AcDbScale
 70
     0
300
1:20
140
1.0
141
20.0
290
     0
  0
SCALE
  5
50
102
{ACAD_REACTORS
330
47
102
}
330
47
100
AcDbScale
 70
     0
300
1:30
140
1.0
141
30.0
290
     0
  0
SCALE
  5
51
102
{ACAD_REACTORS
330
47
102
}
330
47
100
AcDbScale
 70
     0
300
1:40
140
1.0
141
40.0
290
     0
  0
SCALE
  5
52
102
{ACAD_REACTORS
330
47
102
}
330
47
100
AcDbScale
 70
     0
300
1:50
140
1.0
141
50.0
290
     0
  0
SCALE
  5
53
102
{ACAD_REACTORS
330
47
102
}
330
47
100
AcDbScale
 70
     0
300
1:100
140
1.0
141
100.0
290
     0
  0
SCALE
  5
54
102
{ACAD_REACTORS
330
47
102
}
330
47
100
AcDbScale
 70
     0
300
2:1
140
2.0
141
1.0
290
     0
  0
SCALE
  5
55
102
{ACAD_REACTORS
330
47
102
}
330
47
100
AcDbScale
 70
     0
300
4:1
140
4.0
141
1.0
290
     0
  0
SCALE
  5
56
102
{ACAD_REACTORS
330
47
102
}
330
47
100
AcDbScale
 70
     0
300
8:1
140
8.0
141
1.0
290
     0
  0
SCALE
  5
57
102
{ACAD_REACTORS
330
47
102
}
330
47
100
AcDbScale
 70
     0
300
10:1
140
10.0
141
1.0
290
     0
  0
SCALE
  5
58
102
{ACAD_REACTORS
330
47
102
}
330
47
100
AcDbScale
 70
     0
300
100:1
140
100.0
141
1.0
290
     0
  0
SCALE
  5
59
102
{ACAD_REACTORS
330
47
102
}
330
47
100
AcDbScale
 70
     0
300
1/128" = 1'-0"
140
0.007812
141
12.0
290
     0
  0
SCALE
  5
5A
102
{ACAD_REACTORS
330
47
102
}
330
47
100
AcDbScale
 70
     0
300
1/64" = 1'-0"
140
0.015625
141
12.0
290
     0
  0
SCALE
  5
5B
102
{ACAD_REACTORS
330
47
102
}
330
47
100
AcDbScale
 70
     0
300
1/32" = 1'-0"
140
0.03125
141
12.0
290
     0
  0
SCALE
  5
5C
102
{ACAD_REACTORS
330
47
102
}
330
47
100
AcDbScale
 70
     0
300
1/16" = 1'-0"
140
0.0625
141
12.0
290
     0
  0
SCALE
  5
5D
102
{ACAD_REACTORS
330
47
102
}
330
47
100
AcDbScale
 70
     0
300
3/32" = 1'-0"
140
0.09375
141
12.0
290
     0
  0
SCALE
  5
5E
102
{ACAD_REACTORS
330
47
102
}
330
47
100
AcDbScale
 70
     0
300
1/8" = 1'-0"
140
0.125
141
12.0
290
     0
  0
SCALE
  5
5F
102
{ACAD_REACTORS
330
47
102
}
330
47
100
AcDbScale
 70
     0
300
3/16" = 1'-0"
140
0.1875
141
12.0
290
     0
  0
SCALE
  5
60
102
{ACAD_REACTORS
330
47
102
}
330
47
100
AcDbScale
 70
     0
300
1/4" = 1'-0"
140
0.25
141
12.0
290
     0
  0
SCALE
  5
61
102
{ACAD_REACTORS
330
47
102
}
330
47
100
AcDbScale
 70
     0
300
3/8" = 1'-0"
140
0.375
141
12.0
290
     0
  0
SCALE
  5
62
102
{ACAD_REACTORS
330
47
102
}
330
47
100
AcDbScale
 70
     0
300
1/2" = 1'-0"
140
0.5
141
12.0
290
     0
  0
SCALE
  5
63
102
{ACAD_REACTORS
330
47
102
}
330
47
100
AcDbScale
 70
     0
300
3/4" = 1'-0"
140
0.75
141
12.0
290
     0
  0
SCALE
  5
64
102
{ACAD_REACTORS
330
47
102
}
330
47
100
AcDbScale
 70
     0
300
1" = 1'-0"
140
1.0
141
12.0
290
     0
  0
SCALE
  5
65
102
{ACAD_REACTORS
330
47
102
}
330
47
100
AcDbScale
 70
     0
300
1-1/2" = 1'-0"
140
1.5
141
12.0
290
     0
  0
SCALE
  5
66
102
{ACAD_REACTORS
330
47
102
}
330
47
100
AcDbScale
 70
     0
300
3" = 1'-0"
140
3.0
141
12.0
290
     0
  0
SCALE
  5
67
102
{ACAD_REACTORS
330
47
102
}
330
47
100
AcDbScale
 70
     0
300
6" = 1'-0"
140
6.0
141
12.0
290
     0
  0
SCALE
  5
68
102
{ACAD_REACTORS
330
47
102
}
330
47
100
AcDbScale
 70
     0
300
1'-0" = 1'-0"
140
12.0
141
12.0
290
     0
  0
ACDBSECTIONVIEWSTYLE
  5
339
102
{ACAD_XDICTIONARY
360
3D5
102
}
102
{ACAD_REACTORS
330
335
102
}
330
335
100
AcDbModelDocViewStyle
 70
     0
  3
Metric50
290
     0
100
AcDbSectionViewStyle
 70
     0
 71
     0
 90
      102
 71
     1
340
11
 62
   256
 40
5.0
340
0
340
0
 62
   256
 40
5.0
300
I, O, Q, S, X, Z
 40
10.0
 90
        0
 40
2.5
 90
        0
 71
     2
340
16
 90
       25
 62
   256
340
16
 90
       50
 62
   256
 40
5.0
 40
2.5
 40
5.0
 71
     3
340
11
 62
   256
 40
5.0
 90
        0
 40
15.0
 90
        1
300
%<\AcVar ViewSectionStartId>%-%<\AcVar ViewSectionEndId>% (%<\AcVar ViewScale \f "%sn">%)
 71
     4
 62
   256
 62
   257
300
ANSI31
 40
1.0
 90
        0
290
     0
290
     0
 90
        6
 40
0.0
 40
1.570796326794896
 40
0.2617993877991494
 40
1.308996938995747
 40
-0.2617993877991494
 40
1.832595714594046
  0
TABLESTYLE
  5
6A
102
{ACAD_XDICTIONARY
360
32B
102
}
102
{ACAD_REACTORS
330
69
102
}
330
69
100
AcDbTableStyle
  3
Standard
 70
     0
 71
     0
 40
0.06
 41
0.06
280
     0
281
     0
  7
Standard
140
0.18
170
     2
 62
     0
 63
     7
283
     0
274
    -2
284
     1
 64
     0
275
    -2
285
     1
 65
     0
276
    -2
286
     1
 66
     0
277
    -2
287
     1
 67
     0
278
    -2
288
     1
 68
     0
279
    -2
289
     1
 69
     0
  7
Standard
140
0.25
170
     5
 62
     0
 63
     7
283
     0
274
    -2
284
     1
 64
     0
275
    -2
285
     1
 65
     0
276
    -2
286
     1
 66
     0
277
    -2
287
     1
 67
     0
278
    -2
288
     1
 68
     0
279
    -2
289
     1
 69
     0
  7
Standard
140
0.18
170
     5
 62
     0
 63
     7
283
     0
274
    -2
284
     1
 64
     0
275
    -2
285
     1
 65
     0
276
    -2
286
     1
 66
     0
277
    -2
287
     1
 67
     0
278
    -2
288
     1
 68
     0
279
    -2
289
     1
 69
     0
  0
VISUALSTYLE
  5
2F
102
{ACAD_XDICTIONARY
360
3AC
102
}
102
{ACAD_REACTORS
330
2A
102
}
330
2A
100
AcDbVisualStyle
  2

 70
     4
 71
     0
 72
     2
 73
     0
 90
        0
 40
-0.6
 41
-30.0
 62
     5
 63
     7
421
 16777215
 74
     1
 91
        4
 64
     7
 65
   257
 75
     1
175
     1
 42
1.0
 92
        0
 66
   257
 43
1.0
 76
     1
 77
     6
 78
     2
 67
     7
 79
     5
170
     0
171
     0
290
     0
174
     0
 93
        1
 44
0.0
173
     0
291
     0
 45
0.0
1001
ACAD
1000
AcDbSavedByObjectVersion
1070
     0
  0
VISUALSTYLE
  5
32
102
{ACAD_XDICTIONARY
360
3B2
102
}
102
{ACAD_REACTORS
330
2A
102
}
330
2A
100
AcDbVisualStyle
  2

 70
     7
 71
     1
 72
     0
 73
     1
 90
        0
 40
-0.6
 41
-30.0
 62
     5
 63
     7
421
 16777215
 74
     0
 91
        4
 64
     7
 65
   257
 75
     1
175
     1
 42
1.0
 92
        8
 66
     7
 43
1.0
 76
     1
 77
     6
 78
     2
 67
     7
 79
     5
170
     0
171
     0
290
     0
174
     0
 93
        1
 44
0.0
173
     0
291
     1
 45
0.0
1001
ACAD
1000
AcDbSavedByObjectVersion
1070
     0
  0
VISUALSTYLE
  5
36
102
{ACAD_XDICTIONARY
360
3BA
102
}
102
{ACAD_REACTORS
330
2A
102
}
330
2A
100
AcDbVisualStyle
  2

 70
    12
 71
     2
 72
     2
 73
     0
 90
        0
 40
-0.6
 41
-30.0
 62
     5
 63
     7
421
 16777215
 74
     1
 91
        4
 64
     7
 65
   257
 75
     1
175
     1
 42
1.0
 92
        8
 66
     7
 43
1.0
 76
     1
 77
     6
 78
     2
 67
     7
 79
     5
170
     0
171
     0
290
     0
174
     0
 93
        1
 44
50.0
173
     0
291
     1
 45
0.0
1001
ACAD
1000
AcDbSavedByObjectVersion
1070
     0
  0
VISUALSTYLE
  5
3A
102
{ACAD_XDICTIONARY
360
3C2
102
}
102
{ACAD_REACTORS
330
2A
102
}
330
2A
100
AcDbVisualStyle
  2

 70
    16
 71
     2
 72
     2
 73
     3
 90
        0
 40
-0.6
 41
-30.0
 62
     5
 63
     8
421
  8421504
 74
     1
 91
        4
 64
     7
 65
   257
 75
     1
175
     1
 42
1.0
 92
        8
 66
     8
424
  8421504
 43
1.0
 76
     1
 77
     6
 78
     2
 67
     7
 79
     5
170
     0
171
     0
290
     0
174
     0
 93
        1
 44
0.0
173
     0
291
     1
 45
0.0
1001
ACAD
1000
AcDbSavedByObjectVersion
1070
     0
  0
VISUALSTYLE
  5
34
102
{ACAD_XDICTIONARY
360
3B6
102
}
102
{ACAD_REACTORS
330
2A
102
}
330
2A
100
AcDbVisualStyle
  2

 70
     9
 71
     3
 72
     2
 73
     0
 90
        0
 40
-0.6
 41
-30.0
 62
     5
 63
     7
421
 16777215
 74
     2
 91
        2
 64
     7
 65
   257
 75
     1
175
     1
 42
179.0
 92
        8
 66
     7
 43
1.0
 76
     1
 77
     6
 78
     2
 67
     7
 79
     3
170
     0
171
     0
290
     0
174
     0
 93
        1
 44
0.0
173
     0
291
     0
 45
0.0
1001
ACAD
1000
AcDbSavedByObjectVersion
1070
     0
  0
VISUALSTYLE
  5
35
102
{ACAD_XDICTIONARY
360
3B8
102
}
102
{ACAD_REACTORS
330
2A
102
}
330
2A
100
AcDbVisualStyle
  2

 70
    11
 71
     2
 72
     2
 73
     0
 90
        0
 40
-0.6
 41
-30.0
 62
     5
 63
     7
421
 16777215
 74
     1
 91
        4
 64
     7
 65
   257
 75
     1
175
     1
 42
1.0
 92
        8
 66
     7
 43
1.0
 76
     1
 77
     6
 78
     2
 67
     7
 79
     5
170
     0
171
     0
290
     0
174
     0
 93
        1
 44
-50.0
173
     0
291
     1
 45
0.0
1001
ACAD
1000
AcDbSavedByObjectVersion
1070
     0
  0
VISUALSTYLE
  5
3D
102
{ACAD_XDICTIONARY
360
3C8
102
}
102
{ACAD_REACTORS
330
2A
102
}
330
2A
100
AcDbVisualStyle
  2

 70
    22
 71
     2
 72
     2
 73
     0
 90
        0
 40
-0.6
 41
-30.0
 62
     5
 63
     7
421
 16777215
 74
     1
 91
        4
 64
     7
 65
   257
 75
     1
175
     1
 42
1.0
 92
        8
 66
     7
 43
1.0
 76
     1
 77
     6
 78
     2
 67
     7
 79
     5
170
     0
171
     0
290
     0
174
     0
 93
        1
 44
0.0
173
     0
291
     1
 45
0.0
1001
ACAD
1000
AcDbSavedByObjectVersion
1070
     0
  0
VISUALSTYLE
  5
39
102
{ACAD_XDICTIONARY
360
3C0
102
}
102
{ACAD_REACTORS
330
2A
102
}
330
2A
100
AcDbVisualStyle
  2

 70
    15
 71
     2
 72
     2
 73
     0
 90
        0
 40
-0.6
 41
-30.0
 62
     5
 63
     7
421
 16777215
 74
     1
 91
        4
 64
     7
 65
   257
 75
     1
175
     1
 42
1.0
 92
        8
 66
     7
 43
1.0
 76
     1
 77
     6
 78
     2
 67
     7
 79
     5
170
     0
171
     0
290
     0
174
     0
 93
        1
 44
0.0
173
     0
291
     1
 45
0.0
1001
ACAD
1000
AcDbSavedByObjectVersion
1070
     0
  0
VISUALSTYLE
  5
2B
102
{ACAD_XDICTIONARY
360
3A4
102
}
102
{ACAD_REACTORS
330
2A
102
}
330
2A
100
AcDbVisualStyle
  2

 70
     0
 71
     2
 72
     1
 73
     1
 90
        2
 40
-0.6
 41
30.0
 62
     5
 63
     7
421
 16777215
 74
     0
 91
        0
 64
     7
 65
   257
 75
     1
175
     1
 42
1.0
 92
        8
 66
     7
 43
1.0
 76
     1
 77
     6
 78
     2
 67
     7
 79
     5
170
     0
171
     0
290
     0
174
     0
 93
       13
 44
0.0
173
     0
291
     1
 45
0.0
1001
ACAD
1000
AcDbSavedByObjectVersion
1070
     0
  0
VISUALSTYLE
  5
2C
102
{ACAD_XDICTIONARY
360
3A6
102
}
102
{ACAD_REACTORS
330
2A
102
}
330
2A
100
AcDbVisualStyle
  2

 70
     1
 71
     2
 72
     1
 73
     1
 90
        2
 40
-0.6
 41
30.0
 62
     5
 63
     7
421
 16777215
 74
     1
 91
        0
 64
     7
 65
   257
 75
     1
175
     1
 42
1.0
 92
        0
 66
   257
 43
1.0
 76
     1
 77
     6
 78
     2
 67
     7
 79
     5
170
     0
171
     0
290
     0
174
     0
 93
       13
 44
0.0
173
     0
291
     1
 45
0.0
1001
ACAD
1000
AcDbSavedByObjectVersion
1070
     0
  0
VISUALSTYLE
  5
2D
102
{ACAD_XDICTIONARY
360
3A8
102
}
102
{ACAD_REACTORS
330
2A
102
}
330
2A
100
AcDbVisualStyle
  2

 70
     2
 71
     2
 72
     2
 73
     1
 90
        2
 40
-0.6
 41
30.0
 62
     5
 63
     7
421
 16777215
 74
     0
 91
        0
 64
     7
 65
   257
 75
     1
175
     1
 42
1.0
 92
        0
 66
     7
 43
1.0
 76
     1
 77
     6
 78
     2
 67
     7
 79
     5
170
     0
171
     0
290
     0
174
     0
 93
       13
 44
0.0
173
     0
291
     1
 45
0.0
1001
ACAD
1000
AcDbSavedByObjectVersion
1070
     0
  0
VISUALSTYLE
  5
2E
102
{ACAD_XDICTIONARY
360
3AA
102
}
102
{ACAD_REACTORS
330
2A
102
}
330
2A
100
AcDbVisualStyle
  2

 70
     3
 71
     2
 72
     2
 73
     1
 90
        2
 40
-0.6
 41
30.0
 62
     5
 63
     7
421
 16777215
 74
     1
 91
        0
 64
     7
 65
   257
 75
     1
175
     1
 42
1.0
 92
        0
 66
   257
 43
1.0
 76
     1
 77
     6
 78
     2
 67
     7
 79
     5
170
     0
171
     0
290
     0
174
     0
 93
       13
 44
0.0
173
     0
291
     1
 45
0.0
1001
ACAD
1000
AcDbSavedByObjectVersion
1070
     0
  0
VISUALSTYLE
  5
31
102
{ACAD_XDICTIONARY
360
3B0
102
}
102
{ACAD_REACTORS
330
2A
102
}
330
2A
100
AcDbVisualStyle
  2

 70
     6
 71
     1
 72
     2
 73
     2
 90
        0
 40
-0.6
 41
-30.0
 62
     5
 63
     7
421
 16777215
 74
     2
 91
        2
 64
     7
 65
   257
 75
     2
175
     1
 42
40.0
 92
        0
 66
   257
 43
1.0
 76
     1
 77
     6
 78
     2
 67
     7
 79
     3
170
     0
171
     0
290
     0
174
     0
 93
        1
 44
0.0
173
     0
291
     0
 45
0.0
1001
ACAD
1000
AcDbSavedByObjectVersion
1070
     0
  0
VISUALSTYLE
  5
3B
102
{ACAD_XDICTIONARY
360
3C4
102
}
102
{ACAD_REACTORS
330
2A
102
}
330
2A
100
AcDbVisualStyle
  2

 70
    20
 71
     2
 72
     2
 73
     0
 90
        0
 40
-0.6
 41
-30.0
 62
     5
 63
     7
421
 16777215
 74
     1
 91
        4
 64
     7
 65
   257
 75
     1
175
     1
 42
1.0
 92
       10
 66
     7
 43
1.0
 76
     1
 77
     6
 78
     2
 67
     7
 79
     5
170
     0
171
     0
290
     0
174
     0
 93
        1
 44
0.0
173
     0
291
     1
 45
0.0
1001
ACAD
1000
AcDbSavedByObjectVersion
1070
     0
  0
VISUALSTYLE
  5
38
102
{ACAD_XDICTIONARY
360
3BE
102
}
102
{ACAD_REACTORS
330
2A
102
}
330
2A
100
AcDbVisualStyle
  2

 70
    14
 71
     2
 72
     2
 73
     0
 90
        0
 40
-0.6
 41
-30.0
 62
     5
 63
     7
421
 16777215
 74
     1
 91
        4
 64
     7
 65
   257
 75
     7
175
     7
 42
1.0
 92
        8
 66
     7
 43
1.0
 76
     1
 77
     6
 78
     2
 67
     7
 79
     5
170
     0
171
     0
290
     0
174
     0
 93
        1
 44
0.0
173
     0
291
     1
 45
0.0
1001
ACAD
1000
AcDbSavedByObjectVersion
1070
     0
  0
VISUALSTYLE
  5
3C
102
{ACAD_XDICTIONARY
360
3C6
102
}
102
{ACAD_REACTORS
330
2A
102
}
330
2A
100
AcDbVisualStyle
  2

 70
    21
 71
     2
 72
     2
 73
     0
 90
        0
 40
-0.6
 41
-30.0
 62
     5
 63
     7
421
 16777215
 74
     1
 91
        4
 64
     7
 65
   257
 75
     1
175
     1
 42
1.0
 92
        9
 66
     7
 43
1.0
 76
     1
 77
     6
 78
     2
 67
     7
 79
     5
170
     0
171
     0
290
     0
174
     0
 93
        1
 44
0.0
173
     0
291
     1
 45
0.0
1001
ACAD
1000
AcDbSavedByObjectVersion
1070
     0
  0
VISUALSTYLE
  5
33
102
{ACAD_XDICTIONARY
360
3B4
102
}
102
{ACAD_REACTORS
330
2A
102
}
330
2A
100
AcDbVisualStyle
  2

 70
     8
 71
     2
 72
     3
 73
     0
 90
        2
 40
-0.6
 41
30.0
 62
     5
 63
     7
421
 16777215
 74
     0
 91
        0
 64
     7
 65
   257
 75
     1
175
     1
 42
1.0
 92
        8
 66
   257
 43
1.0
 76
     1
 77
     6
 78
     2
 67
     7
 79
     3
170
     0
171
     0
290
     0
174
     0
 93
       13
 44
0.0
173
     0
291
     0
 45
0.0
1001
ACAD
1000
AcDbSavedByObjectVersion
1070
     0
  0
VISUALSTYLE
  5
42
102
{ACAD_XDICTIONARY
360
3D2
102
}
102
{ACAD_REACTORS
330
2A
102
}
330
2A
100
AcDbVisualStyle
  2

 70
    27
 71
     2
 72
     2
 73
     1
 90
        2
 40
-0.6
 41
30.0
 62
     5
 63
     7
421
 16777215
 74
     0
 91
        4
 64
     7
 65
   257
 75
     1
175
     1
 42
1.0
 92
        8
 66
   257
 43
1.0
 76
     1
 77
     6
 78
     2
 67
     8
425
  7895160
 79
     3
170
     0
171
     0
290
     0
174
     0
 93
        5
 44
0.0
173
     0
291
     0
 45
0.0
1001
ACAD
1000
AcDbSavedByObjectVersion
1070
     0
  0
VISUALSTYLE
  5
41
102
{ACAD_XDICTIONARY
360
3D0
102
}
102
{ACAD_REACTORS
330
2A
102
}
330
2A
100
AcDbVisualStyle
  2

 70
    26
 71
     2
 72
     2
 73
     1
 90
        2
 40
-0.6
 41
30.0
 62
     5
 63
     7
421
 16777215
 74
     1
 91
       10
 64
     7
 65
   257
 75
     2
175
     1
 42
1.0
 92
        8
 66
   257
 43
1.0
 76
     1
 77
     6
 78
     2
 67
     7
 79
     3
170
     0
171
     0
290
     0
174
     0
 93
        5
 44
0.0
173
     0
291
     0
 45
0.0
1001
ACAD
1000
AcDbSavedByObjectVersion
1070
     0
  0
VISUALSTYLE
  5
3E
102
{ACAD_XDICTIONARY
360
3CA
102
}
102
{ACAD_REACTORS
330
2A
102
}
330
2A
100
AcDbVisualStyle
  2

 70
    23
 71
     2
 72
     2
 73
     3
 90
        0
 40
-0.6
 41
-30.0
 62
     5
 63
     7
421
 16777215
 74
     2
 91
        2
 64
     7
 65
     7
 75
     1
175
     1
 42
40.0
 92
        8
 66
     7
 43
1.0
 76
     1
 77
     6
 78
     2
 67
     7
 79
     3
170
     0
171
     0
290
     0
174
     0
 93
        1
 44
0.0
173
     0
291
     0
 45
0.0
1001
ACAD
1000
AcDbSavedByObjectVersion
1070
     0
  0
VISUALSTYLE
  5
3F
102
{ACAD_XDICTIONARY
360
3CC
102
}
102
{ACAD_REACTORS
330
2A
102
}
330
2A
100
AcDbVisualStyle
  2

 70
    24
 71
     1
 72
     2
 73
     2
 90
        0
 40
-0.6
 41
-30.0
 62
     5
 63
     7
421
 16777215
 74
     2
 91
        2
 64
     7
 65
     7
 75
     1
175
     1
 42
40.0
 92
       11
 66
     7
 43
1.0
 76
     1
 77
     6
 78
     2
 67
     7
 79
     6
170
     0
171
     0
290
     0
174
     0
 93
        1
 44
0.0
173
     0
291
     0
 45
0.0
1001
ACAD
1000
AcDbSavedByObjectVersion
1070
     0
  0
VISUALSTYLE
  5
37
102
{ACAD_XDICTIONARY
360
3BC
102
}
102
{ACAD_REACTORS
330
2A
102
}
330
2A
100
AcDbVisualStyle
  2

 70
    13
 71
     2
 72
     2
 73
     0
 90
        0
 40
-0.6
 41
-30.0
 62
     5
 63
     7
421
 16777215
 74
     1
 91
        4
 64
     7
 65
   257
 75
     1
175
     1
 42
1.0
 92
       12
 66
     7
 43
1.0
 76
     1
 77
     6
 78
     2
 67
     7
 79
     5
170
     0
171
     0
290
     0
174
     0
 93
        1
 44
0.0
173
     0
291
     1
 45
0.0
1001
ACAD
1000
AcDbSavedByObjectVersion
1070
     0
  0
VISUALSTYLE
  5
30
102
{ACAD_XDICTIONARY
360
3AE
102
}
102
{ACAD_REACTORS
330
2A
102
}
330
2A
100
AcDbVisualStyle
  2

 70
     5
 71
     0
 72
     2
 73
     0
 90
        0
 40
-0.6
 41
-30.0
 62
     5
 63
     7
421
 16777215
 74
     1
 91
        4
 64
     7
 65
   257
 75
     1
175
     1
 42
1.0
 92
        0
 66
   257
 43
1.0
 76
     1
 77
     6
 78
     2
 67
     7
 79
     3
170
     0
171
     0
290
     0
174
     0
 93
        1
 44
0.0
173
     0
291
     0
 45
0.0
1001
ACAD
1000
AcDbSavedByObjectVersion
1070
     0
  0
VISUALSTYLE
  5
40
102
{ACAD_XDICTIONARY
360
3CE
102
}
102
{ACAD_REACTORS
330
2A
102
}
330
2A
100
AcDbVisualStyle
  2

 70
    25
 71
     2
 72
     2
 73
     1
 90
        1
 40
0.5
 41
-30.0
 62
     5
 63
     7
421
 16777215
 74
     1
 91
        0
 64
     7
 65
   257
 75
     1
175
     1
 42
1.0
 92
        8
 66
     7
 43
1.0
 76
     1
 77
     6
 78
     2
 67
     7
 79
     3
170
     0
171
     0
290
     0
174
     0
 93
       13
 44
0.0
173
     0
291
     0
 45
0.0
1001
ACAD
1000
AcDbSavedByObjectVersion
1070
     0
  0
DICTIONARYVAR
  5
2F2
102
{ACAD_REACTORS
330
2F1
102
}
330
2F1
100
DictionaryVariables
280
     0
  1
1:1
  0
DICTIONARYVAR
  5
333
102
{ACAD_REACTORS
330
2F1
102
}
330
2F1
100
DictionaryVariables
280
     0
  1
STANDARD
  0
DICTIONARYVAR
  5
332
102
{ACAD_REACTORS
330
2F1
102
}
330
2F1
100
DictionaryVariables
280
     0
  1
STANDARD
  0
DICTIONARYVAR
  5
39E
102
{ACAD_REACTORS
330
2F1
102
}
330
2F1
100
DictionaryVariables
280
     0
  1
Metric50
  0
DICTIONARYVAR
  5
39F
102
{ACAD_REACTORS
330
2F1
102
}
330
2F1
100
DictionaryVariables
280
     0
  1
Metric50
  0
DICTIONARYVAR
  5
2F3
102
{ACAD_REACTORS
330
2F1
102
}
330
2F1
100
DictionaryVariables
280
     0
  1
1
  0
DICTIONARYVAR
  5
3A0
102
{ACAD_REACTORS
330
2F1
102
}
330
2F1
100
DictionaryVariables
280
     0
  1
2
  0
DICTIONARY
  5
3D7
330
33A
100
AcDbDictionary
280
     1
281
     1
  3
ACAD_XREC_ROUNDTRIP
360
3D8
  0
DICTIONARY
  5
327
330
45
100
AcDbDictionary
280
     1
281
     1
  3
ACAD_XREC_ROUNDTRIP
360
328
  0
DICTIONARY
  5
325
330
44
100
AcDbDictionary
280
     1
281
     1
  3
ACAD_XREC_ROUNDTRIP
360
326
  0
DICTIONARY
  5
329
330
46
100
AcDbDictionary
280
     1
281
     1
  3
ACAD_XREC_ROUNDTRIP
360
32A
  0
DICTIONARY
  5
3D5
330
339
100
AcDbDictionary
280
     1
281
     1
  3
ACAD_XREC_ROUNDTRIP
360
3D6
  0
DICTIONARY
  5
32B
330
6A
100
AcDbDictionary
280
     1
281
     1
  3
ACAD_ROUNDTRIP_2008_TABLESTYLE_CELLSTYLEMAP
360
3A2
  3
ACAD_XREC_ROUNDTRIP
360
3D4
  0
DICTIONARY
  5
3AC
330
2F
100
AcDbDictionary
280
     1
281
     1
  3
ACAD_XREC_ROUNDTRIP
360
3AD
  0
DICTIONARY
  5
3B2
330
32
100
AcDbDictionary
280
     1
281
     1
  3
ACAD_XREC_ROUNDTRIP
360
3B3
  0
DICTIONARY
  5
3BA
330
36
100
AcDbDictionary
280
     1
281
     1
  3
ACAD_XREC_ROUNDTRIP
360
3BB
  0
DICTIONARY
  5
3C2
330
3A
100
AcDbDictionary
280
     1
281
     1
  3
ACAD_XREC_ROUNDTRIP
360
3C3
  0
DICTIONARY
  5
3B6
330
34
100
AcDbDictionary
280
     1
281
     1
  3
ACAD_XREC_ROUNDTRIP
360
3B7
  0
DICTIONARY
  5
3B8
330
35
100
AcDbDictionary
280
     1
281
     1
  3
ACAD_XREC_ROUNDTRIP
360
3B9
  0
DICTIONARY
  5
3C8
330
3D
100
AcDbDictionary
280
     1
281
     1
  3
ACAD_XREC_ROUNDTRIP
360
3C9
  0
DICTIONARY
  5
3C0
330
39
100
AcDbDictionary
280
     1
281
     1
  3
ACAD_XREC_ROUNDTRIP
360
3C1
  0
DICTIONARY
  5
3A4
330
2B
100
AcDbDictionary
280
     1
281
     1
  3
ACAD_XREC_ROUNDTRIP
360
3A5
  0
DICTIONARY
  5
3A6
330
2C
100
AcDbDictionary
280
     1
281
     1
  3
ACAD_XREC_ROUNDTRIP
360
3A7
  0
DICTIONARY
  5
3A8
330
2D
100
AcDbDictionary
280
     1
281
     1
  3
ACAD_XREC_ROUNDTRIP
360
3A9
  0
DICTIONARY
  5
3AA
330
2E
100
AcDbDictionary
280
     1
281
     1
  3
ACAD_XREC_ROUNDTRIP
360
3AB
  0
DICTIONARY
  5
3B0
330
31
100
AcDbDictionary
280
     1
281
     1
  3
ACAD_XREC_ROUNDTRIP
360
3B1
  0
DICTIONARY
  5
3C4
330
3B
100
AcDbDictionary
280
     1
281
     1
  3
ACAD_XREC_ROUNDTRIP
360
3C5
  0
DICTIONARY
  5
3BE
330
38
100
AcDbDictionary
280
     1
281
     1
  3
ACAD_XREC_ROUNDTRIP
360
3BF
  0
DICTIONARY
  5
3C6
330
3C
100
AcDbDictionary
280
     1
281
     1
  3
ACAD_XREC_ROUNDTRIP
360
3C7
  0
DICTIONARY
  5
3B4
330
33
100
AcDbDictionary
280
     1
281
     1
  3
ACAD_XREC_ROUNDTRIP
360
3B5
  0
DICTIONARY
  5
3D2
330
42
100
AcDbDictionary
280
     1
281
     1
  3
ACAD_XREC_ROUNDTRIP
360
3D3
  0
DICTIONARY
  5
3D0
330
41
100
AcDbDictionary
280
     1
281
     1
  3
ACAD_XREC_ROUNDTRIP
360
3D1
  0
DICTIONARY
  5
3CA
330
3E
100
AcDbDictionary
280
     1
281
     1
  3
ACAD_XREC_ROUNDTRIP
360
3CB
  0
DICTIONARY
  5
3CC
330
3F
100
AcDbDictionary
280
     1
281
     1
  3
ACAD_XREC_ROUNDTRIP
360
3CD
  0
DICTIONARY
  5
3BC
330
37
100
AcDbDictionary
280
     1
281
     1
  3
ACAD_XREC_ROUNDTRIP
360
3BD
  0
DICTIONARY
  5
3AE
330
30
100
AcDbDictionary
280
     1
281
     1
  3
ACAD_XREC_ROUNDTRIP
360
3AF
  0
DICTIONARY
  5
3CE
330
40
100
AcDbDictionary
280
     1
281
     1
  3
ACAD_XREC_ROUNDTRIP
360
3CF
  0
XRECORD
  5
3D8
102
{ACAD_REACTORS
330
3D7
102
}
330
3D7
100
AcDbXrecord
280
     1
102
DISPLAYNAME
  1
Metric50
102
FLAGS
 90
        0
  0
XRECORD
  5
328
102
{ACAD_REACTORS
330
327
102
}
330
327
100
AcDbXrecord
280
     1
102
MATERIAL
148
0.0
149
0.0
149
0.0
 93
        0
 94
      127
282
     0
 72
     1
 77
     1
171
     1
175
     1
179
     1
273
     0
  0
XRECORD
  5
326
102
{ACAD_REACTORS
330
325
102
}
330
325
100
AcDbXrecord
280
     1
102
MATERIAL
148
0.0
149
0.0
149
0.0
 93
        0
 94
      127
282
     0
 72
     1
 77
     1
171
     1
175
     1
179
     1
273
     0
  0
XRECORD
  5
32A
102
{ACAD_REACTORS
330
329
102
}
330
329
100
AcDbXrecord
280
     1
102
MATERIAL
148
0.0
149
0.0
149
0.0
 93
        0
 94
      127
282
     0
 72
     1
 77
     1
171
     1
175
     1
179
     1
273
     0
  0
XRECORD
  5
3D6
102
{ACAD_REACTORS
330
3D5
102
}
330
3D5
100
AcDbXrecord
280
     1
102
DISPLAYNAME
  1
Metric50
102
FLAGS
 90
        0
  0
CELLSTYLEMAP
  5
3A2
102
{ACAD_REACTORS
330
32B
102
}
330
32B
100
AcDbCellStyleMap
 90
        3
300
CELLSTYLE
  1
TABLEFORMAT_BEGIN
 90
        5
170
     1
 91
        0
 92
    32768
 62
   257
 93
        1
300
CONTENTFORMAT
  1
CONTENTFORMAT_BEGIN
 90
        0
 91
        0
 92
        4
 93
        0
300

 40
0.0
140
1.0
 94
        5
 62
     0
340
11
144
0.25
309
CONTENTFORMAT_END
171
     1
301
MARGIN
  1
CELLMARGIN_BEGIN
 40
0.06
 40
0.06
 40
0.06
 40
0.06
 40
0.18
 40
0.18
309
CELLMARGIN_END
 94
        6
 95
        1
302
GRIDFORMAT
  1
GRIDFORMAT_BEGIN
 90
        0
 91
        1
 62
     0
 92
       -2
340
14
 93
        0
 40
0.045
309
GRIDFORMAT_END
 95
        2
302
GRIDFORMAT
  1
GRIDFORMAT_BEGIN
 90
        0
 91
        1
 62
     0
 92
       -2
340
14
 93
        0
 40
0.045
309
GRIDFORMAT_END
 95
        4
302
GRIDFORMAT
  1
GRIDFORMAT_BEGIN
 90
        0
 91
        1
 62
     0
 92
       -2
340
14
 93
        0
 40
0.045
309
GRIDFORMAT_END
 95
        8
302
GRIDFORMAT
  1
GRIDFORMAT_BEGIN
 90
        0
 91
        1
 62
     0
 92
       -2
340
14
 93
        0
 40
0.045
309
GRIDFORMAT_END
 95
       16
302
GRIDFORMAT
  1
GRIDFORMAT_BEGIN
 90
        0
 91
        1
 62
     0
 92
       -2
340
14
 93
        0
 40
0.045
309
GRIDFORMAT_END
 95
       32
302
GRIDFORMAT
  1
GRIDFORMAT_BEGIN
 90
        0
 91
        1
 62
     0
 92
       -2
340
14
 93
        0
 40
0.045
309
GRIDFORMAT_END
309
TABLEFORMAT_END
  1
CELLSTYLE_BEGIN
 90
        1
 91
        1
300
_TITLE
309
CELLSTYLE_END
300
CELLSTYLE
  1
TABLEFORMAT_BEGIN
 90
        5
170
     1
 91
        0
 92
        0
 62
   257
 93
        1
300
CONTENTFORMAT
  1
CONTENTFORMAT_BEGIN
 90
        0
 91
        0
 92
        4
 93
        0
300

 40
0.0
140
1.0
 94
        5
 62
     0
340
11
144
0.18
309
CONTENTFORMAT_END
171
     1
301
MARGIN
  1
CELLMARGIN_BEGIN
 40
0.06
 40
0.06
 40
0.06
 40
0.06
 40
0.18
 40
0.18
309
CELLMARGIN_END
 94
        6
 95
        1
302
GRIDFORMAT
  1
GRIDFORMAT_BEGIN
 90
        0
 91
        1
 62
     0
 92
       -2
340
14
 93
        0
 40
0.045
309
GRIDFORMAT_END
 95
        2
302
GRIDFORMAT
  1
GRIDFORMAT_BEGIN
 90
        0
 91
        1
 62
     0
 92
       -2
340
14
 93
        0
 40
0.045
309
GRIDFORMAT_END
 95
        4
302
GRIDFORMAT
  1
GRIDFORMAT_BEGIN
 90
        0
 91
        1
 62
     0
 92
       -2
340
14
 93
        0
 40
0.045
309
GRIDFORMAT_END
 95
        8
302
GRIDFORMAT
  1
GRIDFORMAT_BEGIN
 90
        0
 91
        1
 62
     0
 92
       -2
340
14
 93
        0
 40
0.045
309
GRIDFORMAT_END
 95
       16
302
GRIDFORMAT
  1
GRIDFORMAT_BEGIN
 90
        0
 91
        1
 62
     0
 92
       -2
340
14
 93
        0
 40
0.045
309
GRIDFORMAT_END
 95
       32
302
GRIDFORMAT
  1
GRIDFORMAT_BEGIN
 90
        0
 91
        1
 62
     0
 92
       -2
340
14
 93
        0
 40
0.045
309
GRIDFORMAT_END
309
TABLEFORMAT_END
  1
CELLSTYLE_BEGIN
 90
        2
 91
        1
300
_HEADER
309
CELLSTYLE_END
300
CELLSTYLE
  1
TABLEFORMAT_BEGIN
 90
        5
170
     1
 91
        0
 92
        0
 62
   257
 93
        1
300
CONTENTFORMAT
  1
CONTENTFORMAT_BEGIN
 90
        0
 91
        0
 92
        4
 93
        0
300

 40
0.0
140
1.0
 94
        2
 62
     0
340
11
144
0.18
309
CONTENTFORMAT_END
171
     1
301
MARGIN
  1
CELLMARGIN_BEGIN
 40
0.06
 40
0.06
 40
0.06
 40
0.06
 40
0.18
 40
0.18
309
CELLMARGIN_END
 94
        6
 95
        1
302
GRIDFORMAT
  1
GRIDFORMAT_BEGIN
 90
        0
 91
        1
 62
     0
 92
       -2
340
14
 93
        0
 40
0.045
309
GRIDFORMAT_END
 95
        2
302
GRIDFORMAT
  1
GRIDFORMAT_BEGIN
 90
        0
 91
        1
 62
     0
 92
       -2
340
14
 93
        0
 40
0.045
309
GRIDFORMAT_END
 95
        4
302
GRIDFORMAT
  1
GRIDFORMAT_BEGIN
 90
        0
 91
        1
 62
     0
 92
       -2
340
14
 93
        0
 40
0.045
309
GRIDFORMAT_END
 95
        8
302
GRIDFORMAT
  1
GRIDFORMAT_BEGIN
 90
        0
 91
        1
 62
     0
 92
       -2
340
14
 93
        0
 40
0.045
309
GRIDFORMAT_END
 95
       16
302
GRIDFORMAT
  1
GRIDFORMAT_BEGIN
 90
        0
 91
        1
 62
     0
 92
       -2
340
14
 93
        0
 40
0.045
309
GRIDFORMAT_END
 95
       32
302
GRIDFORMAT
  1
GRIDFORMAT_BEGIN
 90
        0
 91
        1
 62
     0
 92
       -2
340
14
 93
        0
 40
0.045
309
GRIDFORMAT_END
309
TABLEFORMAT_END
  1
CELLSTYLE_BEGIN
 90
        3
 91
        2
300
_DATA
309
CELLSTYLE_END
  0
XRECORD
  5
3D4
102
{ACAD_REACTORS
330
32B
102
}
330
32B
100
AcDbXrecord
280
     1
102
ACAD_ROUNDTRIP_PRE2007_TABLESTYLE
 90
        4
 91
        0
  1

 92
        4
 93
        0
  2

 94
        4
 95
        0
  3

  0
XRECORD
  5
3AD
102
{ACAD_REACTORS
330
3AC
102
}
330
3AC
100
AcDbXrecord
280
     1
102
RTVSPost2010Prop28
280
     1
102
RTVSPost2010PropOp28
 70
     1
102
RTVSPost2010Prop29
280
     1
102
RTVSPost2010PropOp29
 70
     1
102
RTVSPost2010Prop30
280
     0
102
RTVSPost2010PropOp30
 70
     1
102
RTVSPost2010Prop31
280
     0
102
RTVSPost2010PropOp31
 70
     1
102
RTVSPost2010Prop32
280
     0
102
RTVSPost2010PropOp32
 70
     1
102
RTVSPost2010Prop33
280
     0
102
RTVSPost2010PropOp33
 70
     1
102
RTVSPost2010Prop34
280
     0
102
RTVSPost2010PropOp34
 70
     1
102
RTVSPost2010Prop35
280
     0
102
RTVSPost2010PropOp35
 70
     1
102
RTVSPost2010Prop36
280
     0
102
RTVSPost2010PropOp36
 70
     1
102
RTVSPost2010Prop37
 90
       50
102
RTVSPost2010PropOp37
 70
     1
102
RTVSPost2010Prop38
140
0.0
102
RTVSPost2010PropOp38
 70
     1
102
RTVSPost2010Prop39
140
1.0
102
RTVSPost2010PropOp39
 70
     1
102
RTVSPost2010Prop40
 90
        0
102
RTVSPost2010PropOp40
 70
     1
102
RTVSPost2010Prop41ColorIndex
 90
       18
102
RTVSPost2010Prop41ColorRGB
 90
        0
102
RTVSPost2010PropOp41
 70
     1
102
RTVSPost2010Prop42
 90
       50
102
RTVSPost2010PropOp42
 70
     1
102
RTVSPost2010Prop43
 90
        3
102
RTVSPost2010PropOp43
 70
     1
102
RTVSPost2010Prop44ColorIndex
 90
        5
102
RTVSPost2010Prop44ColorRGB
 90
      255
102
RTVSPost2010PropOp44
 70
     1
102
RTVSPost2010Prop45
280
     0
102
RTVSPost2010PropOp45
 70
     1
102
RTVSPost2010Prop46
 90
       50
102
RTVSPost2010PropOp46
 70
     1
102
RTVSPost2010Prop47
 90
       50
102
RTVSPost2010PropOp47
 70
     1
102
RTVSPost2010Prop48
 90
       50
102
RTVSPost2010PropOp48
 70
     1
102
RTVSPost2010Prop49
280
     0
102
RTVSPost2010PropOp49
 70
     1
102
RTVSPost2010Prop50
 90
       50
102
RTVSPost2010PropOp50
 70
     1
102
RTVSPost2010Prop51ColorIndex
 90
      256
102
RTVSPost2010Prop51ColorRGB
 90
-16777216
102
RTVSPost2010PropOp51
 70
     0
102
RTVSPost2010Prop52
140
1.0
102
RTVSPost2010PropOp52
 70
     0
102
RTVSPost2010Prop53
 90
        2
102
RTVSPost2010PropOp53
 70
     1
102
RTVSPost2010Prop54
  1
strokes_ogs.tif
102
RTVSPost2010PropOp54
 70
     1
102
RTVSPost2010Prop55
280
     0
102
RTVSPost2010PropOp55
 70
     1
102
RTVSPost2010Prop56
140
1.0
102
RTVSPost2010PropOp56
 70
     1
102
RTVSPost2010Prop57
140
1.0
102
RTVSPost2010PropOp57
 70
     1
102
RTVSPropertyOp0
 70
     1
102
RTVSPropertyOp1
 70
     1
102
RTVSPropertyOp2
 70
     1
102
RTVSPropertyOp3
 70
     1
102
RTVSPropertyOp4
 70
     1
102
RTVSPropertyOp5
 70
     1
102
RTVSPropertyOp6
 70
     1
102
RTVSPropertyOp7
 70
     1
102
RTVSPropertyOp8
 70
     1
102
RTVSPropertyOp9
 70
     1
102
RTVSPropertyOp10
 70
     1
102
RTVSPropertyOp11
 70
     1
102
RTVSPropertyOp12
 70
     1
102
RTVSPropertyOp13
 70
     1
102
RTVSPropertyOp14
 70
     1
102
RTVSPropertyOp15
 70
     1
102
RTVSPropertyOp16
 70
     1
102
RTVSPropertyOp17
 70
     1
102
RTVSPropertyOp18
 70
     1
102
RTVSPropertyOp19
 70
     1
102
RTVSPropertyOp20
 70
     1
102
RTVSPropertyOp21
 70
     1
102
RTVSPropertyOp22
 70
     1
102
RTVSPropertyOp23
 70
     1
102
RTVSPropertyOp24
 70
     1
102
RTVSPropertyOp25
 70
     1
102
RTVSPropertyOp26
 70
     1
102
RTVSPropertyOp27
 70
     1
102
RTVSPropertyOp28
 70
     1
102
RTVSPropertyOp29
 70
     1
102
RTVSPropertyOp30
 70
     1
102
RTVSPropertyOp31
 70
     1
102
RTVSPropertyOp32
 70
     1
102
RTVSPropertyOp33
 70
     1
102
RTVSPropertyOp34
 70
     1
102
RTVSPropertyOp35
 70
     1
102
RTVSPropertyOp36
 70
     1
102
RTVSPropertyOp37
 70
     1
102
RTVSPropertyOp38
 70
     1
102
RTVSPropertyOp39
 70
     1
102
RTVSPropertyOp40
 70
     1
102
RTVSPropertyOp41
 70
     1
102
RTVSPropertyOp42
 70
     1
102
RTVSPropertyOp43
 70
     1
102
RTVSPropertyOp44
 70
     1
102
RTVSPropertyOp45
 70
     1
102
RTVSPropertyOp46
 70
     1
102
RTVSPropertyOp47
 70
     1
102
RTVSPropertyOp48
 70
     1
102
RTVSPropertyOp49
 70
     1
102
RTVSPropertyOp50
 70
     1
102
RTVSPropertyOp51
 70
     0
102
RTVSPropertyOp52
 70
     0
102
RTVSPropertyOp53
 70
     1
102
RTVSPropertyOp54
 70
     1
102
RTVSPropertyOp55
 70
     1
102
RTVSPropertyOp56
 70
     1
102
RTVSPropertyOp57
 70
     1
102
RTVSPropertyOp58
 70
     1
102
RTVSPropertyOp59
 70
     1
102
RTVSPropertyOp60
 70
     1
102
RTVSPropertyOp61
 70
     1
102
RTVSPropertyOp62
 70
     1
  0
XRECORD
  5
3B3
102
{ACAD_REACTORS
330
3B2
102
}
330
3B2
100
AcDbXrecord
280
     1
102
RTVSPost2010Prop28
280
     0
102
RTVSPost2010PropOp28
 70
     1
102
RTVSPost2010Prop29
280
     1
102
RTVSPost2010PropOp29
 70
     1
102
RTVSPost2010Prop30
280
     1
102
RTVSPost2010PropOp30
 70
     1
102
RTVSPost2010Prop31
280
     0
102
RTVSPost2010PropOp31
 70
     1
102
RTVSPost2010Prop32
280
     0
102
RTVSPost2010PropOp32
 70
     1
102
RTVSPost2010Prop33
280
     0
102
RTVSPost2010PropOp33
 70
     1
102
RTVSPost2010Prop34
280
     0
102
RTVSPost2010PropOp34
 70
     1
102
RTVSPost2010Prop35
280
     0
102
RTVSPost2010PropOp35
 70
     1
102
RTVSPost2010Prop36
280
     0
102
RTVSPost2010PropOp36
 70
     1
102
RTVSPost2010Prop37
 90
       50
102
RTVSPost2010PropOp37
 70
     1
102
RTVSPost2010Prop38
140
0.0
102
RTVSPost2010PropOp38
 70
     1
102
RTVSPost2010Prop39
140
1.0
102
RTVSPost2010PropOp39
 70
     1
102
RTVSPost2010Prop40
 90
        0
102
RTVSPost2010PropOp40
 70
     1
102
RTVSPost2010Prop41ColorIndex
 90
       18
102
RTVSPost2010Prop41ColorRGB
 90
        0
102
RTVSPost2010PropOp41
 70
     1
102
RTVSPost2010Prop42
 90
       50
102
RTVSPost2010PropOp42
 70
     1
102
RTVSPost2010Prop43
 90
        3
102
RTVSPost2010PropOp43
 70
     1
102
RTVSPost2010Prop44ColorIndex
 90
        5
102
RTVSPost2010Prop44ColorRGB
 90
      255
102
RTVSPost2010PropOp44
 70
     1
102
RTVSPost2010Prop45
280
     0
102
RTVSPost2010PropOp45
 70
     1
102
RTVSPost2010Prop46
 90
       50
102
RTVSPost2010PropOp46
 70
     1
102
RTVSPost2010Prop47
 90
       50
102
RTVSPost2010PropOp47
 70
     1
102
RTVSPost2010Prop48
 90
       50
102
RTVSPost2010PropOp48
 70
     1
102
RTVSPost2010Prop49
280
     0
102
RTVSPost2010PropOp49
 70
     1
102
RTVSPost2010Prop50
 90
       50
102
RTVSPost2010PropOp50
 70
     1
102
RTVSPost2010Prop51ColorIndex
 90
      256
102
RTVSPost2010Prop51ColorRGB
 90
-16777216
102
RTVSPost2010PropOp51
 70
     0
102
RTVSPost2010Prop52
140
1.0
102
RTVSPost2010PropOp52
 70
     0
102
RTVSPost2010Prop53
 90
        2
102
RTVSPost2010PropOp53
 70
     1
102
RTVSPost2010Prop54
  1
strokes_ogs.tif
102
RTVSPost2010PropOp54
 70
     1
102
RTVSPost2010Prop55
280
     0
102
RTVSPost2010PropOp55
 70
     1
102
RTVSPost2010Prop56
140
1.0
102
RTVSPost2010PropOp56
 70
     1
102
RTVSPost2010Prop57
140
1.0
102
RTVSPost2010PropOp57
 70
     1
102
RTVSPropertyOp0
 70
     1
102
RTVSPropertyOp1
 70
     1
102
RTVSPropertyOp2
 70
     1
102
RTVSPropertyOp3
 70
     1
102
RTVSPropertyOp4
 70
     1
102
RTVSPropertyOp5
 70
     1
102
RTVSPropertyOp6
 70
     1
102
RTVSPropertyOp7
 70
     1
102
RTVSPropertyOp8
 70
     1
102
RTVSPropertyOp9
 70
     1
102
RTVSPropertyOp10
 70
     1
102
RTVSPropertyOp11
 70
     1
102
RTVSPropertyOp12
 70
     1
102
RTVSPropertyOp13
 70
     1
102
RTVSPropertyOp14
 70
     1
102
RTVSPropertyOp15
 70
     1
102
RTVSPropertyOp16
 70
     1
102
RTVSPropertyOp17
 70
     1
102
RTVSPropertyOp18
 70
     1
102
RTVSPropertyOp19
 70
     1
102
RTVSPropertyOp20
 70
     1
102
RTVSPropertyOp21
 70
     1
102
RTVSPropertyOp22
 70
     1
102
RTVSPropertyOp23
 70
     1
102
RTVSPropertyOp24
 70
     1
102
RTVSPropertyOp25
 70
     1
102
RTVSPropertyOp26
 70
     1
102
RTVSPropertyOp27
 70
     1
102
RTVSPropertyOp28
 70
     1
102
RTVSPropertyOp29
 70
     1
102
RTVSPropertyOp30
 70
     1
102
RTVSPropertyOp31
 70
     1
102
RTVSPropertyOp32
 70
     1
102
RTVSPropertyOp33
 70
     1
102
RTVSPropertyOp34
 70
     1
102
RTVSPropertyOp35
 70
     1
102
RTVSPropertyOp36
 70
     1
102
RTVSPropertyOp37
 70
     1
102
RTVSPropertyOp38
 70
     1
102
RTVSPropertyOp39
 70
     1
102
RTVSPropertyOp40
 70
     1
102
RTVSPropertyOp41
 70
     1
102
RTVSPropertyOp42
 70
     1
102
RTVSPropertyOp43
 70
     1
102
RTVSPropertyOp44
 70
     1
102
RTVSPropertyOp45
 70
     1
102
RTVSPropertyOp46
 70
     1
102
RTVSPropertyOp47
 70
     1
102
RTVSPropertyOp48
 70
     1
102
RTVSPropertyOp49
 70
     1
102
RTVSPropertyOp50
 70
     1
102
RTVSPropertyOp51
 70
     0
102
RTVSPropertyOp52
 70
     0
102
RTVSPropertyOp53
 70
     1
102
RTVSPropertyOp54
 70
     1
102
RTVSPropertyOp55
 70
     1
102
RTVSPropertyOp56
 70
     1
102
RTVSPropertyOp57
 70
     1
102
RTVSPropertyOp58
 70
     1
102
RTVSPropertyOp59
 70
     1
102
RTVSPropertyOp60
 70
     1
102
RTVSPropertyOp61
 70
     1
102
RTVSPropertyOp62
 70
     1
  0
XRECORD
  5
3BB
102
{ACAD_REACTORS
330
3BA
102
}
330
3BA
100
AcDbXrecord
280
     1
102
RTVSPost2010Prop28
280
     0
102
RTVSPost2010PropOp28
 70
     1
102
RTVSPost2010Prop29
280
     1
102
RTVSPost2010PropOp29
 70
     1
102
RTVSPost2010Prop30
280
     1
102
RTVSPost2010PropOp30
 70
     1
102
RTVSPost2010Prop31
280
     0
102
RTVSPost2010PropOp31
 70
     1
102
RTVSPost2010Prop32
280
     0
102
RTVSPost2010PropOp32
 70
     1
102
RTVSPost2010Prop33
280
     0
102
RTVSPost2010PropOp33
 70
     1
102
RTVSPost2010Prop34
280
     0
102
RTVSPost2010PropOp34
 70
     1
102
RTVSPost2010Prop35
280
     0
102
RTVSPost2010PropOp35
 70
     1
102
RTVSPost2010Prop36
280
     0
102
RTVSPost2010PropOp36
 70
     1
102
RTVSPost2010Prop37
 90
       50
102
RTVSPost2010PropOp37
 70
     1
102
RTVSPost2010Prop38
140
0.0
102
RTVSPost2010PropOp38
 70
     1
102
RTVSPost2010Prop39
140
1.0
102
RTVSPost2010PropOp39
 70
     1
102
RTVSPost2010Prop40
 90
        0
102
RTVSPost2010PropOp40
 70
     1
102
RTVSPost2010Prop41ColorIndex
 90
       18
102
RTVSPost2010Prop41ColorRGB
 90
        0
102
RTVSPost2010PropOp41
 70
     1
102
RTVSPost2010Prop42
 90
       50
102
RTVSPost2010PropOp42
 70
     1
102
RTVSPost2010Prop43
 90
        3
102
RTVSPost2010PropOp43
 70
     1
102
RTVSPost2010Prop44ColorIndex
 90
        5
102
RTVSPost2010Prop44ColorRGB
 90
      255
102
RTVSPost2010PropOp44
 70
     1
102
RTVSPost2010Prop45
280
     0
102
RTVSPost2010PropOp45
 70
     1
102
RTVSPost2010Prop46
 90
       50
102
RTVSPost2010PropOp46
 70
     1
102
RTVSPost2010Prop47
 90
       50
102
RTVSPost2010PropOp47
 70
     1
102
RTVSPost2010Prop48
 90
       50
102
RTVSPost2010PropOp48
 70
     1
102
RTVSPost2010Prop49
280
     0
102
RTVSPost2010PropOp49
 70
     1
102
RTVSPost2010Prop50
 90
       50
102
RTVSPost2010PropOp50
 70
     1
102
RTVSPost2010Prop51ColorIndex
 90
      256
102
RTVSPost2010Prop51ColorRGB
 90
-16777216
102
RTVSPost2010PropOp51
 70
     0
102
RTVSPost2010Prop52
140
1.0
102
RTVSPost2010PropOp52
 70
     0
102
RTVSPost2010Prop53
 90
        2
102
RTVSPost2010PropOp53
 70
     1
102
RTVSPost2010Prop54
  1
strokes_ogs.tif
102
RTVSPost2010PropOp54
 70
     1
102
RTVSPost2010Prop55
280
     0
102
RTVSPost2010PropOp55
 70
     1
102
RTVSPost2010Prop56
140
1.0
102
RTVSPost2010PropOp56
 70
     1
102
RTVSPost2010Prop57
140
1.0
102
RTVSPost2010PropOp57
 70
     1
102
RTVSPropertyOp0
 70
     1
102
RTVSPropertyOp1
 70
     1
102
RTVSPropertyOp2
 70
     1
102
RTVSPropertyOp3
 70
     1
102
RTVSPropertyOp4
 70
     1
102
RTVSPropertyOp5
 70
     1
102
RTVSPropertyOp6
 70
     1
102
RTVSPropertyOp7
 70
     1
102
RTVSPropertyOp8
 70
     1
102
RTVSPropertyOp9
 70
     1
102
RTVSPropertyOp10
 70
     1
102
RTVSPropertyOp11
 70
     1
102
RTVSPropertyOp12
 70
     1
102
RTVSPropertyOp13
 70
     1
102
RTVSPropertyOp14
 70
     1
102
RTVSPropertyOp15
 70
     1
102
RTVSPropertyOp16
 70
     1
102
RTVSPropertyOp17
 70
     1
102
RTVSPropertyOp18
 70
     1
102
RTVSPropertyOp19
 70
     1
102
RTVSPropertyOp20
 70
     1
102
RTVSPropertyOp21
 70
     1
102
RTVSPropertyOp22
 70
     1
102
RTVSPropertyOp23
 70
     1
102
RTVSPropertyOp24
 70
     1
102
RTVSPropertyOp25
 70
     1
102
RTVSPropertyOp26
 70
     1
102
RTVSPropertyOp27
 70
     1
102
RTVSPropertyOp28
 70
     1
102
RTVSPropertyOp29
 70
     1
102
RTVSPropertyOp30
 70
     1
102
RTVSPropertyOp31
 70
     1
102
RTVSPropertyOp32
 70
     1
102
RTVSPropertyOp33
 70
     1
102
RTVSPropertyOp34
 70
     1
102
RTVSPropertyOp35
 70
     1
102
RTVSPropertyOp36
 70
     1
102
RTVSPropertyOp37
 70
     1
102
RTVSPropertyOp38
 70
     1
102
RTVSPropertyOp39
 70
     1
102
RTVSPropertyOp40
 70
     1
102
RTVSPropertyOp41
 70
     1
102
RTVSPropertyOp42
 70
     1
102
RTVSPropertyOp43
 70
     1
102
RTVSPropertyOp44
 70
     1
102
RTVSPropertyOp45
 70
     1
102
RTVSPropertyOp46
 70
     1
102
RTVSPropertyOp47
 70
     1
102
RTVSPropertyOp48
 70
     1
102
RTVSPropertyOp49
 70
     1
102
RTVSPropertyOp50
 70
     1
102
RTVSPropertyOp51
 70
     0
102
RTVSPropertyOp52
 70
     0
102
RTVSPropertyOp53
 70
     1
102
RTVSPropertyOp54
 70
     1
102
RTVSPropertyOp55
 70
     1
102
RTVSPropertyOp56
 70
     1
102
RTVSPropertyOp57
 70
     1
102
RTVSPropertyOp58
 70
     1
102
RTVSPropertyOp59
 70
     1
102
RTVSPropertyOp60
 70
     1
102
RTVSPropertyOp61
 70
     1
102
RTVSPropertyOp62
 70
     1
  0
XRECORD
  5
3C3
102
{ACAD_REACTORS
330
3C2
102
}
330
3C2
100
AcDbXrecord
280
     1
102
RTVSPost2010Prop28
280
     0
102
RTVSPost2010PropOp28
 70
     1
102
RTVSPost2010Prop29
280
     1
102
RTVSPost2010PropOp29
 70
     1
102
RTVSPost2010Prop30
280
     1
102
RTVSPost2010PropOp30
 70
     1
102
RTVSPost2010Prop31
280
     0
102
RTVSPost2010PropOp31
 70
     1
102
RTVSPost2010Prop32
280
     0
102
RTVSPost2010PropOp32
 70
     1
102
RTVSPost2010Prop33
280
     0
102
RTVSPost2010PropOp33
 70
     1
102
RTVSPost2010Prop34
280
     0
102
RTVSPost2010PropOp34
 70
     1
102
RTVSPost2010Prop35
280
     0
102
RTVSPost2010PropOp35
 70
     1
102
RTVSPost2010Prop36
280
     0
102
RTVSPost2010PropOp36
 70
     1
102
RTVSPost2010Prop37
 90
       50
102
RTVSPost2010PropOp37
 70
     1
102
RTVSPost2010Prop38
140
0.0
102
RTVSPost2010PropOp38
 70
     1
102
RTVSPost2010Prop39
140
1.0
102
RTVSPost2010PropOp39
 70
     1
102
RTVSPost2010Prop40
 90
        0
102
RTVSPost2010PropOp40
 70
     1
102
RTVSPost2010Prop41ColorIndex
 90
       18
102
RTVSPost2010Prop41ColorRGB
 90
        0
102
RTVSPost2010PropOp41
 70
     1
102
RTVSPost2010Prop42
 90
       50
102
RTVSPost2010PropOp42
 70
     1
102
RTVSPost2010Prop43
 90
        3
102
RTVSPost2010PropOp43
 70
     1
102
RTVSPost2010Prop44ColorIndex
 90
        5
102
RTVSPost2010Prop44ColorRGB
 90
      255
102
RTVSPost2010PropOp44
 70
     1
102
RTVSPost2010Prop45
280
     0
102
RTVSPost2010PropOp45
 70
     1
102
RTVSPost2010Prop46
 90
       50
102
RTVSPost2010PropOp46
 70
     1
102
RTVSPost2010Prop47
 90
       50
102
RTVSPost2010PropOp47
 70
     1
102
RTVSPost2010Prop48
 90
       50
102
RTVSPost2010PropOp48
 70
     1
102
RTVSPost2010Prop49
280
     0
102
RTVSPost2010PropOp49
 70
     1
102
RTVSPost2010Prop50
 90
       50
102
RTVSPost2010PropOp50
 70
     1
102
RTVSPost2010Prop51ColorIndex
 90
      256
102
RTVSPost2010Prop51ColorRGB
 90
-16777216
102
RTVSPost2010PropOp51
 70
     0
102
RTVSPost2010Prop52
140
1.0
102
RTVSPost2010PropOp52
 70
     0
102
RTVSPost2010Prop53
 90
        2
102
RTVSPost2010PropOp53
 70
     1
102
RTVSPost2010Prop54
  1
strokes_ogs.tif
102
RTVSPost2010PropOp54
 70
     1
102
RTVSPost2010Prop55
280
     0
102
RTVSPost2010PropOp55
 70
     1
102
RTVSPost2010Prop56
140
1.0
102
RTVSPost2010PropOp56
 70
     1
102
RTVSPost2010Prop57
140
1.0
102
RTVSPost2010PropOp57
 70
     1
102
RTVSPropertyOp0
 70
     1
102
RTVSPropertyOp1
 70
     1
102
RTVSPropertyOp2
 70
     1
102
RTVSPropertyOp3
 70
     1
102
RTVSPropertyOp4
 70
     1
102
RTVSPropertyOp5
 70
     1
102
RTVSPropertyOp6
 70
     1
102
RTVSPropertyOp7
 70
     1
102
RTVSPropertyOp8
 70
     1
102
RTVSPropertyOp9
 70
     1
102
RTVSPropertyOp10
 70
     1
102
RTVSPropertyOp11
 70
     1
102
RTVSPropertyOp12
 70
     1
102
RTVSPropertyOp13
 70
     1
102
RTVSPropertyOp14
 70
     1
102
RTVSPropertyOp15
 70
     1
102
RTVSPropertyOp16
 70
     1
102
RTVSPropertyOp17
 70
     1
102
RTVSPropertyOp18
 70
     1
102
RTVSPropertyOp19
 70
     1
102
RTVSPropertyOp20
 70
     1
102
RTVSPropertyOp21
 70
     1
102
RTVSPropertyOp22
 70
     1
102
RTVSPropertyOp23
 70
     1
102
RTVSPropertyOp24
 70
     1
102
RTVSPropertyOp25
 70
     1
102
RTVSPropertyOp26
 70
     1
102
RTVSPropertyOp27
 70
     1
102
RTVSPropertyOp28
 70
     1
102
RTVSPropertyOp29
 70
     1
102
RTVSPropertyOp30
 70
     1
102
RTVSPropertyOp31
 70
     1
102
RTVSPropertyOp32
 70
     1
102
RTVSPropertyOp33
 70
     1
102
RTVSPropertyOp34
 70
     1
102
RTVSPropertyOp35
 70
     1
102
RTVSPropertyOp36
 70
     1
102
RTVSPropertyOp37
 70
     1
102
RTVSPropertyOp38
 70
     1
102
RTVSPropertyOp39
 70
     1
102
RTVSPropertyOp40
 70
     1
102
RTVSPropertyOp41
 70
     1
102
RTVSPropertyOp42
 70
     1
102
RTVSPropertyOp43
 70
     1
102
RTVSPropertyOp44
 70
     1
102
RTVSPropertyOp45
 70
     1
102
RTVSPropertyOp46
 70
     1
102
RTVSPropertyOp47
 70
     1
102
RTVSPropertyOp48
 70
     1
102
RTVSPropertyOp49
 70
     1
102
RTVSPropertyOp50
 70
     1
102
RTVSPropertyOp51
 70
     0
102
RTVSPropertyOp52
 70
     0
102
RTVSPropertyOp53
 70
     1
102
RTVSPropertyOp54
 70
     1
102
RTVSPropertyOp55
 70
     1
102
RTVSPropertyOp56
 70
     1
102
RTVSPropertyOp57
 70
     1
102
RTVSPropertyOp58
 70
     1
102
RTVSPropertyOp59
 70
     1
102
RTVSPropertyOp60
 70
     1
102
RTVSPropertyOp61
 70
     1
102
RTVSPropertyOp62
 70
     1
  0
XRECORD
  5
3B7
102
{ACAD_REACTORS
330
3B6
102
}
330
3B6
100
AcDbXrecord
280
     1
102
RTVSPost2010Prop28
280
     0
102
RTVSPost2010PropOp28
 70
     1
102
RTVSPost2010Prop29
280
     1
102
RTVSPost2010PropOp29
 70
     1
102
RTVSPost2010Prop30
280
     1
102
RTVSPost2010PropOp30
 70
     1
102
RTVSPost2010Prop31
280
     0
102
RTVSPost2010PropOp31
 70
     1
102
RTVSPost2010Prop32
280
     0
102
RTVSPost2010PropOp32
 70
     1
102
RTVSPost2010Prop33
280
     0
102
RTVSPost2010PropOp33
 70
     1
102
RTVSPost2010Prop34
280
     0
102
RTVSPost2010PropOp34
 70
     1
102
RTVSPost2010Prop35
280
     0
102
RTVSPost2010PropOp35
 70
     1
102
RTVSPost2010Prop36
280
     0
102
RTVSPost2010PropOp36
 70
     1
102
RTVSPost2010Prop37
 90
       50
102
RTVSPost2010PropOp37
 70
     1
102
RTVSPost2010Prop38
140
0.0
102
RTVSPost2010PropOp38
 70
     1
102
RTVSPost2010Prop39
140
1.0
102
RTVSPost2010PropOp39
 70
     1
102
RTVSPost2010Prop40
 90
        0
102
RTVSPost2010PropOp40
 70
     1
102
RTVSPost2010Prop41ColorIndex
 90
       18
102
RTVSPost2010Prop41ColorRGB
 90
        0
102
RTVSPost2010PropOp41
 70
     1
102
RTVSPost2010Prop42
 90
       50
102
RTVSPost2010PropOp42
 70
     1
102
RTVSPost2010Prop43
 90
        3
102
RTVSPost2010PropOp43
 70
     1
102
RTVSPost2010Prop44ColorIndex
 90
        5
102
RTVSPost2010Prop44ColorRGB
 90
      255
102
RTVSPost2010PropOp44
 70
     1
102
RTVSPost2010Prop45
280
     0
102
RTVSPost2010PropOp45
 70
     1
102
RTVSPost2010Prop46
 90
       50
102
RTVSPost2010PropOp46
 70
     1
102
RTVSPost2010Prop47
 90
       50
102
RTVSPost2010PropOp47
 70
     1
102
RTVSPost2010Prop48
 90
       50
102
RTVSPost2010PropOp48
 70
     1
102
RTVSPost2010Prop49
280
     0
102
RTVSPost2010PropOp49
 70
     1
102
RTVSPost2010Prop50
 90
       50
102
RTVSPost2010PropOp50
 70
     1
102
RTVSPost2010Prop51ColorIndex
 90
      256
102
RTVSPost2010Prop51ColorRGB
 90
-16777216
102
RTVSPost2010PropOp51
 70
     0
102
RTVSPost2010Prop52
140
1.0
102
RTVSPost2010PropOp52
 70
     0
102
RTVSPost2010Prop53
 90
        2
102
RTVSPost2010PropOp53
 70
     1
102
RTVSPost2010Prop54
  1
strokes_ogs.tif
102
RTVSPost2010PropOp54
 70
     1
102
RTVSPost2010Prop55
280
     0
102
RTVSPost2010PropOp55
 70
     1
102
RTVSPost2010Prop56
140
1.0
102
RTVSPost2010PropOp56
 70
     1
102
RTVSPost2010Prop57
140
1.0
102
RTVSPost2010PropOp57
 70
     1
102
RTVSPropertyOp0
 70
     1
102
RTVSPropertyOp1
 70
     1
102
RTVSPropertyOp2
 70
     1
102
RTVSPropertyOp3
 70
     1
102
RTVSPropertyOp4
 70
     1
102
RTVSPropertyOp5
 70
     1
102
RTVSPropertyOp6
 70
     1
102
RTVSPropertyOp7
 70
     1
102
RTVSPropertyOp8
 70
     1
102
RTVSPropertyOp9
 70
     1
102
RTVSPropertyOp10
 70
     1
102
RTVSPropertyOp11
 70
     1
102
RTVSPropertyOp12
 70
     1
102
RTVSPropertyOp13
 70
     1
102
RTVSPropertyOp14
 70
     1
102
RTVSPropertyOp15
 70
     1
102
RTVSPropertyOp16
 70
     1
102
RTVSPropertyOp17
 70
     1
102
RTVSPropertyOp18
 70
     1
102
RTVSPropertyOp19
 70
     1
102
RTVSPropertyOp20
 70
     1
102
RTVSPropertyOp21
 70
     1
102
RTVSPropertyOp22
 70
     1
102
RTVSPropertyOp23
 70
     1
102
RTVSPropertyOp24
 70
     1
102
RTVSPropertyOp25
 70
     1
102
RTVSPropertyOp26
 70
     1
102
RTVSPropertyOp27
 70
     1
102
RTVSPropertyOp28
 70
     1
102
RTVSPropertyOp29
 70
     1
102
RTVSPropertyOp30
 70
     1
102
RTVSPropertyOp31
 70
     1
102
RTVSPropertyOp32
 70
     1
102
RTVSPropertyOp33
 70
     1
102
RTVSPropertyOp34
 70
     1
102
RTVSPropertyOp35
 70
     1
102
RTVSPropertyOp36
 70
     1
102
RTVSPropertyOp37
 70
     1
102
RTVSPropertyOp38
 70
     1
102
RTVSPropertyOp39
 70
     1
102
RTVSPropertyOp40
 70
     1
102
RTVSPropertyOp41
 70
     1
102
RTVSPropertyOp42
 70
     1
102
RTVSPropertyOp43
 70
     1
102
RTVSPropertyOp44
 70
     1
102
RTVSPropertyOp45
 70
     1
102
RTVSPropertyOp46
 70
     1
102
RTVSPropertyOp47
 70
     1
102
RTVSPropertyOp48
 70
     1
102
RTVSPropertyOp49
 70
     1
102
RTVSPropertyOp50
 70
     1
102
RTVSPropertyOp51
 70
     0
102
RTVSPropertyOp52
 70
     0
102
RTVSPropertyOp53
 70
     1
102
RTVSPropertyOp54
 70
     1
102
RTVSPropertyOp55
 70
     1
102
RTVSPropertyOp56
 70
     1
102
RTVSPropertyOp57
 70
     1
102
RTVSPropertyOp58
 70
     1
102
RTVSPropertyOp59
 70
     1
102
RTVSPropertyOp60
 70
     1
102
RTVSPropertyOp61
 70
     1
102
RTVSPropertyOp62
 70
     1
  0
XRECORD
  5
3B9
102
{ACAD_REACTORS
330
3B8
102
}
330
3B8
100
AcDbXrecord
280
     1
102
RTVSPost2010Prop28
280
     0
102
RTVSPost2010PropOp28
 70
     1
102
RTVSPost2010Prop29
280
     1
102
RTVSPost2010PropOp29
 70
     1
102
RTVSPost2010Prop30
280
     1
102
RTVSPost2010PropOp30
 70
     1
102
RTVSPost2010Prop31
280
     0
102
RTVSPost2010PropOp31
 70
     1
102
RTVSPost2010Prop32
280
     0
102
RTVSPost2010PropOp32
 70
     1
102
RTVSPost2010Prop33
280
     0
102
RTVSPost2010PropOp33
 70
     1
102
RTVSPost2010Prop34
280
     0
102
RTVSPost2010PropOp34
 70
     1
102
RTVSPost2010Prop35
280
     0
102
RTVSPost2010PropOp35
 70
     1
102
RTVSPost2010Prop36
280
     0
102
RTVSPost2010PropOp36
 70
     1
102
RTVSPost2010Prop37
 90
       50
102
RTVSPost2010PropOp37
 70
     1
102
RTVSPost2010Prop38
140
0.0
102
RTVSPost2010PropOp38
 70
     1
102
RTVSPost2010Prop39
140
1.0
102
RTVSPost2010PropOp39
 70
     1
102
RTVSPost2010Prop40
 90
        0
102
RTVSPost2010PropOp40
 70
     1
102
RTVSPost2010Prop41ColorIndex
 90
       18
102
RTVSPost2010Prop41ColorRGB
 90
        0
102
RTVSPost2010PropOp41
 70
     1
102
RTVSPost2010Prop42
 90
       50
102
RTVSPost2010PropOp42
 70
     1
102
RTVSPost2010Prop43
 90
        3
102
RTVSPost2010PropOp43
 70
     1
102
RTVSPost2010Prop44ColorIndex
 90
        5
102
RTVSPost2010Prop44ColorRGB
 90
      255
102
RTVSPost2010PropOp44
 70
     1
102
RTVSPost2010Prop45
280
     0
102
RTVSPost2010PropOp45
 70
     1
102
RTVSPost2010Prop46
 90
       50
102
RTVSPost2010PropOp46
 70
     1
102
RTVSPost2010Prop47
 90
       50
102
RTVSPost2010PropOp47
 70
     1
102
RTVSPost2010Prop48
 90
       50
102
RTVSPost2010PropOp48
 70
     1
102
RTVSPost2010Prop49
280
     0
102
RTVSPost2010PropOp49
 70
     1
102
RTVSPost2010Prop50
 90
       50
102
RTVSPost2010PropOp50
 70
     1
102
RTVSPost2010Prop51ColorIndex
 90
      256
102
RTVSPost2010Prop51ColorRGB
 90
-16777216
102
RTVSPost2010PropOp51
 70
     0
102
RTVSPost2010Prop52
140
1.0
102
RTVSPost2010PropOp52
 70
     0
102
RTVSPost2010Prop53
 90
        2
102
RTVSPost2010PropOp53
 70
     1
102
RTVSPost2010Prop54
  1
strokes_ogs.tif
102
RTVSPost2010PropOp54
 70
     1
102
RTVSPost2010Prop55
280
     0
102
RTVSPost2010PropOp55
 70
     1
102
RTVSPost2010Prop56
140
1.0
102
RTVSPost2010PropOp56
 70
     1
102
RTVSPost2010Prop57
140
1.0
102
RTVSPost2010PropOp57
 70
     1
102
RTVSPropertyOp0
 70
     1
102
RTVSPropertyOp1
 70
     1
102
RTVSPropertyOp2
 70
     1
102
RTVSPropertyOp3
 70
     1
102
RTVSPropertyOp4
 70
     1
102
RTVSPropertyOp5
 70
     1
102
RTVSPropertyOp6
 70
     1
102
RTVSPropertyOp7
 70
     1
102
RTVSPropertyOp8
 70
     1
102
RTVSPropertyOp9
 70
     1
102
RTVSPropertyOp10
 70
     1
102
RTVSPropertyOp11
 70
     1
102
RTVSPropertyOp12
 70
     1
102
RTVSPropertyOp13
 70
     1
102
RTVSPropertyOp14
 70
     1
102
RTVSPropertyOp15
 70
     1
102
RTVSPropertyOp16
 70
     1
102
RTVSPropertyOp17
 70
     1
102
RTVSPropertyOp18
 70
     1
102
RTVSPropertyOp19
 70
     1
102
RTVSPropertyOp20
 70
     1
102
RTVSPropertyOp21
 70
     1
102
RTVSPropertyOp22
 70
     1
102
RTVSPropertyOp23
 70
     1
102
RTVSPropertyOp24
 70
     1
102
RTVSPropertyOp25
 70
     1
102
RTVSPropertyOp26
 70
     1
102
RTVSPropertyOp27
 70
     1
102
RTVSPropertyOp28
 70
     1
102
RTVSPropertyOp29
 70
     1
102
RTVSPropertyOp30
 70
     1
102
RTVSPropertyOp31
 70
     1
102
RTVSPropertyOp32
 70
     1
102
RTVSPropertyOp33
 70
     1
102
RTVSPropertyOp34
 70
     1
102
RTVSPropertyOp35
 70
     1
102
RTVSPropertyOp36
 70
     1
102
RTVSPropertyOp37
 70
     1
102
RTVSPropertyOp38
 70
     1
102
RTVSPropertyOp39
 70
     1
102
RTVSPropertyOp40
 70
     1
102
RTVSPropertyOp41
 70
     1
102
RTVSPropertyOp42
 70
     1
102
RTVSPropertyOp43
 70
     1
102
RTVSPropertyOp44
 70
     1
102
RTVSPropertyOp45
 70
     1
102
RTVSPropertyOp46
 70
     1
102
RTVSPropertyOp47
 70
     1
102
RTVSPropertyOp48
 70
     1
102
RTVSPropertyOp49
 70
     1
102
RTVSPropertyOp50
 70
     1
102
RTVSPropertyOp51
 70
     0
102
RTVSPropertyOp52
 70
     0
102
RTVSPropertyOp53
 70
     1
102
RTVSPropertyOp54
 70
     1
102
RTVSPropertyOp55
 70
     1
102
RTVSPropertyOp56
 70
     1
102
RTVSPropertyOp57
 70
     1
102
RTVSPropertyOp58
 70
     1
102
RTVSPropertyOp59
 70
     1
102
RTVSPropertyOp60
 70
     1
102
RTVSPropertyOp61
 70
     1
102
RTVSPropertyOp62
 70
     1
  0
XRECORD
  5
3C9
102
{ACAD_REACTORS
330
3C8
102
}
330
3C8
100
AcDbXrecord
280
     1
102
RTVSPost2010Prop28
280
     0
102
RTVSPost2010PropOp28
 70
     0
102
RTVSPost2010Prop29
280
     1
102
RTVSPost2010PropOp29
 70
     0
102
RTVSPost2010Prop30
280
     1
102
RTVSPost2010PropOp30
 70
     0
102
RTVSPost2010Prop31
280
     0
102
RTVSPost2010PropOp31
 70
     0
102
RTVSPost2010Prop32
280
     0
102
RTVSPost2010PropOp32
 70
     0
102
RTVSPost2010Prop33
280
     0
102
RTVSPost2010PropOp33
 70
     0
102
RTVSPost2010Prop34
280
     0
102
RTVSPost2010PropOp34
 70
     0
102
RTVSPost2010Prop35
280
     0
102
RTVSPost2010PropOp35
 70
     0
102
RTVSPost2010Prop36
280
     0
102
RTVSPost2010PropOp36
 70
     0
102
RTVSPost2010Prop37
 90
       50
102
RTVSPost2010PropOp37
 70
     0
102
RTVSPost2010Prop38
140
0.0
102
RTVSPost2010PropOp38
 70
     0
102
RTVSPost2010Prop39
140
1.0
102
RTVSPost2010PropOp39
 70
     0
102
RTVSPost2010Prop40
 90
        0
102
RTVSPost2010PropOp40
 70
     0
102
RTVSPost2010Prop41ColorIndex
 90
       18
102
RTVSPost2010Prop41ColorRGB
 90
        0
102
RTVSPost2010PropOp41
 70
     0
102
RTVSPost2010Prop42
 90
       50
102
RTVSPost2010PropOp42
 70
     0
102
RTVSPost2010Prop43
 90
        3
102
RTVSPost2010PropOp43
 70
     0
102
RTVSPost2010Prop44ColorIndex
 90
        5
102
RTVSPost2010Prop44ColorRGB
 90
      255
102
RTVSPost2010PropOp44
 70
     0
102
RTVSPost2010Prop45
280
     0
102
RTVSPost2010PropOp45
 70
     0
102
RTVSPost2010Prop46
 90
       50
102
RTVSPost2010PropOp46
 70
     0
102
RTVSPost2010Prop47
 90
       50
102
RTVSPost2010PropOp47
 70
     0
102
RTVSPost2010Prop48
 90
       50
102
RTVSPost2010PropOp48
 70
     0
102
RTVSPost2010Prop49
280
     0
102
RTVSPost2010PropOp49
 70
     0
102
RTVSPost2010Prop50
 90
       50
102
RTVSPost2010PropOp50
 70
     0
102
RTVSPost2010Prop51ColorIndex
 90
      256
102
RTVSPost2010Prop51ColorRGB
 90
-16777216
102
RTVSPost2010PropOp51
 70
     0
102
RTVSPost2010Prop52
140
1.0
102
RTVSPost2010PropOp52
 70
     0
102
RTVSPost2010Prop53
 90
        2
102
RTVSPost2010PropOp53
 70
     0
102
RTVSPost2010Prop54
  1
strokes_ogs.tif
102
RTVSPost2010PropOp54
 70
     0
102
RTVSPost2010Prop55
280
     0
102
RTVSPost2010PropOp55
 70
     0
102
RTVSPost2010Prop56
140
1.0
102
RTVSPost2010PropOp56
 70
     0
102
RTVSPost2010Prop57
140
1.0
102
RTVSPost2010PropOp57
 70
     0
102
RTVSPropertyOp0
 70
     0
102
RTVSPropertyOp1
 70
     0
102
RTVSPropertyOp2
 70
     0
102
RTVSPropertyOp3
 70
     0
102
RTVSPropertyOp4
 70
     0
102
RTVSPropertyOp5
 70
     0
102
RTVSPropertyOp6
 70
     0
102
RTVSPropertyOp7
 70
     0
102
RTVSPropertyOp8
 70
     0
102
RTVSPropertyOp9
 70
     0
102
RTVSPropertyOp10
 70
     0
102
RTVSPropertyOp11
 70
     0
102
RTVSPropertyOp12
 70
     0
102
RTVSPropertyOp13
 70
     0
102
RTVSPropertyOp14
 70
     2
102
RTVSPropertyOp15
 70
     0
102
RTVSPropertyOp16
 70
     0
102
RTVSPropertyOp17
 70
     0
102
RTVSPropertyOp18
 70
     0
102
RTVSPropertyOp19
 70
     0
102
RTVSPropertyOp20
 70
     0
102
RTVSPropertyOp21
 70
     0
102
RTVSPropertyOp22
 70
     0
102
RTVSPropertyOp23
 70
     0
102
RTVSPropertyOp24
 70
     0
102
RTVSPropertyOp25
 70
     0
102
RTVSPropertyOp26
 70
     0
102
RTVSPropertyOp27
 70
     0
102
RTVSPropertyOp28
 70
     0
102
RTVSPropertyOp29
 70
     0
102
RTVSPropertyOp30
 70
     0
102
RTVSPropertyOp31
 70
     0
102
RTVSPropertyOp32
 70
     0
102
RTVSPropertyOp33
 70
     0
102
RTVSPropertyOp34
 70
     0
102
RTVSPropertyOp35
 70
     0
102
RTVSPropertyOp36
 70
     0
102
RTVSPropertyOp37
 70
     0
102
RTVSPropertyOp38
 70
     0
102
RTVSPropertyOp39
 70
     0
102
RTVSPropertyOp40
 70
     0
102
RTVSPropertyOp41
 70
     0
102
RTVSPropertyOp42
 70
     0
102
RTVSPropertyOp43
 70
     0
102
RTVSPropertyOp44
 70
     0
102
RTVSPropertyOp45
 70
     0
102
RTVSPropertyOp46
 70
     0
102
RTVSPropertyOp47
 70
     0
102
RTVSPropertyOp48
 70
     0
102
RTVSPropertyOp49
 70
     0
102
RTVSPropertyOp50
 70
     0
102
RTVSPropertyOp51
 70
     0
102
RTVSPropertyOp52
 70
     0
102
RTVSPropertyOp53
 70
     0
102
RTVSPropertyOp54
 70
     0
102
RTVSPropertyOp55
 70
     0
102
RTVSPropertyOp56
 70
     0
102
RTVSPropertyOp57
 70
     0
102
RTVSPropertyOp58
 70
     1
102
RTVSPropertyOp59
 70
     1
102
RTVSPropertyOp60
 70
     1
102
RTVSPropertyOp61
 70
     1
102
RTVSPropertyOp62
 70
     1
  0
XRECORD
  5
3C1
102
{ACAD_REACTORS
330
3C0
102
}
330
3C0
100
AcDbXrecord
280
     1
102
RTVSPost2010Prop28
280
     0
102
RTVSPost2010PropOp28
 70
     1
102
RTVSPost2010Prop29
280
     1
102
RTVSPost2010PropOp29
 70
     1
102
RTVSPost2010Prop30
280
     1
102
RTVSPost2010PropOp30
 70
     1
102
RTVSPost2010Prop31
280
     0
102
RTVSPost2010PropOp31
 70
     1
102
RTVSPost2010Prop32
280
     0
102
RTVSPost2010PropOp32
 70
     1
102
RTVSPost2010Prop33
280
     0
102
RTVSPost2010PropOp33
 70
     1
102
RTVSPost2010Prop34
280
     0
102
RTVSPost2010PropOp34
 70
     1
102
RTVSPost2010Prop35
280
     0
102
RTVSPost2010PropOp35
 70
     1
102
RTVSPost2010Prop36
280
     0
102
RTVSPost2010PropOp36
 70
     1
102
RTVSPost2010Prop37
 90
       50
102
RTVSPost2010PropOp37
 70
     1
102
RTVSPost2010Prop38
140
0.0
102
RTVSPost2010PropOp38
 70
     1
102
RTVSPost2010Prop39
140
1.0
102
RTVSPost2010PropOp39
 70
     1
102
RTVSPost2010Prop40
 90
        0
102
RTVSPost2010PropOp40
 70
     1
102
RTVSPost2010Prop41ColorIndex
 90
       18
102
RTVSPost2010Prop41ColorRGB
 90
        0
102
RTVSPost2010PropOp41
 70
     1
102
RTVSPost2010Prop42
 90
       50
102
RTVSPost2010PropOp42
 70
     1
102
RTVSPost2010Prop43
 90
        3
102
RTVSPost2010PropOp43
 70
     1
102
RTVSPost2010Prop44ColorIndex
 90
        5
102
RTVSPost2010Prop44ColorRGB
 90
      255
102
RTVSPost2010PropOp44
 70
     1
102
RTVSPost2010Prop45
280
     0
102
RTVSPost2010PropOp45
 70
     1
102
RTVSPost2010Prop46
 90
       50
102
RTVSPost2010PropOp46
 70
     1
102
RTVSPost2010Prop47
 90
       50
102
RTVSPost2010PropOp47
 70
     1
102
RTVSPost2010Prop48
 90
       50
102
RTVSPost2010PropOp48
 70
     1
102
RTVSPost2010Prop49
280
     0
102
RTVSPost2010PropOp49
 70
     1
102
RTVSPost2010Prop50
 90
       50
102
RTVSPost2010PropOp50
 70
     1
102
RTVSPost2010Prop51ColorIndex
 90
      256
102
RTVSPost2010Prop51ColorRGB
 90
-16777216
102
RTVSPost2010PropOp51
 70
     0
102
RTVSPost2010Prop52
140
1.0
102
RTVSPost2010PropOp52
 70
     0
102
RTVSPost2010Prop53
 90
        2
102
RTVSPost2010PropOp53
 70
     1
102
RTVSPost2010Prop54
  1
strokes_ogs.tif
102
RTVSPost2010PropOp54
 70
     1
102
RTVSPost2010Prop55
280
     0
102
RTVSPost2010PropOp55
 70
     1
102
RTVSPost2010Prop56
140
1.0
102
RTVSPost2010PropOp56
 70
     1
102
RTVSPost2010Prop57
140
1.0
102
RTVSPost2010PropOp57
 70
     1
102
RTVSPropertyOp0
 70
     1
102
RTVSPropertyOp1
 70
     1
102
RTVSPropertyOp2
 70
     1
102
RTVSPropertyOp3
 70
     1
102
RTVSPropertyOp4
 70
     1
102
RTVSPropertyOp5
 70
     1
102
RTVSPropertyOp6
 70
     1
102
RTVSPropertyOp7
 70
     1
102
RTVSPropertyOp8
 70
     1
102
RTVSPropertyOp9
 70
     1
102
RTVSPropertyOp10
 70
     1
102
RTVSPropertyOp11
 70
     1
102
RTVSPropertyOp12
 70
     1
102
RTVSPropertyOp13
 70
     1
102
RTVSPropertyOp14
 70
     1
102
RTVSPropertyOp15
 70
     1
102
RTVSPropertyOp16
 70
     1
102
RTVSPropertyOp17
 70
     1
102
RTVSPropertyOp18
 70
     1
102
RTVSPropertyOp19
 70
     1
102
RTVSPropertyOp20
 70
     1
102
RTVSPropertyOp21
 70
     1
102
RTVSPropertyOp22
 70
     1
102
RTVSPropertyOp23
 70
     1
102
RTVSPropertyOp24
 70
     1
102
RTVSPropertyOp25
 70
     1
102
RTVSPropertyOp26
 70
     1
102
RTVSPropertyOp27
 70
     1
102
RTVSPropertyOp28
 70
     1
102
RTVSPropertyOp29
 70
     1
102
RTVSPropertyOp30
 70
     1
102
RTVSPropertyOp31
 70
     1
102
RTVSPropertyOp32
 70
     1
102
RTVSPropertyOp33
 70
     1
102
RTVSPropertyOp34
 70
     1
102
RTVSPropertyOp35
 70
     1
102
RTVSPropertyOp36
 70
     1
102
RTVSPropertyOp37
 70
     1
102
RTVSPropertyOp38
 70
     1
102
RTVSPropertyOp39
 70
     1
102
RTVSPropertyOp40
 70
     1
102
RTVSPropertyOp41
 70
     1
102
RTVSPropertyOp42
 70
     1
102
RTVSPropertyOp43
 70
     1
102
RTVSPropertyOp44
 70
     1
102
RTVSPropertyOp45
 70
     1
102
RTVSPropertyOp46
 70
     1
102
RTVSPropertyOp47
 70
     1
102
RTVSPropertyOp48
 70
     1
102
RTVSPropertyOp49
 70
     1
102
RTVSPropertyOp50
 70
     1
102
RTVSPropertyOp51
 70
     0
102
RTVSPropertyOp52
 70
     0
102
RTVSPropertyOp53
 70
     1
102
RTVSPropertyOp54
 70
     1
102
RTVSPropertyOp55
 70
     1
102
RTVSPropertyOp56
 70
     1
102
RTVSPropertyOp57
 70
     1
102
RTVSPropertyOp58
 70
     1
102
RTVSPropertyOp59
 70
     1
102
RTVSPropertyOp60
 70
     1
102
RTVSPropertyOp61
 70
     1
102
RTVSPropertyOp62
 70
     1
  0
XRECORD
  5
3A5
102
{ACAD_REACTORS
330
3A4
102
}
330
3A4
100
AcDbXrecord
280
     1
102
RTVSPost2010Prop28
280
     0
102
RTVSPost2010PropOp28
 70
     1
102
RTVSPost2010Prop29
280
     1
102
RTVSPost2010PropOp29
 70
     1
102
RTVSPost2010Prop30
280
     1
102
RTVSPost2010PropOp30
 70
     1
102
RTVSPost2010Prop31
280
     0
102
RTVSPost2010PropOp31
 70
     1
102
RTVSPost2010Prop32
280
     0
102
RTVSPost2010PropOp32
 70
     1
102
RTVSPost2010Prop33
280
     0
102
RTVSPost2010PropOp33
 70
     1
102
RTVSPost2010Prop34
280
     0
102
RTVSPost2010PropOp34
 70
     1
102
RTVSPost2010Prop35
280
     0
102
RTVSPost2010PropOp35
 70
     1
102
RTVSPost2010Prop36
280
     0
102
RTVSPost2010PropOp36
 70
     1
102
RTVSPost2010Prop37
 90
       50
102
RTVSPost2010PropOp37
 70
     1
102
RTVSPost2010Prop38
140
0.0
102
RTVSPost2010PropOp38
 70
     1
102
RTVSPost2010Prop39
140
1.0
102
RTVSPost2010PropOp39
 70
     1
102
RTVSPost2010Prop40
 90
        0
102
RTVSPost2010PropOp40
 70
     1
102
RTVSPost2010Prop41ColorIndex
 90
       18
102
RTVSPost2010Prop41ColorRGB
 90
        0
102
RTVSPost2010PropOp41
 70
     1
102
RTVSPost2010Prop42
 90
       50
102
RTVSPost2010PropOp42
 70
     1
102
RTVSPost2010Prop43
 90
        3
102
RTVSPost2010PropOp43
 70
     1
102
RTVSPost2010Prop44ColorIndex
 90
        5
102
RTVSPost2010Prop44ColorRGB
 90
      255
102
RTVSPost2010PropOp44
 70
     1
102
RTVSPost2010Prop45
280
     0
102
RTVSPost2010PropOp45
 70
     1
102
RTVSPost2010Prop46
 90
       50
102
RTVSPost2010PropOp46
 70
     1
102
RTVSPost2010Prop47
 90
       50
102
RTVSPost2010PropOp47
 70
     1
102
RTVSPost2010Prop48
 90
       50
102
RTVSPost2010PropOp48
 70
     1
102
RTVSPost2010Prop49
280
     0
102
RTVSPost2010PropOp49
 70
     1
102
RTVSPost2010Prop50
 90
       50
102
RTVSPost2010PropOp50
 70
     1
102
RTVSPost2010Prop51ColorIndex
 90
      256
102
RTVSPost2010Prop51ColorRGB
 90
-16777216
102
RTVSPost2010PropOp51
 70
     0
102
RTVSPost2010Prop52
140
1.0
102
RTVSPost2010PropOp52
 70
     0
102
RTVSPost2010Prop53
 90
        2
102
RTVSPost2010PropOp53
 70
     1
102
RTVSPost2010Prop54
  1
strokes_ogs.tif
102
RTVSPost2010PropOp54
 70
     1
102
RTVSPost2010Prop55
280
     0
102
RTVSPost2010PropOp55
 70
     1
102
RTVSPost2010Prop56
140
1.0
102
RTVSPost2010PropOp56
 70
     1
102
RTVSPost2010Prop57
140
1.0
102
RTVSPost2010PropOp57
 70
     1
102
RTVSPropertyOp0
 70
     1
102
RTVSPropertyOp1
 70
     1
102
RTVSPropertyOp2
 70
     1
102
RTVSPropertyOp3
 70
     1
102
RTVSPropertyOp4
 70
     1
102
RTVSPropertyOp5
 70
     1
102
RTVSPropertyOp6
 70
     1
102
RTVSPropertyOp7
 70
     1
102
RTVSPropertyOp8
 70
     1
102
RTVSPropertyOp9
 70
     1
102
RTVSPropertyOp10
 70
     1
102
RTVSPropertyOp11
 70
     1
102
RTVSPropertyOp12
 70
     1
102
RTVSPropertyOp13
 70
     1
102
RTVSPropertyOp14
 70
     1
102
RTVSPropertyOp15
 70
     1
102
RTVSPropertyOp16
 70
     1
102
RTVSPropertyOp17
 70
     1
102
RTVSPropertyOp18
 70
     1
102
RTVSPropertyOp19
 70
     1
102
RTVSPropertyOp20
 70
     1
102
RTVSPropertyOp21
 70
     1
102
RTVSPropertyOp22
 70
     1
102
RTVSPropertyOp23
 70
     1
102
RTVSPropertyOp24
 70
     1
102
RTVSPropertyOp25
 70
     1
102
RTVSPropertyOp26
 70
     1
102
RTVSPropertyOp27
 70
     1
102
RTVSPropertyOp28
 70
     1
102
RTVSPropertyOp29
 70
     1
102
RTVSPropertyOp30
 70
     1
102
RTVSPropertyOp31
 70
     1
102
RTVSPropertyOp32
 70
     1
102
RTVSPropertyOp33
 70
     1
102
RTVSPropertyOp34
 70
     1
102
RTVSPropertyOp35
 70
     1
102
RTVSPropertyOp36
 70
     1
102
RTVSPropertyOp37
 70
     1
102
RTVSPropertyOp38
 70
     1
102
RTVSPropertyOp39
 70
     1
102
RTVSPropertyOp40
 70
     1
102
RTVSPropertyOp41
 70
     1
102
RTVSPropertyOp42
 70
     1
102
RTVSPropertyOp43
 70
     1
102
RTVSPropertyOp44
 70
     1
102
RTVSPropertyOp45
 70
     1
102
RTVSPropertyOp46
 70
     1
102
RTVSPropertyOp47
 70
     1
102
RTVSPropertyOp48
 70
     1
102
RTVSPropertyOp49
 70
     1
102
RTVSPropertyOp50
 70
     1
102
RTVSPropertyOp51
 70
     0
102
RTVSPropertyOp52
 70
     0
102
RTVSPropertyOp53
 70
     1
102
RTVSPropertyOp54
 70
     1
102
RTVSPropertyOp55
 70
     1
102
RTVSPropertyOp56
 70
     1
102
RTVSPropertyOp57
 70
     1
102
RTVSPropertyOp58
 70
     1
102
RTVSPropertyOp59
 70
     1
102
RTVSPropertyOp60
 70
     1
102
RTVSPropertyOp61
 70
     1
102
RTVSPropertyOp62
 70
     1
  0
XRECORD
  5
3A7
102
{ACAD_REACTORS
330
3A6
102
}
330
3A6
100
AcDbXrecord
280
     1
102
RTVSPost2010Prop28
280
     0
102
RTVSPost2010PropOp28
 70
     1
102
RTVSPost2010Prop29
280
     1
102
RTVSPost2010PropOp29
 70
     1
102
RTVSPost2010Prop30
280
     1
102
RTVSPost2010PropOp30
 70
     1
102
RTVSPost2010Prop31
280
     0
102
RTVSPost2010PropOp31
 70
     1
102
RTVSPost2010Prop32
280
     0
102
RTVSPost2010PropOp32
 70
     1
102
RTVSPost2010Prop33
280
     0
102
RTVSPost2010PropOp33
 70
     1
102
RTVSPost2010Prop34
280
     0
102
RTVSPost2010PropOp34
 70
     1
102
RTVSPost2010Prop35
280
     0
102
RTVSPost2010PropOp35
 70
     1
102
RTVSPost2010Prop36
280
     0
102
RTVSPost2010PropOp36
 70
     1
102
RTVSPost2010Prop37
 90
       50
102
RTVSPost2010PropOp37
 70
     1
102
RTVSPost2010Prop38
140
0.0
102
RTVSPost2010PropOp38
 70
     1
102
RTVSPost2010Prop39
140
1.0
102
RTVSPost2010PropOp39
 70
     1
102
RTVSPost2010Prop40
 90
        0
102
RTVSPost2010PropOp40
 70
     1
102
RTVSPost2010Prop41ColorIndex
 90
       18
102
RTVSPost2010Prop41ColorRGB
 90
        0
102
RTVSPost2010PropOp41
 70
     1
102
RTVSPost2010Prop42
 90
       50
102
RTVSPost2010PropOp42
 70
     1
102
RTVSPost2010Prop43
 90
        3
102
RTVSPost2010PropOp43
 70
     1
102
RTVSPost2010Prop44ColorIndex
 90
        5
102
RTVSPost2010Prop44ColorRGB
 90
      255
102
RTVSPost2010PropOp44
 70
     1
102
RTVSPost2010Prop45
280
     0
102
RTVSPost2010PropOp45
 70
     1
102
RTVSPost2010Prop46
 90
       50
102
RTVSPost2010PropOp46
 70
     1
102
RTVSPost2010Prop47
 90
       50
102
RTVSPost2010PropOp47
 70
     1
102
RTVSPost2010Prop48
 90
       50
102
RTVSPost2010PropOp48
 70
     1
102
RTVSPost2010Prop49
280
     0
102
RTVSPost2010PropOp49
 70
     1
102
RTVSPost2010Prop50
 90
       50
102
RTVSPost2010PropOp50
 70
     1
102
RTVSPost2010Prop51ColorIndex
 90
      256
102
RTVSPost2010Prop51ColorRGB
 90
-16777216
102
RTVSPost2010PropOp51
 70
     0
102
RTVSPost2010Prop52
140
1.0
102
RTVSPost2010PropOp52
 70
     0
102
RTVSPost2010Prop53
 90
        2
102
RTVSPost2010PropOp53
 70
     1
102
RTVSPost2010Prop54
  1
strokes_ogs.tif
102
RTVSPost2010PropOp54
 70
     1
102
RTVSPost2010Prop55
280
     0
102
RTVSPost2010PropOp55
 70
     1
102
RTVSPost2010Prop56
140
1.0
102
RTVSPost2010PropOp56
 70
     1
102
RTVSPost2010Prop57
140
1.0
102
RTVSPost2010PropOp57
 70
     1
102
RTVSPropertyOp0
 70
     1
102
RTVSPropertyOp1
 70
     1
102
RTVSPropertyOp2
 70
     1
102
RTVSPropertyOp3
 70
     1
102
RTVSPropertyOp4
 70
     1
102
RTVSPropertyOp5
 70
     1
102
RTVSPropertyOp6
 70
     1
102
RTVSPropertyOp7
 70
     1
102
RTVSPropertyOp8
 70
     1
102
RTVSPropertyOp9
 70
     1
102
RTVSPropertyOp10
 70
     1
102
RTVSPropertyOp11
 70
     1
102
RTVSPropertyOp12
 70
     1
102
RTVSPropertyOp13
 70
     1
102
RTVSPropertyOp14
 70
     1
102
RTVSPropertyOp15
 70
     1
102
RTVSPropertyOp16
 70
     1
102
RTVSPropertyOp17
 70
     1
102
RTVSPropertyOp18
 70
     1
102
RTVSPropertyOp19
 70
     1
102
RTVSPropertyOp20
 70
     1
102
RTVSPropertyOp21
 70
     1
102
RTVSPropertyOp22
 70
     1
102
RTVSPropertyOp23
 70
     1
102
RTVSPropertyOp24
 70
     1
102
RTVSPropertyOp25
 70
     1
102
RTVSPropertyOp26
 70
     1
102
RTVSPropertyOp27
 70
     1
102
RTVSPropertyOp28
 70
     1
102
RTVSPropertyOp29
 70
     1
102
RTVSPropertyOp30
 70
     1
102
RTVSPropertyOp31
 70
     1
102
RTVSPropertyOp32
 70
     1
102
RTVSPropertyOp33
 70
     1
102
RTVSPropertyOp34
 70
     1
102
RTVSPropertyOp35
 70
     1
102
RTVSPropertyOp36
 70
     1
102
RTVSPropertyOp37
 70
     1
102
RTVSPropertyOp38
 70
     1
102
RTVSPropertyOp39
 70
     1
102
RTVSPropertyOp40
 70
     1
102
RTVSPropertyOp41
 70
     1
102
RTVSPropertyOp42
 70
     1
102
RTVSPropertyOp43
 70
     1
102
RTVSPropertyOp44
 70
     1
102
RTVSPropertyOp45
 70
     1
102
RTVSPropertyOp46
 70
     1
102
RTVSPropertyOp47
 70
     1
102
RTVSPropertyOp48
 70
     1
102
RTVSPropertyOp49
 70
     1
102
RTVSPropertyOp50
 70
     1
102
RTVSPropertyOp51
 70
     0
102
RTVSPropertyOp52
 70
     0
102
RTVSPropertyOp53
 70
     1
102
RTVSPropertyOp54
 70
     1
102
RTVSPropertyOp55
 70
     1
102
RTVSPropertyOp56
 70
     1
102
RTVSPropertyOp57
 70
     1
102
RTVSPropertyOp58
 70
     1
102
RTVSPropertyOp59
 70
     1
102
RTVSPropertyOp60
 70
     1
102
RTVSPropertyOp61
 70
     1
102
RTVSPropertyOp62
 70
     1
  0
XRECORD
  5
3A9
102
{ACAD_REACTORS
330
3A8
102
}
330
3A8
100
AcDbXrecord
280
     1
102
RTVSPost2010Prop28
280
     0
102
RTVSPost2010PropOp28
 70
     1
102
RTVSPost2010Prop29
280
     1
102
RTVSPost2010PropOp29
 70
     1
102
RTVSPost2010Prop30
280
     1
102
RTVSPost2010PropOp30
 70
     1
102
RTVSPost2010Prop31
280
     0
102
RTVSPost2010PropOp31
 70
     1
102
RTVSPost2010Prop32
280
     0
102
RTVSPost2010PropOp32
 70
     1
102
RTVSPost2010Prop33
280
     0
102
RTVSPost2010PropOp33
 70
     1
102
RTVSPost2010Prop34
280
     0
102
RTVSPost2010PropOp34
 70
     1
102
RTVSPost2010Prop35
280
     0
102
RTVSPost2010PropOp35
 70
     1
102
RTVSPost2010Prop36
280
     0
102
RTVSPost2010PropOp36
 70
     1
102
RTVSPost2010Prop37
 90
       50
102
RTVSPost2010PropOp37
 70
     1
102
RTVSPost2010Prop38
140
0.0
102
RTVSPost2010PropOp38
 70
     1
102
RTVSPost2010Prop39
140
1.0
102
RTVSPost2010PropOp39
 70
     1
102
RTVSPost2010Prop40
 90
        0
102
RTVSPost2010PropOp40
 70
     1
102
RTVSPost2010Prop41ColorIndex
 90
       18
102
RTVSPost2010Prop41ColorRGB
 90
        0
102
RTVSPost2010PropOp41
 70
     1
102
RTVSPost2010Prop42
 90
       50
102
RTVSPost2010PropOp42
 70
     1
102
RTVSPost2010Prop43
 90
        3
102
RTVSPost2010PropOp43
 70
     1
102
RTVSPost2010Prop44ColorIndex
 90
        5
102
RTVSPost2010Prop44ColorRGB
 90
      255
102
RTVSPost2010PropOp44
 70
     1
102
RTVSPost2010Prop45
280
     0
102
RTVSPost2010PropOp45
 70
     1
102
RTVSPost2010Prop46
 90
       50
102
RTVSPost2010PropOp46
 70
     1
102
RTVSPost2010Prop47
 90
       50
102
RTVSPost2010PropOp47
 70
     1
102
RTVSPost2010Prop48
 90
       50
102
RTVSPost2010PropOp48
 70
     1
102
RTVSPost2010Prop49
280
     0
102
RTVSPost2010PropOp49
 70
     1
102
RTVSPost2010Prop50
 90
       50
102
RTVSPost2010PropOp50
 70
     1
102
RTVSPost2010Prop51ColorIndex
 90
      256
102
RTVSPost2010Prop51ColorRGB
 90
-16777216
102
RTVSPost2010PropOp51
 70
     0
102
RTVSPost2010Prop52
140
1.0
102
RTVSPost2010PropOp52
 70
     0
102
RTVSPost2010Prop53
 90
        2
102
RTVSPost2010PropOp53
 70
     1
102
RTVSPost2010Prop54
  1
strokes_ogs.tif
102
RTVSPost2010PropOp54
 70
     1
102
RTVSPost2010Prop55
280
     0
102
RTVSPost2010PropOp55
 70
     1
102
RTVSPost2010Prop56
140
1.0
102
RTVSPost2010PropOp56
 70
     1
102
RTVSPost2010Prop57
140
1.0
102
RTVSPost2010PropOp57
 70
     1
102
RTVSPropertyOp0
 70
     1
102
RTVSPropertyOp1
 70
     1
102
RTVSPropertyOp2
 70
     1
102
RTVSPropertyOp3
 70
     1
102
RTVSPropertyOp4
 70
     1
102
RTVSPropertyOp5
 70
     1
102
RTVSPropertyOp6
 70
     1
102
RTVSPropertyOp7
 70
     1
102
RTVSPropertyOp8
 70
     1
102
RTVSPropertyOp9
 70
     1
102
RTVSPropertyOp10
 70
     1
102
RTVSPropertyOp11
 70
     1
102
RTVSPropertyOp12
 70
     1
102
RTVSPropertyOp13
 70
     1
102
RTVSPropertyOp14
 70
     1
102
RTVSPropertyOp15
 70
     1
102
RTVSPropertyOp16
 70
     1
102
RTVSPropertyOp17
 70
     1
102
RTVSPropertyOp18
 70
     1
102
RTVSPropertyOp19
 70
     1
102
RTVSPropertyOp20
 70
     1
102
RTVSPropertyOp21
 70
     1
102
RTVSPropertyOp22
 70
     1
102
RTVSPropertyOp23
 70
     1
102
RTVSPropertyOp24
 70
     1
102
RTVSPropertyOp25
 70
     1
102
RTVSPropertyOp26
 70
     1
102
RTVSPropertyOp27
 70
     1
102
RTVSPropertyOp28
 70
     1
102
RTVSPropertyOp29
 70
     1
102
RTVSPropertyOp30
 70
     1
102
RTVSPropertyOp31
 70
     1
102
RTVSPropertyOp32
 70
     1
102
RTVSPropertyOp33
 70
     1
102
RTVSPropertyOp34
 70
     1
102
RTVSPropertyOp35
 70
     1
102
RTVSPropertyOp36
 70
     1
102
RTVSPropertyOp37
 70
     1
102
RTVSPropertyOp38
 70
     1
102
RTVSPropertyOp39
 70
     1
102
RTVSPropertyOp40
 70
     1
102
RTVSPropertyOp41
 70
     1
102
RTVSPropertyOp42
 70
     1
102
RTVSPropertyOp43
 70
     1
102
RTVSPropertyOp44
 70
     1
102
RTVSPropertyOp45
 70
     1
102
RTVSPropertyOp46
 70
     1
102
RTVSPropertyOp47
 70
     1
102
RTVSPropertyOp48
 70
     1
102
RTVSPropertyOp49
 70
     1
102
RTVSPropertyOp50
 70
     1
102
RTVSPropertyOp51
 70
     0
102
RTVSPropertyOp52
 70
     0
102
RTVSPropertyOp53
 70
     1
102
RTVSPropertyOp54
 70
     1
102
RTVSPropertyOp55
 70
     1
102
RTVSPropertyOp56
 70
     1
102
RTVSPropertyOp57
 70
     1
102
RTVSPropertyOp58
 70
     1
102
RTVSPropertyOp59
 70
     1
102
RTVSPropertyOp60
 70
     1
102
RTVSPropertyOp61
 70
     1
102
RTVSPropertyOp62
 70
     1
  0
XRECORD
  5
3AB
102
{ACAD_REACTORS
330
3AA
102
}
330
3AA
100
AcDbXrecord
280
     1
102
RTVSPost2010Prop28
280
     0
102
RTVSPost2010PropOp28
 70
     1
102
RTVSPost2010Prop29
280
     1
102
RTVSPost2010PropOp29
 70
     1
102
RTVSPost2010Prop30
280
     1
102
RTVSPost2010PropOp30
 70
     1
102
RTVSPost2010Prop31
280
     0
102
RTVSPost2010PropOp31
 70
     1
102
RTVSPost2010Prop32
280
     0
102
RTVSPost2010PropOp32
 70
     1
102
RTVSPost2010Prop33
280
     0
102
RTVSPost2010PropOp33
 70
     1
102
RTVSPost2010Prop34
280
     0
102
RTVSPost2010PropOp34
 70
     1
102
RTVSPost2010Prop35
280
     0
102
RTVSPost2010PropOp35
 70
     1
102
RTVSPost2010Prop36
280
     0
102
RTVSPost2010PropOp36
 70
     1
102
RTVSPost2010Prop37
 90
       50
102
RTVSPost2010PropOp37
 70
     1
102
RTVSPost2010Prop38
140
0.0
102
RTVSPost2010PropOp38
 70
     1
102
RTVSPost2010Prop39
140
1.0
102
RTVSPost2010PropOp39
 70
     1
102
RTVSPost2010Prop40
 90
        0
102
RTVSPost2010PropOp40
 70
     1
102
RTVSPost2010Prop41ColorIndex
 90
       18
102
RTVSPost2010Prop41ColorRGB
 90
        0
102
RTVSPost2010PropOp41
 70
     1
102
RTVSPost2010Prop42
 90
       50
102
RTVSPost2010PropOp42
 70
     1
102
RTVSPost2010Prop43
 90
        3
102
RTVSPost2010PropOp43
 70
     1
102
RTVSPost2010Prop44ColorIndex
 90
        5
102
RTVSPost2010Prop44ColorRGB
 90
      255
102
RTVSPost2010PropOp44
 70
     1
102
RTVSPost2010Prop45
280
     0
102
RTVSPost2010PropOp45
 70
     1
102
RTVSPost2010Prop46
 90
       50
102
RTVSPost2010PropOp46
 70
     1
102
RTVSPost2010Prop47
 90
       50
102
RTVSPost2010PropOp47
 70
     1
102
RTVSPost2010Prop48
 90
       50
102
RTVSPost2010PropOp48
 70
     1
102
RTVSPost2010Prop49
280
     0
102
RTVSPost2010PropOp49
 70
     1
102
RTVSPost2010Prop50
 90
       50
102
RTVSPost2010PropOp50
 70
     1
102
RTVSPost2010Prop51ColorIndex
 90
      256
102
RTVSPost2010Prop51ColorRGB
 90
-16777216
102
RTVSPost2010PropOp51
 70
     0
102
RTVSPost2010Prop52
140
1.0
102
RTVSPost2010PropOp52
 70
     0
102
RTVSPost2010Prop53
 90
        2
102
RTVSPost2010PropOp53
 70
     1
102
RTVSPost2010Prop54
  1
strokes_ogs.tif
102
RTVSPost2010PropOp54
 70
     1
102
RTVSPost2010Prop55
280
     0
102
RTVSPost2010PropOp55
 70
     1
102
RTVSPost2010Prop56
140
1.0
102
RTVSPost2010PropOp56
 70
     1
102
RTVSPost2010Prop57
140
1.0
102
RTVSPost2010PropOp57
 70
     1
102
RTVSPropertyOp0
 70
     1
102
RTVSPropertyOp1
 70
     1
102
RTVSPropertyOp2
 70
     1
102
RTVSPropertyOp3
 70
     1
102
RTVSPropertyOp4
 70
     1
102
RTVSPropertyOp5
 70
     1
102
RTVSPropertyOp6
 70
     1
102
RTVSPropertyOp7
 70
     1
102
RTVSPropertyOp8
 70
     1
102
RTVSPropertyOp9
 70
     1
102
RTVSPropertyOp10
 70
     1
102
RTVSPropertyOp11
 70
     1
102
RTVSPropertyOp12
 70
     1
102
RTVSPropertyOp13
 70
     1
102
RTVSPropertyOp14
 70
     1
102
RTVSPropertyOp15
 70
     1
102
RTVSPropertyOp16
 70
     1
102
RTVSPropertyOp17
 70
     1
102
RTVSPropertyOp18
 70
     1
102
RTVSPropertyOp19
 70
     1
102
RTVSPropertyOp20
 70
     1
102
RTVSPropertyOp21
 70
     1
102
RTVSPropertyOp22
 70
     1
102
RTVSPropertyOp23
 70
     1
102
RTVSPropertyOp24
 70
     1
102
RTVSPropertyOp25
 70
     1
102
RTVSPropertyOp26
 70
     1
102
RTVSPropertyOp27
 70
     1
102
RTVSPropertyOp28
 70
     1
102
RTVSPropertyOp29
 70
     1
102
RTVSPropertyOp30
 70
     1
102
RTVSPropertyOp31
 70
     1
102
RTVSPropertyOp32
 70
     1
102
RTVSPropertyOp33
 70
     1
102
RTVSPropertyOp34
 70
     1
102
RTVSPropertyOp35
 70
     1
102
RTVSPropertyOp36
 70
     1
102
RTVSPropertyOp37
 70
     1
102
RTVSPropertyOp38
 70
     1
102
RTVSPropertyOp39
 70
     1
102
RTVSPropertyOp40
 70
     1
102
RTVSPropertyOp41
 70
     1
102
RTVSPropertyOp42
 70
     1
102
RTVSPropertyOp43
 70
     1
102
RTVSPropertyOp44
 70
     1
102
RTVSPropertyOp45
 70
     1
102
RTVSPropertyOp46
 70
     1
102
RTVSPropertyOp47
 70
     1
102
RTVSPropertyOp48
 70
     1
102
RTVSPropertyOp49
 70
     1
102
RTVSPropertyOp50
 70
     1
102
RTVSPropertyOp51
 70
     0
102
RTVSPropertyOp52
 70
     0
102
RTVSPropertyOp53
 70
     1
102
RTVSPropertyOp54
 70
     1
102
RTVSPropertyOp55
 70
     1
102
RTVSPropertyOp56
 70
     1
102
RTVSPropertyOp57
 70
     1
102
RTVSPropertyOp58
 70
     1
102
RTVSPropertyOp59
 70
     1
102
RTVSPropertyOp60
 70
     1
102
RTVSPropertyOp61
 70
     1
102
RTVSPropertyOp62
 70
     1
  0
XRECORD
  5
3B1
102
{ACAD_REACTORS
330
3B0
102
}
330
3B0
100
AcDbXrecord
280
     1
102
RTVSPost2010Prop28
280
     0
102
RTVSPost2010PropOp28
 70
     1
102
RTVSPost2010Prop29
280
     1
102
RTVSPost2010PropOp29
 70
     1
102
RTVSPost2010Prop30
280
     1
102
RTVSPost2010PropOp30
 70
     1
102
RTVSPost2010Prop31
280
     0
102
RTVSPost2010PropOp31
 70
     1
102
RTVSPost2010Prop32
280
     0
102
RTVSPost2010PropOp32
 70
     1
102
RTVSPost2010Prop33
280
     0
102
RTVSPost2010PropOp33
 70
     1
102
RTVSPost2010Prop34
280
     0
102
RTVSPost2010PropOp34
 70
     1
102
RTVSPost2010Prop35
280
     0
102
RTVSPost2010PropOp35
 70
     1
102
RTVSPost2010Prop36
280
     0
102
RTVSPost2010PropOp36
 70
     1
102
RTVSPost2010Prop37
 90
       50
102
RTVSPost2010PropOp37
 70
     1
102
RTVSPost2010Prop38
140
0.0
102
RTVSPost2010PropOp38
 70
     1
102
RTVSPost2010Prop39
140
1.0
102
RTVSPost2010PropOp39
 70
     1
102
RTVSPost2010Prop40
 90
        0
102
RTVSPost2010PropOp40
 70
     1
102
RTVSPost2010Prop41ColorIndex
 90
       18
102
RTVSPost2010Prop41ColorRGB
 90
        0
102
RTVSPost2010PropOp41
 70
     1
102
RTVSPost2010Prop42
 90
       50
102
RTVSPost2010PropOp42
 70
     1
102
RTVSPost2010Prop43
 90
        3
102
RTVSPost2010PropOp43
 70
     1
102
RTVSPost2010Prop44ColorIndex
 90
        5
102
RTVSPost2010Prop44ColorRGB
 90
      255
102
RTVSPost2010PropOp44
 70
     1
102
RTVSPost2010Prop45
280
     0
102
RTVSPost2010PropOp45
 70
     1
102
RTVSPost2010Prop46
 90
       50
102
RTVSPost2010PropOp46
 70
     1
102
RTVSPost2010Prop47
 90
       50
102
RTVSPost2010PropOp47
 70
     1
102
RTVSPost2010Prop48
 90
       50
102
RTVSPost2010PropOp48
 70
     1
102
RTVSPost2010Prop49
280
     0
102
RTVSPost2010PropOp49
 70
     1
102
RTVSPost2010Prop50
 90
       50
102
RTVSPost2010PropOp50
 70
     1
102
RTVSPost2010Prop51ColorIndex
 90
      256
102
RTVSPost2010Prop51ColorRGB
 90
-16777216
102
RTVSPost2010PropOp51
 70
     0
102
RTVSPost2010Prop52
140
1.0
102
RTVSPost2010PropOp52
 70
     0
102
RTVSPost2010Prop53
 90
        2
102
RTVSPost2010PropOp53
 70
     1
102
RTVSPost2010Prop54
  1
strokes_ogs.tif
102
RTVSPost2010PropOp54
 70
     1
102
RTVSPost2010Prop55
280
     0
102
RTVSPost2010PropOp55
 70
     1
102
RTVSPost2010Prop56
140
1.0
102
RTVSPost2010PropOp56
 70
     1
102
RTVSPost2010Prop57
140
1.0
102
RTVSPost2010PropOp57
 70
     1
102
RTVSPropertyOp0
 70
     1
102
RTVSPropertyOp1
 70
     1
102
RTVSPropertyOp2
 70
     1
102
RTVSPropertyOp3
 70
     1
102
RTVSPropertyOp4
 70
     1
102
RTVSPropertyOp5
 70
     1
102
RTVSPropertyOp6
 70
     1
102
RTVSPropertyOp7
 70
     1
102
RTVSPropertyOp8
 70
     1
102
RTVSPropertyOp9
 70
     1
102
RTVSPropertyOp10
 70
     1
102
RTVSPropertyOp11
 70
     1
102
RTVSPropertyOp12
 70
     1
102
RTVSPropertyOp13
 70
     1
102
RTVSPropertyOp14
 70
     1
102
RTVSPropertyOp15
 70
     1
102
RTVSPropertyOp16
 70
     1
102
RTVSPropertyOp17
 70
     1
102
RTVSPropertyOp18
 70
     1
102
RTVSPropertyOp19
 70
     1
102
RTVSPropertyOp20
 70
     1
102
RTVSPropertyOp21
 70
     1
102
RTVSPropertyOp22
 70
     1
102
RTVSPropertyOp23
 70
     1
102
RTVSPropertyOp24
 70
     1
102
RTVSPropertyOp25
 70
     1
102
RTVSPropertyOp26
 70
     1
102
RTVSPropertyOp27
 70
     1
102
RTVSPropertyOp28
 70
     1
102
RTVSPropertyOp29
 70
     1
102
RTVSPropertyOp30
 70
     1
102
RTVSPropertyOp31
 70
     1
102
RTVSPropertyOp32
 70
     1
102
RTVSPropertyOp33
 70
     1
102
RTVSPropertyOp34
 70
     1
102
RTVSPropertyOp35
 70
     1
102
RTVSPropertyOp36
 70
     1
102
RTVSPropertyOp37
 70
     1
102
RTVSPropertyOp38
 70
     1
102
RTVSPropertyOp39
 70
     1
102
RTVSPropertyOp40
 70
     1
102
RTVSPropertyOp41
 70
     1
102
RTVSPropertyOp42
 70
     1
102
RTVSPropertyOp43
 70
     1
102
RTVSPropertyOp44
 70
     1
102
RTVSPropertyOp45
 70
     1
102
RTVSPropertyOp46
 70
     1
102
RTVSPropertyOp47
 70
     1
102
RTVSPropertyOp48
 70
     1
102
RTVSPropertyOp49
 70
     1
102
RTVSPropertyOp50
 70
     1
102
RTVSPropertyOp51
 70
     0
102
RTVSPropertyOp52
 70
     0
102
RTVSPropertyOp53
 70
     1
102
RTVSPropertyOp54
 70
     1
102
RTVSPropertyOp55
 70
     1
102
RTVSPropertyOp56
 70
     1
102
RTVSPropertyOp57
 70
     1
102
RTVSPropertyOp58
 70
     1
102
RTVSPropertyOp59
 70
     1
102
RTVSPropertyOp60
 70
     1
102
RTVSPropertyOp61
 70
     1
102
RTVSPropertyOp62
 70
     1
  0
XRECORD
  5
3C5
102
{ACAD_REACTORS
330
3C4
102
}
330
3C4
100
AcDbXrecord
280
     1
102
RTVSPost2010Prop28
280
     0
102
RTVSPost2010PropOp28
 70
     0
102
RTVSPost2010Prop29
280
     1
102
RTVSPost2010PropOp29
 70
     0
102
RTVSPost2010Prop30
280
     1
102
RTVSPost2010PropOp30
 70
     0
102
RTVSPost2010Prop31
280
     0
102
RTVSPost2010PropOp31
 70
     0
102
RTVSPost2010Prop32
280
     0
102
RTVSPost2010PropOp32
 70
     0
102
RTVSPost2010Prop33
280
     0
102
RTVSPost2010PropOp33
 70
     0
102
RTVSPost2010Prop34
280
     0
102
RTVSPost2010PropOp34
 70
     0
102
RTVSPost2010Prop35
280
     0
102
RTVSPost2010PropOp35
 70
     0
102
RTVSPost2010Prop36
280
     0
102
RTVSPost2010PropOp36
 70
     0
102
RTVSPost2010Prop37
 90
       50
102
RTVSPost2010PropOp37
 70
     0
102
RTVSPost2010Prop38
140
0.0
102
RTVSPost2010PropOp38
 70
     0
102
RTVSPost2010Prop39
140
1.0
102
RTVSPost2010PropOp39
 70
     0
102
RTVSPost2010Prop40
 90
        0
102
RTVSPost2010PropOp40
 70
     0
102
RTVSPost2010Prop41ColorIndex
 90
       18
102
RTVSPost2010Prop41ColorRGB
 90
        0
102
RTVSPost2010PropOp41
 70
     0
102
RTVSPost2010Prop42
 90
       50
102
RTVSPost2010PropOp42
 70
     0
102
RTVSPost2010Prop43
 90
        3
102
RTVSPost2010PropOp43
 70
     0
102
RTVSPost2010Prop44ColorIndex
 90
        5
102
RTVSPost2010Prop44ColorRGB
 90
      255
102
RTVSPost2010PropOp44
 70
     0
102
RTVSPost2010Prop45
280
     0
102
RTVSPost2010PropOp45
 70
     0
102
RTVSPost2010Prop46
 90
       50
102
RTVSPost2010PropOp46
 70
     0
102
RTVSPost2010Prop47
 90
       50
102
RTVSPost2010PropOp47
 70
     0
102
RTVSPost2010Prop48
 90
       50
102
RTVSPost2010PropOp48
 70
     0
102
RTVSPost2010Prop49
280
     0
102
RTVSPost2010PropOp49
 70
     0
102
RTVSPost2010Prop50
 90
       50
102
RTVSPost2010PropOp50
 70
     0
102
RTVSPost2010Prop51ColorIndex
 90
      256
102
RTVSPost2010Prop51ColorRGB
 90
-16777216
102
RTVSPost2010PropOp51
 70
     0
102
RTVSPost2010Prop52
140
1.0
102
RTVSPost2010PropOp52
 70
     0
102
RTVSPost2010Prop53
 90
        2
102
RTVSPost2010PropOp53
 70
     0
102
RTVSPost2010Prop54
  1
strokes_ogs.tif
102
RTVSPost2010PropOp54
 70
     0
102
RTVSPost2010Prop55
280
     0
102
RTVSPost2010PropOp55
 70
     0
102
RTVSPost2010Prop56
140
1.0
102
RTVSPost2010PropOp56
 70
     0
102
RTVSPost2010Prop57
140
1.0
102
RTVSPost2010PropOp57
 70
     0
102
RTVSPropertyOp0
 70
     0
102
RTVSPropertyOp1
 70
     0
102
RTVSPropertyOp2
 70
     0
102
RTVSPropertyOp3
 70
     0
102
RTVSPropertyOp4
 70
     0
102
RTVSPropertyOp5
 70
     0
102
RTVSPropertyOp6
 70
     0
102
RTVSPropertyOp7
 70
     0
102
RTVSPropertyOp8
 70
     0
102
RTVSPropertyOp9
 70
     0
102
RTVSPropertyOp10
 70
     0
102
RTVSPropertyOp11
 70
     0
102
RTVSPropertyOp12
 70
     0
102
RTVSPropertyOp13
 70
     0
102
RTVSPropertyOp14
 70
     2
102
RTVSPropertyOp15
 70
     0
102
RTVSPropertyOp16
 70
     0
102
RTVSPropertyOp17
 70
     0
102
RTVSPropertyOp18
 70
     0
102
RTVSPropertyOp19
 70
     0
102
RTVSPropertyOp20
 70
     0
102
RTVSPropertyOp21
 70
     0
102
RTVSPropertyOp22
 70
     0
102
RTVSPropertyOp23
 70
     0
102
RTVSPropertyOp24
 70
     0
102
RTVSPropertyOp25
 70
     0
102
RTVSPropertyOp26
 70
     0
102
RTVSPropertyOp27
 70
     0
102
RTVSPropertyOp28
 70
     0
102
RTVSPropertyOp29
 70
     0
102
RTVSPropertyOp30
 70
     0
102
RTVSPropertyOp31
 70
     0
102
RTVSPropertyOp32
 70
     0
102
RTVSPropertyOp33
 70
     0
102
RTVSPropertyOp34
 70
     0
102
RTVSPropertyOp35
 70
     0
102
RTVSPropertyOp36
 70
     0
102
RTVSPropertyOp37
 70
     0
102
RTVSPropertyOp38
 70
     0
102
RTVSPropertyOp39
 70
     0
102
RTVSPropertyOp40
 70
     0
102
RTVSPropertyOp41
 70
     0
102
RTVSPropertyOp42
 70
     0
102
RTVSPropertyOp43
 70
     0
102
RTVSPropertyOp44
 70
     0
102
RTVSPropertyOp45
 70
     0
102
RTVSPropertyOp46
 70
     0
102
RTVSPropertyOp47
 70
     0
102
RTVSPropertyOp48
 70
     0
102
RTVSPropertyOp49
 70
     0
102
RTVSPropertyOp50
 70
     0
102
RTVSPropertyOp51
 70
     0
102
RTVSPropertyOp52
 70
     0
102
RTVSPropertyOp53
 70
     0
102
RTVSPropertyOp54
 70
     0
102
RTVSPropertyOp55
 70
     0
102
RTVSPropertyOp56
 70
     0
102
RTVSPropertyOp57
 70
     0
102
RTVSPropertyOp58
 70
     1
102
RTVSPropertyOp59
 70
     1
102
RTVSPropertyOp60
 70
     1
102
RTVSPropertyOp61
 70
     1
102
RTVSPropertyOp62
 70
     1
  0
XRECORD
  5
3BF
102
{ACAD_REACTORS
330
3BE
102
}
330
3BE
100
AcDbXrecord
280
     1
102
RTVSPost2010Prop28
280
     0
102
RTVSPost2010PropOp28
 70
     1
102
RTVSPost2010Prop29
280
     1
102
RTVSPost2010PropOp29
 70
     1
102
RTVSPost2010Prop30
280
     1
102
RTVSPost2010PropOp30
 70
     1
102
RTVSPost2010Prop31
280
     0
102
RTVSPost2010PropOp31
 70
     1
102
RTVSPost2010Prop32
280
     0
102
RTVSPost2010PropOp32
 70
     1
102
RTVSPost2010Prop33
280
     0
102
RTVSPost2010PropOp33
 70
     1
102
RTVSPost2010Prop34
280
     0
102
RTVSPost2010PropOp34
 70
     1
102
RTVSPost2010Prop35
280
     0
102
RTVSPost2010PropOp35
 70
     1
102
RTVSPost2010Prop36
280
     0
102
RTVSPost2010PropOp36
 70
     1
102
RTVSPost2010Prop37
 90
       50
102
RTVSPost2010PropOp37
 70
     1
102
RTVSPost2010Prop38
140
0.0
102
RTVSPost2010PropOp38
 70
     1
102
RTVSPost2010Prop39
140
1.0
102
RTVSPost2010PropOp39
 70
     1
102
RTVSPost2010Prop40
 90
        0
102
RTVSPost2010PropOp40
 70
     1
102
RTVSPost2010Prop41ColorIndex
 90
       18
102
RTVSPost2010Prop41ColorRGB
 90
        0
102
RTVSPost2010PropOp41
 70
     1
102
RTVSPost2010Prop42
 90
       50
102
RTVSPost2010PropOp42
 70
     1
102
RTVSPost2010Prop43
 90
        3
102
RTVSPost2010PropOp43
 70
     1
102
RTVSPost2010Prop44ColorIndex
 90
        5
102
RTVSPost2010Prop44ColorRGB
 90
      255
102
RTVSPost2010PropOp44
 70
     1
102
RTVSPost2010Prop45
280
     0
102
RTVSPost2010PropOp45
 70
     1
102
RTVSPost2010Prop46
 90
       50
102
RTVSPost2010PropOp46
 70
     1
102
RTVSPost2010Prop47
 90
       50
102
RTVSPost2010PropOp47
 70
     1
102
RTVSPost2010Prop48
 90
       50
102
RTVSPost2010PropOp48
 70
     1
102
RTVSPost2010Prop49
280
     0
102
RTVSPost2010PropOp49
 70
     1
102
RTVSPost2010Prop50
 90
       50
102
RTVSPost2010PropOp50
 70
     1
102
RTVSPost2010Prop51ColorIndex
 90
      256
102
RTVSPost2010Prop51ColorRGB
 90
-16777216
102
RTVSPost2010PropOp51
 70
     0
102
RTVSPost2010Prop52
140
1.0
102
RTVSPost2010PropOp52
 70
     0
102
RTVSPost2010Prop53
 90
        2
102
RTVSPost2010PropOp53
 70
     1
102
RTVSPost2010Prop54
  1
strokes_ogs.tif
102
RTVSPost2010PropOp54
 70
     1
102
RTVSPost2010Prop55
280
     0
102
RTVSPost2010PropOp55
 70
     1
102
RTVSPost2010Prop56
140
1.0
102
RTVSPost2010PropOp56
 70
     1
102
RTVSPost2010Prop57
140
1.0
102
RTVSPost2010PropOp57
 70
     1
102
RTVSPropertyOp0
 70
     1
102
RTVSPropertyOp1
 70
     1
102
RTVSPropertyOp2
 70
     1
102
RTVSPropertyOp3
 70
     1
102
RTVSPropertyOp4
 70
     1
102
RTVSPropertyOp5
 70
     1
102
RTVSPropertyOp6
 70
     1
102
RTVSPropertyOp7
 70
     1
102
RTVSPropertyOp8
 70
     1
102
RTVSPropertyOp9
 70
     1
102
RTVSPropertyOp10
 70
     1
102
RTVSPropertyOp11
 70
     1
102
RTVSPropertyOp12
 70
     1
102
RTVSPropertyOp13
 70
     1
102
RTVSPropertyOp14
 70
     1
102
RTVSPropertyOp15
 70
     1
102
RTVSPropertyOp16
 70
     1
102
RTVSPropertyOp17
 70
     1
102
RTVSPropertyOp18
 70
     1
102
RTVSPropertyOp19
 70
     1
102
RTVSPropertyOp20
 70
     1
102
RTVSPropertyOp21
 70
     1
102
RTVSPropertyOp22
 70
     1
102
RTVSPropertyOp23
 70
     1
102
RTVSPropertyOp24
 70
     1
102
RTVSPropertyOp25
 70
     1
102
RTVSPropertyOp26
 70
     1
102
RTVSPropertyOp27
 70
     1
102
RTVSPropertyOp28
 70
     1
102
RTVSPropertyOp29
 70
     1
102
RTVSPropertyOp30
 70
     1
102
RTVSPropertyOp31
 70
     1
102
RTVSPropertyOp32
 70
     1
102
RTVSPropertyOp33
 70
     1
102
RTVSPropertyOp34
 70
     1
102
RTVSPropertyOp35
 70
     1
102
RTVSPropertyOp36
 70
     1
102
RTVSPropertyOp37
 70
     1
102
RTVSPropertyOp38
 70
     1
102
RTVSPropertyOp39
 70
     1
102
RTVSPropertyOp40
 70
     1
102
RTVSPropertyOp41
 70
     1
102
RTVSPropertyOp42
 70
     1
102
RTVSPropertyOp43
 70
     1
102
RTVSPropertyOp44
 70
     1
102
RTVSPropertyOp45
 70
     1
102
RTVSPropertyOp46
 70
     1
102
RTVSPropertyOp47
 70
     1
102
RTVSPropertyOp48
 70
     1
102
RTVSPropertyOp49
 70
     1
102
RTVSPropertyOp50
 70
     1
102
RTVSPropertyOp51
 70
     0
102
RTVSPropertyOp52
 70
     0
102
RTVSPropertyOp53
 70
     1
102
RTVSPropertyOp54
 70
     1
102
RTVSPropertyOp55
 70
     1
102
RTVSPropertyOp56
 70
     1
102
RTVSPropertyOp57
 70
     1
102
RTVSPropertyOp58
 70
     1
102
RTVSPropertyOp59
 70
     1
102
RTVSPropertyOp60
 70
     1
102
RTVSPropertyOp61
 70
     1
102
RTVSPropertyOp62
 70
     1
  0
XRECORD
  5
3C7
102
{ACAD_REACTORS
330
3C6
102
}
330
3C6
100
AcDbXrecord
280
     1
102
RTVSPost2010Prop28
280
     0
102
RTVSPost2010PropOp28
 70
     0
102
RTVSPost2010Prop29
280
     1
102
RTVSPost2010PropOp29
 70
     0
102
RTVSPost2010Prop30
280
     1
102
RTVSPost2010PropOp30
 70
     0
102
RTVSPost2010Prop31
280
     0
102
RTVSPost2010PropOp31
 70
     0
102
RTVSPost2010Prop32
280
     0
102
RTVSPost2010PropOp32
 70
     0
102
RTVSPost2010Prop33
280
     0
102
RTVSPost2010PropOp33
 70
     0
102
RTVSPost2010Prop34
280
     0
102
RTVSPost2010PropOp34
 70
     0
102
RTVSPost2010Prop35
280
     0
102
RTVSPost2010PropOp35
 70
     0
102
RTVSPost2010Prop36
280
     0
102
RTVSPost2010PropOp36
 70
     0
102
RTVSPost2010Prop37
 90
       50
102
RTVSPost2010PropOp37
 70
     0
102
RTVSPost2010Prop38
140
0.0
102
RTVSPost2010PropOp38
 70
     0
102
RTVSPost2010Prop39
140
1.0
102
RTVSPost2010PropOp39
 70
     0
102
RTVSPost2010Prop40
 90
        0
102
RTVSPost2010PropOp40
 70
     0
102
RTVSPost2010Prop41ColorIndex
 90
       18
102
RTVSPost2010Prop41ColorRGB
 90
        0
102
RTVSPost2010PropOp41
 70
     0
102
RTVSPost2010Prop42
 90
       50
102
RTVSPost2010PropOp42
 70
     0
102
RTVSPost2010Prop43
 90
        3
102
RTVSPost2010PropOp43
 70
     0
102
RTVSPost2010Prop44ColorIndex
 90
        5
102
RTVSPost2010Prop44ColorRGB
 90
      255
102
RTVSPost2010PropOp44
 70
     0
102
RTVSPost2010Prop45
280
     0
102
RTVSPost2010PropOp45
 70
     0
102
RTVSPost2010Prop46
 90
       50
102
RTVSPost2010PropOp46
 70
     0
102
RTVSPost2010Prop47
 90
       50
102
RTVSPost2010PropOp47
 70
     0
102
RTVSPost2010Prop48
 90
       50
102
RTVSPost2010PropOp48
 70
     0
102
RTVSPost2010Prop49
280
     0
102
RTVSPost2010PropOp49
 70
     0
102
RTVSPost2010Prop50
 90
       50
102
RTVSPost2010PropOp50
 70
     0
102
RTVSPost2010Prop51ColorIndex
 90
      256
102
RTVSPost2010Prop51ColorRGB
 90
-16777216
102
RTVSPost2010PropOp51
 70
     0
102
RTVSPost2010Prop52
140
1.0
102
RTVSPost2010PropOp52
 70
     0
102
RTVSPost2010Prop53
 90
        2
102
RTVSPost2010PropOp53
 70
     0
102
RTVSPost2010Prop54
  1
strokes_ogs.tif
102
RTVSPost2010PropOp54
 70
     0
102
RTVSPost2010Prop55
280
     0
102
RTVSPost2010PropOp55
 70
     0
102
RTVSPost2010Prop56
140
1.0
102
RTVSPost2010PropOp56
 70
     0
102
RTVSPost2010Prop57
140
1.0
102
RTVSPost2010PropOp57
 70
     0
102
RTVSPropertyOp0
 70
     0
102
RTVSPropertyOp1
 70
     0
102
RTVSPropertyOp2
 70
     0
102
RTVSPropertyOp3
 70
     0
102
RTVSPropertyOp4
 70
     0
102
RTVSPropertyOp5
 70
     0
102
RTVSPropertyOp6
 70
     0
102
RTVSPropertyOp7
 70
     0
102
RTVSPropertyOp8
 70
     0
102
RTVSPropertyOp9
 70
     0
102
RTVSPropertyOp10
 70
     0
102
RTVSPropertyOp11
 70
     0
102
RTVSPropertyOp12
 70
     0
102
RTVSPropertyOp13
 70
     0
102
RTVSPropertyOp14
 70
     2
102
RTVSPropertyOp15
 70
     0
102
RTVSPropertyOp16
 70
     0
102
RTVSPropertyOp17
 70
     0
102
RTVSPropertyOp18
 70
     0
102
RTVSPropertyOp19
 70
     0
102
RTVSPropertyOp20
 70
     0
102
RTVSPropertyOp21
 70
     0
102
RTVSPropertyOp22
 70
     0
102
RTVSPropertyOp23
 70
     0
102
RTVSPropertyOp24
 70
     0
102
RTVSPropertyOp25
 70
     0
102
RTVSPropertyOp26
 70
     0
102
RTVSPropertyOp27
 70
     0
102
RTVSPropertyOp28
 70
     0
102
RTVSPropertyOp29
 70
     0
102
RTVSPropertyOp30
 70
     0
102
RTVSPropertyOp31
 70
     0
102
RTVSPropertyOp32
 70
     0
102
RTVSPropertyOp33
 70
     0
102
RTVSPropertyOp34
 70
     0
102
RTVSPropertyOp35
 70
     0
102
RTVSPropertyOp36
 70
     0
102
RTVSPropertyOp37
 70
     0
102
RTVSPropertyOp38
 70
     0
102
RTVSPropertyOp39
 70
     0
102
RTVSPropertyOp40
 70
     0
102
RTVSPropertyOp41
 70
     0
102
RTVSPropertyOp42
 70
     0
102
RTVSPropertyOp43
 70
     0
102
RTVSPropertyOp44
 70
     0
102
RTVSPropertyOp45
 70
     0
102
RTVSPropertyOp46
 70
     0
102
RTVSPropertyOp47
 70
     0
102
RTVSPropertyOp48
 70
     0
102
RTVSPropertyOp49
 70
     0
102
RTVSPropertyOp50
 70
     0
102
RTVSPropertyOp51
 70
     0
102
RTVSPropertyOp52
 70
     0
102
RTVSPropertyOp53
 70
     0
102
RTVSPropertyOp54
 70
     0
102
RTVSPropertyOp55
 70
     0
102
RTVSPropertyOp56
 70
     0
102
RTVSPropertyOp57
 70
     0
102
RTVSPropertyOp58
 70
     1
102
RTVSPropertyOp59
 70
     1
102
RTVSPropertyOp60
 70
     1
102
RTVSPropertyOp61
 70
     1
102
RTVSPropertyOp62
 70
     1
  0
XRECORD
  5
3B5
102
{ACAD_REACTORS
330
3B4
102
}
330
3B4
100
AcDbXrecord
280
     1
102
RTVSPost2010Prop28
280
     0
102
RTVSPost2010PropOp28
 70
     1
102
RTVSPost2010Prop29
280
     1
102
RTVSPost2010PropOp29
 70
     1
102
RTVSPost2010Prop30
280
     1
102
RTVSPost2010PropOp30
 70
     1
102
RTVSPost2010Prop31
280
     0
102
RTVSPost2010PropOp31
 70
     1
102
RTVSPost2010Prop32
280
     0
102
RTVSPost2010PropOp32
 70
     1
102
RTVSPost2010Prop33
280
     0
102
RTVSPost2010PropOp33
 70
     1
102
RTVSPost2010Prop34
280
     0
102
RTVSPost2010PropOp34
 70
     1
102
RTVSPost2010Prop35
280
     0
102
RTVSPost2010PropOp35
 70
     1
102
RTVSPost2010Prop36
280
     0
102
RTVSPost2010PropOp36
 70
     1
102
RTVSPost2010Prop37
 90
       50
102
RTVSPost2010PropOp37
 70
     1
102
RTVSPost2010Prop38
140
0.0
102
RTVSPost2010PropOp38
 70
     1
102
RTVSPost2010Prop39
140
1.0
102
RTVSPost2010PropOp39
 70
     1
102
RTVSPost2010Prop40
 90
        0
102
RTVSPost2010PropOp40
 70
     1
102
RTVSPost2010Prop41ColorIndex
 90
       18
102
RTVSPost2010Prop41ColorRGB
 90
        0
102
RTVSPost2010PropOp41
 70
     1
102
RTVSPost2010Prop42
 90
       50
102
RTVSPost2010PropOp42
 70
     1
102
RTVSPost2010Prop43
 90
        3
102
RTVSPost2010PropOp43
 70
     1
102
RTVSPost2010Prop44ColorIndex
 90
        5
102
RTVSPost2010Prop44ColorRGB
 90
      255
102
RTVSPost2010PropOp44
 70
     1
102
RTVSPost2010Prop45
280
     0
102
RTVSPost2010PropOp45
 70
     1
102
RTVSPost2010Prop46
 90
       50
102
RTVSPost2010PropOp46
 70
     1
102
RTVSPost2010Prop47
 90
       50
102
RTVSPost2010PropOp47
 70
     1
102
RTVSPost2010Prop48
 90
       50
102
RTVSPost2010PropOp48
 70
     1
102
RTVSPost2010Prop49
280
     0
102
RTVSPost2010PropOp49
 70
     1
102
RTVSPost2010Prop50
 90
       50
102
RTVSPost2010PropOp50
 70
     1
102
RTVSPost2010Prop51ColorIndex
 90
      256
102
RTVSPost2010Prop51ColorRGB
 90
-16777216
102
RTVSPost2010PropOp51
 70
     0
102
RTVSPost2010Prop52
140
1.0
102
RTVSPost2010PropOp52
 70
     0
102
RTVSPost2010Prop53
 90
        2
102
RTVSPost2010PropOp53
 70
     1
102
RTVSPost2010Prop54
  1
strokes_ogs.tif
102
RTVSPost2010PropOp54
 70
     1
102
RTVSPost2010Prop55
280
     0
102
RTVSPost2010PropOp55
 70
     1
102
RTVSPost2010Prop56
140
1.0
102
RTVSPost2010PropOp56
 70
     1
102
RTVSPost2010Prop57
140
1.0
102
RTVSPost2010PropOp57
 70
     1
102
RTVSPropertyOp0
 70
     1
102
RTVSPropertyOp1
 70
     1
102
RTVSPropertyOp2
 70
     1
102
RTVSPropertyOp3
 70
     1
102
RTVSPropertyOp4
 70
     1
102
RTVSPropertyOp5
 70
     1
102
RTVSPropertyOp6
 70
     1
102
RTVSPropertyOp7
 70
     1
102
RTVSPropertyOp8
 70
     1
102
RTVSPropertyOp9
 70
     1
102
RTVSPropertyOp10
 70
     1
102
RTVSPropertyOp11
 70
     1
102
RTVSPropertyOp12
 70
     1
102
RTVSPropertyOp13
 70
     1
102
RTVSPropertyOp14
 70
     1
102
RTVSPropertyOp15
 70
     1
102
RTVSPropertyOp16
 70
     1
102
RTVSPropertyOp17
 70
     1
102
RTVSPropertyOp18
 70
     1
102
RTVSPropertyOp19
 70
     1
102
RTVSPropertyOp20
 70
     1
102
RTVSPropertyOp21
 70
     1
102
RTVSPropertyOp22
 70
     1
102
RTVSPropertyOp23
 70
     1
102
RTVSPropertyOp24
 70
     1
102
RTVSPropertyOp25
 70
     1
102
RTVSPropertyOp26
 70
     1
102
RTVSPropertyOp27
 70
     1
102
RTVSPropertyOp28
 70
     1
102
RTVSPropertyOp29
 70
     1
102
RTVSPropertyOp30
 70
     1
102
RTVSPropertyOp31
 70
     1
102
RTVSPropertyOp32
 70
     1
102
RTVSPropertyOp33
 70
     1
102
RTVSPropertyOp34
 70
     1
102
RTVSPropertyOp35
 70
     1
102
RTVSPropertyOp36
 70
     1
102
RTVSPropertyOp37
 70
     1
102
RTVSPropertyOp38
 70
     1
102
RTVSPropertyOp39
 70
     1
102
RTVSPropertyOp40
 70
     1
102
RTVSPropertyOp41
 70
     1
102
RTVSPropertyOp42
 70
     1
102
RTVSPropertyOp43
 70
     1
102
RTVSPropertyOp44
 70
     1
102
RTVSPropertyOp45
 70
     1
102
RTVSPropertyOp46
 70
     1
102
RTVSPropertyOp47
 70
     1
102
RTVSPropertyOp48
 70
     1
102
RTVSPropertyOp49
 70
     1
102
RTVSPropertyOp50
 70
     1
102
RTVSPropertyOp51
 70
     0
102
RTVSPropertyOp52
 70
     0
102
RTVSPropertyOp53
 70
     1
102
RTVSPropertyOp54
 70
     1
102
RTVSPropertyOp55
 70
     1
102
RTVSPropertyOp56
 70
     1
102
RTVSPropertyOp57
 70
     1
102
RTVSPropertyOp58
 70
     1
102
RTVSPropertyOp59
 70
     1
102
RTVSPropertyOp60
 70
     1
102
RTVSPropertyOp61
 70
     1
102
RTVSPropertyOp62
 70
     1
  0
XRECORD
  5
3D3
102
{ACAD_REACTORS
330
3D2
102
}
330
3D2
100
AcDbXrecord
280
     1
102
RTVSPost2010Prop28
280
     0
102
RTVSPost2010PropOp28
 70
     1
102
RTVSPost2010Prop29
280
     1
102
RTVSPost2010PropOp29
 70
     1
102
RTVSPost2010Prop30
280
     1
102
RTVSPost2010PropOp30
 70
     1
102
RTVSPost2010Prop31
280
     0
102
RTVSPost2010PropOp31
 70
     1
102
RTVSPost2010Prop32
280
     0
102
RTVSPost2010PropOp32
 70
     1
102
RTVSPost2010Prop33
280
     0
102
RTVSPost2010PropOp33
 70
     1
102
RTVSPost2010Prop34
280
     0
102
RTVSPost2010PropOp34
 70
     1
102
RTVSPost2010Prop35
280
     0
102
RTVSPost2010PropOp35
 70
     1
102
RTVSPost2010Prop36
280
     0
102
RTVSPost2010PropOp36
 70
     1
102
RTVSPost2010Prop37
 90
       50
102
RTVSPost2010PropOp37
 70
     1
102
RTVSPost2010Prop38
140
0.0
102
RTVSPost2010PropOp38
 70
     1
102
RTVSPost2010Prop39
140
1.0
102
RTVSPost2010PropOp39
 70
     1
102
RTVSPost2010Prop40
 90
        0
102
RTVSPost2010PropOp40
 70
     1
102
RTVSPost2010Prop41ColorIndex
 90
       18
102
RTVSPost2010Prop41ColorRGB
 90
        0
102
RTVSPost2010PropOp41
 70
     1
102
RTVSPost2010Prop42
 90
       50
102
RTVSPost2010PropOp42
 70
     1
102
RTVSPost2010Prop43
 90
        3
102
RTVSPost2010PropOp43
 70
     1
102
RTVSPost2010Prop44ColorIndex
 90
        5
102
RTVSPost2010Prop44ColorRGB
 90
      255
102
RTVSPost2010PropOp44
 70
     1
102
RTVSPost2010Prop45
280
     0
102
RTVSPost2010PropOp45
 70
     1
102
RTVSPost2010Prop46
 90
       50
102
RTVSPost2010PropOp46
 70
     1
102
RTVSPost2010Prop47
 90
       50
102
RTVSPost2010PropOp47
 70
     1
102
RTVSPost2010Prop48
 90
       50
102
RTVSPost2010PropOp48
 70
     1
102
RTVSPost2010Prop49
280
     0
102
RTVSPost2010PropOp49
 70
     1
102
RTVSPost2010Prop50
 90
       50
102
RTVSPost2010PropOp50
 70
     1
102
RTVSPost2010Prop51ColorIndex
 90
      256
102
RTVSPost2010Prop51ColorRGB
 90
-16777216
102
RTVSPost2010PropOp51
 70
     0
102
RTVSPost2010Prop52
140
1.0
102
RTVSPost2010PropOp52
 70
     0
102
RTVSPost2010Prop53
 90
        2
102
RTVSPost2010PropOp53
 70
     1
102
RTVSPost2010Prop54
  1
strokes_ogs.tif
102
RTVSPost2010PropOp54
 70
     1
102
RTVSPost2010Prop55
280
     0
102
RTVSPost2010PropOp55
 70
     1
102
RTVSPost2010Prop56
140
1.0
102
RTVSPost2010PropOp56
 70
     1
102
RTVSPost2010Prop57
140
1.0
102
RTVSPost2010PropOp57
 70
     1
102
RTVSPropertyOp0
 70
     1
102
RTVSPropertyOp1
 70
     1
102
RTVSPropertyOp2
 70
     1
102
RTVSPropertyOp3
 70
     1
102
RTVSPropertyOp4
 70
     1
102
RTVSPropertyOp5
 70
     1
102
RTVSPropertyOp6
 70
     1
102
RTVSPropertyOp7
 70
     1
102
RTVSPropertyOp8
 70
     1
102
RTVSPropertyOp9
 70
     1
102
RTVSPropertyOp10
 70
     1
102
RTVSPropertyOp11
 70
     1
102
RTVSPropertyOp12
 70
     1
102
RTVSPropertyOp13
 70
     1
102
RTVSPropertyOp14
 70
     1
102
RTVSPropertyOp15
 70
     1
102
RTVSPropertyOp16
 70
     1
102
RTVSPropertyOp17
 70
     1
102
RTVSPropertyOp18
 70
     1
102
RTVSPropertyOp19
 70
     1
102
RTVSPropertyOp20
 70
     1
102
RTVSPropertyOp21
 70
     1
102
RTVSPropertyOp22
 70
     1
102
RTVSPropertyOp23
 70
     1
102
RTVSPropertyOp24
 70
     1
102
RTVSPropertyOp25
 70
     1
102
RTVSPropertyOp26
 70
     1
102
RTVSPropertyOp27
 70
     1
102
RTVSPropertyOp28
 70
     1
102
RTVSPropertyOp29
 70
     1
102
RTVSPropertyOp30
 70
     1
102
RTVSPropertyOp31
 70
     1
102
RTVSPropertyOp32
 70
     1
102
RTVSPropertyOp33
 70
     1
102
RTVSPropertyOp34
 70
     1
102
RTVSPropertyOp35
 70
     1
102
RTVSPropertyOp36
 70
     1
102
RTVSPropertyOp37
 70
     1
102
RTVSPropertyOp38
 70
     1
102
RTVSPropertyOp39
 70
     1
102
RTVSPropertyOp40
 70
     1
102
RTVSPropertyOp41
 70
     1
102
RTVSPropertyOp42
 70
     1
102
RTVSPropertyOp43
 70
     1
102
RTVSPropertyOp44
 70
     1
102
RTVSPropertyOp45
 70
     1
102
RTVSPropertyOp46
 70
     1
102
RTVSPropertyOp47
 70
     1
102
RTVSPropertyOp48
 70
     1
102
RTVSPropertyOp49
 70
     1
102
RTVSPropertyOp50
 70
     1
102
RTVSPropertyOp51
 70
     0
102
RTVSPropertyOp52
 70
     0
102
RTVSPropertyOp53
 70
     1
102
RTVSPropertyOp54
 70
     1
102
RTVSPropertyOp55
 70
     1
102
RTVSPropertyOp56
 70
     1
102
RTVSPropertyOp57
 70
     1
102
RTVSPropertyOp58
 70
     1
102
RTVSPropertyOp59
 70
     1
102
RTVSPropertyOp60
 70
     1
102
RTVSPropertyOp61
 70
     1
102
RTVSPropertyOp62
 70
     1
  0
XRECORD
  5
3D1
102
{ACAD_REACTORS
330
3D0
102
}
330
3D0
100
AcDbXrecord
280
     1
102
RTVSPost2010Prop28
280
     0
102
RTVSPost2010PropOp28
 70
     1
102
RTVSPost2010Prop29
280
     1
102
RTVSPost2010PropOp29
 70
     1
102
RTVSPost2010Prop30
280
     1
102
RTVSPost2010PropOp30
 70
     1
102
RTVSPost2010Prop31
280
     0
102
RTVSPost2010PropOp31
 70
     1
102
RTVSPost2010Prop32
280
     0
102
RTVSPost2010PropOp32
 70
     1
102
RTVSPost2010Prop33
280
     0
102
RTVSPost2010PropOp33
 70
     1
102
RTVSPost2010Prop34
280
     0
102
RTVSPost2010PropOp34
 70
     1
102
RTVSPost2010Prop35
280
     0
102
RTVSPost2010PropOp35
 70
     1
102
RTVSPost2010Prop36
280
     0
102
RTVSPost2010PropOp36
 70
     1
102
RTVSPost2010Prop37
 90
       50
102
RTVSPost2010PropOp37
 70
     1
102
RTVSPost2010Prop38
140
0.0
102
RTVSPost2010PropOp38
 70
     1
102
RTVSPost2010Prop39
140
1.0
102
RTVSPost2010PropOp39
 70
     1
102
RTVSPost2010Prop40
 90
        0
102
RTVSPost2010PropOp40
 70
     1
102
RTVSPost2010Prop41ColorIndex
 90
       18
102
RTVSPost2010Prop41ColorRGB
 90
        0
102
RTVSPost2010PropOp41
 70
     1
102
RTVSPost2010Prop42
 90
       50
102
RTVSPost2010PropOp42
 70
     1
102
RTVSPost2010Prop43
 90
        3
102
RTVSPost2010PropOp43
 70
     1
102
RTVSPost2010Prop44ColorIndex
 90
        5
102
RTVSPost2010Prop44ColorRGB
 90
      255
102
RTVSPost2010PropOp44
 70
     1
102
RTVSPost2010Prop45
280
     0
102
RTVSPost2010PropOp45
 70
     1
102
RTVSPost2010Prop46
 90
       50
102
RTVSPost2010PropOp46
 70
     1
102
RTVSPost2010Prop47
 90
       50
102
RTVSPost2010PropOp47
 70
     1
102
RTVSPost2010Prop48
 90
       50
102
RTVSPost2010PropOp48
 70
     1
102
RTVSPost2010Prop49
280
     0
102
RTVSPost2010PropOp49
 70
     1
102
RTVSPost2010Prop50
 90
       50
102
RTVSPost2010PropOp50
 70
     1
102
RTVSPost2010Prop51ColorIndex
 90
      256
102
RTVSPost2010Prop51ColorRGB
 90
-16777216
102
RTVSPost2010PropOp51
 70
     0
102
RTVSPost2010Prop52
140
1.0
102
RTVSPost2010PropOp52
 70
     0
102
RTVSPost2010Prop53
 90
        2
102
RTVSPost2010PropOp53
 70
     1
102
RTVSPost2010Prop54
  1
strokes_ogs.tif
102
RTVSPost2010PropOp54
 70
     1
102
RTVSPost2010Prop55
280
     0
102
RTVSPost2010PropOp55
 70
     1
102
RTVSPost2010Prop56
140
1.0
102
RTVSPost2010PropOp56
 70
     1
102
RTVSPost2010Prop57
140
1.0
102
RTVSPost2010PropOp57
 70
     1
102
RTVSPropertyOp0
 70
     1
102
RTVSPropertyOp1
 70
     1
102
RTVSPropertyOp2
 70
     1
102
RTVSPropertyOp3
 70
     1
102
RTVSPropertyOp4
 70
     1
102
RTVSPropertyOp5
 70
     1
102
RTVSPropertyOp6
 70
     1
102
RTVSPropertyOp7
 70
     1
102
RTVSPropertyOp8
 70
     1
102
RTVSPropertyOp9
 70
     1
102
RTVSPropertyOp10
 70
     1
102
RTVSPropertyOp11
 70
     1
102
RTVSPropertyOp12
 70
     1
102
RTVSPropertyOp13
 70
     1
102
RTVSPropertyOp14
 70
     1
102
RTVSPropertyOp15
 70
     1
102
RTVSPropertyOp16
 70
     1
102
RTVSPropertyOp17
 70
     1
102
RTVSPropertyOp18
 70
     1
102
RTVSPropertyOp19
 70
     1
102
RTVSPropertyOp20
 70
     1
102
RTVSPropertyOp21
 70
     1
102
RTVSPropertyOp22
 70
     1
102
RTVSPropertyOp23
 70
     1
102
RTVSPropertyOp24
 70
     1
102
RTVSPropertyOp25
 70
     1
102
RTVSPropertyOp26
 70
     1
102
RTVSPropertyOp27
 70
     1
102
RTVSPropertyOp28
 70
     1
102
RTVSPropertyOp29
 70
     1
102
RTVSPropertyOp30
 70
     1
102
RTVSPropertyOp31
 70
     1
102
RTVSPropertyOp32
 70
     1
102
RTVSPropertyOp33
 70
     1
102
RTVSPropertyOp34
 70
     1
102
RTVSPropertyOp35
 70
     1
102
RTVSPropertyOp36
 70
     1
102
RTVSPropertyOp37
 70
     1
102
RTVSPropertyOp38
 70
     1
102
RTVSPropertyOp39
 70
     1
102
RTVSPropertyOp40
 70
     1
102
RTVSPropertyOp41
 70
     1
102
RTVSPropertyOp42
 70
     1
102
RTVSPropertyOp43
 70
     1
102
RTVSPropertyOp44
 70
     1
102
RTVSPropertyOp45
 70
     1
102
RTVSPropertyOp46
 70
     1
102
RTVSPropertyOp47
 70
     1
102
RTVSPropertyOp48
 70
     1
102
RTVSPropertyOp49
 70
     1
102
RTVSPropertyOp50
 70
     1
102
RTVSPropertyOp51
 70
     0
102
RTVSPropertyOp52
 70
     0
102
RTVSPropertyOp53
 70
     1
102
RTVSPropertyOp54
 70
     1
102
RTVSPropertyOp55
 70
     1
102
RTVSPropertyOp56
 70
     1
102
RTVSPropertyOp57
 70
     1
102
RTVSPropertyOp58
 70
     1
102
RTVSPropertyOp59
 70
     1
102
RTVSPropertyOp60
 70
     1
102
RTVSPropertyOp61
 70
     1
102
RTVSPropertyOp62
 70
     1
  0
XRECORD
  5
3CB
102
{ACAD_REACTORS
330
3CA
102
}
330
3CA
100
AcDbXrecord
280
     1
102
RTVSPost2010Prop28
280
     0
102
RTVSPost2010PropOp28
 70
     1
102
RTVSPost2010Prop29
280
     1
102
RTVSPost2010PropOp29
 70
     1
102
RTVSPost2010Prop30
280
     1
102
RTVSPost2010PropOp30
 70
     1
102
RTVSPost2010Prop31
280
     0
102
RTVSPost2010PropOp31
 70
     1
102
RTVSPost2010Prop32
280
     0
102
RTVSPost2010PropOp32
 70
     1
102
RTVSPost2010Prop33
280
     0
102
RTVSPost2010PropOp33
 70
     1
102
RTVSPost2010Prop34
280
     0
102
RTVSPost2010PropOp34
 70
     1
102
RTVSPost2010Prop35
280
     0
102
RTVSPost2010PropOp35
 70
     1
102
RTVSPost2010Prop36
280
     0
102
RTVSPost2010PropOp36
 70
     1
102
RTVSPost2010Prop37
 90
       50
102
RTVSPost2010PropOp37
 70
     1
102
RTVSPost2010Prop38
140
0.0
102
RTVSPost2010PropOp38
 70
     1
102
RTVSPost2010Prop39
140
1.0
102
RTVSPost2010PropOp39
 70
     1
102
RTVSPost2010Prop40
 90
        0
102
RTVSPost2010PropOp40
 70
     1
102
RTVSPost2010Prop41ColorIndex
 90
       18
102
RTVSPost2010Prop41ColorRGB
 90
        0
102
RTVSPost2010PropOp41
 70
     1
102
RTVSPost2010Prop42
 90
       50
102
RTVSPost2010PropOp42
 70
     1
102
RTVSPost2010Prop43
 90
        3
102
RTVSPost2010PropOp43
 70
     1
102
RTVSPost2010Prop44ColorIndex
 90
        5
102
RTVSPost2010Prop44ColorRGB
 90
      255
102
RTVSPost2010PropOp44
 70
     1
102
RTVSPost2010Prop45
280
     0
102
RTVSPost2010PropOp45
 70
     1
102
RTVSPost2010Prop46
 90
       50
102
RTVSPost2010PropOp46
 70
     1
102
RTVSPost2010Prop47
 90
       50
102
RTVSPost2010PropOp47
 70
     1
102
RTVSPost2010Prop48
 90
       50
102
RTVSPost2010PropOp48
 70
     1
102
RTVSPost2010Prop49
280
     0
102
RTVSPost2010PropOp49
 70
     1
102
RTVSPost2010Prop50
 90
       50
102
RTVSPost2010PropOp50
 70
     1
102
RTVSPost2010Prop51ColorIndex
 90
      256
102
RTVSPost2010Prop51ColorRGB
 90
-16777216
102
RTVSPost2010PropOp51
 70
     0
102
RTVSPost2010Prop52
140
1.0
102
RTVSPost2010PropOp52
 70
     0
102
RTVSPost2010Prop53
 90
        2
102
RTVSPost2010PropOp53
 70
     1
102
RTVSPost2010Prop54
  1
strokes_ogs.tif
102
RTVSPost2010PropOp54
 70
     1
102
RTVSPost2010Prop55
280
     0
102
RTVSPost2010PropOp55
 70
     1
102
RTVSPost2010Prop56
140
1.0
102
RTVSPost2010PropOp56
 70
     1
102
RTVSPost2010Prop57
140
1.0
102
RTVSPost2010PropOp57
 70
     1
102
RTVSPropertyOp0
 70
     1
102
RTVSPropertyOp1
 70
     1
102
RTVSPropertyOp2
 70
     1
102
RTVSPropertyOp3
 70
     1
102
RTVSPropertyOp4
 70
     1
102
RTVSPropertyOp5
 70
     1
102
RTVSPropertyOp6
 70
     1
102
RTVSPropertyOp7
 70
     1
102
RTVSPropertyOp8
 70
     1
102
RTVSPropertyOp9
 70
     1
102
RTVSPropertyOp10
 70
     1
102
RTVSPropertyOp11
 70
     1
102
RTVSPropertyOp12
 70
     1
102
RTVSPropertyOp13
 70
     1
102
RTVSPropertyOp14
 70
     1
102
RTVSPropertyOp15
 70
     1
102
RTVSPropertyOp16
 70
     1
102
RTVSPropertyOp17
 70
     1
102
RTVSPropertyOp18
 70
     1
102
RTVSPropertyOp19
 70
     1
102
RTVSPropertyOp20
 70
     1
102
RTVSPropertyOp21
 70
     1
102
RTVSPropertyOp22
 70
     1
102
RTVSPropertyOp23
 70
     1
102
RTVSPropertyOp24
 70
     1
102
RTVSPropertyOp25
 70
     1
102
RTVSPropertyOp26
 70
     1
102
RTVSPropertyOp27
 70
     1
102
RTVSPropertyOp28
 70
     1
102
RTVSPropertyOp29
 70
     1
102
RTVSPropertyOp30
 70
     1
102
RTVSPropertyOp31
 70
     1
102
RTVSPropertyOp32
 70
     1
102
RTVSPropertyOp33
 70
     1
102
RTVSPropertyOp34
 70
     1
102
RTVSPropertyOp35
 70
     1
102
RTVSPropertyOp36
 70
     1
102
RTVSPropertyOp37
 70
     1
102
RTVSPropertyOp38
 70
     1
102
RTVSPropertyOp39
 70
     1
102
RTVSPropertyOp40
 70
     1
102
RTVSPropertyOp41
 70
     1
102
RTVSPropertyOp42
 70
     1
102
RTVSPropertyOp43
 70
     1
102
RTVSPropertyOp44
 70
     1
102
RTVSPropertyOp45
 70
     1
102
RTVSPropertyOp46
 70
     1
102
RTVSPropertyOp47
 70
     1
102
RTVSPropertyOp48
 70
     1
102
RTVSPropertyOp49
 70
     1
102
RTVSPropertyOp50
 70
     1
102
RTVSPropertyOp51
 70
     0
102
RTVSPropertyOp52
 70
     0
102
RTVSPropertyOp53
 70
     1
102
RTVSPropertyOp54
 70
     1
102
RTVSPropertyOp55
 70
     1
102
RTVSPropertyOp56
 70
     1
102
RTVSPropertyOp57
 70
     1
102
RTVSPropertyOp58
 70
     1
102
RTVSPropertyOp59
 70
     1
102
RTVSPropertyOp60
 70
     1
102
RTVSPropertyOp61
 70
     1
102
RTVSPropertyOp62
 70
     1
  0
XRECORD
  5
3CD
102
{ACAD_REACTORS
330
3CC
102
}
330
3CC
100
AcDbXrecord
280
     1
102
RTVSPost2010Prop28
280
     0
102
RTVSPost2010PropOp28
 70
     1
102
RTVSPost2010Prop29
280
     1
102
RTVSPost2010PropOp29
 70
     1
102
RTVSPost2010Prop30
280
     1
102
RTVSPost2010PropOp30
 70
     1
102
RTVSPost2010Prop31
280
     0
102
RTVSPost2010PropOp31
 70
     1
102
RTVSPost2010Prop32
280
     0
102
RTVSPost2010PropOp32
 70
     1
102
RTVSPost2010Prop33
280
     0
102
RTVSPost2010PropOp33
 70
     1
102
RTVSPost2010Prop34
280
     0
102
RTVSPost2010PropOp34
 70
     1
102
RTVSPost2010Prop35
280
     0
102
RTVSPost2010PropOp35
 70
     1
102
RTVSPost2010Prop36
280
     0
102
RTVSPost2010PropOp36
 70
     1
102
RTVSPost2010Prop37
 90
       50
102
RTVSPost2010PropOp37
 70
     1
102
RTVSPost2010Prop38
140
0.0
102
RTVSPost2010PropOp38
 70
     1
102
RTVSPost2010Prop39
140
1.0
102
RTVSPost2010PropOp39
 70
     1
102
RTVSPost2010Prop40
 90
        0
102
RTVSPost2010PropOp40
 70
     1
102
RTVSPost2010Prop41ColorIndex
 90
       18
102
RTVSPost2010Prop41ColorRGB
 90
        0
102
RTVSPost2010PropOp41
 70
     1
102
RTVSPost2010Prop42
 90
       50
102
RTVSPost2010PropOp42
 70
     1
102
RTVSPost2010Prop43
 90
        3
102
RTVSPost2010PropOp43
 70
     1
102
RTVSPost2010Prop44ColorIndex
 90
        5
102
RTVSPost2010Prop44ColorRGB
 90
      255
102
RTVSPost2010PropOp44
 70
     1
102
RTVSPost2010Prop45
280
     0
102
RTVSPost2010PropOp45
 70
     1
102
RTVSPost2010Prop46
 90
       50
102
RTVSPost2010PropOp46
 70
     1
102
RTVSPost2010Prop47
 90
       50
102
RTVSPost2010PropOp47
 70
     1
102
RTVSPost2010Prop48
 90
       50
102
RTVSPost2010PropOp48
 70
     1
102
RTVSPost2010Prop49
280
     0
102
RTVSPost2010PropOp49
 70
     1
102
RTVSPost2010Prop50
 90
       50
102
RTVSPost2010PropOp50
 70
     1
102
RTVSPost2010Prop51ColorIndex
 90
      256
102
RTVSPost2010Prop51ColorRGB
 90
-16777216
102
RTVSPost2010PropOp51
 70
     0
102
RTVSPost2010Prop52
140
1.0
102
RTVSPost2010PropOp52
 70
     0
102
RTVSPost2010Prop53
 90
        2
102
RTVSPost2010PropOp53
 70
     1
102
RTVSPost2010Prop54
  1
strokes_ogs.tif
102
RTVSPost2010PropOp54
 70
     1
102
RTVSPost2010Prop55
280
     0
102
RTVSPost2010PropOp55
 70
     1
102
RTVSPost2010Prop56
140
1.0
102
RTVSPost2010PropOp56
 70
     1
102
RTVSPost2010Prop57
140
1.0
102
RTVSPost2010PropOp57
 70
     1
102
RTVSPropertyOp0
 70
     1
102
RTVSPropertyOp1
 70
     1
102
RTVSPropertyOp2
 70
     1
102
RTVSPropertyOp3
 70
     1
102
RTVSPropertyOp4
 70
     1
102
RTVSPropertyOp5
 70
     1
102
RTVSPropertyOp6
 70
     1
102
RTVSPropertyOp7
 70
     1
102
RTVSPropertyOp8
 70
     1
102
RTVSPropertyOp9
 70
     1
102
RTVSPropertyOp10
 70
     1
102
RTVSPropertyOp11
 70
     1
102
RTVSPropertyOp12
 70
     1
102
RTVSPropertyOp13
 70
     1
102
RTVSPropertyOp14
 70
     1
102
RTVSPropertyOp15
 70
     1
102
RTVSPropertyOp16
 70
     1
102
RTVSPropertyOp17
 70
     1
102
RTVSPropertyOp18
 70
     1
102
RTVSPropertyOp19
 70
     1
102
RTVSPropertyOp20
 70
     1
102
RTVSPropertyOp21
 70
     1
102
RTVSPropertyOp22
 70
     1
102
RTVSPropertyOp23
 70
     1
102
RTVSPropertyOp24
 70
     1
102
RTVSPropertyOp25
 70
     1
102
RTVSPropertyOp26
 70
     1
102
RTVSPropertyOp27
 70
     1
102
RTVSPropertyOp28
 70
     1
102
RTVSPropertyOp29
 70
     1
102
RTVSPropertyOp30
 70
     1
102
RTVSPropertyOp31
 70
     1
102
RTVSPropertyOp32
 70
     1
102
RTVSPropertyOp33
 70
     1
102
RTVSPropertyOp34
 70
     1
102
RTVSPropertyOp35
 70
     1
102
RTVSPropertyOp36
 70
     1
102
RTVSPropertyOp37
 70
     1
102
RTVSPropertyOp38
 70
     1
102
RTVSPropertyOp39
 70
     1
102
RTVSPropertyOp40
 70
     1
102
RTVSPropertyOp41
 70
     1
102
RTVSPropertyOp42
 70
     1
102
RTVSPropertyOp43
 70
     1
102
RTVSPropertyOp44
 70
     1
102
RTVSPropertyOp45
 70
     1
102
RTVSPropertyOp46
 70
     1
102
RTVSPropertyOp47
 70
     1
102
RTVSPropertyOp48
 70
     1
102
RTVSPropertyOp49
 70
     1
102
RTVSPropertyOp50
 70
     1
102
RTVSPropertyOp51
 70
     0
102
RTVSPropertyOp52
 70
     0
102
RTVSPropertyOp53
 70
     1
102
RTVSPropertyOp54
 70
     1
102
RTVSPropertyOp55
 70
     1
102
RTVSPropertyOp56
 70
     1
102
RTVSPropertyOp57
 70
     1
102
RTVSPropertyOp58
 70
     1
102
RTVSPropertyOp59
 70
     1
102
RTVSPropertyOp60
 70
     1
102
RTVSPropertyOp61
 70
     1
102
RTVSPropertyOp62
 70
     1
  0
XRECORD
  5
3BD
102
{ACAD_REACTORS
330
3BC
102
}
330
3BC
100
AcDbXrecord
280
     1
102
RTVSPost2010Prop28
280
     0
102
RTVSPost2010PropOp28
 70
     1
102
RTVSPost2010Prop29
280
     1
102
RTVSPost2010PropOp29
 70
     1
102
RTVSPost2010Prop30
280
     1
102
RTVSPost2010PropOp30
 70
     1
102
RTVSPost2010Prop31
280
     0
102
RTVSPost2010PropOp31
 70
     1
102
RTVSPost2010Prop32
280
     0
102
RTVSPost2010PropOp32
 70
     1
102
RTVSPost2010Prop33
280
     0
102
RTVSPost2010PropOp33
 70
     1
102
RTVSPost2010Prop34
280
     0
102
RTVSPost2010PropOp34
 70
     1
102
RTVSPost2010Prop35
280
     0
102
RTVSPost2010PropOp35
 70
     1
102
RTVSPost2010Prop36
280
     0
102
RTVSPost2010PropOp36
 70
     1
102
RTVSPost2010Prop37
 90
       50
102
RTVSPost2010PropOp37
 70
     1
102
RTVSPost2010Prop38
140
0.0
102
RTVSPost2010PropOp38
 70
     1
102
RTVSPost2010Prop39
140
1.0
102
RTVSPost2010PropOp39
 70
     1
102
RTVSPost2010Prop40
 90
        0
102
RTVSPost2010PropOp40
 70
     1
102
RTVSPost2010Prop41ColorIndex
 90
       18
102
RTVSPost2010Prop41ColorRGB
 90
        0
102
RTVSPost2010PropOp41
 70
     1
102
RTVSPost2010Prop42
 90
       50
102
RTVSPost2010PropOp42
 70
     1
102
RTVSPost2010Prop43
 90
        3
102
RTVSPost2010PropOp43
 70
     1
102
RTVSPost2010Prop44ColorIndex
 90
        5
102
RTVSPost2010Prop44ColorRGB
 90
      255
102
RTVSPost2010PropOp44
 70
     1
102
RTVSPost2010Prop45
280
     0
102
RTVSPost2010PropOp45
 70
     1
102
RTVSPost2010Prop46
 90
       50
102
RTVSPost2010PropOp46
 70
     1
102
RTVSPost2010Prop47
 90
       50
102
RTVSPost2010PropOp47
 70
     1
102
RTVSPost2010Prop48
 90
       50
102
RTVSPost2010PropOp48
 70
     1
102
RTVSPost2010Prop49
280
     0
102
RTVSPost2010PropOp49
 70
     1
102
RTVSPost2010Prop50
 90
       50
102
RTVSPost2010PropOp50
 70
     1
102
RTVSPost2010Prop51ColorIndex
 90
      256
102
RTVSPost2010Prop51ColorRGB
 90
-16777216
102
RTVSPost2010PropOp51
 70
     0
102
RTVSPost2010Prop52
140
1.0
102
RTVSPost2010PropOp52
 70
     0
102
RTVSPost2010Prop53
 90
        2
102
RTVSPost2010PropOp53
 70
     1
102
RTVSPost2010Prop54
  1
strokes_ogs.tif
102
RTVSPost2010PropOp54
 70
     1
102
RTVSPost2010Prop55
280
     0
102
RTVSPost2010PropOp55
 70
     1
102
RTVSPost2010Prop56
140
1.0
102
RTVSPost2010PropOp56
 70
     1
102
RTVSPost2010Prop57
140
1.0
102
RTVSPost2010PropOp57
 70
     1
102
RTVSPropertyOp0
 70
     1
102
RTVSPropertyOp1
 70
     1
102
RTVSPropertyOp2
 70
     1
102
RTVSPropertyOp3
 70
     1
102
RTVSPropertyOp4
 70
     1
102
RTVSPropertyOp5
 70
     1
102
RTVSPropertyOp6
 70
     1
102
RTVSPropertyOp7
 70
     1
102
RTVSPropertyOp8
 70
     1
102
RTVSPropertyOp9
 70
     1
102
RTVSPropertyOp10
 70
     1
102
RTVSPropertyOp11
 70
     1
102
RTVSPropertyOp12
 70
     1
102
RTVSPropertyOp13
 70
     1
102
RTVSPropertyOp14
 70
     1
102
RTVSPropertyOp15
 70
     1
102
RTVSPropertyOp16
 70
     1
102
RTVSPropertyOp17
 70
     1
102
RTVSPropertyOp18
 70
     1
102
RTVSPropertyOp19
 70
     1
102
RTVSPropertyOp20
 70
     1
102
RTVSPropertyOp21
 70
     1
102
RTVSPropertyOp22
 70
     1
102
RTVSPropertyOp23
 70
     1
102
RTVSPropertyOp24
 70
     1
102
RTVSPropertyOp25
 70
     1
102
RTVSPropertyOp26
 70
     1
102
RTVSPropertyOp27
 70
     1
102
RTVSPropertyOp28
 70
     1
102
RTVSPropertyOp29
 70
     1
102
RTVSPropertyOp30
 70
     1
102
RTVSPropertyOp31
 70
     1
102
RTVSPropertyOp32
 70
     1
102
RTVSPropertyOp33
 70
     1
102
RTVSPropertyOp34
 70
     1
102
RTVSPropertyOp35
 70
     1
102
RTVSPropertyOp36
 70
     1
102
RTVSPropertyOp37
 70
     1
102
RTVSPropertyOp38
 70
     1
102
RTVSPropertyOp39
 70
     1
102
RTVSPropertyOp40
 70
     1
102
RTVSPropertyOp41
 70
     1
102
RTVSPropertyOp42
 70
     1
102
RTVSPropertyOp43
 70
     1
102
RTVSPropertyOp44
 70
     1
102
RTVSPropertyOp45
 70
     1
102
RTVSPropertyOp46
 70
     1
102
RTVSPropertyOp47
 70
     1
102
RTVSPropertyOp48
 70
     1
102
RTVSPropertyOp49
 70
     1
102
RTVSPropertyOp50
 70
     1
102
RTVSPropertyOp51
 70
     0
102
RTVSPropertyOp52
 70
     0
102
RTVSPropertyOp53
 70
     1
102
RTVSPropertyOp54
 70
     1
102
RTVSPropertyOp55
 70
     1
102
RTVSPropertyOp56
 70
     1
102
RTVSPropertyOp57
 70
     1
102
RTVSPropertyOp58
 70
     1
102
RTVSPropertyOp59
 70
     1
102
RTVSPropertyOp60
 70
     1
102
RTVSPropertyOp61
 70
     1
102
RTVSPropertyOp62
 70
     1
  0
XRECORD
  5
3AF
102
{ACAD_REACTORS
330
3AE
102
}
330
3AE
100
AcDbXrecord
280
     1
102
RTVSPost2010Prop28
280
     0
102
RTVSPost2010PropOp28
 70
     1
102
RTVSPost2010Prop29
280
     1
102
RTVSPost2010PropOp29
 70
     1
102
RTVSPost2010Prop30
280
     1
102
RTVSPost2010PropOp30
 70
     1
102
RTVSPost2010Prop31
280
     0
102
RTVSPost2010PropOp31
 70
     1
102
RTVSPost2010Prop32
280
     0
102
RTVSPost2010PropOp32
 70
     1
102
RTVSPost2010Prop33
280
     0
102
RTVSPost2010PropOp33
 70
     1
102
RTVSPost2010Prop34
280
     0
102
RTVSPost2010PropOp34
 70
     1
102
RTVSPost2010Prop35
280
     0
102
RTVSPost2010PropOp35
 70
     1
102
RTVSPost2010Prop36
280
     0
102
RTVSPost2010PropOp36
 70
     1
102
RTVSPost2010Prop37
 90
       50
102
RTVSPost2010PropOp37
 70
     1
102
RTVSPost2010Prop38
140
0.0
102
RTVSPost2010PropOp38
 70
     1
102
RTVSPost2010Prop39
140
1.0
102
RTVSPost2010PropOp39
 70
     1
102
RTVSPost2010Prop40
 90
        0
102
RTVSPost2010PropOp40
 70
     1
102
RTVSPost2010Prop41ColorIndex
 90
       18
102
RTVSPost2010Prop41ColorRGB
 90
        0
102
RTVSPost2010PropOp41
 70
     1
102
RTVSPost2010Prop42
 90
       50
102
RTVSPost2010PropOp42
 70
     1
102
RTVSPost2010Prop43
 90
        3
102
RTVSPost2010PropOp43
 70
     1
102
RTVSPost2010Prop44ColorIndex
 90
        5
102
RTVSPost2010Prop44ColorRGB
 90
      255
102
RTVSPost2010PropOp44
 70
     1
102
RTVSPost2010Prop45
280
     0
102
RTVSPost2010PropOp45
 70
     1
102
RTVSPost2010Prop46
 90
       50
102
RTVSPost2010PropOp46
 70
     1
102
RTVSPost2010Prop47
 90
       50
102
RTVSPost2010PropOp47
 70
     1
102
RTVSPost2010Prop48
 90
       50
102
RTVSPost2010PropOp48
 70
     1
102
RTVSPost2010Prop49
280
     0
102
RTVSPost2010PropOp49
 70
     1
102
RTVSPost2010Prop50
 90
       50
102
RTVSPost2010PropOp50
 70
     1
102
RTVSPost2010Prop51ColorIndex
 90
      256
102
RTVSPost2010Prop51ColorRGB
 90
-16777216
102
RTVSPost2010PropOp51
 70
     0
102
RTVSPost2010Prop52
140
1.0
102
RTVSPost2010PropOp52
 70
     0
102
RTVSPost2010Prop53
 90
        2
102
RTVSPost2010PropOp53
 70
     1
102
RTVSPost2010Prop54
  1
strokes_ogs.tif
102
RTVSPost2010PropOp54
 70
     1
102
RTVSPost2010Prop55
280
     0
102
RTVSPost2010PropOp55
 70
     1
102
RTVSPost2010Prop56
140
1.0
102
RTVSPost2010PropOp56
 70
     1
102
RTVSPost2010Prop57
140
1.0
102
RTVSPost2010PropOp57
 70
     1
102
RTVSPropertyOp0
 70
     1
102
RTVSPropertyOp1
 70
     1
102
RTVSPropertyOp2
 70
     1
102
RTVSPropertyOp3
 70
     1
102
RTVSPropertyOp4
 70
     1
102
RTVSPropertyOp5
 70
     1
102
RTVSPropertyOp6
 70
     1
102
RTVSPropertyOp7
 70
     1
102
RTVSPropertyOp8
 70
     1
102
RTVSPropertyOp9
 70
     1
102
RTVSPropertyOp10
 70
     1
102
RTVSPropertyOp11
 70
     1
102
RTVSPropertyOp12
 70
     1
102
RTVSPropertyOp13
 70
     1
102
RTVSPropertyOp14
 70
     1
102
RTVSPropertyOp15
 70
     1
102
RTVSPropertyOp16
 70
     1
102
RTVSPropertyOp17
 70
     1
102
RTVSPropertyOp18
 70
     1
102
RTVSPropertyOp19
 70
     1
102
RTVSPropertyOp20
 70
     1
102
RTVSPropertyOp21
 70
     1
102
RTVSPropertyOp22
 70
     1
102
RTVSPropertyOp23
 70
     1
102
RTVSPropertyOp24
 70
     1
102
RTVSPropertyOp25
 70
     1
102
RTVSPropertyOp26
 70
     1
102
RTVSPropertyOp27
 70
     1
102
RTVSPropertyOp28
 70
     1
102
RTVSPropertyOp29
 70
     1
102
RTVSPropertyOp30
 70
     1
102
RTVSPropertyOp31
 70
     1
102
RTVSPropertyOp32
 70
     1
102
RTVSPropertyOp33
 70
     1
102
RTVSPropertyOp34
 70
     1
102
RTVSPropertyOp35
 70
     1
102
RTVSPropertyOp36
 70
     1
102
RTVSPropertyOp37
 70
     1
102
RTVSPropertyOp38
 70
     1
102
RTVSPropertyOp39
 70
     1
102
RTVSPropertyOp40
 70
     1
102
RTVSPropertyOp41
 70
     1
102
RTVSPropertyOp42
 70
     1
102
RTVSPropertyOp43
 70
     1
102
RTVSPropertyOp44
 70
     1
102
RTVSPropertyOp45
 70
     1
102
RTVSPropertyOp46
 70
     1
102
RTVSPropertyOp47
 70
     1
102
RTVSPropertyOp48
 70
     1
102
RTVSPropertyOp49
 70
     1
102
RTVSPropertyOp50
 70
     1
102
RTVSPropertyOp51
 70
     0
102
RTVSPropertyOp52
 70
     0
102
RTVSPropertyOp53
 70
     1
102
RTVSPropertyOp54
 70
     1
102
RTVSPropertyOp55
 70
     1
102
RTVSPropertyOp56
 70
     1
102
RTVSPropertyOp57
 70
     1
102
RTVSPropertyOp58
 70
     1
102
RTVSPropertyOp59
 70
     1
102
RTVSPropertyOp60
 70
     1
102
RTVSPropertyOp61
 70
     1
102
RTVSPropertyOp62
 70
     1
  0
XRECORD
  5
3CF
102
{ACAD_REACTORS
330
3CE
102
}
330
3CE
100
AcDbXrecord
280
     1
102
RTVSPost2010Prop28
280
     0
102
RTVSPost2010PropOp28
 70
     1
102
RTVSPost2010Prop29
280
     1
102
RTVSPost2010PropOp29
 70
     1
102
RTVSPost2010Prop30
280
     1
102
RTVSPost2010PropOp30
 70
     1
102
RTVSPost2010Prop31
280
     0
102
RTVSPost2010PropOp31
 70
     1
102
RTVSPost2010Prop32
280
     0
102
RTVSPost2010PropOp32
 70
     1
102
RTVSPost2010Prop33
280
     0
102
RTVSPost2010PropOp33
 70
     1
102
RTVSPost2010Prop34
280
     0
102
RTVSPost2010PropOp34
 70
     1
102
RTVSPost2010Prop35
280
     0
102
RTVSPost2010PropOp35
 70
     1
102
RTVSPost2010Prop36
280
     0
102
RTVSPost2010PropOp36
 70
     1
102
RTVSPost2010Prop37
 90
       50
102
RTVSPost2010PropOp37
 70
     1
102
RTVSPost2010Prop38
140
0.0
102
RTVSPost2010PropOp38
 70
     1
102
RTVSPost2010Prop39
140
1.0
102
RTVSPost2010PropOp39
 70
     1
102
RTVSPost2010Prop40
 90
        0
102
RTVSPost2010PropOp40
 70
     1
102
RTVSPost2010Prop41ColorIndex
 90
       18
102
RTVSPost2010Prop41ColorRGB
 90
        0
102
RTVSPost2010PropOp41
 70
     1
102
RTVSPost2010Prop42
 90
       50
102
RTVSPost2010PropOp42
 70
     1
102
RTVSPost2010Prop43
 90
        3
102
RTVSPost2010PropOp43
 70
     1
102
RTVSPost2010Prop44ColorIndex
 90
        5
102
RTVSPost2010Prop44ColorRGB
 90
      255
102
RTVSPost2010PropOp44
 70
     1
102
RTVSPost2010Prop45
280
     0
102
RTVSPost2010PropOp45
 70
     1
102
RTVSPost2010Prop46
 90
       50
102
RTVSPost2010PropOp46
 70
     1
102
RTVSPost2010Prop47
 90
       50
102
RTVSPost2010PropOp47
 70
     1
102
RTVSPost2010Prop48
 90
       50
102
RTVSPost2010PropOp48
 70
     1
102
RTVSPost2010Prop49
280
     0
102
RTVSPost2010PropOp49
 70
     1
102
RTVSPost2010Prop50
 90
       50
102
RTVSPost2010PropOp50
 70
     1
102
RTVSPost2010Prop51ColorIndex
 90
      256
102
RTVSPost2010Prop51ColorRGB
 90
-16777216
102
RTVSPost2010PropOp51
 70
     0
102
RTVSPost2010Prop52
140
1.0
102
RTVSPost2010PropOp52
 70
     0
102
RTVSPost2010Prop53
 90
        2
102
RTVSPost2010PropOp53
 70
     1
102
RTVSPost2010Prop54
  1
strokes_ogs.tif
102
RTVSPost2010PropOp54
 70
     1
102
RTVSPost2010Prop55
280
     0
102
RTVSPost2010PropOp55
 70
     1
102
RTVSPost2010Prop56
140
1.0
102
RTVSPost2010PropOp56
 70
     1
102
RTVSPost2010Prop57
140
1.0
102
RTVSPost2010PropOp57
 70
     1
102
RTVSPropertyOp0
 70
     1
102
RTVSPropertyOp1
 70
     1
102
RTVSPropertyOp2
 70
     1
102
RTVSPropertyOp3
 70
     1
102
RTVSPropertyOp4
 70
     1
102
RTVSPropertyOp5
 70
     1
102
RTVSPropertyOp6
 70
     1
102
RTVSPropertyOp7
 70
     1
102
RTVSPropertyOp8
 70
     1
102
RTVSPropertyOp9
 70
     1
102
RTVSPropertyOp10
 70
     1
102
RTVSPropertyOp11
 70
     1
102
RTVSPropertyOp12
 70
     1
102
RTVSPropertyOp13
 70
     1
102
RTVSPropertyOp14
 70
     1
102
RTVSPropertyOp15
 70
     1
102
RTVSPropertyOp16
 70
     1
102
RTVSPropertyOp17
 70
     1
102
RTVSPropertyOp18
 70
     1
102
RTVSPropertyOp19
 70
     1
102
RTVSPropertyOp20
 70
     1
102
RTVSPropertyOp21
 70
     1
102
RTVSPropertyOp22
 70
     1
102
RTVSPropertyOp23
 70
     1
102
RTVSPropertyOp24
 70
     1
102
RTVSPropertyOp25
 70
     1
102
RTVSPropertyOp26
 70
     1
102
RTVSPropertyOp27
 70
     1
102
RTVSPropertyOp28
 70
     1
102
RTVSPropertyOp29
 70
     1
102
RTVSPropertyOp30
 70
     1
102
RTVSPropertyOp31
 70
     1
102
RTVSPropertyOp32
 70
     1
102
RTVSPropertyOp33
 70
     1
102
RTVSPropertyOp34
 70
     1
102
RTVSPropertyOp35
 70
     1
102
RTVSPropertyOp36
 70
     1
102
RTVSPropertyOp37
 70
     1
102
RTVSPropertyOp38
 70
     1
102
RTVSPropertyOp39
 70
     1
102
RTVSPropertyOp40
 70
     1
102
RTVSPropertyOp41
 70
     1
102
RTVSPropertyOp42
 70
     1
102
RTVSPropertyOp43
 70
     1
102
RTVSPropertyOp44
 70
     1
102
RTVSPropertyOp45
 70
     1
102
RTVSPropertyOp46
 70
     1
102
RTVSPropertyOp47
 70
     1
102
RTVSPropertyOp48
 70
     1
102
RTVSPropertyOp49
 70
     1
102
RTVSPropertyOp50
 70
     1
102
RTVSPropertyOp51
 70
     0
102
RTVSPropertyOp52
 70
     0
102
RTVSPropertyOp53
 70
     1
102
RTVSPropertyOp54
 70
     1
102
RTVSPropertyOp55
 70
     1
102
RTVSPropertyOp56
 70
     1
102
RTVSPropertyOp57
 70
     1
102
RTVSPropertyOp58
 70
     1
102
RTVSPropertyOp59
 70
     1
102
RTVSPropertyOp60
 70
     1
102
RTVSPropertyOp61
 70
     1
102
RTVSPropertyOp62
 70
     1
  0
ENDSEC
  0
EOF
