  0
SECTION
  2
HEADER
  9
$ACADVER
  1
AC1018
  9
$ACADMAINTVER
 70
   104
  9
$DWGCODEPAGE
  3
ANSI_1250
  9
$LASTSAVEDBY
  1
wq7085
  9
$INSBASE
 10
0.0
 20
0.0
 30
0.0
  9
$EXTMIN
 10
187.2502013333333
 20
118.534924
 30
0.0
  9
$EXTMAX
 10
455.9183299999999
 20
351.9336746666668
 30
0.0
  9
$LIMMIN
 10
-0.5
 20
-0.5
  9
$LIMMAX
 10
5.0
 20
5.0
  9
$ORTHOMODE
 70
     0
  9
$REGENMODE
 70
     1
  9
$FILLMODE
 70
     1
  9
$QTEXTMODE
 70
     0
  9
$MIRRTEXT
 70
     1
  9
$LTSCALE
 40
1.0
  9
$ATTMODE
 70
     1
  9
$TEXTSIZE
 40
0.2
  9
$TRACEWID
 40
0.05
  9
$TEXTSTYLE
  7
Standard
  9
$CLAYER
  8
0
  9
$CELTYPE
  6
ByLayer
  9
$CECOLOR
 62
   256
  9
$CELTSCALE
 40
1.0
  9
$DISPSILH
 70
     0
  9
$DIMSCALE
 40
1.0
  9
$DIMASZ
 40
0.18
  9
$DIMEXO
 40
0.0625
  9
$DIMDLI
 40
0.38
  9
$DIMRND
 40
0.0
  9
$DIMDLE
 40
0.0
  9
$DIMEXE
 40
0.18
  9
$DIMTP
 40
0.0
  9
$DIMTM
 40
0.0
  9
$DIMTXT
 40
0.18
  9
$DIMCEN
 40
0.09
  9
$DIMTSZ
 40
0.0
  9
$DIMTOL
 70
     0
  9
$DIMLIM
 70
     0
  9
$DIMTIH
 70
     1
  9
$DIMTOH
 70
     1
  9
$DIMSE1
 70
     0
  9
$DIMSE2
 70
     0
  9
$DIMTAD
 70
     0
  9
$DIMZIN
 70
     0
  9
$DIMBLK
  1

  9
$DIMASO
 70
     1
  9
$DIMSHO
 70
     1
  9
$DIMPOST
  1

  9
$DIMAPOST
  1

  9
$DIMALT
 70
     0
  9
$DIMALTD
 70
     2
  9
$DIMALTF
 40
25.4
  9
$DIMLFAC
 40
1.0
  9
$DIMTOFL
 70
     0
  9
$DIMTVP
 40
0.0
  9
$DIMTIX
 70
     0
  9
$DIMSOXD
 70
     0
  9
$DIMSAH
 70
     0
  9
$DIMBLK1
  1

  9
$DIMBLK2
  1

  9
$DIMSTYLE
  2
Standard
  9
$DIMCLRD
 70
     0
  9
$DIMCLRE
 70
     0
  9
$DIMCLRT
 70
     0
  9
$DIMTFAC
 40
1.0
  9
$DIMGAP
 40
0.09
  9
$DIMJUST
 70
     0
  9
$DIMSD1
 70
     0
  9
$DIMSD2
 70
     0
  9
$DIMTOLJ
 70
     1
  9
$DIMTZIN
 70
     0
  9
$DIMALTZ
 70
     0
  9
$DIMALTTZ
 70
     0
  9
$DIMUPT
 70
     0
  9
$DIMDEC
 70
     4
  9
$DIMTDEC
 70
     4
  9
$DIMALTU
 70
     2
  9
$DIMALTTD
 70
     2
  9
$DIMTXSTY
  7
Standard
  9
$DIMAUNIT
 70
     0
  9
$DIMADEC
 70
     0
  9
$DIMALTRND
 40
0.0
  9
$DIMAZIN
 70
     0
  9
$DIMDSEP
 70
    46
  9
$DIMATFIT
 70
     3
  9
$DIMFRAC
 70
     0
  9
$DIMLDRBLK
  1

  9
$DIMLUNIT
 70
     2
  9
$DIMLWD
 70
    -2
  9
$DIMLWE
 70
    -2
  9
$DIMTMOVE
 70
     0
  9
$LUNITS
 70
     2
  9
$LUPREC
 70
     4
  9
$SKETCHINC
 40
0.1
  9
$FILLETRAD
 40
0.5
  9
$AUNITS
 70
     0
  9
$AUPREC
 70
     0
  9
$MENU
  1
.
  9
$ELEVATION
 40
0.0
  9
$PELEVATION
 40
0.0
  9
$THICKNESS
 40
0.0
  9
$LIMCHECK
 70
     0
  9
$CHAMFERA
 40
0.0
  9
$CHAMFERB
 40
0.0
  9
$CHAMFERC
 40
0.0
  9
$CHAMFERD
 40
0.0
  9
$SKPOLY
 70
     0
  9
$TDCREATE
 40
2459089.394502315
  9
$TDUCREATE
 40
2459089.311180162
  9
$TDUPDATE
 40
2459089.395347223
  9
$TDUUPDATE
 40
2459089.312013889
  9
$TDINDWG
 40
0.0002777894
  9
$TDUSRTIMER
 40
0.0002777894
  9
$USRTIMER
 70
     1
  9
$ANGBASE
 50
0.0
  9
$ANGDIR
 70
     0
  9
$PDMODE
 70
     0
  9
$PDSIZE
 40
0.0
  9
$PLINEWID
 40
0.0
  9
$SPLFRAME
 70
     0
  9
$SPLINETYPE
 70
     6
  9
$SPLINESEGS
 70
     8
  9
$HANDSEED
  5
39D
  9
$SURFTAB1
 70
     6
  9
$SURFTAB2
 70
     6
  9
$SURFTYPE
 70
     6
  9
$SURFU
 70
     6
  9
$SURFV
 70
     6
  9
$UCSBASE
  2

  9
$UCSNAME
  2

  9
$UCSORG
 10
274.404842
 20
288.907994
 30
0.0
  9
$UCSXDIR
 10
1.0
 20
0.0
 30
0.0
  9
$UCSYDIR
 10
0.0
 20
1.0
 30
0.0
  9
$UCSORTHOREF
  2

  9
$UCSORTHOVIEW
 70
     0
  9
$UCSORGTOP
 10
0.0
 20
0.0
 30
0.0
  9
$UCSORGBOTTOM
 10
0.0
 20
0.0
 30
0.0
  9
$UCSORGLEFT
 10
0.0
 20
0.0
 30
0.0
  9
$UCSORGRIGHT
 10
0.0
 20
0.0
 30
0.0
  9
$UCSORGFRONT
 10
0.0
 20
0.0
 30
0.0
  9
$UCSORGBACK
 10
0.0
 20
0.0
 30
0.0
  9
$PUCSBASE
  2

  9
$PUCSNAME
  2

  9
$PUCSORG
 10
0.0
 20
0.0
 30
0.0
  9
$PUCSXDIR
 10
1.0
 20
0.0
 30
0.0
  9
$PUCSYDIR
 10
0.0
 20
1.0
 30
0.0
  9
$PUCSORTHOREF
  2

  9
$PUCSORTHOVIEW
 70
     0
  9
$PUCSORGTOP
 10
0.0
 20
0.0
 30
0.0
  9
$PUCSORGBOTTOM
 10
0.0
 20
0.0
 30
0.0
  9
$PUCSORGLEFT
 10
0.0
 20
0.0
 30
0.0
  9
$PUCSORGRIGHT
 10
0.0
 20
0.0
 30
0.0
  9
$PUCSORGFRONT
 10
0.0
 20
0.0
 30
0.0
  9
$PUCSORGBACK
 10
0.0
 20
0.0
 30
0.0
  9
$USERI1
 70
     0
  9
$USERI2
 70
     0
  9
$USERI3
 70
     0
  9
$USERI4
 70
     0
  9
$USERI5
 70
     0
  9
$USERR1
 40
0.0
  9
$USERR2
 40
0.0
  9
$USERR3
 40
0.0
  9
$USERR4
 40
0.0
  9
$USERR5
 40
0.0
  9
$WORLDVIEW
 70
     1
  9
$SHADEDGE
 70
     3
  9
$SHADEDIF
 70
    70
  9
$TILEMODE
 70
     1
  9
$MAXACTVP
 70
    64
  9
$PINSBASE
 10
0.0
 20
0.0
 30
0.0
  9
$PLIMCHECK
 70
     0
  9
$PEXTMIN
 10
-0.5
 20
-0.5
 30
-0.5
  9
$PEXTMAX
 10
5.0
 20
5.0
 30
5.0
  9
$PLIMMIN
 10
-0.5
 20
-0.5
  9
$PLIMMAX
 10
5.0
 20
5.0
  9
$UNITMODE
 70
     0
  9
$VISRETAIN
 70
     1
  9
$PLINEGEN
 70
     0
  9
$PSLTSCALE
 70
     1
  9
$TREEDEPTH
 70
  3020
  9
$CMLSTYLE
  2
Standard
  9
$CMLJUST
 70
     0
  9
$CMLSCALE
 40
1.0
  9
$PROXYGRAPHICS
 70
     1
  9
$MEASUREMENT
 70
     1
  9
$CELWEIGHT
370
    13
  9
$ENDCAPS
280
     0
  9
$JOINSTYLE
280
     0
  9
$LWDISPLAY
290
     0
  9
$INSUNITS
 70
     4
  9
$HYPERLINKBASE
  1

  9
$STYLESHEET
  1

  9
$XEDIT
290
     1
  9
$CEPSNTYPE
380
     0
  9
$PSTYLEMODE
290
     1
  9
$FINGERPRINTGUID
  2
{CFA1AD65-8956-4815-8828-D6F8B5A9E89B}
  9
$VERSIONGUID
  2
{F874B706-9ED0-5243-AABA-A10F08B58241}
  9
$EXTNAMES
290
     1
  9
$PSVPSCALE
 40
0.0
  9
$OLESTARTUP
290
     0
  9
$SORTENTS
280
   127
  9
$INDEXCTL
280
     0
  9
$HIDETEXT
280
     1
  9
$XCLIPFRAME
290
     0
  9
$HALOGAP
280
     0
  9
$OBSCOLOR
 70
   257
  9
$OBSLTYPE
280
     0
  9
$INTERSECTIONDISPLAY
280
     0
  9
$INTERSECTIONCOLOR
 70
   257
  9
$DIMASSOC
280
     2
  9
$PROJECTNAME
  1

  0
ENDSEC
  0
SECTION
  2
CLASSES
  0
CLASS
  1
ACDBDICTIONARYWDFLT
  2
AcDbDictionaryWithDefault
  3
ObjectDBX Classes
 90
        0
 91
        1
280
     0
281
     0
  0
CLASS
  1
VISUALSTYLE
  2
AcDbVisualStyle
  3
ObjectDBX Classes
 90
     4095
 91
       24
280
     0
281
     0
  0
CLASS
  1
MATERIAL
  2
AcDbMaterial
  3
ObjectDBX Classes
 90
     1153
 91
        3
280
     0
281
     0
  0
CLASS
  1
SCALE
  2
AcDbScale
  3
ObjectDBX Classes
 90
     1153
 91
       33
280
     0
281
     0
  0
CLASS
  1
TABLESTYLE
  2
AcDbTableStyle
  3
ObjectDBX Classes
 90
     4095
 91
        1
280
     0
281
     0
  0
CLASS
  1
MLEADERSTYLE
  2
AcDbMLeaderStyle
  3
ACDB_MLEADERSTYLE_CLASS
 90
     4095
 91
        1
280
     0
281
     0
  0
CLASS
  1
SUN
  2
AcDbSun
  3
SCENEOE
 90
     1153
 91
        0
280
     0
281
     0
  0
CLASS
  1
DIMASSOC
  2
AcDbDimAssoc
  3
"AcDbDimAssoc|Product Desc:     AcDim ARX App For Dimension|Company:          Autodesk, Inc.|WEB Address:      www.autodesk.com"
 90
        0
 91
        7
280
     0
281
     0
  0
CLASS
  1
DICTIONARYVAR
  2
AcDbDictionaryVar
  3
ObjectDBX Classes
 90
        0
 91
        8
280
     0
281
     0
  0
CLASS
  1
CELLSTYLEMAP
  2
AcDbCellStyleMap
  3
ObjectDBX Classes
 90
     1152
 91
        2
280
     0
281
     0
  0
CLASS
  1
ACDBSECTIONVIEWSTYLE
  2
AcDbSectionViewStyle
  3
ObjectDBX Classes
 90
     1025
 91
        1
280
     0
281
     0
  0
CLASS
  1
ACDBDETAILVIEWSTYLE
  2
AcDbDetailViewStyle
  3
ObjectDBX Classes
 90
     1025
 91
        1
280
     0
281
     0
  0
CLASS
  1
SORTENTSTABLE
  2
AcDbSortentsTable
  3
ObjectDBX Classes
 90
        0
 91
        1
280
     0
281
     0
  0
ENDSEC
  0
SECTION
  2
TABLES
  0
TABLE
  2
VPORT
  5
8
330
0
100
AcDbSymbolTable
 70
    16
  0
VPORT
  5
29
330
8
100
AcDbSymbolTableRecord
100
AcDbViewportTableRecord
  2
*Active
 70
     0
 10
0.0
 20
0.0
 11
1.0
 21
1.0
 12
308.0202463742164
 22
296.1377589481195
 13
0.0
 23
0.0
 14
0.5
 24
0.5
 15
0.5
 25
0.5
 16
0.0
 26
0.0
 36
1.0
 17
0.0
 27
0.0
 37
0.0
 40
206.7779122474016
 41
2.292712066905615
 42
50.0
 43
474.778116
 44
-474.778116
 50
0.0
 51
0.0
 71
     0
 72
   100
 73
     1
 74
     3
 75
     0
 76
     0
 77
     0
 78
     0
281
     0
 65
     1
110
274.404842
120
288.907994
130
0.0
111
1.0
121
0.0
131
0.0
112
0.0
122
1.0
132
0.0
 79
     0
146
0.0
1001
ACAD_NAV_VCDISPLAY
1070
     3
  0
VPORT
  5
2A1
330
8
100
AcDbSymbolTableRecord
100
AcDbViewportTableRecord
  2
L1
 70
     0
 10
0.0
 20
0.0
 11
1.0
 21
1.0
 12
321.080063
 22
235.21615
 13
0.0
 23
0.0
 14
0.5
 24
0.5
 15
0.5
 25
0.5
 16
0.0
 26
0.0
 36
1.0
 17
0.0
 27
0.0
 37
0.0
 40
207.433333
 41
0.085602
 42
50.0
 43
474.778116
 44
-474.778116
 50
0.0
 51
0.0
 71
     0
 72
   100
 73
     1
 74
     3
 75
     0
 76
     0
 77
     0
 78
     0
281
     0
 65
     1
110
0.0
120
0.0
130
0.0
111
1.0
121
0.0
131
0.0
112
0.0
122
1.0
132
0.0
 79
     0
146
0.0
  0
VPORT
  5
2A2
330
8
100
AcDbSymbolTableRecord
100
AcDbViewportTableRecord
  2
L2
 70
     0
 10
0.0
 20
0.0
 11
0.5
 21
1.0
 12
0.0
 22
0.0
 13
0.0
 23
0.0
 14
0.5
 24
0.5
 15
0.5
 25
0.5
 16
0.0
 26
-1.0
 36
0.0
 17
0.0
 27
0.0
 37
0.0
 40
1316.18997
 41
0.013491
 42
50.0
 43
678.00864
 44
-678.00864
 50
0.0
 51
0.0
 71
     0
 72
   100
 73
     1
 74
     3
 75
     0
 76
     0
 77
     0
 78
     0
281
     0
 65
     1
110
0.0
120
0.0
130
0.0
111
1.0
121
0.0
131
0.0
112
0.0
122
1.0
132
0.0
 79
     0
146
0.0
  0
VPORT
  5
2A3
330
8
100
AcDbSymbolTableRecord
100
AcDbViewportTableRecord
  2
L2
 70
     0
 10
0.5
 20
0.0
 11
1.0
 21
1.0
 12
0.0
 22
0.0
 13
0.0
 23
0.0
 14
0.5
 24
0.5
 15
0.5
 25
0.5
 16
1.0
 26
0.0
 36
0.0
 17
0.0
 27
0.0
 37
0.0
 40
1316.18997
 41
0.013491
 42
50.0
 43
666.2177989999999
 44
-666.2177989999999
 50
0.0
 51
0.0
 71
     0
 72
   100
 73
     1
 74
     3
 75
     0
 76
     0
 77
     0
 78
     0
281
     0
 65
     1
110
0.0
120
0.0
130
0.0
111
1.0
121
0.0
131
0.0
112
0.0
122
1.0
132
0.0
 79
     0
146
0.0
  0
VPORT
  5
2A4
330
8
100
AcDbSymbolTableRecord
100
AcDbViewportTableRecord
  2
L3
 70
     0
 10
0.0
 20
0.5
 11
1.0
 21
1.0
 12
321.080063
 22
235.21615
 13
0.0
 23
0.0
 14
0.5
 24
0.5
 15
0.5
 25
0.5
 16
0.0
 26
0.0
 36
1.0
 17
0.0
 27
0.0
 37
0.0
 40
207.433333
 41
0.085602
 42
50.0
 43
474.778116
 44
-474.778116
 50
0.0
 51
0.0
 71
     0
 72
   100
 73
     1
 74
     3
 75
     0
 76
     0
 77
     0
 78
     0
281
     0
 65
     1
110
0.0
120
0.0
130
0.0
111
1.0
121
0.0
131
0.0
112
0.0
122
1.0
132
0.0
 79
     0
146
0.0
  0
VPORT
  5
2A5
330
8
100
AcDbSymbolTableRecord
100
AcDbViewportTableRecord
  2
L3
 70
     0
 10
0.0
 20
0.0
 11
1.0
 21
0.5
 12
0.0
 22
0.0
 13
0.0
 23
0.0
 14
0.5
 24
0.5
 15
0.5
 25
0.5
 16
0.0
 26
-1.0
 36
0.0
 17
0.0
 27
0.0
 37
0.0
 40
1316.18997
 41
0.013491
 42
50.0
 43
678.00864
 44
-678.00864
 50
0.0
 51
0.0
 71
     0
 72
   100
 73
     1
 74
     3
 75
     0
 76
     0
 77
     0
 78
     0
281
     0
 65
     1
110
0.0
120
0.0
130
0.0
111
1.0
121
0.0
131
0.0
112
0.0
122
1.0
132
0.0
 79
     0
146
0.0
  0
VPORT
  5
2A6
330
8
100
AcDbSymbolTableRecord
100
AcDbViewportTableRecord
  2
L4
 70
     0
 10
0.0
 20
0.5
 11
0.5
 21
1.0
 12
321.080063
 22
235.21615
 13
0.0
 23
0.0
 14
0.5
 24
0.5
 15
0.5
 25
0.5
 16
0.0
 26
0.0
 36
1.0
 17
0.0
 27
0.0
 37
0.0
 40
207.433333
 41
0.085602
 42
50.0
 43
474.778116
 44
-474.778116
 50
0.0
 51
0.0
 71
     0
 72
   100
 73
     1
 74
     3
 75
     0
 76
     0
 77
     0
 78
     0
281
     0
 65
     1
110
0.0
120
0.0
130
0.0
111
1.0
121
0.0
131
0.0
112
0.0
122
1.0
132
0.0
 79
     0
146
0.0
  0
VPORT
  5
2A7
330
8
100
AcDbSymbolTableRecord
100
AcDbViewportTableRecord
  2
L4
 70
     0
 10
0.0
 20
0.0
 11
0.5
 21
0.5
 12
0.0
 22
0.0
 13
0.0
 23
0.0
 14
0.5
 24
0.5
 15
0.5
 25
0.5
 16
0.0
 26
-1.0
 36
0.0
 17
0.0
 27
0.0
 37
0.0
 40
1316.18997
 41
0.013491
 42
50.0
 43
678.00864
 44
-678.00864
 50
0.0
 51
0.0
 71
     0
 72
   100
 73
     1
 74
     3
 75
     0
 76
     0
 77
     0
 78
     0
281
     0
 65
     1
110
0.0
120
0.0
130
0.0
111
1.0
121
0.0
131
0.0
112
0.0
122
1.0
132
0.0
 79
     0
146
0.0
  0
VPORT
  5
2A8
330
8
100
AcDbSymbolTableRecord
100
AcDbViewportTableRecord
  2
L4
 70
     0
 10
0.5
 20
0.0
 11
1.0
 21
0.5
 12
0.0
 22
0.0
 13
0.0
 23
0.0
 14
0.5
 24
0.5
 15
0.5
 25
0.5
 16
1.0
 26
0.0
 36
0.0
 17
0.0
 27
0.0
 37
0.0
 40
1316.18997
 41
0.013491
 42
50.0
 43
666.2177989999999
 44
-666.2177989999999
 50
0.0
 51
0.0
 71
     0
 72
   100
 73
     1
 74
     3
 75
     0
 76
     0
 77
     0
 78
     0
281
     0
 65
     1
110
0.0
120
0.0
130
0.0
111
1.0
121
0.0
131
0.0
112
0.0
122
1.0
132
0.0
 79
     0
146
0.0
  0
VPORT
  5
2A9
330
8
100
AcDbSymbolTableRecord
100
AcDbViewportTableRecord
  2
L4
 70
     0
 10
0.5
 20
0.5
 11
1.0
 21
1.0
 12
0.0
 22
0.0
 13
0.0
 23
0.0
 14
0.5
 24
0.5
 15
0.5
 25
0.5
 16
0.5773502691896259
 26
-0.5773502691896259
 36
0.5773502691896259
 17
0.0
 27
0.0
 37
0.0
 40
1292.532264
 41
0.013738
 42
50.0
 43
673.245608
 44
-673.245608
 50
0.0
 51
0.0
 71
     0
 72
   100
 73
     1
 74
     3
 75
     0
 76
     0
 77
     0
 78
     0
281
     0
 65
     1
110
0.0
120
0.0
130
0.0
111
1.0
121
0.0
131
0.0
112
0.0
122
1.0
132
0.0
 79
     0
146
0.0
  0
VPORT
  5
2AA
330
8
100
AcDbSymbolTableRecord
100
AcDbViewportTableRecord
  2
L6
 70
     0
 10
0.0
 20
0.5
 11
0.333333
 21
1.0
 12
0.0
 22
0.0
 13
0.0
 23
0.0
 14
0.5
 24
0.5
 15
0.5
 25
0.5
 16
0.7188730927569434
 26
-0.5850486126764433
 36
0.3754192287502549
 17
0.0
 27
0.0
 37
0.0
 40
1364.064247
 41
0.013018
 42
50.0
 43
706.2613849999999
 44
-706.2613849999999
 50
0.0
 51
0.0
 71
     0
 72
   100
 73
     1
 74
     3
 75
     0
 76
     0
 77
     0
 78
     0
281
     0
 65
     1
110
0.0
120
0.0
130
0.0
111
1.0
121
0.0
131
0.0
112
0.0
122
1.0
132
0.0
 79
     0
146
0.0
  0
VPORT
  5
2AB
330
8
100
AcDbSymbolTableRecord
100
AcDbViewportTableRecord
  2
L6
 70
     0
 10
0.0
 20
0.0
 11
0.333333
 21
0.5
 12
0.0
 22
0.0
 13
0.0
 23
0.0
 14
0.5
 24
0.5
 15
0.5
 25
0.5
 16
-1.0
 26
0.0
 36
0.0
 17
0.0
 27
0.0
 37
0.0
 40
1316.18997
 41
0.013491
 42
50.0
 43
666.2177989999999
 44
-666.2177989999999
 50
0.0
 51
0.0
 71
     0
 72
   100
 73
     1
 74
     3
 75
     0
 76
     0
 77
     0
 78
     0
281
     0
 65
     1
110
0.0
120
0.0
130
0.0
111
1.0
121
0.0
131
0.0
112
0.0
122
1.0
132
0.0
 79
     0
146
0.0
  0
VPORT
  5
2AC
330
8
100
AcDbSymbolTableRecord
100
AcDbViewportTableRecord
  2
L6
 70
     0
 10
0.333333
 20
0.5
 11
0.666667
 21
1.0
 12
321.080063
 22
235.21615
 13
0.0
 23
0.0
 14
0.5
 24
0.5
 15
0.5
 25
0.5
 16
0.0
 26
0.0
 36
1.0
 17
0.0
 27
0.0
 37
0.0
 40
207.433333
 41
0.085602
 42
50.0
 43
474.778116
 44
-474.778116
 50
0.0
 51
0.0
 71
     0
 72
   100
 73
     1
 74
     3
 75
     0
 76
     0
 77
     0
 78
     0
281
     0
 65
     1
110
0.0
120
0.0
130
0.0
111
1.0
121
0.0
131
0.0
112
0.0
122
1.0
132
0.0
 79
     0
146
0.0
  0
VPORT
  5
2AD
330
8
100
AcDbSymbolTableRecord
100
AcDbViewportTableRecord
  2
L6
 70
     0
 10
0.333333
 20
0.0
 11
0.666667
 21
0.5
 12
0.0
 22
0.0
 13
0.0
 23
0.0
 14
0.5
 24
0.5
 15
0.5
 25
0.5
 16
0.0
 26
-1.0
 36
0.0
 17
0.0
 27
0.0
 37
0.0
 40
1316.18997
 41
0.013491
 42
50.0
 43
678.00864
 44
-678.00864
 50
0.0
 51
0.0
 71
     0
 72
   100
 73
     1
 74
     3
 75
     0
 76
     0
 77
     0
 78
     0
281
     0
 65
     1
110
0.0
120
0.0
130
0.0
111
1.0
121
0.0
131
0.0
112
0.0
122
1.0
132
0.0
 79
     0
146
0.0
  0
VPORT
  5
2AE
330
8
100
AcDbSymbolTableRecord
100
AcDbViewportTableRecord
  2
L6
 70
     0
 10
0.666667
 20
0.5
 11
1.0
 21
1.0
 12
0.0
 22
0.0
 13
0.0
 23
0.0
 14
0.5
 24
0.5
 15
0.5
 25
0.5
 16
0.5773502691896259
 26
-0.5773502691896259
 36
0.5773502691896259
 17
0.0
 27
0.0
 37
0.0
 40
1292.532264
 41
0.013738
 42
50.0
 43
673.245608
 44
-673.245608
 50
0.0
 51
0.0
 71
     0
 72
   100
 73
     1
 74
     3
 75
     0
 76
     0
 77
     0
 78
     0
281
     0
 65
     1
110
0.0
120
0.0
130
0.0
111
1.0
121
0.0
131
0.0
112
0.0
122
1.0
132
0.0
 79
     0
146
0.0
  0
VPORT
  5
2AF
330
8
100
AcDbSymbolTableRecord
100
AcDbViewportTableRecord
  2
L6
 70
     0
 10
0.666667
 20
0.0
 11
1.0
 21
0.5
 12
0.0
 22
0.0
 13
0.0
 23
0.0
 14
0.5
 24
0.5
 15
0.5
 25
0.5
 16
1.0
 26
0.0
 36
0.0
 17
0.0
 27
0.0
 37
0.0
 40
1316.18997
 41
0.013491
 42
50.0
 43
666.2177989999999
 44
-666.2177989999999
 50
0.0
 51
0.0
 71
     0
 72
   100
 73
     1
 74
     3
 75
     0
 76
     0
 77
     0
 78
     0
281
     0
 65
     1
110
0.0
120
0.0
130
0.0
111
1.0
121
0.0
131
0.0
112
0.0
122
1.0
132
0.0
 79
     0
146
0.0
  0
ENDTAB
  0
TABLE
  2
LTYPE
  5
5
330
0
100
AcDbSymbolTable
 70
     7
  0
LTYPE
  5
14
330
5
100
AcDbSymbolTableRecord
100
AcDbLinetypeTableRecord
  2
ByBlock
 70
     0
  3

 72
    65
 73
     0
 40
0.0
  0
LTYPE
  5
15
330
5
100
AcDbSymbolTableRecord
100
AcDbLinetypeTableRecord
  2
ByLayer
 70
     0
  3

 72
    65
 73
     0
 40
0.0
  0
LTYPE
  5
16
330
5
100
AcDbSymbolTableRecord
100
AcDbLinetypeTableRecord
  2
Continuous
 70
     0
  3
Solid line
 72
    65
 73
     0
 40
0.0
  0
LTYPE
  5
6E
330
5
100
AcDbSymbolTableRecord
100
AcDbLinetypeTableRecord
  2
CENTER
 70
     0
  3
____ _ ____ _ ____ _ ____
 72
    65
 73
     4
 40
47.4
 49
22.0
 74
     4
 75
     0
340
0
 46
0.0
 50
0.0
 44
0.0
 45
0.0
 49
-8.5
 74
     4
 75
     0
340
0
 46
0.0
 50
0.0
 44
0.0
 45
0.0
 49
8.5
 74
     4
 75
     0
340
0
 46
0.0
 50
0.0
 44
0.0
 45
0.0
 49
-8.5
 74
     4
 75
     0
340
0
 46
0.0
 50
0.0
 44
0.0
 45
0.0
  0
LTYPE
  5
6F
330
5
100
AcDbSymbolTableRecord
100
AcDbLinetypeTableRecord
  2
DASHDOT
 70
     0
  3
_._._._._._._._._._._._._._._._.
 72
    65
 73
     4
 40
70.0
 49
31.0
 74
     4
 75
     0
340
0
 46
0.0
 50
0.0
 44
0.0
 45
0.0
 49
-13.0
 74
     4
 75
     0
340
0
 46
0.0
 50
0.0
 44
0.0
 45
0.0
 49
13.0
 74
     4
 75
     0
340
0
 46
0.0
 50
0.0
 44
0.0
 45
0.0
 49
-13.0
 74
     4
 75
     0
340
0
 46
0.0
 50
0.0
 44
0.0
 45
0.0
  0
LTYPE
  5
70
330
5
100
AcDbSymbolTableRecord
100
AcDbLinetypeTableRecord
  2
DASHED
 70
     0
  3
__ __ __ __ __ __ __ __ __
 72
    65
 73
     2
 40
25.72
 49
12.86
 74
     4
 75
     0
340
0
 46
0.0
 50
0.0
 44
0.0
 45
0.0
 49
-12.86
 74
     4
 75
     0
340
0
 46
0.0
 50
0.0
 44
0.0
 45
0.0
  0
LTYPE
  5
71
330
5
100
AcDbSymbolTableRecord
100
AcDbLinetypeTableRecord
  2
DOT
 70
     0
  3
.........................
 72
    65
 73
     2
 40
10.0
 49
0.0
 74
     4
 75
     0
340
0
 46
0.0
 50
0.0
 44
0.0
 45
0.0
 49
-10.0
 74
     4
 75
     0
340
0
 46
0.0
 50
0.0
 44
0.0
 45
0.0
  0
LTYPE
  5
72
330
5
100
AcDbSymbolTableRecord
100
AcDbLinetypeTableRecord
  2
PHANTOM
 70
     0
  3
____ _ _ ____ _ _ _____ _ _ ____
 72
    65
 73
     6
 40
50.5
 49
18.0
 74
     4
 75
     0
340
0
 46
0.0
 50
0.0
 44
0.0
 45
0.0
 49
-6.5
 74
     4
 75
     0
340
0
 46
0.0
 50
0.0
 44
0.0
 45
0.0
 49
6.5
 74
     4
 75
     0
340
0
 46
0.0
 50
0.0
 44
0.0
 45
0.0
 49
-6.5
 74
     4
 75
     0
340
0
 46
0.0
 50
0.0
 44
0.0
 45
0.0
 49
6.5
 74
     4
 75
     0
340
0
 46
0.0
 50
0.0
 44
0.0
 45
0.0
 49
-6.5
 74
     4
 75
     0
340
0
 46
0.0
 50
0.0
 44
0.0
 45
0.0
  0
LTYPE
  5
33F
330
5
100
AcDbSymbolTableRecord
100
AcDbLinetypeTableRecord
  2
CENTER2
 70
     0
  3
Center (.5x) ___ _ ___ _ ___ _ ___ _ ___ _ ___
 72
    65
 73
     4
 40
1.125
 49
0.75
 74
     0
 49
-0.125
 74
     0
 49
0.125
 74
     0
 49
-0.125
 74
     0
  0
ENDTAB
  0
TABLE
  2
LAYER
  5
2
330
0
100
AcDbSymbolTable
 70
    22
  0
LAYER
  5
10
102
{ACAD_XDICTIONARY
360
34A
102
}
330
2
100
AcDbSymbolTableRecord
100
AcDbLayerTableRecord
  2
0
 70
     0
 62
     7
  6
Continuous
370
    -3
390
F
  0
LAYER
  5
1FB
330
2
100
AcDbSymbolTableRecord
100
AcDbLayerTableRecord
  2
Defpoints
 70
     0
 62
     7
  6
Continuous
290
     0
370
    -3
390
F
  0
LAYER
  5
33C
102
{ACAD_XDICTIONARY
360
34C
102
}
330
2
100
AcDbSymbolTableRecord
100
AcDbLayerTableRecord
  2
1
 70
     0
 62
     4
  6
Continuous
370
    -3
390
F
  0
LAYER
  5
33D
102
{ACAD_XDICTIONARY
360
34E
102
}
330
2
100
AcDbSymbolTableRecord
100
AcDbLayerTableRecord
  2
2
 70
     0
 62
     7
  6
Continuous
370
    -3
390
F
  0
LAYER
  5
33E
102
{ACAD_XDICTIONARY
360
350
102
}
330
2
100
AcDbSymbolTableRecord
100
AcDbLayerTableRecord
  2
4
 70
     0
 62
     2
  6
CENTER2
370
    -3
390
F
  0
LAYER
  5
340
102
{ACAD_XDICTIONARY
360
352
102
}
330
2
100
AcDbSymbolTableRecord
100
AcDbLayerTableRecord
  2
SK1
 70
     0
 62
     4
  6
Continuous
370
    -3
390
F
  0
LAYER
  5
341
102
{ACAD_XDICTIONARY
360
354
102
}
330
2
100
AcDbSymbolTableRecord
100
AcDbLayerTableRecord
  2
SK2
 70
     0
 62
     7
  6
Continuous
370
    -3
390
F
  0
LAYER
  5
343
102
{ACAD_XDICTIONARY
360
356
102
}
330
2
100
AcDbSymbolTableRecord
100
AcDbLayerTableRecord
  2
SK4
 70
     0
 62
     2
  6
CENTER2
370
    -3
390
F
  0
LAYER
  5
344
102
{ACAD_XDICTIONARY
360
358
102
}
330
2
100
AcDbSymbolTableRecord
100
AcDbLayerTableRecord
  2
SK6
 70
     0
 62
     5
  6
Continuous
370
    -3
390
F
  0
LAYER
  5
345
102
{ACAD_XDICTIONARY
360
35A
102
}
330
2
100
AcDbSymbolTableRecord
100
AcDbLayerTableRecord
  2
CUT
 70
     0
 62
     1
  6
Continuous
370
    -3
390
F
  0
LAYER
  5
346
102
{ACAD_XDICTIONARY
360
35C
102
}
330
2
100
AcDbSymbolTableRecord
100
AcDbLayerTableRecord
  2
NOCUT
 70
     0
 62
     7
  6
Continuous
370
    -3
390
F
  0
LAYER
  5
347
102
{ACAD_XDICTIONARY
360
35E
102
}
330
2
100
AcDbSymbolTableRecord
100
AcDbLayerTableRecord
  2
80
 70
     0
 62
     6
  6
Continuous
370
    -3
390
F
  0
LAYER
  5
348
102
{ACAD_XDICTIONARY
360
360
102
}
330
2
100
AcDbSymbolTableRecord
100
AcDbLayerTableRecord
  2
81
 70
     0
 62
     3
  6
Continuous
370
    -3
390
F
  0
ENDTAB
  0
TABLE
  2
STYLE
  5
3
330
0
100
AcDbSymbolTable
 70
     3
  0
STYLE
  5
11
330
3
100
AcDbSymbolTableRecord
100
AcDbTextStyleTableRecord
  2
Standard
 70
     0
 40
0.0
 41
1.0
 50
0.0
 71
     0
 42
0.2
  3
txt
  4

  0
STYLE
  5
1F4
330
3
100
AcDbSymbolTableRecord
100
AcDbTextStyleTableRecord
  2
cesky
 70
     0
 40
0.0
 41
1.0
 50
0.0
 71
     0
 42
0.2
  3
simplex.shx
  4

  0
STYLE
  5
1F5
330
3
100
AcDbSymbolTableRecord
100
AcDbTextStyleTableRecord
  2
DWGDirectTextStyle
 70
     0
 40
0.0
 41
1.0
 50
0.0
 71
     0
 42
0.2
  3
simplex
  4

  0
ENDTAB
  0
TABLE
  2
VIEW
  5
6
330
0
100
AcDbSymbolTable
 70
     0
  0
ENDTAB
  0
TABLE
  2
UCS
  5
7
330
0
100
AcDbSymbolTable
 70
     0
  0
ENDTAB
  0
TABLE
  2
APPID
  5
9
330
0
100
AcDbSymbolTable
 70
     7
  0
APPID
  5
12
330
9
100
AcDbSymbolTableRecord
100
AcDbRegAppTableRecord
  2
ACAD
 70
     0
  0
APPID
  5
1F7
330
9
100
AcDbSymbolTableRecord
100
AcDbRegAppTableRecord
  2
ACAD_DSTYLE_DIMBREAK
 70
     0
  0
APPID
  5
2B0
330
9
100
AcDbSymbolTableRecord
100
AcDbRegAppTableRecord
  2
ACAD_DSTYLE_DIM_LINETYPE
 70
     0
  0
APPID
  5
2B1
330
9
100
AcDbSymbolTableRecord
100
AcDbRegAppTableRecord
  2
ACAD_DSTYLE_DIM_EXT1_LINETYPE
 70
     0
  0
APPID
  5
2B2
330
9
100
AcDbSymbolTableRecord
100
AcDbRegAppTableRecord
  2
ACAD_DSTYLE_DIM_EXT2_LINETYPE
 70
     0
  0
APPID
  5
2F2
330
9
100
AcDbSymbolTableRecord
100
AcDbRegAppTableRecord
  2
ACAD_MLEADERVER
 70
     0
  0
APPID
  5
365
330
9
100
AcDbSymbolTableRecord
100
AcDbRegAppTableRecord
  2
ACAD_NAV_VCDISPLAY
 70
     0
  0
ENDTAB
  0
TABLE
  2
DIMSTYLE
  5
A
330
0
100
AcDbSymbolTable
 70
     1
100
AcDbDimStyleTable
 71
     0
  0
DIMSTYLE
105
27
330
A
100
AcDbSymbolTableRecord
100
AcDbDimStyleTableRecord
  2
Standard
 70
     0
340
11
1001
ACAD_DSTYLE_DIMBREAK
1070
   391
1040
6.349999999999999
  0
ENDTAB
  0
TABLE
  2
BLOCK_RECORD
  5
1
330
0
100
AcDbSymbolTable
 70
    16
  0
BLOCK_RECORD
  5
1F
102
{ACAD_XDICTIONARY
360
302
102
}
330
1
100
AcDbSymbolTableRecord
100
AcDbBlockTableRecord
  2
*Model_Space
340
22
  0
BLOCK_RECORD
  5
1B
330
1
100
AcDbSymbolTableRecord
100
AcDbBlockTableRecord
  2
*Paper_Space
340
1E
  0
BLOCK_RECORD
  5
23
330
1
100
AcDbSymbolTableRecord
100
AcDbBlockTableRecord
  2
*Paper_Space0
340
26
  0
BLOCK_RECORD
  5
1EE
330
1
100
AcDbSymbolTableRecord
100
AcDbBlockTableRecord
  2
ASSORTED_DRAFT1
340
0
  0
BLOCK_RECORD
  5
1FC
330
1
100
AcDbSymbolTableRecord
100
AcDbBlockTableRecord
  2
*D2
340
0
  0
BLOCK_RECORD
  5
208
330
1
100
AcDbSymbolTableRecord
100
AcDbBlockTableRecord
  2
_U0
340
0
  0
BLOCK_RECORD
  5
214
330
1
100
AcDbSymbolTableRecord
100
AcDbBlockTableRecord
  2
*D4
340
0
  0
BLOCK_RECORD
  5
220
330
1
100
AcDbSymbolTableRecord
100
AcDbBlockTableRecord
  2
_U1
340
0
  0
BLOCK_RECORD
  5
22C
330
1
100
AcDbSymbolTableRecord
100
AcDbBlockTableRecord
  2
*D6
340
0
  0
BLOCK_RECORD
  5
238
330
1
100
AcDbSymbolTableRecord
100
AcDbBlockTableRecord
  2
_U2
340
0
  0
BLOCK_RECORD
  5
244
330
1
100
AcDbSymbolTableRecord
100
AcDbBlockTableRecord
  2
*D8
340
0
  0
BLOCK_RECORD
  5
250
330
1
100
AcDbSymbolTableRecord
100
AcDbBlockTableRecord
  2
_U3
340
0
  0
BLOCK_RECORD
  5
25C
330
1
100
AcDbSymbolTableRecord
100
AcDbBlockTableRecord
  2
*D10
340
0
  0
BLOCK_RECORD
  5
267
330
1
100
AcDbSymbolTableRecord
100
AcDbBlockTableRecord
  2
_U4
340
0
  0
BLOCK_RECORD
  5
272
330
1
100
AcDbSymbolTableRecord
100
AcDbBlockTableRecord
  2
*D12
340
0
  0
BLOCK_RECORD
  5
27E
330
1
100
AcDbSymbolTableRecord
100
AcDbBlockTableRecord
  2
_U5
340
0
  0
BLOCK_RECORD
  5
28B
330
1
100
AcDbSymbolTableRecord
100
AcDbBlockTableRecord
  2
*D14
340
0
  0
BLOCK_RECORD
  5
297
330
1
100
AcDbSymbolTableRecord
100
AcDbBlockTableRecord
  2
_U6
340
0
  0
ENDTAB
  0
ENDSEC
  0
SECTION
  2
BLOCKS
  0
BLOCK
  5
20
330
1F
100
AcDbEntity
  8
0
100
AcDbBlockBegin
  2
*Model_Space
 70
     0
 10
0.0
 20
0.0
 30
0.0
  3
*Model_Space
  1

  0
ENDBLK
  5
21
330
1F
100
AcDbEntity
  8
0
100
AcDbBlockEnd
  0
BLOCK
  5
1C
330
1B
100
AcDbEntity
 67
     1
  8
0
100
AcDbBlockBegin
  2
*Paper_Space
 70
     0
 10
0.0
 20
0.0
 30
0.0
  3
*Paper_Space
  1

  0
ENDBLK
  5
1D
330
1B
100
AcDbEntity
 67
     1
  8
0
100
AcDbBlockEnd
  0
BLOCK
  5
24
330
23
100
AcDbEntity
 67
     1
  8
0
100
AcDbBlockBegin
  2
*Paper_Space0
 70
     0
 10
0.0
 20
0.0
 30
0.0
  3
*Paper_Space0
  1

  0
ENDBLK
  5
25
330
23
100
AcDbEntity
 67
     1
  8
0
100
AcDbBlockEnd
  0
BLOCK
  5
1F1
330
1EE
100
AcDbEntity
  8
0
100
AcDbBlockBegin
  2
ASSORTED_DRAFT1
 70
     0
 10
0.0
 20
0.0
 30
0.0
  3
ASSORTED_DRAFT1
  1

  0
SOLID
  5
1EF
330
1EE
100
AcDbEntity
  8
0
 62
   254
370
    13
100
AcDbTrace
 10
270.185042
 20
164.534924
 30
0.0
 11
265.185046
 21
163.42645
 31
0.0
 12
265.1850379999999
 22
165.643397
 32
0.0
 13
270.185042
 23
164.534924
 33
0.0
  0
ENDBLK
  5
1F2
330
1EE
100
AcDbEntity
  8
0
100
AcDbBlockEnd
  0
BLOCK
  5
1FD
330
1FC
100
AcDbEntity
  8
0
100
AcDbBlockBegin
  2
*D2
 70
     1
 10
0.0
 20
0.0
 30
0.0
  3
*D2
  1

  0
LINE
  5
1FF
330
1FC
100
AcDbEntity
  8
0
 62
   254
370
    -2
100
AcDbLine
 10
439.4048419999999
 20
306.407994
 30
0.0
 11
439.4048419999999
 21
334.9472990000001
 31
0.0
  0
LINE
  5
200
330
1FC
100
AcDbEntity
  8
0
 62
   254
370
    -2
100
AcDbLine
 10
274.404842
 20
288.907994
 30
0.0
 11
274.404842
 21
334.9472990000001
 31
0.0
  0
LINE
  5
201
330
1FC
100
AcDbEntity
  8
0
 62
   254
370
    -2
100
AcDbLine
 10
435.9048419999999
 20
333.947299
 30
0.0
 11
277.904842
 21
333.947299
 31
0.0
  0
SOLID
  5
202
330
1FC
100
AcDbEntity
  8
0
 62
   254
100
AcDbTrace
 10
435.9048419999999
 20
333.363965
 30
0.0
 11
435.9048419999999
 21
334.530632
 31
0.0
 12
439.4048419999999
 22
333.947299
 32
0.0
 13
439.4048419999999
 23
333.947299
 33
0.0
  0
SOLID
  5
203
330
1FC
100
AcDbEntity
  8
0
 62
   254
100
AcDbTrace
 10
277.904842
 20
334.530632
 30
0.0
 11
277.904842
 21
333.363965
 31
0.0
 12
274.404842
 22
333.947299
 32
0.0
 13
274.404842
 23
333.947299
 33
0.0
  0
MTEXT
  5
204
330
1FC
100
AcDbEntity
  8
0
 62
   254
370
    13
100
AcDbMText
 10
356.904842
 20
339.1972990000001
 30
0.0
 40
3.5
 41
0.0
 71
     5
 72
     1
  1
\A1;165
  7
cesky
 73
     1
 44
1.0
  0
POINT
  5
205
330
1FC
100
AcDbEntity
  8
Defpoints
 62
     0
100
AcDbPoint
 10
439.4048419999999
 20
306.407994
 30
0.0
  0
POINT
  5
206
330
1FC
100
AcDbEntity
  8
Defpoints
 62
     0
100
AcDbPoint
 10
274.404842
 20
288.907994
 30
0.0
  0
POINT
  5
207
330
1FC
100
AcDbEntity
  8
Defpoints
 62
     0
100
AcDbPoint
 10
274.404842
 20
333.947299
 30
0.0
  0
ENDBLK
  5
1FE
330
1FC
100
AcDbEntity
  8
0
100
AcDbBlockEnd
  0
BLOCK
  5
20F
330
208
100
AcDbEntity
  8
0
100
AcDbBlockBegin
  2
_U0
 70
     0
 10
0.0
 20
0.0
 30
0.0
  3
_U0
  1

  0
ENDBLK
  5
210
330
208
100
AcDbEntity
  8
0
100
AcDbBlockEnd
  0
BLOCK
  5
215
330
214
100
AcDbEntity
  8
0
100
AcDbBlockBegin
  2
*D4
 70
     1
 10
0.0
 20
0.0
 30
0.0
  3
*D4
  1

  0
LINE
  5
217
330
214
100
AcDbEntity
  8
0
 62
   254
370
    -2
100
AcDbLine
 10
439.4048419999999
 20
308.407994
 30
0.0
 11
439.4048419999999
 21
348.392842
 31
0.0
  0
LINE
  5
218
330
214
100
AcDbEntity
  8
0
 62
   254
370
    -2
100
AcDbLine
 10
214.404842
 20
302.907994
 30
0.0
 11
214.404842
 21
348.392842
 31
0.0
  0
LINE
  5
219
330
214
100
AcDbEntity
  8
0
 62
   254
370
    -2
100
AcDbLine
 10
435.9048419999999
 20
347.392842
 30
0.0
 11
217.904842
 21
347.392842
 31
0.0
  0
SOLID
  5
21A
330
214
100
AcDbEntity
  8
0
 62
   254
100
AcDbTrace
 10
435.9048419999999
 20
346.809508
 30
0.0
 11
435.9048419999999
 21
347.976175
 31
0.0
 12
439.4048419999999
 22
347.392842
 32
0.0
 13
439.4048419999999
 23
347.392842
 33
0.0
  0
SOLID
  5
21B
330
214
100
AcDbEntity
  8
0
 62
   254
100
AcDbTrace
 10
217.904842
 20
347.976175
 30
0.0
 11
217.904842
 21
346.809508
 31
0.0
 12
214.404842
 22
347.392842
 32
0.0
 13
214.404842
 23
347.392842
 33
0.0
  0
MTEXT
  5
21C
330
214
100
AcDbEntity
  8
0
 62
   254
370
    13
100
AcDbMText
 10
326.904842
 20
352.642842
 30
0.0
 40
3.5
 41
0.0
 71
     5
 72
     1
  1
\A1;225
  7
cesky
 73
     1
 44
1.0
  0
POINT
  5
21D
330
214
100
AcDbEntity
  8
Defpoints
 62
     0
100
AcDbPoint
 10
439.4048419999999
 20
308.407994
 30
0.0
  0
POINT
  5
21E
330
214
100
AcDbEntity
  8
Defpoints
 62
     0
100
AcDbPoint
 10
214.404842
 20
302.907994
 30
0.0
  0
POINT
  5
21F
330
214
100
AcDbEntity
  8
Defpoints
 62
     0
100
AcDbPoint
 10
214.404842
 20
347.392842
 30
0.0
  0
ENDBLK
  5
216
330
214
100
AcDbEntity
  8
0
100
AcDbBlockEnd
  0
BLOCK
  5
227
330
220
100
AcDbEntity
  8
0
100
AcDbBlockBegin
  2
_U1
 70
     0
 10
0.0
 20
0.0
 30
0.0
  3
_U1
  1

  0
ENDBLK
  5
228
330
220
100
AcDbEntity
  8
0
100
AcDbBlockEnd
  0
BLOCK
  5
22D
330
22C
100
AcDbEntity
  8
0
100
AcDbBlockBegin
  2
*D6
 70
     1
 10
0.0
 20
0.0
 30
0.0
  3
*D6
  1

  0
LINE
  5
22F
330
22C
100
AcDbEntity
  8
0
 62
   254
370
    -2
100
AcDbLine
 10
274.404842
 20
288.907994
 30
0.0
 11
274.404842
 21
334.9472990000001
 31
0.0
  0
LINE
  5
230
330
22C
100
AcDbEntity
  8
0
 62
   254
370
    -2
100
AcDbLine
 10
214.404842
 20
295.907994
 30
0.0
 11
214.404842
 21
334.9472990000001
 31
0.0
  0
LINE
  5
231
330
22C
100
AcDbEntity
  8
0
 62
   254
370
    -2
100
AcDbLine
 10
270.904842
 20
333.947299
 30
0.0
 11
217.904842
 21
333.947299
 31
0.0
  0
SOLID
  5
232
330
22C
100
AcDbEntity
  8
0
 62
   254
100
AcDbTrace
 10
270.904842
 20
333.363965
 30
0.0
 11
270.904842
 21
334.530632
 31
0.0
 12
274.404842
 22
333.947299
 32
0.0
 13
274.404842
 23
333.947299
 33
0.0
  0
SOLID
  5
233
330
22C
100
AcDbEntity
  8
0
 62
   254
100
AcDbTrace
 10
217.904842
 20
334.530632
 30
0.0
 11
217.904842
 21
333.363965
 31
0.0
 12
214.404842
 22
333.947299
 32
0.0
 13
214.404842
 23
333.947299
 33
0.0
  0
MTEXT
  5
234
330
22C
100
AcDbEntity
  8
0
 62
   254
370
    13
100
AcDbMText
 10
244.404842
 20
339.1972990000001
 30
0.0
 40
3.5
 41
0.0
 71
     5
 72
     1
  1
\A1;60
  7
cesky
 73
     1
 44
1.0
  0
POINT
  5
235
330
22C
100
AcDbEntity
  8
Defpoints
 62
     0
100
AcDbPoint
 10
274.404842
 20
288.907994
 30
0.0
  0
POINT
  5
236
330
22C
100
AcDbEntity
  8
Defpoints
 62
     0
100
AcDbPoint
 10
214.404842
 20
295.907994
 30
0.0
  0
POINT
  5
237
330
22C
100
AcDbEntity
  8
Defpoints
 62
     0
100
AcDbPoint
 10
214.404842
 20
333.947299
 30
0.0
  0
ENDBLK
  5
22E
330
22C
100
AcDbEntity
  8
0
100
AcDbBlockEnd
  0
BLOCK
  5
23F
330
238
100
AcDbEntity
  8
0
100
AcDbBlockBegin
  2
_U2
 70
     0
 10
0.0
 20
0.0
 30
0.0
  3
_U2
  1

  0
ENDBLK
  5
240
330
238
100
AcDbEntity
  8
0
100
AcDbBlockEnd
  0
BLOCK
  5
245
330
244
100
AcDbEntity
  8
0
100
AcDbBlockBegin
  2
*D8
 70
     1
 10
0.0
 20
0.0
 30
0.0
  3
*D8
  1

  0
LINE
  5
247
330
244
100
AcDbEntity
  8
0
 62
   254
370
    -2
100
AcDbLine
 10
439.4048419999999
 20
306.407994
 30
0.0
 11
439.4048419999999
 21
321.118433
 31
0.0
  0
LINE
  5
248
330
244
100
AcDbEntity
  8
0
 62
   254
370
    -2
100
AcDbLine
 10
290.425356
 20
306.18129
 30
0.0
 11
290.425356
 21
321.118433
 31
0.0
  0
LINE
  5
249
330
244
100
AcDbEntity
  8
0
 62
   254
370
    -2
100
AcDbLine
 10
435.9048419999999
 20
320.118433
 30
0.0
 11
293.925356
 21
320.118433
 31
0.0
  0
SOLID
  5
24A
330
244
100
AcDbEntity
  8
0
 62
   254
100
AcDbTrace
 10
435.9048419999999
 20
319.5351
 30
0.0
 11
435.9048419999999
 21
320.701766
 31
0.0
 12
439.4048419999999
 22
320.118433
 32
0.0
 13
439.4048419999999
 23
320.118433
 33
0.0
  0
SOLID
  5
24B
330
244
100
AcDbEntity
  8
0
 62
   254
100
AcDbTrace
 10
293.925356
 20
320.701766
 30
0.0
 11
293.925356
 21
319.5351
 31
0.0
 12
290.425356
 22
320.118433
 32
0.0
 13
290.425356
 23
320.118433
 33
0.0
  0
MTEXT
  5
24C
330
244
100
AcDbEntity
  8
0
 62
   254
370
    13
100
AcDbMText
 10
364.915099
 20
325.368433
 30
0.0
 40
3.5
 41
0.0
 71
     5
 72
     1
  1
\A1;149
  7
cesky
 73
     1
 44
1.0
  0
POINT
  5
24D
330
244
100
AcDbEntity
  8
Defpoints
 62
     0
100
AcDbPoint
 10
439.4048419999999
 20
306.407994
 30
0.0
  0
POINT
  5
24E
330
244
100
AcDbEntity
  8
Defpoints
 62
     0
100
AcDbPoint
 10
290.425356
 20
306.18129
 30
0.0
  0
POINT
  5
24F
330
244
100
AcDbEntity
  8
Defpoints
 62
     0
100
AcDbPoint
 10
290.425356
 20
320.118433
 30
0.0
  0
ENDBLK
  5
246
330
244
100
AcDbEntity
  8
0
100
AcDbBlockEnd
  0
BLOCK
  5
257
330
250
100
AcDbEntity
  8
0
100
AcDbBlockBegin
  2
_U3
 70
     0
 10
0.0
 20
0.0
 30
0.0
  3
_U3
  1

  0
ENDBLK
  5
258
330
250
100
AcDbEntity
  8
0
100
AcDbBlockEnd
  0
BLOCK
  5
25D
330
25C
100
AcDbEntity
  8
0
100
AcDbBlockBegin
  2
*D10
 70
     1
 10
0.0
 20
0.0
 30
0.0
  3
*D10
  1

  0
LINE
  5
25F
330
25C
100
AcDbEntity
  8
0
 62
   254
370
    -2
100
AcDbLine
 10
289.987847
 20
288.907994
 30
0.0
 11
455.9183299999999
 21
288.907994
 31
0.0
  0
LINE
  5
260
330
25C
100
AcDbEntity
  8
0
 62
   254
370
    -2
100
AcDbLine
 10
330.83929
 20
306.407994
 30
0.0
 11
455.9183299999999
 21
306.407994
 31
0.0
  0
LINE
  5
261
330
25C
100
AcDbEntity
  8
0
 62
   254
370
    -2
100
AcDbLine
 10
454.91833
 20
288.907994
 30
0.0
 11
454.91833
 21
306.407994
 31
0.0
  0
SOLID
  5
262
330
25C
100
AcDbEntity
  8
0
 62
   254
100
AcDbTrace
 10
455.5016629999999
 20
302.907994
 30
0.0
 11
454.334997
 21
302.907994
 31
0.0
 12
454.91833
 22
306.407994
 32
0.0
 13
454.91833
 23
306.407994
 33
0.0
  0
MTEXT
  5
263
330
25C
100
AcDbEntity
  8
0
 62
   254
370
    13
100
AcDbMText
 10
449.6683299999999
 20
279.07466
 30
0.0
 40
3.5
 41
0.0
 71
     5
 72
     1
  1
\A1;35
  7
cesky
 11
0.0
 21
1.0
 31
0.0
 73
     1
 44
1.0
  0
POINT
  5
264
330
25C
100
AcDbEntity
  8
Defpoints
 62
     0
100
AcDbPoint
 10
289.987847
 20
288.907994
 30
0.0
  0
POINT
  5
265
330
25C
100
AcDbEntity
  8
Defpoints
 62
     0
100
AcDbPoint
 10
330.83929
 20
306.407994
 30
0.0
  0
POINT
  5
266
330
25C
100
AcDbEntity
  8
Defpoints
 62
     0
100
AcDbPoint
 10
454.91833
 20
306.407994
 30
0.0
  0
ENDBLK
  5
25E
330
25C
100
AcDbEntity
  8
0
100
AcDbBlockEnd
  0
BLOCK
  5
26D
330
267
100
AcDbEntity
  8
0
100
AcDbBlockBegin
  2
_U4
 70
     0
 10
0.0
 20
0.0
 30
0.0
  3
_U4
  1

  0
ENDBLK
  5
26E
330
267
100
AcDbEntity
  8
0
100
AcDbBlockEnd
  0
BLOCK
  5
273
330
272
100
AcDbEntity
  8
0
100
AcDbBlockBegin
  2
*D12
 70
     1
 10
0.0
 20
0.0
 30
0.0
  3
*D12
  1

  0
LINE
  5
275
330
272
100
AcDbEntity
  8
0
 62
    95
370
    -2
100
AcDbLine
 10
216.404842
 20
304.907994
 30
0.0
 11
203.66833
 21
304.907994
 31
0.0
  0
LINE
  5
276
330
272
100
AcDbEntity
  8
0
 62
    95
370
    -2
100
AcDbLine
 10
216.404842
 20
272.907994
 30
0.0
 11
203.66833
 21
272.907994
 31
0.0
  0
LINE
  5
277
330
272
100
AcDbEntity
  8
0
 62
    95
370
    -2
100
AcDbLine
 10
204.66833
 20
301.407994
 30
0.0
 11
204.66833
 21
276.407994
 31
0.0
  0
SOLID
  5
278
330
272
100
AcDbEntity
  8
0
 62
    95
100
AcDbTrace
 10
205.251663
 20
301.407994
 30
0.0
 11
204.084996
 21
301.407994
 31
0.0
 12
204.66833
 22
304.907994
 32
0.0
 13
204.66833
 23
304.907994
 33
0.0
  0
SOLID
  5
279
330
272
100
AcDbEntity
  8
0
 62
    95
100
AcDbTrace
 10
204.084996
 20
276.407994
 30
0.0
 11
205.251663
 21
276.407994
 31
0.0
 12
204.66833
 22
272.907994
 32
0.0
 13
204.66833
 23
272.907994
 33
0.0
  0
MTEXT
  5
27A
330
272
100
AcDbEntity
  8
0
 62
    95
370
    13
100
AcDbMText
 10
199.41833
 20
288.907994
 30
0.0
 40
3.5
 41
0.0
 71
     5
 72
     1
  1
\A1;32
  7
cesky
 11
0.0
 21
1.0
 31
0.0
 73
     1
 44
1.0
  0
POINT
  5
27B
330
272
100
AcDbEntity
  8
Defpoints
 62
     0
100
AcDbPoint
 10
216.404842
 20
304.907994
 30
0.0
  0
POINT
  5
27C
330
272
100
AcDbEntity
  8
Defpoints
 62
     0
100
AcDbPoint
 10
216.404842
 20
272.907994
 30
0.0
  0
POINT
  5
27D
330
272
100
AcDbEntity
  8
Defpoints
 62
     0
100
AcDbPoint
 10
204.66833
 20
272.907994
 30
0.0
  0
ENDBLK
  5
274
330
272
100
AcDbEntity
  8
0
100
AcDbBlockEnd
  0
BLOCK
  5
286
330
27E
100
AcDbEntity
  8
0
100
AcDbBlockBegin
  2
_U5
 70
     0
 10
0.0
 20
0.0
 30
0.0
  3
_U5
  1

  0
ENDBLK
  5
287
330
27E
100
AcDbEntity
  8
0
100
AcDbBlockEnd
  0
BLOCK
  5
28C
330
28B
100
AcDbEntity
  8
0
100
AcDbBlockBegin
  2
*D14
 70
     1
 10
0.0
 20
0.0
 30
0.0
  3
*D14
  1

  0
LINE
  5
28E
330
28B
100
AcDbEntity
  8
0
 62
    95
370
    -2
100
AcDbLine
 10
277.154842
 20
309.907994
 30
0.0
 11
191.104285
 21
309.907994
 31
0.0
  0
LINE
  5
28F
330
28B
100
AcDbEntity
  8
0
 62
    95
370
    -2
100
AcDbLine
 10
277.154842
 20
267.907994
 30
0.0
 11
191.104285
 21
267.907994
 31
0.0
  0
LINE
  5
290
330
28B
100
AcDbEntity
  8
0
 62
    95
370
    -2
100
AcDbLine
 10
192.104285
 20
306.407994
 30
0.0
 11
192.104285
 21
271.407994
 31
0.0
  0
SOLID
  5
291
330
28B
100
AcDbEntity
  8
0
 62
    95
100
AcDbTrace
 10
192.687618
 20
306.407994
 30
0.0
 11
191.520952
 21
306.407994
 31
0.0
 12
192.104285
 22
309.907994
 32
0.0
 13
192.104285
 23
309.907994
 33
0.0
  0
SOLID
  5
292
330
28B
100
AcDbEntity
  8
0
 62
    95
100
AcDbTrace
 10
191.520952
 20
271.407994
 30
0.0
 11
192.687618
 21
271.407994
 31
0.0
 12
192.104285
 22
267.907994
 32
0.0
 13
192.104285
 23
267.907994
 33
0.0
  0
MTEXT
  5
293
330
28B
100
AcDbEntity
  8
0
 62
    95
370
    13
100
AcDbMText
 10
186.854285
 20
288.907994
 30
0.0
 40
3.5
 41
0.0
 71
     5
 72
     1
  1
\A1;42
  7
cesky
 11
0.0
 21
1.0
 31
0.0
 73
     1
 44
1.0
  0
POINT
  5
294
330
28B
100
AcDbEntity
  8
Defpoints
 62
     0
100
AcDbPoint
 10
277.154842
 20
309.907994
 30
0.0
  0
POINT
  5
295
330
28B
100
AcDbEntity
  8
Defpoints
 62
     0
100
AcDbPoint
 10
277.154842
 20
267.907994
 30
0.0
  0
POINT
  5
296
330
28B
100
AcDbEntity
  8
Defpoints
 62
     0
100
AcDbPoint
 10
192.104285
 20
267.907994
 30
0.0
  0
ENDBLK
  5
28D
330
28B
100
AcDbEntity
  8
0
100
AcDbBlockEnd
  0
BLOCK
  5
29F
330
297
100
AcDbEntity
  8
0
100
AcDbBlockBegin
  2
_U6
 70
     0
 10
0.0
 20
0.0
 30
0.0
  3
_U6
  1

  0
ENDBLK
  5
2A0
330
297
100
AcDbEntity
  8
0
100
AcDbBlockEnd
  0
ENDSEC
  0
SECTION
  2
ENTITIES
  0
POINT
  5
73
102
{ACAD_REACTORS
330
349
102
}
330
1F
100
AcDbEntity
  8
80
100
AcDbPoint
 10
274.404842
 20
288.907994
 30
0.0
  0
POINT
  5
76
330
1F
100
AcDbEntity
  8
SK4
 60
     1
100
AcDbPoint
 10
216.404842
 20
288.907994
 30
0.0
  0
POINT
  5
78
330
1F
100
AcDbEntity
  8
SK4
 60
     1
100
AcDbPoint
 10
274.404842
 20
288.907994
 30
0.0
  0
POINT
  5
79
330
1F
100
AcDbEntity
  8
4
 60
     1
100
AcDbPoint
 10
289.987847
 20
288.907994
 30
0.0
  0
POINT
  5
7A
330
1F
100
AcDbEntity
  8
4
 60
     1
100
AcDbPoint
 10
438.743637
 20
288.907994
 30
0.0
  0
POINT
  5
7B
330
1F
100
AcDbEntity
  8
SK6
 60
     1
100
AcDbPoint
 10
274.404842
 20
288.907994
 30
0.0
  0
POINT
  5
7C
330
1F
100
AcDbEntity
  8
SK6
 60
     1
100
AcDbPoint
 10
290.425356
 20
306.18129
 30
0.0
  0
LINE
  5
7D
330
1F
100
AcDbEntity
  8
1
100
AcDbLine
 10
431.0870969999999
 20
299.795495
 30
0.0
 11
431.1226349999999
 21
299.917552
 31
0.0
  0
LINE
  5
7F
330
1F
100
AcDbEntity
  8
1
100
AcDbLine
 10
433.654536
 20
299.404192
 30
0.0
 11
433.6189969999999
 21
299.282134
 31
0.0
  0
LINE
  5
80
330
1F
100
AcDbEntity
  8
1
100
AcDbLine
 10
433.948573
 20
299.65518
 30
0.0
 11
433.9659029999999
 21
299.714699
 31
0.0
  0
LINE
  5
81
330
1F
100
AcDbEntity
  8
1
100
AcDbLine
 10
432.2950480000001
 20
301.015354
 30
0.0
 11
432.3233499999999
 21
301.112556
 31
0.0
  0
LINE
  5
82
330
1F
100
AcDbEntity
  8
1
100
AcDbLine
 10
433.071615
 20
300.915062
 30
0.0
 11
433.053187
 21
300.851769
 31
0.0
  0
LINE
  5
83
330
1F
100
AcDbEntity
  8
1
100
AcDbLine
 10
431.009686
 20
300.4100049999999
 30
0.0
 11
430.975874
 21
300.293879
 31
0.0
  0
LINE
  5
84
330
1F
100
AcDbEntity
  8
1
100
AcDbLine
 10
431.076455
 20
300.347577
 30
0.0
 11
431.0420759999999
 21
300.229501
 31
0.0
  0
LINE
  5
85
330
1F
100
AcDbEntity
  8
1
100
AcDbLine
 10
433.8328279999999
 20
299.585782
 30
0.0
 11
433.8672139999999
 21
299.703884
 31
0.0
  0
LINE
  5
86
330
1F
100
AcDbEntity
  8
1
100
AcDbLine
 10
431.125775
 20
298.866664
 30
0.0
 11
431.0914499999999
 21
298.748772
 31
0.0
  0
LINE
  5
87
330
1F
100
AcDbEntity
  8
1
100
AcDbLine
 10
431.079845
 20
298.84514
 30
0.0
 11
431.045836
 21
298.728333
 31
0.0
  0
LINE
  5
88
330
1F
100
AcDbEntity
  8
1
100
AcDbLine
 10
433.1413219999999
 20
298.277049
 30
0.0
 11
433.175655
 21
298.394965
 31
0.0
  0
LINE
  5
89
330
1F
100
AcDbEntity
  8
1
100
AcDbLine
 10
433.177179
 20
298.235508
 30
0.0
 11
433.2111639999999
 21
298.352229
 31
0.0
  0
LINE
  5
8A
330
1F
100
AcDbEntity
  8
1
100
AcDbLine
 10
289.987847
 20
271.907994
 30
0.0
 11
309.10155
 21
271.907994
 31
0.0
  0
LINE
  5
8C
330
1F
100
AcDbEntity
  8
1
100
AcDbLine
 10
426.2084759999999
 20
305.907994
 30
0.0
 11
415.591445
 21
305.907994
 31
0.0
  0
LINE
  5
8D
330
1F
100
AcDbEntity
  8
1
100
AcDbLine
 10
310.651833
 20
305.907994
 30
0.0
 11
289.987847
 21
305.907994
 31
0.0
  0
LINE
  5
8E
330
1F
100
AcDbEntity
  8
1
100
AcDbLine
 10
279.404842
 20
309.907994
 30
0.0
 11
279.404842
 21
280.039715
 31
0.0
  0
LINE
  5
8F
330
1F
100
AcDbEntity
  8
1
100
AcDbLine
 10
279.404842
 20
267.907994
 30
0.0
 11
279.404842
 21
271.912829
 31
0.0
  0
LINE
  5
90
330
1F
100
AcDbEntity
  8
1
100
AcDbLine
 10
428.922741
 20
300.635061
 30
0.0
 11
428.922657
 21
300.634773
 31
0.0
  0
LINE
  5
91
330
1F
100
AcDbEntity
  8
1
100
AcDbLine
 10
428.922741
 20
300.635061
 30
0.0
 11
428.906611
 21
300.579663
 31
0.0
  0
LINE
  5
92
330
1F
100
AcDbEntity
  8
1
100
AcDbLine
 10
435.8195489999999
 20
298.566883
 30
0.0
 11
435.835679
 21
298.62228
 31
0.0
  0
LINE
  5
93
330
1F
100
AcDbEntity
  8
1
100
AcDbLine
 10
431.652908
 20
298.225859
 30
0.0
 11
431.687225
 21
298.343724
 31
0.0
  0
LINE
  5
94
330
1F
100
AcDbEntity
  8
1
100
AcDbLine
 10
432.44543
 20
298.180369
 30
0.0
 11
432.4110459999999
 21
298.062275
 31
0.0
  0
LINE
  5
99
330
1F
100
AcDbEntity
  8
1
100
AcDbLine
 10
438.6744349999999
 20
305.540347
 30
0.0
 11
439.075061
 21
294.42014
 31
0.0
  0
LINE
  5
9B
330
1F
100
AcDbEntity
  8
1
100
AcDbLine
 10
426.7325429999999
 20
305.8996009999999
 30
0.0
 11
437.8706489999999
 21
306.287928
 31
0.0
  0
LINE
  5
9C
330
1F
100
AcDbEntity
  8
1
100
AcDbLine
 10
426.385199
 20
293.977712
 30
0.0
 11
425.984573
 21
305.09792
 31
0.0
  0
LINE
  5
9D
330
1F
100
AcDbEntity
  8
1
100
AcDbLine
 10
438.327091
 20
293.618458
 30
0.0
 11
427.1889849999999
 21
293.230132
 31
0.0
  0
LINE
  5
9E
330
1F
100
AcDbEntity
  8
1
100
AcDbLine
 10
427.867544
 20
304.077249
 30
0.0
 11
436.8603599999999
 21
304.39078
 31
0.0
  0
LINE
  5
9F
330
1F
100
AcDbEntity
  8
1
100
AcDbLine
 10
428.191007
 20
295.098884
 30
0.0
 11
427.867544
 21
304.077249
 31
0.0
  0
LINE
  5
A0
330
1F
100
AcDbEntity
  8
1
100
AcDbLine
 10
437.1838219999999
 20
295.412416
 30
0.0
 11
428.191007
 21
295.098884
 31
0.0
  0
LINE
  5
A1
330
1F
100
AcDbEntity
  8
1
100
AcDbLine
 10
436.8603599999999
 20
304.39078
 30
0.0
 11
437.1838219999999
 21
295.412416
 31
0.0
  0
LINE
  5
A2
330
1F
100
AcDbEntity
  8
1
100
AcDbLine
 10
438.082841
 20
289.100571
 30
0.0
 11
438.131403
 21
289.071391
 31
0.0
  0
LINE
  5
A3
330
1F
100
AcDbEntity
  8
1
100
AcDbLine
 10
420.5324559999999
 20
293.886396
 30
0.0
 11
419.239283
 21
294.621595
 31
0.0
  0
LINE
  5
A4
330
1F
100
AcDbEntity
  8
1
100
AcDbLine
 10
436.406691
 20
283.153494
 30
0.0
 11
436.8529469999999
 21
283.153494
 31
0.0
  0
LINE
  5
A5
330
1F
100
AcDbEntity
  8
1
100
AcDbLine
 10
426.276552
 20
305.7258470000001
 30
0.0
 11
426.2704509999999
 21
305.902333
 31
0.0
  0
LINE
  5
A6
330
1F
100
AcDbEntity
  8
1
100
AcDbLine
 10
429.744541
 20
293.113531
 30
0.0
 11
438.464216
 21
293.417539
 31
0.0
  0
LINE
  5
A7
330
1F
100
AcDbEntity
  8
1
100
AcDbLine
 10
438.6548419999999
 20
290.442868
 30
0.0
 11
438.6548419999999
 21
290.5428839999999
 31
0.0
  0
LINE
  5
A8
330
1F
100
AcDbEntity
  8
1
100
AcDbLine
 10
438.466345
 20
293.164508
 30
0.0
 11
438.464216
 21
293.417539
 31
0.0
  0
LINE
  5
A9
330
1F
100
AcDbEntity
  8
1
100
AcDbLine
 10
426.0060679999999
 20
305.291131
 30
0.0
 11
425.9872969999999
 21
305.8341299999999
 31
0.0
  0
LINE
  5
AA
330
1F
100
AcDbEntity
  8
1
100
AcDbLine
 10
438.386048
 20
292.626478
 30
0.0
 11
427.293323
 21
292.239734
 31
0.0
  0
LINE
  5
AB
330
1F
100
AcDbEntity
  8
1
100
AcDbLine
 10
438.386048
 20
292.626478
 30
0.0
 11
436.265823
 21
289.113603
 31
0.0
  0
LINE
  5
AC
330
1F
100
AcDbEntity
  8
1
100
AcDbLine
 10
439.2334059999999
 20
280.653944
 30
0.0
 11
438.67449
 21
279.723751
 31
0.0
  0
LINE
  5
AD
330
1F
100
AcDbEntity
  8
1
100
AcDbLine
 10
438.623573
 20
289.546675
 30
0.0
 11
438.438136
 21
289.664481
 31
0.0
  0
LINE
  5
AE
330
1F
100
AcDbEntity
  8
1
100
AcDbLine
 10
438.173409
 20
289.8235450000001
 30
0.0
 11
438.438136
 21
289.664481
 31
0.0
  0
LINE
  5
AF
330
1F
100
AcDbEntity
  8
1
100
AcDbLine
 10
437.721009
 20
279.032216
 30
0.0
 11
438.445624
 21
279.433876
 31
0.0
  0
LINE
  5
B0
330
1F
100
AcDbEntity
  8
1
100
AcDbLine
 10
438.734349
 20
287.983649
 30
0.0
 11
438.6122849999999
 21
280.990629
 31
0.0
  0
LINE
  5
B1
330
1F
100
AcDbEntity
  8
1
100
AcDbLine
 10
438.237296
 20
288.961736
 30
0.0
 11
438.69747
 21
288.131559
 31
0.0
  0
LINE
  5
B2
330
1F
100
AcDbEntity
  8
1
100
AcDbLine
 10
438.5702669999999
 20
280.844096
 30
0.0
 11
438.0813999999999
 21
280.030484
 31
0.0
  0
LINE
  5
B3
330
1F
100
AcDbEntity
  8
1
100
AcDbLine
 10
437.971745
 20
279.924592
 30
0.0
 11
437.725649
 21
279.7881779999999
 31
0.0
  0
LINE
  5
B4
330
1F
100
AcDbEntity
  8
SK1
100
AcDbLine
 10
216.404842
 20
272.907994
 30
0.0
 11
274.404842
 21
272.907994
 31
0.0
  0
LINE
  5
B5
330
1F
100
AcDbEntity
  8
81
100
AcDbLine
 10
439.4048419999999
 20
308.407994
 30
0.0
 11
439.4048419999999
 21
304.407994
 31
0.0
  0
LINE
  5
B6
330
1F
100
AcDbEntity
  8
81
100
AcDbLine
 10
437.404842
 20
306.407994
 30
0.0
 11
441.4048419999999
 21
306.407994
 31
0.0
  0
LINE
  5
B7
330
1F
100
AcDbEntity
  8
80
100
AcDbLine
 10
274.404842
 20
287.90842
 30
0.0
 11
274.404842
 21
289.907567
 31
0.0
  0
LINE
  5
B8
330
1F
100
AcDbEntity
  8
1
100
AcDbLine
 10
274.904842
 20
267.907994
 30
0.0
 11
279.404842
 21
267.907994
 31
0.0
  0
LINE
  5
B9
330
1F
100
AcDbEntity
  8
1
100
AcDbLine
 10
438.682658
 20
289.497775
 30
0.0
 11
438.190758
 21
289.022752
 31
0.0
  0
LINE
  5
BA
330
1F
100
AcDbEntity
  8
1
100
AcDbLine
 10
438.0828379999999
 20
288.918535
 30
0.0
 11
438.190758
 21
289.022752
 31
0.0
  0
LINE
  5
BB
330
1F
100
AcDbEntity
  8
1
100
AcDbLine
 10
439.388062
 20
288.22519
 30
0.0
 11
438.724553
 21
288.059759
 31
0.0
  0
LINE
  5
BC
330
1F
100
AcDbEntity
  8
1
100
AcDbLine
 10
438.073508
 20
287.897435
 30
0.0
 11
438.724553
 21
288.059759
 31
0.0
  0
LINE
  5
BD
330
1F
100
AcDbEntity
  8
1
100
AcDbLine
 10
437.9548559999999
 20
281.099853
 30
0.0
 11
438.59984
 21
280.914907
 31
0.0
  0
LINE
  5
BE
330
1F
100
AcDbEntity
  8
1
100
AcDbLine
 10
438.59984
 20
280.914907
 30
0.0
 11
439.264067
 21
280.724443
 31
0.0
  0
LINE
  5
BF
330
1F
100
AcDbEntity
  8
1
100
AcDbLine
 10
437.7735659999999
 20
280.239534
 30
0.0
 11
438.0327610000001
 21
279.97113
 31
0.0
  0
LINE
  5
C0
330
1F
100
AcDbEntity
  8
1
100
AcDbLine
 10
438.507783
 20
279.47923
 30
0.0
 11
438.0327610000001
 21
279.97113
 31
0.0
  0
LINE
  5
C1
330
1F
100
AcDbEntity
  8
1
100
AcDbLine
 10
423.811119
 20
292.592509
 30
0.0
 11
423.81524
 21
292.60666
 31
0.0
  0
LINE
  5
C2
330
1F
100
AcDbEntity
  8
1
100
AcDbLine
 10
417.706433
 20
295.591983
 30
0.0
 11
420.55638
 21
293.950262
 31
0.0
  0
LINE
  5
C3
330
1F
100
AcDbEntity
  8
1
100
AcDbLine
 10
436.9212799999999
 20
292.611216
 30
0.0
 11
427.2853089999999
 21
292.275261
 31
0.0
  0
LINE
  5
C4
330
1F
100
AcDbEntity
  8
1
100
AcDbLine
 10
437.891469
 20
279.029483
 30
0.0
 11
437.715699
 21
279.032296
 31
0.0
  0
LINE
  5
C5
330
1F
100
AcDbEntity
  8
1
100
AcDbLine
 10
437.698533
 20
279.532634
 30
0.0
 11
438.082841
 21
283.153494
 31
0.0
  0
LINE
  5
C6
330
1F
100
AcDbEntity
  8
1
100
AcDbLine
 10
438.082841
 20
283.153494
 30
0.0
 11
438.082841
 21
289.325044
 31
0.0
  0
LINE
  5
C7
330
1F
100
AcDbEntity
  8
1
100
AcDbLine
 10
438.153111
 20
289.823894
 30
0.0
 11
438.32918
 21
289.820821
 31
0.0
  0
LINE
  5
C8
330
1F
100
AcDbEntity
  8
1
100
AcDbLine
 10
438.386048
 20
292.626478
 30
0.0
 11
438.4005809999999
 21
292.633143
 31
0.0
  0
LINE
  5
C9
330
1F
100
AcDbEntity
  8
1
100
AcDbLine
 10
438.5061949999999
 20
293.436792
 30
0.0
 11
429.749773
 21
293.131502
 31
0.0
  0
LINE
  5
CA
330
1F
100
AcDbEntity
  8
1
100
AcDbLine
 10
429.744541
 20
293.113531
 30
0.0
 11
429.749773
 21
293.131502
 31
0.0
  0
LINE
  5
CB
330
1F
100
AcDbEntity
  8
1
100
AcDbLine
 10
438.32918
 20
289.820821
 30
0.0
 11
438.6126799999999
 21
290.204994
 31
0.0
  0
LINE
  5
CC
330
1F
100
AcDbEntity
  8
1
100
AcDbLine
 10
438.6126799999999
 20
290.443604
 30
0.0
 11
438.6126799999999
 21
290.204994
 31
0.0
  0
LINE
  5
CD
330
1F
100
AcDbEntity
  8
1
100
AcDbLine
 10
438.6126799999999
 20
290.443604
 30
0.0
 11
438.6548419999999
 21
290.442868
 31
0.0
  0
LINE
  5
CE
330
1F
100
AcDbEntity
  8
1
100
AcDbLine
 10
438.6548419999999
 20
293.716038
 30
0.0
 11
438.6548419999999
 21
290.5428839999999
 31
0.0
  0
LINE
  5
CF
330
1F
100
AcDbEntity
  8
1
100
AcDbLine
 10
438.5061949999999
 20
293.436792
 30
0.0
 11
438.5043099999999
 21
293.66073
 31
0.0
  0
LINE
  5
D0
330
1F
100
AcDbEntity
  8
1
100
AcDbLine
 10
438.5061949999999
 20
293.436792
 30
0.0
 11
438.464216
 21
293.417539
 31
0.0
  0
LINE
  5
D1
330
1F
100
AcDbEntity
  8
1
100
AcDbLine
 10
437.4612769999999
 20
271.907994
 30
0.0
 11
438.150068
 21
278.397628
 31
0.0
  0
LINE
  5
D2
330
1F
100
AcDbEntity
  8
1
100
AcDbLine
 10
438.150068
 20
278.397628
 30
0.0
 11
438.1079769999999
 21
278.398302
 31
0.0
  0
LINE
  5
D3
330
1F
100
AcDbEntity
  8
1
100
AcDbLine
 10
438.133259
 20
278.636502
 30
0.0
 11
438.1079769999999
 21
278.398302
 31
0.0
  0
LINE
  5
D4
330
1F
100
AcDbEntity
  8
1
100
AcDbLine
 10
438.133259
 20
278.636502
 30
0.0
 11
437.891469
 21
279.029483
 31
0.0
  0
LINE
  5
D5
330
1F
100
AcDbEntity
  8
1
100
AcDbLine
 10
437.422776
 20
283.153494
 30
0.0
 11
438.082841
 21
283.153494
 31
0.0
  0
LINE
  5
D6
330
1F
100
AcDbEntity
  8
SK1
100
AcDbLine
 10
216.404842
 20
304.907994
 30
0.0
 11
216.404842
 21
272.907994
 31
0.0
  0
LINE
  5
D7
330
1F
100
AcDbEntity
  8
1
100
AcDbLine
 10
274.404842
 20
309.407994
 30
0.0
 11
274.404842
 21
288.907994
 31
0.0
  0
LINE
  5
D8
330
1F
100
AcDbEntity
  8
1
100
AcDbLine
 10
274.404842
 20
288.907994
 30
0.0
 11
274.404842
 21
268.407994
 31
0.0
  0
LINE
  5
D9
330
1F
100
AcDbEntity
  8
SK1
100
AcDbLine
 10
214.404842
 20
302.907994
 30
0.0
 11
214.404842
 21
274.907994
 31
0.0
  0
LINE
  5
DA
330
1F
100
AcDbEntity
  8
1
100
AcDbLine
 10
426.0851289999999
 20
296.514043
 30
0.0
 11
426.0798969999999
 21
296.496072
 31
0.0
  0
LINE
  5
DB
330
1F
100
AcDbEntity
  8
1
100
AcDbLine
 10
426.0851289999999
 20
296.514043
 30
0.0
 11
425.762932
 21
305.834494
 31
0.0
  0
LINE
  5
DC
330
1F
100
AcDbEntity
  8
1
100
AcDbLine
 10
425.7581329999999
 20
305.803968
 30
0.0
 11
426.0798969999999
 21
296.496072
 31
0.0
  0
LINE
  5
DD
330
1F
100
AcDbEntity
  8
1
100
AcDbLine
 10
437.4612769999999
 20
271.907994
 30
0.0
 11
410.975197
 21
271.907994
 31
0.0
  0
LINE
  5
DE
330
1F
100
AcDbEntity
  8
1
100
AcDbLine
 10
274.904842
 20
267.907994
 30
0.0
 11
274.904842
 21
288.907994
 31
0.0
  0
LINE
  5
DF
330
1F
100
AcDbEntity
  8
1
100
AcDbLine
 10
274.904842
 20
288.907994
 30
0.0
 11
274.904842
 21
309.907994
 31
0.0
  0
LINE
  5
E0
330
1F
100
AcDbEntity
  8
SK1
100
AcDbLine
 10
214.404842
 20
274.907994
 30
0.0
 11
216.404842
 21
272.907994
 31
0.0
  0
LINE
  5
E1
330
1F
100
AcDbEntity
  8
SK1
100
AcDbLine
 10
216.404842
 20
304.907994
 30
0.0
 11
214.404842
 21
302.907994
 31
0.0
  0
LINE
  5
E2
330
1F
100
AcDbEntity
  8
SK1
100
AcDbLine
 10
274.404842
 20
304.907994
 30
0.0
 11
216.404842
 21
304.907994
 31
0.0
  0
LINE
  5
E3
330
1F
100
AcDbEntity
  8
1
100
AcDbLine
 10
274.904842
 20
267.907994
 30
0.0
 11
274.404842
 21
268.407994
 31
0.0
  0
LINE
  5
E4
330
1F
100
AcDbEntity
  8
1
100
AcDbLine
 10
274.404842
 20
309.407994
 30
0.0
 11
274.904842
 21
309.907994
 31
0.0
  0
LINE
  5
E5
330
1F
100
AcDbEntity
  8
1
100
AcDbLine
 10
279.404842
 20
309.907994
 30
0.0
 11
274.904842
 21
309.907994
 31
0.0
  0
LINE
  5
E6
330
1F
100
AcDbEntity
  8
1
100
AcDbLine
 10
437.95972
 20
281.132711
 30
0.0
 11
437.977704
 21
282.162979
 31
0.0
  0
LINE
  5
E7
330
1F
100
AcDbEntity
  8
1
100
AcDbLine
 10
437.8444889999999
 20
280.907842
 30
0.0
 11
437.941569
 21
281.06941
 31
0.0
  0
LINE
  5
E8
330
1F
100
AcDbEntity
  8
1
100
AcDbLine
 10
439.359382
 20
288.296592
 30
0.0
 11
438.728011
 21
289.435615
 31
0.0
  0
LINE
  5
E9
330
1F
100
AcDbEntity
  8
1
100
AcDbLine
 10
439.399861
 20
287.929483
 30
0.0
 11
439.275424
 21
280.800477
 31
0.0
  0
LINE
  5
EA
330
1F
100
AcDbEntity
  8
1
100
AcDbLine
 10
439.399861
 20
287.929483
 30
0.0
 11
439.3982219999999
 21
288.149171
 31
0.0
  0
LINE
  5
EB
330
1F
100
AcDbEntity
  8
1
100
AcDbLine
 10
438.556683
 20
279.538314
 30
0.0
 11
438.67449
 21
279.723751
 31
0.0
  0
LINE
  5
EC
330
1F
100
AcDbEntity
  8
80
100
AcDbLine
 10
275.404416
 20
288.907994
 30
0.0
 11
273.405268
 21
288.907994
 31
0.0
  0
LINE
  5
117
330
1F
100
AcDbEntity
  8
NOCUT
100
AcDbLine
 10
289.987847
 20
305.907994
 30
0.0
 11
438.234799
 21
305.907994
 31
0.0
  0
LINE
  5
118
330
1F
100
AcDbEntity
  8
NOCUT
100
AcDbLine
 10
438.234799
 20
305.907994
 30
0.0
 11
438.6548419999999
 21
293.976223
 31
0.0
  0
LINE
  5
119
330
1F
100
AcDbEntity
  8
NOCUT
100
AcDbLine
 10
438.6548419999999
 20
293.976223
 30
0.0
 11
438.6548419999999
 21
288.907994
 31
0.0
  0
LINE
  5
11A
330
1F
100
AcDbEntity
  8
NOCUT
100
AcDbLine
 10
438.6548419999999
 20
288.907994
 30
0.0
 11
214.404842
 21
288.907994
 31
0.0
  0
LINE
  5
11B
330
1F
100
AcDbEntity
  8
NOCUT
100
AcDbLine
 10
279.404842
 20
309.907994
 30
0.0
 11
274.904842
 21
309.907994
 31
0.0
  0
LINE
  5
11C
330
1F
100
AcDbEntity
  8
NOCUT
100
AcDbLine
 10
214.404842
 20
302.907994
 30
0.0
 11
214.404842
 21
288.907994
 31
0.0
  0
LINE
  5
11D
330
1F
100
AcDbEntity
  8
NOCUT
100
AcDbLine
 10
274.404842
 20
304.907994
 30
0.0
 11
216.404842
 21
304.907994
 31
0.0
  0
LINE
  5
11E
330
1F
100
AcDbEntity
  8
NOCUT
100
AcDbLine
 10
274.404842
 20
304.907994
 30
0.0
 11
274.404842
 21
309.407994
 31
0.0
  0
LINE
  5
11F
330
1F
100
AcDbEntity
  8
NOCUT
100
AcDbLine
 10
274.404842
 20
309.407994
 30
0.0
 11
274.904842
 21
309.907994
 31
0.0
  0
LINE
  5
120
330
1F
100
AcDbEntity
  8
NOCUT
100
AcDbLine
 10
214.404842
 20
302.907994
 30
0.0
 11
216.404842
 21
304.907994
 31
0.0
  0
ARC
  5
129
330
1F
100
AcDbEntity
  8
1
100
AcDbCircle
 10
289.987847
 20
255.907994
 30
0.0
 40
16.0
100
AcDbArc
 50
90.0
 51
131.409622
  0
ARC
  5
12A
330
1F
100
AcDbEntity
  8
1
100
AcDbCircle
 10
289.987847
 20
321.907994
 30
0.0
 40
16.0
100
AcDbArc
 50
228.590378
 51
270.0
  0
ARC
  5
12B
330
1F
100
AcDbEntity
  8
1
100
AcDbCircle
 10
433.418941
 20
284.74888
 30
0.0
 40
1.75
100
AcDbArc
 50
75.0
 51
345.0
  0
CIRCLE
  5
12C
330
1F
100
AcDbEntity
  8
1
100
AcDbCircle
 10
433.418941
 20
284.74888
 30
0.0
 40
1.35
  0
ARC
  5
138
330
1F
100
AcDbEntity
  8
NOCUT
100
AcDbCircle
 10
289.987847
 20
321.907994
 30
0.0
 40
16.0
100
AcDbArc
 50
228.590378
 51
270.0
  0
ELLIPSE
  5
139
330
1F
100
AcDbEntity
  8
1
100
AcDbEllipse
 10
432.36308
 20
299.573273
 30
0.0
 11
3.456469095942189
 21
-1.006390276580906
 31
0.0
210
0.0
220
0.0
230
1.0
 40
0.9980519999999998
 41
0.0
 42
6.283185307179585
  0
ELLIPSE
  5
13A
330
1F
100
AcDbEntity
  8
1
100
AcDbEllipse
 10
430.974483
 20
300.162498
 30
0.0
 11
-0.0915171458923712
 21
0.0266462575564886
 31
0.0
210
0.0
220
0.0
230
1.0
 40
0.998052
 41
3.830817107153529
 42
4.50754902403387
  0
ELLIPSE
  5
13B
330
1F
100
AcDbEntity
  8
1
100
AcDbEllipse
 10
432.3792099999999
 20
299.628671
 30
0.0
 11
-3.456469095942189
 21
1.006390276580908
 31
0.0
210
0.0
220
0.0
230
0.9999999999999998
 40
0.9980519999999998
 41
3.141577915006207
 42
5.816545785521911
  0
ELLIPSE
  5
13C
330
1F
100
AcDbEntity
  8
1
100
AcDbEllipse
 10
432.3792099999999
 20
299.628671
 30
0.0
 11
-3.456469095942189
 21
1.006390276580908
 31
0.0
210
0.0
220
0.0
230
0.9999999999999998
 40
0.9980519999999998
 41
5.816546063731938
 42
6.283185307179585
  0
ELLIPSE
  5
13D
330
1F
100
AcDbEntity
  8
1
100
AcDbEllipse
 10
432.548358
 20
299.822708
 30
0.0
 11
3.595932224284196
 21
-1.046996552062936
 31
0.0
210
0.0
220
0.0
230
1.0
 40
0.998052
 41
2.152565416675811
 42
3.309358674495961
  0
ELLIPSE
  5
13E
330
1F
100
AcDbEntity
  8
1
100
AcDbEllipse
 10
432.548358
 20
299.822708
 30
0.0
 11
3.595932224284196
 21
-1.046996552062936
 31
0.0
210
0.0
220
0.0
230
1.0
 40
0.998052
 41
5.405586381982747
 42
6.283185307179585
  0
ELLIPSE
  5
13F
330
1F
100
AcDbEntity
  8
1
100
AcDbEllipse
 10
432.548358
 20
299.822708
 30
0.0
 11
3.595932224284196
 21
-1.046996552062936
 31
0.0
210
0.0
220
0.0
230
1.0
 40
0.998052
 41
0.0
 42
0.9889980380481624
  0
ELLIPSE
  5
140
330
1F
100
AcDbEntity
  8
1
100
AcDbEllipse
 10
427.7768
 20
294.644095
 30
0.0
 11
0.481600038861515
 21
0.5169960181955612
 31
0.0
210
0.0
220
0.0
230
0.9999999999999996
 40
0.019879
 41
0.5144487705345595
 42
1.531354610780428
  0
ELLIPSE
  5
141
330
1F
100
AcDbEntity
  8
1
100
AcDbEllipse
 10
432.528561
 20
299.754717
 30
0.0
 11
3.653043491467093
 21
-1.063625146845849
 31
0.0
210
0.0
220
0.0
230
1.0
 40
0.998052
 41
1.889555174260809
 42
3.687920642748145
  0
ELLIPSE
  5
142
330
1F
100
AcDbEntity
  8
1
100
AcDbEllipse
 10
432.528561
 20
299.754717
 30
0.0
 11
3.653043491467093
 21
-1.063625146845849
 31
0.0
210
0.0
220
0.0
230
1.0
 40
0.998052
 41
4.82635517259033
 42
6.283185307179585
  0
ELLIPSE
  5
143
330
1F
100
AcDbEntity
  8
1
100
AcDbEllipse
 10
432.528561
 20
299.754717
 30
0.0
 11
3.653043491467093
 21
-1.063625146845849
 31
0.0
210
0.0
220
0.0
230
1.0
 40
0.998052
 41
0.0
 42
1.889555156160024
  0
ELLIPSE
  5
144
330
1F
100
AcDbEntity
  8
1
100
AcDbEllipse
 10
431.063791
 20
300.330516
 30
0.0
 11
-0.091517145892371
 21
0.0266462575564885
 31
0.0
210
0.0
220
0.0
230
1.0
 40
0.998052
 41
0.165625677965679
 42
1.365956370444707
  0
ELLIPSE
  5
145
330
1F
100
AcDbEntity
  8
1
100
AcDbEllipse
 10
431.565824
 20
300.27099
 30
0.0
 11
-0.5769369382086548
 21
0.1679817492062025
 31
0.0
210
0.0
220
0.0
230
1.0
 40
0.998052
 41
5.184280940914999
 42
6.448810985145201
  0
ELLIPSE
  5
146
330
1F
100
AcDbEntity
  8
1
100
AcDbEllipse
 10
431.4708099999999
 20
300.766763
 30
0.0
 11
-0.0915171458923732
 21
0.0266462575564892
 31
0.0
210
0.0
220
0.0
230
1.0
 40
0.9980519999999998
 41
3.983950248435741
 42
5.184280940914698
  0
ELLIPSE
  5
147
330
1F
100
AcDbEntity
  8
1
100
AcDbEllipse
 10
431.6323469999999
 20
300.867603
 30
0.0
 11
-0.0915171458923732
 21
0.0266462575564892
 31
0.0
210
0.0
220
0.0
230
1.0
 40
0.9980519999999998
 41
0.8423575948461937
 42
1.519089511727159
  0
ELLIPSE
  5
148
330
1F
100
AcDbEntity
  8
1
100
AcDbEllipse
 10
431.798307
 20
301.344125
 30
0.0
 11
-0.5769369382086545
 21
0.1679817492062025
 31
0.0
210
0.0
220
0.0
230
0.9999999999999998
 40
0.998052
 41
1.519089511726864
 42
2.783619555957096
  0
ELLIPSE
  5
149
330
1F
100
AcDbEntity
  8
1
100
AcDbEllipse
 10
432.2035309999999
 20
301.042
 30
0.0
 11
-0.0915171458923712
 21
0.0266462575564886
 31
0.0
210
0.0
220
0.0
230
1.0
 40
0.998052
 41
2.783619555957264
 42
3.460351472837591
  0
ELLIPSE
  5
14A
330
1F
100
AcDbEntity
  8
1
100
AcDbEllipse
 10
432.3940139999999
 20
301.048641
 30
0.0
 11
-0.091517145892371
 21
0.0266462575564885
 31
0.0
210
0.0
220
0.0
230
1.0
 40
0.998052
 41
5.401613433948512
 42
6.601944126427454
  0
ELLIPSE
  5
14B
330
1F
100
AcDbEntity
  8
1
100
AcDbEllipse
 10
432.593849
 20
300.584873
 30
0.0
 11
-0.5769369382086548
 21
0.1679817492062025
 31
0.0
210
0.0
220
0.0
230
1.0
 40
0.998052
 41
4.137083389718386
 42
5.401613433948535
  0
ELLIPSE
  5
14C
330
1F
100
AcDbEntity
  8
1
100
AcDbEllipse
 10
432.976315
 20
300.91446
 30
0.0
 11
-0.0915171458923732
 21
0.0266462575564892
 31
0.0
210
0.0
220
0.0
230
1.0
 40
0.9980519999999998
 41
2.936752697239656
 42
4.137083389718201
  0
ELLIPSE
  5
14D
330
1F
100
AcDbEntity
  8
1
100
AcDbEllipse
 10
433.1447039999999
 20
300.825123
 30
0.0
 11
-0.0915171458923732
 21
0.0266462575564892
 31
0.0
210
0.0
220
0.0
230
1.0
 40
0.9980519999999998
 41
6.078345350829242
 42
6.755077267709655
  0
ELLIPSE
  5
14E
330
1F
100
AcDbEntity
  8
1
100
AcDbEllipse
 10
433.641194
 20
300.919462
 30
0.0
 11
-0.5769369382086545
 21
0.1679817492062025
 31
0.0
210
0.0
220
0.0
230
0.9999999999999998
 40
0.998052
 41
0.4718919605303049
 42
1.736422004760516
  0
ELLIPSE
  5
14F
330
1F
100
AcDbEntity
  8
1
100
AcDbEllipse
 10
433.582095
 20
300.418316
 30
0.0
 11
-0.0915171458923712
 21
0.0266462575564886
 31
0.0
210
0.0
220
0.0
230
1.0
 40
0.998052
 41
1.736422004760969
 42
2.413153921641099
  0
ELLIPSE
  5
150
330
1F
100
AcDbEntity
  8
1
100
AcDbEllipse
 10
433.68327
 20
300.256939
 30
0.0
 11
-0.091517145892371
 21
0.0266462575564885
 31
0.0
210
0.0
220
0.0
230
1.0
 40
0.998052
 41
4.354415882751874
 42
5.554746575231059
  0
ELLIPSE
  5
151
330
1F
100
AcDbEntity
  8
1
100
AcDbEllipse
 10
433.3810719999999
 20
299.852697
 30
0.0
 11
-0.5769369382086548
 21
0.1679817492062025
 31
0.0
210
0.0
220
0.0
230
1.0
 40
0.998052
 41
3.089885838521813
 42
4.354415882752003
  0
ELLIPSE
  5
152
330
1F
100
AcDbEntity
  8
1
100
AcDbEllipse
 10
433.858553
 20
299.686511
 30
0.0
 11
-0.0915171458923732
 21
0.0266462575564892
 31
0.0
210
0.0
220
0.0
230
1.0
 40
0.9980519999999998
 41
1.889555146042651
 42
3.089885838521861
  0
ELLIPSE
  5
153
330
1F
100
AcDbEntity
  8
1
100
AcDbEllipse
 10
433.865404
 20
299.496334
 30
0.0
 11
-0.0915171458923732
 21
0.0266462575564892
 31
0.0
210
0.0
220
0.0
230
1.0
 40
0.9980519999999998
 41
5.031147799632398
 42
5.707879716513042
  0
ELLIPSE
  5
154
330
1F
100
AcDbEntity
  8
1
100
AcDbEllipse
 10
434.1959339999999
 20
299.114152
 30
0.0
 11
-0.5769369382086545
 21
0.1679817492062025
 31
0.0
210
0.0
220
0.0
230
0.9999999999999998
 40
0.998052
 41
5.707879716513303
 42
6.97240976074348
  0
ELLIPSE
  5
155
330
1F
100
AcDbEntity
  8
1
100
AcDbEllipse
 10
433.731611
 20
298.9151299999999
 30
0.0
 11
-0.0915171458923712
 21
0.0266462575564886
 31
0.0
210
0.0
220
0.0
230
1.0
 40
0.998052
 41
0.6892244535636215
 42
1.365956370444077
  0
ELLIPSE
  5
156
330
1F
100
AcDbEntity
  8
1
100
AcDbEllipse
 10
433.642303
 20
298.747112
 30
0.0
 11
-0.091517145892371
 21
0.0266462575564885
 31
0.0
210
0.0
220
0.0
230
1.0
 40
0.998052
 41
3.307218331555618
 42
4.50754902403424
  0
ELLIPSE
  5
157
330
1F
100
AcDbEntity
  8
1
100
AcDbEllipse
 10
433.14027
 20
298.806638
 30
0.0
 11
-0.5769369382086548
 21
0.1679817492062025
 31
0.0
210
0.0
220
0.0
230
1.0
 40
0.998052
 41
2.042688287325238
 42
3.307218331555361
  0
ELLIPSE
  5
158
330
1F
100
AcDbEntity
  8
1
100
AcDbEllipse
 10
433.2352839999999
 20
298.310865
 30
0.0
 11
-0.0915171458923732
 21
0.0266462575564892
 31
0.0
210
0.0
220
0.0
230
1.0
 40
0.9980519999999998
 41
0.8423575948465156
 42
2.042688287325838
  0
ELLIPSE
  5
159
330
1F
100
AcDbEntity
  8
1
100
AcDbEllipse
 10
433.0737469999999
 20
298.210026
 30
0.0
 11
-0.0915171458923732
 21
0.0266462575564892
 31
0.0
210
0.0
220
0.0
230
1.0
 40
0.9980519999999998
 41
3.983950248435913
 42
4.660682165316953
  0
ELLIPSE
  5
15A
330
1F
100
AcDbEntity
  8
1
100
AcDbEllipse
 10
432.9077869999999
 20
297.733504
 30
0.0
 11
-0.5769369382086545
 21
0.1679817492062025
 31
0.0
210
0.0
220
0.0
230
0.9999999999999998
 40
0.998052
 41
4.660682165316706
 42
5.925212209546879
  0
ELLIPSE
  5
15B
330
1F
100
AcDbEntity
  8
1
100
AcDbEllipse
 10
432.5025629999999
 20
298.035628
 30
0.0
 11
-0.0915171458923712
 21
0.0266462575564886
 31
0.0
210
0.0
220
0.0
230
1.0
 40
0.998052
 41
5.925212209546777
 42
6.601944126427432
  0
ELLIPSE
  5
15C
330
1F
100
AcDbEntity
  8
1
100
AcDbEllipse
 10
432.3120799999999
 20
298.028987
 30
0.0
 11
-0.091517145892371
 21
0.0266462575564885
 31
0.0
210
0.0
220
0.0
230
1.0
 40
0.998052
 41
2.260020780358536
 42
3.460351472837781
  0
ELLIPSE
  5
15D
330
1F
100
AcDbEntity
  8
1
100
AcDbEllipse
 10
432.112245
 20
298.492756
 30
0.0
 11
-0.5769369382086548
 21
0.1679817492062025
 31
0.0
210
0.0
220
0.0
230
1.0
 40
0.998052
 41
0.9954907361285608
 42
2.260020780358699
  0
ELLIPSE
  5
15E
330
1F
100
AcDbEntity
  8
1
100
AcDbEllipse
 10
431.729779
 20
298.163169
 30
0.0
 11
-0.0915171458923732
 21
0.0266462575564892
 31
0.0
210
0.0
220
0.0
230
1.0
 40
0.9980519999999998
 41
6.078345350829181
 42
7.278676043308035
  0
ELLIPSE
  5
15F
330
1F
100
AcDbEntity
  8
1
100
AcDbEllipse
 10
431.56139
 20
298.252506
 30
0.0
 11
-0.0915171458923732
 21
0.0266462575564892
 31
0.0
210
0.0
220
0.0
230
1.0
 40
0.9980519999999998
 41
2.936752697239449
 42
3.613484614119993
  0
ELLIPSE
  5
160
330
1F
100
AcDbEntity
  8
1
100
AcDbEllipse
 10
431.0649
 20
298.158166
 30
0.0
 11
-0.5769369382086545
 21
0.1679817492062025
 31
0.0
210
0.0
220
0.0
230
0.9999999999999998
 40
0.998052
 41
3.61348461412013
 42
4.878014658350259
  0
ELLIPSE
  5
161
330
1F
100
AcDbEntity
  8
1
100
AcDbEllipse
 10
431.123999
 20
298.659312
 30
0.0
 11
-0.0915171458923712
 21
0.0266462575564886
 31
0.0
210
0.0
220
0.0
230
1.0
 40
0.998052
 41
4.87801465835048
 42
5.554746575230804
  0
ELLIPSE
  5
162
330
1F
100
AcDbEntity
  8
1
100
AcDbEllipse
 10
431.0228239999999
 20
298.820689
 30
0.0
 11
-0.091517145892371
 21
0.0266462575564885
 31
0.0
210
0.0
220
0.0
230
1.0
 40
0.998052
 41
1.212823229162587
 42
2.413153921641576
  0
ELLIPSE
  5
163
330
1F
100
AcDbEntity
  8
1
100
AcDbEllipse
 10
431.3250219999999
 20
299.2249319999999
 30
0.0
 11
-0.5769369382086548
 21
0.1679817492062025
 31
0.0
210
0.0
220
0.0
230
1.0
 40
0.998052
 41
6.231478492111616
 42
7.496008536341804
  0
ELLIPSE
  5
164
330
1F
100
AcDbEntity
  8
1
100
AcDbEllipse
 10
437.619421
 20
294.987255
 30
0.0
 11
0.5172958628296134
 21
-0.4818793547233227
 31
0.0
210
0.0
220
0.0
230
0.9999999999999998
 40
0.039416
 41
1.590649522159279
 42
2.607555362514673
  0
ELLIPSE
  5
165
330
1F
100
AcDbEntity
  8
1
100
AcDbEllipse
 10
427.4227709999999
 20
304.4709
 30
0.0
 11
0.5172958627868388
 21
-0.4818793546861918
 31
0.0
210
0.0
220
0.0
230
1.0
 40
0.039416
 41
0.5737436817964206
 42
1.59064952223259
  0
ELLIPSE
  5
166
330
1F
100
AcDbEntity
  8
1
100
AcDbEllipse
 10
437.265392
 20
304.81406
 30
0.0
 11
0.4816000390434882
 21
0.5169960183808341
 31
0.0
210
0.0
220
0.0
230
1.0
 40
0.019879
 41
1.531354611331319
 42
2.548260451225293
  0
ELLIPSE
  5
167
330
1F
100
AcDbEntity
  8
1
100
AcDbEllipse
 10
432.5256829999999
 20
299.744832
 30
0.0
 11
-3.744508187270703
 21
1.09025613296265
 31
0.0
210
0.0
220
0.0
230
1.0
 40
0.998052
 41
0.0
 42
6.283185307179585
  0
ELLIPSE
  5
168
330
1F
100
AcDbEntity
  8
1
100
AcDbEllipse
 10
428.521916
 20
310.625794
 30
0.0
 11
6.986291173438245
 21
17.22557376475057
 31
0.0
210
0.0
220
0.0
230
0.9999999999999998
 40
0.673583
 41
3.052635792959812
 42
3.058957960164975
  0
ELLIPSE
  5
169
330
1F
100
AcDbEntity
  8
1
100
AcDbEllipse
 10
256.959472
 20
288.907994
 30
0.0
 11
59.23901934835386
 21
-13.44757562918126
 31
0.0
210
0.0
220
0.0
230
1.0
 40
0.175562
 41
5.343113472703521
 42
5.464350275682014
  0
ELLIPSE
  5
16A
330
1F
100
AcDbEntity
  8
1
100
AcDbEllipse
 10
429.6969169999999
 20
288.907994
 30
0.0
 11
29.16627723208267
 21
-16.77155284778701
 31
0.0
210
0.0
220
0.0
230
0.9999999999999998
 40
0.095233
 41
4.053698976864943
 42
4.454585660352486
  0
ELLIPSE
  5
16B
330
1F
100
AcDbEntity
  8
1
100
AcDbEllipse
 10
426.8297099999999
 20
288.907994
 30
0.0
 11
0.5682087746688346
 21
-16.99999621394822
 31
0.0
210
0.0
220
0.0
230
0.9999999999999998
 40
0.01946
 41
2.994198265165591
 42
3.115135387203042
  0
ELLIPSE
  5
16C
330
1F
100
AcDbEntity
  8
1
100
AcDbEllipse
 10
428.024446
 20
294.926009
 30
0.0
 11
2.400325761070964
 21
-0.6988821365145184
 31
0.0
210
0.0
220
0.0
230
1.0
 40
0.998052
 41
5.583674598067541
 42
5.754120264090344
  0
ELLIPSE
  5
16D
330
1F
100
AcDbEntity
  8
1
100
AcDbEllipse
 10
426.653782
 20
288.907994
 30
0.0
 11
0.4543218011935779
 21
-16.99987954947465
 31
0.0
210
0.0
220
0.0
230
1.0
 40
0.140844
 41
3.112021756629097
 42
3.231081695656173
  0
ELLIPSE
  5
16E
330
1F
100
AcDbEntity
  8
1
100
AcDbEllipse
 10
332.740152
 20
288.907993
 30
0.0
 11
443.4585162239407
 21
16.57826160611928
 31
0.0
210
0.0
220
0.0
230
1.0
 40
0.008486
 41
4.927213239578057
 42
4.947696593138643
  0
ELLIPSE
  5
16F
330
1F
100
AcDbEntity
  8
1
100
AcDbEllipse
 10
438.473427
 20
289.295723
 30
0.0
 11
0.159366133041913
 21
-0.2546671896532826
 31
0.0
210
0.0
220
0.0
230
1.0
 40
0.9668319999999999
 41
1.515965208671528
 42
2.029724467259399
  0
ELLIPSE
  5
170
330
1F
100
AcDbEntity
  8
1
100
AcDbEllipse
 10
439.105838
 20
288.154824
 30
0.0
 11
0.1315188412438468
 21
-0.270103195519072
 31
0.0
210
0.0
220
0.0
230
0.9999999999999996
 40
0.9668320000000001
 41
1.111868186749435
 42
1.625627445379153
  0
ELLIPSE
  5
171
330
1F
100
AcDbEntity
  8
1
100
AcDbEllipse
 10
438.305732
 20
279.68846
 30
0.0
 11
0.2546671889577234
 21
0.1593661338041455
 31
0.0
210
0.0
220
0.0
230
1.0
 40
0.9668319999999999
 41
4.657557858732148
 42
5.17131711763259
  0
ELLIPSE
  5
172
330
1F
100
AcDbEntity
  8
1
100
AcDbEllipse
 10
438.969907
 20
280.808792
 30
0.0
 11
-0.2941597133632818
 21
0.0843489404830548
 31
0.0
210
0.0
220
0.0
230
0.9999999999999996
 40
0.9803469999999999
 41
2.884713024277101
 42
3.398472282902498
  0
ELLIPSE
  5
173
330
1F
100
AcDbEntity
  8
1
100
AcDbEllipse
 10
438.2487359999999
 20
281.015584
 30
0.0
 11
0.3598828597441846
 21
-0.0632201112166519
 31
0.0
210
0.0
220
0.0
230
1.0
 40
0.81881
 41
6.264719809296509
 42
6.411625123822678
  0
ELLIPSE
  5
174
330
1F
100
AcDbEntity
  8
1
100
AcDbEllipse
 10
438.3701499999999
 20
287.971396
 30
0.0
 11
0.3618699912859035
 21
0.0506218689541241
 31
0.0
210
0.0
220
0.0
230
0.9999999999999998
 40
0.8188099999999998
 41
6.154745495670199
 42
6.301650807714147
  0
ELLIPSE
  5
175
330
1F
100
AcDbEntity
  8
1
100
AcDbEllipse
 10
438.3701499999999
 20
287.971396
 30
0.0
 11
0.3432777585028344
 21
0.1251912090480131
 31
0.0
210
0.0
220
0.0
230
0.9999999999999998
 40
0.81881
 41
6.264719809250771
 42
6.411625122923367
  0
ELLIPSE
  5
176
330
1F
100
AcDbEntity
  8
1
100
AcDbEllipse
 10
437.928017
 20
288.769026
 30
0.0
 11
0.2880776720220481
 21
0.2247748209038459
 31
0.0
210
0.0
220
0.0
230
1.0
 40
0.81881
 41
6.154745496198293
 42
6.301650807961888
  0
ELLIPSE
  5
177
330
1F
100
AcDbEntity
  8
1
100
AcDbEllipse
 10
437.928017
 20
288.769026
 30
0.0
 11
0.2346916552412382
 21
0.2800576476397483
 31
0.0
210
0.0
220
0.0
230
0.9999999999999998
 40
0.81881
 41
6.264719808403742
 42
6.411625121872062
  0
ELLIPSE
  5
178
330
1F
100
AcDbEntity
  8
1
100
AcDbEllipse
 10
437.7790349999999
 20
280.23387
 30
0.0
 11
0.280057624246918
 21
-0.2346916404174735
 31
0.0
210
0.0
220
0.0
230
1.0
 40
0.81881
 41
6.26471981591667
 42
6.41162513491317
  0
ELLIPSE
  5
179
330
1F
100
AcDbEntity
  8
1
100
AcDbEllipse
 10
438.2487359999999
 20
281.015584
 30
0.0
 11
0.338699516875705
 21
-0.1370951583220005
 31
0.0
210
0.0
220
0.0
230
1.0
 40
0.81881
 41
6.154745483727732
 42
6.301650801018241
  0
ELLIPSE
  5
17A
330
1F
100
AcDbEntity
  8
1
100
AcDbEllipse
 10
437.7790349999999
 20
280.23387
 30
0.0
 11
0.224774806701851
 21
-0.2880776480882598
 31
0.0
210
0.0
220
0.0
230
0.9999999999999998
 40
0.81881
 41
6.154745483437617
 42
6.301650800761121
  0
ELLIPSE
  5
17B
330
1F
100
AcDbEntity
  8
1
100
AcDbEllipse
 10
430.8475419999999
 20
299.391118
 30
0.0
 11
-0.0915171458923732
 21
0.0266462575564892
 31
0.0
210
0.0
220
0.0
230
1.0
 40
0.9980519999999998
 41
5.031147799632421
 42
6.231478492111505
  0
ELLIPSE
  5
17C
330
1F
100
AcDbEntity
  8
1
100
AcDbEllipse
 10
430.84069
 20
299.581294
 30
0.0
 11
-0.0915171458923732
 21
0.0266462575564892
 31
0.0
210
0.0
220
0.0
230
1.0
 40
0.9980519999999998
 41
1.889555146042651
 42
2.566287062923374
  0
ELLIPSE
  5
17D
330
1F
100
AcDbEntity
  8
1
100
AcDbEllipse
 10
430.5101599999999
 20
299.963476
 30
0.0
 11
-0.5769369382086545
 21
0.1679817492062025
 31
0.0
210
0.0
220
0.0
230
0.9999999999999998
 40
0.998052
 41
2.566287062923521
 42
3.830817107153686
  0
ELLIPSE
  5
17E
330
1F
100
AcDbEntity
  8
1
100
AcDbEllipse
 10
432.3530469999999
 20
299.538814
 30
0.0
 11
2.01627363929961
 21
-0.5870609946721955
 31
0.0
210
0.0
220
0.0
230
1.0
 40
0.9980520000000002
 41
0.0
 42
6.283185307179585
  0
ELLIPSE
  5
17F
330
1F
100
AcDbEntity
  8
1
100
AcDbEllipse
 10
426.8394329999999
 20
304.845214
 30
0.0
 11
-12.09764183579767
 21
3.522365968033181
 31
0.0
210
0.0
220
0.0
230
1.0
 40
0.998052
 41
1.331467778459203
 42
1.889001414560977
  0
ELLIPSE
  5
180
330
1F
100
AcDbEntity
  8
1
100
AcDbEllipse
 10
437.7686839999999
 20
279.531512
 30
0.0
 11
0.0538770024364501
 21
0.4991611425138728
 31
0.0
210
0.0
220
0.0
230
0.9999999999999998
 40
0.139171
 41
1.583568179257845
 42
3.154364506041873
  0
ELLIPSE
  5
181
330
1F
100
AcDbEntity
  8
1
100
AcDbEllipse
 10
438.153111
 20
289.323818
 30
0.0
 11
0.0001758288822668
 21
-0.5000776676664058
 31
0.0
210
0.0
220
0.0
230
0.9999999999999998
 40
0.140519
 41
3.139090475969511
 42
4.709886802763122
  0
ELLIPSE
  5
182
330
1F
100
AcDbEntity
  8
1
100
AcDbEllipse
 10
315.006756
 20
288.907994
 30
0.0
 11
59.23901937474524
 21
-13.44757563851405
 31
0.0
210
0.0
220
0.0
230
0.9999999999999998
 40
0.175562
 41
4.320220429375873
 42
4.498229139830945
  0
ELLIPSE
  5
183
330
1F
100
AcDbEntity
  8
1
100
AcDbEllipse
 10
428.029678
 20
294.94398
 30
0.0
 11
-2.400325761070964
 21
0.6988821365145195
 31
0.0
210
0.0
220
0.0
230
1.0
 40
0.998052
 41
2.612527610500534
 42
2.719939696211459
  0
ELLIPSE
  5
184
330
1F
100
AcDbEntity
  8
1
100
AcDbEllipse
 10
438.39638
 20
293.132421
 30
0.0
 11
0.0003004688431232
 21
0.5003080940997718
 31
0.0
210
0.0
220
0.0
230
0.9999999999999998
 40
0.140095
 41
3.205856114032526
 42
4.776652440842489
  0
ELLIPSE
  5
185
330
1F
100
AcDbEntity
  8
1
100
AcDbEllipse
 10
439.265608
 20
288.907994
 30
0.0
 11
1.840059080144515
 21
16.99807738858549
 31
0.0
210
0.0
220
0.0
230
0.9999999999999998
 40
0.138944
 41
1.931158402550044
 42
3.156632395651098
  0
ELLIPSE
  5
186
330
1F
100
AcDbEntity
  8
1
100
AcDbEllipse
 10
438.6548419999999
 20
288.907994
 30
0.0
 11
0.0
 21
16.99999999979337
 31
0.0
210
0.0
220
0.0
230
1.0
 40
0.140541
 41
1.558701337639619
 42
1.916118660492971
  0
ELLIPSE
  5
187
330
1F
100
AcDbEntity
  8
1
100
AcDbEllipse
 10
428.110957
 20
295.2231339999999
 30
0.0
 11
-2.400325761070964
 21
0.6988821365145192
 31
0.0
210
0.0
220
0.0
230
1.0
 40
0.998052
 41
0.0620316350026333
 42
1.889554920024136
  0
ELLIPSE
  5
188
330
1F
100
AcDbEntity
  8
1
100
AcDbEllipse
 10
428.110957
 20
295.2231339999999
 30
0.0
 11
-2.400325761070964
 21
0.6988821365145192
 31
0.0
210
0.0
220
0.0
230
1.0
 40
0.998052
 41
1.889555320100622
 42
2.55734009475464
  0
ELLIPSE
  5
189
330
1F
100
AcDbEntity
  8
1
100
AcDbEllipse
 10
428.029678
 20
294.94398
 30
0.0
 11
-2.400325761070964
 21
0.6988821365145195
 31
0.0
210
0.0
220
0.0
230
1.0
 40
0.998052
 41
5.767257895293858
 42
5.886571819922091
  0
ELLIPSE
  5
18A
330
1F
100
AcDbEntity
  8
1
100
AcDbEllipse
 10
428.024446
 20
294.926009
 30
0.0
 11
2.400325761070964
 21
-0.6988821365145184
 31
0.0
210
0.0
220
0.0
230
1.0
 40
0.998052
 41
2.744979166332301
 42
4.470745924311941
  0
ELLIPSE
  5
18B
330
1F
100
AcDbEntity
  8
1
100
AcDbEllipse
 10
426.3592329999999
 20
288.907983
 30
0.0
 11
0.5682091661384928
 21
-17.00000710388003
 31
0.0
210
0.0
220
0.0
230
1.0
 40
0.01946
 41
3.233964938786992
 42
3.251625485190113
  0
ELLIPSE
  5
18C
330
1F
100
AcDbEntity
  8
1
100
AcDbEllipse
 10
376.24413
 20
288.875023
 30
0.0
 11
975.4736496876855
 21
-1.018198418477612
 31
0.0
210
0.0
220
0.0
230
1.0
 40
0.01743
 41
1.5200337638086
 42
1.522845063745124
  0
ELLIPSE
  5
18D
330
1F
100
AcDbEntity
  8
1
100
AcDbEllipse
 10
437.6462169999999
 20
281.188354
 30
0.0
 11
-0.3086390084417319
 21
0.0885008115358406
 31
0.0
210
0.0
220
0.0
230
0.9999999999999998
 40
0.6229040000000001
 41
2.976210626445484
 42
3.306974680734084
  0
SPLINE
  5
194
330
1F
100
AcDbEntity
  8
1
100
AcDbSpline
210
0.0
220
0.0
230
1.0
 70
     8
 71
     3
 72
    24
 73
    20
 74
     0
 42
0.000000001
 43
0.0000000001
 40
0.0
 40
0.0
 40
0.0
 40
0.0
 40
0.1250000000000043
 40
0.1250000000000043
 40
0.2500000000000088
 40
0.2500000000000088
 40
0.3125000000000095
 40
0.3125000000000095
 40
0.3750000000000104
 40
0.3750000000000104
 40
0.5000000000000084
 40
0.5000000000000084
 40
0.6250000000000063
 40
0.6250000000000063
 40
0.7500000000000043
 40
0.7500000000000043
 40
0.8750000000000021
 40
0.8750000000000021
 40
1.0
 40
1.0
 40
1.0
 40
1.0
 10
431.1697140597215
 20
298.8725357480583
 30
0.0
 10
431.2008631021534
 20
298.8693848732253
 30
0.0
 10
431.231495915426
 20
298.8638187566897
 30
0.0
 10
431.2917767323803
 20
298.8478539932194
 30
0.0
 10
431.3214251607844
 20
298.8374577123917
 30
0.0
 10
431.365136041341
 20
298.8179360768545
 30
0.0
 10
431.3794852431414
 20
298.8108063436617
 30
0.0
 10
431.4073966261685
 20
298.7954798059271
 30
0.0
 10
431.421012938664
 20
298.7872593509307
 30
0.0
 10
431.4608462678528
 20
298.7609249934619
 30
0.0
 10
431.4860920684433
 20
298.7411149900519
 30
0.0
 10
431.5335852816668
 20
298.6969300264449
 30
0.0
 10
431.5551418796566
 20
298.6732093401958
 30
0.0
 10
431.5941263476981
 20
298.6226946228538
 30
0.0
 10
431.6115589744005
 20
298.5958897227148
 30
0.0
 10
431.6421993215793
 20
298.5391824491951
 30
0.0
 10
431.654964144641
 20
298.5101096521745
 30
0.0
 10
431.6757927167046
 20
298.4506024948652
 30
0.0
 10
431.6838539503713
 20
298.4201674544206
 30
0.0
 10
431.6895676539451
 20
298.3890331395691
 30
0.0
  0
SPLINE
  5
195
330
1F
100
AcDbEntity
  8
1
100
AcDbSpline
210
0.0
220
0.0
230
1.0
 70
     8
 71
     3
 72
    18
 73
    14
 74
     0
 42
0.000000001
 43
0.0000000001
 40
0.0
 40
0.0
 40
0.0
 40
0.0
 40
0.2500000000005029
 40
0.2500000000005029
 40
0.3750000000004191
 40
0.3750000000004191
 40
0.5000000000003353
 40
0.5000000000003353
 40
0.6250000000002515
 40
0.6250000000002515
 40
0.7500000000001677
 40
0.7500000000001677
 40
1.0
 40
1.0
 40
1.0
 40
1.0
 10
433.286821338231
 20
298.3328771588801
 30
0.0
 10
433.2770931343447
 20
298.331109929937
 30
0.0
 10
433.2672021504566
 20
298.3309362588159
 30
0.0
 10
433.2529480645521
 20
298.3328612479668
 30
0.0
 10
433.2482625598363
 20
298.3338639201786
 30
0.0
 10
433.2390250065464
 20
298.3365964147616
 30
0.0
 10
433.2345206608007
 20
298.3383179842751
 30
0.0
 10
433.2259350370275
 20
298.3423560699325
 30
0.0
 10
433.2218207192322
 20
298.3446820682294
 30
0.0
 10
433.2139444678074
 20
298.3499385214468
 30
0.0
 10
433.2101564794692
 20
298.3528961771656
 30
0.0
 10
433.1996297412676
 20
298.3624457933556
 30
0.0
 10
433.1936478792341
 20
298.3697135357571
 30
0.0
 10
433.1887108662723
 20
298.3778888428535
 30
0.0
  0
SPLINE
  5
196
330
1F
100
AcDbEntity
  8
1
100
AcDbSpline
210
0.0
220
0.0
230
1.0
 70
     8
 71
     3
 72
    10
 73
     6
 74
     0
 42
0.000000001
 43
0.0000000001
 40
0.0
 40
0.0
 40
0.0
 40
0.0
 40
0.5
 40
0.5
 40
1.0
 40
1.0
 40
1.0
 40
1.0
 10
433.1396090503308
 20
298.418606786811
 30
0.0
 10
433.1499644941888
 20
298.4147986783822
 30
0.0
 10
433.1593609327504
 20
298.4093210115244
 30
0.0
 10
433.1760844872664
 20
298.3953823431244
 30
0.0
 10
433.183073908242
 20
298.387223204206
 30
0.0
 10
433.1887108662723
 20
298.3778888428535
 30
0.0
  0
SPLINE
  5
197
330
1F
100
AcDbEntity
  8
1
100
AcDbSpline
210
0.0
220
0.0
230
1.0
 70
     8
 71
     3
 72
    24
 73
    20
 74
     0
 42
0.000000001
 43
0.0000000001
 40
0.0
 40
0.0
 40
0.0
 40
0.0
 40
0.1249999999999371
 40
0.1249999999999371
 40
0.249999999999874
 40
0.249999999999874
 40
0.3124999999998858
 40
0.3124999999998858
 40
0.3749999999998976
 40
0.3749999999998976
 40
0.4999999999999181
 40
0.4999999999999181
 40
0.6249999999999386
 40
0.6249999999999386
 40
0.7499999999999592
 40
0.7499999999999592
 40
0.8749999999999795
 40
0.8749999999999795
 40
1.0
 40
1.0
 40
1.0
 40
1.0
 10
432.4607382731277
 20
298.2113299219971
 30
0.0
 10
432.479549348825
 20
298.236813147781
 30
0.0
 10
432.5001511660503
 20
298.2606287453254
 30
0.0
 10
432.5449492328827
 20
298.3049618181471
 30
0.0
 10
432.5691437093208
 20
298.3254808618312
 30
0.0
 10
432.60836565084
 20
298.3536100730172
 30
0.0
 10
432.6218517246943
 20
298.3624790748022
 30
0.0
 10
432.6493176861459
 20
298.3789927380159
 30
0.0
 10
432.6633455920459
 20
298.3866724179289
 30
0.0
 10
432.7063148491752
 20
298.4079810216592
 30
0.0
 10
432.7361846106986
 20
298.4199065080574
 30
0.0
 10
432.7982155072549
 20
298.438836295535
 30
0.0
 10
432.8294656096769
 20
298.4455715179686
 30
0.0
 10
432.8924154198589
 20
298.4538947699299
 30
0.0
 10
432.9241273745311
 20
298.4554814260984
 30
0.0
 10
432.9879800757431
 20
298.4534143087003
 30
0.0
 10
433.0191908072056
 20
298.4497955245342
 30
0.0
 10
433.0803416685071
 20
298.4377855631157
 30
0.0
 10
433.1102810612892
 20
298.4293918544335
 30
0.0
 10
433.1396090503308
 20
298.418606786811
 30
0.0
  0
SPLINE
  5
198
330
1F
100
AcDbEntity
  8
1
100
AcDbSpline
210
0.0
220
0.0
230
1.0
 70
     8
 71
     3
 72
    27
 73
    23
 74
     0
 42
0.000000001
 43
0.0000000001
 40
0.0
 40
0.0
 40
0.0
 40
0.0
 40
0.1405827217588005
 40
0.1405827217588005
 40
0.2108740826382407
 40
0.2108740826382407
 40
0.2811654435176809
 40
0.2811654435176809
 40
0.4217481652766257
 40
0.4217481652766257
 40
0.4920395261561287
 40
0.4920395261561287
 40
0.5623308870356317
 40
0.5623308870356317
 40
0.7029136087946376
 40
0.7029136087946376
 40
0.773204969674132
 40
0.773204969674132
 40
0.8434963305536264
 40
0.8434963305536264
 40
0.9840790523126155
 40
1.0
 40
1.0
 40
1.0
 40
1.0
 10
430.9994738286698
 20
298.8599576804189
 30
0.0
 10
430.9739681685025
 20
298.8786396463268
 30
0.0
 10
430.9501868595946
 20
298.8991874400063
 30
0.0
 10
430.9170654637421
 20
298.9327584874198
 30
0.0
 10
430.9064520284302
 20
298.94440918723
 30
0.0
 10
430.8860970336772
 20
298.9686490748887
 30
0.0
 10
430.8763325251031
 20
298.9812780876537
 30
0.0
 10
430.8488256091713
 20
299.0199823459644
 30
0.0
 10
430.832706767524
 20
299.0470283282984
 30
0.0
 10
430.8118051461337
 20
299.0894306085534
 30
0.0
 10
430.8053865834968
 20
299.1038716903615
 30
0.0
 10
430.7936692000914
 20
299.1333801994207
 30
0.0
 10
430.7883509024228
 20
299.1485193182367
 30
0.0
 10
430.7743416938079
 20
299.1942160923454
 30
0.0
 10
430.7675335963334
 20
299.2251025974986
 30
0.0
 10
430.7610037032969
 20
299.2720463845408
 30
0.0
 10
430.7594437424909
 20
299.2877971491394
 30
0.0
 10
430.7575730963971
 20
299.319507084415
 30
0.0
 10
430.7572641436419
 20
299.3355254352047
 30
0.0
 10
430.7582595906978
 20
299.3834815444046
 30
0.0
 10
430.7618070894297
 20
299.4185603613723
 30
0.0
 10
430.7683433293092
 20
299.4530923419518
 30
0.0
 10
430.7690392868547
 20
299.4565995624565
 30
0.0
  0
SPLINE
  5
199
330
1F
100
AcDbEntity
  8
1
100
AcDbSpline
210
0.0
220
0.0
230
1.0
 70
     8
 71
     3
 72
    21
 73
    17
 74
     0
 42
0.000000001
 43
0.0000000001
 40
0.0
 40
0.0
 40
0.0
 40
0.0
 40
0.1650491801727656
 40
0.1650491801727656
 40
0.2485442621555539
 40
0.2485442621555539
 40
0.3320393441383421
 40
0.3320393441383421
 40
0.4990295081038262
 40
0.4990295081038262
 40
0.5825245900865655
 40
0.5825245900865655
 40
0.6660196720693045
 40
0.6660196720693045
 40
0.8330098360346521
 40
1.0
 40
1.0
 40
1.0
 40
1.0
 10
433.7183307464981
 20
298.667427151533
 30
0.0
 10
433.7050575327348
 20
298.6388863794652
 30
0.0
 10
433.6896908556997
 20
298.6116571566712
 30
0.0
 10
433.663446970156
 20
298.5725971770885
 30
0.0
 10
433.6541008170887
 20
298.5598074087022
 30
0.0
 10
433.6343271092631
 20
298.5349052072686
 30
0.0
 10
433.6238471504523
 20
298.5227401672822
 30
0.0
 10
433.5912250033753
 20
298.4878210077457
 30
0.0
 10
433.5678889365619
 20
298.4665637145195
 30
0.0
 10
433.5305753862093
 20
298.4376196749495
 30
0.0
 10
433.5177507784581
 20
298.4284643535363
 30
0.0
 10
433.4913182413422
 20
298.4111520095016
 30
0.0
 10
433.4776585680153
 20
298.4029673377013
 30
0.0
 10
433.4358354488767
 20
298.3801566461068
 30
0.0
 10
433.3784282052555
 20
298.354646678383
 30
0.0
 10
433.3178912817726
 20
298.3385213357629
 30
0.0
 10
433.286821338231
 20
298.3328771588801
 30
0.0
  0
SPLINE
  5
19A
330
1F
100
AcDbEntity
  8
1
100
AcDbSpline
210
0.0
220
0.0
230
1.0
 70
     8
 71
     3
 72
    18
 73
    14
 74
     0
 42
0.000000001
 43
0.0000000001
 40
0.0
 40
0.0
 40
0.0
 40
0.0
 40
0.2299778185736323
 40
0.2299778185736323
 40
0.4599556371472646
 40
0.4599556371472646
 40
0.5749445464340807
 40
0.5749445464340807
 40
0.6899334557208969
 40
0.6899334557208969
 40
0.919911274294529
 40
0.919911274294529
 40
1.0
 40
1.0
 40
1.0
 40
1.0
 10
431.0965957782726
 20
300.3187614788134
 30
0.0
 10
431.1090867107354
 20
300.2906518688176
 30
0.0
 10
431.1192572327195
 20
300.261748429373
 30
0.0
 10
431.1349884939268
 20
300.2023023267789
 30
0.0
 10
431.1405514510237
 20
300.1717605271398
 30
0.0
 10
431.1451761491518
 20
300.1245748856098
 30
0.0
 10
431.1460792269944
 20
300.1087145038117
 30
0.0
 10
431.1465935968151
 20
300.077111956298
 30
0.0
 10
431.1462110395604
 20
300.0613118249299
 30
0.0
 10
431.1431453769503
 20
300.0139106528193
 30
0.0
 10
431.1385461643062
 20
299.9822582618572
 30
0.0
 10
431.12874554998
 20
299.9397114726803
 30
0.0
 10
431.125917109762
 20
299.9288452437905
 30
0.0
 10
431.1227974829171
 20
299.9180999794211
 30
0.0
  0
SPLINE
  5
19B
330
1F
100
AcDbEntity
  8
1
100
AcDbSpline
210
0.0
220
0.0
230
1.0
 70
     8
 71
     3
 72
    10
 73
     6
 74
     0
 42
0.000000001
 43
0.0000000001
 40
0.0
 40
0.0
 40
0.0
 40
0.0
 40
0.5
 40
0.5
 40
1.0
 40
1.0
 40
1.0
 40
1.0
 10
431.0533319261065
 20
300.363950493971
 30
0.0
 10
431.0628958453318
 20
300.3591470466316
 30
0.0
 10
431.0714239586488
 20
300.3528794534365
 30
0.0
 10
431.0862349605161
 20
300.3374675773355
 30
0.0
 10
431.0921852024156
 20
300.3286870442236
 30
0.0
 10
431.0965957782726
 20
300.3187614788134
 30
0.0
  0
SPLINE
  5
19C
330
1F
100
AcDbEntity
  8
1
100
AcDbSpline
210
0.0
220
0.0
230
1.0
 70
     8
 71
     3
 72
    20
 73
    16
 74
     0
 42
0.000000001
 43
0.0000000001
 40
0.0
 40
0.0
 40
0.0
 40
0.0
 40
0.1250000000000051
 40
0.1250000000000051
 40
0.2500000000000102
 40
0.2500000000000102
 40
0.3750000000000153
 40
0.3750000000000153
 40
0.5000000000000205
 40
0.5000000000000205
 40
0.6250000000000256
 40
0.6250000000000256
 40
0.7500000000000307
 40
0.7500000000000307
 40
1.0
 40
1.0
 40
1.0
 40
1.0
 10
431.0533319261065
 20
300.363950493971
 30
0.0
 10
431.0491477665238
 20
300.366051974519
 30
0.0
 10
431.0451531808657
 20
300.3684448324765
 30
0.0
 10
431.0375407723411
 20
300.3738093237793
 30
0.0
 10
431.0339212325093
 20
300.3767892796467
 30
0.0
 10
431.0272324057641
 20
300.383191220488
 30
0.0
 10
431.0241392555498
 20
300.3866279944171
 30
0.0
 10
431.0184641730095
 20
300.3939802776015
 30
0.0
 10
431.0158656570676
 20
300.3979294732189
 30
0.0
 10
431.011330104731
 20
300.4061380014827
 30
0.0
 10
431.0093847804551
 20
300.4103967098142
 30
0.0
 10
431.0061456954313
 20
300.4192250953666
 30
0.0
 10
431.0048459737519
 20
300.4238258141013
 30
0.0
 10
431.0020439115086
 20
300.4379113436623
 30
0.0
 10
431.0016307657006
 20
300.4474750101262
 30
0.0
 10
431.0027650660859
 20
300.4572198157153
 30
0.0
  0
SPLINE
  5
19D
330
1F
100
AcDbEntity
  8
1
100
AcDbSpline
210
0.0
220
0.0
230
1.0
 70
     8
 71
     3
 72
    14
 73
    10
 74
     0
 42
0.000000001
 43
0.0000000001
 40
0.0
 40
0.0
 40
0.0
 40
0.0
 40
0.1784755454326153
 40
0.1784755454326153
 40
0.4523170302884101
 40
0.4523170302884101
 40
0.726158515144205
 40
0.726158515144205
 40
1.0
 40
1.0
 40
1.0
 40
1.0
 10
433.6544602409757
 20
299.403941301276
 30
0.0
 10
433.6602768208928
 20
299.4239761023596
 30
0.0
 10
433.6670931736803
 20
299.4435180745157
 30
0.0
 10
433.6868082469385
 20
299.4918450381866
 30
0.0
 10
433.7010181827866
 20
299.5199995218898
 30
0.0
 10
433.7340498071126
 20
299.5740172754358
 30
0.0
 10
433.7523867912098
 20
299.5990968718156
 30
0.0
 10
433.7924608604087
 20
299.6457412875301
 30
0.0
 10
433.8141997006784
 20
299.6673041847434
 30
0.0
 10
433.8376613880643
 20
299.6871292999941
 30
0.0
  0
SPLINE
  5
19E
330
1F
100
AcDbEntity
  8
1
100
AcDbSpline
210
0.0
220
0.0
230
1.0
 70
     8
 71
     3
 72
    10
 73
     6
 74
     0
 42
0.000000001
 43
0.0000000001
 40
0.0
 40
0.0
 40
0.0
 40
0.0
 40
0.5
 40
0.5
 40
1.0
 40
1.0
 40
1.0
 40
1.0
 10
433.8376613880643
 20
299.6871292999941
 30
0.0
 10
433.845945875182
 20
299.6941296878691
 30
0.0
 10
433.8551760076114
 20
299.6994579824582
 30
0.0
 10
433.8751664994497
 20
299.7068265055037
 30
0.0
 10
433.8855013081561
 20
299.7087257433336
 30
0.0
 10
433.8961731991913
 20
299.7088658360403
 30
0.0
  0
SPLINE
  5
19F
330
1F
100
AcDbEntity
  8
1
100
AcDbSpline
210
0.0
220
0.0
230
1.0
 70
     8
 71
     3
 72
    16
 73
    12
 74
     0
 42
0.000000001
 43
0.0000000001
 40
0.0
 40
0.0
 40
0.0
 40
0.0
 40
0.0947162605607644
 40
0.0947162605607644
 40
0.2757730084484287
 40
0.2757730084484287
 40
0.456829756336093
 40
0.456829756336093
 40
0.6378865042237574
 40
0.6378865042237574
 40
1.0
 40
1.0
 40
1.0
 40
1.0
 10
433.9642935284081
 20
299.7400045869116
 30
0.0
 10
433.962660409472
 20
299.7381520948313
 30
0.0
 10
433.9609519356308
 20
299.7363653603356
 30
0.0
 10
433.9557575447115
 20
299.7313554456676
 30
0.0
 10
433.9520998760964
 20
299.7283432936404
 30
0.0
 10
433.9444864457941
 20
299.7229853654797
 30
0.0
 10
433.9405061412376
 20
299.7206154850442
 30
0.0
 10
433.9322044134018
 20
299.7164849903528
 30
0.0
 10
433.9278470097798
 20
299.7147155381048
 30
0.0
 10
433.9146063356725
 20
299.7104700557711
 30
0.0
 10
433.9055197711537
 20
299.7089885309368
 30
0.0
 10
433.8961731991913
 20
299.7088658360403
 30
0.0
  0
SPLINE
  5
1A0
330
1F
100
AcDbEntity
  8
1
100
AcDbSpline
210
0.0
220
0.0
230
1.0
 70
     8
 71
     3
 72
   109
 73
   105
 74
     0
 42
0.000000001
 43
0.0000000001
 40
0.0
 40
0.0
 40
0.0
 40
0.0
 40
0.0156249999999989
 40
0.0156249999999989
 40
0.0312499999999978
 40
0.0312499999999978
 40
0.0468749999999967
 40
0.0468749999999967
 40
0.0624999999999957
 40
0.0781249999999946
 40
0.0781249999999946
 40
0.0937499999999935
 40
0.0937499999999935
 40
0.1093749999999924
 40
0.1093749999999924
 40
0.1249999999999913
 40
0.1249999999999913
 40
0.1562499999999891
 40
0.1562499999999891
 40
0.171874999999988
 40
0.171874999999988
 40
0.187499999999987
 40
0.2031249999999859
 40
0.2031249999999859
 40
0.2187499999999848
 40
0.2187499999999848
 40
0.2343749999999838
 40
0.2343749999999838
 40
0.249999999999983
 40
0.249999999999983
 40
0.2812499999999811
 40
0.2812499999999811
 40
0.2968749999999802
 40
0.2968749999999802
 40
0.3124999999999794
 40
0.3124999999999794
 40
0.3281249999999785
 40
0.3281249999999785
 40
0.3437499999999777
 40
0.3593749999999768
 40
0.3593749999999768
 40
0.3749999999999759
 40
0.3749999999999759
 40
0.4062499999999751
 40
0.4062499999999751
 40
0.4374999999999745
 40
0.4374999999999745
 40
0.4531249999999742
 40
0.4531249999999742
 40
0.4687499999999741
 40
0.4687499999999741
 40
0.4843749999999741
 40
0.4843749999999741
 40
0.4999999999999738
 40
0.4999999999999738
 40
0.5312499999999748
 40
0.5312499999999748
 40
0.5468749999999761
 40
0.5468749999999761
 40
0.5624999999999774
 40
0.5781249999999786
 40
0.5781249999999786
 40
0.5937499999999798
 40
0.5937499999999798
 40
0.6093749999999812
 40
0.6093749999999812
 40
0.6249999999999824
 40
0.6249999999999824
 40
0.6562499999999864
 40
0.6562499999999864
 40
0.6718749999999876
 40
0.6718749999999876
 40
0.6874999999999889
 40
0.7031249999999902
 40
0.7031249999999902
 40
0.7187499999999913
 40
0.7187499999999913
 40
0.7343749999999926
 40
0.7343749999999926
 40
0.7499999999999938
 40
0.7499999999999938
 40
0.7812499999999944
 40
0.7812499999999944
 40
0.7968749999999945
 40
0.7968749999999945
 40
0.8124999999999944
 40
0.8124999999999944
 40
0.8281249999999948
 40
0.8281249999999948
 40
0.8437499999999948
 40
0.8593749999999948
 40
0.8593749999999948
 40
0.874999999999995
 40
0.874999999999995
 40
0.9062499999999964
 40
0.9062499999999964
 40
0.9374999999999975
 40
0.9374999999999975
 40
0.9531249999999982
 40
0.9531249999999982
 40
0.9687499999999987
 40
0.9843749999999994
 40
0.9843749999999994
 40
1.0
 40
1.0
 40
1.0
 40
1.0
 10
436.8529465756092
 20
283.1534935136741
 30
0.0
 10
436.8457395348513
 20
283.1111302175388
 30
0.0
 10
436.8386649477291
 20
283.0681763149323
 30
0.0
 10
436.8248122477793
 20
282.9812985912386
 30
0.0
 10
436.8180286642385
 20
282.9373426882217
 30
0.0
 10
436.8047477030568
 20
282.8483943624023
 30
0.0
 10
436.7982391597927
 20
282.8033201594047
 30
0.0
 10
436.7855792838628
 20
282.7126065854494
 30
0.0
 10
436.7732755419212
 20
282.6213348581049
 30
0.0
 10
436.7616800267983
 20
282.5289531575149
 30
0.0
 10
436.7504408672933
 20
282.4360129561856
 30
0.0
 10
436.7450053334618
 20
282.389304961912
 30
0.0
 10
436.7345667110013
 20
282.295985971373
 30
0.0
 10
436.7295539507716
 20
282.2492961956138
 30
0.0
 10
436.719940829549
 20
282.1558561861412
 30
0.0
 10
436.7153349480071
 20
282.1090466123244
 30
0.0
 10
436.702180478616
 20
281.9689363859662
 30
0.0
 10
436.6943319928259
 20
281.8763993475167
 30
0.0
 10
436.6839310979274
 20
281.7388891042046
 30
0.0
 10
436.6806916090118
 20
281.6932298882018
 30
0.0
 10
436.6747159253614
 20
281.6029695094512
 30
0.0
 10
436.6692314359738
 20
281.5136181125146
 30
0.0
 10
436.6647241922267
 20
281.4260751620165
 30
0.0
 10
436.6607088391686
 20
281.3394424821074
 30
0.0
 10
436.6589568749191
 20
281.2967902069382
 30
0.0
 10
436.6559602783828
 20
281.2128467144539
 30
0.0
 10
436.654715269784
 20
281.1715472696721
 30
0.0
 10
436.6527314870185
 20
281.0902920675512
 30
0.0
 10
436.6519923204378
 20
281.0502727706105
 30
0.0
 10
436.6505484956154
 20
280.9329158234792
 30
0.0
 10
436.6506083880066
 20
280.8581635997771
 30
0.0
 10
436.6522265186962
 20
280.7512455637804
 30
0.0
 10
436.6530212226122
 20
280.7165418084855
 30
0.0
 10
436.6551095633913
 20
280.6493134753101
 30
0.0
 10
436.6564038598418
 20
280.616739254568
 30
0.0
 10
436.6594914556617
 20
280.5536655109782
 30
0.0
 10
436.6612878843566
 20
280.5231231434879
 30
0.0
 10
436.6653688441853
 20
280.464346888743
 30
0.0
 10
436.6699309276083
 20
280.407947611638
 30
0.0
 10
436.6754468016046
 20
280.356260510138
 30
0.0
 10
436.6814409480003
 20
280.3069363000275
 30
0.0
 10
436.6846790950076
 20
280.2834540225302
 30
0.0
 10
436.6950476864541
 20
280.2170110516279
 30
0.0
 10
436.7028523516347
 20
280.1778551007067
 30
0.0
 10
436.7202295020987
 20
280.1099766792497
 30
0.0
 10
436.7297206575651
 20
280.0815632831061
 30
0.0
 10
436.7451495404325
 20
280.0471512131369
 30
0.0
 10
436.7504979840922
 20
280.0370432367902
 30
0.0
 10
436.7615686701557
 20
280.0196507819361
 30
0.0
 10
436.7672826050708
 20
280.0123750961635
 30
0.0
 10
436.7790675918325
 20
280.0006642763062
 30
0.0
 10
436.7851370110361
 20
279.9962343194252
 30
0.0
 10
436.7975890588773
 20
279.9902531845992
 30
0.0
 10
436.8039848937232
 20
279.988696619271
 30
0.0
 10
436.8236001762741
 20
279.9883526607372
 30
0.0
 10
436.8372215850103
 20
279.9938582413046
 30
0.0
 10
436.8584711242858
 20
280.0107252141991
 30
0.0
 10
436.8656982516447
 20
280.017799026507
 30
0.0
 10
436.8803313659403
 20
280.0347450411861
 30
0.0
 10
436.8951645155582
 20
280.0545009516928
 30
0.0
 10
436.9103972896496
 20
280.079870386499
 30
0.0
 10
436.9258320092268
 20
280.108076549198
 30
0.0
 10
436.9336294850811
 20
280.1235627952306
 30
0.0
 10
436.9493290848626
 20
280.1571801751336
 30
0.0
 10
436.9572396124465
 20
280.175326459446
 30
0.0
 10
436.9731825069674
 20
280.2143026740864
 30
0.0
 10
436.9812266453136
 20
280.2351653239494
 30
0.0
 10
437.0054590160858
 20
280.3016018789749
 30
0.0
 10
437.0216916309474
 20
280.3508423674906
 30
0.0
 10
437.0461574473757
 20
280.4321491021357
 30
0.0
 10
437.0543406831091
 20
280.4605301510111
 30
0.0
 10
437.0706358460636
 20
280.5194133707041
 30
0.0
 10
437.0868847197602
 20
280.5804958358569
 30
0.0
 10
437.1030410481018
 20
280.6459752164124
 30
0.0
 10
437.1191505654882
 20
280.7136786287425
 30
0.0
 10
437.1271523546844
 20
280.748520045635
 30
0.0
 10
437.1430124249841
 20
280.8200051381373
 30
0.0
 10
437.1508768589071
 20
280.8566745961395
 30
0.0
 10
437.1664740331866
 20
280.9318742748194
 30
0.0
 10
437.1742202140338
 20
280.9704749429679
 30
0.0
 10
437.1971430240409
 20
281.0885120851466
 30
0.0
 10
437.2119975717002
 20
281.1701125466915
 30
0.0
 10
437.2336361086043
 20
281.2968924196925
 30
0.0
 10
437.240737461838
 20
281.339867259992
 30
0.0
 10
437.2546241295613
 20
281.4266755625222
 30
0.0
 10
437.2614222554661
 20
281.4705828732663
 30
0.0
 10
437.2747281590189
 20
281.559403579273
 30
0.0
 10
437.2812425922528
 20
281.6043647026553
 30
0.0
 10
437.2939481581401
 20
281.6950932499292
 30
0.0
 10
437.3062925764974
 20
281.7863508613322
 30
0.0
 10
437.3179206601249
 20
281.8786578693918
 30
0.0
 10
437.3291892371353
 20
281.9714915377207
 30
0.0
 10
437.3346492549521
 20
282.0182261596611
 30
0.0
 10
437.3503768434416
 20
282.1582665684204
 30
0.0
 10
437.3600300765946
 20
282.2516860313109
 30
0.0
 10
437.3776671835103
 20
282.4386437440051
 30
0.0
 10
437.3855665716567
 20
282.5312965214974
 30
0.0
 10
437.3960312115488
 20
282.6688127869745
 30
0.0
 10
437.3992942009898
 20
282.714498949414
 30
0.0
 10
437.4053222951066
 20
282.8049048737193
 30
0.0
 10
437.4108563479131
 20
282.8943706836609
 30
0.0
 10
437.4154099809563
 20
282.9819708465748
 30
0.0
 10
437.4194713732675
 20
283.0686343214567
 30
0.0
 10
437.4212524845372
 20
283.1114412685448
 30
0.0
 10
437.4227762470856
 20
283.1534935136937
 30
0.0
  0
SPLINE
  5
1A1
330
1F
100
AcDbEntity
  8
1
100
AcDbSpline
210
0.0
220
0.0
230
1.0
 70
     8
 71
     3
 72
    71
 73
    67
 74
     0
 42
0.000000001
 43
0.0000000001
 40
0.0
 40
0.0
 40
0.0
 40
0.0
 40
0.0312499999999927
 40
0.0312499999999927
 40
0.0468749999999899
 40
0.0468749999999899
 40
0.0624999999999871
 40
0.0937499999999815
 40
0.0937499999999815
 40
0.1249999999999758
 40
0.1249999999999758
 40
0.1562499999999702
 40
0.1562499999999702
 40
0.1874999999999646
 40
0.1874999999999646
 40
0.2499999999999533
 40
0.2499999999999533
 40
0.2656249999999507
 40
0.2656249999999507
 40
0.2812499999999482
 40
0.3124999999999429
 40
0.3124999999999429
 40
0.3749999999999334
 40
0.3749999999999334
 40
0.3906249999999312
 40
0.3906249999999312
 40
0.4062499999999293
 40
0.4062499999999293
 40
0.4374999999999283
 40
0.4687499999999273
 40
0.4687499999999273
 40
0.484374999999928
 40
0.484374999999928
 40
0.4999999999999286
 40
0.5312499999999299
 40
0.5312499999999299
 40
0.5624999999999312
 40
0.5624999999999312
 40
0.5937499999999324
 40
0.5937499999999324
 40
0.6249999999999338
 40
0.6249999999999338
 40
0.6874999999999386
 40
0.6874999999999386
 40
0.7031249999999396
 40
0.7031249999999396
 40
0.7187499999999407
 40
0.7499999999999446
 40
0.7499999999999446
 40
0.7812499999999486
 40
0.7812499999999486
 40
0.8124999999999523
 40
0.8124999999999523
 40
0.8281249999999552
 40
0.8281249999999552
 40
0.8437499999999579
 40
0.8437499999999579
 40
0.8749999999999648
 40
0.9062499999999717
 40
0.9062499999999717
 40
0.9218749999999763
 40
0.9218749999999763
 40
0.9374999999999811
 40
0.9687499999999907
 40
0.9687499999999907
 40
1.0
 40
1.0
 40
1.0
 40
1.0
 10
437.4227762470856
 20
283.1534935136937
 30
0.0
 10
437.4195043418681
 20
283.2011911671448
 30
0.0
 10
437.4160028291491
 20
283.2480519657583
 30
0.0
 10
437.4104056116419
 20
283.3170859235627
 30
0.0
 10
437.4084805081476
 20
283.3399075419889
 30
0.0
 10
437.4045266649005
 20
283.384992533832
 30
0.0
 10
437.3984391611286
 20
283.4518025489477
 30
0.0
 10
437.3918851262599
 20
283.5161793684163
 30
0.0
 10
437.3827324899151
 20
283.599856308923
 30
0.0
 10
437.3779402906843
 20
283.6406812139368
 30
0.0
 10
437.3679999165283
 20
283.719660608724
 30
0.0
 10
437.3628489749434
 20
283.7578515335765
 30
0.0
 10
437.3521873155842
 20
283.8316482890344
 30
0.0
 10
437.3466700930776
 20
283.8672929020197
 30
0.0
 10
437.3296171306376
 20
283.9700492012967
 30
0.0
 10
437.3176490877193
 20
284.0326263185863
 30
0.0
 10
437.3019402841463
 20
284.1034438232867
 30
0.0
 10
437.2987616678083
 20
284.1172301471398
 30
0.0
 10
437.2923641519954
 20
284.1439121505404
 30
0.0
 10
437.2826946211361
 20
284.1826572751902
 30
0.0
 10
437.2728082029568
 20
284.2176190680386
 30
0.0
 10
437.2527498118699
 20
284.2825615037038
 30
0.0
 10
437.2389982013936
 20
284.3192391722755
 30
0.0
 10
437.2213256116935
 20
284.3566595824273
 30
0.0
 10
437.2177668296491
 20
284.3637204070855
 30
0.0
 10
437.2106000585161
 20
284.3769837001996
 30
0.0
 10
437.2069870724168
 20
284.3831934778835
 30
0.0
 10
437.1961246440162
 20
284.400434032018
 30
0.0
 10
437.1815657112654
 20
284.419757636506
 30
0.0
 10
437.1668560429657
 20
284.4317853045038
 30
0.0
 10
437.1557666666556
 20
284.4380410740715
 30
0.0
 10
437.1520589145268
 20
284.4396647237115
 30
0.0
 10
437.1446525964641
 20
284.4419741021177
 30
0.0
 10
437.1335469377033
 20
284.4440375312209
 30
0.0
 10
437.1224526841656
 20
284.4419173033081
 30
0.0
 10
437.1076705378022
 20
284.4353518246042
 30
0.0
 10
437.1002710426374
 20
284.4301831293942
 30
0.0
 10
437.0855817001957
 20
284.4161405702376
 30
0.0
 10
437.0782853817892
 20
284.4072713223647
 30
0.0
 10
437.0637894728205
 20
284.3858360410019
 30
0.0
 10
437.0565846168181
 20
284.3732593361442
 30
0.0
 10
437.0351507855568
 20
284.3299667948808
 30
0.0
 10
437.0212259322324
 20
284.2939794374994
 30
0.0
 10
437.0042775694323
 20
284.2400442685368
 30
0.0
 10
437.0009083009625
 20
284.2287977568526
 30
0.0
 10
436.9942408704668
 20
284.2054848117339
 30
0.0
 10
436.9843390881443
 20
284.1692637749162
 30
0.0
 10
436.9747339437308
 20
284.1293061750704
 30
0.0
 10
436.962191946433
 20
284.0726930745977
 30
0.0
 10
436.9560428113714
 20
284.0426572124525
 30
0.0
 10
436.9440984835624
 20
283.9796463072429
 30
0.0
 10
436.9382960405363
 20
283.9466471854487
 30
0.0
 10
436.9298467055183
 20
283.8949102149729
 30
0.0
 10
436.927072689015
 20
283.8772911559607
 30
0.0
 10
436.9216099585295
 20
283.8413023126955
 30
0.0
 10
436.9189186361698
 20
283.8229137008875
 30
0.0
 10
436.9109955318427
 20
283.7667676523881
 30
0.0
 10
436.9008382326295
 20
283.6893433701811
 30
0.0
 10
436.8914892047212
 20
283.6068273901905
 30
0.0
 10
436.8847831681466
 20
283.5430144343803
 30
0.0
 10
436.8825997889178
 20
283.5214293259392
 30
0.0
 10
436.8783525447156
 20
283.4777899787698
 30
0.0
 10
436.8721543683736
 20
283.411564224459
 30
0.0
 10
436.8664712902831
 20
283.3430514633516
 30
0.0
 10
436.8593530197588
 20
283.2496624402859
 30
0.0
 10
436.8560215809238
 20
283.2019000165008
 30
0.0
 10
436.8529465756112
 20
283.1534935136739
 30
0.0
  0
SPLINE
  5
1A2
330
1F
100
AcDbEntity
  8
1
100
AcDbSpline
210
0.0
220
0.0
230
1.0
 70
     8
 71
     3
 72
    10
 73
     6
 74
     0
 42
0.000000001
 43
0.0000000001
 40
0.0
 40
0.0
 40
0.0
 40
0.0
 40
0.5
 40
0.5
 40
1.0
 40
1.0
 40
1.0
 40
1.0
 10
419.2392834728021
 20
294.6215954352414
 30
0.0
 10
419.4842578020117
 20
294.4360122130299
 30
0.0
 10
419.7218815898967
 20
294.2526326140701
 30
0.0
 10
420.1804036703118
 20
293.8908875625688
 30
0.0
 10
420.4013197537316
 20
293.7125167764859
 30
0.0
 10
420.6123739268958
 20
293.5371024984728
 30
0.0
  0
SPLINE
  5
1A3
330
1F
100
AcDbEntity
  8
1
100
AcDbSpline
210
0.0
220
0.0
230
1.0
 70
     8
 71
     3
 72
    27
 73
    23
 74
     0
 42
0.000000001
 43
0.0000000001
 40
0.0
 40
0.0
 40
0.0
 40
0.0
 40
0.1250000000001609
 40
0.1250000000001609
 40
0.1875000000002406
 40
0.1875000000002406
 40
0.2500000000003202
 40
0.2500000000003202
 40
0.3750000000004795
 40
0.3750000000004795
 40
0.4375000000005045
 40
0.4375000000005045
 40
0.5000000000005294
 40
0.5000000000005294
 40
0.6250000000004733
 40
0.6250000000004733
 40
0.6875000000003944
 40
0.6875000000003944
 40
0.7500000000003155
 40
0.7500000000003155
 40
0.8750000000001577
 40
1.0
 40
1.0
 40
1.0
 40
1.0
 10
432.3833793844234
 20
298.0570328862808
 30
0.0
 10
432.3541657051618
 20
298.0442706549064
 30
0.0
 10
432.3242296144588
 20
298.0339425362668
 30
0.0
 10
432.2782628962756
 20
298.0220448127964
 30
0.0
 10
432.2627627317113
 20
298.0186807300875
 30
0.0
 10
432.2313999375291
 20
298.0131805184013
 30
0.0
 10
432.2154912439128
 20
298.011044474476
 30
0.0
 10
432.1679764045525
 20
298.0065973122827
 30
0.0
 10
432.1363650854812
 20
298.0061826747764
 30
0.0
 10
432.0890450555672
 20
298.0093247373972
 30
0.0
 10
432.0732879407338
 20
298.0110023543769
 30
0.0
 10
432.0418068851471
 20
298.015643790177
 30
0.0
 10
432.0260110873737
 20
298.0186266889688
 30
0.0
 10
431.9793800539501
 20
298.0294041707598
 30
0.0
 10
431.9492256918017
 20
298.0389978902853
 30
0.0
 10
431.9053516363945
 20
298.0568925735477
 30
0.0
 10
431.8909542965521
 20
298.0634443071764
 30
0.0
 10
431.8626203087656
 20
298.0777367109165
 30
0.0
 10
431.8486333991859
 20
298.0855086286426
 30
0.0
 10
431.8077448086374
 20
298.1104429572326
 30
0.0
 10
431.7566101414185
 20
298.1476064430392
 30
0.0
 10
431.711953353309
 20
298.192258688855
 30
0.0
 10
431.6912955458959
 20
298.216511893749
 30
0.0
  0
SPLINE
  5
1A4
330
1F
100
AcDbEntity
  8
1
100
AcDbSpline
210
0.0
220
0.0
230
1.0
 70
     8
 71
     3
 72
    14
 73
    10
 74
     0
 42
0.000000001
 43
0.0000000001
 40
0.0
 40
0.0
 40
0.0
 40
0.0
 40
0.4030350142170919
 40
0.4030350142170919
 40
0.6045525213254228
 40
0.6045525213254228
 40
0.8060700284337537
 40
0.8060700284337537
 40
1.0
 40
1.0
 40
1.0
 40
1.0
 10
431.6912955458959
 20
298.216511893749
 30
0.0
 10
431.6848273162669
 20
298.2241058893436
 30
0.0
 10
431.6796395451435
 20
298.2326571705963
 30
0.0
 10
431.6740230600498
 20
298.246094588339
 30
0.0
 10
431.6724931137367
 20
298.250701060079
 30
0.0
 10
431.6701227797522
 20
298.2601699295692
 30
0.0
 10
431.6692996395925
 20
298.2649864259731
 30
0.0
 10
431.6683946753514
 20
298.2743746578045
 30
0.0
 10
431.6682780252993
 20
298.2789800050689
 30
0.0
 10
431.6684838262881
 20
298.2835863397345
 30
0.0
  0
SPLINE
  5
1A5
330
1F
100
AcDbEntity
  8
1
100
AcDbSpline
210
0.0
220
0.0
230
1.0
 70
     8
 71
     3
 72
    10
 73
     6
 74
     0
 42
0.000000001
 43
0.0000000001
 40
0.0
 40
0.0
 40
0.0
 40
0.0
 40
0.330719556421613
 40
0.330719556421613
 40
1.0
 40
1.0
 40
1.0
 40
1.0
 10
432.4182753258986
 20
298.0830831461286
 30
0.0
 10
432.4151851247028
 20
298.0794303622385
 30
0.0
 10
432.4117858644997
 20
298.0759623203072
 30
0.0
 10
432.4007478273541
 20
298.066292780153
 30
0.0
 10
432.3925132850078
 20
298.06102310441
 30
0.0
 10
432.3833793844234
 20
298.0570328862808
 30
0.0
  0
SPLINE
  5
1A6
330
1F
100
AcDbEntity
  8
1
100
AcDbSpline
210
0.0
220
0.0
230
1.0
 70
     8
 71
     3
 72
    10
 73
     6
 74
     0
 42
0.000000001
 43
0.0000000001
 40
0.0
 40
0.0
 40
0.0
 40
0.0
 40
0.7195862853138882
 40
0.7195862853138882
 40
1.0
 40
1.0
 40
1.0
 40
1.0
 10
431.6895676539451
 20
298.3890331395691
 30
0.0
 10
431.6915850483204
 20
298.3780402361315
 30
0.0
 10
431.6916892087546
 20
298.3670270637269
 30
0.0
 10
431.6893312406351
 20
298.3519139716304
 30
0.0
 10
431.6884096121993
 20
298.3477653291263
 30
0.0
 10
431.6872288807166
 20
298.3437053956098
 30
0.0
  0
SPLINE
  5
1A7
330
1F
100
AcDbEntity
  8
1
100
AcDbSpline
210
0.0
220
0.0
230
1.0
 70
     8
 71
     3
 72
    10
 73
     6
 74
     0
 42
0.000000001
 43
0.0000000001
 40
0.0
 40
0.0
 40
0.0
 40
0.0
 40
0.0492703460719637
 40
0.0492703460719637
 40
1.0
 40
1.0
 40
1.0
 40
1.0
 10
432.4454345970568
 20
298.1803842615402
 30
0.0
 10
432.4455941228534
 20
298.1809311489263
 30
0.0
 10
432.4457584818873
 20
298.1814773448737
 30
0.0
 10
432.4491924908065
 20
298.1925487426925
 30
0.0
 10
432.4540957261685
 20
298.2023313125255
 30
0.0
 10
432.4607382731277
 20
298.2113299219971
 30
0.0
  0
SPLINE
  5
1A8
330
1F
100
AcDbEntity
  8
1
100
AcDbSpline
210
0.0
220
0.0
230
1.0
 70
     8
 71
     3
 72
    20
 73
    16
 74
     0
 42
0.000000001
 43
0.0000000001
 40
0.0
 40
0.0
 40
0.0
 40
0.0
 40
0.1250000000000816
 40
0.1250000000000816
 40
0.2500000000001632
 40
0.2500000000001632
 40
0.3750000000002451
 40
0.3750000000002451
 40
0.5000000000003272
 40
0.5000000000003272
 40
0.6250000000004093
 40
0.6250000000004093
 40
0.7500000000004912
 40
0.7500000000004912
 40
1.0
 40
1.0
 40
1.0
 40
1.0
 10
431.1076066165204
 20
298.8574440957176
 30
0.0
 10
431.1035915006573
 20
298.8548537507142
 30
0.0
 10
431.0994188562397
 20
298.8525733834467
 30
0.0
 10
431.0907607031325
 20
298.8486286063413
 30
0.0
 10
431.0862675214191
 20
298.8469670578636
 30
0.0
 10
431.0771782045163
 20
298.8443424264339
 30
0.0
 10
431.0725566588316
 20
298.8433659833611
 30
0.0
 10
431.063157865995
 20
298.8420960604235
 30
0.0
 10
431.0583424829891
 20
298.8418049901583
 30
0.0
 10
431.0487832403405
 20
298.8419523551497
 30
0.0
 10
431.044034900857
 20
298.8423832518077
 30
0.0
 10
431.034602218776
 20
298.8439664090665
 30
0.0
 10
431.0298871463656
 20
298.8451291005384
 30
0.0
 10
431.0160639096988
 20
298.8497110035268
 30
0.0
 10
431.0074485537116
 20
298.8541164851555
 30
0.0
 10
430.9994738286698
 20
298.8599576804189
 30
0.0
  0
SPLINE
  5
1A9
330
1F
100
AcDbEntity
  8
1
100
AcDbSpline
210
0.0
220
0.0
230
1.0
 70
     8
 71
     3
 72
    10
 73
     6
 74
     0
 42
0.000000001
 43
0.0000000001
 40
0.0
 40
0.0
 40
0.0
 40
0.0
 40
0.5
 40
0.5
 40
1.0
 40
1.0
 40
1.0
 40
1.0
 10
431.1076066165204
 20
298.8574440957176
 30
0.0
 10
431.1167842702478
 20
298.8633650430293
 30
0.0
 10
431.126708904411
 20
298.8676554137673
 30
0.0
 10
431.1479216007438
 20
298.8728514369843
 30
0.0
 10
431.1587156345827
 20
298.8736482914391
 30
0.0
 10
431.1697140597215
 20
298.8725357480583
 30
0.0
  0
SPLINE
  5
1B0
330
1F
100
AcDbEntity
  8
1
100
AcDbSpline
210
0.0
220
0.0
230
1.0
 70
     8
 71
     3
 72
    36
 73
    32
 74
     0
 42
0.000000001
 43
0.0000000001
 40
0.0
 40
0.0
 40
0.0
 40
0.0
 40
0.1249999999999316
 40
0.1249999999999316
 40
0.1874999999999054
 40
0.1874999999999054
 40
0.2187499999998964
 40
0.2187499999998964
 40
0.2499999999998873
 40
0.2499999999998873
 40
0.3749999999998301
 40
0.3749999999998301
 40
0.4062499999998059
 40
0.4062499999998059
 40
0.4374999999997815
 40
0.4374999999997815
 40
0.4999999999997717
 40
0.4999999999997717
 40
0.6249999999998022
 40
0.6249999999998022
 40
0.6562499999998376
 40
0.6562499999998376
 40
0.6874999999998729
 40
0.7499999999999398
 40
0.8125000000000067
 40
0.8125000000000067
 40
0.843750000000006
 40
0.843750000000006
 40
0.8750000000000055
 40
0.8750000000000055
 40
1.0
 40
1.0
 40
1.0
 40
1.0
 10
438.6744348418796
 20
305.5403472122728
 30
0.0
 10
438.6725942710209
 20
305.5914360670193
 30
0.0
 10
438.6656242677894
 20
305.6414663405913
 30
0.0
 10
438.6479150575284
 20
305.7150146719882
 30
0.0
 10
438.6407931516931
 20
305.7392792465168
 30
0.0
 10
438.6282522837198
 20
305.7752926636243
 30
0.0
 10
438.623749152719
 20
305.7872634090479
 30
0.0
 10
438.6141746180796
 20
305.8109182942505
 30
0.0
 10
438.6091131955695
 20
305.8225829374753
 30
0.0
 10
438.5824655893651
 20
305.8801101390102
 30
0.0
 10
438.55689730719
 20
305.9236080397364
 30
0.0
 10
438.519696485713
 20
305.9748685101372
 30
0.0
 10
438.5119918582275
 20
305.9849635601635
 30
0.0
 10
438.496045559277
 20
306.0048347516997
 30
0.0
 10
438.4877838177553
 20
306.0146318792894
 30
0.0
 10
438.4624323614556
 20
306.0432526877548
 30
0.0
 10
438.444725454073
 20
306.0613821159045
 30
0.0
 10
438.3892556754801
 20
306.112998205553
 30
0.0
 10
438.349166882544
 20
306.1437399742557
 30
0.0
 10
438.2950454305301
 20
306.1774343151683
 30
0.0
 10
438.2839982468267
 20
306.1839440405803
 30
0.0
 10
438.261730431264
 20
306.1963446127068
 30
0.0
 10
438.2279933078251
 20
306.2140666173117
 30
0.0
 10
438.170117908232
 20
306.2392879998583
 30
0.0
 10
438.1220757183711
 20
306.2549008589567
 30
0.0
 10
438.0853766352919
 20
306.2648615990739
 30
0.0
 10
438.0730321619905
 20
306.2678898232852
 30
0.0
 10
438.0481152994355
 20
306.2733490603342
 30
0.0
 10
438.0355245696845
 20
306.2757817697508
 30
0.0
 10
437.9725740909604
 20
306.2863214652858
 30
0.0
 10
437.9218158713931
 20
306.2897115360148
 30
0.0
 10
437.8706493765341
 20
306.2879276339119
 30
0.0
  0
SPLINE
  5
1B1
330
1F
100
AcDbEntity
  8
1
100
AcDbSpline
210
0.0
220
0.0
230
1.0
 70
     8
 71
     3
 72
    36
 73
    32
 74
     0
 42
0.000000001
 43
0.0000000001
 40
0.0
 40
0.0
 40
0.0
 40
0.0
 40
0.1250000000002433
 40
0.1250000000002433
 40
0.1875000000003316
 40
0.1875000000003316
 40
0.2187500000003436
 40
0.2187500000003436
 40
0.2500000000003555
 40
0.2500000000003555
 40
0.3750000000004034
 40
0.3750000000004034
 40
0.4062500000004141
 40
0.4062500000004141
 40
0.4375000000004249
 40
0.4375000000004249
 40
0.5000000000003898
 40
0.5000000000003898
 40
0.6250000000003725
 40
0.6250000000003725
 40
0.6562500000003539
 40
0.6562500000003539
 40
0.6875000000003352
 40
0.7500000000002598
 40
0.8125000000001845
 40
0.8125000000001845
 40
0.8437500000001509
 40
0.8437500000001509
 40
0.8750000000001174
 40
0.8750000000001174
 40
1.0
 40
1.0
 40
1.0
 40
1.0
 10
426.7325433852694
 20
305.8996014302852
 30
0.0
 10
426.6813723007426
 20
305.897817368165
 30
0.0
 10
426.6312669110428
 20
305.8909111954673
 30
0.0
 10
426.5576159658068
 20
305.8733080857213
 30
0.0
 10
426.5333188769836
 20
305.8662232865009
 30
0.0
 10
426.4972592651778
 20
305.8537407305881
 30
0.0
 10
426.4852735150546
 20
305.8492575322092
 30
0.0
 10
426.4615896874794
 20
305.8397234967039
 30
0.0
 10
426.4499111282485
 20
305.8346826038918
 30
0.0
 10
426.3923170612606
 20
305.8081390158906
 30
0.0
 10
426.3487742750682
 20
305.7826582911183
 30
0.0
 10
426.2974683100886
 20
305.7455722710922
 30
0.0
 10
426.2873646966998
 20
305.7378908741246
 30
0.0
 10
426.2674774659839
 20
305.7219915849602
 30
0.0
 10
426.2576728490183
 20
305.7137536776607
 30
0.0
 10
426.2290314345379
 20
305.6884738479071
 30
0.0
 10
426.2108906794895
 20
305.6708150203796
 30
0.0
 10
426.1592476348485
 20
305.6154904397732
 30
0.0
 10
426.1284971945628
 20
305.5754997139506
 30
0.0
 10
426.094804008906
 20
305.5215024821076
 30
0.0
 10
426.0882951253451
 20
305.5104802688692
 30
0.0
 10
426.0758974379545
 20
305.4882620314002
 30
0.0
 10
426.0581815592768
 20
305.454598906264
 30
0.0
 10
426.0329792190812
 20
305.3968450261326
 30
0.0
 10
426.0173909358926
 20
305.3488981363163
 30
0.0
 10
426.0074522073373
 20
305.3122697942899
 30
0.0
 10
426.0044319180204
 20
305.2999487787833
 30
0.0
 10
425.998989773123
 20
305.2750785811802
 30
0.0
 10
425.9965662373692
 20
305.2625110905043
 30
0.0
 10
425.9860750817358
 20
305.1996751019691
 30
0.0
 10
425.9827325643827
 20
305.1490038503463
 30
0.0
 10
425.9845729701558
 20
305.0979195778925
 30
0.0
  0
SPLINE
  5
1B2
330
1F
100
AcDbEntity
  8
1
100
AcDbSpline
210
0.0
220
0.0
230
1.0
 70
     8
 71
     3
 72
    36
 73
    32
 74
     0
 42
0.000000001
 43
0.0000000001
 40
0.0
 40
0.0
 40
0.0
 40
0.0
 40
0.1250000000001032
 40
0.1250000000001032
 40
0.1875000000001628
 40
0.1875000000001628
 40
0.2187500000001915
 40
0.2187500000001915
 40
0.2500000000002203
 40
0.2500000000002203
 40
0.3750000000003107
 40
0.3750000000003107
 40
0.4062500000003232
 40
0.4062500000003232
 40
0.4375000000003357
 40
0.4375000000003357
 40
0.5000000000003158
 40
0.5000000000003158
 40
0.6250000000002744
 40
0.6250000000002744
 40
0.6562500000002352
 40
0.6562500000002352
 40
0.6875000000001959
 40
0.7500000000001174
 40
0.812500000000039
 40
0.812500000000039
 40
0.8437500000000323
 40
0.8437500000000323
 40
0.8750000000000259
 40
0.8750000000000259
 40
1.0
 40
1.0
 40
1.0
 40
1.0
 10
426.3851990951916
 20
293.9777120544458
 30
0.0
 10
426.3870396660502
 20
293.9266231996993
 30
0.0
 10
426.3940096692818
 20
293.8765929261273
 30
0.0
 10
426.4117188795428
 20
293.8030445947305
 30
0.0
 10
426.4188407853781
 20
293.7787800202018
 30
0.0
 10
426.4313816533513
 20
293.7427666030943
 30
0.0
 10
426.4358847843522
 20
293.7307958576708
 30
0.0
 10
426.4454593189914
 20
293.7071409724681
 30
0.0
 10
426.4505207415016
 20
293.6954763292433
 30
0.0
 10
426.4771683477061
 20
293.6379491277085
 30
0.0
 10
426.5027366298812
 20
293.5944512269822
 30
0.0
 10
426.539937451358
 20
293.5431907565815
 30
0.0
 10
426.5476420788436
 20
293.5330957065551
 30
0.0
 10
426.5635883777942
 20
293.513224515019
 30
0.0
 10
426.5718501193157
 20
293.5034273874293
 30
0.0
 10
426.5972015756156
 20
293.4748065789639
 30
0.0
 10
426.6149084829981
 20
293.4566771508142
 30
0.0
 10
426.6703782615911
 20
293.4050610611656
 30
0.0
 10
426.7104670545272
 20
293.374319292463
 30
0.0
 10
426.7645885065409
 20
293.3406249515503
 30
0.0
 10
426.7756356902445
 20
293.3341152261383
 30
0.0
 10
426.7979035058071
 20
293.3217146540119
 30
0.0
 10
426.8316406292462
 20
293.3039926494069
 30
0.0
 10
426.8895160288391
 20
293.2787712668604
 30
0.0
 10
426.9375582187001
 20
293.2631584077621
 30
0.0
 10
426.9742573017793
 20
293.2531976676448
 30
0.0
 10
426.9866017750807
 20
293.2501694434335
 30
0.0
 10
427.0115186376357
 20
293.2447102063845
 30
0.0
 10
427.0241093673866
 20
293.2422774969677
 30
0.0
 10
427.0870598461106
 20
293.2317378014328
 30
0.0
 10
427.1378180656781
 20
293.2283477307038
 30
0.0
 10
427.1889845605371
 20
293.2301316328068
 30
0.0
  0
SPLINE
  5
1B3
330
1F
100
AcDbEntity
  8
1
100
AcDbSpline
210
0.0
220
0.0
230
1.0
 70
     8
 71
     3
 72
    36
 73
    32
 74
     0
 42
0.000000001
 43
0.0000000001
 40
0.0
 40
0.0
 40
0.0
 40
0.0
 40
0.1249999999997855
 40
0.1249999999997855
 40
0.1874999999997118
 40
0.1874999999997118
 40
0.2187499999997072
 40
0.2187499999997072
 40
0.2499999999997026
 40
0.2499999999997026
 40
0.3749999999996867
 40
0.3749999999996867
 40
0.4062499999996835
 40
0.4062499999996835
 40
0.43749999999968
 40
0.43749999999968
 40
0.4999999999997243
 40
0.4999999999997243
 40
0.6249999999998579
 40
0.6249999999998579
 40
0.6562499999998828
 40
0.6562499999998828
 40
0.6874999999999077
 40
0.7499999999999269
 40
0.8124999999999461
 40
0.8124999999999461
 40
0.8437499999999557
 40
0.8437499999999557
 40
0.8749999999999655
 40
0.8749999999999655
 40
1.0
 40
1.0
 40
1.0
 40
1.0
 10
438.3270905518016
 20
293.6184578364334
 30
0.0
 10
438.3782616363286
 20
293.6202418985537
 30
0.0
 10
438.4283670260282
 20
293.6271480712514
 30
0.0
 10
438.5020179712642
 20
293.6447511809973
 30
0.0
 10
438.5263150600876
 20
293.6518359802178
 30
0.0
 10
438.5623746718934
 20
293.6643185361305
 30
0.0
 10
438.5743604220165
 20
293.6688017345095
 30
0.0
 10
438.5980442495919
 20
293.6783357700148
 30
0.0
 10
438.6097228088226
 20
293.6833766628268
 30
0.0
 10
438.6673168758104
 20
293.7099202508282
 30
0.0
 10
438.7108596620028
 20
293.7354009756004
 30
0.0
 10
438.7621656269827
 20
293.7724869956264
 30
0.0
 10
438.7722692403714
 20
293.780168392594
 30
0.0
 10
438.7921564710872
 20
293.7960676817586
 30
0.0
 10
438.8019610880528
 20
293.804305589058
 30
0.0
 10
438.8306025025333
 20
293.8295854188116
 30
0.0
 10
438.8487432575817
 20
293.8472442463391
 30
0.0
 10
438.9003863022225
 20
293.9025688269453
 30
0.0
 10
438.9311367425083
 20
293.942559552768
 30
0.0
 10
438.964829928165
 20
293.996556784611
 30
0.0
 10
438.971338811726
 20
294.0075789978495
 30
0.0
 10
438.9837364991166
 20
294.0297972353185
 30
0.0
 10
439.0014523777941
 20
294.0634603604546
 30
0.0
 10
439.0266547179898
 20
294.1212142405861
 30
0.0
 10
439.0422430011786
 20
294.1691611304023
 30
0.0
 10
439.0521817297338
 20
294.2057894724288
 30
0.0
 10
439.0552020190506
 20
294.2181104879353
 30
0.0
 10
439.0606441639479
 20
294.2429806855384
 30
0.0
 10
439.063067699702
 20
294.2555481762143
 30
0.0
 10
439.0735588553351
 20
294.3183841647495
 30
0.0
 10
439.0769013726884
 20
294.3690554163723
 30
0.0
 10
439.0750609669153
 20
294.4201396888262
 30
0.0
  0
SPLINE
  5
1B4
330
1F
100
AcDbEntity
  8
1
100
AcDbSpline
210
0.0
220
0.0
230
1.0
 70
    28
 71
     4
 72
    10
 73
     5
 74
     0
 42
0.000000001
 43
0.0000000001
 40
0.0
 40
0.0
 40
0.0
 40
0.0
 40
0.0
 40
1.0
 40
1.0
 40
1.0
 40
1.0
 40
1.0
 10
297.9048419452957
 20
272.0654175637187
 30
0.0
 41
1.001498006703475
 10
297.9048419452957
 20
272.3985896490435
 30
0.0
 41
1.001498006703475
 10
297.9048419452957
 20
272.7317617343684
 30
0.0
 41
1.001498006703475
 10
297.9048419452957
 20
273.0649338196933
 30
0.0
 41
1.001498006703475
 10
297.9048419452957
 20
273.3981059050182
 30
0.0
 41
1.001498006703475
  0
SPLINE
  5
1B5
330
1F
100
AcDbEntity
  8
1
100
AcDbSpline
210
0.0
220
0.0
230
1.0
 70
     8
 71
     3
 72
    22
 73
    18
 74
     0
 42
0.000000001
 43
0.0000000001
 40
0.0
 40
0.0
 40
0.0
 40
0.0
 40
0.125
 40
0.125
 40
0.25
 40
0.25
 40
0.375
 40
0.375
 40
0.5
 40
0.5
 40
0.625
 40
0.625
 40
0.75
 40
0.75
 40
0.875
 40
0.875
 40
1.0
 40
1.0
 40
1.0
 40
1.0
 10
299.4408981613811
 20
272.0346690934427
 30
0.0
 10
300.3064718090223
 20
272.0683169347279
 30
0.0
 10
301.1704980042088
 20
272.1086990374078
 30
0.0
 10
302.8965733023362
 20
272.2005628279571
 30
0.0
 10
303.7586211104976
 20
272.252044813405
 30
0.0
 10
305.4816402485638
 20
272.3639770857396
 30
0.0
 10
306.3426105357155
 20
272.4244276435431
 30
0.0
 10
308.0641960824842
 20
272.5523942342506
 30
0.0
 10
308.9248104978961
 20
272.6199105001813
 30
0.0
 10
310.6462546994206
 20
272.7603265330129
 30
0.0
 10
311.5070838015057
 20
272.8332264808711
 30
0.0
 10
313.2293995063855
 20
272.9829424859748
 30
0.0
 10
314.0908855574363
 20
273.0597586531288
 30
0.0
 10
315.8148474568747
 20
273.2160498450259
 30
0.0
 10
316.6772772203813
 20
273.2955207271756
 30
0.0
 10
318.4032434640008
 20
273.4560607221439
 30
0.0
 10
319.266786795017
 20
273.5371303916683
 30
0.0
 10
320.1309747504537
 20
273.6185807451859
 30
0.0
  0
SPLINE
  5
1B6
330
1F
100
AcDbEntity
  8
1
100
AcDbSpline
210
0.0
220
0.0
230
1.0
 70
     8
 71
     3
 72
     8
 73
     4
 74
     0
 42
0.000000001
 43
0.0000000001
 40
0.0
 40
0.0
 40
0.0
 40
0.0
 40
1.0
 40
1.0
 40
1.0
 40
1.0
 10
299.4408981613812
 20
272.0346690934427
 30
0.0
 10
298.9289875952315
 20
272.0444327353986
 30
0.0
 10
298.4169705077256
 20
272.0546914912251
 30
0.0
 10
297.9048419452957
 20
272.0654175637185
 30
0.0
  0
SPLINE
  5
1B7
330
1F
100
AcDbEntity
  8
1
100
AcDbSpline
210
0.0
220
0.0
230
1.0
 70
    12
 71
     3
 72
     8
 73
     4
 74
     0
 42
0.000000001
 43
0.0000000001
 40
0.0
 40
0.0
 40
0.0
 40
0.0
 40
1.0
 40
1.0
 40
1.0
 40
1.0
 10
297.9048419452957
 20
273.3981059050182
 30
0.0
 41
1.001498006703475
 10
305.6481184636003
 20
273.3938103205396
 30
0.0
 41
1.001348445033958
 10
312.9936476315787
 20
273.4408715221485
 30
0.0
 41
1.001410188412523
 10
320.1309747504536
 20
273.6185807451859
 30
0.0
 41
1.001482469025665
  0
SPLINE
  5
1B8
330
1F
100
AcDbEntity
  8
1
100
AcDbSpline
210
0.0
220
0.0
230
1.0
 70
     8
 71
     3
 72
     8
 73
     4
 74
     0
 42
0.000000001
 43
0.0000000001
 40
0.0
 40
0.0
 40
0.0
 40
0.0
 40
1.0
 40
1.0
 40
1.0
 40
1.0
 10
300.0985726932559
 20
281.6065155056829
 30
0.0
 10
300.0984503335209
 20
281.5927679962846
 30
0.0
 10
300.0983279942854
 20
281.5790205406342
 30
0.0
 10
300.0982056755387
 20
281.5652731387043
 30
0.0
  0
SPLINE
  5
1B9
330
1F
100
AcDbEntity
  8
1
100
AcDbSpline
210
0.0
220
0.0
230
1.0
 70
     8
 71
     3
 72
     8
 73
     4
 74
     0
 42
0.000000001
 43
0.0000000001
 40
0.0
 40
0.0
 40
0.0
 40
0.0
 40
1.0
 40
1.0
 40
1.0
 40
1.0
 10
419.2392834728023
 20
294.6215954352414
 30
0.0
 10
418.8207473231886
 20
294.8815468548682
 30
0.0
 10
418.3925666563642
 20
295.1456049140644
 30
0.0
 10
417.9560636858843
 20
295.4132066137304
 30
0.0
  0
SPLINE
  5
1BA
330
1F
100
AcDbEntity
  8
1
100
AcDbSpline
210
0.0
220
0.0
230
1.0
 70
     8
 71
     3
 72
    11
 73
     7
 74
     0
 42
0.000000001
 43
0.0000000001
 40
0.0
 40
0.0
 40
0.0
 40
0.0
 40
0.25
 40
0.5
 40
0.75
 40
1.0
 40
1.0
 40
1.0
 40
1.0
 10
295.6997430987597
 20
272.1265832832484
 30
0.0
 10
295.877348179785
 20
272.1158291208015
 30
0.0
 10
296.23551513644
 20
272.0976202367027
 30
0.0
 10
296.7818537130696
 20
272.0788967652914
 30
0.0
 10
297.3375899197655
 20
272.0678886713128
 30
0.0
 10
297.7146133253267
 20
272.0654175637186
 30
0.0
 10
297.9048419452957
 20
272.0654175637187
 30
0.0
  0
SPLINE
  5
1BB
330
1F
100
AcDbEntity
  8
1
100
AcDbSpline
210
0.0
220
0.0
230
1.0
 70
     8
 71
     3
 72
    14
 73
    10
 74
     0
 42
0.000000001
 43
0.0000000001
 40
0.0
 40
0.0
 40
0.0
 40
0.0
 40
0.25
 40
0.25
 40
0.5
 40
0.5
 40
0.75
 40
0.75
 40
1.0
 40
1.0
 40
1.0
 40
1.0
 10
289.9878471895542
 20
272.5784045173007
 30
0.0
 10
289.6125950984301
 20
272.6144329855556
 30
0.0
 10
289.2424406515663
 20
272.6409281733755
 30
0.0
 10
288.5112132675116
 20
272.6769349044006
 30
0.0
 10
288.1501430090018
 20
272.6864414381122
 30
0.0
 10
287.4362979355175
 20
272.6899409103294
 30
0.0
 10
287.0835249182994
 20
272.6839304867889
 30
0.0
 10
286.3857424609178
 20
272.6573907063606
 30
0.0
 10
286.0407342292565
 20
272.6368590894113
 30
0.0
 10
285.699446898187
 20
272.6093688878684
 30
0.0
  0
SPLINE
  5
1BC
330
1F
100
AcDbEntity
  8
1
100
AcDbSpline
210
0.0
220
0.0
230
1.0
 70
     8
 71
     3
 72
     8
 73
     4
 74
     0
 42
0.000000001
 43
0.0000000001
 40
0.0
 40
0.0
 40
0.0
 40
0.0
 40
1.0
 40
1.0
 40
1.0
 40
1.0
 10
290.1843511234628
 20
284.4369882894733
 30
0.0
 10
290.1191186514808
 20
284.4568605717363
 30
0.0
 10
290.0536184869906
 20
284.476140924632
 30
0.0
 10
289.9878471895543
 20
284.4948196865933
 30
0.0
  0
SPLINE
  5
1BD
330
1F
100
AcDbEntity
  8
1
100
AcDbSpline
210
0.0
220
0.0
230
1.0
 70
     8
 71
     3
 72
    47
 73
    43
 74
     0
 42
0.000000001
 43
0.0000000001
 40
0.0
 40
0.0
 40
0.0
 40
0.0
 40
0.1249999999999108
 40
0.1249999999999108
 40
0.2499999999998216
 40
0.2499999999998216
 40
0.3749999999997324
 40
0.3749999999997324
 40
0.4374999999996878
 40
0.4374999999996878
 40
0.4999999999996432
 40
0.4999999999996432
 40
0.5624999999995986
 40
0.5624999999995986
 40
0.624999999999554
 40
0.624999999999554
 40
0.6562499999995319
 40
0.6562499999995319
 40
0.6874999999995097
 40
0.6874999999995097
 40
0.7499999999994649
 40
0.7499999999994649
 40
0.7656249999994546
 40
0.7656249999994546
 40
0.781249999999444
 40
0.7968749999994336
 40
0.7968749999994336
 40
0.812499999999423
 40
0.812499999999423
 40
0.8437499999994003
 40
0.8437499999994003
 40
0.8593749999994079
 40
0.8593749999994079
 40
0.8749999999994154
 40
0.8749999999994154
 40
0.9062499999994766
 40
0.9062499999994766
 40
0.9218749999995344
 40
0.9218749999995344
 40
0.9374999999995919
 40
0.9374999999995919
 40
1.0
 40
1.0
 40
1.0
 40
1.0
 10
417.9560636858843
 20
295.4132066137304
 30
0.0
 10
417.9160763841446
 20
295.4377211546025
 30
0.0
 10
417.8770480439707
 20
295.4632431688607
 30
0.0
 10
417.8011345099013
 20
295.5165583162855
 30
0.0
 10
417.7642454169304
 20
295.5443474074968
 30
0.0
 10
417.6930197738041
 20
295.6026426757367
 30
0.0
 10
417.6586726220078
 20
295.6331379190155
 30
0.0
 10
417.6096590783171
 20
295.6815479828691
 30
0.0
 10
417.5937426969288
 20
295.6981329237491
 30
0.0
 10
417.5629335519901
 20
295.7323886171659
 30
0.0
 10
417.5480825164032
 20
295.7500193430207
 30
0.0
 10
417.520046898778
 20
295.7861264361822
 30
0.0
 10
417.5068168976872
 20
295.8046463361733
 30
0.0
 10
417.4823700243873
 20
295.8428696220538
 30
0.0
 10
417.4711438873048
 20
295.862567776399
 30
0.0
 10
417.4563897375573
 20
295.8933304698443
 30
0.0
 10
417.4518224097947
 20
295.9037890951547
 30
0.0
 10
417.4435559654236
 20
295.9252098289644
 30
0.0
 10
417.4398399078316
 20
295.9362342091779
 30
0.0
 10
417.4305214784062
 20
295.9697016295905
 30
0.0
 10
417.4266472900042
 20
295.9925125462734
 30
0.0
 10
417.4264435885358
 20
296.0219923045737
 30
0.0
 10
417.4266441143129
 20
296.0279365184321
 30
0.0
 10
417.4275697677114
 20
296.0397338250245
 30
0.0
 10
417.4290184998427
 20
296.0514871029604
 30
0.0
 10
417.4316024170598
 20
296.0631435331471
 30
0.0
 10
417.4348080410216
 20
296.0747462166919
 30
0.0
 10
417.4367329129437
 20
296.0805484777164
 30
0.0
 10
417.4434600208014
 20
296.0976689854768
 30
0.0
 10
417.4491326646128
 20
296.1085301437932
 30
0.0
 10
417.4594122522743
 20
296.1239946803224
 30
0.0
 10
417.4631342052284
 20
296.1290115127498
 30
0.0
 10
417.4711708335069
 20
296.1387676962901
 30
0.0
 10
417.4754949152346
 20
296.1435104956184
 30
0.0
 10
417.4890219682318
 20
296.1570144521456
 30
0.0
 10
417.4988680240258
 20
296.165174763499
 30
0.0
 10
417.5146839608943
 20
296.1763484737377
 30
0.0
 10
417.520149749651
 20
296.179904115318
 30
0.0
 10
417.5312338336377
 20
296.1865852793764
 30
0.0
 10
417.5368681665598
 20
296.1897240057517
 30
0.0
 10
417.5654434883409
 20
296.2045346211716
 30
0.0
 10
417.5895668611762
 20
296.2136198858563
 30
0.0
 10
417.6145161474046
 20
296.2208973256708
 30
0.0
  0
SPLINE
  5
1BE
330
1F
100
AcDbEntity
  8
1
100
AcDbSpline
210
0.0
220
0.0
230
1.0
 70
    12
 71
     2
 72
     6
 73
     3
 74
     0
 42
0.000000001
 43
0.0000000001
 40
0.0
 40
0.0
 40
0.0
 40
1.0
 40
1.0
 40
1.0
 10
300.0982056755387
 20
281.5652731387043
 30
0.0
 41
0.5000001931968554
 10
300.1040751176374
 20
281.5843341712667
 30
0.0
 41
0.4999998068031447
 10
300.1099407918317
 20
281.6034178412186
 30
0.0
 41
0.5000001931968554
  0
SPLINE
  5
1BF
330
1F
100
AcDbEntity
  8
1
100
AcDbSpline
210
0.0
220
0.0
230
1.0
 70
     8
 71
     3
 72
    36
 73
    32
 74
     0
 42
0.000000001
 43
0.0000000001
 40
0.0
 40
0.0
 40
0.0
 40
0.0
 40
0.0625000000000041
 40
0.0625000000000041
 40
0.0937500000000062
 40
0.0937500000000062
 40
0.1093750000000074
 40
0.1093750000000074
 40
0.1250000000000086
 40
0.1250000000000086
 40
0.1875000000000135
 40
0.1875000000000135
 40
0.2500000000000183
 40
0.2500000000000183
 40
0.3125000000000232
 40
0.3125000000000232
 40
0.3750000000000279
 40
0.3750000000000279
 40
0.437500000000033
 40
0.437500000000033
 40
0.4687500000000324
 40
0.4687500000000324
 40
0.5000000000000318
 40
0.5000000000000318
 40
0.6250000000000238
 40
0.6250000000000238
 40
0.7500000000000159
 40
0.7500000000000159
 40
0.8750000000000078
 40
0.8750000000000078
 40
1.0
 40
1.0
 40
1.0
 40
1.0
 10
420.6745532969356
 20
291.7197397614942
 30
0.0
 10
420.4998689300597
 20
291.7863800250554
 30
0.0
 10
420.3182531197347
 20
291.859336508612
 30
0.0
 10
420.0369772335343
 20
291.9768377006322
 30
0.0
 10
419.9417374685658
 20
292.0173544376723
 30
0.0
 10
419.7968063011574
 20
292.0800171985035
 30
0.0
 10
419.7481504075627
 20
292.1012196235014
 30
0.0
 10
419.6501698925971
 20
292.1442338461027
 30
0.0
 10
419.6007905211392
 20
292.1660701116317
 30
0.0
 10
419.3530353692302
 20
292.276387684344
 30
0.0
 10
419.1523233603961
 20
292.3681523558353
 30
0.0
 10
418.7467354388086
 20
292.5575104521758
 30
0.0
 10
418.5418556867376
 20
292.6551092514135
 30
0.0
 10
418.1285318338182
 20
292.8552963285887
 30
0.0
 10
417.9200855862277
 20
292.9578876115983
 30
0.0
 10
417.5000745276121
 20
293.1674356330757
 30
0.0
 10
417.2885084323526
 20
293.2743941692526
 30
0.0
 10
416.8625984589955
 20
293.4921996625126
 30
0.0
 10
416.6482537711184
 20
293.6030477531485
 30
0.0
 10
416.3248528259192
 20
293.7719570456449
 30
0.0
 10
416.2166979831818
 20
293.8287215033266
 30
0.0
 10
415.9999575000233
 20
293.9430019612361
 30
0.0
 10
415.8915876619336
 20
294.000403928375
 30
0.0
 10
415.3497403743143
 20
294.2886481031153
 30
0.0
 10
414.9162685916649
 20
294.5231663383528
 30
0.0
 10
414.0493349490377
 20
294.9986395099466
 30
0.0
 10
413.6158731029775
 20
295.2396034743981
 30
0.0
 10
412.7489579826438
 20
295.7270918041849
 30
0.0
 10
412.3155047152812
 20
295.9736206526419
 30
0.0
 10
411.4486058794995
 20
296.4716725483451
 30
0.0
 10
411.0151603147164
 20
296.7231979544292
 30
0.0
 10
410.5817183287786
 20
296.9770449085382
 30
0.0
  0
SPLINE
  5
1C0
330
1F
100
AcDbEntity
  8
1
100
AcDbSpline
210
0.0
220
0.0
230
1.0
 70
     8
 71
     3
 72
    40
 73
    36
 74
     0
 42
0.000000001
 43
0.0000000001
 40
0.0
 40
0.0
 40
0.0
 40
0.0
 40
0.0484648568071938
 40
0.0484648568071938
 40
0.0801826949136202
 40
0.0801826949136202
 40
0.1119005330200471
 40
0.1119005330200471
 40
0.1753362092329011
 40
0.1753362092329011
 40
0.238771885445755
 40
0.238771885445755
 40
0.302207561658609
 40
0.302207561658609
 40
0.3656432378714627
 40
0.3656432378714627
 40
0.4290789140843165
 40
0.4290789140843165
 40
0.4925145902971704
 40
0.4925145902971704
 40
0.5559502665100239
 40
0.5559502665100239
 40
0.6193859427228778
 40
0.6193859427228778
 40
0.6828216189357315
 40
0.6828216189357315
 40
0.7462572951485852
 40
0.7462572951485852
 40
0.809692971361439
 40
0.809692971361439
 40
0.8731286475742926
 40
0.8731286475742926
 40
0.9365643237871463
 40
0.9365643237871463
 40
1.0
 40
1.0
 40
1.0
 40
1.0
 10
352.1074454526267
 20
274.4734558324976
 30
0.0
 10
351.2581466720844
 20
274.3691514314983
 30
0.0
 10
350.4087298611306
 20
274.2685964539542
 30
0.0
 10
349.002943139912
 20
274.1088148896809
 30
0.0
 10
348.4467360330531
 20
274.0473078921601
 30
0.0
 10
347.3339973459986
 20
273.9277508205981
 30
0.0
 10
346.7774545508079
 20
273.8697246338765
 30
0.0
 10
345.1073360469211
 20
273.7006232326232
 30
0.0
 10
343.9933075997964
 20
273.594421323829
 30
0.0
 10
341.7646382362042
 20
273.3930021283771
 30
0.0
 10
340.6499981089339
 20
273.2977882609975
 30
0.0
 10
338.4206245087859
 20
273.1169986070813
 30
0.0
 10
337.3058914533864
 20
273.0314265310725
 30
0.0
 10
335.0767304006266
 20
272.8691936451381
 30
0.0
 10
333.9623026025643
 20
272.7925366206936
 30
0.0
 10
331.7340210610647
 20
272.6479136501528
 30
0.0
 10
330.6201674096269
 20
272.5799515209065
 30
0.0
 10
328.393169772866
 20
272.4528907011579
 30
0.0
 10
327.2800258379602
 20
272.3937959249824
 30
0.0
 10
325.054447940759
 20
272.2849190821935
 30
0.0
 10
323.9420140119448
 20
272.2351411454485
 30
0.0
 10
321.7177199312201
 20
272.1455039800317
 30
0.0
 10
320.6058597867546
 20
272.1056492108224
 30
0.0
 10
318.382439899918
 20
272.036492676594
 30
0.0
 10
317.2708801053911
 20
272.0071957530648
 30
0.0
 10
315.0476508861591
 20
271.9596781001932
 30
0.0
 10
313.9359813030845
 20
271.9414625253364
 30
0.0
 10
311.7119887872871
 20
271.91636928958
 30
0.0
 10
310.5996655448225
 20
271.909496848093
 30
0.0
 10
308.3736951596701
 20
271.9069333423625
 30
0.0
 10
307.2600475306833
 20
271.911247092132
 30
0.0
 10
305.0306428647182
 20
271.9303285984164
 30
0.0
 10
303.9148851820542
 20
271.9451000630563
 30
0.0
 10
301.6803770464353
 20
271.9836680076733
 30
0.0
 10
300.5616258717989
 20
272.0074662134631
 30
0.0
 10
299.4408981613812
 20
272.0346690934427
 30
0.0
  0
SPLINE
  5
1C1
330
1F
100
AcDbEntity
  8
1
100
AcDbSpline
210
0.0
220
0.0
230
1.0
 70
     8
 71
     3
 72
    18
 73
    14
 74
     0
 42
0.000000001
 43
0.0000000001
 40
0.0
 40
0.0
 40
0.0
 40
0.0
 40
0.1701476003225013
 40
0.1701476003225013
 40
0.3402952006450026
 40
0.3402952006450026
 40
0.510442800967504
 40
0.510442800967504
 40
0.6805904012900053
 40
0.6805904012900053
 40
0.8507380016125065
 40
0.8507380016125065
 40
1.0
 40
1.0
 40
1.0
 40
1.0
 10
320.1309747504534
 20
273.6185807451859
 30
0.0
 10
321.3364346075294
 20
273.7322239584681
 30
0.0
 10
322.5425061070918
 20
273.8505689448306
 30
0.0
 10
324.9564827166298
 20
274.0930451745439
 30
0.0
 10
326.1643891549193
 20
274.2171597359839
 30
0.0
 10
328.5824058191245
 20
274.4678192117849
 30
0.0
 10
329.7925177461657
 20
274.5943406150524
 30
0.0
 10
332.2150272234742
 20
274.8473420365015
 30
0.0
 10
333.4274260645399
 20
274.9737946853336
 30
0.0
 10
335.8542542520298
 20
275.2258520531176
 30
0.0
 10
337.0685449008063
 20
275.3514203127976
 30
0.0
 10
339.3491546178025
 20
275.5878624356477
 30
0.0
 10
340.4153450801292
 20
275.6986433446921
 30
0.0
 10
341.4816895322752
 20
275.8112591408115
 30
0.0
  0
SPLINE
  5
1C2
330
1F
100
AcDbEntity
  8
1
100
AcDbSpline
210
0.0
220
0.0
230
1.0
 70
     8
 71
     3
 72
    48
 73
    44
 74
     0
 42
0.000000001
 43
0.0000000001
 40
0.0
 40
0.0
 40
0.0
 40
0.0
 40
0.0625000000000004
 40
0.0625000000000004
 40
0.1250000000000009
 40
0.1250000000000009
 40
0.1875000000000013
 40
0.1875000000000013
 40
0.2500000000000018
 40
0.2500000000000018
 40
0.3125000000000022
 40
0.3125000000000022
 40
0.3281250000000023
 40
0.3281250000000023
 40
0.3437500000000024
 40
0.3750000000000027
 40
0.3750000000000027
 40
0.4375000000000033
 40
0.4375000000000033
 40
0.5000000000000038
 40
0.5000000000000038
 40
0.5625000000000043
 40
0.5625000000000043
 40
0.6250000000000047
 40
0.6250000000000047
 40
0.6562500000000047
 40
0.6562500000000047
 40
0.6718750000000046
 40
0.6718750000000046
 40
0.6875000000000045
 40
0.6875000000000045
 40
0.7500000000000038
 40
0.7500000000000038
 40
0.8125000000000031
 40
0.8125000000000031
 40
0.8750000000000024
 40
0.8750000000000024
 40
0.8906250000000023
 40
0.8906250000000023
 40
0.9062500000000021
 40
0.9375000000000014
 40
0.9375000000000014
 40
1.0
 40
1.0
 40
1.0
 40
1.0
 10
279.404841945306
 20
280.0397154841366
 30
0.0
 10
279.5557436825156
 20
280.2492182743119
 30
0.0
 10
279.7114506784305
 20
280.4524605267019
 30
0.0
 10
280.0325439533576
 20
280.8470973306585
 30
0.0
 10
280.1979307046189
 20
281.0384891508227
 30
0.0
 10
280.5386169981633
 20
281.4097775290674
 30
0.0
 10
280.7139162801743
 20
281.5896729292713
 30
0.0
 10
281.0748206754266
 20
281.9380655305233
 30
0.0
 10
281.2604248777876
 20
282.106562682978
 30
0.0
 10
281.6425093753836
 20
282.4320171713099
 30
0.0
 10
281.8389879948004
 20
282.5889754796818
 30
0.0
 10
282.091874858968
 20
282.7777145947255
 30
0.0
 10
282.1428523958489
 20
282.81511404005
 30
0.0
 10
282.2453893325116
 20
282.8890395108622
 30
0.0
 10
282.3998821713053
 20
282.9984864399727
 30
0.0
 10
282.5564523349738
 20
283.103623535779
 30
0.0
 10
282.8724119224138
 20
283.3081608649921
 30
0.0
 10
283.0868067766182
 20
283.4368800868654
 30
0.0
 10
283.523458076777
 20
283.678851377633
 30
0.0
 10
283.7457136040377
 20
283.7921048176859
 30
0.0
 10
284.1985713991547
 20
284.0026155631091
 30
0.0
 10
284.4291722516565
 20
284.0998755876462
 30
0.0
 10
284.8993751482467
 20
284.2774700401914
 30
0.0
 10
285.1389750169546
 20
284.3578091202038
 30
0.0
 10
285.5057830264645
 20
284.4645452123358
 30
0.0
 10
285.6292889974037
 20
284.4978240920243
 30
0.0
 10
285.8165058660238
 20
284.5441107339697
 30
0.0
 10
285.8793154850823
 20
284.5589511082047
 30
0.0
 10
286.0052093751042
 20
284.5872973674062
 30
0.0
 10
286.0682395546523
 20
284.600793037231
 30
0.0
 10
286.3838091553092
 20
284.6648633884491
 30
0.0
 10
286.6376045347567
 20
284.7052336908587
 30
0.0
 10
287.147942343687
 20
284.7633634991126
 30
0.0
 10
287.4044849546186
 20
284.7811251972111
 30
0.0
 10
287.9203862953566
 20
284.7926680735347
 30
0.0
 10
288.1797453287114
 20
284.786452925505
 30
0.0
 10
288.5057437008602
 20
284.7624528404451
 30
0.0
 10
288.5710916990335
 20
284.7568336417879
 30
0.0
 10
288.7016911981983
 20
284.7439585721164
 30
0.0
 10
288.8971986920288
 20
284.7222196940976
 30
0.0
 10
289.0915171973611
 20
284.6931742782451
 30
0.0
 10
289.4785224999631
 20
284.6252308440709
 30
0.0
 10
289.7343540335644
 20
284.5668106386363
 30
0.0
 10
289.9878471895542
 20
284.4948196865932
 30
0.0
  0
SPLINE
  5
1C3
330
1F
100
AcDbEntity
  8
1
100
AcDbSpline
210
0.0
220
0.0
230
1.0
 70
     8
 71
     3
 72
    36
 73
    32
 74
     0
 42
0.000000001
 43
0.0000000001
 40
0.0
 40
0.0
 40
0.0
 40
0.0
 40
0.062499999999965
 40
0.062499999999965
 40
0.1249999999999299
 40
0.1249999999999299
 40
0.2499999999998597
 40
0.2499999999998597
 40
0.281249999999859
 40
0.281249999999859
 40
0.3124999999998584
 40
0.3124999999998584
 40
0.3749999999998572
 40
0.3749999999998572
 40
0.4999999999998196
 40
0.4999999999998196
 40
0.5624999999998189
 40
0.5624999999998189
 40
0.5937499999998187
 40
0.5937499999998187
 40
0.6249999999998183
 40
0.6249999999998183
 40
0.6874999999998545
 40
0.6874999999998545
 40
0.7499999999998908
 40
0.7499999999998908
 40
0.8749999999999632
 40
0.8749999999999632
 40
0.9374999999999815
 40
0.9374999999999815
 40
1.0
 40
1.0
 40
1.0
 40
1.0
 10
429.4119787299568
 20
292.8488310956188
 30
0.0
 10
429.3726181376865
 20
292.8226478715929
 30
0.0
 10
429.3328072444207
 20
292.7976864655418
 30
0.0
 10
429.2522500897288
 20
292.7501065139783
 30
0.0
 10
429.2115041381848
 20
292.7274883479907
 30
0.0
 10
429.0878102560806
 20
292.6630656534631
 30
0.0
 10
429.0034142409806
 20
292.6246759493239
 30
0.0
 10
428.8952442768056
 20
292.5823831102981
 30
0.0
 10
428.8734759359993
 20
292.5742106287749
 30
0.0
 10
428.8296613044233
 20
292.5584433399178
 30
0.0
 10
428.8076223921546
 20
292.5508522027327
 30
0.0
 10
428.7413959973168
 20
292.5290561191553
 30
0.0
 10
428.6969943721886
 20
292.5157885716933
 30
0.0
 10
428.5629363368808
 20
292.4797559037253
 30
0.0
 10
428.4724309584265
 20
292.4607391774866
 30
0.0
 10
428.3344695914975
 20
292.4400350253323
 30
0.0
 10
428.2881137600589
 20
292.4344427321809
 30
0.0
 10
428.2179643776259
 20
292.4281024727383
 30
0.0
 10
428.1944787289843
 20
292.4263307013165
 30
0.0
 10
428.1472938320217
 20
292.4234874504
 30
0.0
 10
428.1236958536965
 20
292.4224233382146
 30
0.0
 10
428.0532471172848
 20
292.4203034480007
 30
0.0
 10
428.0065920364058
 20
292.4203101421369
 30
0.0
 10
427.9138525720753
 20
292.4230500805482
 30
0.0
 10
427.8677675175583
 20
292.4257828853567
 30
0.0
 10
427.7302472142403
 20
292.437934230144
 30
0.0
 10
427.6395433707961
 20
292.4512849623561
 30
0.0
 10
427.5044249441123
 20
292.4789644038337
 30
0.0
 10
427.4594914066383
 20
292.4894850118349
 30
0.0
 10
427.3700910998477
 20
292.5130493704637
 30
0.0
 10
427.3257232785227
 20
292.5260634213999
 30
0.0
 10
427.2816299494126
 20
292.5403123832494
 30
0.0
  0
SPLINE
  5
1C4
330
1F
100
AcDbEntity
  8
1
100
AcDbSpline
210
0.0
220
0.0
230
1.0
 70
     8
 71
     3
 72
    27
 73
    23
 74
     0
 42
0.000000001
 43
0.0000000001
 40
0.0
 40
0.0
 40
0.0
 40
0.0
 40
0.1249999999999973
 40
0.2499999999999947
 40
0.3749999999999919
 40
0.4062499999999912
 40
0.4062499999999912
 40
0.4374999999999906
 40
0.4374999999999906
 40
0.4999999999999892
 40
0.4999999999999892
 40
0.6249999999999864
 40
0.6249999999999864
 40
0.6874999999999849
 40
0.6874999999999849
 40
0.7187499999999842
 40
0.7187499999999842
 40
0.7499999999999833
 40
0.7499999999999833
 40
0.8749999999999916
 40
0.8749999999999916
 40
1.0
 40
1.0
 40
1.0
 40
1.0
 10
427.2817472674102
 20
292.2393280888869
 30
0.0
 10
426.9901513895073
 20
292.2290620230516
 30
0.0
 10
426.4086250721788
 20
292.2285405429276
 30
0.0
 10
425.5412450653288
 20
292.2867005664107
 30
0.0
 10
424.8943817912333
 20
292.3743500245095
 30
0.0
 10
424.5363033150146
 20
292.4384872289657
 30
0.0
 10
424.3931758809146
 20
292.4653858642606
 30
0.0
 10
424.3216907257298
 20
292.4794523340763
 30
0.0
 10
424.1078923222613
 20
292.5234155813127
 30
0.0
 10
423.9660777312989
 20
292.5551048775486
 30
0.0
 10
423.5427738474223
 20
292.6572601331652
 30
0.0
 10
423.2634218313365
 20
292.7348054254214
 30
0.0
 10
422.8486647304587
 20
292.8652183158827
 30
0.0
 10
422.7111248376843
 20
292.9110404611562
 30
0.0
 10
422.5058890296388
 20
292.9833100850022
 30
0.0
 10
422.4376233835141
 20
293.0080019284621
 30
0.0
 10
422.3016692174954
 20
293.0584858515302
 30
0.0
 10
422.2339718103852
 20
293.0842803171067
 30
0.0
 10
421.8968776121966
 20
293.2160000768689
 30
0.0
 10
421.6316541587331
 20
293.3301587585622
 30
0.0
 10
421.1100528212703
 20
293.5758016376578
 30
0.0
 10
420.8536749041086
 20
293.7072864364875
 30
0.0
 10
420.6017566061382
 20
293.8474228362105
 30
0.0
  0
SPLINE
  5
1C5
330
1F
100
AcDbEntity
  8
1
100
AcDbSpline
210
0.0
220
0.0
230
1.0
 70
     8
 71
     3
 72
    24
 73
    20
 74
     0
 42
0.000000001
 43
0.0000000001
 40
0.0
 40
0.0
 40
0.0
 40
0.0
 40
0.1250000000000102
 40
0.1250000000000102
 40
0.2500000000000203
 40
0.2500000000000203
 40
0.3125000000000254
 40
0.3125000000000254
 40
0.3750000000000305
 40
0.3750000000000305
 40
0.5000000000000407
 40
0.5000000000000407
 40
0.56250000000004
 40
0.56250000000004
 40
0.6250000000000392
 40
0.6250000000000392
 40
0.7500000000000262
 40
0.8750000000000131
 40
1.0
 40
1.0
 40
1.0
 40
1.0
 10
420.7163464233827
 20
290.4982209423453
 30
0.0
 10
420.9667260536333
 20
290.3457560205819
 30
0.0
 10
421.2220300060312
 20
290.2029334853348
 30
0.0
 10
421.7423773527314
 20
289.9364564513561
 30
0.0
 10
422.0074205151236
 20
289.8128013944328
 30
0.0
 10
422.4123109098366
 20
289.6418011614915
 30
0.0
 10
422.5486099794596
 20
289.5871781019811
 30
0.0
 10
422.8226016895475
 20
289.4831956659981
 30
0.0
 10
422.9603935260159
 20
289.433789577868
 30
0.0
 10
423.3761409523189
 20
289.2932794847277
 30
0.0
 10
423.6564652863362
 20
289.2098734890403
 30
0.0
 10
424.0816835343748
 20
289.1001583618066
 30
0.0
 10
424.2242123620047
 20
289.0661548167869
 30
0.0
 10
424.5108573307813
 20
289.0033139739758
 30
0.0
 10
424.6544636163781
 20
288.9745892530862
 30
0.0
 10
425.0859208381908
 20
288.896439949873
 30
0.0
 10
425.6630765254746
 20
288.8135785524092
 30
0.0
 10
426.534371408675
 20
288.7524265561641
 30
0.0
 10
427.1189541072081
 20
288.753886539545
 30
0.0
 10
427.4121946306556
 20
288.7653927999532
 30
0.0
  0
SPLINE
  5
1C6
330
1F
100
AcDbEntity
  8
1
100
AcDbSpline
210
0.0
220
0.0
230
1.0
 70
     8
 71
     3
 72
     8
 73
     4
 74
     0
 42
0.000000001
 43
0.0000000001
 40
0.0
 40
0.0
 40
0.0
 40
0.0
 40
1.0
 40
1.0
 40
1.0
 40
1.0
 10
438.0081269389876
 20
279.9492402055162
 30
0.0
 10
438.0251824081699
 20
279.9631778142169
 30
0.0
 10
438.0409723155493
 20
279.9784259505284
 30
0.0
 10
438.0554966611258
 20
279.9949846144509
 30
0.0
  0
SPLINE
  5
1C7
330
1F
100
AcDbEntity
  8
1
100
AcDbSpline
210
0.0
220
0.0
230
1.0
 70
     8
 71
     3
 72
     8
 73
     4
 74
     0
 42
0.000000001
 43
0.0000000001
 40
0.0
 40
0.0
 40
0.0
 40
0.0
 40
1.0
 40
1.0
 40
1.0
 40
1.0
 10
438.5894505876547
 20
280.8836331788933
 30
0.0
 10
438.5972522528897
 20
280.9042312366872
 30
0.0
 10
438.6033026456479
 20
280.9253314637831
 30
0.0
 10
438.6076017659293
 20
280.9469338601808
 30
0.0
  0
SPLINE
  5
1C8
330
1F
100
AcDbEntity
  8
1
100
AcDbSpline
210
0.0
220
0.0
230
1.0
 70
     8
 71
     3
 72
     8
 73
     4
 74
     0
 42
0.000000001
 43
0.0000000001
 40
0.0
 40
0.0
 40
0.0
 40
0.0
 40
1.0
 40
1.0
 40
1.0
 40
1.0
 10
438.7311931720171
 20
288.0274807728481
 30
0.0
 10
438.7276505834055
 20
288.0492200467838
 30
0.0
 10
438.722340263689
 20
288.0705185758535
 30
0.0
 10
438.7152622128679
 20
288.0913763600574
 30
0.0
  0
SPLINE
  5
1C9
330
1F
100
AcDbEntity
  8
1
100
AcDbSpline
210
0.0
220
0.0
230
1.0
 70
     8
 71
     3
 72
     8
 73
     4
 74
     0
 42
0.000000001
 43
0.0000000001
 40
0.0
 40
0.0
 40
0.0
 40
0.0
 40
1.0
 40
1.0
 40
1.0
 40
1.0
 10
438.2126469442886
 20
288.9981183071029
 30
0.0
 10
438.1987093355879
 20
289.0151737762852
 30
0.0
 10
438.1834611992762
 20
289.0309636836647
 30
0.0
 10
438.166902535354
 20
289.0454880292411
 30
0.0
  0
SPLINE
  5
1CA
330
1F
100
AcDbEntity
  8
1
100
AcDbSpline
210
0.0
220
0.0
230
1.0
 70
     8
 71
     3
 72
     8
 73
     4
 74
     0
 42
0.000000001
 43
0.0000000001
 40
0.0
 40
0.0
 40
0.0
 40
0.0
 40
1.0
 40
1.0
 40
1.0
 40
1.0
 10
427.2817472674102
 20
292.2393280888869
 30
0.0
 10
427.2856046737269
 20
292.2394638946037
 30
0.0
 10
427.2894633505625
 20
292.2395990859699
 30
0.0
 10
427.2933233004049
 20
292.2397336617828
 30
0.0
  0
SPLINE
  5
1CB
330
1F
100
AcDbEntity
  8
1
100
AcDbSpline
210
0.0
220
0.0
230
1.0
 70
     8
 71
     3
 72
    61
 73
    57
 74
     0
 42
0.000000001
 43
0.0000000001
 40
0.0
 40
0.0
 40
0.0
 40
0.0
 40
0.0624999999999992
 40
0.0624999999999992
 40
0.1249999999999985
 40
0.1249999999999985
 40
0.1874999999999977
 40
0.1874999999999977
 40
0.2499999999999969
 40
0.2499999999999969
 40
0.3124999999999962
 40
0.3124999999999962
 40
0.3437499999999978
 40
0.3437499999999978
 40
0.3749999999999994
 40
0.3749999999999994
 40
0.3906250000000002
 40
0.3906250000000002
 40
0.4062500000000011
 40
0.4062500000000011
 40
0.4375000000000026
 40
0.4375000000000026
 40
0.5000000000000034
 40
0.5000000000000034
 40
0.5078125000000032
 40
0.5078125000000032
 40
0.5156250000000031
 40
0.5156250000000031
 40
0.5312500000000034
 40
0.5312500000000034
 40
0.5625000000000038
 40
0.5937500000000044
 40
0.5937500000000044
 40
0.6093750000000053
 40
0.6093750000000053
 40
0.6171875000000048
 40
0.6171875000000048
 40
0.6250000000000044
 40
0.6874999999999865
 40
0.6874999999999865
 40
0.7031249999999813
 40
0.7109374999999806
 40
0.7109374999999806
 40
0.71874999999998
 40
0.71874999999998
 40
0.7499999999999809
 40
0.7499999999999809
 40
0.8124999999999868
 40
0.8124999999999868
 40
0.8749999999999928
 40
0.8749999999999928
 40
0.906249999999996
 40
0.906249999999996
 40
0.9374999999999992
 40
0.9374999999999992
 40
1.0
 40
1.0
 40
1.0
 40
1.0
 10
420.6123739268958
 20
293.5371024984728
 30
0.0
 10
420.7350693438111
 20
293.4351261781231
 30
0.0
 10
420.8563969305774
 20
293.3361923156929
 30
0.0
 10
421.0955414293312
 20
293.1440638087873
 30
0.0
 10
421.2133619904947
 20
293.0508693886273
 30
0.0
 10
421.4444411860556
 20
292.8699228576069
 30
0.0
 10
421.5577058476889
 20
292.7821706988435
 30
0.0
 10
421.7782007555805
 20
292.611856659857
 30
0.0
 10
421.8854414696044
 20
292.5292942034817
 30
0.0
 10
422.0917570231563
 20
292.3691604904969
 30
0.0
 10
422.190851259727
 20
292.2915874154947
 30
0.0
 10
422.3309555653144
 20
292.1788858522048
 30
0.0
 10
422.3762240184739
 20
292.1419291423096
 30
0.0
 10
422.4633231137584
 20
292.0692378939822
 30
0.0
 10
422.5051555186598
 20
292.0335030932264
 30
0.0
 10
422.5647772887216
 20
291.9808309732281
 30
0.0
 10
422.5841334800334
 20
291.9634243272468
 30
0.0
 10
422.6216688978814
 20
291.9289442030811
 30
0.0
 10
422.6397576494103
 20
291.9119537210637
 30
0.0
 10
422.6918385195087
 20
291.8617428303373
 30
0.0
 10
422.7236497646288
 20
291.8292815077484
 30
0.0
 10
422.8090145765768
 20
291.7350763912794
 30
0.0
 10
422.8525858356845
 20
291.6764732387511
 30
0.0
 10
422.8815140975606
 20
291.6160955344768
 30
0.0
 10
422.8844475635176
 20
291.6094647950781
 30
0.0
 10
422.8897321758386
 20
291.5963634750375
 30
0.0
 10
422.8920855386331
 20
291.5898857347008
 30
0.0
 10
422.8982239515271
 20
291.5707512733215
 30
0.0
 10
422.9010776722311
 20
291.5584307257713
 30
0.0
 10
422.9058475968558
 20
291.5227950919074
 30
0.0
 10
422.9020887236227
 20
291.4788145407637
 30
0.0
 10
422.8774904578956
 20
291.4421578379429
 30
0.0
 10
422.85112178802
 20
291.4175356008543
 30
0.0
 10
422.8410135492161
 20
291.4098068544104
 30
0.0
 10
422.8238721241062
 20
291.3989496944875
 30
0.0
 10
422.8178190650135
 20
291.3954485624639
 30
0.0
 10
422.8051093562909
 20
291.3887229225424
 30
0.0
 10
422.7452113604184
 20
291.3597052878476
 30
0.0
 10
422.6617471068306
 20
291.3416792222797
 30
0.0
 10
422.5507853326268
 20
291.3315916151558
 30
0.0
 10
422.5161259935488
 20
291.3293138894845
 30
0.0
 10
422.4795391192942
 20
291.3281416171701
 30
0.0
 10
422.4547331862439
 20
291.3276041295492
 30
0.0
 10
422.4421143111113
 20
291.3274575569202
 30
0.0
 10
422.3782519048342
 20
291.3273294268261
 30
0.0
 10
422.3245606059841
 20
291.3291521135449
 30
0.0
 10
422.1571132089374
 20
291.3399406520158
 30
0.0
 10
422.0370527462093
 20
291.354199395584
 30
0.0
 10
421.7855000302936
 20
291.3953440261329
 30
0.0
 10
421.6539756838399
 20
291.422243357481
 30
0.0
 10
421.4507261932517
 20
291.4715187977057
 30
0.0
 10
421.3818936452124
 20
291.4894589740163
 30
0.0
 10
421.2430521603184
 20
291.5281306705132
 30
0.0
 10
421.1730243363661
 20
291.5488634246496
 30
0.0
 10
420.961505133448
 20
291.6151521912272
 30
0.0
 10
420.8185948693751
 20
291.6647894043282
 30
0.0
 10
420.6745532969356
 20
291.7197397614942
 30
0.0
  0
SPLINE
  5
1CC
330
1F
100
AcDbEntity
  8
1
100
AcDbSpline
210
0.0
220
0.0
230
1.0
 70
     8
 71
     3
 72
    10
 73
     6
 74
     0
 42
0.000000001
 43
0.0000000001
 40
0.0
 40
0.0
 40
0.0
 40
0.0
 40
0.5
 40
0.5
 40
1.0
 40
1.0
 40
1.0
 40
1.0
 10
427.2816299494102
 20
292.5403123832502
 30
0.0
 10
427.1930164266812
 20
292.5689482501763
 30
0.0
 10
427.1064253481781
 20
292.6022319411426
 30
0.0
 10
426.9369185330041
 20
292.6778662722353
 30
0.0
 10
426.8540085346891
 20
292.7202167373581
 30
0.0
 10
426.7727972764453
 20
292.7672037429027
 30
0.0
  0
SPLINE
  5
1CD
330
1F
100
AcDbEntity
  8
1
100
AcDbSpline
210
0.0
220
0.0
230
1.0
 70
     8
 71
     3
 72
    14
 73
    10
 74
     0
 42
0.000000001
 43
0.0000000001
 40
0.0
 40
0.0
 40
0.0
 40
0.0
 40
0.25
 40
0.25
 40
0.5
 40
0.5
 40
0.75
 40
0.75
 40
1.0
 40
1.0
 40
1.0
 40
1.0
 10
422.6516041833122
 20
299.7016722267899
 30
0.0
 10
422.6932230745388
 20
300.2098829741613
 30
0.0
 10
422.7311332351578
 20
300.7183676190915
 30
0.0
 10
422.8012302134273
 20
301.7357595588196
 30
0.0
 10
422.8334103347053
 20
302.2446667279382
 30
0.0
 10
422.8932465755359
 20
303.2627239612079
 30
0.0
 10
422.9208998737729
 20
303.7718940121349
 30
0.0
 10
422.9725730504773
 20
304.7904140279628
 30
0.0
 10
422.9965903335074
 20
305.2997633310771
 30
0.0
 10
423.0191269764392
 20
305.8091853070148
 30
0.0
  0
SPLINE
  5
1CE
330
1F
100
AcDbEntity
  8
1
100
AcDbSpline
210
0.0
220
0.0
230
1.0
 70
     8
 71
     3
 72
    44
 73
    40
 74
     0
 42
0.000000001
 43
0.0000000001
 40
0.0
 40
0.0
 40
0.0
 40
0.0
 40
0.0611060187751241
 40
0.0611060187751241
 40
0.1222120375502481
 40
0.1222120375502481
 40
0.1527650469378101
 40
0.1527650469378101
 40
0.1680415516315905
 40
0.1680415516315905
 40
0.1833180563253709
 40
0.1833180563253709
 40
0.2444240751004949
 40
0.2444240751004949
 40
0.305530093875619
 40
0.305530093875619
 40
0.3666361126507431
 40
0.3666361126507431
 40
0.4277421314258678
 40
0.4277421314258678
 40
0.4888481502009924
 40
0.4888481502009924
 40
0.6110601877512419
 40
0.6110601877512419
 40
0.6721662065263669
 40
0.6721662065263669
 40
0.7332722253014918
 40
0.7332722253014918
 40
0.7943782440766171
 40
0.7943782440766171
 40
0.855484262851742
 40
0.855484262851742
 40
0.9165902816268671
 40
0.9165902816268671
 40
0.9471432910144296
 40
0.9471432910144296
 40
0.9776963004019918
 40
0.9776963004019918
 40
1.0
 40
1.0
 40
1.0
 40
1.0
 10
423.0191269764392
 20
305.8091853070149
 30
0.0
 10
421.7658903365665
 20
305.8461652172897
 30
0.0
 10
420.5087185318651
 20
305.8710934395812
 30
0.0
 10
417.9862329548385
 20
305.9022812711033
 30
0.0
 10
416.7209229743861
 20
305.908557613029
 30
0.0
 10
414.8170881462166
 20
305.9076524956885
 30
0.0
 10
414.1815023956207
 20
305.9056248584384
 30
0.0
 10
413.2267256200336
 20
305.9003879608492
 30
0.0
 10
412.9082338895075
 20
305.8982759288102
 30
0.0
 10
412.2707978338958
 20
305.8933784715683
 30
0.0
 10
411.9518257904265
 20
305.8905927676142
 30
0.0
 10
410.3562619618329
 20
305.875122415688
 30
0.0
 10
409.0776354646156
 20
305.8578619173542
 30
0.0
 10
406.5167271111087
 20
305.8164055444357
 30
0.0
 10
405.2344470741152
 20
305.7922090559441
 30
0.0
 10
402.6671424951826
 20
305.7384973528743
 30
0.0
 10
401.3821195353786
 20
305.7089802964119
 30
0.0
 10
398.8104002689168
 20
305.6450668498123
 30
0.0
 10
397.523705364435
 20
305.6106690426121
 30
0.0
 10
394.9498291413604
 20
305.5363112574968
 30
0.0
 10
393.6627432520318
 20
305.4962552840776
 30
0.0
 10
389.8015101846898
 20
305.3672272662959
 30
0.0
 10
387.2272892056913
 20
305.2694933598258
 30
0.0
 10
383.3667667375712
 20
305.103262391016
 30
0.0
 10
382.0800599217621
 20
305.0445627341358
 30
0.0
 10
379.5070508516714
 20
304.9200473242954
 30
0.0
 10
378.2207385117546
 20
304.8542313767442
 30
0.0
 10
375.6490879741905
 20
304.7148406499685
 30
0.0
 10
374.3636979126811
 20
304.6412655512979
 30
0.0
 10
371.7939640749963
 20
304.485522139775
 30
0.0
 10
370.5096193656816
 20
304.4033575257229
 30
0.0
 10
367.9421873857011
 20
304.2293517078718
 30
0.0
 10
366.6590990105841
 20
304.1375160834837
 30
0.0
 10
364.7356186049601
 20
303.991398558272
 30
0.0
 10
364.0946512100361
 20
303.9412948864316
 30
0.0
 10
362.8131456033615
 20
303.8380551074271
 30
0.0
 10
362.1726059654207
 20
303.7849215613772
 30
0.0
 10
361.064804735751
 20
303.6903798545067
 30
0.0
 10
360.5974537024426
 20
303.6496773803149
 30
0.0
 10
360.1301963790402
 20
303.6081715342872
 30
0.0
  0
SPLINE
  5
1CF
330
1F
100
AcDbEntity
  8
1
100
AcDbSpline
210
0.0
220
0.0
230
1.0
 70
    28
 71
     4
 72
    13
 73
     8
 74
     0
 42
0.000000001
 43
0.0000000001
 40
0.0
 40
0.0
 40
0.0
 40
0.0
 40
0.0
 40
0.1406165876534944
 40
0.1406165876534944
 40
0.1406165876534944
 40
1.0
 40
1.0
 40
1.0
 40
1.0
 40
1.0
 10
297.9048419452957
 20
282.2051909050202
 30
0.0
 41
1.000151351902169
 10
297.9048419452957
 20
281.8852670966425
 30
0.0
 41
1.000692952297344
 10
297.9048419452957
 20
281.562021016544
 30
0.0
 41
1.001177156056274
 10
297.9048419452957
 20
281.2379251553257
 30
0.0
 41
1.001498006703475
 10
297.9048419452957
 20
278.946031365281
 30
0.0
 41
1.001498006703475
 10
297.9048419452957
 20
276.6334906149554
 30
0.0
 41
0.9895139530756711
 10
297.9048419452957
 20
274.6836811243913
 30
0.0
 41
1.001498006703475
 10
297.9048419452957
 20
273.3981059050182
 30
0.0
 41
1.001498006703475
  0
SPLINE
  5
1D0
330
1F
100
AcDbEntity
  8
1
100
AcDbSpline
210
0.0
220
0.0
230
1.0
 70
     8
 71
     3
 72
    58
 73
    54
 74
     0
 42
0.000000001
 43
0.0000000001
 40
0.0
 40
0.0
 40
0.0
 40
0.0
 40
0.0625000000000011
 40
0.0625000000000011
 40
0.1250000000000022
 40
0.1250000000000022
 40
0.1562500000000026
 40
0.1562500000000026
 40
0.187500000000003
 40
0.187500000000003
 40
0.2500000000000041
 40
0.2500000000000041
 40
0.3125000000000051
 40
0.3125000000000051
 40
0.3750000000000061
 40
0.3750000000000061
 40
0.4062500000000066
 40
0.4062500000000066
 40
0.4218750000000068
 40
0.4218750000000068
 40
0.4375000000000068
 40
0.4375000000000068
 40
0.4687500000000065
 40
0.4687500000000065
 40
0.5000000000000063
 40
0.5000000000000063
 40
0.5312500000000061
 40
0.5312500000000061
 40
0.5625000000000058
 40
0.5625000000000058
 40
0.5781250000000057
 40
0.5781250000000057
 40
0.5937500000000055
 40
0.5937500000000055
 40
0.6250000000000053
 40
0.6250000000000053
 40
0.656250000000005
 40
0.656250000000005
 40
0.6875000000000048
 40
0.6875000000000048
 40
0.750000000000004
 40
0.750000000000004
 40
0.7812500000000037
 40
0.7812500000000037
 40
0.8125000000000031
 40
0.8125000000000031
 40
0.8437500000000028
 40
0.8437500000000028
 40
0.8750000000000023
 40
0.8750000000000023
 40
0.9375000000000012
 40
0.9375000000000012
 40
1.0
 40
1.0
 40
1.0
 40
1.0
 10
300.0982056755387
 20
281.5652731387043
 30
0.0
 10
302.4121240550769
 20
281.2195129062713
 30
0.0
 10
304.7258051140892
 20
280.8788751038009
 30
0.0
 10
309.3524412135625
 20
280.2067766342574
 30
0.0
 10
311.665394083059
 20
279.8752985403412
 30
0.0
 10
315.1339718665332
 20
279.3838786569087
 30
0.0
 10
316.2900793262701
 20
279.221029099703
 30
0.0
 10
318.6014813454042
 20
278.8971638084088
 30
0.0
 10
319.7568118473256
 20
278.7361420977887
 30
0.0
 10
323.2215681681733
 20
278.2556270532962
 30
0.0
 10
325.5297558797733
 20
277.9386378787599
 30
0.0
 10
330.1421869213667
 20
277.3112340608905
 30
0.0
 10
332.4464235147003
 20
277.0007944528985
 30
0.0
 10
337.0504706569678
 20
276.3880788819684
 30
0.0
 10
339.3502732759126
 20
276.0857839024723
 30
0.0
 10
342.796592806976
 20
275.6414988931813
 30
0.0
 10
343.9448057728334
 20
275.4949512296086
 30
0.0
 10
345.6663208734208
 20
275.2780312667835
 30
0.0
 10
346.2400255208903
 20
275.2062096133188
 30
0.0
 10
347.3871777507278
 20
275.0636498596882
 30
0.0
 10
347.9606147600192
 20
274.9928802643134
 30
0.0
 10
349.6806885972834
 20
274.7827690793956
 30
0.0
 10
350.8272310375399
 20
274.6457211119249
 30
0.0
 10
353.1200209424102
 20
274.3813637949904
 30
0.0
 10
354.2663200111422
 20
274.254044191089
 30
0.0
 10
356.5596601807917
 20
274.0114279272439
 30
0.0
 10
357.7067011604864
 20
273.8961239205228
 30
0.0
 10
360.0023159227999
 20
273.6787386820048
 30
0.0
 10
361.1508881465578
 20
273.5766475109771
 30
0.0
 10
362.8753983789186
 20
273.4337028088457
 30
0.0
 10
363.4505146869504
 20
273.3877588984656
 30
0.0
 10
364.6013492884002
 20
273.2991967731834
 30
0.0
 10
365.1770573949354
 20
273.2565543032302
 30
0.0
 10
366.9049803679298
 20
273.1331322649168
 30
0.0
 10
368.0579907323449
 20
273.056842382696
 30
0.0
 10
370.3658295050057
 20
272.9145147828939
 30
0.0
 10
371.5206591422133
 20
272.8484832509117
 30
0.0
 10
373.8319194990131
 20
272.7253846324452
 30
0.0
 10
374.9883513179868
 20
272.668321705136
 30
0.0
 10
378.4597987618545
 20
272.5090561254293
 30
0.0
 10
380.7769696918084
 20
272.4187238645483
 30
0.0
 10
384.2561526075802
 20
272.302292337981
 30
0.0
 10
385.4164915713019
 20
272.266673858179
 30
0.0
 10
387.7379740188367
 20
272.2012069603422
 30
0.0
 10
388.8989774804013
 20
272.1713618627171
 30
0.0
 10
391.2213889255573
 20
272.1169242418427
 30
0.0
 10
392.3827965290484
 20
272.0923312341812
 30
0.0
 10
394.7058852395182
 20
272.0479919757594
 30
0.0
 10
395.8675599154975
 20
272.0282410458549
 30
0.0
 10
399.352851720051
 20
271.975883496923
 30
0.0
 10
401.6767734507531
 20
271.9502087007195
 30
0.0
 10
406.325414771656
 20
271.916267290757
 30
0.0
 10
408.6501393028083
 20
271.9079935137005
 30
0.0
 10
410.9751974233629
 20
271.9079935137005
 30
0.0
  0
SPLINE
  5
1D1
330
1F
100
AcDbEntity
  8
1
100
AcDbSpline
210
0.0
220
0.0
230
1.0
 70
     8
 71
     3
 72
    58
 73
    54
 74
     0
 42
0.000000001
 43
0.0000000001
 40
0.0
 40
0.0
 40
0.0
 40
0.0
 40
0.0138588043648335
 40
0.0138588043648335
 40
0.0490781327803751
 40
0.0490781327803751
 40
0.0842974611959168
 40
0.0842974611959168
 40
0.1547361180270004
 40
0.1547361180270004
 40
0.2251747748580839
 40
0.2251747748580839
 40
0.2956134316891674
 40
0.2956134316891674
 40
0.330832760104709
 40
0.330832760104709
 40
0.3660520885202505
 40
0.3660520885202505
 40
0.4012714169357922
 40
0.4012714169357922
 40
0.4364907453513337
 40
0.4364907453513337
 40
0.4717100737668753
 40
0.4717100737668753
 40
0.5069294021824169
 40
0.5069294021824169
 40
0.5421487305979584
 40
0.5421487305979584
 40
0.5773680590135
 40
0.5773680590135
 40
0.6125873874290417
 40
0.6125873874290417
 40
0.6478067158445832
 40
0.6478067158445832
 40
0.6830260442601248
 40
0.6830260442601248
 40
0.7182453726756663
 40
0.7182453726756663
 40
0.7534647010912078
 40
0.7534647010912078
 40
0.7886840295067495
 40
0.7886840295067495
 40
0.8239033579222908
 40
0.8239033579222908
 40
0.8591226863378324
 40
0.8591226863378324
 40
0.8943420147533741
 40
0.8943420147533741
 40
0.9295613431689158
 40
0.9295613431689158
 40
0.9647806715844581
 40
0.9647806715844581
 40
1.0
 40
1.0
 40
1.0
 40
1.0
 10
310.6530905155964
 20
305.9079911261516
 30
0.0
 10
311.1161081219868
 20
305.908009263855
 30
0.0
 10
311.5790650473698
 20
305.9075058003068
 30
0.0
 10
313.2183278911608
 20
305.9038142401909
 30
0.0
 10
314.3942639513666
 20
305.8976881409858
 30
0.0
 10
316.7450537212097
 20
305.8779968947258
 30
0.0
 10
317.9199578701367
 20
305.8644309847113
 30
0.0
 10
321.4434108532155
 20
305.8119648542167
 30
0.0
 10
323.7906918627803
 20
305.7612358849104
 30
0.0
 10
328.4832491363267
 20
305.6262982216902
 30
0.0
 10
330.8285308391025
 20
305.5420804720101
 30
0.0
 10
335.5186694756588
 20
305.3402035935999
 30
0.0
 10
337.8635331743646
 20
305.2225505400467
 30
0.0
 10
341.3817065496678
 20
305.0226036192256
 30
0.0
 10
342.5546310722868
 20
304.9520556553384
 30
0.0
 10
344.9005818506596
 20
304.8036267079016
 30
0.0
 10
346.0736268561998
 20
304.7257459319558
 30
0.0
 10
348.4200341389035
 20
304.5631730988169
 30
0.0
 10
349.5934027701442
 20
304.4785090383228
 30
0.0
 10
351.9401755812067
 20
304.3018988152086
 30
0.0
 10
353.1135790871189
 20
304.2099468680443
 30
0.0
 10
355.4602607393492
 20
304.0183228574249
 30
0.0
 10
356.6335715261384
 20
303.9186450436333
 30
0.0
 10
358.9798861548651
 20
303.7113684668064
 30
0.0
 10
360.1528495411657
 20
303.6037724708852
 30
0.0
 10
362.4984676427712
 20
303.3807398858652
 30
0.0
 10
363.671116440151
 20
303.2652830224127
 30
0.0
 10
366.0163059503334
 20
303.026997632319
 30
0.0
 10
367.1888637976973
 20
302.9042181671472
 30
0.0
 10
369.5341699892856
 20
302.6522013148933
 30
0.0
 10
370.7069176840573
 20
302.5229644393467
 30
0.0
 10
373.0527783663057
 20
302.2586957855358
 30
0.0
 10
374.2257762366547
 20
302.1236771648477
 30
0.0
 10
376.5720005135543
 20
301.848373460788
 30
0.0
 10
377.7452291067608
 20
301.7080882317405
 30
0.0
 10
380.0919731880832
 20
301.4225808564481
 30
0.0
 10
381.2654884391144
 20
301.2773589679061
 30
0.0
 10
383.6128134244451
 20
300.9821324506926
 30
0.0
 10
384.7866230445454
 20
300.8321283749279
 30
0.0
 10
387.1345039509293
 20
300.5273042413719
 30
0.0
 10
388.3085437331421
 20
300.3724891192213
 30
0.0
 10
390.6565326462933
 20
300.0578382408883
 30
0.0
 10
391.8305136254904
 20
299.8979999492473
 30
0.0
 10
394.1783352424333
 20
299.5728059753909
 30
0.0
 10
395.3521850010988
 20
299.4074915554729
 30
0.0
 10
397.6995409988962
 20
299.070375294644
 30
0.0
 10
398.8730054455397
 20
298.8983977021212
 30
0.0
 10
401.2189408940573
 20
298.5447726951732
 30
0.0
 10
402.3914399597103
 20
298.3631052787458
 30
0.0
 10
404.7345710673455
 20
297.9880323620332
 30
0.0
 10
405.9052549482409
 20
297.7945974020049
 30
0.0
 10
408.2447808469151
 20
297.3950740723156
 30
0.0
 10
409.4136187469811
 20
297.1889604436109
 30
0.0
 10
410.581718328767
 20
296.9770449085403
 30
0.0
  0
SPLINE
  5
1D2
330
1F
100
AcDbEntity
  8
1
100
AcDbSpline
210
0.0
220
0.0
230
1.0
 70
     8
 71
     3
 72
    42
 73
    38
 74
     0
 42
0.000000001
 43
0.0000000001
 40
0.0
 40
0.0
 40
0.0
 40
0.0
 40
0.1250000000000053
 40
0.1250000000000053
 40
0.2500000000000105
 40
0.2500000000000105
 40
0.3750000000000157
 40
0.3750000000000157
 40
0.4375000000000244
 40
0.4375000000000244
 40
0.5000000000000329
 40
0.5000000000000329
 40
0.5625000000000416
 40
0.5625000000000416
 40
0.6250000000000502
 40
0.6250000000000502
 40
0.6562500000000491
 40
0.6562500000000491
 40
0.6875000000000481
 40
0.6875000000000481
 40
0.7500000000000361
 40
0.7500000000000361
 40
0.8125000000000241
 40
0.8125000000000241
 40
0.8281250000000252
 40
0.8281250000000252
 40
0.8437500000000262
 40
0.8437500000000262
 40
0.8750000000000209
 40
0.8750000000000209
 40
0.9062500000000158
 40
0.9062500000000158
 40
0.9375000000000104
 40
0.9375000000000104
 40
0.9687500000000051
 40
0.9687500000000051
 40
1.0
 40
1.0
 40
1.0
 40
1.0
 10
417.6145161474046
 20
296.2208973256708
 30
0.0
 10
417.8712906795182
 20
296.2957957089857
 30
0.0
 10
418.126419671256
 20
296.3750589471901
 30
0.0
 10
418.6327589481854
 20
296.5439799333212
 30
0.0
 10
418.8839738812498
 20
296.6336253525985
 30
0.0
 10
419.3816014801345
 20
296.8256543773287
 30
0.0
 10
419.6280239350621
 20
296.9280120168229
 30
0.0
 10
419.9930463266542
 20
297.0937800903682
 30
0.0
 10
420.1139475259443
 20
297.1510863427323
 30
0.0
 10
420.35395550325
 20
297.2704586142776
 30
0.0
 10
420.4726634437954
 20
297.3323266074319
 30
0.0
 10
420.7069506369741
 20
297.4610511262763
 30
0.0
 10
420.8225510092961
 20
297.5279137285198
 30
0.0
 10
421.0500978114593
 20
297.6675590763341
 30
0.0
 10
421.1620480090239
 20
297.7403357174135
 30
0.0
 10
421.3266389511869
 20
297.8549030231522
 30
0.0
 10
421.3809447631617
 20
297.8939959339278
 30
0.0
 10
421.4883072230368
 20
297.9742056599052
 30
0.0
 10
421.5414368977937
 20
298.0153834838898
 30
0.0
 10
421.6978751315495
 20
298.1416679806188
 30
0.0
 10
421.7984114942328
 20
298.2295957808117
 30
0.0
 10
421.9900503883201
 20
298.4148408603608
 30
0.0
 10
422.0811786222113
 20
298.5121325580672
 30
0.0
 10
422.1872969781586
 20
298.6415024836881
 30
0.0
 10
422.2081269639353
 20
298.6677683033565
 30
0.0
 10
422.2489319520311
 20
298.7211509065407
 30
0.0
 10
422.2689424858187
 20
298.748319409586
 30
0.0
 10
422.327229524572
 20
298.8307223865609
 30
0.0
 10
422.3637982936975
 20
298.8868768920388
 30
0.0
 10
422.4317688775658
 20
299.0019376634858
 30
0.0
 10
422.463172612283
 20
299.0608429069358
 30
0.0
 10
422.5200617778162
 20
299.1818052998996
 30
0.0
 10
422.5455502759244
 20
299.2438608158683
 30
0.0
 10
422.5896196167063
 20
299.371650651972
 30
0.0
 10
422.6078643446041
 20
299.4364579996355
 30
0.0
 10
422.6360856598181
 20
299.5677186287296
 30
0.0
 10
422.6460804917762
 20
299.6342214887188
 30
0.0
 10
422.6516042329215
 20
299.7016722095366
 30
0.0
  0
SPLINE
  5
1D3
330
1F
100
AcDbEntity
  8
1
100
AcDbSpline
210
0.0
220
0.0
230
1.0
 70
     8
 71
     3
 72
    25
 73
    21
 74
     0
 42
0.000000001
 43
0.0000000001
 40
0.0
 40
0.0
 40
0.0
 40
0.0
 40
0.1250000000000001
 40
0.1250000000000001
 40
0.2500000000000003
 40
0.2500000000000003
 40
0.3750000000000006
 40
0.3750000000000006
 40
0.5000000000000008
 40
0.5000000000000008
 40
0.625000000000001
 40
0.625000000000001
 40
0.6562500000000011
 40
0.6562500000000011
 40
0.6875000000000011
 40
0.7500000000000006
 40
0.7500000000000006
 40
0.8750000000000003
 40
0.8750000000000003
 40
1.0
 40
1.0
 40
1.0
 40
1.0
 10
285.699446898187
 20
272.6093688878684
 30
0.0
 10
285.3826508772445
 20
272.5838514259796
 30
0.0
 10
285.0731323085677
 20
272.5549319831601
 30
0.0
 10
284.4676801556018
 20
272.4923269019476
 30
0.0
 10
284.1717507083938
 20
272.4586374300281
 30
0.0
 10
283.5928922629556
 20
272.3884996605476
 30
0.0
 10
283.3099656103144
 20
272.3520472678322
 30
0.0
 10
282.7568061884616
 20
272.2784852969075
 30
0.0
 10
282.4865745847043
 20
272.2413705504324
 30
0.0
 10
281.9587259668008
 20
272.1688153106203
 30
0.0
 10
281.7011091594557
 20
272.1333673661723
 30
0.0
 10
281.3870522446661
 20
272.0918195340939
 30
0.0
 10
281.3246245453138
 20
272.0836474902429
 30
0.0
 10
281.2006343210173
 20
272.0676397233045
 30
0.0
 10
281.0162084752204
 20
272.0441669025753
 30
0.0
 10
280.8364439139157
 20
272.0225217819237
 30
0.0
 10
280.4831078109851
 20
271.9822851554781
 30
0.0
 10
280.2557983941676
 20
271.9595006445516
 30
0.0
 10
279.8177716099391
 20
271.9259135408802
 30
0.0
 10
279.6070508158605
 20
271.915087238837
 30
0.0
 10
279.4048419452955
 20
271.9128288451226
 30
0.0
  0
SPLINE
  5
1D4
330
1F
100
AcDbEntity
  8
1
100
AcDbSpline
210
0.0
220
0.0
230
1.0
 70
     8
 71
     3
 72
    52
 73
    48
 74
     0
 42
0.000000001
 43
0.0000000001
 40
0.0
 40
0.0
 40
0.0
 40
0.0
 40
0.0625000000000008
 40
0.0625000000000008
 40
0.1250000000000015
 40
0.1250000000000015
 40
0.1875000000000022
 40
0.1875000000000022
 40
0.2187500000000025
 40
0.2187500000000025
 40
0.2343750000000026
 40
0.2343750000000026
 40
0.2500000000000027
 40
0.2500000000000027
 40
0.3125000000000036
 40
0.3125000000000036
 40
0.3750000000000043
 40
0.3750000000000043
 40
0.4375000000000052
 40
0.4375000000000052
 40
0.4531250000000053
 40
0.4531250000000053
 40
0.4687500000000055
 40
0.5000000000000052
 40
0.5000000000000052
 40
0.5625000000000045
 40
0.625000000000004
 40
0.625000000000004
 40
0.6406250000000038
 40
0.6406250000000038
 40
0.6562500000000037
 40
0.6562500000000037
 40
0.6875000000000031
 40
0.6875000000000031
 40
0.7500000000000023
 40
0.7500000000000023
 40
0.8125000000000015
 40
0.8125000000000015
 40
0.843750000000001
 40
0.843750000000001
 40
0.8593750000000012
 40
0.8593750000000012
 40
0.8750000000000012
 40
0.8750000000000012
 40
0.9375000000000007
 40
0.9375000000000007
 40
1.0
 40
1.0
 40
1.0
 40
1.0
 10
279.4048419453059
 20
280.0397154841324
 30
0.0
 10
279.2390676511188
 20
279.8751525644497
 30
0.0
 10
279.0824377075508
 20
279.7062172823633
 30
0.0
 10
278.7871230618273
 20
279.3602493018283
 30
0.0
 10
278.6484386050038
 20
279.1832157094464
 30
0.0
 10
278.3891367485834
 20
278.8214508349934
 30
0.0
 10
278.2685175167076
 20
278.6367196737643
 30
0.0
 10
278.1015933259348
 20
278.3539752939528
 30
0.0
 10
278.0482899917807
 20
278.2587840660292
 30
0.0
 10
277.9719385492357
 20
278.1145808059251
 30
0.0
 10
277.9471278101287
 20
278.0663466027252
 30
0.0
 10
277.8989751532276
 20
277.9699311793158
 30
0.0
 10
277.8756035719941
 20
277.9216943547665
 30
0.0
 10
277.7622445337781
 20
277.6803819495642
 30
0.0
 10
277.6827307782813
 20
277.4869260075162
 30
0.0
 10
277.5457860817056
 20
277.0995691941802
 30
0.0
 10
277.4883548560608
 20
276.9056677944354
 30
0.0
 10
277.3958939968893
 20
276.5176817468524
 30
0.0
 10
277.3608615134802
 20
276.3235970107129
 30
0.0
 10
277.3316614847669
 20
276.0809811876273
 30
0.0
 10
277.3265510725257
 20
276.0324160172942
 30
0.0
 10
277.3178581813917
 20
275.935864337541
 30
0.0
 10
277.3070833168149
 20
275.7917049757219
 30
0.0
 10
277.3030223975252
 20
275.6495338845428
 30
0.0
 10
277.3037007195256
 20
275.3678057461546
 30
0.0
 10
277.3280342864952
 20
274.9991351238067
 30
0.0
 10
277.3985657127106
 20
274.644100986438
 30
0.0
 10
277.4572525488216
 20
274.4264075843598
 30
0.0
 10
277.4697216163856
 20
274.3830791773461
 30
0.0
 10
277.4961332932075
 20
274.296841945117
 30
0.0
 10
277.5100853447797
 20
274.2539058112365
 30
0.0
 10
277.5541098091387
 20
274.1259018828476
 30
0.0
 10
277.5861792617028
 20
274.0421191338984
 30
0.0
 10
277.6903220457133
 20
273.7952357691152
 30
0.0
 10
277.7703126569739
 20
273.6365930193885
 30
0.0
 10
277.950675572314
 20
273.3303571986705
 30
0.0
 10
278.0510502145924
 20
273.1827659070332
 30
0.0
 10
278.2167388653708
 20
272.9691907888469
 30
0.0
 10
278.2744933958759
 20
272.8993024834602
 30
0.0
 10
278.3649265147088
 20
272.7963771868853
 30
0.0
 10
278.3957046767057
 20
272.7623866915347
 30
0.0
 10
278.4585337319557
 20
272.6950344746421
 30
0.0
 10
278.4905300430876
 20
272.6617323678877
 30
0.0
 10
278.653120809075
 20
272.4973300091177
 30
0.0
 10
278.7917944424437
 20
272.3722532371691
 30
0.0
 10
279.0858280184723
 20
272.1338969795972
 30
0.0
 10
279.2411894095608
 20
272.020619567753
 30
0.0
 10
279.4048419452954
 20
271.9128288451226
 30
0.0
  0
SPLINE
  5
1D5
330
1F
100
AcDbEntity
  8
1
100
AcDbSpline
210
0.0
220
0.0
230
1.0
 70
     9
 71
     3
 72
   133
 73
   129
 74
     0
 42
0.000000001
 43
0.0000000001
 40
0.0
 40
0.0
 40
0.0
 40
0.0
 40
0.0312499999999842
 40
0.0312499999999842
 40
0.0468749999999763
 40
0.0468749999999763
 40
0.0546874999999711
 40
0.0546874999999711
 40
0.0624999999999659
 40
0.0624999999999659
 40
0.0937499999999443
 40
0.0937499999999443
 40
0.1093749999999361
 40
0.1093749999999361
 40
0.1249999999999279
 40
0.1249999999999279
 40
0.1562499999999051
 40
0.1562499999999051
 40
0.1640624999999013
 40
0.1640624999999013
 40
0.1718749999998975
 40
0.1718749999998975
 40
0.18749999999989
 40
0.2031249999998826
 40
0.2031249999998826
 40
0.2109374999998789
 40
0.2109374999998789
 40
0.2187499999998752
 40
0.2187499999998752
 40
0.2499999999998429
 40
0.2499999999998429
 40
0.2656249999998267
 40
0.2656249999998267
 40
0.2734374999998186
 40
0.2734374999998186
 40
0.2812499999998104
 40
0.2812499999998104
 40
0.3124999999997869
 40
0.3124999999997869
 40
0.320312499999777
 40
0.320312499999777
 40
0.3281249999997669
 40
0.3281249999997669
 40
0.343749999999747
 40
0.3593749999997269
 40
0.3593749999997269
 40
0.3671874999997204
 40
0.3671874999997204
 40
0.374999999999714
 40
0.374999999999714
 40
0.4062499999997057
 40
0.4062499999997057
 40
0.4218749999997042
 40
0.4218749999997042
 40
0.4296874999997032
 40
0.4296874999997032
 40
0.4374999999997024
 40
0.4374999999997024
 40
0.4687499999997084
 40
0.4687499999997084
 40
0.4765624999997093
 40
0.4765624999997093
 40
0.4843749999997103
 40
0.4843749999997103
 40
0.4999999999997119
 40
0.4999999999997119
 40
0.5312499999997154
 40
0.5312499999997154
 40
0.5390624999997158
 40
0.5390624999997158
 40
0.5468749999997164
 40
0.5468749999997164
 40
0.5624999999997144
 40
0.5781249999997123
 40
0.5781249999997123
 40
0.5859374999997112
 40
0.5859374999997112
 40
0.59374999999971
 40
0.59374999999971
 40
0.6249999999997199
 40
0.6249999999997199
 40
0.6406249999997282
 40
0.6406249999997282
 40
0.6484374999997283
 40
0.6484374999997283
 40
0.6562499999997288
 40
0.6562499999997288
 40
0.6874999999997309
 40
0.6874999999997309
 40
0.6953124999997293
 40
0.6953124999997293
 40
0.7031249999997277
 40
0.7031249999997277
 40
0.7187499999997245
 40
0.7187499999997245
 40
0.7499999999997092
 40
0.7499999999997092
 40
0.7578124999997118
 40
0.7578124999997118
 40
0.7656249999997148
 40
0.7656249999997148
 40
0.7812499999997204
 40
0.7968749999997263
 40
0.7968749999997263
 40
0.8046874999997333
 40
0.8046874999997333
 40
0.8124999999997404
 40
0.8124999999997404
 40
0.8437499999997854
 40
0.8437499999997854
 40
0.8515624999998005
 40
0.8515624999998005
 40
0.8593749999998154
 40
0.8593749999998154
 40
0.8749999999998388
 40
0.8749999999998388
 40
0.9062499999998795
 40
0.9062499999998795
 40
0.9218749999998999
 40
0.9218749999998999
 40
0.9374999999999198
 40
0.9531249999999401
 40
0.9531249999999401
 40
0.9609374999999504
 40
0.9609374999999504
 40
0.9687499999999607
 40
0.9687499999999607
 40
1.0
 40
1.0
 40
1.0
 40
1.0
 10
431.9691615337857
 20
284.774186265565
 30
0.0
 10
431.9708089211167
 20
284.8685650225406
 30
0.0
 10
431.9815635653243
 20
284.9614987493789
 30
0.0
 10
432.0110094317238
 20
285.0987652168743
 30
0.0
 10
432.0230591567116
 20
285.1441622661272
 30
0.0
 10
432.0445836759112
 20
285.2116988917148
 30
0.0
 10
432.0523345077013
 20
285.2341177605887
 30
0.0
 10
432.0690176231051
 20
285.2787628927099
 30
0.0
 10
432.0778856369645
 20
285.3008160373034
 30
0.0
 10
432.1247732764196
 20
285.4096515003846
 30
0.0
 10
432.1704064736261
 20
285.4922934134874
 30
0.0
 10
432.2510402234308
 20
285.6095536711356
 30
0.0
 10
432.2799623674232
 20
285.6475157658185
 30
0.0
 10
432.3420728609637
 20
285.721080379837
 30
0.0
 10
432.3747755845653
 20
285.7561013285087
 30
0.0
 10
432.4774503986816
 20
285.8557660449502
 30
0.0
 10
432.5520442961558
 20
285.9151799253506
 30
0.0
 10
432.6531471518925
 20
285.9803993661395
 30
0.0
 10
432.6737853786248
 20
285.9929988866339
 30
0.0
 10
432.7157858673493
 20
286.0172102216131
 30
0.0
 10
432.7370076299441
 20
286.0287424796365
 30
0.0
 10
432.8013241156016
 20
286.0616519673504
 30
0.0
 10
432.8888126904441
 20
286.1010401554539
 30
0.0
 10
432.9797061964305
 20
286.131590456047
 30
0.0
 10
433.0491682308471
 20
286.1511452023282
 30
0.0
 10
433.0725379536478
 20
286.157102776592
 30
0.0
 10
433.1197163091145
 20
286.1678764835286
 30
0.0
 10
433.1435944434518
 20
286.1727038802171
 30
0.0
 10
433.2631241589713
 20
286.193750026672
 30
0.0
 10
433.3589744556568
 20
286.2008235190814
 30
0.0
 10
433.5030791404001
 20
286.1972343434202
 30
0.0
 10
433.5511693250675
 20
286.193653674555
 30
0.0
 10
433.6233900436536
 20
286.1845992976637
 30
0.0
 10
433.6474994878661
 20
286.1809582912137
 30
0.0
 10
433.6951981347833
 20
286.1725264364299
 30
0.0
 10
433.7188554571296
 20
286.1677286614537
 30
0.0
 10
433.8361987050901
 20
286.1408822367416
 30
0.0
 10
433.9270824250457
 20
286.1103442951239
 30
0.0
 10
434.0369280032819
 20
286.0608148978075
 30
0.0
 10
434.0587074189579
 20
286.0503359526107
 30
0.0
 10
434.1018791083916
 20
286.0282095778182
 30
0.0
 10
434.1231329738863
 20
286.0166316073766
 30
0.0
 10
434.1857126424776
 20
285.980497752111
 30
0.0
 10
434.2661879588951
 20
285.9285003800689
 30
0.0
 10
434.3408765306419
 20
285.8690676131263
 30
0.0
 10
434.3947124777303
 20
285.8216993485342
 30
0.0
 10
434.4122937336481
 20
285.8054434873335
 30
0.0
 10
434.4467184064578
 20
285.7719878238792
 30
0.0
 10
434.4636043429892
 20
285.7547415144296
 30
0.0
 10
434.5456017592693
 20
285.6667029357035
 30
0.0
 10
434.6030871969283
 20
285.5910582332498
 30
0.0
 10
434.6776916837249
 20
285.4701899215846
 30
0.0
 10
434.7006083344354
 20
285.4286576861043
 30
0.0
 10
434.7319985760036
 20
285.3644664285643
 30
0.0
 10
434.7419800764633
 20
285.3427087690906
 30
0.0
 10
434.7607409795843
 20
285.2990052438542
 30
0.0
 10
434.7695447240583
 20
285.2770148863982
 30
0.0
 10
434.810740347338
 20
285.1663876592845
 30
0.0
 10
434.8347402171533
 20
285.075744257327
 30
0.0
 10
434.8537052361713
 20
284.9598363723676
 30
0.0
 10
434.8569417054267
 20
284.9365233895607
 30
0.0
 10
434.8622860940298
 20
284.8896314859343
 30
0.0
 10
434.8643901058008
 20
284.866050925051
 30
0.0
 10
434.8689490500663
 20
284.7956524774269
 30
0.0
 10
434.8696875404167
 20
284.7489287860554
 30
0.0
 10
434.8652122637404
 20
284.6093660295703
 30
0.0
 10
434.8533699295508
 20
284.5171310677801
 30
0.0
 10
434.8272428129744
 20
284.4028530825667
 30
0.0
 10
434.8214406889115
 20
284.3800430641157
 30
0.0
 10
434.8088141578377
 20
284.3349975883297
 30
0.0
 10
434.8019771094469
 20
284.3127019529701
 30
0.0
 10
434.7799194974118
 20
284.246483969973
 30
0.0
 10
434.7463920992743
 20
284.1599742653688
 30
0.0
 10
434.7047132576391
 20
284.0769697963626
 30
0.0
 10
434.6703390919499
 20
284.0160462295066
 30
0.0
 10
434.6583609344786
 20
283.9959603841204
 30
0.0
 10
434.6333427923479
 20
283.9562401056087
 30
0.0
 10
434.6202693129194
 20
283.9365611986495
 30
0.0
 10
434.5528528695738
 20
283.8402620890767
 30
0.0
 10
434.4921323209159
 20
283.7693246826465
 30
0.0
 10
434.3909461500254
 20
283.6718947853543
 30
0.0
 10
434.3555211887283
 20
283.6409248819423
 30
0.0
 10
434.2997334054792
 20
283.5968098611863
 30
0.0
 10
434.2806441460067
 20
283.5824599486826
 30
0.0
 10
434.2418033404686
 20
283.5547419739649
 30
0.0
 10
434.2221009553898
 20
283.5414047019637
 30
0.0
 10
434.1221973116108
 20
283.4772872316668
 30
0.0
 10
434.0378615503087
 20
283.4341376657852
 30
0.0
 10
433.926804569021
 20
283.3905195988959
 30
0.0
 10
433.9043087418281
 20
283.3823167229041
 30
0.0
 10
433.858734428821
 20
283.3669759531499
 30
0.0
 10
433.8355986780294
 20
283.3598222507671
 30
0.0
 10
433.7656951709805
 20
283.340119958205
 30
0.0
 10
433.7187733101041
 20
283.3294081224085
 30
0.0
 10
433.5770738689229
 20
283.3043398384872
 30
0.0
 10
433.4813714476135
 20
283.2969803696547
 30
0.0
 10
433.3601433930681
 20
283.2998699031519
 30
0.0
 10
433.3357619340056
 20
283.3010649299835
 30
0.0
 10
433.2873983467122
 20
283.3046557112722
 30
0.0
 10
433.2633584366951
 20
283.3070500834954
 30
0.0
 10
433.1916556946397
 20
283.3159943886677
 30
0.0
 10
433.0971619400288
 20
283.3326077371495
 30
0.0
 10
433.0048462626105
 20
283.3584349096294
 30
0.0
 10
432.9364344434043
 20
283.3813036426434
 30
0.0
 10
432.9137374184317
 20
283.3895228202184
 30
0.0
 10
432.868756482235
 20
283.4070977393839
 30
0.0
 10
432.8465992699258
 20
283.4164020672581
 30
0.0
 10
432.7374337152479
 20
283.4654417971593
 30
0.0
 10
432.655239338776
 20
283.5126564508162
 30
0.0
 10
432.5586926408049
 20
283.5813893298993
 30
0.0
 10
432.5396960303186
 20
283.5956262419725
 30
0.0
 10
432.5023342648686
 20
283.6250926181798
 30
0.0
 10
432.4839675358666
 20
283.6403287077711
 30
0.0
 10
432.4303884187417
 20
283.6870375702578
 30
0.0
 10
432.3964905149146
 20
283.7196624787848
 30
0.0
 10
432.3000574751048
 20
283.8218555180164
 30
0.0
 10
432.2427327684569
 20
283.8957007562694
 30
0.0
 10
432.1673308000605
 20
284.0152640468399
 30
0.0
 10
432.1443188154558
 20
284.0560557723105
 30
0.0
 10
432.1025067309321
 20
284.1392340783812
 30
0.0
 10
432.0648612257766
 20
284.2240813205002
 30
0.0
 10
432.0354546578984
 20
284.3122516978652
 30
0.0
 10
432.0165438347889
 20
284.3796546190965
 30
0.0
 10
432.0107651756283
 20
284.4023351410395
 30
0.0
 10
432.0002786806435
 20
284.4481313557465
 30
0.0
 10
431.9955928693958
 20
284.4711576018424
 30
0.0
 10
431.9750193338179
 20
284.5864806796662
 30
0.0
 10
431.967514146455
 20
284.6798075085892
 30
0.0
 10
431.9691615337857
 20
284.7741862655649
 30
0.0
  0
SPLINE
  5
1D6
330
1F
100
AcDbEntity
  8
1
100
AcDbSpline
210
0.0
220
0.0
230
1.0
 70
    12
 71
     2
 72
     6
 73
     3
 74
     0
 42
0.000000001
 43
0.0000000001
 40
0.0
 40
0.0
 40
0.0
 40
1.0
 40
1.0
 40
1.0
 10
425.7629315156409
 20
305.8344940966183
 30
0.0
 41
0.500000623973897
 10
425.8751147879409
 20
305.8343122162141
 30
0.0
 41
0.499999376026103
 10
425.9872972008815
 20
305.834129886714
 30
0.0
 41
0.500000623973897
  0
LINE
  5
1EC
330
1F
100
AcDbEntity
  8
SK4
100
AcDbLine
 10
210.904842
 20
288.907994
 30
0.0
 11
277.404842
 21
288.907994
 31
0.0
  0
LINE
  5
1ED
330
1F
100
AcDbEntity
  8
4
100
AcDbLine
 10
266.987847
 20
288.907994
 30
0.0
 11
443.5436369999999
 21
288.907994
 31
0.0
  0
MTEXT
  5
1F3
330
1F
100
AcDbEntity
  8
SK6
100
AcDbMText
 10
304.314982
 20
248.747444
 30
0.0
 40
3.5
 41
0.0
 71
     7
 72
     5
  1
\W0.7147;804D-35-140-S32
  7
cesky
 73
     2
 44
0.8433729999999998
  0
MTEXT
  5
304
330
1F
100
AcDbEntity
  8
2
100
AcDbMText
 10
353.827842
 20
333.821465
 30
0.0
 40
3.5
 41
0.0
 71
     7
 72
     5
  1
\W0.7809;165
  7
cesky
 73
     2
 44
0.8433729999999998
  0
LINE
  5
305
330
1F
100
AcDbEntity
  8
2
100
AcDbLine
 10
439.4048419999999
 20
306.407994
 30
0.0
 11
439.4048419999999
 21
334.9472990000001
 31
0.0
  0
LINE
  5
306
330
1F
100
AcDbEntity
  8
2
100
AcDbLine
 10
274.404842
 20
289.907567
 30
0.0
 11
274.404842
 21
334.9472990000001
 31
0.0
  0
LINE
  5
307
330
1F
100
AcDbEntity
  8
2
100
AcDbLine
 10
439.4048419999999
 20
333.947299
 30
0.0
 11
274.404842
 21
333.947299
 31
0.0
  0
SOLID
  5
308
330
1F
100
AcDbEntity
  8
2
100
AcDbTrace
 10
439.4048419999999
 20
333.947299
 30
0.0
 11
435.904844
 21
333.330154
 31
0.0
 12
435.90484
 22
334.5644430000001
 32
0.0
 13
435.90484
 23
334.5644430000001
 33
0.0
  0
SOLID
  5
309
330
1F
100
AcDbEntity
  8
2
100
AcDbTrace
 10
274.404842
 20
333.947299
 30
0.0
 11
277.90484
 21
334.5644430000001
 31
0.0
 12
277.904844
 22
333.330154
 32
0.0
 13
277.904844
 23
333.330154
 33
0.0
  0
MTEXT
  5
30A
330
1F
100
AcDbEntity
  8
2
100
AcDbMText
 10
323.827842
 20
347.267008
 30
0.0
 40
3.5
 41
0.0
 71
     7
 72
     5
  1
\W0.7231;225
  7
cesky
 73
     2
 44
0.8433729999999998
  0
LINE
  5
30B
330
1F
100
AcDbEntity
  8
2
100
AcDbLine
 10
439.4048419999999
 20
308.407994
 30
0.0
 11
439.4048419999999
 21
348.392842
 31
0.0
  0
LINE
  5
30C
330
1F
100
AcDbEntity
  8
2
100
AcDbLine
 10
214.404842
 20
302.907994
 30
0.0
 11
214.404842
 21
348.392842
 31
0.0
  0
LINE
  5
30D
330
1F
100
AcDbEntity
  8
2
100
AcDbLine
 10
439.4048419999999
 20
347.392842
 30
0.0
 11
214.404842
 21
347.392842
 31
0.0
  0
SOLID
  5
30E
330
1F
100
AcDbEntity
  8
2
100
AcDbTrace
 10
439.4048419999999
 20
347.392842
 30
0.0
 11
435.904844
 21
346.775697
 31
0.0
 12
435.90484
 22
348.009986
 32
0.0
 13
435.90484
 23
348.009986
 33
0.0
  0
SOLID
  5
30F
330
1F
100
AcDbEntity
  8
2
100
AcDbTrace
 10
214.404842
 20
347.392842
 30
0.0
 11
217.90484
 21
348.009986
 31
0.0
 12
217.904844
 22
346.775697
 32
0.0
 13
217.904844
 23
346.775697
 33
0.0
  0
MTEXT
  5
310
330
1F
100
AcDbEntity
  8
2
100
AcDbMText
 10
242.590342
 20
333.821465
 30
0.0
 40
3.5
 41
0.0
 71
     7
 72
     5
  1
\W0.7045;60
  7
cesky
 73
     2
 44
0.8433729999999998
  0
LINE
  5
311
330
1F
100
AcDbEntity
  8
2
100
AcDbLine
 10
274.404842
 20
288.907994
 30
0.0
 11
274.404842
 21
334.9472990000001
 31
0.0
  0
LINE
  5
312
330
1F
100
AcDbEntity
  8
2
100
AcDbLine
 10
214.404842
 20
302.907994
 30
0.0
 11
214.404842
 21
334.9472990000001
 31
0.0
  0
LINE
  5
313
330
1F
100
AcDbEntity
  8
2
100
AcDbLine
 10
274.404842
 20
333.947299
 30
0.0
 11
214.404842
 21
333.947299
 31
0.0
  0
SOLID
  5
314
330
1F
100
AcDbEntity
  8
2
100
AcDbTrace
 10
274.404842
 20
333.947299
 30
0.0
 11
270.904844
 21
333.330154
 31
0.0
 12
270.90484
 22
334.5644430000001
 32
0.0
 13
270.90484
 23
334.5644430000001
 33
0.0
  0
SOLID
  5
315
330
1F
100
AcDbEntity
  8
2
100
AcDbTrace
 10
214.404842
 20
333.947299
 30
0.0
 11
217.90484
 21
334.5644430000001
 31
0.0
 12
217.904844
 22
333.330154
 32
0.0
 13
217.904844
 23
333.330154
 33
0.0
  0
MTEXT
  5
316
330
1F
100
AcDbEntity
  8
2
100
AcDbMText
 10
361.838099
 20
319.9926
 30
0.0
 40
3.5
 41
0.0
 71
     7
 72
     5
  1
\W0.7969;149
  7
cesky
 73
     2
 44
0.8433729999999998
  0
LINE
  5
317
330
1F
100
AcDbEntity
  8
2
100
AcDbLine
 10
439.4048419999999
 20
308.407994
 30
0.0
 11
439.4048419999999
 21
321.118433
 31
0.0
  0
LINE
  5
318
330
1F
100
AcDbEntity
  8
2
100
AcDbLine
 10
290.425356
 20
306.18129
 30
0.0
 11
290.425356
 21
321.118433
 31
0.0
  0
LINE
  5
319
330
1F
100
AcDbEntity
  8
2
100
AcDbLine
 10
439.4048419999999
 20
320.118433
 30
0.0
 11
290.425356
 21
320.118433
 31
0.0
  0
SOLID
  5
31A
330
1F
100
AcDbEntity
  8
2
100
AcDbTrace
 10
439.4048419999999
 20
320.118433
 30
0.0
 11
435.904844
 21
319.501288
 31
0.0
 12
435.90484
 22
320.735577
 32
0.0
 13
435.90484
 23
320.735577
 33
0.0
  0
SOLID
  5
31B
330
1F
100
AcDbEntity
  8
2
100
AcDbTrace
 10
290.425356
 20
320.118433
 30
0.0
 11
293.925353
 21
320.735577
 31
0.0
 12
293.925358
 22
319.501288
 32
0.0
 13
293.925358
 23
319.501288
 33
0.0
  0
MTEXT
  5
31C
330
1F
100
AcDbEntity
  8
2
100
AcDbMText
 10
454.730913
 20
287.240711
 30
0.0
 40
3.5
 41
0.0
 71
     7
 72
     5
  1
\W0.7045;35
  7
cesky
 11
0.0000000000000001
 21
1.0
 31
0.0
 73
     2
 44
0.8433729999999998
  0
MTEXT
  5
31D
330
1F
100
AcDbEntity
  8
2
100
AcDbMText
 10
454.730913
 20
280.5032109999999
 30
0.0
 40
3.5
 41
0.0
 71
     7
 72
     5
  1
\W3.0115;\H2.63;%%c\H3.50;
  7
cesky
 11
0.0000000000000001
 21
1.0
 31
0.0
 73
     2
 44
0.8433729999999998
  0
LINE
  5
31E
330
1F
100
AcDbEntity
  8
2
100
AcDbLine
 10
441.4048419999999
 20
306.407994
 30
0.0
 11
455.9183299999999
 21
306.407994
 31
0.0
  0
LINE
  5
31F
330
1F
100
AcDbEntity
  8
2
100
AcDbLine
 10
454.91833
 20
306.407994
 30
0.0
 11
454.91833
 21
280.345711
 31
0.0
  0
SOLID
  5
320
330
1F
100
AcDbEntity
  8
2
100
AcDbTrace
 10
454.91833
 20
306.407994
 30
0.0
 11
455.535474
 21
302.907996
 31
0.0
 12
454.301186
 22
302.907991
 32
0.0
 13
454.301186
 23
302.907991
 33
0.0
  0
MTEXT
  5
321
330
1F
100
AcDbEntity
  8
SK2
100
AcDbMText
 10
204.480913
 20
290.434244
 30
0.0
 40
3.5
 41
0.0
 71
     7
 72
     5
  1
\W0.7045;32
  7
cesky
 11
0.0000000000000001
 21
1.0
 31
0.0
 73
     2
 44
0.8433729999999998
  0
MTEXT
  5
322
330
1F
100
AcDbEntity
  8
SK2
100
AcDbMText
 10
204.480913
 20
283.696744
 30
0.0
 40
3.5
 41
0.0
 71
     7
 72
     5
  1
\W3.0115;\H2.63;%%c\H3.50;
  7
cesky
 11
0.0000000000000001
 21
1.0
 31
0.0
 73
     2
 44
0.8433729999999998
  0
LINE
  5
323
330
1F
100
AcDbEntity
  8
SK2
100
AcDbLine
 10
216.404842
 20
304.907994
 30
0.0
 11
203.66833
 21
304.907994
 31
0.0
  0
LINE
  5
324
330
1F
100
AcDbEntity
  8
SK2
100
AcDbLine
 10
216.404842
 20
272.907994
 30
0.0
 11
203.66833
 21
272.907994
 31
0.0
  0
LINE
  5
325
330
1F
100
AcDbEntity
  8
SK2
100
AcDbLine
 10
204.66833
 20
304.907994
 30
0.0
 11
204.66833
 21
272.907994
 31
0.0
  0
SOLID
  5
326
330
1F
100
AcDbEntity
  8
SK2
100
AcDbTrace
 10
204.66833
 20
304.907994
 30
0.0
 11
205.285474
 21
301.407996
 31
0.0
 12
204.051185
 22
301.407991
 32
0.0
 13
204.051185
 23
301.407991
 33
0.0
  0
SOLID
  5
327
330
1F
100
AcDbEntity
  8
SK2
100
AcDbTrace
 10
204.66833
 20
272.907994
 30
0.0
 11
204.051185
 21
276.407991
 31
0.0
 12
205.285474
 22
276.407996
 32
0.0
 13
205.285474
 23
276.407996
 33
0.0
  0
MTEXT
  5
328
330
1F
100
AcDbEntity
  8
SK2
100
AcDbMText
 10
191.916868
 20
290.434244
 30
0.0
 40
3.5
 41
0.0
 71
     7
 72
     5
  1
\W0.7045;42
  7
cesky
 11
0.0000000000000001
 21
1.0
 31
0.0
 73
     2
 44
0.8433729999999998
  0
MTEXT
  5
329
330
1F
100
AcDbEntity
  8
SK2
100
AcDbMText
 10
191.916868
 20
283.696744
 30
0.0
 40
3.5
 41
0.0
 71
     7
 72
     5
  1
\W3.0115;\H2.63;%%c\H3.50;
  7
cesky
 11
0.0000000000000001
 21
1.0
 31
0.0
 73
     2
 44
0.8433729999999998
  0
LINE
  5
32A
330
1F
100
AcDbEntity
  8
SK2
100
AcDbLine
 10
274.904842
 20
309.907994
 30
0.0
 11
191.104285
 21
309.907994
 31
0.0
  0
LINE
  5
32B
330
1F
100
AcDbEntity
  8
SK2
100
AcDbLine
 10
274.904842
 20
267.907994
 30
0.0
 11
191.104285
 21
267.907994
 31
0.0
  0
LINE
  5
32C
330
1F
100
AcDbEntity
  8
SK2
100
AcDbLine
 10
192.104285
 20
309.907994
 30
0.0
 11
192.104285
 21
267.907994
 31
0.0
  0
SOLID
  5
32D
330
1F
100
AcDbEntity
  8
SK2
100
AcDbTrace
 10
192.104285
 20
309.907994
 30
0.0
 11
192.721429
 21
306.407996
 31
0.0
 12
191.48714
 22
306.407991
 32
0.0
 13
191.48714
 23
306.407991
 33
0.0
  0
SOLID
  5
32E
330
1F
100
AcDbEntity
  8
SK2
100
AcDbTrace
 10
192.104285
 20
267.907994
 30
0.0
 11
191.48714
 21
271.4079910000001
 31
0.0
 12
192.721429
 22
271.407996
 32
0.0
 13
192.721429
 23
271.407996
 33
0.0
  0
LINE
  5
32F
330
1F
100
AcDbEntity
  8
CUT
100
AcDbLine
 10
438.9649067722293
 20
297.60947517396
 30
0.0
 11
439.2334058386327
 21
297.1626487939952
 31
0.0
  0
LINE
  5
330
330
1F
100
AcDbEntity
  8
CUT
100
AcDbLine
 10
439.2754235247553
 20
297.0161266556917
 30
0.0
 11
439.3998607906598
 21
289.8916003142345
 31
0.0
  0
LINE
  5
331
330
1F
100
AcDbEntity
  8
CUT
100
AcDbLine
 10
426.7325433852694
 20
305.9947134686475
 30
0.0
 11
437.8706493765341
 21
306.4047265598497
 31
0.0
  0
LINE
  5
333
330
1F
100
AcDbEntity
  8
CUT
100
AcDbLine
 10
438.6744348418796
 20
305.6586732925936
 30
0.0
 11
438.9649067722293
 21
297.60947517396
 31
0.0
  0
LINE
  5
335
330
1F
100
AcDbEntity
  8
CUT
100
AcDbLine
 10
426.7325429999999
 20
288.907994
 30
0.0
 11
426.7325429999999
 21
305.994713
 31
0.0
  0
LINE
  5
336
330
1F
100
AcDbEntity
  8
CUT
100
AcDbLine
 10
439.399861
 20
288.907994
 30
0.0
 11
426.7325429999999
 21
288.907994
 31
0.0
  0
LINE
  5
337
330
1F
100
AcDbEntity
  8
CUT
100
AcDbLine
 10
439.399861
 20
289.8916
 30
0.0
 11
439.399861
 21
288.907994
 31
0.0
  0
LINE
  5
338
330
1F
100
AcDbEntity
  8
CUT
100
AcDbLine
 10
437.8706493765341
 20
306.4047265598497
 30
0.0
 11
437.8706493765341
 21
306.4047265598497
 31
0.0
  0
ARC
  5
339
330
1F
100
AcDbEntity
  8
CUT
100
AcDbCircle
 10
437.8947099351252
 20
305.6246297836517
 30
0.0
 40
0.7804677384198499
100
AcDbArc
 50
2.499998848803609
 51
91.76661615635234
  0
LINE
  5
33A
330
1F
100
AcDbEntity
  8
CUT
100
AcDbLine
 10
439.2334058386329
 20
297.1626487939952
 30
0.0
 11
439.2334058386329
 21
297.1626487939952
 31
0.0
  0
ARC
  5
33B
330
1F
100
AcDbEntity
  8
CUT
100
AcDbCircle
 10
438.9810544906121
 20
297.0109970950026
 30
0.0
 40
0.2944137236190477
100
AcDbArc
 50
0.998313007089675
 51
31.00395544049738
  0
ENDSEC
  0
SECTION
  2
OBJECTS
  0
DICTIONARY
  5
C
330
0
100
AcDbDictionary
281
     1
  3
ACAD_CIP_PREVIOUS_PRODUCT_INFO
350
301
  3
ACAD_COLOR
350
2FC
  3
ACAD_DETAILVIEWSTYLE
350
2F8
  3
ACAD_GROUP
350
D
  3
ACAD_LAYOUT
350
1A
  3
ACAD_MATERIAL
350
43
  3
ACAD_MLEADERSTYLE
350
6B
  3
ACAD_MLINESTYLE
350
17
  3
ACAD_PLOTSETTINGS
350
19
  3
ACAD_PLOTSTYLENAME
350
E
  3
ACAD_SCALELIST
350
47
  3
ACAD_SECTIONVIEWSTYLE
350
2F9
  3
ACAD_TABLESTYLE
350
69
  3
ACAD_VISUALSTYLE
350
2A
  3
ACDB_RECOMPOSE_DATA
350
367
  3
AcDbVariableDictionary
350
2B5
  0
DICTIONARY
  5
34A
330
10
100
AcDbDictionary
280
     1
281
     1
  3
ADSK_XREC_LAYER_RECONCILED
360
34B
  0
DICTIONARY
  5
34C
330
33C
100
AcDbDictionary
280
     1
281
     1
  3
ADSK_XREC_LAYER_RECONCILED
360
34D
  0
DICTIONARY
  5
34E
330
33D
100
AcDbDictionary
280
     1
281
     1
  3
ADSK_XREC_LAYER_RECONCILED
360
34F
  0
DICTIONARY
  5
350
330
33E
100
AcDbDictionary
280
     1
281
     1
  3
ADSK_XREC_LAYER_RECONCILED
360
351
  0
DICTIONARY
  5
352
330
340
100
AcDbDictionary
280
     1
281
     1
  3
ADSK_XREC_LAYER_RECONCILED
360
353
  0
DICTIONARY
  5
354
330
341
100
AcDbDictionary
280
     1
281
     1
  3
ADSK_XREC_LAYER_RECONCILED
360
355
  0
DICTIONARY
  5
356
330
343
100
AcDbDictionary
280
     1
281
     1
  3
ADSK_XREC_LAYER_RECONCILED
360
357
  0
DICTIONARY
  5
358
330
344
100
AcDbDictionary
280
     1
281
     1
  3
ADSK_XREC_LAYER_RECONCILED
360
359
  0
DICTIONARY
  5
35A
330
345
100
AcDbDictionary
280
     1
281
     1
  3
ADSK_XREC_LAYER_RECONCILED
360
35B
  0
DICTIONARY
  5
35C
330
346
100
AcDbDictionary
280
     1
281
     1
  3
ADSK_XREC_LAYER_RECONCILED
360
35D
  0
DICTIONARY
  5
35E
330
347
100
AcDbDictionary
280
     1
281
     1
  3
ADSK_XREC_LAYER_RECONCILED
360
35F
  0
DICTIONARY
  5
360
330
348
100
AcDbDictionary
280
     1
281
     1
  3
ADSK_XREC_LAYER_RECONCILED
360
361
  0
DICTIONARY
  5
302
330
1F
100
AcDbDictionary
280
     1
281
     1
  3
ACAD_SORTENTS
360
303
  0
XRECORD
  5
301
102
{ACAD_REACTORS
330
C
102
}
330
C
100
AcDbXrecord
280
     1
300
ACD
300
2019
300
87084ACD_2019_0F
  0
DICTIONARY
  5
2FC
102
{ACAD_REACTORS
330
C
102
}
330
C
100
AcDbDictionary
281
     1
  0
DICTIONARY
  5
2F8
102
{ACAD_REACTORS
330
C
102
}
330
C
100
AcDbDictionary
281
     1
  3
Metric50
350
2FE
  0
DICTIONARY
  5
D
102
{ACAD_REACTORS
330
C
102
}
330
C
100
AcDbDictionary
281
     1
  3
NULOVY_BOD
350
349
  0
DICTIONARY
  5
1A
102
{ACAD_REACTORS
330
C
102
}
330
C
100
AcDbDictionary
281
     1
  3
Layout1
350
1E
  3
Layout2
350
26
  3
Model
350
22
  0
DICTIONARY
  5
43
102
{ACAD_REACTORS
330
C
102
}
330
C
100
AcDbDictionary
281
     1
  3
ByBlock
350
45
  3
ByLayer
350
44
  3
Global
350
46
  0
DICTIONARY
  5
6B
102
{ACAD_REACTORS
330
C
102
}
330
C
100
AcDbDictionary
281
     1
  3
Standard
350
6C
  0
DICTIONARY
  5
17
102
{ACAD_REACTORS
330
C
102
}
330
C
100
AcDbDictionary
281
     1
  3
Standard
350
18
  0
DICTIONARY
  5
19
102
{ACAD_REACTORS
330
C
102
}
330
C
100
AcDbDictionary
281
     1
  0
ACDBDICTIONARYWDFLT
  5
E
102
{ACAD_REACTORS
330
C
102
}
330
C
100
AcDbDictionary
281
     1
  3
Normal
350
F
100
AcDbDictionaryWithDefault
340
F
  0
DICTIONARY
  5
47
102
{ACAD_REACTORS
330
C
102
}
330
C
100
AcDbDictionary
281
     1
  3
A0
350
48
  3
A1
350
49
  3
A2
350
4A
  3
A3
350
4B
  3
A4
350
4C
  3
A5
350
4D
  3
A6
350
4E
  3
A7
350
4F
  3
A8
350
50
  3
A9
350
51
  3
B0
350
52
  3
B1
350
53
  3
B2
350
54
  3
B3
350
55
  3
B4
350
56
  3
B5
350
57
  3
B6
350
58
  3
B7
350
59
  3
B8
350
5A
  3
B9
350
5B
  3
C0
350
5C
  3
C1
350
5D
  3
C2
350
5E
  3
C3
350
5F
  3
C4
350
60
  3
C5
350
61
  3
C6
350
62
  3
C7
350
63
  3
C8
350
64
  3
C9
350
65
  3
D0
350
66
  3
D1
350
67
  3
D2
350
68
  0
DICTIONARY
  5
2F9
102
{ACAD_REACTORS
330
C
102
}
330
C
100
AcDbDictionary
281
     1
  3
Metric50
350
2FD
  0
DICTIONARY
  5
69
102
{ACAD_REACTORS
330
C
102
}
330
C
100
AcDbDictionary
281
     1
  3
Standard
350
6A
  0
DICTIONARY
  5
2A
102
{ACAD_REACTORS
330
C
102
}
330
C
100
AcDbDictionary
281
     1
  3
2dWireframe
350
2F
  3
Basic
350
32
  3
Brighten
350
36
  3
ColorChange
350
3A
  3
Conceptual
350
34
  3
Dim
350
35
  3
EdgeColorOff
350
3D
  3
Facepattern
350
39
  3
Flat
350
2B
  3
FlatWithEdges
350
2C
  3
Gouraud
350
2D
  3
GouraudWithEdges
350
2E
  3
Hidden
350
31
  3
JitterOff
350
3B
  3
Linepattern
350
38
  3
OverhangOff
350
3C
  3
Realistic
350
33
  3
Shaded
350
42
  3
Shaded with edges
350
41
  3
Shades of Gray
350
3E
  3
Sketchy
350
3F
  3
Thicken
350
37
  3
Wireframe
350
30
  3
X-Ray
350
40
  0
XRECORD
  5
367
102
{ACAD_REACTORS
330
C
102
}
330
C
100
AcDbXrecord
280
     1
 90
        1
330
6A
  0
DICTIONARY
  5
2B5
102
{ACAD_REACTORS
330
C
102
}
330
C
100
AcDbDictionary
281
     1
  3
CANNOSCALE
350
2B6
  3
CMLEADERSTYLE
350
2F7
  3
CTABLESTYLE
350
2F6
  3
CVIEWDETAILSTYLE
350
362
  3
CVIEWSECTIONSTYLE
350
363
  3
MSLTSCALE
350
2B7
  3
XCLIPFRAME
350
364
  0
XRECORD
  5
34B
102
{ACAD_REACTORS
330
34A
102
}
330
34A
100
AcDbXrecord
280
     1
290
     1
  0
XRECORD
  5
34D
102
{ACAD_REACTORS
330
34C
102
}
330
34C
100
AcDbXrecord
280
     1
290
     1
  0
XRECORD
  5
34F
102
{ACAD_REACTORS
330
34E
102
}
330
34E
100
AcDbXrecord
280
     1
290
     1
  0
XRECORD
  5
351
102
{ACAD_REACTORS
330
350
102
}
330
350
100
AcDbXrecord
280
     1
290
     1
  0
XRECORD
  5
353
102
{ACAD_REACTORS
330
352
102
}
330
352
100
AcDbXrecord
280
     1
290
     1
  0
XRECORD
  5
355
102
{ACAD_REACTORS
330
354
102
}
330
354
100
AcDbXrecord
280
     1
290
     1
  0
XRECORD
  5
357
102
{ACAD_REACTORS
330
356
102
}
330
356
100
AcDbXrecord
280
     1
290
     1
  0
XRECORD
  5
359
102
{ACAD_REACTORS
330
358
102
}
330
358
100
AcDbXrecord
280
     1
290
     1
  0
XRECORD
  5
35B
102
{ACAD_REACTORS
330
35A
102
}
330
35A
100
AcDbXrecord
280
     1
290
     1
  0
XRECORD
  5
35D
102
{ACAD_REACTORS
330
35C
102
}
330
35C
100
AcDbXrecord
280
     1
290
     1
  0
XRECORD
  5
35F
102
{ACAD_REACTORS
330
35E
102
}
330
35E
100
AcDbXrecord
280
     1
290
     1
  0
XRECORD
  5
361
102
{ACAD_REACTORS
330
360
102
}
330
360
100
AcDbXrecord
280
     1
290
     1
  0
SORTENTSTABLE
  5
303
102
{ACAD_REACTORS
330
302
102
}
330
302
100
AcDbSortentsTable
330
1F
331
304
  5
26F
331
305
  5
288
331
306
  5
304
331
307
  5
305
331
308
  5
306
331
309
  5
307
331
30A
  5
308
331
30B
  5
309
331
30C
  5
30A
331
30D
  5
30B
331
30E
  5
30C
331
30F
  5
30D
331
310
  5
30E
331
311
  5
30F
331
312
  5
310
331
313
  5
311
331
314
  5
312
331
315
  5
313
331
316
  5
314
331
317
  5
315
331
318
  5
316
331
319
  5
317
331
31A
  5
318
331
31B
  5
319
331
31C
  5
31A
331
31D
  5
31B
331
31E
  5
31C
331
31F
  5
31D
331
320
  5
31E
331
333
  5
336
331
335
  5
339
331
336
  5
33A
331
337
  5
33B
331
338
  5
333
331
339
  5
335
331
33A
  5
337
331
33B
  5
338
  0
ACDBDETAILVIEWSTYLE
  5
2FE
102
{ACAD_XDICTIONARY
360
39B
102
}
102
{ACAD_REACTORS
330
2F8
102
}
330
2F8
100
AcDbModelDocViewStyle
 70
     0
  3
Metric50
290
     0
100
AcDbDetailViewStyle
 70
     0
 71
     0
 90
        3
 71
     1
340
11
 62
   256
 40
5.0
340
0
 62
   256
 40
5.0
300

 40
0.0
280
     1
 71
     2
340
16
 90
       25
 62
   256
 71
     3
340
11
 62
   256
 40
5.0
 90
        0
 40
15.0
 90
        1
300
%<\AcVar ViewDetailId>% (%<\AcVar ViewScale \f "%sn">%)
 71
     4
340
16
 90
       25
 62
   256
340
16
 90
       25
 62
   256
280
     0
  0
GROUP
  5
349
102
{ACAD_REACTORS
330
D
102
}
330
D
100
AcDbGroup
300

 70
     0
 71
     1
340
73
  0
LAYOUT
  5
1E
102
{ACAD_REACTORS
330
1A
102
}
330
1A
100
AcDbPlotSettings
  1

  2
none_device
  4

  6

 40
0.0
 41
0.0
 42
0.0
 43
0.0
 44
0.0
 45
0.0
 46
0.0
 47
0.0
 48
0.0
 49
0.0
140
0.0
141
0.0
142
1.0
143
1.0
 70
   688
 72
     0
 73
     0
 74
     5
  7

 75
    16
147
1.0
 76
     0
 77
     2
 78
   300
148
0.0
149
0.0
100
AcDbLayout
  1
Layout1
 70
     1
 71
     1
 10
-0.5
 20
-0.5
 11
5.0
 21
5.0
 12
0.0
 22
0.0
 32
0.0
 14
-0.5
 24
-0.5
 34
-0.5
 15
5.0
 25
5.0
 35
5.0
146
0.0
 13
0.0
 23
0.0
 33
0.0
 16
1.0
 26
0.0
 36
0.0
 17
0.0
 27
1.0
 37
0.0
 76
     0
330
1B
  0
LAYOUT
  5
26
102
{ACAD_REACTORS
330
1A
102
}
330
1A
100
AcDbPlotSettings
  1

  2
none_device
  4

  6

 40
0.0
 41
0.0
 42
0.0
 43
0.0
 44
0.0
 45
0.0
 46
0.0
 47
0.0
 48
0.0
 49
0.0
140
0.0
141
0.0
142
1.0
143
1.0
 70
   688
 72
     0
 73
     0
 74
     5
  7

 75
    16
147
1.0
 76
     0
 77
     2
 78
   300
148
0.0
149
0.0
100
AcDbLayout
  1
Layout2
 70
     1
 71
     2
 10
0.0
 20
0.0
 11
0.0
 21
0.0
 12
0.0
 22
0.0
 32
0.0
 14
0.0
 24
0.0
 34
0.0
 15
0.0
 25
0.0
 35
0.0
146
0.0
 13
0.0
 23
0.0
 33
0.0
 16
1.0
 26
0.0
 36
0.0
 17
0.0
 27
1.0
 37
0.0
 76
     0
330
23
  0
LAYOUT
  5
22
102
{ACAD_REACTORS
330
1A
102
}
330
1A
100
AcDbPlotSettings
  1

  2
none_device
  4
Letter_(8.50_x_11.00_Inches)
  6

 40
6.349999999999999
 41
6.349999999999999
 42
6.350005
 43
6.350005
 44
215.9
 45
279.4
 46
0.0
 47
0.0
 48
0.0
 49
0.0
140
0.0
141
0.0
142
1.0
143
1.0
 70
  1712
 72
     0
 73
     0
 74
     0
  7

 75
     0
147
1.0
 76
     0
 77
     2
 78
   300
148
0.0
149
0.0
100
AcDbLayout
  1
Model
 70
     1
 71
     0
 10
-0.5
 20
-0.5
 11
5.0
 21
5.0
 12
0.0
 22
0.0
 32
0.0
 14
-0.5
 24
-0.5
 34
-0.5
 15
5.0
 25
5.0
 35
5.0
146
0.0
 13
0.0
 23
0.0
 33
0.0
 16
1.0
 26
0.0
 36
0.0
 17
0.0
 27
1.0
 37
0.0
 76
     0
330
1F
331
29
  0
MATERIAL
  5
45
102
{ACAD_XDICTIONARY
360
2EB
102
}
102
{ACAD_REACTORS
330
43
102
}
330
43
100
AcDbMaterial
  1
ByBlock
  0
MATERIAL
  5
44
102
{ACAD_XDICTIONARY
360
2E9
102
}
102
{ACAD_REACTORS
330
43
102
}
330
43
100
AcDbMaterial
  1
ByLayer
  0
MATERIAL
  5
46
102
{ACAD_XDICTIONARY
360
2ED
102
}
102
{ACAD_REACTORS
330
43
102
}
330
43
100
AcDbMaterial
  1
Global
  0
MLEADERSTYLE
  5
6C
102
{ACAD_REACTORS
330
6B
102
}
330
6B
100
AcDbMLeaderStyle
170
     2
171
     1
172
     0
 90
        2
 40
0.0
 41
0.0
173
     1
 91
-1056964608
340
14
 92
       -2
290
     1
 42
0.09
291
     1
 43
0.36
  3
Standard
 44
0.18
300

342
11
174
     1
178
     6
175
     1
176
     0
 93
-1056964608
 45
0.18
292
     0
297
     0
 46
0.18
 94
-1056964608
 47
1.0
 49
1.0
140
1.0
293
     1
141
0.0
294
     1
177
     0
142
1.0
295
     0
296
     0
143
0.125
1001
ACAD_MLEADERVER
1070
     2
  0
MLINESTYLE
  5
18
102
{ACAD_REACTORS
330
17
102
}
330
17
100
AcDbMlineStyle
  2
STANDARD
 70
     0
  3

 62
   256
 51
90.0
 52
90.0
 71
     2
 49
0.5
 62
   256
  6
BYLAYER
 49
-0.5
 62
   256
  6
BYLAYER
  0
ACDBPLACEHOLDER
  5
F
102
{ACAD_REACTORS
330
E
102
}
330
E
  0
SCALE
  5
48
102
{ACAD_REACTORS
330
47
102
}
330
47
100
AcDbScale
 70
     0
300
1:1
140
1.0
141
1.0
290
     1
  0
SCALE
  5
49
102
{ACAD_REACTORS
330
47
102
}
330
47
100
AcDbScale
 70
     0
300
1:2
140
1.0
141
2.0
290
     0
  0
SCALE
  5
4A
102
{ACAD_REACTORS
330
47
102
}
330
47
100
AcDbScale
 70
     0
300
1:4
140
1.0
141
4.0
290
     0
  0
SCALE
  5
4B
102
{ACAD_REACTORS
330
47
102
}
330
47
100
AcDbScale
 70
     0
300
1:5
140
1.0
141
5.0
290
     0
  0
SCALE
  5
4C
102
{ACAD_REACTORS
330
47
102
}
330
47
100
AcDbScale
 70
     0
300
1:8
140
1.0
141
8.0
290
     0
  0
SCALE
  5
4D
102
{ACAD_REACTORS
330
47
102
}
330
47
100
AcDbScale
 70
     0
300
1:10
140
1.0
141
10.0
290
     0
  0
SCALE
  5
4E
102
{ACAD_REACTORS
330
47
102
}
330
47
100
AcDbScale
 70
     0
300
1:16
140
1.0
141
16.0
290
     0
  0
SCALE
  5
4F
102
{ACAD_REACTORS
330
47
102
}
330
47
100
AcDbScale
 70
     0
300
1:20
140
1.0
141
20.0
290
     0
  0
SCALE
  5
50
102
{ACAD_REACTORS
330
47
102
}
330
47
100
AcDbScale
 70
     0
300
1:30
140
1.0
141
30.0
290
     0
  0
SCALE
  5
51
102
{ACAD_REACTORS
330
47
102
}
330
47
100
AcDbScale
 70
     0
300
1:40
140
1.0
141
40.0
290
     0
  0
SCALE
  5
52
102
{ACAD_REACTORS
330
47
102
}
330
47
100
AcDbScale
 70
     0
300
1:50
140
1.0
141
50.0
290
     0
  0
SCALE
  5
53
102
{ACAD_REACTORS
330
47
102
}
330
47
100
AcDbScale
 70
     0
300
1:100
140
1.0
141
100.0
290
     0
  0
SCALE
  5
54
102
{ACAD_REACTORS
330
47
102
}
330
47
100
AcDbScale
 70
     0
300
2:1
140
2.0
141
1.0
290
     0
  0
SCALE
  5
55
102
{ACAD_REACTORS
330
47
102
}
330
47
100
AcDbScale
 70
     0
300
4:1
140
4.0
141
1.0
290
     0
  0
SCALE
  5
56
102
{ACAD_REACTORS
330
47
102
}
330
47
100
AcDbScale
 70
     0
300
8:1
140
8.0
141
1.0
290
     0
  0
SCALE
  5
57
102
{ACAD_REACTORS
330
47
102
}
330
47
100
AcDbScale
 70
     0
300
10:1
140
10.0
141
1.0
290
     0
  0
SCALE
  5
58
102
{ACAD_REACTORS
330
47
102
}
330
47
100
AcDbScale
 70
     0
300
100:1
140
100.0
141
1.0
290
     0
  0
SCALE
  5
59
102
{ACAD_REACTORS
330
47
102
}
330
47
100
AcDbScale
 70
     0
300
1/128" = 1'-0"
140
0.007812
141
12.0
290
     0
  0
SCALE
  5
5A
102
{ACAD_REACTORS
330
47
102
}
330
47
100
AcDbScale
 70
     0
300
1/64" = 1'-0"
140
0.015625
141
12.0
290
     0
  0
SCALE
  5
5B
102
{ACAD_REACTORS
330
47
102
}
330
47
100
AcDbScale
 70
     0
300
1/32" = 1'-0"
140
0.03125
141
12.0
290
     0
  0
SCALE
  5
5C
102
{ACAD_REACTORS
330
47
102
}
330
47
100
AcDbScale
 70
     0
300
1/16" = 1'-0"
140
0.0625
141
12.0
290
     0
  0
SCALE
  5
5D
102
{ACAD_REACTORS
330
47
102
}
330
47
100
AcDbScale
 70
     0
300
3/32" = 1'-0"
140
0.09375
141
12.0
290
     0
  0
SCALE
  5
5E
102
{ACAD_REACTORS
330
47
102
}
330
47
100
AcDbScale
 70
     0
300
1/8" = 1'-0"
140
0.125
141
12.0
290
     0
  0
SCALE
  5
5F
102
{ACAD_REACTORS
330
47
102
}
330
47
100
AcDbScale
 70
     0
300
3/16" = 1'-0"
140
0.1875
141
12.0
290
     0
  0
SCALE
  5
60
102
{ACAD_REACTORS
330
47
102
}
330
47
100
AcDbScale
 70
     0
300
1/4" = 1'-0"
140
0.25
141
12.0
290
     0
  0
SCALE
  5
61
102
{ACAD_REACTORS
330
47
102
}
330
47
100
AcDbScale
 70
     0
300
3/8" = 1'-0"
140
0.375
141
12.0
290
     0
  0
SCALE
  5
62
102
{ACAD_REACTORS
330
47
102
}
330
47
100
AcDbScale
 70
     0
300
1/2" = 1'-0"
140
0.5
141
12.0
290
     0
  0
SCALE
  5
63
102
{ACAD_REACTORS
330
47
102
}
330
47
100
AcDbScale
 70
     0
300
3/4" = 1'-0"
140
0.75
141
12.0
290
     0
  0
SCALE
  5
64
102
{ACAD_REACTORS
330
47
102
}
330
47
100
AcDbScale
 70
     0
300
1" = 1'-0"
140
1.0
141
12.0
290
     0
  0
SCALE
  5
65
102
{ACAD_REACTORS
330
47
102
}
330
47
100
AcDbScale
 70
     0
300
1-1/2" = 1'-0"
140
1.5
141
12.0
290
     0
  0
SCALE
  5
66
102
{ACAD_REACTORS
330
47
102
}
330
47
100
AcDbScale
 70
     0
300
3" = 1'-0"
140
3.0
141
12.0
290
     0
  0
SCALE
  5
67
102
{ACAD_REACTORS
330
47
102
}
330
47
100
AcDbScale
 70
     0
300
6" = 1'-0"
140
6.0
141
12.0
290
     0
  0
SCALE
  5
68
102
{ACAD_REACTORS
330
47
102
}
330
47
100
AcDbScale
 70
     0
300
1'-0" = 1'-0"
140
12.0
141
12.0
290
     0
  0
ACDBSECTIONVIEWSTYLE
  5
2FD
102
{ACAD_XDICTIONARY
360
399
102
}
102
{ACAD_REACTORS
330
2F9
102
}
330
2F9
100
AcDbModelDocViewStyle
 70
     0
  3
Metric50
290
     0
100
AcDbSectionViewStyle
 70
     0
 71
     0
 90
      102
 71
     1
340
11
 62
   256
 40
5.0
340
0
340
0
 62
   256
 40
5.0
300
I, O, Q, S, X, Z
 40
10.0
 90
        0
 40
2.5
 90
        0
 71
     2
340
16
 90
       25
 62
   256
340
16
 90
       50
 62
   256
 40
5.0
 40
2.5
 40
5.0
 71
     3
340
11
 62
   256
 40
5.0
 90
        0
 40
15.0
 90
        1
300
%<\AcVar ViewSectionStartId>%-%<\AcVar ViewSectionEndId>% (%<\AcVar ViewScale \f "%sn">%)
 71
     4
 62
   256
 62
   257
300
ANSI31
 40
1.0
 90
        0
290
     0
290
     0
 90
        6
 40
0.0
 40
1.570796326794896
 40
0.2617993877991494
 40
1.308996938995747
 40
-0.2617993877991494
 40
1.832595714594046
  0
TABLESTYLE
  5
6A
102
{ACAD_XDICTIONARY
360
2EF
102
}
102
{ACAD_REACTORS
330
69
102
}
330
69
100
AcDbTableStyle
  3
Standard
 70
     0
 71
     0
 40
0.06
 41
0.06
280
     0
281
     0
  7
Standard
140
0.18
170
     2
 62
     0
 63
     7
283
     0
274
    -2
284
     1
 64
     0
275
    -2
285
     1
 65
     0
276
    -2
286
     1
 66
     0
277
    -2
287
     1
 67
     0
278
    -2
288
     1
 68
     0
279
    -2
289
     1
 69
     0
  7
Standard
140
0.25
170
     5
 62
     0
 63
     7
283
     0
274
    -2
284
     1
 64
     0
275
    -2
285
     1
 65
     0
276
    -2
286
     1
 66
     0
277
    -2
287
     1
 67
     0
278
    -2
288
     1
 68
     0
279
    -2
289
     1
 69
     0
  7
Standard
140
0.18
170
     5
 62
     0
 63
     7
283
     0
274
    -2
284
     1
 64
     0
275
    -2
285
     1
 65
     0
276
    -2
286
     1
 66
     0
277
    -2
287
     1
 67
     0
278
    -2
288
     1
 68
     0
279
    -2
289
     1
 69
     0
  0
VISUALSTYLE
  5
2F
102
{ACAD_XDICTIONARY
360
370
102
}
102
{ACAD_REACTORS
330
2A
102
}
330
2A
100
AcDbVisualStyle
  2

 70
     4
 71
     0
 72
     2
 73
     0
 90
        0
 40
-0.6
 41
-30.0
 62
     5
 63
     7
421
 16777215
 74
     1
 91
        4
 64
     7
 65
   257
 75
     1
175
     1
 42
1.0
 92
        0
 66
   257
 43
1.0
 76
     1
 77
     6
 78
     2
 67
     7
 79
     5
170
     0
171
     0
290
     0
174
     0
 93
        1
 44
0.0
173
     0
291
     0
 45
0.0
1001
ACAD
1000
AcDbSavedByObjectVersion
1070
     0
  0
VISUALSTYLE
  5
32
102
{ACAD_XDICTIONARY
360
376
102
}
102
{ACAD_REACTORS
330
2A
102
}
330
2A
100
AcDbVisualStyle
  2

 70
     7
 71
     1
 72
     0
 73
     1
 90
        0
 40
-0.6
 41
-30.0
 62
     5
 63
     7
421
 16777215
 74
     0
 91
        4
 64
     7
 65
   257
 75
     1
175
     1
 42
1.0
 92
        8
 66
     7
 43
1.0
 76
     1
 77
     6
 78
     2
 67
     7
 79
     5
170
     0
171
     0
290
     0
174
     0
 93
        1
 44
0.0
173
     0
291
     1
 45
0.0
1001
ACAD
1000
AcDbSavedByObjectVersion
1070
     0
  0
VISUALSTYLE
  5
36
102
{ACAD_XDICTIONARY
360
37E
102
}
102
{ACAD_REACTORS
330
2A
102
}
330
2A
100
AcDbVisualStyle
  2

 70
    12
 71
     2
 72
     2
 73
     0
 90
        0
 40
-0.6
 41
-30.0
 62
     5
 63
     7
421
 16777215
 74
     1
 91
        4
 64
     7
 65
   257
 75
     1
175
     1
 42
1.0
 92
        8
 66
     7
 43
1.0
 76
     1
 77
     6
 78
     2
 67
     7
 79
     5
170
     0
171
     0
290
     0
174
     0
 93
        1
 44
50.0
173
     0
291
     1
 45
0.0
1001
ACAD
1000
AcDbSavedByObjectVersion
1070
     0
  0
VISUALSTYLE
  5
3A
102
{ACAD_XDICTIONARY
360
386
102
}
102
{ACAD_REACTORS
330
2A
102
}
330
2A
100
AcDbVisualStyle
  2

 70
    16
 71
     2
 72
     2
 73
     3
 90
        0
 40
-0.6
 41
-30.0
 62
     5
 63
     8
421
  8421504
 74
     1
 91
        4
 64
     7
 65
   257
 75
     1
175
     1
 42
1.0
 92
        8
 66
     8
424
  8421504
 43
1.0
 76
     1
 77
     6
 78
     2
 67
     7
 79
     5
170
     0
171
     0
290
     0
174
     0
 93
        1
 44
0.0
173
     0
291
     1
 45
0.0
1001
ACAD
1000
AcDbSavedByObjectVersion
1070
     0
  0
VISUALSTYLE
  5
34
102
{ACAD_XDICTIONARY
360
37A
102
}
102
{ACAD_REACTORS
330
2A
102
}
330
2A
100
AcDbVisualStyle
  2

 70
     9
 71
     3
 72
     2
 73
     0
 90
        0
 40
-0.6
 41
-30.0
 62
     5
 63
     7
421
 16777215
 74
     2
 91
        2
 64
     7
 65
   257
 75
     1
175
     1
 42
179.0
 92
        8
 66
     7
 43
1.0
 76
     1
 77
     6
 78
     2
 67
     7
 79
     3
170
     0
171
     0
290
     0
174
     0
 93
        1
 44
0.0
173
     0
291
     0
 45
0.0
1001
ACAD
1000
AcDbSavedByObjectVersion
1070
     0
  0
VISUALSTYLE
  5
35
102
{ACAD_XDICTIONARY
360
37C
102
}
102
{ACAD_REACTORS
330
2A
102
}
330
2A
100
AcDbVisualStyle
  2

 70
    11
 71
     2
 72
     2
 73
     0
 90
        0
 40
-0.6
 41
-30.0
 62
     5
 63
     7
421
 16777215
 74
     1
 91
        4
 64
     7
 65
   257
 75
     1
175
     1
 42
1.0
 92
        8
 66
     7
 43
1.0
 76
     1
 77
     6
 78
     2
 67
     7
 79
     5
170
     0
171
     0
290
     0
174
     0
 93
        1
 44
-50.0
173
     0
291
     1
 45
0.0
1001
ACAD
1000
AcDbSavedByObjectVersion
1070
     0
  0
VISUALSTYLE
  5
3D
102
{ACAD_XDICTIONARY
360
38C
102
}
102
{ACAD_REACTORS
330
2A
102
}
330
2A
100
AcDbVisualStyle
  2

 70
    22
 71
     2
 72
     2
 73
     0
 90
        0
 40
-0.6
 41
-30.0
 62
     5
 63
     7
421
 16777215
 74
     1
 91
        4
 64
     7
 65
   257
 75
     1
175
     1
 42
1.0
 92
        8
 66
     7
 43
1.0
 76
     1
 77
     6
 78
     2
 67
     7
 79
     5
170
     0
171
     0
290
     0
174
     0
 93
        1
 44
0.0
173
     0
291
     1
 45
0.0
1001
ACAD
1000
AcDbSavedByObjectVersion
1070
     0
  0
VISUALSTYLE
  5
39
102
{ACAD_XDICTIONARY
360
384
102
}
102
{ACAD_REACTORS
330
2A
102
}
330
2A
100
AcDbVisualStyle
  2

 70
    15
 71
     2
 72
     2
 73
     0
 90
        0
 40
-0.6
 41
-30.0
 62
     5
 63
     7
421
 16777215
 74
     1
 91
        4
 64
     7
 65
   257
 75
     1
175
     1
 42
1.0
 92
        8
 66
     7
 43
1.0
 76
     1
 77
     6
 78
     2
 67
     7
 79
     5
170
     0
171
     0
290
     0
174
     0
 93
        1
 44
0.0
173
     0
291
     1
 45
0.0
1001
ACAD
1000
AcDbSavedByObjectVersion
1070
     0
  0
VISUALSTYLE
  5
2B
102
{ACAD_XDICTIONARY
360
368
102
}
102
{ACAD_REACTORS
330
2A
102
}
330
2A
100
AcDbVisualStyle
  2

 70
     0
 71
     2
 72
     1
 73
     1
 90
        2
 40
-0.6
 41
30.0
 62
     5
 63
     7
421
 16777215
 74
     0
 91
        0
 64
     7
 65
   257
 75
     1
175
     1
 42
1.0
 92
        8
 66
     7
 43
1.0
 76
     1
 77
     6
 78
     2
 67
     7
 79
     5
170
     0
171
     0
290
     0
174
     0
 93
       13
 44
0.0
173
     0
291
     1
 45
0.0
1001
ACAD
1000
AcDbSavedByObjectVersion
1070
     0
  0
VISUALSTYLE
  5
2C
102
{ACAD_XDICTIONARY
360
36A
102
}
102
{ACAD_REACTORS
330
2A
102
}
330
2A
100
AcDbVisualStyle
  2

 70
     1
 71
     2
 72
     1
 73
     1
 90
        2
 40
-0.6
 41
30.0
 62
     5
 63
     7
421
 16777215
 74
     1
 91
        0
 64
     7
 65
   257
 75
     1
175
     1
 42
1.0
 92
        0
 66
   257
 43
1.0
 76
     1
 77
     6
 78
     2
 67
     7
 79
     5
170
     0
171
     0
290
     0
174
     0
 93
       13
 44
0.0
173
     0
291
     1
 45
0.0
1001
ACAD
1000
AcDbSavedByObjectVersion
1070
     0
  0
VISUALSTYLE
  5
2D
102
{ACAD_XDICTIONARY
360
36C
102
}
102
{ACAD_REACTORS
330
2A
102
}
330
2A
100
AcDbVisualStyle
  2

 70
     2
 71
     2
 72
     2
 73
     1
 90
        2
 40
-0.6
 41
30.0
 62
     5
 63
     7
421
 16777215
 74
     0
 91
        0
 64
     7
 65
   257
 75
     1
175
     1
 42
1.0
 92
        0
 66
     7
 43
1.0
 76
     1
 77
     6
 78
     2
 67
     7
 79
     5
170
     0
171
     0
290
     0
174
     0
 93
       13
 44
0.0
173
     0
291
     1
 45
0.0
1001
ACAD
1000
AcDbSavedByObjectVersion
1070
     0
  0
VISUALSTYLE
  5
2E
102
{ACAD_XDICTIONARY
360
36E
102
}
102
{ACAD_REACTORS
330
2A
102
}
330
2A
100
AcDbVisualStyle
  2

 70
     3
 71
     2
 72
     2
 73
     1
 90
        2
 40
-0.6
 41
30.0
 62
     5
 63
     7
421
 16777215
 74
     1
 91
        0
 64
     7
 65
   257
 75
     1
175
     1
 42
1.0
 92
        0
 66
   257
 43
1.0
 76
     1
 77
     6
 78
     2
 67
     7
 79
     5
170
     0
171
     0
290
     0
174
     0
 93
       13
 44
0.0
173
     0
291
     1
 45
0.0
1001
ACAD
1000
AcDbSavedByObjectVersion
1070
     0
  0
VISUALSTYLE
  5
31
102
{ACAD_XDICTIONARY
360
374
102
}
102
{ACAD_REACTORS
330
2A
102
}
330
2A
100
AcDbVisualStyle
  2

 70
     6
 71
     1
 72
     2
 73
     2
 90
        0
 40
-0.6
 41
-30.0
 62
     5
 63
     7
421
 16777215
 74
     2
 91
        2
 64
     7
 65
   257
 75
     2
175
     1
 42
40.0
 92
        0
 66
   257
 43
1.0
 76
     1
 77
     6
 78
     2
 67
     7
 79
     3
170
     0
171
     0
290
     0
174
     0
 93
        1
 44
0.0
173
     0
291
     0
 45
0.0
1001
ACAD
1000
AcDbSavedByObjectVersion
1070
     0
  0
VISUALSTYLE
  5
3B
102
{ACAD_XDICTIONARY
360
388
102
}
102
{ACAD_REACTORS
330
2A
102
}
330
2A
100
AcDbVisualStyle
  2

 70
    20
 71
     2
 72
     2
 73
     0
 90
        0
 40
-0.6
 41
-30.0
 62
     5
 63
     7
421
 16777215
 74
     1
 91
        4
 64
     7
 65
   257
 75
     1
175
     1
 42
1.0
 92
       10
 66
     7
 43
1.0
 76
     1
 77
     6
 78
     2
 67
     7
 79
     5
170
     0
171
     0
290
     0
174
     0
 93
        1
 44
0.0
173
     0
291
     1
 45
0.0
1001
ACAD
1000
AcDbSavedByObjectVersion
1070
     0
  0
VISUALSTYLE
  5
38
102
{ACAD_XDICTIONARY
360
382
102
}
102
{ACAD_REACTORS
330
2A
102
}
330
2A
100
AcDbVisualStyle
  2

 70
    14
 71
     2
 72
     2
 73
     0
 90
        0
 40
-0.6
 41
-30.0
 62
     5
 63
     7
421
 16777215
 74
     1
 91
        4
 64
     7
 65
   257
 75
     7
175
     7
 42
1.0
 92
        8
 66
     7
 43
1.0
 76
     1
 77
     6
 78
     2
 67
     7
 79
     5
170
     0
171
     0
290
     0
174
     0
 93
        1
 44
0.0
173
     0
291
     1
 45
0.0
1001
ACAD
1000
AcDbSavedByObjectVersion
1070
     0
  0
VISUALSTYLE
  5
3C
102
{ACAD_XDICTIONARY
360
38A
102
}
102
{ACAD_REACTORS
330
2A
102
}
330
2A
100
AcDbVisualStyle
  2

 70
    21
 71
     2
 72
     2
 73
     0
 90
        0
 40
-0.6
 41
-30.0
 62
     5
 63
     7
421
 16777215
 74
     1
 91
        4
 64
     7
 65
   257
 75
     1
175
     1
 42
1.0
 92
        9
 66
     7
 43
1.0
 76
     1
 77
     6
 78
     2
 67
     7
 79
     5
170
     0
171
     0
290
     0
174
     0
 93
        1
 44
0.0
173
     0
291
     1
 45
0.0
1001
ACAD
1000
AcDbSavedByObjectVersion
1070
     0
  0
VISUALSTYLE
  5
33
102
{ACAD_XDICTIONARY
360
378
102
}
102
{ACAD_REACTORS
330
2A
102
}
330
2A
100
AcDbVisualStyle
  2

 70
     8
 71
     2
 72
     3
 73
     0
 90
        2
 40
-0.6
 41
30.0
 62
     5
 63
     7
421
 16777215
 74
     0
 91
        0
 64
     7
 65
   257
 75
     1
175
     1
 42
1.0
 92
        8
 66
   257
 43
1.0
 76
     1
 77
     6
 78
     2
 67
     7
 79
     3
170
     0
171
     0
290
     0
174
     0
 93
       13
 44
0.0
173
     0
291
     0
 45
0.0
1001
ACAD
1000
AcDbSavedByObjectVersion
1070
     0
  0
VISUALSTYLE
  5
42
102
{ACAD_XDICTIONARY
360
396
102
}
102
{ACAD_REACTORS
330
2A
102
}
330
2A
100
AcDbVisualStyle
  2

 70
    27
 71
     2
 72
     2
 73
     1
 90
        2
 40
-0.6
 41
30.0
 62
     5
 63
     7
421
 16777215
 74
     0
 91
        4
 64
     7
 65
   257
 75
     1
175
     1
 42
1.0
 92
        8
 66
   257
 43
1.0
 76
     1
 77
     6
 78
     2
 67
     8
425
  7895160
 79
     3
170
     0
171
     0
290
     0
174
     0
 93
        5
 44
0.0
173
     0
291
     0
 45
0.0
1001
ACAD
1000
AcDbSavedByObjectVersion
1070
     0
  0
VISUALSTYLE
  5
41
102
{ACAD_XDICTIONARY
360
394
102
}
102
{ACAD_REACTORS
330
2A
102
}
330
2A
100
AcDbVisualStyle
  2

 70
    26
 71
     2
 72
     2
 73
     1
 90
        2
 40
-0.6
 41
30.0
 62
     5
 63
     7
421
 16777215
 74
     1
 91
       10
 64
     7
 65
   257
 75
     2
175
     1
 42
1.0
 92
        8
 66
   257
 43
1.0
 76
     1
 77
     6
 78
     2
 67
     7
 79
     3
170
     0
171
     0
290
     0
174
     0
 93
        5
 44
0.0
173
     0
291
     0
 45
0.0
1001
ACAD
1000
AcDbSavedByObjectVersion
1070
     0
  0
VISUALSTYLE
  5
3E
102
{ACAD_XDICTIONARY
360
38E
102
}
102
{ACAD_REACTORS
330
2A
102
}
330
2A
100
AcDbVisualStyle
  2

 70
    23
 71
     2
 72
     2
 73
     3
 90
        0
 40
-0.6
 41
-30.0
 62
     5
 63
     7
421
 16777215
 74
     2
 91
        2
 64
     7
 65
     7
 75
     1
175
     1
 42
40.0
 92
        8
 66
     7
 43
1.0
 76
     1
 77
     6
 78
     2
 67
     7
 79
     3
170
     0
171
     0
290
     0
174
     0
 93
        1
 44
0.0
173
     0
291
     0
 45
0.0
1001
ACAD
1000
AcDbSavedByObjectVersion
1070
     0
  0
VISUALSTYLE
  5
3F
102
{ACAD_XDICTIONARY
360
390
102
}
102
{ACAD_REACTORS
330
2A
102
}
330
2A
100
AcDbVisualStyle
  2

 70
    24
 71
     1
 72
     2
 73
     2
 90
        0
 40
-0.6
 41
-30.0
 62
     5
 63
     7
421
 16777215
 74
     2
 91
        2
 64
     7
 65
     7
 75
     1
175
     1
 42
40.0
 92
       11
 66
     7
 43
1.0
 76
     1
 77
     6
 78
     2
 67
     7
 79
     6
170
     0
171
     0
290
     0
174
     0
 93
        1
 44
0.0
173
     0
291
     0
 45
0.0
1001
ACAD
1000
AcDbSavedByObjectVersion
1070
     0
  0
VISUALSTYLE
  5
37
102
{ACAD_XDICTIONARY
360
380
102
}
102
{ACAD_REACTORS
330
2A
102
}
330
2A
100
AcDbVisualStyle
  2

 70
    13
 71
     2
 72
     2
 73
     0
 90
        0
 40
-0.6
 41
-30.0
 62
     5
 63
     7
421
 16777215
 74
     1
 91
        4
 64
     7
 65
   257
 75
     1
175
     1
 42
1.0
 92
       12
 66
     7
 43
1.0
 76
     1
 77
     6
 78
     2
 67
     7
 79
     5
170
     0
171
     0
290
     0
174
     0
 93
        1
 44
0.0
173
     0
291
     1
 45
0.0
1001
ACAD
1000
AcDbSavedByObjectVersion
1070
     0
  0
VISUALSTYLE
  5
30
102
{ACAD_XDICTIONARY
360
372
102
}
102
{ACAD_REACTORS
330
2A
102
}
330
2A
100
AcDbVisualStyle
  2

 70
     5
 71
     0
 72
     2
 73
     0
 90
        0
 40
-0.6
 41
-30.0
 62
     5
 63
     7
421
 16777215
 74
     1
 91
        4
 64
     7
 65
   257
 75
     1
175
     1
 42
1.0
 92
        0
 66
   257
 43
1.0
 76
     1
 77
     6
 78
     2
 67
     7
 79
     3
170
     0
171
     0
290
     0
174
     0
 93
        1
 44
0.0
173
     0
291
     0
 45
0.0
1001
ACAD
1000
AcDbSavedByObjectVersion
1070
     0
  0
VISUALSTYLE
  5
40
102
{ACAD_XDICTIONARY
360
392
102
}
102
{ACAD_REACTORS
330
2A
102
}
330
2A
100
AcDbVisualStyle
  2

 70
    25
 71
     2
 72
     2
 73
     1
 90
        1
 40
0.5
 41
-30.0
 62
     5
 63
     7
421
 16777215
 74
     1
 91
        0
 64
     7
 65
   257
 75
     1
175
     1
 42
1.0
 92
        8
 66
     7
 43
1.0
 76
     1
 77
     6
 78
     2
 67
     7
 79
     3
170
     0
171
     0
290
     0
174
     0
 93
       13
 44
0.0
173
     0
291
     0
 45
0.0
1001
ACAD
1000
AcDbSavedByObjectVersion
1070
     0
  0
DICTIONARYVAR
  5
2B6
102
{ACAD_REACTORS
330
2B5
102
}
330
2B5
100
DictionaryVariables
280
     0
  1
1:1
  0
DICTIONARYVAR
  5
2F7
102
{ACAD_REACTORS
330
2B5
102
}
330
2B5
100
DictionaryVariables
280
     0
  1
STANDARD
  0
DICTIONARYVAR
  5
2F6
102
{ACAD_REACTORS
330
2B5
102
}
330
2B5
100
DictionaryVariables
280
     0
  1
STANDARD
  0
DICTIONARYVAR
  5
362
102
{ACAD_REACTORS
330
2B5
102
}
330
2B5
100
DictionaryVariables
280
     0
  1
Metric50
  0
DICTIONARYVAR
  5
363
102
{ACAD_REACTORS
330
2B5
102
}
330
2B5
100
DictionaryVariables
280
     0
  1
Metric50
  0
DICTIONARYVAR
  5
2B7
102
{ACAD_REACTORS
330
2B5
102
}
330
2B5
100
DictionaryVariables
280
     0
  1
1
  0
DICTIONARYVAR
  5
364
102
{ACAD_REACTORS
330
2B5
102
}
330
2B5
100
DictionaryVariables
280
     0
  1
2
  0
DICTIONARY
  5
39B
330
2FE
100
AcDbDictionary
280
     1
281
     1
  3
ACAD_XREC_ROUNDTRIP
360
39C
  0
DICTIONARY
  5
2EB
330
45
100
AcDbDictionary
280
     1
281
     1
  3
ACAD_XREC_ROUNDTRIP
360
2EC
  0
DICTIONARY
  5
2E9
330
44
100
AcDbDictionary
280
     1
281
     1
  3
ACAD_XREC_ROUNDTRIP
360
2EA
  0
DICTIONARY
  5
2ED
330
46
100
AcDbDictionary
280
     1
281
     1
  3
ACAD_XREC_ROUNDTRIP
360
2EE
  0
DICTIONARY
  5
399
330
2FD
100
AcDbDictionary
280
     1
281
     1
  3
ACAD_XREC_ROUNDTRIP
360
39A
  0
DICTIONARY
  5
2EF
330
6A
100
AcDbDictionary
280
     1
281
     1
  3
ACAD_ROUNDTRIP_2008_TABLESTYLE_CELLSTYLEMAP
360
366
  3
ACAD_XREC_ROUNDTRIP
360
398
  0
DICTIONARY
  5
370
330
2F
100
AcDbDictionary
280
     1
281
     1
  3
ACAD_XREC_ROUNDTRIP
360
371
  0
DICTIONARY
  5
376
330
32
100
AcDbDictionary
280
     1
281
     1
  3
ACAD_XREC_ROUNDTRIP
360
377
  0
DICTIONARY
  5
37E
330
36
100
AcDbDictionary
280
     1
281
     1
  3
ACAD_XREC_ROUNDTRIP
360
37F
  0
DICTIONARY
  5
386
330
3A
100
AcDbDictionary
280
     1
281
     1
  3
ACAD_XREC_ROUNDTRIP
360
387
  0
DICTIONARY
  5
37A
330
34
100
AcDbDictionary
280
     1
281
     1
  3
ACAD_XREC_ROUNDTRIP
360
37B
  0
DICTIONARY
  5
37C
330
35
100
AcDbDictionary
280
     1
281
     1
  3
ACAD_XREC_ROUNDTRIP
360
37D
  0
DICTIONARY
  5
38C
330
3D
100
AcDbDictionary
280
     1
281
     1
  3
ACAD_XREC_ROUNDTRIP
360
38D
  0
DICTIONARY
  5
384
330
39
100
AcDbDictionary
280
     1
281
     1
  3
ACAD_XREC_ROUNDTRIP
360
385
  0
DICTIONARY
  5
368
330
2B
100
AcDbDictionary
280
     1
281
     1
  3
ACAD_XREC_ROUNDTRIP
360
369
  0
DICTIONARY
  5
36A
330
2C
100
AcDbDictionary
280
     1
281
     1
  3
ACAD_XREC_ROUNDTRIP
360
36B
  0
DICTIONARY
  5
36C
330
2D
100
AcDbDictionary
280
     1
281
     1
  3
ACAD_XREC_ROUNDTRIP
360
36D
  0
DICTIONARY
  5
36E
330
2E
100
AcDbDictionary
280
     1
281
     1
  3
ACAD_XREC_ROUNDTRIP
360
36F
  0
DICTIONARY
  5
374
330
31
100
AcDbDictionary
280
     1
281
     1
  3
ACAD_XREC_ROUNDTRIP
360
375
  0
DICTIONARY
  5
388
330
3B
100
AcDbDictionary
280
     1
281
     1
  3
ACAD_XREC_ROUNDTRIP
360
389
  0
DICTIONARY
  5
382
330
38
100
AcDbDictionary
280
     1
281
     1
  3
ACAD_XREC_ROUNDTRIP
360
383
  0
DICTIONARY
  5
38A
330
3C
100
AcDbDictionary
280
     1
281
     1
  3
ACAD_XREC_ROUNDTRIP
360
38B
  0
DICTIONARY
  5
378
330
33
100
AcDbDictionary
280
     1
281
     1
  3
ACAD_XREC_ROUNDTRIP
360
379
  0
DICTIONARY
  5
396
330
42
100
AcDbDictionary
280
     1
281
     1
  3
ACAD_XREC_ROUNDTRIP
360
397
  0
DICTIONARY
  5
394
330
41
100
AcDbDictionary
280
     1
281
     1
  3
ACAD_XREC_ROUNDTRIP
360
395
  0
DICTIONARY
  5
38E
330
3E
100
AcDbDictionary
280
     1
281
     1
  3
ACAD_XREC_ROUNDTRIP
360
38F
  0
DICTIONARY
  5
390
330
3F
100
AcDbDictionary
280
     1
281
     1
  3
ACAD_XREC_ROUNDTRIP
360
391
  0
DICTIONARY
  5
380
330
37
100
AcDbDictionary
280
     1
281
     1
  3
ACAD_XREC_ROUNDTRIP
360
381
  0
DICTIONARY
  5
372
330
30
100
AcDbDictionary
280
     1
281
     1
  3
ACAD_XREC_ROUNDTRIP
360
373
  0
DICTIONARY
  5
392
330
40
100
AcDbDictionary
280
     1
281
     1
  3
ACAD_XREC_ROUNDTRIP
360
393
  0
XRECORD
  5
39C
102
{ACAD_REACTORS
330
39B
102
}
330
39B
100
AcDbXrecord
280
     1
102
DISPLAYNAME
  1
Metric50
102
FLAGS
 90
        0
  0
XRECORD
  5
2EC
102
{ACAD_REACTORS
330
2EB
102
}
330
2EB
100
AcDbXrecord
280
     1
102
MATERIAL
148
0.0
149
0.0
149
0.0
 93
        0
 94
      127
282
     0
 72
     1
 77
     1
171
     1
175
     1
179
     1
273
     0
  0
XRECORD
  5
2EA
102
{ACAD_REACTORS
330
2E9
102
}
330
2E9
100
AcDbXrecord
280
     1
102
MATERIAL
148
0.0
149
0.0
149
0.0
 93
        0
 94
      127
282
     0
 72
     1
 77
     1
171
     1
175
     1
179
     1
273
     0
  0
XRECORD
  5
2EE
102
{ACAD_REACTORS
330
2ED
102
}
330
2ED
100
AcDbXrecord
280
     1
102
MATERIAL
148
0.0
149
0.0
149
0.0
 93
        0
 94
      127
282
     0
 72
     1
 77
     1
171
     1
175
     1
179
     1
273
     0
  0
XRECORD
  5
39A
102
{ACAD_REACTORS
330
399
102
}
330
399
100
AcDbXrecord
280
     1
102
DISPLAYNAME
  1
Metric50
102
FLAGS
 90
        0
  0
CELLSTYLEMAP
  5
366
102
{ACAD_REACTORS
330
2EF
102
}
330
2EF
100
AcDbCellStyleMap
 90
        3
300
CELLSTYLE
  1
TABLEFORMAT_BEGIN
 90
        5
170
     1
 91
        0
 92
    32768
 62
   257
 93
        1
300
CONTENTFORMAT
  1
CONTENTFORMAT_BEGIN
 90
        0
 91
        0
 92
        4
 93
        0
300

 40
0.0
140
1.0
 94
        5
 62
     0
340
11
144
0.25
309
CONTENTFORMAT_END
171
     1
301
MARGIN
  1
CELLMARGIN_BEGIN
 40
0.06
 40
0.06
 40
0.06
 40
0.06
 40
0.18
 40
0.18
309
CELLMARGIN_END
 94
        6
 95
        1
302
GRIDFORMAT
  1
GRIDFORMAT_BEGIN
 90
        0
 91
        1
 62
     0
 92
       -2
340
14
 93
        0
 40
0.045
309
GRIDFORMAT_END
 95
        2
302
GRIDFORMAT
  1
GRIDFORMAT_BEGIN
 90
        0
 91
        1
 62
     0
 92
       -2
340
14
 93
        0
 40
0.045
309
GRIDFORMAT_END
 95
        4
302
GRIDFORMAT
  1
GRIDFORMAT_BEGIN
 90
        0
 91
        1
 62
     0
 92
       -2
340
14
 93
        0
 40
0.045
309
GRIDFORMAT_END
 95
        8
302
GRIDFORMAT
  1
GRIDFORMAT_BEGIN
 90
        0
 91
        1
 62
     0
 92
       -2
340
14
 93
        0
 40
0.045
309
GRIDFORMAT_END
 95
       16
302
GRIDFORMAT
  1
GRIDFORMAT_BEGIN
 90
        0
 91
        1
 62
     0
 92
       -2
340
14
 93
        0
 40
0.045
309
GRIDFORMAT_END
 95
       32
302
GRIDFORMAT
  1
GRIDFORMAT_BEGIN
 90
        0
 91
        1
 62
     0
 92
       -2
340
14
 93
        0
 40
0.045
309
GRIDFORMAT_END
309
TABLEFORMAT_END
  1
CELLSTYLE_BEGIN
 90
        1
 91
        1
300
_TITLE
309
CELLSTYLE_END
300
CELLSTYLE
  1
TABLEFORMAT_BEGIN
 90
        5
170
     1
 91
        0
 92
        0
 62
   257
 93
        1
300
CONTENTFORMAT
  1
CONTENTFORMAT_BEGIN
 90
        0
 91
        0
 92
        4
 93
        0
300

 40
0.0
140
1.0
 94
        5
 62
     0
340
11
144
0.18
309
CONTENTFORMAT_END
171
     1
301
MARGIN
  1
CELLMARGIN_BEGIN
 40
0.06
 40
0.06
 40
0.06
 40
0.06
 40
0.18
 40
0.18
309
CELLMARGIN_END
 94
        6
 95
        1
302
GRIDFORMAT
  1
GRIDFORMAT_BEGIN
 90
        0
 91
        1
 62
     0
 92
       -2
340
14
 93
        0
 40
0.045
309
GRIDFORMAT_END
 95
        2
302
GRIDFORMAT
  1
GRIDFORMAT_BEGIN
 90
        0
 91
        1
 62
     0
 92
       -2
340
14
 93
        0
 40
0.045
309
GRIDFORMAT_END
 95
        4
302
GRIDFORMAT
  1
GRIDFORMAT_BEGIN
 90
        0
 91
        1
 62
     0
 92
       -2
340
14
 93
        0
 40
0.045
309
GRIDFORMAT_END
 95
        8
302
GRIDFORMAT
  1
GRIDFORMAT_BEGIN
 90
        0
 91
        1
 62
     0
 92
       -2
340
14
 93
        0
 40
0.045
309
GRIDFORMAT_END
 95
       16
302
GRIDFORMAT
  1
GRIDFORMAT_BEGIN
 90
        0
 91
        1
 62
     0
 92
       -2
340
14
 93
        0
 40
0.045
309
GRIDFORMAT_END
 95
       32
302
GRIDFORMAT
  1
GRIDFORMAT_BEGIN
 90
        0
 91
        1
 62
     0
 92
       -2
340
14
 93
        0
 40
0.045
309
GRIDFORMAT_END
309
TABLEFORMAT_END
  1
CELLSTYLE_BEGIN
 90
        2
 91
        1
300
_HEADER
309
CELLSTYLE_END
300
CELLSTYLE
  1
TABLEFORMAT_BEGIN
 90
        5
170
     1
 91
        0
 92
        0
 62
   257
 93
        1
300
CONTENTFORMAT
  1
CONTENTFORMAT_BEGIN
 90
        0
 91
        0
 92
        4
 93
        0
300

 40
0.0
140
1.0
 94
        2
 62
     0
340
11
144
0.18
309
CONTENTFORMAT_END
171
     1
301
MARGIN
  1
CELLMARGIN_BEGIN
 40
0.06
 40
0.06
 40
0.06
 40
0.06
 40
0.18
 40
0.18
309
CELLMARGIN_END
 94
        6
 95
        1
302
GRIDFORMAT
  1
GRIDFORMAT_BEGIN
 90
        0
 91
        1
 62
     0
 92
       -2
340
14
 93
        0
 40
0.045
309
GRIDFORMAT_END
 95
        2
302
GRIDFORMAT
  1
GRIDFORMAT_BEGIN
 90
        0
 91
        1
 62
     0
 92
       -2
340
14
 93
        0
 40
0.045
309
GRIDFORMAT_END
 95
        4
302
GRIDFORMAT
  1
GRIDFORMAT_BEGIN
 90
        0
 91
        1
 62
     0
 92
       -2
340
14
 93
        0
 40
0.045
309
GRIDFORMAT_END
 95
        8
302
GRIDFORMAT
  1
GRIDFORMAT_BEGIN
 90
        0
 91
        1
 62
     0
 92
       -2
340
14
 93
        0
 40
0.045
309
GRIDFORMAT_END
 95
       16
302
GRIDFORMAT
  1
GRIDFORMAT_BEGIN
 90
        0
 91
        1
 62
     0
 92
       -2
340
14
 93
        0
 40
0.045
309
GRIDFORMAT_END
 95
       32
302
GRIDFORMAT
  1
GRIDFORMAT_BEGIN
 90
        0
 91
        1
 62
     0
 92
       -2
340
14
 93
        0
 40
0.045
309
GRIDFORMAT_END
309
TABLEFORMAT_END
  1
CELLSTYLE_BEGIN
 90
        3
 91
        2
300
_DATA
309
CELLSTYLE_END
  0
XRECORD
  5
398
102
{ACAD_REACTORS
330
2EF
102
}
330
2EF
100
AcDbXrecord
280
     1
102
ACAD_ROUNDTRIP_PRE2007_TABLESTYLE
 90
        4
 91
        0
  1

 92
        4
 93
        0
  2

 94
        4
 95
        0
  3

  0
XRECORD
  5
371
102
{ACAD_REACTORS
330
370
102
}
330
370
100
AcDbXrecord
280
     1
102
RTVSPost2010Prop28
280
     1
102
RTVSPost2010PropOp28
 70
     1
102
RTVSPost2010Prop29
280
     1
102
RTVSPost2010PropOp29
 70
     1
102
RTVSPost2010Prop30
280
     0
102
RTVSPost2010PropOp30
 70
     1
102
RTVSPost2010Prop31
280
     0
102
RTVSPost2010PropOp31
 70
     1
102
RTVSPost2010Prop32
280
     0
102
RTVSPost2010PropOp32
 70
     1
102
RTVSPost2010Prop33
280
     0
102
RTVSPost2010PropOp33
 70
     1
102
RTVSPost2010Prop34
280
     0
102
RTVSPost2010PropOp34
 70
     1
102
RTVSPost2010Prop35
280
     0
102
RTVSPost2010PropOp35
 70
     1
102
RTVSPost2010Prop36
280
     0
102
RTVSPost2010PropOp36
 70
     1
102
RTVSPost2010Prop37
 90
       50
102
RTVSPost2010PropOp37
 70
     1
102
RTVSPost2010Prop38
140
0.0
102
RTVSPost2010PropOp38
 70
     1
102
RTVSPost2010Prop39
140
1.0
102
RTVSPost2010PropOp39
 70
     1
102
RTVSPost2010Prop40
 90
        0
102
RTVSPost2010PropOp40
 70
     1
102
RTVSPost2010Prop41ColorIndex
 90
       18
102
RTVSPost2010Prop41ColorRGB
 90
        0
102
RTVSPost2010PropOp41
 70
     1
102
RTVSPost2010Prop42
 90
       50
102
RTVSPost2010PropOp42
 70
     1
102
RTVSPost2010Prop43
 90
        3
102
RTVSPost2010PropOp43
 70
     1
102
RTVSPost2010Prop44ColorIndex
 90
        5
102
RTVSPost2010Prop44ColorRGB
 90
      255
102
RTVSPost2010PropOp44
 70
     1
102
RTVSPost2010Prop45
280
     0
102
RTVSPost2010PropOp45
 70
     1
102
RTVSPost2010Prop46
 90
       50
102
RTVSPost2010PropOp46
 70
     1
102
RTVSPost2010Prop47
 90
       50
102
RTVSPost2010PropOp47
 70
     1
102
RTVSPost2010Prop48
 90
       50
102
RTVSPost2010PropOp48
 70
     1
102
RTVSPost2010Prop49
280
     0
102
RTVSPost2010PropOp49
 70
     1
102
RTVSPost2010Prop50
 90
       50
102
RTVSPost2010PropOp50
 70
     1
102
RTVSPost2010Prop51ColorIndex
 90
      256
102
RTVSPost2010Prop51ColorRGB
 90
-16777216
102
RTVSPost2010PropOp51
 70
     0
102
RTVSPost2010Prop52
140
1.0
102
RTVSPost2010PropOp52
 70
     0
102
RTVSPost2010Prop53
 90
        2
102
RTVSPost2010PropOp53
 70
     1
102
RTVSPost2010Prop54
  1
strokes_ogs.tif
102
RTVSPost2010PropOp54
 70
     1
102
RTVSPost2010Prop55
280
     0
102
RTVSPost2010PropOp55
 70
     1
102
RTVSPost2010Prop56
140
1.0
102
RTVSPost2010PropOp56
 70
     1
102
RTVSPost2010Prop57
140
1.0
102
RTVSPost2010PropOp57
 70
     1
102
RTVSPropertyOp0
 70
     1
102
RTVSPropertyOp1
 70
     1
102
RTVSPropertyOp2
 70
     1
102
RTVSPropertyOp3
 70
     1
102
RTVSPropertyOp4
 70
     1
102
RTVSPropertyOp5
 70
     1
102
RTVSPropertyOp6
 70
     1
102
RTVSPropertyOp7
 70
     1
102
RTVSPropertyOp8
 70
     1
102
RTVSPropertyOp9
 70
     1
102
RTVSPropertyOp10
 70
     1
102
RTVSPropertyOp11
 70
     1
102
RTVSPropertyOp12
 70
     1
102
RTVSPropertyOp13
 70
     1
102
RTVSPropertyOp14
 70
     1
102
RTVSPropertyOp15
 70
     1
102
RTVSPropertyOp16
 70
     1
102
RTVSPropertyOp17
 70
     1
102
RTVSPropertyOp18
 70
     1
102
RTVSPropertyOp19
 70
     1
102
RTVSPropertyOp20
 70
     1
102
RTVSPropertyOp21
 70
     1
102
RTVSPropertyOp22
 70
     1
102
RTVSPropertyOp23
 70
     1
102
RTVSPropertyOp24
 70
     1
102
RTVSPropertyOp25
 70
     1
102
RTVSPropertyOp26
 70
     1
102
RTVSPropertyOp27
 70
     1
102
RTVSPropertyOp28
 70
     1
102
RTVSPropertyOp29
 70
     1
102
RTVSPropertyOp30
 70
     1
102
RTVSPropertyOp31
 70
     1
102
RTVSPropertyOp32
 70
     1
102
RTVSPropertyOp33
 70
     1
102
RTVSPropertyOp34
 70
     1
102
RTVSPropertyOp35
 70
     1
102
RTVSPropertyOp36
 70
     1
102
RTVSPropertyOp37
 70
     1
102
RTVSPropertyOp38
 70
     1
102
RTVSPropertyOp39
 70
     1
102
RTVSPropertyOp40
 70
     1
102
RTVSPropertyOp41
 70
     1
102
RTVSPropertyOp42
 70
     1
102
RTVSPropertyOp43
 70
     1
102
RTVSPropertyOp44
 70
     1
102
RTVSPropertyOp45
 70
     1
102
RTVSPropertyOp46
 70
     1
102
RTVSPropertyOp47
 70
     1
102
RTVSPropertyOp48
 70
     1
102
RTVSPropertyOp49
 70
     1
102
RTVSPropertyOp50
 70
     1
102
RTVSPropertyOp51
 70
     0
102
RTVSPropertyOp52
 70
     0
102
RTVSPropertyOp53
 70
     1
102
RTVSPropertyOp54
 70
     1
102
RTVSPropertyOp55
 70
     1
102
RTVSPropertyOp56
 70
     1
102
RTVSPropertyOp57
 70
     1
102
RTVSPropertyOp58
 70
     1
102
RTVSPropertyOp59
 70
     1
102
RTVSPropertyOp60
 70
     1
102
RTVSPropertyOp61
 70
     1
102
RTVSPropertyOp62
 70
     1
  0
XRECORD
  5
377
102
{ACAD_REACTORS
330
376
102
}
330
376
100
AcDbXrecord
280
     1
102
RTVSPost2010Prop28
280
     0
102
RTVSPost2010PropOp28
 70
     1
102
RTVSPost2010Prop29
280
     1
102
RTVSPost2010PropOp29
 70
     1
102
RTVSPost2010Prop30
280
     1
102
RTVSPost2010PropOp30
 70
     1
102
RTVSPost2010Prop31
280
     0
102
RTVSPost2010PropOp31
 70
     1
102
RTVSPost2010Prop32
280
     0
102
RTVSPost2010PropOp32
 70
     1
102
RTVSPost2010Prop33
280
     0
102
RTVSPost2010PropOp33
 70
     1
102
RTVSPost2010Prop34
280
     0
102
RTVSPost2010PropOp34
 70
     1
102
RTVSPost2010Prop35
280
     0
102
RTVSPost2010PropOp35
 70
     1
102
RTVSPost2010Prop36
280
     0
102
RTVSPost2010PropOp36
 70
     1
102
RTVSPost2010Prop37
 90
       50
102
RTVSPost2010PropOp37
 70
     1
102
RTVSPost2010Prop38
140
0.0
102
RTVSPost2010PropOp38
 70
     1
102
RTVSPost2010Prop39
140
1.0
102
RTVSPost2010PropOp39
 70
     1
102
RTVSPost2010Prop40
 90
        0
102
RTVSPost2010PropOp40
 70
     1
102
RTVSPost2010Prop41ColorIndex
 90
       18
102
RTVSPost2010Prop41ColorRGB
 90
        0
102
RTVSPost2010PropOp41
 70
     1
102
RTVSPost2010Prop42
 90
       50
102
RTVSPost2010PropOp42
 70
     1
102
RTVSPost2010Prop43
 90
        3
102
RTVSPost2010PropOp43
 70
     1
102
RTVSPost2010Prop44ColorIndex
 90
        5
102
RTVSPost2010Prop44ColorRGB
 90
      255
102
RTVSPost2010PropOp44
 70
     1
102
RTVSPost2010Prop45
280
     0
102
RTVSPost2010PropOp45
 70
     1
102
RTVSPost2010Prop46
 90
       50
102
RTVSPost2010PropOp46
 70
     1
102
RTVSPost2010Prop47
 90
       50
102
RTVSPost2010PropOp47
 70
     1
102
RTVSPost2010Prop48
 90
       50
102
RTVSPost2010PropOp48
 70
     1
102
RTVSPost2010Prop49
280
     0
102
RTVSPost2010PropOp49
 70
     1
102
RTVSPost2010Prop50
 90
       50
102
RTVSPost2010PropOp50
 70
     1
102
RTVSPost2010Prop51ColorIndex
 90
      256
102
RTVSPost2010Prop51ColorRGB
 90
-16777216
102
RTVSPost2010PropOp51
 70
     0
102
RTVSPost2010Prop52
140
1.0
102
RTVSPost2010PropOp52
 70
     0
102
RTVSPost2010Prop53
 90
        2
102
RTVSPost2010PropOp53
 70
     1
102
RTVSPost2010Prop54
  1
strokes_ogs.tif
102
RTVSPost2010PropOp54
 70
     1
102
RTVSPost2010Prop55
280
     0
102
RTVSPost2010PropOp55
 70
     1
102
RTVSPost2010Prop56
140
1.0
102
RTVSPost2010PropOp56
 70
     1
102
RTVSPost2010Prop57
140
1.0
102
RTVSPost2010PropOp57
 70
     1
102
RTVSPropertyOp0
 70
     1
102
RTVSPropertyOp1
 70
     1
102
RTVSPropertyOp2
 70
     1
102
RTVSPropertyOp3
 70
     1
102
RTVSPropertyOp4
 70
     1
102
RTVSPropertyOp5
 70
     1
102
RTVSPropertyOp6
 70
     1
102
RTVSPropertyOp7
 70
     1
102
RTVSPropertyOp8
 70
     1
102
RTVSPropertyOp9
 70
     1
102
RTVSPropertyOp10
 70
     1
102
RTVSPropertyOp11
 70
     1
102
RTVSPropertyOp12
 70
     1
102
RTVSPropertyOp13
 70
     1
102
RTVSPropertyOp14
 70
     1
102
RTVSPropertyOp15
 70
     1
102
RTVSPropertyOp16
 70
     1
102
RTVSPropertyOp17
 70
     1
102
RTVSPropertyOp18
 70
     1
102
RTVSPropertyOp19
 70
     1
102
RTVSPropertyOp20
 70
     1
102
RTVSPropertyOp21
 70
     1
102
RTVSPropertyOp22
 70
     1
102
RTVSPropertyOp23
 70
     1
102
RTVSPropertyOp24
 70
     1
102
RTVSPropertyOp25
 70
     1
102
RTVSPropertyOp26
 70
     1
102
RTVSPropertyOp27
 70
     1
102
RTVSPropertyOp28
 70
     1
102
RTVSPropertyOp29
 70
     1
102
RTVSPropertyOp30
 70
     1
102
RTVSPropertyOp31
 70
     1
102
RTVSPropertyOp32
 70
     1
102
RTVSPropertyOp33
 70
     1
102
RTVSPropertyOp34
 70
     1
102
RTVSPropertyOp35
 70
     1
102
RTVSPropertyOp36
 70
     1
102
RTVSPropertyOp37
 70
     1
102
RTVSPropertyOp38
 70
     1
102
RTVSPropertyOp39
 70
     1
102
RTVSPropertyOp40
 70
     1
102
RTVSPropertyOp41
 70
     1
102
RTVSPropertyOp42
 70
     1
102
RTVSPropertyOp43
 70
     1
102
RTVSPropertyOp44
 70
     1
102
RTVSPropertyOp45
 70
     1
102
RTVSPropertyOp46
 70
     1
102
RTVSPropertyOp47
 70
     1
102
RTVSPropertyOp48
 70
     1
102
RTVSPropertyOp49
 70
     1
102
RTVSPropertyOp50
 70
     1
102
RTVSPropertyOp51
 70
     0
102
RTVSPropertyOp52
 70
     0
102
RTVSPropertyOp53
 70
     1
102
RTVSPropertyOp54
 70
     1
102
RTVSPropertyOp55
 70
     1
102
RTVSPropertyOp56
 70
     1
102
RTVSPropertyOp57
 70
     1
102
RTVSPropertyOp58
 70
     1
102
RTVSPropertyOp59
 70
     1
102
RTVSPropertyOp60
 70
     1
102
RTVSPropertyOp61
 70
     1
102
RTVSPropertyOp62
 70
     1
  0
XRECORD
  5
37F
102
{ACAD_REACTORS
330
37E
102
}
330
37E
100
AcDbXrecord
280
     1
102
RTVSPost2010Prop28
280
     0
102
RTVSPost2010PropOp28
 70
     1
102
RTVSPost2010Prop29
280
     1
102
RTVSPost2010PropOp29
 70
     1
102
RTVSPost2010Prop30
280
     1
102
RTVSPost2010PropOp30
 70
     1
102
RTVSPost2010Prop31
280
     0
102
RTVSPost2010PropOp31
 70
     1
102
RTVSPost2010Prop32
280
     0
102
RTVSPost2010PropOp32
 70
     1
102
RTVSPost2010Prop33
280
     0
102
RTVSPost2010PropOp33
 70
     1
102
RTVSPost2010Prop34
280
     0
102
RTVSPost2010PropOp34
 70
     1
102
RTVSPost2010Prop35
280
     0
102
RTVSPost2010PropOp35
 70
     1
102
RTVSPost2010Prop36
280
     0
102
RTVSPost2010PropOp36
 70
     1
102
RTVSPost2010Prop37
 90
       50
102
RTVSPost2010PropOp37
 70
     1
102
RTVSPost2010Prop38
140
0.0
102
RTVSPost2010PropOp38
 70
     1
102
RTVSPost2010Prop39
140
1.0
102
RTVSPost2010PropOp39
 70
     1
102
RTVSPost2010Prop40
 90
        0
102
RTVSPost2010PropOp40
 70
     1
102
RTVSPost2010Prop41ColorIndex
 90
       18
102
RTVSPost2010Prop41ColorRGB
 90
        0
102
RTVSPost2010PropOp41
 70
     1
102
RTVSPost2010Prop42
 90
       50
102
RTVSPost2010PropOp42
 70
     1
102
RTVSPost2010Prop43
 90
        3
102
RTVSPost2010PropOp43
 70
     1
102
RTVSPost2010Prop44ColorIndex
 90
        5
102
RTVSPost2010Prop44ColorRGB
 90
      255
102
RTVSPost2010PropOp44
 70
     1
102
RTVSPost2010Prop45
280
     0
102
RTVSPost2010PropOp45
 70
     1
102
RTVSPost2010Prop46
 90
       50
102
RTVSPost2010PropOp46
 70
     1
102
RTVSPost2010Prop47
 90
       50
102
RTVSPost2010PropOp47
 70
     1
102
RTVSPost2010Prop48
 90
       50
102
RTVSPost2010PropOp48
 70
     1
102
RTVSPost2010Prop49
280
     0
102
RTVSPost2010PropOp49
 70
     1
102
RTVSPost2010Prop50
 90
       50
102
RTVSPost2010PropOp50
 70
     1
102
RTVSPost2010Prop51ColorIndex
 90
      256
102
RTVSPost2010Prop51ColorRGB
 90
-16777216
102
RTVSPost2010PropOp51
 70
     0
102
RTVSPost2010Prop52
140
1.0
102
RTVSPost2010PropOp52
 70
     0
102
RTVSPost2010Prop53
 90
        2
102
RTVSPost2010PropOp53
 70
     1
102
RTVSPost2010Prop54
  1
strokes_ogs.tif
102
RTVSPost2010PropOp54
 70
     1
102
RTVSPost2010Prop55
280
     0
102
RTVSPost2010PropOp55
 70
     1
102
RTVSPost2010Prop56
140
1.0
102
RTVSPost2010PropOp56
 70
     1
102
RTVSPost2010Prop57
140
1.0
102
RTVSPost2010PropOp57
 70
     1
102
RTVSPropertyOp0
 70
     1
102
RTVSPropertyOp1
 70
     1
102
RTVSPropertyOp2
 70
     1
102
RTVSPropertyOp3
 70
     1
102
RTVSPropertyOp4
 70
     1
102
RTVSPropertyOp5
 70
     1
102
RTVSPropertyOp6
 70
     1
102
RTVSPropertyOp7
 70
     1
102
RTVSPropertyOp8
 70
     1
102
RTVSPropertyOp9
 70
     1
102
RTVSPropertyOp10
 70
     1
102
RTVSPropertyOp11
 70
     1
102
RTVSPropertyOp12
 70
     1
102
RTVSPropertyOp13
 70
     1
102
RTVSPropertyOp14
 70
     1
102
RTVSPropertyOp15
 70
     1
102
RTVSPropertyOp16
 70
     1
102
RTVSPropertyOp17
 70
     1
102
RTVSPropertyOp18
 70
     1
102
RTVSPropertyOp19
 70
     1
102
RTVSPropertyOp20
 70
     1
102
RTVSPropertyOp21
 70
     1
102
RTVSPropertyOp22
 70
     1
102
RTVSPropertyOp23
 70
     1
102
RTVSPropertyOp24
 70
     1
102
RTVSPropertyOp25
 70
     1
102
RTVSPropertyOp26
 70
     1
102
RTVSPropertyOp27
 70
     1
102
RTVSPropertyOp28
 70
     1
102
RTVSPropertyOp29
 70
     1
102
RTVSPropertyOp30
 70
     1
102
RTVSPropertyOp31
 70
     1
102
RTVSPropertyOp32
 70
     1
102
RTVSPropertyOp33
 70
     1
102
RTVSPropertyOp34
 70
     1
102
RTVSPropertyOp35
 70
     1
102
RTVSPropertyOp36
 70
     1
102
RTVSPropertyOp37
 70
     1
102
RTVSPropertyOp38
 70
     1
102
RTVSPropertyOp39
 70
     1
102
RTVSPropertyOp40
 70
     1
102
RTVSPropertyOp41
 70
     1
102
RTVSPropertyOp42
 70
     1
102
RTVSPropertyOp43
 70
     1
102
RTVSPropertyOp44
 70
     1
102
RTVSPropertyOp45
 70
     1
102
RTVSPropertyOp46
 70
     1
102
RTVSPropertyOp47
 70
     1
102
RTVSPropertyOp48
 70
     1
102
RTVSPropertyOp49
 70
     1
102
RTVSPropertyOp50
 70
     1
102
RTVSPropertyOp51
 70
     0
102
RTVSPropertyOp52
 70
     0
102
RTVSPropertyOp53
 70
     1
102
RTVSPropertyOp54
 70
     1
102
RTVSPropertyOp55
 70
     1
102
RTVSPropertyOp56
 70
     1
102
RTVSPropertyOp57
 70
     1
102
RTVSPropertyOp58
 70
     1
102
RTVSPropertyOp59
 70
     1
102
RTVSPropertyOp60
 70
     1
102
RTVSPropertyOp61
 70
     1
102
RTVSPropertyOp62
 70
     1
  0
XRECORD
  5
387
102
{ACAD_REACTORS
330
386
102
}
330
386
100
AcDbXrecord
280
     1
102
RTVSPost2010Prop28
280
     0
102
RTVSPost2010PropOp28
 70
     1
102
RTVSPost2010Prop29
280
     1
102
RTVSPost2010PropOp29
 70
     1
102
RTVSPost2010Prop30
280
     1
102
RTVSPost2010PropOp30
 70
     1
102
RTVSPost2010Prop31
280
     0
102
RTVSPost2010PropOp31
 70
     1
102
RTVSPost2010Prop32
280
     0
102
RTVSPost2010PropOp32
 70
     1
102
RTVSPost2010Prop33
280
     0
102
RTVSPost2010PropOp33
 70
     1
102
RTVSPost2010Prop34
280
     0
102
RTVSPost2010PropOp34
 70
     1
102
RTVSPost2010Prop35
280
     0
102
RTVSPost2010PropOp35
 70
     1
102
RTVSPost2010Prop36
280
     0
102
RTVSPost2010PropOp36
 70
     1
102
RTVSPost2010Prop37
 90
       50
102
RTVSPost2010PropOp37
 70
     1
102
RTVSPost2010Prop38
140
0.0
102
RTVSPost2010PropOp38
 70
     1
102
RTVSPost2010Prop39
140
1.0
102
RTVSPost2010PropOp39
 70
     1
102
RTVSPost2010Prop40
 90
        0
102
RTVSPost2010PropOp40
 70
     1
102
RTVSPost2010Prop41ColorIndex
 90
       18
102
RTVSPost2010Prop41ColorRGB
 90
        0
102
RTVSPost2010PropOp41
 70
     1
102
RTVSPost2010Prop42
 90
       50
102
RTVSPost2010PropOp42
 70
     1
102
RTVSPost2010Prop43
 90
        3
102
RTVSPost2010PropOp43
 70
     1
102
RTVSPost2010Prop44ColorIndex
 90
        5
102
RTVSPost2010Prop44ColorRGB
 90
      255
102
RTVSPost2010PropOp44
 70
     1
102
RTVSPost2010Prop45
280
     0
102
RTVSPost2010PropOp45
 70
     1
102
RTVSPost2010Prop46
 90
       50
102
RTVSPost2010PropOp46
 70
     1
102
RTVSPost2010Prop47
 90
       50
102
RTVSPost2010PropOp47
 70
     1
102
RTVSPost2010Prop48
 90
       50
102
RTVSPost2010PropOp48
 70
     1
102
RTVSPost2010Prop49
280
     0
102
RTVSPost2010PropOp49
 70
     1
102
RTVSPost2010Prop50
 90
       50
102
RTVSPost2010PropOp50
 70
     1
102
RTVSPost2010Prop51ColorIndex
 90
      256
102
RTVSPost2010Prop51ColorRGB
 90
-16777216
102
RTVSPost2010PropOp51
 70
     0
102
RTVSPost2010Prop52
140
1.0
102
RTVSPost2010PropOp52
 70
     0
102
RTVSPost2010Prop53
 90
        2
102
RTVSPost2010PropOp53
 70
     1
102
RTVSPost2010Prop54
  1
strokes_ogs.tif
102
RTVSPost2010PropOp54
 70
     1
102
RTVSPost2010Prop55
280
     0
102
RTVSPost2010PropOp55
 70
     1
102
RTVSPost2010Prop56
140
1.0
102
RTVSPost2010PropOp56
 70
     1
102
RTVSPost2010Prop57
140
1.0
102
RTVSPost2010PropOp57
 70
     1
102
RTVSPropertyOp0
 70
     1
102
RTVSPropertyOp1
 70
     1
102
RTVSPropertyOp2
 70
     1
102
RTVSPropertyOp3
 70
     1
102
RTVSPropertyOp4
 70
     1
102
RTVSPropertyOp5
 70
     1
102
RTVSPropertyOp6
 70
     1
102
RTVSPropertyOp7
 70
     1
102
RTVSPropertyOp8
 70
     1
102
RTVSPropertyOp9
 70
     1
102
RTVSPropertyOp10
 70
     1
102
RTVSPropertyOp11
 70
     1
102
RTVSPropertyOp12
 70
     1
102
RTVSPropertyOp13
 70
     1
102
RTVSPropertyOp14
 70
     1
102
RTVSPropertyOp15
 70
     1
102
RTVSPropertyOp16
 70
     1
102
RTVSPropertyOp17
 70
     1
102
RTVSPropertyOp18
 70
     1
102
RTVSPropertyOp19
 70
     1
102
RTVSPropertyOp20
 70
     1
102
RTVSPropertyOp21
 70
     1
102
RTVSPropertyOp22
 70
     1
102
RTVSPropertyOp23
 70
     1
102
RTVSPropertyOp24
 70
     1
102
RTVSPropertyOp25
 70
     1
102
RTVSPropertyOp26
 70
     1
102
RTVSPropertyOp27
 70
     1
102
RTVSPropertyOp28
 70
     1
102
RTVSPropertyOp29
 70
     1
102
RTVSPropertyOp30
 70
     1
102
RTVSPropertyOp31
 70
     1
102
RTVSPropertyOp32
 70
     1
102
RTVSPropertyOp33
 70
     1
102
RTVSPropertyOp34
 70
     1
102
RTVSPropertyOp35
 70
     1
102
RTVSPropertyOp36
 70
     1
102
RTVSPropertyOp37
 70
     1
102
RTVSPropertyOp38
 70
     1
102
RTVSPropertyOp39
 70
     1
102
RTVSPropertyOp40
 70
     1
102
RTVSPropertyOp41
 70
     1
102
RTVSPropertyOp42
 70
     1
102
RTVSPropertyOp43
 70
     1
102
RTVSPropertyOp44
 70
     1
102
RTVSPropertyOp45
 70
     1
102
RTVSPropertyOp46
 70
     1
102
RTVSPropertyOp47
 70
     1
102
RTVSPropertyOp48
 70
     1
102
RTVSPropertyOp49
 70
     1
102
RTVSPropertyOp50
 70
     1
102
RTVSPropertyOp51
 70
     0
102
RTVSPropertyOp52
 70
     0
102
RTVSPropertyOp53
 70
     1
102
RTVSPropertyOp54
 70
     1
102
RTVSPropertyOp55
 70
     1
102
RTVSPropertyOp56
 70
     1
102
RTVSPropertyOp57
 70
     1
102
RTVSPropertyOp58
 70
     1
102
RTVSPropertyOp59
 70
     1
102
RTVSPropertyOp60
 70
     1
102
RTVSPropertyOp61
 70
     1
102
RTVSPropertyOp62
 70
     1
  0
XRECORD
  5
37B
102
{ACAD_REACTORS
330
37A
102
}
330
37A
100
AcDbXrecord
280
     1
102
RTVSPost2010Prop28
280
     0
102
RTVSPost2010PropOp28
 70
     1
102
RTVSPost2010Prop29
280
     1
102
RTVSPost2010PropOp29
 70
     1
102
RTVSPost2010Prop30
280
     1
102
RTVSPost2010PropOp30
 70
     1
102
RTVSPost2010Prop31
280
     0
102
RTVSPost2010PropOp31
 70
     1
102
RTVSPost2010Prop32
280
     0
102
RTVSPost2010PropOp32
 70
     1
102
RTVSPost2010Prop33
280
     0
102
RTVSPost2010PropOp33
 70
     1
102
RTVSPost2010Prop34
280
     0
102
RTVSPost2010PropOp34
 70
     1
102
RTVSPost2010Prop35
280
     0
102
RTVSPost2010PropOp35
 70
     1
102
RTVSPost2010Prop36
280
     0
102
RTVSPost2010PropOp36
 70
     1
102
RTVSPost2010Prop37
 90
       50
102
RTVSPost2010PropOp37
 70
     1
102
RTVSPost2010Prop38
140
0.0
102
RTVSPost2010PropOp38
 70
     1
102
RTVSPost2010Prop39
140
1.0
102
RTVSPost2010PropOp39
 70
     1
102
RTVSPost2010Prop40
 90
        0
102
RTVSPost2010PropOp40
 70
     1
102
RTVSPost2010Prop41ColorIndex
 90
       18
102
RTVSPost2010Prop41ColorRGB
 90
        0
102
RTVSPost2010PropOp41
 70
     1
102
RTVSPost2010Prop42
 90
       50
102
RTVSPost2010PropOp42
 70
     1
102
RTVSPost2010Prop43
 90
        3
102
RTVSPost2010PropOp43
 70
     1
102
RTVSPost2010Prop44ColorIndex
 90
        5
102
RTVSPost2010Prop44ColorRGB
 90
      255
102
RTVSPost2010PropOp44
 70
     1
102
RTVSPost2010Prop45
280
     0
102
RTVSPost2010PropOp45
 70
     1
102
RTVSPost2010Prop46
 90
       50
102
RTVSPost2010PropOp46
 70
     1
102
RTVSPost2010Prop47
 90
       50
102
RTVSPost2010PropOp47
 70
     1
102
RTVSPost2010Prop48
 90
       50
102
RTVSPost2010PropOp48
 70
     1
102
RTVSPost2010Prop49
280
     0
102
RTVSPost2010PropOp49
 70
     1
102
RTVSPost2010Prop50
 90
       50
102
RTVSPost2010PropOp50
 70
     1
102
RTVSPost2010Prop51ColorIndex
 90
      256
102
RTVSPost2010Prop51ColorRGB
 90
-16777216
102
RTVSPost2010PropOp51
 70
     0
102
RTVSPost2010Prop52
140
1.0
102
RTVSPost2010PropOp52
 70
     0
102
RTVSPost2010Prop53
 90
        2
102
RTVSPost2010PropOp53
 70
     1
102
RTVSPost2010Prop54
  1
strokes_ogs.tif
102
RTVSPost2010PropOp54
 70
     1
102
RTVSPost2010Prop55
280
     0
102
RTVSPost2010PropOp55
 70
     1
102
RTVSPost2010Prop56
140
1.0
102
RTVSPost2010PropOp56
 70
     1
102
RTVSPost2010Prop57
140
1.0
102
RTVSPost2010PropOp57
 70
     1
102
RTVSPropertyOp0
 70
     1
102
RTVSPropertyOp1
 70
     1
102
RTVSPropertyOp2
 70
     1
102
RTVSPropertyOp3
 70
     1
102
RTVSPropertyOp4
 70
     1
102
RTVSPropertyOp5
 70
     1
102
RTVSPropertyOp6
 70
     1
102
RTVSPropertyOp7
 70
     1
102
RTVSPropertyOp8
 70
     1
102
RTVSPropertyOp9
 70
     1
102
RTVSPropertyOp10
 70
     1
102
RTVSPropertyOp11
 70
     1
102
RTVSPropertyOp12
 70
     1
102
RTVSPropertyOp13
 70
     1
102
RTVSPropertyOp14
 70
     1
102
RTVSPropertyOp15
 70
     1
102
RTVSPropertyOp16
 70
     1
102
RTVSPropertyOp17
 70
     1
102
RTVSPropertyOp18
 70
     1
102
RTVSPropertyOp19
 70
     1
102
RTVSPropertyOp20
 70
     1
102
RTVSPropertyOp21
 70
     1
102
RTVSPropertyOp22
 70
     1
102
RTVSPropertyOp23
 70
     1
102
RTVSPropertyOp24
 70
     1
102
RTVSPropertyOp25
 70
     1
102
RTVSPropertyOp26
 70
     1
102
RTVSPropertyOp27
 70
     1
102
RTVSPropertyOp28
 70
     1
102
RTVSPropertyOp29
 70
     1
102
RTVSPropertyOp30
 70
     1
102
RTVSPropertyOp31
 70
     1
102
RTVSPropertyOp32
 70
     1
102
RTVSPropertyOp33
 70
     1
102
RTVSPropertyOp34
 70
     1
102
RTVSPropertyOp35
 70
     1
102
RTVSPropertyOp36
 70
     1
102
RTVSPropertyOp37
 70
     1
102
RTVSPropertyOp38
 70
     1
102
RTVSPropertyOp39
 70
     1
102
RTVSPropertyOp40
 70
     1
102
RTVSPropertyOp41
 70
     1
102
RTVSPropertyOp42
 70
     1
102
RTVSPropertyOp43
 70
     1
102
RTVSPropertyOp44
 70
     1
102
RTVSPropertyOp45
 70
     1
102
RTVSPropertyOp46
 70
     1
102
RTVSPropertyOp47
 70
     1
102
RTVSPropertyOp48
 70
     1
102
RTVSPropertyOp49
 70
     1
102
RTVSPropertyOp50
 70
     1
102
RTVSPropertyOp51
 70
     0
102
RTVSPropertyOp52
 70
     0
102
RTVSPropertyOp53
 70
     1
102
RTVSPropertyOp54
 70
     1
102
RTVSPropertyOp55
 70
     1
102
RTVSPropertyOp56
 70
     1
102
RTVSPropertyOp57
 70
     1
102
RTVSPropertyOp58
 70
     1
102
RTVSPropertyOp59
 70
     1
102
RTVSPropertyOp60
 70
     1
102
RTVSPropertyOp61
 70
     1
102
RTVSPropertyOp62
 70
     1
  0
XRECORD
  5
37D
102
{ACAD_REACTORS
330
37C
102
}
330
37C
100
AcDbXrecord
280
     1
102
RTVSPost2010Prop28
280
     0
102
RTVSPost2010PropOp28
 70
     1
102
RTVSPost2010Prop29
280
     1
102
RTVSPost2010PropOp29
 70
     1
102
RTVSPost2010Prop30
280
     1
102
RTVSPost2010PropOp30
 70
     1
102
RTVSPost2010Prop31
280
     0
102
RTVSPost2010PropOp31
 70
     1
102
RTVSPost2010Prop32
280
     0
102
RTVSPost2010PropOp32
 70
     1
102
RTVSPost2010Prop33
280
     0
102
RTVSPost2010PropOp33
 70
     1
102
RTVSPost2010Prop34
280
     0
102
RTVSPost2010PropOp34
 70
     1
102
RTVSPost2010Prop35
280
     0
102
RTVSPost2010PropOp35
 70
     1
102
RTVSPost2010Prop36
280
     0
102
RTVSPost2010PropOp36
 70
     1
102
RTVSPost2010Prop37
 90
       50
102
RTVSPost2010PropOp37
 70
     1
102
RTVSPost2010Prop38
140
0.0
102
RTVSPost2010PropOp38
 70
     1
102
RTVSPost2010Prop39
140
1.0
102
RTVSPost2010PropOp39
 70
     1
102
RTVSPost2010Prop40
 90
        0
102
RTVSPost2010PropOp40
 70
     1
102
RTVSPost2010Prop41ColorIndex
 90
       18
102
RTVSPost2010Prop41ColorRGB
 90
        0
102
RTVSPost2010PropOp41
 70
     1
102
RTVSPost2010Prop42
 90
       50
102
RTVSPost2010PropOp42
 70
     1
102
RTVSPost2010Prop43
 90
        3
102
RTVSPost2010PropOp43
 70
     1
102
RTVSPost2010Prop44ColorIndex
 90
        5
102
RTVSPost2010Prop44ColorRGB
 90
      255
102
RTVSPost2010PropOp44
 70
     1
102
RTVSPost2010Prop45
280
     0
102
RTVSPost2010PropOp45
 70
     1
102
RTVSPost2010Prop46
 90
       50
102
RTVSPost2010PropOp46
 70
     1
102
RTVSPost2010Prop47
 90
       50
102
RTVSPost2010PropOp47
 70
     1
102
RTVSPost2010Prop48
 90
       50
102
RTVSPost2010PropOp48
 70
     1
102
RTVSPost2010Prop49
280
     0
102
RTVSPost2010PropOp49
 70
     1
102
RTVSPost2010Prop50
 90
       50
102
RTVSPost2010PropOp50
 70
     1
102
RTVSPost2010Prop51ColorIndex
 90
      256
102
RTVSPost2010Prop51ColorRGB
 90
-16777216
102
RTVSPost2010PropOp51
 70
     0
102
RTVSPost2010Prop52
140
1.0
102
RTVSPost2010PropOp52
 70
     0
102
RTVSPost2010Prop53
 90
        2
102
RTVSPost2010PropOp53
 70
     1
102
RTVSPost2010Prop54
  1
strokes_ogs.tif
102
RTVSPost2010PropOp54
 70
     1
102
RTVSPost2010Prop55
280
     0
102
RTVSPost2010PropOp55
 70
     1
102
RTVSPost2010Prop56
140
1.0
102
RTVSPost2010PropOp56
 70
     1
102
RTVSPost2010Prop57
140
1.0
102
RTVSPost2010PropOp57
 70
     1
102
RTVSPropertyOp0
 70
     1
102
RTVSPropertyOp1
 70
     1
102
RTVSPropertyOp2
 70
     1
102
RTVSPropertyOp3
 70
     1
102
RTVSPropertyOp4
 70
     1
102
RTVSPropertyOp5
 70
     1
102
RTVSPropertyOp6
 70
     1
102
RTVSPropertyOp7
 70
     1
102
RTVSPropertyOp8
 70
     1
102
RTVSPropertyOp9
 70
     1
102
RTVSPropertyOp10
 70
     1
102
RTVSPropertyOp11
 70
     1
102
RTVSPropertyOp12
 70
     1
102
RTVSPropertyOp13
 70
     1
102
RTVSPropertyOp14
 70
     1
102
RTVSPropertyOp15
 70
     1
102
RTVSPropertyOp16
 70
     1
102
RTVSPropertyOp17
 70
     1
102
RTVSPropertyOp18
 70
     1
102
RTVSPropertyOp19
 70
     1
102
RTVSPropertyOp20
 70
     1
102
RTVSPropertyOp21
 70
     1
102
RTVSPropertyOp22
 70
     1
102
RTVSPropertyOp23
 70
     1
102
RTVSPropertyOp24
 70
     1
102
RTVSPropertyOp25
 70
     1
102
RTVSPropertyOp26
 70
     1
102
RTVSPropertyOp27
 70
     1
102
RTVSPropertyOp28
 70
     1
102
RTVSPropertyOp29
 70
     1
102
RTVSPropertyOp30
 70
     1
102
RTVSPropertyOp31
 70
     1
102
RTVSPropertyOp32
 70
     1
102
RTVSPropertyOp33
 70
     1
102
RTVSPropertyOp34
 70
     1
102
RTVSPropertyOp35
 70
     1
102
RTVSPropertyOp36
 70
     1
102
RTVSPropertyOp37
 70
     1
102
RTVSPropertyOp38
 70
     1
102
RTVSPropertyOp39
 70
     1
102
RTVSPropertyOp40
 70
     1
102
RTVSPropertyOp41
 70
     1
102
RTVSPropertyOp42
 70
     1
102
RTVSPropertyOp43
 70
     1
102
RTVSPropertyOp44
 70
     1
102
RTVSPropertyOp45
 70
     1
102
RTVSPropertyOp46
 70
     1
102
RTVSPropertyOp47
 70
     1
102
RTVSPropertyOp48
 70
     1
102
RTVSPropertyOp49
 70
     1
102
RTVSPropertyOp50
 70
     1
102
RTVSPropertyOp51
 70
     0
102
RTVSPropertyOp52
 70
     0
102
RTVSPropertyOp53
 70
     1
102
RTVSPropertyOp54
 70
     1
102
RTVSPropertyOp55
 70
     1
102
RTVSPropertyOp56
 70
     1
102
RTVSPropertyOp57
 70
     1
102
RTVSPropertyOp58
 70
     1
102
RTVSPropertyOp59
 70
     1
102
RTVSPropertyOp60
 70
     1
102
RTVSPropertyOp61
 70
     1
102
RTVSPropertyOp62
 70
     1
  0
XRECORD
  5
38D
102
{ACAD_REACTORS
330
38C
102
}
330
38C
100
AcDbXrecord
280
     1
102
RTVSPost2010Prop28
280
     0
102
RTVSPost2010PropOp28
 70
     0
102
RTVSPost2010Prop29
280
     1
102
RTVSPost2010PropOp29
 70
     0
102
RTVSPost2010Prop30
280
     1
102
RTVSPost2010PropOp30
 70
     0
102
RTVSPost2010Prop31
280
     0
102
RTVSPost2010PropOp31
 70
     0
102
RTVSPost2010Prop32
280
     0
102
RTVSPost2010PropOp32
 70
     0
102
RTVSPost2010Prop33
280
     0
102
RTVSPost2010PropOp33
 70
     0
102
RTVSPost2010Prop34
280
     0
102
RTVSPost2010PropOp34
 70
     0
102
RTVSPost2010Prop35
280
     0
102
RTVSPost2010PropOp35
 70
     0
102
RTVSPost2010Prop36
280
     0
102
RTVSPost2010PropOp36
 70
     0
102
RTVSPost2010Prop37
 90
       50
102
RTVSPost2010PropOp37
 70
     0
102
RTVSPost2010Prop38
140
0.0
102
RTVSPost2010PropOp38
 70
     0
102
RTVSPost2010Prop39
140
1.0
102
RTVSPost2010PropOp39
 70
     0
102
RTVSPost2010Prop40
 90
        0
102
RTVSPost2010PropOp40
 70
     0
102
RTVSPost2010Prop41ColorIndex
 90
       18
102
RTVSPost2010Prop41ColorRGB
 90
        0
102
RTVSPost2010PropOp41
 70
     0
102
RTVSPost2010Prop42
 90
       50
102
RTVSPost2010PropOp42
 70
     0
102
RTVSPost2010Prop43
 90
        3
102
RTVSPost2010PropOp43
 70
     0
102
RTVSPost2010Prop44ColorIndex
 90
        5
102
RTVSPost2010Prop44ColorRGB
 90
      255
102
RTVSPost2010PropOp44
 70
     0
102
RTVSPost2010Prop45
280
     0
102
RTVSPost2010PropOp45
 70
     0
102
RTVSPost2010Prop46
 90
       50
102
RTVSPost2010PropOp46
 70
     0
102
RTVSPost2010Prop47
 90
       50
102
RTVSPost2010PropOp47
 70
     0
102
RTVSPost2010Prop48
 90
       50
102
RTVSPost2010PropOp48
 70
     0
102
RTVSPost2010Prop49
280
     0
102
RTVSPost2010PropOp49
 70
     0
102
RTVSPost2010Prop50
 90
       50
102
RTVSPost2010PropOp50
 70
     0
102
RTVSPost2010Prop51ColorIndex
 90
      256
102
RTVSPost2010Prop51ColorRGB
 90
-16777216
102
RTVSPost2010PropOp51
 70
     0
102
RTVSPost2010Prop52
140
1.0
102
RTVSPost2010PropOp52
 70
     0
102
RTVSPost2010Prop53
 90
        2
102
RTVSPost2010PropOp53
 70
     0
102
RTVSPost2010Prop54
  1
strokes_ogs.tif
102
RTVSPost2010PropOp54
 70
     0
102
RTVSPost2010Prop55
280
     0
102
RTVSPost2010PropOp55
 70
     0
102
RTVSPost2010Prop56
140
1.0
102
RTVSPost2010PropOp56
 70
     0
102
RTVSPost2010Prop57
140
1.0
102
RTVSPost2010PropOp57
 70
     0
102
RTVSPropertyOp0
 70
     0
102
RTVSPropertyOp1
 70
     0
102
RTVSPropertyOp2
 70
     0
102
RTVSPropertyOp3
 70
     0
102
RTVSPropertyOp4
 70
     0
102
RTVSPropertyOp5
 70
     0
102
RTVSPropertyOp6
 70
     0
102
RTVSPropertyOp7
 70
     0
102
RTVSPropertyOp8
 70
     0
102
RTVSPropertyOp9
 70
     0
102
RTVSPropertyOp10
 70
     0
102
RTVSPropertyOp11
 70
     0
102
RTVSPropertyOp12
 70
     0
102
RTVSPropertyOp13
 70
     0
102
RTVSPropertyOp14
 70
     2
102
RTVSPropertyOp15
 70
     0
102
RTVSPropertyOp16
 70
     0
102
RTVSPropertyOp17
 70
     0
102
RTVSPropertyOp18
 70
     0
102
RTVSPropertyOp19
 70
     0
102
RTVSPropertyOp20
 70
     0
102
RTVSPropertyOp21
 70
     0
102
RTVSPropertyOp22
 70
     0
102
RTVSPropertyOp23
 70
     0
102
RTVSPropertyOp24
 70
     0
102
RTVSPropertyOp25
 70
     0
102
RTVSPropertyOp26
 70
     0
102
RTVSPropertyOp27
 70
     0
102
RTVSPropertyOp28
 70
     0
102
RTVSPropertyOp29
 70
     0
102
RTVSPropertyOp30
 70
     0
102
RTVSPropertyOp31
 70
     0
102
RTVSPropertyOp32
 70
     0
102
RTVSPropertyOp33
 70
     0
102
RTVSPropertyOp34
 70
     0
102
RTVSPropertyOp35
 70
     0
102
RTVSPropertyOp36
 70
     0
102
RTVSPropertyOp37
 70
     0
102
RTVSPropertyOp38
 70
     0
102
RTVSPropertyOp39
 70
     0
102
RTVSPropertyOp40
 70
     0
102
RTVSPropertyOp41
 70
     0
102
RTVSPropertyOp42
 70
     0
102
RTVSPropertyOp43
 70
     0
102
RTVSPropertyOp44
 70
     0
102
RTVSPropertyOp45
 70
     0
102
RTVSPropertyOp46
 70
     0
102
RTVSPropertyOp47
 70
     0
102
RTVSPropertyOp48
 70
     0
102
RTVSPropertyOp49
 70
     0
102
RTVSPropertyOp50
 70
     0
102
RTVSPropertyOp51
 70
     0
102
RTVSPropertyOp52
 70
     0
102
RTVSPropertyOp53
 70
     0
102
RTVSPropertyOp54
 70
     0
102
RTVSPropertyOp55
 70
     0
102
RTVSPropertyOp56
 70
     0
102
RTVSPropertyOp57
 70
     0
102
RTVSPropertyOp58
 70
     1
102
RTVSPropertyOp59
 70
     1
102
RTVSPropertyOp60
 70
     1
102
RTVSPropertyOp61
 70
     1
102
RTVSPropertyOp62
 70
     1
  0
XRECORD
  5
385
102
{ACAD_REACTORS
330
384
102
}
330
384
100
AcDbXrecord
280
     1
102
RTVSPost2010Prop28
280
     0
102
RTVSPost2010PropOp28
 70
     1
102
RTVSPost2010Prop29
280
     1
102
RTVSPost2010PropOp29
 70
     1
102
RTVSPost2010Prop30
280
     1
102
RTVSPost2010PropOp30
 70
     1
102
RTVSPost2010Prop31
280
     0
102
RTVSPost2010PropOp31
 70
     1
102
RTVSPost2010Prop32
280
     0
102
RTVSPost2010PropOp32
 70
     1
102
RTVSPost2010Prop33
280
     0
102
RTVSPost2010PropOp33
 70
     1
102
RTVSPost2010Prop34
280
     0
102
RTVSPost2010PropOp34
 70
     1
102
RTVSPost2010Prop35
280
     0
102
RTVSPost2010PropOp35
 70
     1
102
RTVSPost2010Prop36
280
     0
102
RTVSPost2010PropOp36
 70
     1
102
RTVSPost2010Prop37
 90
       50
102
RTVSPost2010PropOp37
 70
     1
102
RTVSPost2010Prop38
140
0.0
102
RTVSPost2010PropOp38
 70
     1
102
RTVSPost2010Prop39
140
1.0
102
RTVSPost2010PropOp39
 70
     1
102
RTVSPost2010Prop40
 90
        0
102
RTVSPost2010PropOp40
 70
     1
102
RTVSPost2010Prop41ColorIndex
 90
       18
102
RTVSPost2010Prop41ColorRGB
 90
        0
102
RTVSPost2010PropOp41
 70
     1
102
RTVSPost2010Prop42
 90
       50
102
RTVSPost2010PropOp42
 70
     1
102
RTVSPost2010Prop43
 90
        3
102
RTVSPost2010PropOp43
 70
     1
102
RTVSPost2010Prop44ColorIndex
 90
        5
102
RTVSPost2010Prop44ColorRGB
 90
      255
102
RTVSPost2010PropOp44
 70
     1
102
RTVSPost2010Prop45
280
     0
102
RTVSPost2010PropOp45
 70
     1
102
RTVSPost2010Prop46
 90
       50
102
RTVSPost2010PropOp46
 70
     1
102
RTVSPost2010Prop47
 90
       50
102
RTVSPost2010PropOp47
 70
     1
102
RTVSPost2010Prop48
 90
       50
102
RTVSPost2010PropOp48
 70
     1
102
RTVSPost2010Prop49
280
     0
102
RTVSPost2010PropOp49
 70
     1
102
RTVSPost2010Prop50
 90
       50
102
RTVSPost2010PropOp50
 70
     1
102
RTVSPost2010Prop51ColorIndex
 90
      256
102
RTVSPost2010Prop51ColorRGB
 90
-16777216
102
RTVSPost2010PropOp51
 70
     0
102
RTVSPost2010Prop52
140
1.0
102
RTVSPost2010PropOp52
 70
     0
102
RTVSPost2010Prop53
 90
        2
102
RTVSPost2010PropOp53
 70
     1
102
RTVSPost2010Prop54
  1
strokes_ogs.tif
102
RTVSPost2010PropOp54
 70
     1
102
RTVSPost2010Prop55
280
     0
102
RTVSPost2010PropOp55
 70
     1
102
RTVSPost2010Prop56
140
1.0
102
RTVSPost2010PropOp56
 70
     1
102
RTVSPost2010Prop57
140
1.0
102
RTVSPost2010PropOp57
 70
     1
102
RTVSPropertyOp0
 70
     1
102
RTVSPropertyOp1
 70
     1
102
RTVSPropertyOp2
 70
     1
102
RTVSPropertyOp3
 70
     1
102
RTVSPropertyOp4
 70
     1
102
RTVSPropertyOp5
 70
     1
102
RTVSPropertyOp6
 70
     1
102
RTVSPropertyOp7
 70
     1
102
RTVSPropertyOp8
 70
     1
102
RTVSPropertyOp9
 70
     1
102
RTVSPropertyOp10
 70
     1
102
RTVSPropertyOp11
 70
     1
102
RTVSPropertyOp12
 70
     1
102
RTVSPropertyOp13
 70
     1
102
RTVSPropertyOp14
 70
     1
102
RTVSPropertyOp15
 70
     1
102
RTVSPropertyOp16
 70
     1
102
RTVSPropertyOp17
 70
     1
102
RTVSPropertyOp18
 70
     1
102
RTVSPropertyOp19
 70
     1
102
RTVSPropertyOp20
 70
     1
102
RTVSPropertyOp21
 70
     1
102
RTVSPropertyOp22
 70
     1
102
RTVSPropertyOp23
 70
     1
102
RTVSPropertyOp24
 70
     1
102
RTVSPropertyOp25
 70
     1
102
RTVSPropertyOp26
 70
     1
102
RTVSPropertyOp27
 70
     1
102
RTVSPropertyOp28
 70
     1
102
RTVSPropertyOp29
 70
     1
102
RTVSPropertyOp30
 70
     1
102
RTVSPropertyOp31
 70
     1
102
RTVSPropertyOp32
 70
     1
102
RTVSPropertyOp33
 70
     1
102
RTVSPropertyOp34
 70
     1
102
RTVSPropertyOp35
 70
     1
102
RTVSPropertyOp36
 70
     1
102
RTVSPropertyOp37
 70
     1
102
RTVSPropertyOp38
 70
     1
102
RTVSPropertyOp39
 70
     1
102
RTVSPropertyOp40
 70
     1
102
RTVSPropertyOp41
 70
     1
102
RTVSPropertyOp42
 70
     1
102
RTVSPropertyOp43
 70
     1
102
RTVSPropertyOp44
 70
     1
102
RTVSPropertyOp45
 70
     1
102
RTVSPropertyOp46
 70
     1
102
RTVSPropertyOp47
 70
     1
102
RTVSPropertyOp48
 70
     1
102
RTVSPropertyOp49
 70
     1
102
RTVSPropertyOp50
 70
     1
102
RTVSPropertyOp51
 70
     0
102
RTVSPropertyOp52
 70
     0
102
RTVSPropertyOp53
 70
     1
102
RTVSPropertyOp54
 70
     1
102
RTVSPropertyOp55
 70
     1
102
RTVSPropertyOp56
 70
     1
102
RTVSPropertyOp57
 70
     1
102
RTVSPropertyOp58
 70
     1
102
RTVSPropertyOp59
 70
     1
102
RTVSPropertyOp60
 70
     1
102
RTVSPropertyOp61
 70
     1
102
RTVSPropertyOp62
 70
     1
  0
XRECORD
  5
369
102
{ACAD_REACTORS
330
368
102
}
330
368
100
AcDbXrecord
280
     1
102
RTVSPost2010Prop28
280
     0
102
RTVSPost2010PropOp28
 70
     1
102
RTVSPost2010Prop29
280
     1
102
RTVSPost2010PropOp29
 70
     1
102
RTVSPost2010Prop30
280
     1
102
RTVSPost2010PropOp30
 70
     1
102
RTVSPost2010Prop31
280
     0
102
RTVSPost2010PropOp31
 70
     1
102
RTVSPost2010Prop32
280
     0
102
RTVSPost2010PropOp32
 70
     1
102
RTVSPost2010Prop33
280
     0
102
RTVSPost2010PropOp33
 70
     1
102
RTVSPost2010Prop34
280
     0
102
RTVSPost2010PropOp34
 70
     1
102
RTVSPost2010Prop35
280
     0
102
RTVSPost2010PropOp35
 70
     1
102
RTVSPost2010Prop36
280
     0
102
RTVSPost2010PropOp36
 70
     1
102
RTVSPost2010Prop37
 90
       50
102
RTVSPost2010PropOp37
 70
     1
102
RTVSPost2010Prop38
140
0.0
102
RTVSPost2010PropOp38
 70
     1
102
RTVSPost2010Prop39
140
1.0
102
RTVSPost2010PropOp39
 70
     1
102
RTVSPost2010Prop40
 90
        0
102
RTVSPost2010PropOp40
 70
     1
102
RTVSPost2010Prop41ColorIndex
 90
       18
102
RTVSPost2010Prop41ColorRGB
 90
        0
102
RTVSPost2010PropOp41
 70
     1
102
RTVSPost2010Prop42
 90
       50
102
RTVSPost2010PropOp42
 70
     1
102
RTVSPost2010Prop43
 90
        3
102
RTVSPost2010PropOp43
 70
     1
102
RTVSPost2010Prop44ColorIndex
 90
        5
102
RTVSPost2010Prop44ColorRGB
 90
      255
102
RTVSPost2010PropOp44
 70
     1
102
RTVSPost2010Prop45
280
     0
102
RTVSPost2010PropOp45
 70
     1
102
RTVSPost2010Prop46
 90
       50
102
RTVSPost2010PropOp46
 70
     1
102
RTVSPost2010Prop47
 90
       50
102
RTVSPost2010PropOp47
 70
     1
102
RTVSPost2010Prop48
 90
       50
102
RTVSPost2010PropOp48
 70
     1
102
RTVSPost2010Prop49
280
     0
102
RTVSPost2010PropOp49
 70
     1
102
RTVSPost2010Prop50
 90
       50
102
RTVSPost2010PropOp50
 70
     1
102
RTVSPost2010Prop51ColorIndex
 90
      256
102
RTVSPost2010Prop51ColorRGB
 90
-16777216
102
RTVSPost2010PropOp51
 70
     0
102
RTVSPost2010Prop52
140
1.0
102
RTVSPost2010PropOp52
 70
     0
102
RTVSPost2010Prop53
 90
        2
102
RTVSPost2010PropOp53
 70
     1
102
RTVSPost2010Prop54
  1
strokes_ogs.tif
102
RTVSPost2010PropOp54
 70
     1
102
RTVSPost2010Prop55
280
     0
102
RTVSPost2010PropOp55
 70
     1
102
RTVSPost2010Prop56
140
1.0
102
RTVSPost2010PropOp56
 70
     1
102
RTVSPost2010Prop57
140
1.0
102
RTVSPost2010PropOp57
 70
     1
102
RTVSPropertyOp0
 70
     1
102
RTVSPropertyOp1
 70
     1
102
RTVSPropertyOp2
 70
     1
102
RTVSPropertyOp3
 70
     1
102
RTVSPropertyOp4
 70
     1
102
RTVSPropertyOp5
 70
     1
102
RTVSPropertyOp6
 70
     1
102
RTVSPropertyOp7
 70
     1
102
RTVSPropertyOp8
 70
     1
102
RTVSPropertyOp9
 70
     1
102
RTVSPropertyOp10
 70
     1
102
RTVSPropertyOp11
 70
     1
102
RTVSPropertyOp12
 70
     1
102
RTVSPropertyOp13
 70
     1
102
RTVSPropertyOp14
 70
     1
102
RTVSPropertyOp15
 70
     1
102
RTVSPropertyOp16
 70
     1
102
RTVSPropertyOp17
 70
     1
102
RTVSPropertyOp18
 70
     1
102
RTVSPropertyOp19
 70
     1
102
RTVSPropertyOp20
 70
     1
102
RTVSPropertyOp21
 70
     1
102
RTVSPropertyOp22
 70
     1
102
RTVSPropertyOp23
 70
     1
102
RTVSPropertyOp24
 70
     1
102
RTVSPropertyOp25
 70
     1
102
RTVSPropertyOp26
 70
     1
102
RTVSPropertyOp27
 70
     1
102
RTVSPropertyOp28
 70
     1
102
RTVSPropertyOp29
 70
     1
102
RTVSPropertyOp30
 70
     1
102
RTVSPropertyOp31
 70
     1
102
RTVSPropertyOp32
 70
     1
102
RTVSPropertyOp33
 70
     1
102
RTVSPropertyOp34
 70
     1
102
RTVSPropertyOp35
 70
     1
102
RTVSPropertyOp36
 70
     1
102
RTVSPropertyOp37
 70
     1
102
RTVSPropertyOp38
 70
     1
102
RTVSPropertyOp39
 70
     1
102
RTVSPropertyOp40
 70
     1
102
RTVSPropertyOp41
 70
     1
102
RTVSPropertyOp42
 70
     1
102
RTVSPropertyOp43
 70
     1
102
RTVSPropertyOp44
 70
     1
102
RTVSPropertyOp45
 70
     1
102
RTVSPropertyOp46
 70
     1
102
RTVSPropertyOp47
 70
     1
102
RTVSPropertyOp48
 70
     1
102
RTVSPropertyOp49
 70
     1
102
RTVSPropertyOp50
 70
     1
102
RTVSPropertyOp51
 70
     0
102
RTVSPropertyOp52
 70
     0
102
RTVSPropertyOp53
 70
     1
102
RTVSPropertyOp54
 70
     1
102
RTVSPropertyOp55
 70
     1
102
RTVSPropertyOp56
 70
     1
102
RTVSPropertyOp57
 70
     1
102
RTVSPropertyOp58
 70
     1
102
RTVSPropertyOp59
 70
     1
102
RTVSPropertyOp60
 70
     1
102
RTVSPropertyOp61
 70
     1
102
RTVSPropertyOp62
 70
     1
  0
XRECORD
  5
36B
102
{ACAD_REACTORS
330
36A
102
}
330
36A
100
AcDbXrecord
280
     1
102
RTVSPost2010Prop28
280
     0
102
RTVSPost2010PropOp28
 70
     1
102
RTVSPost2010Prop29
280
     1
102
RTVSPost2010PropOp29
 70
     1
102
RTVSPost2010Prop30
280
     1
102
RTVSPost2010PropOp30
 70
     1
102
RTVSPost2010Prop31
280
     0
102
RTVSPost2010PropOp31
 70
     1
102
RTVSPost2010Prop32
280
     0
102
RTVSPost2010PropOp32
 70
     1
102
RTVSPost2010Prop33
280
     0
102
RTVSPost2010PropOp33
 70
     1
102
RTVSPost2010Prop34
280
     0
102
RTVSPost2010PropOp34
 70
     1
102
RTVSPost2010Prop35
280
     0
102
RTVSPost2010PropOp35
 70
     1
102
RTVSPost2010Prop36
280
     0
102
RTVSPost2010PropOp36
 70
     1
102
RTVSPost2010Prop37
 90
       50
102
RTVSPost2010PropOp37
 70
     1
102
RTVSPost2010Prop38
140
0.0
102
RTVSPost2010PropOp38
 70
     1
102
RTVSPost2010Prop39
140
1.0
102
RTVSPost2010PropOp39
 70
     1
102
RTVSPost2010Prop40
 90
        0
102
RTVSPost2010PropOp40
 70
     1
102
RTVSPost2010Prop41ColorIndex
 90
       18
102
RTVSPost2010Prop41ColorRGB
 90
        0
102
RTVSPost2010PropOp41
 70
     1
102
RTVSPost2010Prop42
 90
       50
102
RTVSPost2010PropOp42
 70
     1
102
RTVSPost2010Prop43
 90
        3
102
RTVSPost2010PropOp43
 70
     1
102
RTVSPost2010Prop44ColorIndex
 90
        5
102
RTVSPost2010Prop44ColorRGB
 90
      255
102
RTVSPost2010PropOp44
 70
     1
102
RTVSPost2010Prop45
280
     0
102
RTVSPost2010PropOp45
 70
     1
102
RTVSPost2010Prop46
 90
       50
102
RTVSPost2010PropOp46
 70
     1
102
RTVSPost2010Prop47
 90
       50
102
RTVSPost2010PropOp47
 70
     1
102
RTVSPost2010Prop48
 90
       50
102
RTVSPost2010PropOp48
 70
     1
102
RTVSPost2010Prop49
280
     0
102
RTVSPost2010PropOp49
 70
     1
102
RTVSPost2010Prop50
 90
       50
102
RTVSPost2010PropOp50
 70
     1
102
RTVSPost2010Prop51ColorIndex
 90
      256
102
RTVSPost2010Prop51ColorRGB
 90
-16777216
102
RTVSPost2010PropOp51
 70
     0
102
RTVSPost2010Prop52
140
1.0
102
RTVSPost2010PropOp52
 70
     0
102
RTVSPost2010Prop53
 90
        2
102
RTVSPost2010PropOp53
 70
     1
102
RTVSPost2010Prop54
  1
strokes_ogs.tif
102
RTVSPost2010PropOp54
 70
     1
102
RTVSPost2010Prop55
280
     0
102
RTVSPost2010PropOp55
 70
     1
102
RTVSPost2010Prop56
140
1.0
102
RTVSPost2010PropOp56
 70
     1
102
RTVSPost2010Prop57
140
1.0
102
RTVSPost2010PropOp57
 70
     1
102
RTVSPropertyOp0
 70
     1
102
RTVSPropertyOp1
 70
     1
102
RTVSPropertyOp2
 70
     1
102
RTVSPropertyOp3
 70
     1
102
RTVSPropertyOp4
 70
     1
102
RTVSPropertyOp5
 70
     1
102
RTVSPropertyOp6
 70
     1
102
RTVSPropertyOp7
 70
     1
102
RTVSPropertyOp8
 70
     1
102
RTVSPropertyOp9
 70
     1
102
RTVSPropertyOp10
 70
     1
102
RTVSPropertyOp11
 70
     1
102
RTVSPropertyOp12
 70
     1
102
RTVSPropertyOp13
 70
     1
102
RTVSPropertyOp14
 70
     1
102
RTVSPropertyOp15
 70
     1
102
RTVSPropertyOp16
 70
     1
102
RTVSPropertyOp17
 70
     1
102
RTVSPropertyOp18
 70
     1
102
RTVSPropertyOp19
 70
     1
102
RTVSPropertyOp20
 70
     1
102
RTVSPropertyOp21
 70
     1
102
RTVSPropertyOp22
 70
     1
102
RTVSPropertyOp23
 70
     1
102
RTVSPropertyOp24
 70
     1
102
RTVSPropertyOp25
 70
     1
102
RTVSPropertyOp26
 70
     1
102
RTVSPropertyOp27
 70
     1
102
RTVSPropertyOp28
 70
     1
102
RTVSPropertyOp29
 70
     1
102
RTVSPropertyOp30
 70
     1
102
RTVSPropertyOp31
 70
     1
102
RTVSPropertyOp32
 70
     1
102
RTVSPropertyOp33
 70
     1
102
RTVSPropertyOp34
 70
     1
102
RTVSPropertyOp35
 70
     1
102
RTVSPropertyOp36
 70
     1
102
RTVSPropertyOp37
 70
     1
102
RTVSPropertyOp38
 70
     1
102
RTVSPropertyOp39
 70
     1
102
RTVSPropertyOp40
 70
     1
102
RTVSPropertyOp41
 70
     1
102
RTVSPropertyOp42
 70
     1
102
RTVSPropertyOp43
 70
     1
102
RTVSPropertyOp44
 70
     1
102
RTVSPropertyOp45
 70
     1
102
RTVSPropertyOp46
 70
     1
102
RTVSPropertyOp47
 70
     1
102
RTVSPropertyOp48
 70
     1
102
RTVSPropertyOp49
 70
     1
102
RTVSPropertyOp50
 70
     1
102
RTVSPropertyOp51
 70
     0
102
RTVSPropertyOp52
 70
     0
102
RTVSPropertyOp53
 70
     1
102
RTVSPropertyOp54
 70
     1
102
RTVSPropertyOp55
 70
     1
102
RTVSPropertyOp56
 70
     1
102
RTVSPropertyOp57
 70
     1
102
RTVSPropertyOp58
 70
     1
102
RTVSPropertyOp59
 70
     1
102
RTVSPropertyOp60
 70
     1
102
RTVSPropertyOp61
 70
     1
102
RTVSPropertyOp62
 70
     1
  0
XRECORD
  5
36D
102
{ACAD_REACTORS
330
36C
102
}
330
36C
100
AcDbXrecord
280
     1
102
RTVSPost2010Prop28
280
     0
102
RTVSPost2010PropOp28
 70
     1
102
RTVSPost2010Prop29
280
     1
102
RTVSPost2010PropOp29
 70
     1
102
RTVSPost2010Prop30
280
     1
102
RTVSPost2010PropOp30
 70
     1
102
RTVSPost2010Prop31
280
     0
102
RTVSPost2010PropOp31
 70
     1
102
RTVSPost2010Prop32
280
     0
102
RTVSPost2010PropOp32
 70
     1
102
RTVSPost2010Prop33
280
     0
102
RTVSPost2010PropOp33
 70
     1
102
RTVSPost2010Prop34
280
     0
102
RTVSPost2010PropOp34
 70
     1
102
RTVSPost2010Prop35
280
     0
102
RTVSPost2010PropOp35
 70
     1
102
RTVSPost2010Prop36
280
     0
102
RTVSPost2010PropOp36
 70
     1
102
RTVSPost2010Prop37
 90
       50
102
RTVSPost2010PropOp37
 70
     1
102
RTVSPost2010Prop38
140
0.0
102
RTVSPost2010PropOp38
 70
     1
102
RTVSPost2010Prop39
140
1.0
102
RTVSPost2010PropOp39
 70
     1
102
RTVSPost2010Prop40
 90
        0
102
RTVSPost2010PropOp40
 70
     1
102
RTVSPost2010Prop41ColorIndex
 90
       18
102
RTVSPost2010Prop41ColorRGB
 90
        0
102
RTVSPost2010PropOp41
 70
     1
102
RTVSPost2010Prop42
 90
       50
102
RTVSPost2010PropOp42
 70
     1
102
RTVSPost2010Prop43
 90
        3
102
RTVSPost2010PropOp43
 70
     1
102
RTVSPost2010Prop44ColorIndex
 90
        5
102
RTVSPost2010Prop44ColorRGB
 90
      255
102
RTVSPost2010PropOp44
 70
     1
102
RTVSPost2010Prop45
280
     0
102
RTVSPost2010PropOp45
 70
     1
102
RTVSPost2010Prop46
 90
       50
102
RTVSPost2010PropOp46
 70
     1
102
RTVSPost2010Prop47
 90
       50
102
RTVSPost2010PropOp47
 70
     1
102
RTVSPost2010Prop48
 90
       50
102
RTVSPost2010PropOp48
 70
     1
102
RTVSPost2010Prop49
280
     0
102
RTVSPost2010PropOp49
 70
     1
102
RTVSPost2010Prop50
 90
       50
102
RTVSPost2010PropOp50
 70
     1
102
RTVSPost2010Prop51ColorIndex
 90
      256
102
RTVSPost2010Prop51ColorRGB
 90
-16777216
102
RTVSPost2010PropOp51
 70
     0
102
RTVSPost2010Prop52
140
1.0
102
RTVSPost2010PropOp52
 70
     0
102
RTVSPost2010Prop53
 90
        2
102
RTVSPost2010PropOp53
 70
     1
102
RTVSPost2010Prop54
  1
strokes_ogs.tif
102
RTVSPost2010PropOp54
 70
     1
102
RTVSPost2010Prop55
280
     0
102
RTVSPost2010PropOp55
 70
     1
102
RTVSPost2010Prop56
140
1.0
102
RTVSPost2010PropOp56
 70
     1
102
RTVSPost2010Prop57
140
1.0
102
RTVSPost2010PropOp57
 70
     1
102
RTVSPropertyOp0
 70
     1
102
RTVSPropertyOp1
 70
     1
102
RTVSPropertyOp2
 70
     1
102
RTVSPropertyOp3
 70
     1
102
RTVSPropertyOp4
 70
     1
102
RTVSPropertyOp5
 70
     1
102
RTVSPropertyOp6
 70
     1
102
RTVSPropertyOp7
 70
     1
102
RTVSPropertyOp8
 70
     1
102
RTVSPropertyOp9
 70
     1
102
RTVSPropertyOp10
 70
     1
102
RTVSPropertyOp11
 70
     1
102
RTVSPropertyOp12
 70
     1
102
RTVSPropertyOp13
 70
     1
102
RTVSPropertyOp14
 70
     1
102
RTVSPropertyOp15
 70
     1
102
RTVSPropertyOp16
 70
     1
102
RTVSPropertyOp17
 70
     1
102
RTVSPropertyOp18
 70
     1
102
RTVSPropertyOp19
 70
     1
102
RTVSPropertyOp20
 70
     1
102
RTVSPropertyOp21
 70
     1
102
RTVSPropertyOp22
 70
     1
102
RTVSPropertyOp23
 70
     1
102
RTVSPropertyOp24
 70
     1
102
RTVSPropertyOp25
 70
     1
102
RTVSPropertyOp26
 70
     1
102
RTVSPropertyOp27
 70
     1
102
RTVSPropertyOp28
 70
     1
102
RTVSPropertyOp29
 70
     1
102
RTVSPropertyOp30
 70
     1
102
RTVSPropertyOp31
 70
     1
102
RTVSPropertyOp32
 70
     1
102
RTVSPropertyOp33
 70
     1
102
RTVSPropertyOp34
 70
     1
102
RTVSPropertyOp35
 70
     1
102
RTVSPropertyOp36
 70
     1
102
RTVSPropertyOp37
 70
     1
102
RTVSPropertyOp38
 70
     1
102
RTVSPropertyOp39
 70
     1
102
RTVSPropertyOp40
 70
     1
102
RTVSPropertyOp41
 70
     1
102
RTVSPropertyOp42
 70
     1
102
RTVSPropertyOp43
 70
     1
102
RTVSPropertyOp44
 70
     1
102
RTVSPropertyOp45
 70
     1
102
RTVSPropertyOp46
 70
     1
102
RTVSPropertyOp47
 70
     1
102
RTVSPropertyOp48
 70
     1
102
RTVSPropertyOp49
 70
     1
102
RTVSPropertyOp50
 70
     1
102
RTVSPropertyOp51
 70
     0
102
RTVSPropertyOp52
 70
     0
102
RTVSPropertyOp53
 70
     1
102
RTVSPropertyOp54
 70
     1
102
RTVSPropertyOp55
 70
     1
102
RTVSPropertyOp56
 70
     1
102
RTVSPropertyOp57
 70
     1
102
RTVSPropertyOp58
 70
     1
102
RTVSPropertyOp59
 70
     1
102
RTVSPropertyOp60
 70
     1
102
RTVSPropertyOp61
 70
     1
102
RTVSPropertyOp62
 70
     1
  0
XRECORD
  5
36F
102
{ACAD_REACTORS
330
36E
102
}
330
36E
100
AcDbXrecord
280
     1
102
RTVSPost2010Prop28
280
     0
102
RTVSPost2010PropOp28
 70
     1
102
RTVSPost2010Prop29
280
     1
102
RTVSPost2010PropOp29
 70
     1
102
RTVSPost2010Prop30
280
     1
102
RTVSPost2010PropOp30
 70
     1
102
RTVSPost2010Prop31
280
     0
102
RTVSPost2010PropOp31
 70
     1
102
RTVSPost2010Prop32
280
     0
102
RTVSPost2010PropOp32
 70
     1
102
RTVSPost2010Prop33
280
     0
102
RTVSPost2010PropOp33
 70
     1
102
RTVSPost2010Prop34
280
     0
102
RTVSPost2010PropOp34
 70
     1
102
RTVSPost2010Prop35
280
     0
102
RTVSPost2010PropOp35
 70
     1
102
RTVSPost2010Prop36
280
     0
102
RTVSPost2010PropOp36
 70
     1
102
RTVSPost2010Prop37
 90
       50
102
RTVSPost2010PropOp37
 70
     1
102
RTVSPost2010Prop38
140
0.0
102
RTVSPost2010PropOp38
 70
     1
102
RTVSPost2010Prop39
140
1.0
102
RTVSPost2010PropOp39
 70
     1
102
RTVSPost2010Prop40
 90
        0
102
RTVSPost2010PropOp40
 70
     1
102
RTVSPost2010Prop41ColorIndex
 90
       18
102
RTVSPost2010Prop41ColorRGB
 90
        0
102
RTVSPost2010PropOp41
 70
     1
102
RTVSPost2010Prop42
 90
       50
102
RTVSPost2010PropOp42
 70
     1
102
RTVSPost2010Prop43
 90
        3
102
RTVSPost2010PropOp43
 70
     1
102
RTVSPost2010Prop44ColorIndex
 90
        5
102
RTVSPost2010Prop44ColorRGB
 90
      255
102
RTVSPost2010PropOp44
 70
     1
102
RTVSPost2010Prop45
280
     0
102
RTVSPost2010PropOp45
 70
     1
102
RTVSPost2010Prop46
 90
       50
102
RTVSPost2010PropOp46
 70
     1
102
RTVSPost2010Prop47
 90
       50
102
RTVSPost2010PropOp47
 70
     1
102
RTVSPost2010Prop48
 90
       50
102
RTVSPost2010PropOp48
 70
     1
102
RTVSPost2010Prop49
280
     0
102
RTVSPost2010PropOp49
 70
     1
102
RTVSPost2010Prop50
 90
       50
102
RTVSPost2010PropOp50
 70
     1
102
RTVSPost2010Prop51ColorIndex
 90
      256
102
RTVSPost2010Prop51ColorRGB
 90
-16777216
102
RTVSPost2010PropOp51
 70
     0
102
RTVSPost2010Prop52
140
1.0
102
RTVSPost2010PropOp52
 70
     0
102
RTVSPost2010Prop53
 90
        2
102
RTVSPost2010PropOp53
 70
     1
102
RTVSPost2010Prop54
  1
strokes_ogs.tif
102
RTVSPost2010PropOp54
 70
     1
102
RTVSPost2010Prop55
280
     0
102
RTVSPost2010PropOp55
 70
     1
102
RTVSPost2010Prop56
140
1.0
102
RTVSPost2010PropOp56
 70
     1
102
RTVSPost2010Prop57
140
1.0
102
RTVSPost2010PropOp57
 70
     1
102
RTVSPropertyOp0
 70
     1
102
RTVSPropertyOp1
 70
     1
102
RTVSPropertyOp2
 70
     1
102
RTVSPropertyOp3
 70
     1
102
RTVSPropertyOp4
 70
     1
102
RTVSPropertyOp5
 70
     1
102
RTVSPropertyOp6
 70
     1
102
RTVSPropertyOp7
 70
     1
102
RTVSPropertyOp8
 70
     1
102
RTVSPropertyOp9
 70
     1
102
RTVSPropertyOp10
 70
     1
102
RTVSPropertyOp11
 70
     1
102
RTVSPropertyOp12
 70
     1
102
RTVSPropertyOp13
 70
     1
102
RTVSPropertyOp14
 70
     1
102
RTVSPropertyOp15
 70
     1
102
RTVSPropertyOp16
 70
     1
102
RTVSPropertyOp17
 70
     1
102
RTVSPropertyOp18
 70
     1
102
RTVSPropertyOp19
 70
     1
102
RTVSPropertyOp20
 70
     1
102
RTVSPropertyOp21
 70
     1
102
RTVSPropertyOp22
 70
     1
102
RTVSPropertyOp23
 70
     1
102
RTVSPropertyOp24
 70
     1
102
RTVSPropertyOp25
 70
     1
102
RTVSPropertyOp26
 70
     1
102
RTVSPropertyOp27
 70
     1
102
RTVSPropertyOp28
 70
     1
102
RTVSPropertyOp29
 70
     1
102
RTVSPropertyOp30
 70
     1
102
RTVSPropertyOp31
 70
     1
102
RTVSPropertyOp32
 70
     1
102
RTVSPropertyOp33
 70
     1
102
RTVSPropertyOp34
 70
     1
102
RTVSPropertyOp35
 70
     1
102
RTVSPropertyOp36
 70
     1
102
RTVSPropertyOp37
 70
     1
102
RTVSPropertyOp38
 70
     1
102
RTVSPropertyOp39
 70
     1
102
RTVSPropertyOp40
 70
     1
102
RTVSPropertyOp41
 70
     1
102
RTVSPropertyOp42
 70
     1
102
RTVSPropertyOp43
 70
     1
102
RTVSPropertyOp44
 70
     1
102
RTVSPropertyOp45
 70
     1
102
RTVSPropertyOp46
 70
     1
102
RTVSPropertyOp47
 70
     1
102
RTVSPropertyOp48
 70
     1
102
RTVSPropertyOp49
 70
     1
102
RTVSPropertyOp50
 70
     1
102
RTVSPropertyOp51
 70
     0
102
RTVSPropertyOp52
 70
     0
102
RTVSPropertyOp53
 70
     1
102
RTVSPropertyOp54
 70
     1
102
RTVSPropertyOp55
 70
     1
102
RTVSPropertyOp56
 70
     1
102
RTVSPropertyOp57
 70
     1
102
RTVSPropertyOp58
 70
     1
102
RTVSPropertyOp59
 70
     1
102
RTVSPropertyOp60
 70
     1
102
RTVSPropertyOp61
 70
     1
102
RTVSPropertyOp62
 70
     1
  0
XRECORD
  5
375
102
{ACAD_REACTORS
330
374
102
}
330
374
100
AcDbXrecord
280
     1
102
RTVSPost2010Prop28
280
     0
102
RTVSPost2010PropOp28
 70
     1
102
RTVSPost2010Prop29
280
     1
102
RTVSPost2010PropOp29
 70
     1
102
RTVSPost2010Prop30
280
     1
102
RTVSPost2010PropOp30
 70
     1
102
RTVSPost2010Prop31
280
     0
102
RTVSPost2010PropOp31
 70
     1
102
RTVSPost2010Prop32
280
     0
102
RTVSPost2010PropOp32
 70
     1
102
RTVSPost2010Prop33
280
     0
102
RTVSPost2010PropOp33
 70
     1
102
RTVSPost2010Prop34
280
     0
102
RTVSPost2010PropOp34
 70
     1
102
RTVSPost2010Prop35
280
     0
102
RTVSPost2010PropOp35
 70
     1
102
RTVSPost2010Prop36
280
     0
102
RTVSPost2010PropOp36
 70
     1
102
RTVSPost2010Prop37
 90
       50
102
RTVSPost2010PropOp37
 70
     1
102
RTVSPost2010Prop38
140
0.0
102
RTVSPost2010PropOp38
 70
     1
102
RTVSPost2010Prop39
140
1.0
102
RTVSPost2010PropOp39
 70
     1
102
RTVSPost2010Prop40
 90
        0
102
RTVSPost2010PropOp40
 70
     1
102
RTVSPost2010Prop41ColorIndex
 90
       18
102
RTVSPost2010Prop41ColorRGB
 90
        0
102
RTVSPost2010PropOp41
 70
     1
102
RTVSPost2010Prop42
 90
       50
102
RTVSPost2010PropOp42
 70
     1
102
RTVSPost2010Prop43
 90
        3
102
RTVSPost2010PropOp43
 70
     1
102
RTVSPost2010Prop44ColorIndex
 90
        5
102
RTVSPost2010Prop44ColorRGB
 90
      255
102
RTVSPost2010PropOp44
 70
     1
102
RTVSPost2010Prop45
280
     0
102
RTVSPost2010PropOp45
 70
     1
102
RTVSPost2010Prop46
 90
       50
102
RTVSPost2010PropOp46
 70
     1
102
RTVSPost2010Prop47
 90
       50
102
RTVSPost2010PropOp47
 70
     1
102
RTVSPost2010Prop48
 90
       50
102
RTVSPost2010PropOp48
 70
     1
102
RTVSPost2010Prop49
280
     0
102
RTVSPost2010PropOp49
 70
     1
102
RTVSPost2010Prop50
 90
       50
102
RTVSPost2010PropOp50
 70
     1
102
RTVSPost2010Prop51ColorIndex
 90
      256
102
RTVSPost2010Prop51ColorRGB
 90
-16777216
102
RTVSPost2010PropOp51
 70
     0
102
RTVSPost2010Prop52
140
1.0
102
RTVSPost2010PropOp52
 70
     0
102
RTVSPost2010Prop53
 90
        2
102
RTVSPost2010PropOp53
 70
     1
102
RTVSPost2010Prop54
  1
strokes_ogs.tif
102
RTVSPost2010PropOp54
 70
     1
102
RTVSPost2010Prop55
280
     0
102
RTVSPost2010PropOp55
 70
     1
102
RTVSPost2010Prop56
140
1.0
102
RTVSPost2010PropOp56
 70
     1
102
RTVSPost2010Prop57
140
1.0
102
RTVSPost2010PropOp57
 70
     1
102
RTVSPropertyOp0
 70
     1
102
RTVSPropertyOp1
 70
     1
102
RTVSPropertyOp2
 70
     1
102
RTVSPropertyOp3
 70
     1
102
RTVSPropertyOp4
 70
     1
102
RTVSPropertyOp5
 70
     1
102
RTVSPropertyOp6
 70
     1
102
RTVSPropertyOp7
 70
     1
102
RTVSPropertyOp8
 70
     1
102
RTVSPropertyOp9
 70
     1
102
RTVSPropertyOp10
 70
     1
102
RTVSPropertyOp11
 70
     1
102
RTVSPropertyOp12
 70
     1
102
RTVSPropertyOp13
 70
     1
102
RTVSPropertyOp14
 70
     1
102
RTVSPropertyOp15
 70
     1
102
RTVSPropertyOp16
 70
     1
102
RTVSPropertyOp17
 70
     1
102
RTVSPropertyOp18
 70
     1
102
RTVSPropertyOp19
 70
     1
102
RTVSPropertyOp20
 70
     1
102
RTVSPropertyOp21
 70
     1
102
RTVSPropertyOp22
 70
     1
102
RTVSPropertyOp23
 70
     1
102
RTVSPropertyOp24
 70
     1
102
RTVSPropertyOp25
 70
     1
102
RTVSPropertyOp26
 70
     1
102
RTVSPropertyOp27
 70
     1
102
RTVSPropertyOp28
 70
     1
102
RTVSPropertyOp29
 70
     1
102
RTVSPropertyOp30
 70
     1
102
RTVSPropertyOp31
 70
     1
102
RTVSPropertyOp32
 70
     1
102
RTVSPropertyOp33
 70
     1
102
RTVSPropertyOp34
 70
     1
102
RTVSPropertyOp35
 70
     1
102
RTVSPropertyOp36
 70
     1
102
RTVSPropertyOp37
 70
     1
102
RTVSPropertyOp38
 70
     1
102
RTVSPropertyOp39
 70
     1
102
RTVSPropertyOp40
 70
     1
102
RTVSPropertyOp41
 70
     1
102
RTVSPropertyOp42
 70
     1
102
RTVSPropertyOp43
 70
     1
102
RTVSPropertyOp44
 70
     1
102
RTVSPropertyOp45
 70
     1
102
RTVSPropertyOp46
 70
     1
102
RTVSPropertyOp47
 70
     1
102
RTVSPropertyOp48
 70
     1
102
RTVSPropertyOp49
 70
     1
102
RTVSPropertyOp50
 70
     1
102
RTVSPropertyOp51
 70
     0
102
RTVSPropertyOp52
 70
     0
102
RTVSPropertyOp53
 70
     1
102
RTVSPropertyOp54
 70
     1
102
RTVSPropertyOp55
 70
     1
102
RTVSPropertyOp56
 70
     1
102
RTVSPropertyOp57
 70
     1
102
RTVSPropertyOp58
 70
     1
102
RTVSPropertyOp59
 70
     1
102
RTVSPropertyOp60
 70
     1
102
RTVSPropertyOp61
 70
     1
102
RTVSPropertyOp62
 70
     1
  0
XRECORD
  5
389
102
{ACAD_REACTORS
330
388
102
}
330
388
100
AcDbXrecord
280
     1
102
RTVSPost2010Prop28
280
     0
102
RTVSPost2010PropOp28
 70
     0
102
RTVSPost2010Prop29
280
     1
102
RTVSPost2010PropOp29
 70
     0
102
RTVSPost2010Prop30
280
     1
102
RTVSPost2010PropOp30
 70
     0
102
RTVSPost2010Prop31
280
     0
102
RTVSPost2010PropOp31
 70
     0
102
RTVSPost2010Prop32
280
     0
102
RTVSPost2010PropOp32
 70
     0
102
RTVSPost2010Prop33
280
     0
102
RTVSPost2010PropOp33
 70
     0
102
RTVSPost2010Prop34
280
     0
102
RTVSPost2010PropOp34
 70
     0
102
RTVSPost2010Prop35
280
     0
102
RTVSPost2010PropOp35
 70
     0
102
RTVSPost2010Prop36
280
     0
102
RTVSPost2010PropOp36
 70
     0
102
RTVSPost2010Prop37
 90
       50
102
RTVSPost2010PropOp37
 70
     0
102
RTVSPost2010Prop38
140
0.0
102
RTVSPost2010PropOp38
 70
     0
102
RTVSPost2010Prop39
140
1.0
102
RTVSPost2010PropOp39
 70
     0
102
RTVSPost2010Prop40
 90
        0
102
RTVSPost2010PropOp40
 70
     0
102
RTVSPost2010Prop41ColorIndex
 90
       18
102
RTVSPost2010Prop41ColorRGB
 90
        0
102
RTVSPost2010PropOp41
 70
     0
102
RTVSPost2010Prop42
 90
       50
102
RTVSPost2010PropOp42
 70
     0
102
RTVSPost2010Prop43
 90
        3
102
RTVSPost2010PropOp43
 70
     0
102
RTVSPost2010Prop44ColorIndex
 90
        5
102
RTVSPost2010Prop44ColorRGB
 90
      255
102
RTVSPost2010PropOp44
 70
     0
102
RTVSPost2010Prop45
280
     0
102
RTVSPost2010PropOp45
 70
     0
102
RTVSPost2010Prop46
 90
       50
102
RTVSPost2010PropOp46
 70
     0
102
RTVSPost2010Prop47
 90
       50
102
RTVSPost2010PropOp47
 70
     0
102
RTVSPost2010Prop48
 90
       50
102
RTVSPost2010PropOp48
 70
     0
102
RTVSPost2010Prop49
280
     0
102
RTVSPost2010PropOp49
 70
     0
102
RTVSPost2010Prop50
 90
       50
102
RTVSPost2010PropOp50
 70
     0
102
RTVSPost2010Prop51ColorIndex
 90
      256
102
RTVSPost2010Prop51ColorRGB
 90
-16777216
102
RTVSPost2010PropOp51
 70
     0
102
RTVSPost2010Prop52
140
1.0
102
RTVSPost2010PropOp52
 70
     0
102
RTVSPost2010Prop53
 90
        2
102
RTVSPost2010PropOp53
 70
     0
102
RTVSPost2010Prop54
  1
strokes_ogs.tif
102
RTVSPost2010PropOp54
 70
     0
102
RTVSPost2010Prop55
280
     0
102
RTVSPost2010PropOp55
 70
     0
102
RTVSPost2010Prop56
140
1.0
102
RTVSPost2010PropOp56
 70
     0
102
RTVSPost2010Prop57
140
1.0
102
RTVSPost2010PropOp57
 70
     0
102
RTVSPropertyOp0
 70
     0
102
RTVSPropertyOp1
 70
     0
102
RTVSPropertyOp2
 70
     0
102
RTVSPropertyOp3
 70
     0
102
RTVSPropertyOp4
 70
     0
102
RTVSPropertyOp5
 70
     0
102
RTVSPropertyOp6
 70
     0
102
RTVSPropertyOp7
 70
     0
102
RTVSPropertyOp8
 70
     0
102
RTVSPropertyOp9
 70
     0
102
RTVSPropertyOp10
 70
     0
102
RTVSPropertyOp11
 70
     0
102
RTVSPropertyOp12
 70
     0
102
RTVSPropertyOp13
 70
     0
102
RTVSPropertyOp14
 70
     2
102
RTVSPropertyOp15
 70
     0
102
RTVSPropertyOp16
 70
     0
102
RTVSPropertyOp17
 70
     0
102
RTVSPropertyOp18
 70
     0
102
RTVSPropertyOp19
 70
     0
102
RTVSPropertyOp20
 70
     0
102
RTVSPropertyOp21
 70
     0
102
RTVSPropertyOp22
 70
     0
102
RTVSPropertyOp23
 70
     0
102
RTVSPropertyOp24
 70
     0
102
RTVSPropertyOp25
 70
     0
102
RTVSPropertyOp26
 70
     0
102
RTVSPropertyOp27
 70
     0
102
RTVSPropertyOp28
 70
     0
102
RTVSPropertyOp29
 70
     0
102
RTVSPropertyOp30
 70
     0
102
RTVSPropertyOp31
 70
     0
102
RTVSPropertyOp32
 70
     0
102
RTVSPropertyOp33
 70
     0
102
RTVSPropertyOp34
 70
     0
102
RTVSPropertyOp35
 70
     0
102
RTVSPropertyOp36
 70
     0
102
RTVSPropertyOp37
 70
     0
102
RTVSPropertyOp38
 70
     0
102
RTVSPropertyOp39
 70
     0
102
RTVSPropertyOp40
 70
     0
102
RTVSPropertyOp41
 70
     0
102
RTVSPropertyOp42
 70
     0
102
RTVSPropertyOp43
 70
     0
102
RTVSPropertyOp44
 70
     0
102
RTVSPropertyOp45
 70
     0
102
RTVSPropertyOp46
 70
     0
102
RTVSPropertyOp47
 70
     0
102
RTVSPropertyOp48
 70
     0
102
RTVSPropertyOp49
 70
     0
102
RTVSPropertyOp50
 70
     0
102
RTVSPropertyOp51
 70
     0
102
RTVSPropertyOp52
 70
     0
102
RTVSPropertyOp53
 70
     0
102
RTVSPropertyOp54
 70
     0
102
RTVSPropertyOp55
 70
     0
102
RTVSPropertyOp56
 70
     0
102
RTVSPropertyOp57
 70
     0
102
RTVSPropertyOp58
 70
     1
102
RTVSPropertyOp59
 70
     1
102
RTVSPropertyOp60
 70
     1
102
RTVSPropertyOp61
 70
     1
102
RTVSPropertyOp62
 70
     1
  0
XRECORD
  5
383
102
{ACAD_REACTORS
330
382
102
}
330
382
100
AcDbXrecord
280
     1
102
RTVSPost2010Prop28
280
     0
102
RTVSPost2010PropOp28
 70
     1
102
RTVSPost2010Prop29
280
     1
102
RTVSPost2010PropOp29
 70
     1
102
RTVSPost2010Prop30
280
     1
102
RTVSPost2010PropOp30
 70
     1
102
RTVSPost2010Prop31
280
     0
102
RTVSPost2010PropOp31
 70
     1
102
RTVSPost2010Prop32
280
     0
102
RTVSPost2010PropOp32
 70
     1
102
RTVSPost2010Prop33
280
     0
102
RTVSPost2010PropOp33
 70
     1
102
RTVSPost2010Prop34
280
     0
102
RTVSPost2010PropOp34
 70
     1
102
RTVSPost2010Prop35
280
     0
102
RTVSPost2010PropOp35
 70
     1
102
RTVSPost2010Prop36
280
     0
102
RTVSPost2010PropOp36
 70
     1
102
RTVSPost2010Prop37
 90
       50
102
RTVSPost2010PropOp37
 70
     1
102
RTVSPost2010Prop38
140
0.0
102
RTVSPost2010PropOp38
 70
     1
102
RTVSPost2010Prop39
140
1.0
102
RTVSPost2010PropOp39
 70
     1
102
RTVSPost2010Prop40
 90
        0
102
RTVSPost2010PropOp40
 70
     1
102
RTVSPost2010Prop41ColorIndex
 90
       18
102
RTVSPost2010Prop41ColorRGB
 90
        0
102
RTVSPost2010PropOp41
 70
     1
102
RTVSPost2010Prop42
 90
       50
102
RTVSPost2010PropOp42
 70
     1
102
RTVSPost2010Prop43
 90
        3
102
RTVSPost2010PropOp43
 70
     1
102
RTVSPost2010Prop44ColorIndex
 90
        5
102
RTVSPost2010Prop44ColorRGB
 90
      255
102
RTVSPost2010PropOp44
 70
     1
102
RTVSPost2010Prop45
280
     0
102
RTVSPost2010PropOp45
 70
     1
102
RTVSPost2010Prop46
 90
       50
102
RTVSPost2010PropOp46
 70
     1
102
RTVSPost2010Prop47
 90
       50
102
RTVSPost2010PropOp47
 70
     1
102
RTVSPost2010Prop48
 90
       50
102
RTVSPost2010PropOp48
 70
     1
102
RTVSPost2010Prop49
280
     0
102
RTVSPost2010PropOp49
 70
     1
102
RTVSPost2010Prop50
 90
       50
102
RTVSPost2010PropOp50
 70
     1
102
RTVSPost2010Prop51ColorIndex
 90
      256
102
RTVSPost2010Prop51ColorRGB
 90
-16777216
102
RTVSPost2010PropOp51
 70
     0
102
RTVSPost2010Prop52
140
1.0
102
RTVSPost2010PropOp52
 70
     0
102
RTVSPost2010Prop53
 90
        2
102
RTVSPost2010PropOp53
 70
     1
102
RTVSPost2010Prop54
  1
strokes_ogs.tif
102
RTVSPost2010PropOp54
 70
     1
102
RTVSPost2010Prop55
280
     0
102
RTVSPost2010PropOp55
 70
     1
102
RTVSPost2010Prop56
140
1.0
102
RTVSPost2010PropOp56
 70
     1
102
RTVSPost2010Prop57
140
1.0
102
RTVSPost2010PropOp57
 70
     1
102
RTVSPropertyOp0
 70
     1
102
RTVSPropertyOp1
 70
     1
102
RTVSPropertyOp2
 70
     1
102
RTVSPropertyOp3
 70
     1
102
RTVSPropertyOp4
 70
     1
102
RTVSPropertyOp5
 70
     1
102
RTVSPropertyOp6
 70
     1
102
RTVSPropertyOp7
 70
     1
102
RTVSPropertyOp8
 70
     1
102
RTVSPropertyOp9
 70
     1
102
RTVSPropertyOp10
 70
     1
102
RTVSPropertyOp11
 70
     1
102
RTVSPropertyOp12
 70
     1
102
RTVSPropertyOp13
 70
     1
102
RTVSPropertyOp14
 70
     1
102
RTVSPropertyOp15
 70
     1
102
RTVSPropertyOp16
 70
     1
102
RTVSPropertyOp17
 70
     1
102
RTVSPropertyOp18
 70
     1
102
RTVSPropertyOp19
 70
     1
102
RTVSPropertyOp20
 70
     1
102
RTVSPropertyOp21
 70
     1
102
RTVSPropertyOp22
 70
     1
102
RTVSPropertyOp23
 70
     1
102
RTVSPropertyOp24
 70
     1
102
RTVSPropertyOp25
 70
     1
102
RTVSPropertyOp26
 70
     1
102
RTVSPropertyOp27
 70
     1
102
RTVSPropertyOp28
 70
     1
102
RTVSPropertyOp29
 70
     1
102
RTVSPropertyOp30
 70
     1
102
RTVSPropertyOp31
 70
     1
102
RTVSPropertyOp32
 70
     1
102
RTVSPropertyOp33
 70
     1
102
RTVSPropertyOp34
 70
     1
102
RTVSPropertyOp35
 70
     1
102
RTVSPropertyOp36
 70
     1
102
RTVSPropertyOp37
 70
     1
102
RTVSPropertyOp38
 70
     1
102
RTVSPropertyOp39
 70
     1
102
RTVSPropertyOp40
 70
     1
102
RTVSPropertyOp41
 70
     1
102
RTVSPropertyOp42
 70
     1
102
RTVSPropertyOp43
 70
     1
102
RTVSPropertyOp44
 70
     1
102
RTVSPropertyOp45
 70
     1
102
RTVSPropertyOp46
 70
     1
102
RTVSPropertyOp47
 70
     1
102
RTVSPropertyOp48
 70
     1
102
RTVSPropertyOp49
 70
     1
102
RTVSPropertyOp50
 70
     1
102
RTVSPropertyOp51
 70
     0
102
RTVSPropertyOp52
 70
     0
102
RTVSPropertyOp53
 70
     1
102
RTVSPropertyOp54
 70
     1
102
RTVSPropertyOp55
 70
     1
102
RTVSPropertyOp56
 70
     1
102
RTVSPropertyOp57
 70
     1
102
RTVSPropertyOp58
 70
     1
102
RTVSPropertyOp59
 70
     1
102
RTVSPropertyOp60
 70
     1
102
RTVSPropertyOp61
 70
     1
102
RTVSPropertyOp62
 70
     1
  0
XRECORD
  5
38B
102
{ACAD_REACTORS
330
38A
102
}
330
38A
100
AcDbXrecord
280
     1
102
RTVSPost2010Prop28
280
     0
102
RTVSPost2010PropOp28
 70
     0
102
RTVSPost2010Prop29
280
     1
102
RTVSPost2010PropOp29
 70
     0
102
RTVSPost2010Prop30
280
     1
102
RTVSPost2010PropOp30
 70
     0
102
RTVSPost2010Prop31
280
     0
102
RTVSPost2010PropOp31
 70
     0
102
RTVSPost2010Prop32
280
     0
102
RTVSPost2010PropOp32
 70
     0
102
RTVSPost2010Prop33
280
     0
102
RTVSPost2010PropOp33
 70
     0
102
RTVSPost2010Prop34
280
     0
102
RTVSPost2010PropOp34
 70
     0
102
RTVSPost2010Prop35
280
     0
102
RTVSPost2010PropOp35
 70
     0
102
RTVSPost2010Prop36
280
     0
102
RTVSPost2010PropOp36
 70
     0
102
RTVSPost2010Prop37
 90
       50
102
RTVSPost2010PropOp37
 70
     0
102
RTVSPost2010Prop38
140
0.0
102
RTVSPost2010PropOp38
 70
     0
102
RTVSPost2010Prop39
140
1.0
102
RTVSPost2010PropOp39
 70
     0
102
RTVSPost2010Prop40
 90
        0
102
RTVSPost2010PropOp40
 70
     0
102
RTVSPost2010Prop41ColorIndex
 90
       18
102
RTVSPost2010Prop41ColorRGB
 90
        0
102
RTVSPost2010PropOp41
 70
     0
102
RTVSPost2010Prop42
 90
       50
102
RTVSPost2010PropOp42
 70
     0
102
RTVSPost2010Prop43
 90
        3
102
RTVSPost2010PropOp43
 70
     0
102
RTVSPost2010Prop44ColorIndex
 90
        5
102
RTVSPost2010Prop44ColorRGB
 90
      255
102
RTVSPost2010PropOp44
 70
     0
102
RTVSPost2010Prop45
280
     0
102
RTVSPost2010PropOp45
 70
     0
102
RTVSPost2010Prop46
 90
       50
102
RTVSPost2010PropOp46
 70
     0
102
RTVSPost2010Prop47
 90
       50
102
RTVSPost2010PropOp47
 70
     0
102
RTVSPost2010Prop48
 90
       50
102
RTVSPost2010PropOp48
 70
     0
102
RTVSPost2010Prop49
280
     0
102
RTVSPost2010PropOp49
 70
     0
102
RTVSPost2010Prop50
 90
       50
102
RTVSPost2010PropOp50
 70
     0
102
RTVSPost2010Prop51ColorIndex
 90
      256
102
RTVSPost2010Prop51ColorRGB
 90
-16777216
102
RTVSPost2010PropOp51
 70
     0
102
RTVSPost2010Prop52
140
1.0
102
RTVSPost2010PropOp52
 70
     0
102
RTVSPost2010Prop53
 90
        2
102
RTVSPost2010PropOp53
 70
     0
102
RTVSPost2010Prop54
  1
strokes_ogs.tif
102
RTVSPost2010PropOp54
 70
     0
102
RTVSPost2010Prop55
280
     0
102
RTVSPost2010PropOp55
 70
     0
102
RTVSPost2010Prop56
140
1.0
102
RTVSPost2010PropOp56
 70
     0
102
RTVSPost2010Prop57
140
1.0
102
RTVSPost2010PropOp57
 70
     0
102
RTVSPropertyOp0
 70
     0
102
RTVSPropertyOp1
 70
     0
102
RTVSPropertyOp2
 70
     0
102
RTVSPropertyOp3
 70
     0
102
RTVSPropertyOp4
 70
     0
102
RTVSPropertyOp5
 70
     0
102
RTVSPropertyOp6
 70
     0
102
RTVSPropertyOp7
 70
     0
102
RTVSPropertyOp8
 70
     0
102
RTVSPropertyOp9
 70
     0
102
RTVSPropertyOp10
 70
     0
102
RTVSPropertyOp11
 70
     0
102
RTVSPropertyOp12
 70
     0
102
RTVSPropertyOp13
 70
     0
102
RTVSPropertyOp14
 70
     2
102
RTVSPropertyOp15
 70
     0
102
RTVSPropertyOp16
 70
     0
102
RTVSPropertyOp17
 70
     0
102
RTVSPropertyOp18
 70
     0
102
RTVSPropertyOp19
 70
     0
102
RTVSPropertyOp20
 70
     0
102
RTVSPropertyOp21
 70
     0
102
RTVSPropertyOp22
 70
     0
102
RTVSPropertyOp23
 70
     0
102
RTVSPropertyOp24
 70
     0
102
RTVSPropertyOp25
 70
     0
102
RTVSPropertyOp26
 70
     0
102
RTVSPropertyOp27
 70
     0
102
RTVSPropertyOp28
 70
     0
102
RTVSPropertyOp29
 70
     0
102
RTVSPropertyOp30
 70
     0
102
RTVSPropertyOp31
 70
     0
102
RTVSPropertyOp32
 70
     0
102
RTVSPropertyOp33
 70
     0
102
RTVSPropertyOp34
 70
     0
102
RTVSPropertyOp35
 70
     0
102
RTVSPropertyOp36
 70
     0
102
RTVSPropertyOp37
 70
     0
102
RTVSPropertyOp38
 70
     0
102
RTVSPropertyOp39
 70
     0
102
RTVSPropertyOp40
 70
     0
102
RTVSPropertyOp41
 70
     0
102
RTVSPropertyOp42
 70
     0
102
RTVSPropertyOp43
 70
     0
102
RTVSPropertyOp44
 70
     0
102
RTVSPropertyOp45
 70
     0
102
RTVSPropertyOp46
 70
     0
102
RTVSPropertyOp47
 70
     0
102
RTVSPropertyOp48
 70
     0
102
RTVSPropertyOp49
 70
     0
102
RTVSPropertyOp50
 70
     0
102
RTVSPropertyOp51
 70
     0
102
RTVSPropertyOp52
 70
     0
102
RTVSPropertyOp53
 70
     0
102
RTVSPropertyOp54
 70
     0
102
RTVSPropertyOp55
 70
     0
102
RTVSPropertyOp56
 70
     0
102
RTVSPropertyOp57
 70
     0
102
RTVSPropertyOp58
 70
     1
102
RTVSPropertyOp59
 70
     1
102
RTVSPropertyOp60
 70
     1
102
RTVSPropertyOp61
 70
     1
102
RTVSPropertyOp62
 70
     1
  0
XRECORD
  5
379
102
{ACAD_REACTORS
330
378
102
}
330
378
100
AcDbXrecord
280
     1
102
RTVSPost2010Prop28
280
     0
102
RTVSPost2010PropOp28
 70
     1
102
RTVSPost2010Prop29
280
     1
102
RTVSPost2010PropOp29
 70
     1
102
RTVSPost2010Prop30
280
     1
102
RTVSPost2010PropOp30
 70
     1
102
RTVSPost2010Prop31
280
     0
102
RTVSPost2010PropOp31
 70
     1
102
RTVSPost2010Prop32
280
     0
102
RTVSPost2010PropOp32
 70
     1
102
RTVSPost2010Prop33
280
     0
102
RTVSPost2010PropOp33
 70
     1
102
RTVSPost2010Prop34
280
     0
102
RTVSPost2010PropOp34
 70
     1
102
RTVSPost2010Prop35
280
     0
102
RTVSPost2010PropOp35
 70
     1
102
RTVSPost2010Prop36
280
     0
102
RTVSPost2010PropOp36
 70
     1
102
RTVSPost2010Prop37
 90
       50
102
RTVSPost2010PropOp37
 70
     1
102
RTVSPost2010Prop38
140
0.0
102
RTVSPost2010PropOp38
 70
     1
102
RTVSPost2010Prop39
140
1.0
102
RTVSPost2010PropOp39
 70
     1
102
RTVSPost2010Prop40
 90
        0
102
RTVSPost2010PropOp40
 70
     1
102
RTVSPost2010Prop41ColorIndex
 90
       18
102
RTVSPost2010Prop41ColorRGB
 90
        0
102
RTVSPost2010PropOp41
 70
     1
102
RTVSPost2010Prop42
 90
       50
102
RTVSPost2010PropOp42
 70
     1
102
RTVSPost2010Prop43
 90
        3
102
RTVSPost2010PropOp43
 70
     1
102
RTVSPost2010Prop44ColorIndex
 90
        5
102
RTVSPost2010Prop44ColorRGB
 90
      255
102
RTVSPost2010PropOp44
 70
     1
102
RTVSPost2010Prop45
280
     0
102
RTVSPost2010PropOp45
 70
     1
102
RTVSPost2010Prop46
 90
       50
102
RTVSPost2010PropOp46
 70
     1
102
RTVSPost2010Prop47
 90
       50
102
RTVSPost2010PropOp47
 70
     1
102
RTVSPost2010Prop48
 90
       50
102
RTVSPost2010PropOp48
 70
     1
102
RTVSPost2010Prop49
280
     0
102
RTVSPost2010PropOp49
 70
     1
102
RTVSPost2010Prop50
 90
       50
102
RTVSPost2010PropOp50
 70
     1
102
RTVSPost2010Prop51ColorIndex
 90
      256
102
RTVSPost2010Prop51ColorRGB
 90
-16777216
102
RTVSPost2010PropOp51
 70
     0
102
RTVSPost2010Prop52
140
1.0
102
RTVSPost2010PropOp52
 70
     0
102
RTVSPost2010Prop53
 90
        2
102
RTVSPost2010PropOp53
 70
     1
102
RTVSPost2010Prop54
  1
strokes_ogs.tif
102
RTVSPost2010PropOp54
 70
     1
102
RTVSPost2010Prop55
280
     0
102
RTVSPost2010PropOp55
 70
     1
102
RTVSPost2010Prop56
140
1.0
102
RTVSPost2010PropOp56
 70
     1
102
RTVSPost2010Prop57
140
1.0
102
RTVSPost2010PropOp57
 70
     1
102
RTVSPropertyOp0
 70
     1
102
RTVSPropertyOp1
 70
     1
102
RTVSPropertyOp2
 70
     1
102
RTVSPropertyOp3
 70
     1
102
RTVSPropertyOp4
 70
     1
102
RTVSPropertyOp5
 70
     1
102
RTVSPropertyOp6
 70
     1
102
RTVSPropertyOp7
 70
     1
102
RTVSPropertyOp8
 70
     1
102
RTVSPropertyOp9
 70
     1
102
RTVSPropertyOp10
 70
     1
102
RTVSPropertyOp11
 70
     1
102
RTVSPropertyOp12
 70
     1
102
RTVSPropertyOp13
 70
     1
102
RTVSPropertyOp14
 70
     1
102
RTVSPropertyOp15
 70
     1
102
RTVSPropertyOp16
 70
     1
102
RTVSPropertyOp17
 70
     1
102
RTVSPropertyOp18
 70
     1
102
RTVSPropertyOp19
 70
     1
102
RTVSPropertyOp20
 70
     1
102
RTVSPropertyOp21
 70
     1
102
RTVSPropertyOp22
 70
     1
102
RTVSPropertyOp23
 70
     1
102
RTVSPropertyOp24
 70
     1
102
RTVSPropertyOp25
 70
     1
102
RTVSPropertyOp26
 70
     1
102
RTVSPropertyOp27
 70
     1
102
RTVSPropertyOp28
 70
     1
102
RTVSPropertyOp29
 70
     1
102
RTVSPropertyOp30
 70
     1
102
RTVSPropertyOp31
 70
     1
102
RTVSPropertyOp32
 70
     1
102
RTVSPropertyOp33
 70
     1
102
RTVSPropertyOp34
 70
     1
102
RTVSPropertyOp35
 70
     1
102
RTVSPropertyOp36
 70
     1
102
RTVSPropertyOp37
 70
     1
102
RTVSPropertyOp38
 70
     1
102
RTVSPropertyOp39
 70
     1
102
RTVSPropertyOp40
 70
     1
102
RTVSPropertyOp41
 70
     1
102
RTVSPropertyOp42
 70
     1
102
RTVSPropertyOp43
 70
     1
102
RTVSPropertyOp44
 70
     1
102
RTVSPropertyOp45
 70
     1
102
RTVSPropertyOp46
 70
     1
102
RTVSPropertyOp47
 70
     1
102
RTVSPropertyOp48
 70
     1
102
RTVSPropertyOp49
 70
     1
102
RTVSPropertyOp50
 70
     1
102
RTVSPropertyOp51
 70
     0
102
RTVSPropertyOp52
 70
     0
102
RTVSPropertyOp53
 70
     1
102
RTVSPropertyOp54
 70
     1
102
RTVSPropertyOp55
 70
     1
102
RTVSPropertyOp56
 70
     1
102
RTVSPropertyOp57
 70
     1
102
RTVSPropertyOp58
 70
     1
102
RTVSPropertyOp59
 70
     1
102
RTVSPropertyOp60
 70
     1
102
RTVSPropertyOp61
 70
     1
102
RTVSPropertyOp62
 70
     1
  0
XRECORD
  5
397
102
{ACAD_REACTORS
330
396
102
}
330
396
100
AcDbXrecord
280
     1
102
RTVSPost2010Prop28
280
     0
102
RTVSPost2010PropOp28
 70
     1
102
RTVSPost2010Prop29
280
     1
102
RTVSPost2010PropOp29
 70
     1
102
RTVSPost2010Prop30
280
     1
102
RTVSPost2010PropOp30
 70
     1
102
RTVSPost2010Prop31
280
     0
102
RTVSPost2010PropOp31
 70
     1
102
RTVSPost2010Prop32
280
     0
102
RTVSPost2010PropOp32
 70
     1
102
RTVSPost2010Prop33
280
     0
102
RTVSPost2010PropOp33
 70
     1
102
RTVSPost2010Prop34
280
     0
102
RTVSPost2010PropOp34
 70
     1
102
RTVSPost2010Prop35
280
     0
102
RTVSPost2010PropOp35
 70
     1
102
RTVSPost2010Prop36
280
     0
102
RTVSPost2010PropOp36
 70
     1
102
RTVSPost2010Prop37
 90
       50
102
RTVSPost2010PropOp37
 70
     1
102
RTVSPost2010Prop38
140
0.0
102
RTVSPost2010PropOp38
 70
     1
102
RTVSPost2010Prop39
140
1.0
102
RTVSPost2010PropOp39
 70
     1
102
RTVSPost2010Prop40
 90
        0
102
RTVSPost2010PropOp40
 70
     1
102
RTVSPost2010Prop41ColorIndex
 90
       18
102
RTVSPost2010Prop41ColorRGB
 90
        0
102
RTVSPost2010PropOp41
 70
     1
102
RTVSPost2010Prop42
 90
       50
102
RTVSPost2010PropOp42
 70
     1
102
RTVSPost2010Prop43
 90
        3
102
RTVSPost2010PropOp43
 70
     1
102
RTVSPost2010Prop44ColorIndex
 90
        5
102
RTVSPost2010Prop44ColorRGB
 90
      255
102
RTVSPost2010PropOp44
 70
     1
102
RTVSPost2010Prop45
280
     0
102
RTVSPost2010PropOp45
 70
     1
102
RTVSPost2010Prop46
 90
       50
102
RTVSPost2010PropOp46
 70
     1
102
RTVSPost2010Prop47
 90
       50
102
RTVSPost2010PropOp47
 70
     1
102
RTVSPost2010Prop48
 90
       50
102
RTVSPost2010PropOp48
 70
     1
102
RTVSPost2010Prop49
280
     0
102
RTVSPost2010PropOp49
 70
     1
102
RTVSPost2010Prop50
 90
       50
102
RTVSPost2010PropOp50
 70
     1
102
RTVSPost2010Prop51ColorIndex
 90
      256
102
RTVSPost2010Prop51ColorRGB
 90
-16777216
102
RTVSPost2010PropOp51
 70
     0
102
RTVSPost2010Prop52
140
1.0
102
RTVSPost2010PropOp52
 70
     0
102
RTVSPost2010Prop53
 90
        2
102
RTVSPost2010PropOp53
 70
     1
102
RTVSPost2010Prop54
  1
strokes_ogs.tif
102
RTVSPost2010PropOp54
 70
     1
102
RTVSPost2010Prop55
280
     0
102
RTVSPost2010PropOp55
 70
     1
102
RTVSPost2010Prop56
140
1.0
102
RTVSPost2010PropOp56
 70
     1
102
RTVSPost2010Prop57
140
1.0
102
RTVSPost2010PropOp57
 70
     1
102
RTVSPropertyOp0
 70
     1
102
RTVSPropertyOp1
 70
     1
102
RTVSPropertyOp2
 70
     1
102
RTVSPropertyOp3
 70
     1
102
RTVSPropertyOp4
 70
     1
102
RTVSPropertyOp5
 70
     1
102
RTVSPropertyOp6
 70
     1
102
RTVSPropertyOp7
 70
     1
102
RTVSPropertyOp8
 70
     1
102
RTVSPropertyOp9
 70
     1
102
RTVSPropertyOp10
 70
     1
102
RTVSPropertyOp11
 70
     1
102
RTVSPropertyOp12
 70
     1
102
RTVSPropertyOp13
 70
     1
102
RTVSPropertyOp14
 70
     1
102
RTVSPropertyOp15
 70
     1
102
RTVSPropertyOp16
 70
     1
102
RTVSPropertyOp17
 70
     1
102
RTVSPropertyOp18
 70
     1
102
RTVSPropertyOp19
 70
     1
102
RTVSPropertyOp20
 70
     1
102
RTVSPropertyOp21
 70
     1
102
RTVSPropertyOp22
 70
     1
102
RTVSPropertyOp23
 70
     1
102
RTVSPropertyOp24
 70
     1
102
RTVSPropertyOp25
 70
     1
102
RTVSPropertyOp26
 70
     1
102
RTVSPropertyOp27
 70
     1
102
RTVSPropertyOp28
 70
     1
102
RTVSPropertyOp29
 70
     1
102
RTVSPropertyOp30
 70
     1
102
RTVSPropertyOp31
 70
     1
102
RTVSPropertyOp32
 70
     1
102
RTVSPropertyOp33
 70
     1
102
RTVSPropertyOp34
 70
     1
102
RTVSPropertyOp35
 70
     1
102
RTVSPropertyOp36
 70
     1
102
RTVSPropertyOp37
 70
     1
102
RTVSPropertyOp38
 70
     1
102
RTVSPropertyOp39
 70
     1
102
RTVSPropertyOp40
 70
     1
102
RTVSPropertyOp41
 70
     1
102
RTVSPropertyOp42
 70
     1
102
RTVSPropertyOp43
 70
     1
102
RTVSPropertyOp44
 70
     1
102
RTVSPropertyOp45
 70
     1
102
RTVSPropertyOp46
 70
     1
102
RTVSPropertyOp47
 70
     1
102
RTVSPropertyOp48
 70
     1
102
RTVSPropertyOp49
 70
     1
102
RTVSPropertyOp50
 70
     1
102
RTVSPropertyOp51
 70
     0
102
RTVSPropertyOp52
 70
     0
102
RTVSPropertyOp53
 70
     1
102
RTVSPropertyOp54
 70
     1
102
RTVSPropertyOp55
 70
     1
102
RTVSPropertyOp56
 70
     1
102
RTVSPropertyOp57
 70
     1
102
RTVSPropertyOp58
 70
     1
102
RTVSPropertyOp59
 70
     1
102
RTVSPropertyOp60
 70
     1
102
RTVSPropertyOp61
 70
     1
102
RTVSPropertyOp62
 70
     1
  0
XRECORD
  5
395
102
{ACAD_REACTORS
330
394
102
}
330
394
100
AcDbXrecord
280
     1
102
RTVSPost2010Prop28
280
     0
102
RTVSPost2010PropOp28
 70
     1
102
RTVSPost2010Prop29
280
     1
102
RTVSPost2010PropOp29
 70
     1
102
RTVSPost2010Prop30
280
     1
102
RTVSPost2010PropOp30
 70
     1
102
RTVSPost2010Prop31
280
     0
102
RTVSPost2010PropOp31
 70
     1
102
RTVSPost2010Prop32
280
     0
102
RTVSPost2010PropOp32
 70
     1
102
RTVSPost2010Prop33
280
     0
102
RTVSPost2010PropOp33
 70
     1
102
RTVSPost2010Prop34
280
     0
102
RTVSPost2010PropOp34
 70
     1
102
RTVSPost2010Prop35
280
     0
102
RTVSPost2010PropOp35
 70
     1
102
RTVSPost2010Prop36
280
     0
102
RTVSPost2010PropOp36
 70
     1
102
RTVSPost2010Prop37
 90
       50
102
RTVSPost2010PropOp37
 70
     1
102
RTVSPost2010Prop38
140
0.0
102
RTVSPost2010PropOp38
 70
     1
102
RTVSPost2010Prop39
140
1.0
102
RTVSPost2010PropOp39
 70
     1
102
RTVSPost2010Prop40
 90
        0
102
RTVSPost2010PropOp40
 70
     1
102
RTVSPost2010Prop41ColorIndex
 90
       18
102
RTVSPost2010Prop41ColorRGB
 90
        0
102
RTVSPost2010PropOp41
 70
     1
102
RTVSPost2010Prop42
 90
       50
102
RTVSPost2010PropOp42
 70
     1
102
RTVSPost2010Prop43
 90
        3
102
RTVSPost2010PropOp43
 70
     1
102
RTVSPost2010Prop44ColorIndex
 90
        5
102
RTVSPost2010Prop44ColorRGB
 90
      255
102
RTVSPost2010PropOp44
 70
     1
102
RTVSPost2010Prop45
280
     0
102
RTVSPost2010PropOp45
 70
     1
102
RTVSPost2010Prop46
 90
       50
102
RTVSPost2010PropOp46
 70
     1
102
RTVSPost2010Prop47
 90
       50
102
RTVSPost2010PropOp47
 70
     1
102
RTVSPost2010Prop48
 90
       50
102
RTVSPost2010PropOp48
 70
     1
102
RTVSPost2010Prop49
280
     0
102
RTVSPost2010PropOp49
 70
     1
102
RTVSPost2010Prop50
 90
       50
102
RTVSPost2010PropOp50
 70
     1
102
RTVSPost2010Prop51ColorIndex
 90
      256
102
RTVSPost2010Prop51ColorRGB
 90
-16777216
102
RTVSPost2010PropOp51
 70
     0
102
RTVSPost2010Prop52
140
1.0
102
RTVSPost2010PropOp52
 70
     0
102
RTVSPost2010Prop53
 90
        2
102
RTVSPost2010PropOp53
 70
     1
102
RTVSPost2010Prop54
  1
strokes_ogs.tif
102
RTVSPost2010PropOp54
 70
     1
102
RTVSPost2010Prop55
280
     0
102
RTVSPost2010PropOp55
 70
     1
102
RTVSPost2010Prop56
140
1.0
102
RTVSPost2010PropOp56
 70
     1
102
RTVSPost2010Prop57
140
1.0
102
RTVSPost2010PropOp57
 70
     1
102
RTVSPropertyOp0
 70
     1
102
RTVSPropertyOp1
 70
     1
102
RTVSPropertyOp2
 70
     1
102
RTVSPropertyOp3
 70
     1
102
RTVSPropertyOp4
 70
     1
102
RTVSPropertyOp5
 70
     1
102
RTVSPropertyOp6
 70
     1
102
RTVSPropertyOp7
 70
     1
102
RTVSPropertyOp8
 70
     1
102
RTVSPropertyOp9
 70
     1
102
RTVSPropertyOp10
 70
     1
102
RTVSPropertyOp11
 70
     1
102
RTVSPropertyOp12
 70
     1
102
RTVSPropertyOp13
 70
     1
102
RTVSPropertyOp14
 70
     1
102
RTVSPropertyOp15
 70
     1
102
RTVSPropertyOp16
 70
     1
102
RTVSPropertyOp17
 70
     1
102
RTVSPropertyOp18
 70
     1
102
RTVSPropertyOp19
 70
     1
102
RTVSPropertyOp20
 70
     1
102
RTVSPropertyOp21
 70
     1
102
RTVSPropertyOp22
 70
     1
102
RTVSPropertyOp23
 70
     1
102
RTVSPropertyOp24
 70
     1
102
RTVSPropertyOp25
 70
     1
102
RTVSPropertyOp26
 70
     1
102
RTVSPropertyOp27
 70
     1
102
RTVSPropertyOp28
 70
     1
102
RTVSPropertyOp29
 70
     1
102
RTVSPropertyOp30
 70
     1
102
RTVSPropertyOp31
 70
     1
102
RTVSPropertyOp32
 70
     1
102
RTVSPropertyOp33
 70
     1
102
RTVSPropertyOp34
 70
     1
102
RTVSPropertyOp35
 70
     1
102
RTVSPropertyOp36
 70
     1
102
RTVSPropertyOp37
 70
     1
102
RTVSPropertyOp38
 70
     1
102
RTVSPropertyOp39
 70
     1
102
RTVSPropertyOp40
 70
     1
102
RTVSPropertyOp41
 70
     1
102
RTVSPropertyOp42
 70
     1
102
RTVSPropertyOp43
 70
     1
102
RTVSPropertyOp44
 70
     1
102
RTVSPropertyOp45
 70
     1
102
RTVSPropertyOp46
 70
     1
102
RTVSPropertyOp47
 70
     1
102
RTVSPropertyOp48
 70
     1
102
RTVSPropertyOp49
 70
     1
102
RTVSPropertyOp50
 70
     1
102
RTVSPropertyOp51
 70
     0
102
RTVSPropertyOp52
 70
     0
102
RTVSPropertyOp53
 70
     1
102
RTVSPropertyOp54
 70
     1
102
RTVSPropertyOp55
 70
     1
102
RTVSPropertyOp56
 70
     1
102
RTVSPropertyOp57
 70
     1
102
RTVSPropertyOp58
 70
     1
102
RTVSPropertyOp59
 70
     1
102
RTVSPropertyOp60
 70
     1
102
RTVSPropertyOp61
 70
     1
102
RTVSPropertyOp62
 70
     1
  0
XRECORD
  5
38F
102
{ACAD_REACTORS
330
38E
102
}
330
38E
100
AcDbXrecord
280
     1
102
RTVSPost2010Prop28
280
     0
102
RTVSPost2010PropOp28
 70
     1
102
RTVSPost2010Prop29
280
     1
102
RTVSPost2010PropOp29
 70
     1
102
RTVSPost2010Prop30
280
     1
102
RTVSPost2010PropOp30
 70
     1
102
RTVSPost2010Prop31
280
     0
102
RTVSPost2010PropOp31
 70
     1
102
RTVSPost2010Prop32
280
     0
102
RTVSPost2010PropOp32
 70
     1
102
RTVSPost2010Prop33
280
     0
102
RTVSPost2010PropOp33
 70
     1
102
RTVSPost2010Prop34
280
     0
102
RTVSPost2010PropOp34
 70
     1
102
RTVSPost2010Prop35
280
     0
102
RTVSPost2010PropOp35
 70
     1
102
RTVSPost2010Prop36
280
     0
102
RTVSPost2010PropOp36
 70
     1
102
RTVSPost2010Prop37
 90
       50
102
RTVSPost2010PropOp37
 70
     1
102
RTVSPost2010Prop38
140
0.0
102
RTVSPost2010PropOp38
 70
     1
102
RTVSPost2010Prop39
140
1.0
102
RTVSPost2010PropOp39
 70
     1
102
RTVSPost2010Prop40
 90
        0
102
RTVSPost2010PropOp40
 70
     1
102
RTVSPost2010Prop41ColorIndex
 90
       18
102
RTVSPost2010Prop41ColorRGB
 90
        0
102
RTVSPost2010PropOp41
 70
     1
102
RTVSPost2010Prop42
 90
       50
102
RTVSPost2010PropOp42
 70
     1
102
RTVSPost2010Prop43
 90
        3
102
RTVSPost2010PropOp43
 70
     1
102
RTVSPost2010Prop44ColorIndex
 90
        5
102
RTVSPost2010Prop44ColorRGB
 90
      255
102
RTVSPost2010PropOp44
 70
     1
102
RTVSPost2010Prop45
280
     0
102
RTVSPost2010PropOp45
 70
     1
102
RTVSPost2010Prop46
 90
       50
102
RTVSPost2010PropOp46
 70
     1
102
RTVSPost2010Prop47
 90
       50
102
RTVSPost2010PropOp47
 70
     1
102
RTVSPost2010Prop48
 90
       50
102
RTVSPost2010PropOp48
 70
     1
102
RTVSPost2010Prop49
280
     0
102
RTVSPost2010PropOp49
 70
     1
102
RTVSPost2010Prop50
 90
       50
102
RTVSPost2010PropOp50
 70
     1
102
RTVSPost2010Prop51ColorIndex
 90
      256
102
RTVSPost2010Prop51ColorRGB
 90
-16777216
102
RTVSPost2010PropOp51
 70
     0
102
RTVSPost2010Prop52
140
1.0
102
RTVSPost2010PropOp52
 70
     0
102
RTVSPost2010Prop53
 90
        2
102
RTVSPost2010PropOp53
 70
     1
102
RTVSPost2010Prop54
  1
strokes_ogs.tif
102
RTVSPost2010PropOp54
 70
     1
102
RTVSPost2010Prop55
280
     0
102
RTVSPost2010PropOp55
 70
     1
102
RTVSPost2010Prop56
140
1.0
102
RTVSPost2010PropOp56
 70
     1
102
RTVSPost2010Prop57
140
1.0
102
RTVSPost2010PropOp57
 70
     1
102
RTVSPropertyOp0
 70
     1
102
RTVSPropertyOp1
 70
     1
102
RTVSPropertyOp2
 70
     1
102
RTVSPropertyOp3
 70
     1
102
RTVSPropertyOp4
 70
     1
102
RTVSPropertyOp5
 70
     1
102
RTVSPropertyOp6
 70
     1
102
RTVSPropertyOp7
 70
     1
102
RTVSPropertyOp8
 70
     1
102
RTVSPropertyOp9
 70
     1
102
RTVSPropertyOp10
 70
     1
102
RTVSPropertyOp11
 70
     1
102
RTVSPropertyOp12
 70
     1
102
RTVSPropertyOp13
 70
     1
102
RTVSPropertyOp14
 70
     1
102
RTVSPropertyOp15
 70
     1
102
RTVSPropertyOp16
 70
     1
102
RTVSPropertyOp17
 70
     1
102
RTVSPropertyOp18
 70
     1
102
RTVSPropertyOp19
 70
     1
102
RTVSPropertyOp20
 70
     1
102
RTVSPropertyOp21
 70
     1
102
RTVSPropertyOp22
 70
     1
102
RTVSPropertyOp23
 70
     1
102
RTVSPropertyOp24
 70
     1
102
RTVSPropertyOp25
 70
     1
102
RTVSPropertyOp26
 70
     1
102
RTVSPropertyOp27
 70
     1
102
RTVSPropertyOp28
 70
     1
102
RTVSPropertyOp29
 70
     1
102
RTVSPropertyOp30
 70
     1
102
RTVSPropertyOp31
 70
     1
102
RTVSPropertyOp32
 70
     1
102
RTVSPropertyOp33
 70
     1
102
RTVSPropertyOp34
 70
     1
102
RTVSPropertyOp35
 70
     1
102
RTVSPropertyOp36
 70
     1
102
RTVSPropertyOp37
 70
     1
102
RTVSPropertyOp38
 70
     1
102
RTVSPropertyOp39
 70
     1
102
RTVSPropertyOp40
 70
     1
102
RTVSPropertyOp41
 70
     1
102
RTVSPropertyOp42
 70
     1
102
RTVSPropertyOp43
 70
     1
102
RTVSPropertyOp44
 70
     1
102
RTVSPropertyOp45
 70
     1
102
RTVSPropertyOp46
 70
     1
102
RTVSPropertyOp47
 70
     1
102
RTVSPropertyOp48
 70
     1
102
RTVSPropertyOp49
 70
     1
102
RTVSPropertyOp50
 70
     1
102
RTVSPropertyOp51
 70
     0
102
RTVSPropertyOp52
 70
     0
102
RTVSPropertyOp53
 70
     1
102
RTVSPropertyOp54
 70
     1
102
RTVSPropertyOp55
 70
     1
102
RTVSPropertyOp56
 70
     1
102
RTVSPropertyOp57
 70
     1
102
RTVSPropertyOp58
 70
     1
102
RTVSPropertyOp59
 70
     1
102
RTVSPropertyOp60
 70
     1
102
RTVSPropertyOp61
 70
     1
102
RTVSPropertyOp62
 70
     1
  0
XRECORD
  5
391
102
{ACAD_REACTORS
330
390
102
}
330
390
100
AcDbXrecord
280
     1
102
RTVSPost2010Prop28
280
     0
102
RTVSPost2010PropOp28
 70
     1
102
RTVSPost2010Prop29
280
     1
102
RTVSPost2010PropOp29
 70
     1
102
RTVSPost2010Prop30
280
     1
102
RTVSPost2010PropOp30
 70
     1
102
RTVSPost2010Prop31
280
     0
102
RTVSPost2010PropOp31
 70
     1
102
RTVSPost2010Prop32
280
     0
102
RTVSPost2010PropOp32
 70
     1
102
RTVSPost2010Prop33
280
     0
102
RTVSPost2010PropOp33
 70
     1
102
RTVSPost2010Prop34
280
     0
102
RTVSPost2010PropOp34
 70
     1
102
RTVSPost2010Prop35
280
     0
102
RTVSPost2010PropOp35
 70
     1
102
RTVSPost2010Prop36
280
     0
102
RTVSPost2010PropOp36
 70
     1
102
RTVSPost2010Prop37
 90
       50
102
RTVSPost2010PropOp37
 70
     1
102
RTVSPost2010Prop38
140
0.0
102
RTVSPost2010PropOp38
 70
     1
102
RTVSPost2010Prop39
140
1.0
102
RTVSPost2010PropOp39
 70
     1
102
RTVSPost2010Prop40
 90
        0
102
RTVSPost2010PropOp40
 70
     1
102
RTVSPost2010Prop41ColorIndex
 90
       18
102
RTVSPost2010Prop41ColorRGB
 90
        0
102
RTVSPost2010PropOp41
 70
     1
102
RTVSPost2010Prop42
 90
       50
102
RTVSPost2010PropOp42
 70
     1
102
RTVSPost2010Prop43
 90
        3
102
RTVSPost2010PropOp43
 70
     1
102
RTVSPost2010Prop44ColorIndex
 90
        5
102
RTVSPost2010Prop44ColorRGB
 90
      255
102
RTVSPost2010PropOp44
 70
     1
102
RTVSPost2010Prop45
280
     0
102
RTVSPost2010PropOp45
 70
     1
102
RTVSPost2010Prop46
 90
       50
102
RTVSPost2010PropOp46
 70
     1
102
RTVSPost2010Prop47
 90
       50
102
RTVSPost2010PropOp47
 70
     1
102
RTVSPost2010Prop48
 90
       50
102
RTVSPost2010PropOp48
 70
     1
102
RTVSPost2010Prop49
280
     0
102
RTVSPost2010PropOp49
 70
     1
102
RTVSPost2010Prop50
 90
       50
102
RTVSPost2010PropOp50
 70
     1
102
RTVSPost2010Prop51ColorIndex
 90
      256
102
RTVSPost2010Prop51ColorRGB
 90
-16777216
102
RTVSPost2010PropOp51
 70
     0
102
RTVSPost2010Prop52
140
1.0
102
RTVSPost2010PropOp52
 70
     0
102
RTVSPost2010Prop53
 90
        2
102
RTVSPost2010PropOp53
 70
     1
102
RTVSPost2010Prop54
  1
strokes_ogs.tif
102
RTVSPost2010PropOp54
 70
     1
102
RTVSPost2010Prop55
280
     0
102
RTVSPost2010PropOp55
 70
     1
102
RTVSPost2010Prop56
140
1.0
102
RTVSPost2010PropOp56
 70
     1
102
RTVSPost2010Prop57
140
1.0
102
RTVSPost2010PropOp57
 70
     1
102
RTVSPropertyOp0
 70
     1
102
RTVSPropertyOp1
 70
     1
102
RTVSPropertyOp2
 70
     1
102
RTVSPropertyOp3
 70
     1
102
RTVSPropertyOp4
 70
     1
102
RTVSPropertyOp5
 70
     1
102
RTVSPropertyOp6
 70
     1
102
RTVSPropertyOp7
 70
     1
102
RTVSPropertyOp8
 70
     1
102
RTVSPropertyOp9
 70
     1
102
RTVSPropertyOp10
 70
     1
102
RTVSPropertyOp11
 70
     1
102
RTVSPropertyOp12
 70
     1
102
RTVSPropertyOp13
 70
     1
102
RTVSPropertyOp14
 70
     1
102
RTVSPropertyOp15
 70
     1
102
RTVSPropertyOp16
 70
     1
102
RTVSPropertyOp17
 70
     1
102
RTVSPropertyOp18
 70
     1
102
RTVSPropertyOp19
 70
     1
102
RTVSPropertyOp20
 70
     1
102
RTVSPropertyOp21
 70
     1
102
RTVSPropertyOp22
 70
     1
102
RTVSPropertyOp23
 70
     1
102
RTVSPropertyOp24
 70
     1
102
RTVSPropertyOp25
 70
     1
102
RTVSPropertyOp26
 70
     1
102
RTVSPropertyOp27
 70
     1
102
RTVSPropertyOp28
 70
     1
102
RTVSPropertyOp29
 70
     1
102
RTVSPropertyOp30
 70
     1
102
RTVSPropertyOp31
 70
     1
102
RTVSPropertyOp32
 70
     1
102
RTVSPropertyOp33
 70
     1
102
RTVSPropertyOp34
 70
     1
102
RTVSPropertyOp35
 70
     1
102
RTVSPropertyOp36
 70
     1
102
RTVSPropertyOp37
 70
     1
102
RTVSPropertyOp38
 70
     1
102
RTVSPropertyOp39
 70
     1
102
RTVSPropertyOp40
 70
     1
102
RTVSPropertyOp41
 70
     1
102
RTVSPropertyOp42
 70
     1
102
RTVSPropertyOp43
 70
     1
102
RTVSPropertyOp44
 70
     1
102
RTVSPropertyOp45
 70
     1
102
RTVSPropertyOp46
 70
     1
102
RTVSPropertyOp47
 70
     1
102
RTVSPropertyOp48
 70
     1
102
RTVSPropertyOp49
 70
     1
102
RTVSPropertyOp50
 70
     1
102
RTVSPropertyOp51
 70
     0
102
RTVSPropertyOp52
 70
     0
102
RTVSPropertyOp53
 70
     1
102
RTVSPropertyOp54
 70
     1
102
RTVSPropertyOp55
 70
     1
102
RTVSPropertyOp56
 70
     1
102
RTVSPropertyOp57
 70
     1
102
RTVSPropertyOp58
 70
     1
102
RTVSPropertyOp59
 70
     1
102
RTVSPropertyOp60
 70
     1
102
RTVSPropertyOp61
 70
     1
102
RTVSPropertyOp62
 70
     1
  0
XRECORD
  5
381
102
{ACAD_REACTORS
330
380
102
}
330
380
100
AcDbXrecord
280
     1
102
RTVSPost2010Prop28
280
     0
102
RTVSPost2010PropOp28
 70
     1
102
RTVSPost2010Prop29
280
     1
102
RTVSPost2010PropOp29
 70
     1
102
RTVSPost2010Prop30
280
     1
102
RTVSPost2010PropOp30
 70
     1
102
RTVSPost2010Prop31
280
     0
102
RTVSPost2010PropOp31
 70
     1
102
RTVSPost2010Prop32
280
     0
102
RTVSPost2010PropOp32
 70
     1
102
RTVSPost2010Prop33
280
     0
102
RTVSPost2010PropOp33
 70
     1
102
RTVSPost2010Prop34
280
     0
102
RTVSPost2010PropOp34
 70
     1
102
RTVSPost2010Prop35
280
     0
102
RTVSPost2010PropOp35
 70
     1
102
RTVSPost2010Prop36
280
     0
102
RTVSPost2010PropOp36
 70
     1
102
RTVSPost2010Prop37
 90
       50
102
RTVSPost2010PropOp37
 70
     1
102
RTVSPost2010Prop38
140
0.0
102
RTVSPost2010PropOp38
 70
     1
102
RTVSPost2010Prop39
140
1.0
102
RTVSPost2010PropOp39
 70
     1
102
RTVSPost2010Prop40
 90
        0
102
RTVSPost2010PropOp40
 70
     1
102
RTVSPost2010Prop41ColorIndex
 90
       18
102
RTVSPost2010Prop41ColorRGB
 90
        0
102
RTVSPost2010PropOp41
 70
     1
102
RTVSPost2010Prop42
 90
       50
102
RTVSPost2010PropOp42
 70
     1
102
RTVSPost2010Prop43
 90
        3
102
RTVSPost2010PropOp43
 70
     1
102
RTVSPost2010Prop44ColorIndex
 90
        5
102
RTVSPost2010Prop44ColorRGB
 90
      255
102
RTVSPost2010PropOp44
 70
     1
102
RTVSPost2010Prop45
280
     0
102
RTVSPost2010PropOp45
 70
     1
102
RTVSPost2010Prop46
 90
       50
102
RTVSPost2010PropOp46
 70
     1
102
RTVSPost2010Prop47
 90
       50
102
RTVSPost2010PropOp47
 70
     1
102
RTVSPost2010Prop48
 90
       50
102
RTVSPost2010PropOp48
 70
     1
102
RTVSPost2010Prop49
280
     0
102
RTVSPost2010PropOp49
 70
     1
102
RTVSPost2010Prop50
 90
       50
102
RTVSPost2010PropOp50
 70
     1
102
RTVSPost2010Prop51ColorIndex
 90
      256
102
RTVSPost2010Prop51ColorRGB
 90
-16777216
102
RTVSPost2010PropOp51
 70
     0
102
RTVSPost2010Prop52
140
1.0
102
RTVSPost2010PropOp52
 70
     0
102
RTVSPost2010Prop53
 90
        2
102
RTVSPost2010PropOp53
 70
     1
102
RTVSPost2010Prop54
  1
strokes_ogs.tif
102
RTVSPost2010PropOp54
 70
     1
102
RTVSPost2010Prop55
280
     0
102
RTVSPost2010PropOp55
 70
     1
102
RTVSPost2010Prop56
140
1.0
102
RTVSPost2010PropOp56
 70
     1
102
RTVSPost2010Prop57
140
1.0
102
RTVSPost2010PropOp57
 70
     1
102
RTVSPropertyOp0
 70
     1
102
RTVSPropertyOp1
 70
     1
102
RTVSPropertyOp2
 70
     1
102
RTVSPropertyOp3
 70
     1
102
RTVSPropertyOp4
 70
     1
102
RTVSPropertyOp5
 70
     1
102
RTVSPropertyOp6
 70
     1
102
RTVSPropertyOp7
 70
     1
102
RTVSPropertyOp8
 70
     1
102
RTVSPropertyOp9
 70
     1
102
RTVSPropertyOp10
 70
     1
102
RTVSPropertyOp11
 70
     1
102
RTVSPropertyOp12
 70
     1
102
RTVSPropertyOp13
 70
     1
102
RTVSPropertyOp14
 70
     1
102
RTVSPropertyOp15
 70
     1
102
RTVSPropertyOp16
 70
     1
102
RTVSPropertyOp17
 70
     1
102
RTVSPropertyOp18
 70
     1
102
RTVSPropertyOp19
 70
     1
102
RTVSPropertyOp20
 70
     1
102
RTVSPropertyOp21
 70
     1
102
RTVSPropertyOp22
 70
     1
102
RTVSPropertyOp23
 70
     1
102
RTVSPropertyOp24
 70
     1
102
RTVSPropertyOp25
 70
     1
102
RTVSPropertyOp26
 70
     1
102
RTVSPropertyOp27
 70
     1
102
RTVSPropertyOp28
 70
     1
102
RTVSPropertyOp29
 70
     1
102
RTVSPropertyOp30
 70
     1
102
RTVSPropertyOp31
 70
     1
102
RTVSPropertyOp32
 70
     1
102
RTVSPropertyOp33
 70
     1
102
RTVSPropertyOp34
 70
     1
102
RTVSPropertyOp35
 70
     1
102
RTVSPropertyOp36
 70
     1
102
RTVSPropertyOp37
 70
     1
102
RTVSPropertyOp38
 70
     1
102
RTVSPropertyOp39
 70
     1
102
RTVSPropertyOp40
 70
     1
102
RTVSPropertyOp41
 70
     1
102
RTVSPropertyOp42
 70
     1
102
RTVSPropertyOp43
 70
     1
102
RTVSPropertyOp44
 70
     1
102
RTVSPropertyOp45
 70
     1
102
RTVSPropertyOp46
 70
     1
102
RTVSPropertyOp47
 70
     1
102
RTVSPropertyOp48
 70
     1
102
RTVSPropertyOp49
 70
     1
102
RTVSPropertyOp50
 70
     1
102
RTVSPropertyOp51
 70
     0
102
RTVSPropertyOp52
 70
     0
102
RTVSPropertyOp53
 70
     1
102
RTVSPropertyOp54
 70
     1
102
RTVSPropertyOp55
 70
     1
102
RTVSPropertyOp56
 70
     1
102
RTVSPropertyOp57
 70
     1
102
RTVSPropertyOp58
 70
     1
102
RTVSPropertyOp59
 70
     1
102
RTVSPropertyOp60
 70
     1
102
RTVSPropertyOp61
 70
     1
102
RTVSPropertyOp62
 70
     1
  0
XRECORD
  5
373
102
{ACAD_REACTORS
330
372
102
}
330
372
100
AcDbXrecord
280
     1
102
RTVSPost2010Prop28
280
     0
102
RTVSPost2010PropOp28
 70
     1
102
RTVSPost2010Prop29
280
     1
102
RTVSPost2010PropOp29
 70
     1
102
RTVSPost2010Prop30
280
     1
102
RTVSPost2010PropOp30
 70
     1
102
RTVSPost2010Prop31
280
     0
102
RTVSPost2010PropOp31
 70
     1
102
RTVSPost2010Prop32
280
     0
102
RTVSPost2010PropOp32
 70
     1
102
RTVSPost2010Prop33
280
     0
102
RTVSPost2010PropOp33
 70
     1
102
RTVSPost2010Prop34
280
     0
102
RTVSPost2010PropOp34
 70
     1
102
RTVSPost2010Prop35
280
     0
102
RTVSPost2010PropOp35
 70
     1
102
RTVSPost2010Prop36
280
     0
102
RTVSPost2010PropOp36
 70
     1
102
RTVSPost2010Prop37
 90
       50
102
RTVSPost2010PropOp37
 70
     1
102
RTVSPost2010Prop38
140
0.0
102
RTVSPost2010PropOp38
 70
     1
102
RTVSPost2010Prop39
140
1.0
102
RTVSPost2010PropOp39
 70
     1
102
RTVSPost2010Prop40
 90
        0
102
RTVSPost2010PropOp40
 70
     1
102
RTVSPost2010Prop41ColorIndex
 90
       18
102
RTVSPost2010Prop41ColorRGB
 90
        0
102
RTVSPost2010PropOp41
 70
     1
102
RTVSPost2010Prop42
 90
       50
102
RTVSPost2010PropOp42
 70
     1
102
RTVSPost2010Prop43
 90
        3
102
RTVSPost2010PropOp43
 70
     1
102
RTVSPost2010Prop44ColorIndex
 90
        5
102
RTVSPost2010Prop44ColorRGB
 90
      255
102
RTVSPost2010PropOp44
 70
     1
102
RTVSPost2010Prop45
280
     0
102
RTVSPost2010PropOp45
 70
     1
102
RTVSPost2010Prop46
 90
       50
102
RTVSPost2010PropOp46
 70
     1
102
RTVSPost2010Prop47
 90
       50
102
RTVSPost2010PropOp47
 70
     1
102
RTVSPost2010Prop48
 90
       50
102
RTVSPost2010PropOp48
 70
     1
102
RTVSPost2010Prop49
280
     0
102
RTVSPost2010PropOp49
 70
     1
102
RTVSPost2010Prop50
 90
       50
102
RTVSPost2010PropOp50
 70
     1
102
RTVSPost2010Prop51ColorIndex
 90
      256
102
RTVSPost2010Prop51ColorRGB
 90
-16777216
102
RTVSPost2010PropOp51
 70
     0
102
RTVSPost2010Prop52
140
1.0
102
RTVSPost2010PropOp52
 70
     0
102
RTVSPost2010Prop53
 90
        2
102
RTVSPost2010PropOp53
 70
     1
102
RTVSPost2010Prop54
  1
strokes_ogs.tif
102
RTVSPost2010PropOp54
 70
     1
102
RTVSPost2010Prop55
280
     0
102
RTVSPost2010PropOp55
 70
     1
102
RTVSPost2010Prop56
140
1.0
102
RTVSPost2010PropOp56
 70
     1
102
RTVSPost2010Prop57
140
1.0
102
RTVSPost2010PropOp57
 70
     1
102
RTVSPropertyOp0
 70
     1
102
RTVSPropertyOp1
 70
     1
102
RTVSPropertyOp2
 70
     1
102
RTVSPropertyOp3
 70
     1
102
RTVSPropertyOp4
 70
     1
102
RTVSPropertyOp5
 70
     1
102
RTVSPropertyOp6
 70
     1
102
RTVSPropertyOp7
 70
     1
102
RTVSPropertyOp8
 70
     1
102
RTVSPropertyOp9
 70
     1
102
RTVSPropertyOp10
 70
     1
102
RTVSPropertyOp11
 70
     1
102
RTVSPropertyOp12
 70
     1
102
RTVSPropertyOp13
 70
     1
102
RTVSPropertyOp14
 70
     1
102
RTVSPropertyOp15
 70
     1
102
RTVSPropertyOp16
 70
     1
102
RTVSPropertyOp17
 70
     1
102
RTVSPropertyOp18
 70
     1
102
RTVSPropertyOp19
 70
     1
102
RTVSPropertyOp20
 70
     1
102
RTVSPropertyOp21
 70
     1
102
RTVSPropertyOp22
 70
     1
102
RTVSPropertyOp23
 70
     1
102
RTVSPropertyOp24
 70
     1
102
RTVSPropertyOp25
 70
     1
102
RTVSPropertyOp26
 70
     1
102
RTVSPropertyOp27
 70
     1
102
RTVSPropertyOp28
 70
     1
102
RTVSPropertyOp29
 70
     1
102
RTVSPropertyOp30
 70
     1
102
RTVSPropertyOp31
 70
     1
102
RTVSPropertyOp32
 70
     1
102
RTVSPropertyOp33
 70
     1
102
RTVSPropertyOp34
 70
     1
102
RTVSPropertyOp35
 70
     1
102
RTVSPropertyOp36
 70
     1
102
RTVSPropertyOp37
 70
     1
102
RTVSPropertyOp38
 70
     1
102
RTVSPropertyOp39
 70
     1
102
RTVSPropertyOp40
 70
     1
102
RTVSPropertyOp41
 70
     1
102
RTVSPropertyOp42
 70
     1
102
RTVSPropertyOp43
 70
     1
102
RTVSPropertyOp44
 70
     1
102
RTVSPropertyOp45
 70
     1
102
RTVSPropertyOp46
 70
     1
102
RTVSPropertyOp47
 70
     1
102
RTVSPropertyOp48
 70
     1
102
RTVSPropertyOp49
 70
     1
102
RTVSPropertyOp50
 70
     1
102
RTVSPropertyOp51
 70
     0
102
RTVSPropertyOp52
 70
     0
102
RTVSPropertyOp53
 70
     1
102
RTVSPropertyOp54
 70
     1
102
RTVSPropertyOp55
 70
     1
102
RTVSPropertyOp56
 70
     1
102
RTVSPropertyOp57
 70
     1
102
RTVSPropertyOp58
 70
     1
102
RTVSPropertyOp59
 70
     1
102
RTVSPropertyOp60
 70
     1
102
RTVSPropertyOp61
 70
     1
102
RTVSPropertyOp62
 70
     1
  0
XRECORD
  5
393
102
{ACAD_REACTORS
330
392
102
}
330
392
100
AcDbXrecord
280
     1
102
RTVSPost2010Prop28
280
     0
102
RTVSPost2010PropOp28
 70
     1
102
RTVSPost2010Prop29
280
     1
102
RTVSPost2010PropOp29
 70
     1
102
RTVSPost2010Prop30
280
     1
102
RTVSPost2010PropOp30
 70
     1
102
RTVSPost2010Prop31
280
     0
102
RTVSPost2010PropOp31
 70
     1
102
RTVSPost2010Prop32
280
     0
102
RTVSPost2010PropOp32
 70
     1
102
RTVSPost2010Prop33
280
     0
102
RTVSPost2010PropOp33
 70
     1
102
RTVSPost2010Prop34
280
     0
102
RTVSPost2010PropOp34
 70
     1
102
RTVSPost2010Prop35
280
     0
102
RTVSPost2010PropOp35
 70
     1
102
RTVSPost2010Prop36
280
     0
102
RTVSPost2010PropOp36
 70
     1
102
RTVSPost2010Prop37
 90
       50
102
RTVSPost2010PropOp37
 70
     1
102
RTVSPost2010Prop38
140
0.0
102
RTVSPost2010PropOp38
 70
     1
102
RTVSPost2010Prop39
140
1.0
102
RTVSPost2010PropOp39
 70
     1
102
RTVSPost2010Prop40
 90
        0
102
RTVSPost2010PropOp40
 70
     1
102
RTVSPost2010Prop41ColorIndex
 90
       18
102
RTVSPost2010Prop41ColorRGB
 90
        0
102
RTVSPost2010PropOp41
 70
     1
102
RTVSPost2010Prop42
 90
       50
102
RTVSPost2010PropOp42
 70
     1
102
RTVSPost2010Prop43
 90
        3
102
RTVSPost2010PropOp43
 70
     1
102
RTVSPost2010Prop44ColorIndex
 90
        5
102
RTVSPost2010Prop44ColorRGB
 90
      255
102
RTVSPost2010PropOp44
 70
     1
102
RTVSPost2010Prop45
280
     0
102
RTVSPost2010PropOp45
 70
     1
102
RTVSPost2010Prop46
 90
       50
102
RTVSPost2010PropOp46
 70
     1
102
RTVSPost2010Prop47
 90
       50
102
RTVSPost2010PropOp47
 70
     1
102
RTVSPost2010Prop48
 90
       50
102
RTVSPost2010PropOp48
 70
     1
102
RTVSPost2010Prop49
280
     0
102
RTVSPost2010PropOp49
 70
     1
102
RTVSPost2010Prop50
 90
       50
102
RTVSPost2010PropOp50
 70
     1
102
RTVSPost2010Prop51ColorIndex
 90
      256
102
RTVSPost2010Prop51ColorRGB
 90
-16777216
102
RTVSPost2010PropOp51
 70
     0
102
RTVSPost2010Prop52
140
1.0
102
RTVSPost2010PropOp52
 70
     0
102
RTVSPost2010Prop53
 90
        2
102
RTVSPost2010PropOp53
 70
     1
102
RTVSPost2010Prop54
  1
strokes_ogs.tif
102
RTVSPost2010PropOp54
 70
     1
102
RTVSPost2010Prop55
280
     0
102
RTVSPost2010PropOp55
 70
     1
102
RTVSPost2010Prop56
140
1.0
102
RTVSPost2010PropOp56
 70
     1
102
RTVSPost2010Prop57
140
1.0
102
RTVSPost2010PropOp57
 70
     1
102
RTVSPropertyOp0
 70
     1
102
RTVSPropertyOp1
 70
     1
102
RTVSPropertyOp2
 70
     1
102
RTVSPropertyOp3
 70
     1
102
RTVSPropertyOp4
 70
     1
102
RTVSPropertyOp5
 70
     1
102
RTVSPropertyOp6
 70
     1
102
RTVSPropertyOp7
 70
     1
102
RTVSPropertyOp8
 70
     1
102
RTVSPropertyOp9
 70
     1
102
RTVSPropertyOp10
 70
     1
102
RTVSPropertyOp11
 70
     1
102
RTVSPropertyOp12
 70
     1
102
RTVSPropertyOp13
 70
     1
102
RTVSPropertyOp14
 70
     1
102
RTVSPropertyOp15
 70
     1
102
RTVSPropertyOp16
 70
     1
102
RTVSPropertyOp17
 70
     1
102
RTVSPropertyOp18
 70
     1
102
RTVSPropertyOp19
 70
     1
102
RTVSPropertyOp20
 70
     1
102
RTVSPropertyOp21
 70
     1
102
RTVSPropertyOp22
 70
     1
102
RTVSPropertyOp23
 70
     1
102
RTVSPropertyOp24
 70
     1
102
RTVSPropertyOp25
 70
     1
102
RTVSPropertyOp26
 70
     1
102
RTVSPropertyOp27
 70
     1
102
RTVSPropertyOp28
 70
     1
102
RTVSPropertyOp29
 70
     1
102
RTVSPropertyOp30
 70
     1
102
RTVSPropertyOp31
 70
     1
102
RTVSPropertyOp32
 70
     1
102
RTVSPropertyOp33
 70
     1
102
RTVSPropertyOp34
 70
     1
102
RTVSPropertyOp35
 70
     1
102
RTVSPropertyOp36
 70
     1
102
RTVSPropertyOp37
 70
     1
102
RTVSPropertyOp38
 70
     1
102
RTVSPropertyOp39
 70
     1
102
RTVSPropertyOp40
 70
     1
102
RTVSPropertyOp41
 70
     1
102
RTVSPropertyOp42
 70
     1
102
RTVSPropertyOp43
 70
     1
102
RTVSPropertyOp44
 70
     1
102
RTVSPropertyOp45
 70
     1
102
RTVSPropertyOp46
 70
     1
102
RTVSPropertyOp47
 70
     1
102
RTVSPropertyOp48
 70
     1
102
RTVSPropertyOp49
 70
     1
102
RTVSPropertyOp50
 70
     1
102
RTVSPropertyOp51
 70
     0
102
RTVSPropertyOp52
 70
     0
102
RTVSPropertyOp53
 70
     1
102
RTVSPropertyOp54
 70
     1
102
RTVSPropertyOp55
 70
     1
102
RTVSPropertyOp56
 70
     1
102
RTVSPropertyOp57
 70
     1
102
RTVSPropertyOp58
 70
     1
102
RTVSPropertyOp59
 70
     1
102
RTVSPropertyOp60
 70
     1
102
RTVSPropertyOp61
 70
     1
102
RTVSPropertyOp62
 70
     1
  0
ENDSEC
  0
EOF
