  0
SECTION
  2
HEADER
  9
$ACADVER
  1
AC1018
  9
$ACADMAINTVER
 70
   104
  9
$DWGCODEPAGE
  3
ANSI_1250
  9
$LASTSAVEDBY
  1
wq7085
  9
$INSBASE
 10
0.0
 20
0.0
 30
0.0
  9
$EXTMIN
 10
187.2502013333333
 20
118.534924
 30
0.0
  9
$EXTMAX
 10
450.0642599999999
 20
351.9336746666668
 30
0.0
  9
$LIMMIN
 10
-0.5
 20
-0.5
  9
$LIMMAX
 10
5.0
 20
5.0
  9
$ORTHOMODE
 70
     0
  9
$REGENMODE
 70
     1
  9
$FILLMODE
 70
     1
  9
$QTEXTMODE
 70
     0
  9
$MIRRTEXT
 70
     1
  9
$LTSCALE
 40
1.0
  9
$ATTMODE
 70
     1
  9
$TEXTSIZE
 40
0.2
  9
$TRACEWID
 40
0.05
  9
$TEXTSTYLE
  7
Standard
  9
$CLAYER
  8
0
  9
$CELTYPE
  6
ByLayer
  9
$CECOLOR
 62
   256
  9
$CELTSCALE
 40
1.0
  9
$DISPSILH
 70
     0
  9
$DIMSCALE
 40
1.0
  9
$DIMASZ
 40
0.18
  9
$DIMEXO
 40
0.0625
  9
$DIMDLI
 40
0.38
  9
$DIMRND
 40
0.0
  9
$DIMDLE
 40
0.0
  9
$DIMEXE
 40
0.18
  9
$DIMTP
 40
0.0
  9
$DIMTM
 40
0.0
  9
$DIMTXT
 40
0.18
  9
$DIMCEN
 40
0.09
  9
$DIMTSZ
 40
0.0
  9
$DIMTOL
 70
     0
  9
$DIMLIM
 70
     0
  9
$DIMTIH
 70
     1
  9
$DIMTOH
 70
     1
  9
$DIMSE1
 70
     0
  9
$DIMSE2
 70
     0
  9
$DIMTAD
 70
     0
  9
$DIMZIN
 70
     0
  9
$DIMBLK
  1

  9
$DIMASO
 70
     1
  9
$DIMSHO
 70
     1
  9
$DIMPOST
  1

  9
$DIMAPOST
  1

  9
$DIMALT
 70
     0
  9
$DIMALTD
 70
     2
  9
$DIMALTF
 40
25.4
  9
$DIMLFAC
 40
1.0
  9
$DIMTOFL
 70
     0
  9
$DIMTVP
 40
0.0
  9
$DIMTIX
 70
     0
  9
$DIMSOXD
 70
     0
  9
$DIMSAH
 70
     0
  9
$DIMBLK1
  1

  9
$DIMBLK2
  1

  9
$DIMSTYLE
  2
Standard
  9
$DIMCLRD
 70
     0
  9
$DIMCLRE
 70
     0
  9
$DIMCLRT
 70
     0
  9
$DIMTFAC
 40
1.0
  9
$DIMGAP
 40
0.09
  9
$DIMJUST
 70
     0
  9
$DIMSD1
 70
     0
  9
$DIMSD2
 70
     0
  9
$DIMTOLJ
 70
     1
  9
$DIMTZIN
 70
     0
  9
$DIMALTZ
 70
     0
  9
$DIMALTTZ
 70
     0
  9
$DIMUPT
 70
     0
  9
$DIMDEC
 70
     4
  9
$DIMTDEC
 70
     4
  9
$DIMALTU
 70
     2
  9
$DIMALTTD
 70
     2
  9
$DIMTXSTY
  7
Standard
  9
$DIMAUNIT
 70
     0
  9
$DIMADEC
 70
     0
  9
$DIMALTRND
 40
0.0
  9
$DIMAZIN
 70
     0
  9
$DIMDSEP
 70
    46
  9
$DIMATFIT
 70
     3
  9
$DIMFRAC
 70
     0
  9
$DIMLDRBLK
  1

  9
$DIMLUNIT
 70
     2
  9
$DIMLWD
 70
    -2
  9
$DIMLWE
 70
    -2
  9
$DIMTMOVE
 70
     0
  9
$LUNITS
 70
     2
  9
$LUPREC
 70
     4
  9
$SKETCHINC
 40
0.1
  9
$FILLETRAD
 40
0.5
  9
$AUNITS
 70
     0
  9
$AUPREC
 70
     0
  9
$MENU
  1
.
  9
$ELEVATION
 40
0.0
  9
$PELEVATION
 40
0.0
  9
$THICKNESS
 40
0.0
  9
$LIMCHECK
 70
     0
  9
$CHAMFERA
 40
0.0
  9
$CHAMFERB
 40
0.0
  9
$CHAMFERC
 40
0.0
  9
$CHAMFERD
 40
0.0
  9
$SKPOLY
 70
     0
  9
$TDCREATE
 40
2459089.350706019
  9
$TDUCREATE
 40
2459089.267380220
  9
$TDUPDATE
 40
2459089.351550926
  9
$TDUUPDATE
 40
2459089.268217593
  9
$TDINDWG
 40
0.0006597338
  9
$TDUSRTIMER
 40
0.0006597338
  9
$USRTIMER
 70
     1
  9
$ANGBASE
 50
0.0
  9
$ANGDIR
 70
     0
  9
$PDMODE
 70
     0
  9
$PDSIZE
 40
0.0
  9
$PLINEWID
 40
0.0
  9
$SPLFRAME
 70
     0
  9
$SPLINETYPE
 70
     6
  9
$SPLINESEGS
 70
     8
  9
$HANDSEED
  5
3AF
  9
$SURFTAB1
 70
     6
  9
$SURFTAB2
 70
     6
  9
$SURFTYPE
 70
     6
  9
$SURFU
 70
     6
  9
$SURFV
 70
     6
  9
$UCSBASE
  2

  9
$UCSNAME
  2

  9
$UCSORG
 10
274.404842
 20
288.907994
 30
0.0
  9
$UCSXDIR
 10
1.0
 20
0.0
 30
0.0
  9
$UCSYDIR
 10
0.0
 20
1.0
 30
0.0
  9
$UCSORTHOREF
  2

  9
$UCSORTHOVIEW
 70
     0
  9
$UCSORGTOP
 10
0.0
 20
0.0
 30
0.0
  9
$UCSORGBOTTOM
 10
0.0
 20
0.0
 30
0.0
  9
$UCSORGLEFT
 10
0.0
 20
0.0
 30
0.0
  9
$UCSORGRIGHT
 10
0.0
 20
0.0
 30
0.0
  9
$UCSORGFRONT
 10
0.0
 20
0.0
 30
0.0
  9
$UCSORGBACK
 10
0.0
 20
0.0
 30
0.0
  9
$PUCSBASE
  2

  9
$PUCSNAME
  2

  9
$PUCSORG
 10
0.0
 20
0.0
 30
0.0
  9
$PUCSXDIR
 10
1.0
 20
0.0
 30
0.0
  9
$PUCSYDIR
 10
0.0
 20
1.0
 30
0.0
  9
$PUCSORTHOREF
  2

  9
$PUCSORTHOVIEW
 70
     0
  9
$PUCSORGTOP
 10
0.0
 20
0.0
 30
0.0
  9
$PUCSORGBOTTOM
 10
0.0
 20
0.0
 30
0.0
  9
$PUCSORGLEFT
 10
0.0
 20
0.0
 30
0.0
  9
$PUCSORGRIGHT
 10
0.0
 20
0.0
 30
0.0
  9
$PUCSORGFRONT
 10
0.0
 20
0.0
 30
0.0
  9
$PUCSORGBACK
 10
0.0
 20
0.0
 30
0.0
  9
$USERI1
 70
     0
  9
$USERI2
 70
     0
  9
$USERI3
 70
     0
  9
$USERI4
 70
     0
  9
$USERI5
 70
     0
  9
$USERR1
 40
0.0
  9
$USERR2
 40
0.0
  9
$USERR3
 40
0.0
  9
$USERR4
 40
0.0
  9
$USERR5
 40
0.0
  9
$WORLDVIEW
 70
     1
  9
$SHADEDGE
 70
     3
  9
$SHADEDIF
 70
    70
  9
$TILEMODE
 70
     1
  9
$MAXACTVP
 70
    64
  9
$PINSBASE
 10
0.0
 20
0.0
 30
0.0
  9
$PLIMCHECK
 70
     0
  9
$PEXTMIN
 10
-0.5
 20
-0.5
 30
-0.5
  9
$PEXTMAX
 10
5.0
 20
5.0
 30
5.0
  9
$PLIMMIN
 10
-0.5
 20
-0.5
  9
$PLIMMAX
 10
5.0
 20
5.0
  9
$UNITMODE
 70
     0
  9
$VISRETAIN
 70
     1
  9
$PLINEGEN
 70
     0
  9
$PSLTSCALE
 70
     1
  9
$TREEDEPTH
 70
  3020
  9
$CMLSTYLE
  2
Standard
  9
$CMLJUST
 70
     0
  9
$CMLSCALE
 40
1.0
  9
$PROXYGRAPHICS
 70
     1
  9
$MEASUREMENT
 70
     1
  9
$CELWEIGHT
370
    13
  9
$ENDCAPS
280
     0
  9
$JOINSTYLE
280
     0
  9
$LWDISPLAY
290
     0
  9
$INSUNITS
 70
     4
  9
$HYPERLINKBASE
  1

  9
$STYLESHEET
  1

  9
$XEDIT
290
     1
  9
$CEPSNTYPE
380
     0
  9
$PSTYLEMODE
290
     1
  9
$FINGERPRINTGUID
  2
{D17E6E52-838D-46B4-A499-BF02897EEDB5}
  9
$VERSIONGUID
  2
{763D3113-E8F2-8348-BFF0-0E37E4565B9C}
  9
$EXTNAMES
290
     1
  9
$PSVPSCALE
 40
0.0
  9
$OLESTARTUP
290
     0
  9
$SORTENTS
280
   127
  9
$INDEXCTL
280
     0
  9
$HIDETEXT
280
     1
  9
$XCLIPFRAME
290
     0
  9
$HALOGAP
280
     0
  9
$OBSCOLOR
 70
   257
  9
$OBSLTYPE
280
     0
  9
$INTERSECTIONDISPLAY
280
     0
  9
$INTERSECTIONCOLOR
 70
   257
  9
$DIMASSOC
280
     2
  9
$PROJECTNAME
  1

  0
ENDSEC
  0
SECTION
  2
CLASSES
  0
CLASS
  1
ACDBDICTIONARYWDFLT
  2
AcDbDictionaryWithDefault
  3
ObjectDBX Classes
 90
        0
 91
        1
280
     0
281
     0
  0
CLASS
  1
VISUALSTYLE
  2
AcDbVisualStyle
  3
ObjectDBX Classes
 90
     4095
 91
       24
280
     0
281
     0
  0
CLASS
  1
MATERIAL
  2
AcDbMaterial
  3
ObjectDBX Classes
 90
     1153
 91
        3
280
     0
281
     0
  0
CLASS
  1
SCALE
  2
AcDbScale
  3
ObjectDBX Classes
 90
     1153
 91
       33
280
     0
281
     0
  0
CLASS
  1
TABLESTYLE
  2
AcDbTableStyle
  3
ObjectDBX Classes
 90
     4095
 91
        1
280
     0
281
     0
  0
CLASS
  1
MLEADERSTYLE
  2
AcDbMLeaderStyle
  3
ACDB_MLEADERSTYLE_CLASS
 90
     4095
 91
        1
280
     0
281
     0
  0
CLASS
  1
SUN
  2
AcDbSun
  3
SCENEOE
 90
     1153
 91
        0
280
     0
281
     0
  0
CLASS
  1
DIMASSOC
  2
AcDbDimAssoc
  3
"AcDbDimAssoc|Product Desc:     AcDim ARX App For Dimension|Company:          Autodesk, Inc.|WEB Address:      www.autodesk.com"
 90
        0
 91
        7
280
     0
281
     0
  0
CLASS
  1
DICTIONARYVAR
  2
AcDbDictionaryVar
  3
ObjectDBX Classes
 90
        0
 91
        8
280
     0
281
     0
  0
CLASS
  1
CELLSTYLEMAP
  2
AcDbCellStyleMap
  3
ObjectDBX Classes
 90
     1152
 91
        2
280
     0
281
     0
  0
CLASS
  1
ACDBSECTIONVIEWSTYLE
  2
AcDbSectionViewStyle
  3
ObjectDBX Classes
 90
     1025
 91
        1
280
     0
281
     0
  0
CLASS
  1
ACDBDETAILVIEWSTYLE
  2
AcDbDetailViewStyle
  3
ObjectDBX Classes
 90
     1025
 91
        1
280
     0
281
     0
  0
CLASS
  1
SORTENTSTABLE
  2
AcDbSortentsTable
  3
ObjectDBX Classes
 90
        0
 91
        1
280
     0
281
     0
  0
ENDSEC
  0
SECTION
  2
TABLES
  0
TABLE
  2
VPORT
  5
8
330
0
100
AcDbSymbolTable
 70
    16
  0
VPORT
  5
29
330
8
100
AcDbSymbolTableRecord
100
AcDbViewportTableRecord
  2
*Active
 70
     0
 10
0.0
 20
0.0
 11
1.0
 21
1.0
 12
336.7727042080767
 22
293.3585911929082
 13
0.0
 23
0.0
 14
0.5
 24
0.5
 15
0.5
 25
0.5
 16
0.0
 26
0.0
 36
1.0
 17
0.0
 27
0.0
 37
0.0
 40
217.6897563908769
 41
2.292712066905615
 42
50.0
 43
470.2439059999999
 44
-470.2439059999999
 50
0.0
 51
0.0
 71
     0
 72
   100
 73
     1
 74
     3
 75
     0
 76
     0
 77
     0
 78
     0
281
     0
 65
     1
110
274.404842
120
288.907994
130
0.0
111
1.0
121
0.0
131
0.0
112
0.0
122
1.0
132
0.0
 79
     0
146
0.0
1001
ACAD_NAV_VCDISPLAY
1070
     3
  0
VPORT
  5
2B0
330
8
100
AcDbSymbolTableRecord
100
AcDbViewportTableRecord
  2
L1
 70
     0
 10
0.0
 20
0.0
 11
1.0
 21
1.0
 12
318.15303
 22
235.22556
 13
0.0
 23
0.0
 14
0.5
 24
0.5
 15
0.5
 25
0.5
 16
0.0
 26
0.0
 36
1.0
 17
0.0
 27
0.0
 37
0.0
 40
207.433333
 41
0.085602
 42
50.0
 43
470.2439059999999
 44
-470.2439059999999
 50
0.0
 51
0.0
 71
     0
 72
   100
 73
     1
 74
     3
 75
     0
 76
     0
 77
     0
 78
     0
281
     0
 65
     1
110
0.0
120
0.0
130
0.0
111
1.0
121
0.0
131
0.0
112
0.0
122
1.0
132
0.0
 79
     0
146
0.0
  0
VPORT
  5
2B1
330
8
100
AcDbSymbolTableRecord
100
AcDbViewportTableRecord
  2
L2
 70
     0
 10
0.0
 20
0.0
 11
0.5
 21
1.0
 12
0.0
 22
0.0
 13
0.0
 23
0.0
 14
0.5
 24
0.5
 15
0.5
 25
0.5
 16
0.0
 26
-1.0
 36
0.0
 17
0.0
 27
0.0
 37
0.0
 40
1316.18997
 41
0.013491
 42
50.0
 43
678.00864
 44
-678.00864
 50
0.0
 51
0.0
 71
     0
 72
   100
 73
     1
 74
     3
 75
     0
 76
     0
 77
     0
 78
     0
281
     0
 65
     1
110
0.0
120
0.0
130
0.0
111
1.0
121
0.0
131
0.0
112
0.0
122
1.0
132
0.0
 79
     0
146
0.0
  0
VPORT
  5
2B2
330
8
100
AcDbSymbolTableRecord
100
AcDbViewportTableRecord
  2
L2
 70
     0
 10
0.5
 20
0.0
 11
1.0
 21
1.0
 12
0.0
 22
0.0
 13
0.0
 23
0.0
 14
0.5
 24
0.5
 15
0.5
 25
0.5
 16
1.0
 26
0.0
 36
0.0
 17
0.0
 27
0.0
 37
0.0
 40
1316.18997
 41
0.013491
 42
50.0
 43
666.2177989999999
 44
-666.2177989999999
 50
0.0
 51
0.0
 71
     0
 72
   100
 73
     1
 74
     3
 75
     0
 76
     0
 77
     0
 78
     0
281
     0
 65
     1
110
0.0
120
0.0
130
0.0
111
1.0
121
0.0
131
0.0
112
0.0
122
1.0
132
0.0
 79
     0
146
0.0
  0
VPORT
  5
2B3
330
8
100
AcDbSymbolTableRecord
100
AcDbViewportTableRecord
  2
L3
 70
     0
 10
0.0
 20
0.5
 11
1.0
 21
1.0
 12
318.15303
 22
235.22556
 13
0.0
 23
0.0
 14
0.5
 24
0.5
 15
0.5
 25
0.5
 16
0.0
 26
0.0
 36
1.0
 17
0.0
 27
0.0
 37
0.0
 40
207.433333
 41
0.085602
 42
50.0
 43
470.2439059999999
 44
-470.2439059999999
 50
0.0
 51
0.0
 71
     0
 72
   100
 73
     1
 74
     3
 75
     0
 76
     0
 77
     0
 78
     0
281
     0
 65
     1
110
0.0
120
0.0
130
0.0
111
1.0
121
0.0
131
0.0
112
0.0
122
1.0
132
0.0
 79
     0
146
0.0
  0
VPORT
  5
2B4
330
8
100
AcDbSymbolTableRecord
100
AcDbViewportTableRecord
  2
L3
 70
     0
 10
0.0
 20
0.0
 11
1.0
 21
0.5
 12
0.0
 22
0.0
 13
0.0
 23
0.0
 14
0.5
 24
0.5
 15
0.5
 25
0.5
 16
0.0
 26
-1.0
 36
0.0
 17
0.0
 27
0.0
 37
0.0
 40
1316.18997
 41
0.013491
 42
50.0
 43
678.00864
 44
-678.00864
 50
0.0
 51
0.0
 71
     0
 72
   100
 73
     1
 74
     3
 75
     0
 76
     0
 77
     0
 78
     0
281
     0
 65
     1
110
0.0
120
0.0
130
0.0
111
1.0
121
0.0
131
0.0
112
0.0
122
1.0
132
0.0
 79
     0
146
0.0
  0
VPORT
  5
2B5
330
8
100
AcDbSymbolTableRecord
100
AcDbViewportTableRecord
  2
L4
 70
     0
 10
0.0
 20
0.5
 11
0.5
 21
1.0
 12
318.15303
 22
235.22556
 13
0.0
 23
0.0
 14
0.5
 24
0.5
 15
0.5
 25
0.5
 16
0.0
 26
0.0
 36
1.0
 17
0.0
 27
0.0
 37
0.0
 40
207.433333
 41
0.085602
 42
50.0
 43
470.2439059999999
 44
-470.2439059999999
 50
0.0
 51
0.0
 71
     0
 72
   100
 73
     1
 74
     3
 75
     0
 76
     0
 77
     0
 78
     0
281
     0
 65
     1
110
0.0
120
0.0
130
0.0
111
1.0
121
0.0
131
0.0
112
0.0
122
1.0
132
0.0
 79
     0
146
0.0
  0
VPORT
  5
2B6
330
8
100
AcDbSymbolTableRecord
100
AcDbViewportTableRecord
  2
L4
 70
     0
 10
0.0
 20
0.0
 11
0.5
 21
0.5
 12
0.0
 22
0.0
 13
0.0
 23
0.0
 14
0.5
 24
0.5
 15
0.5
 25
0.5
 16
0.0
 26
-1.0
 36
0.0
 17
0.0
 27
0.0
 37
0.0
 40
1316.18997
 41
0.013491
 42
50.0
 43
678.00864
 44
-678.00864
 50
0.0
 51
0.0
 71
     0
 72
   100
 73
     1
 74
     3
 75
     0
 76
     0
 77
     0
 78
     0
281
     0
 65
     1
110
0.0
120
0.0
130
0.0
111
1.0
121
0.0
131
0.0
112
0.0
122
1.0
132
0.0
 79
     0
146
0.0
  0
VPORT
  5
2B7
330
8
100
AcDbSymbolTableRecord
100
AcDbViewportTableRecord
  2
L4
 70
     0
 10
0.5
 20
0.0
 11
1.0
 21
0.5
 12
0.0
 22
0.0
 13
0.0
 23
0.0
 14
0.5
 24
0.5
 15
0.5
 25
0.5
 16
1.0
 26
0.0
 36
0.0
 17
0.0
 27
0.0
 37
0.0
 40
1316.18997
 41
0.013491
 42
50.0
 43
666.2177989999999
 44
-666.2177989999999
 50
0.0
 51
0.0
 71
     0
 72
   100
 73
     1
 74
     3
 75
     0
 76
     0
 77
     0
 78
     0
281
     0
 65
     1
110
0.0
120
0.0
130
0.0
111
1.0
121
0.0
131
0.0
112
0.0
122
1.0
132
0.0
 79
     0
146
0.0
  0
VPORT
  5
2B8
330
8
100
AcDbSymbolTableRecord
100
AcDbViewportTableRecord
  2
L4
 70
     0
 10
0.5
 20
0.5
 11
1.0
 21
1.0
 12
0.0
 22
0.0
 13
0.0
 23
0.0
 14
0.5
 24
0.5
 15
0.5
 25
0.5
 16
0.5773502691896259
 26
-0.5773502691896259
 36
0.5773502691896259
 17
0.0
 27
0.0
 37
0.0
 40
1292.532264
 41
0.013738
 42
50.0
 43
673.245608
 44
-673.245608
 50
0.0
 51
0.0
 71
     0
 72
   100
 73
     1
 74
     3
 75
     0
 76
     0
 77
     0
 78
     0
281
     0
 65
     1
110
0.0
120
0.0
130
0.0
111
1.0
121
0.0
131
0.0
112
0.0
122
1.0
132
0.0
 79
     0
146
0.0
  0
VPORT
  5
2B9
330
8
100
AcDbSymbolTableRecord
100
AcDbViewportTableRecord
  2
L6
 70
     0
 10
0.0
 20
0.5
 11
0.333333
 21
1.0
 12
0.0
 22
0.0
 13
0.0
 23
0.0
 14
0.5
 24
0.5
 15
0.5
 25
0.5
 16
0.7188730927569434
 26
-0.5850486126764433
 36
0.3754192287502549
 17
0.0
 27
0.0
 37
0.0
 40
1364.064247
 41
0.013018
 42
50.0
 43
706.2613849999999
 44
-706.2613849999999
 50
0.0
 51
0.0
 71
     0
 72
   100
 73
     1
 74
     3
 75
     0
 76
     0
 77
     0
 78
     0
281
     0
 65
     1
110
0.0
120
0.0
130
0.0
111
1.0
121
0.0
131
0.0
112
0.0
122
1.0
132
0.0
 79
     0
146
0.0
  0
VPORT
  5
2BA
330
8
100
AcDbSymbolTableRecord
100
AcDbViewportTableRecord
  2
L6
 70
     0
 10
0.0
 20
0.0
 11
0.333333
 21
0.5
 12
0.0
 22
0.0
 13
0.0
 23
0.0
 14
0.5
 24
0.5
 15
0.5
 25
0.5
 16
-1.0
 26
0.0
 36
0.0
 17
0.0
 27
0.0
 37
0.0
 40
1316.18997
 41
0.013491
 42
50.0
 43
666.2177989999999
 44
-666.2177989999999
 50
0.0
 51
0.0
 71
     0
 72
   100
 73
     1
 74
     3
 75
     0
 76
     0
 77
     0
 78
     0
281
     0
 65
     1
110
0.0
120
0.0
130
0.0
111
1.0
121
0.0
131
0.0
112
0.0
122
1.0
132
0.0
 79
     0
146
0.0
  0
VPORT
  5
2BB
330
8
100
AcDbSymbolTableRecord
100
AcDbViewportTableRecord
  2
L6
 70
     0
 10
0.333333
 20
0.5
 11
0.666667
 21
1.0
 12
318.15303
 22
235.22556
 13
0.0
 23
0.0
 14
0.5
 24
0.5
 15
0.5
 25
0.5
 16
0.0
 26
0.0
 36
1.0
 17
0.0
 27
0.0
 37
0.0
 40
207.433333
 41
0.085602
 42
50.0
 43
470.2439059999999
 44
-470.2439059999999
 50
0.0
 51
0.0
 71
     0
 72
   100
 73
     1
 74
     3
 75
     0
 76
     0
 77
     0
 78
     0
281
     0
 65
     1
110
0.0
120
0.0
130
0.0
111
1.0
121
0.0
131
0.0
112
0.0
122
1.0
132
0.0
 79
     0
146
0.0
  0
VPORT
  5
2BC
330
8
100
AcDbSymbolTableRecord
100
AcDbViewportTableRecord
  2
L6
 70
     0
 10
0.333333
 20
0.0
 11
0.666667
 21
0.5
 12
0.0
 22
0.0
 13
0.0
 23
0.0
 14
0.5
 24
0.5
 15
0.5
 25
0.5
 16
0.0
 26
-1.0
 36
0.0
 17
0.0
 27
0.0
 37
0.0
 40
1316.18997
 41
0.013491
 42
50.0
 43
678.00864
 44
-678.00864
 50
0.0
 51
0.0
 71
     0
 72
   100
 73
     1
 74
     3
 75
     0
 76
     0
 77
     0
 78
     0
281
     0
 65
     1
110
0.0
120
0.0
130
0.0
111
1.0
121
0.0
131
0.0
112
0.0
122
1.0
132
0.0
 79
     0
146
0.0
  0
VPORT
  5
2BD
330
8
100
AcDbSymbolTableRecord
100
AcDbViewportTableRecord
  2
L6
 70
     0
 10
0.666667
 20
0.5
 11
1.0
 21
1.0
 12
0.0
 22
0.0
 13
0.0
 23
0.0
 14
0.5
 24
0.5
 15
0.5
 25
0.5
 16
0.5773502691896259
 26
-0.5773502691896259
 36
0.5773502691896259
 17
0.0
 27
0.0
 37
0.0
 40
1292.532264
 41
0.013738
 42
50.0
 43
673.245608
 44
-673.245608
 50
0.0
 51
0.0
 71
     0
 72
   100
 73
     1
 74
     3
 75
     0
 76
     0
 77
     0
 78
     0
281
     0
 65
     1
110
0.0
120
0.0
130
0.0
111
1.0
121
0.0
131
0.0
112
0.0
122
1.0
132
0.0
 79
     0
146
0.0
  0
VPORT
  5
2BE
330
8
100
AcDbSymbolTableRecord
100
AcDbViewportTableRecord
  2
L6
 70
     0
 10
0.666667
 20
0.0
 11
1.0
 21
0.5
 12
0.0
 22
0.0
 13
0.0
 23
0.0
 14
0.5
 24
0.5
 15
0.5
 25
0.5
 16
1.0
 26
0.0
 36
0.0
 17
0.0
 27
0.0
 37
0.0
 40
1316.18997
 41
0.013491
 42
50.0
 43
666.2177989999999
 44
-666.2177989999999
 50
0.0
 51
0.0
 71
     0
 72
   100
 73
     1
 74
     3
 75
     0
 76
     0
 77
     0
 78
     0
281
     0
 65
     1
110
0.0
120
0.0
130
0.0
111
1.0
121
0.0
131
0.0
112
0.0
122
1.0
132
0.0
 79
     0
146
0.0
  0
ENDTAB
  0
TABLE
  2
LTYPE
  5
5
330
0
100
AcDbSymbolTable
 70
     7
  0
LTYPE
  5
14
330
5
100
AcDbSymbolTableRecord
100
AcDbLinetypeTableRecord
  2
ByBlock
 70
     0
  3

 72
    65
 73
     0
 40
0.0
  0
LTYPE
  5
15
330
5
100
AcDbSymbolTableRecord
100
AcDbLinetypeTableRecord
  2
ByLayer
 70
     0
  3

 72
    65
 73
     0
 40
0.0
  0
LTYPE
  5
16
330
5
100
AcDbSymbolTableRecord
100
AcDbLinetypeTableRecord
  2
Continuous
 70
     0
  3
Solid line
 72
    65
 73
     0
 40
0.0
  0
LTYPE
  5
6E
330
5
100
AcDbSymbolTableRecord
100
AcDbLinetypeTableRecord
  2
CENTER
 70
     0
  3
____ _ ____ _ ____ _ ____
 72
    65
 73
     4
 40
47.4
 49
22.0
 74
     4
 75
     0
340
0
 46
0.0
 50
0.0
 44
0.0
 45
0.0
 49
-8.5
 74
     4
 75
     0
340
0
 46
0.0
 50
0.0
 44
0.0
 45
0.0
 49
8.5
 74
     4
 75
     0
340
0
 46
0.0
 50
0.0
 44
0.0
 45
0.0
 49
-8.5
 74
     4
 75
     0
340
0
 46
0.0
 50
0.0
 44
0.0
 45
0.0
  0
LTYPE
  5
6F
330
5
100
AcDbSymbolTableRecord
100
AcDbLinetypeTableRecord
  2
DASHDOT
 70
     0
  3
_._._._._._._._._._._._._._._._.
 72
    65
 73
     4
 40
70.0
 49
31.0
 74
     4
 75
     0
340
0
 46
0.0
 50
0.0
 44
0.0
 45
0.0
 49
-13.0
 74
     4
 75
     0
340
0
 46
0.0
 50
0.0
 44
0.0
 45
0.0
 49
13.0
 74
     4
 75
     0
340
0
 46
0.0
 50
0.0
 44
0.0
 45
0.0
 49
-13.0
 74
     4
 75
     0
340
0
 46
0.0
 50
0.0
 44
0.0
 45
0.0
  0
LTYPE
  5
70
330
5
100
AcDbSymbolTableRecord
100
AcDbLinetypeTableRecord
  2
DASHED
 70
     0
  3
__ __ __ __ __ __ __ __ __
 72
    65
 73
     2
 40
25.72
 49
12.86
 74
     4
 75
     0
340
0
 46
0.0
 50
0.0
 44
0.0
 45
0.0
 49
-12.86
 74
     4
 75
     0
340
0
 46
0.0
 50
0.0
 44
0.0
 45
0.0
  0
LTYPE
  5
71
330
5
100
AcDbSymbolTableRecord
100
AcDbLinetypeTableRecord
  2
DOT
 70
     0
  3
.........................
 72
    65
 73
     2
 40
10.0
 49
0.0
 74
     4
 75
     0
340
0
 46
0.0
 50
0.0
 44
0.0
 45
0.0
 49
-10.0
 74
     4
 75
     0
340
0
 46
0.0
 50
0.0
 44
0.0
 45
0.0
  0
LTYPE
  5
72
330
5
100
AcDbSymbolTableRecord
100
AcDbLinetypeTableRecord
  2
PHANTOM
 70
     0
  3
____ _ _ ____ _ _ _____ _ _ ____
 72
    65
 73
     6
 40
50.5
 49
18.0
 74
     4
 75
     0
340
0
 46
0.0
 50
0.0
 44
0.0
 45
0.0
 49
-6.5
 74
     4
 75
     0
340
0
 46
0.0
 50
0.0
 44
0.0
 45
0.0
 49
6.5
 74
     4
 75
     0
340
0
 46
0.0
 50
0.0
 44
0.0
 45
0.0
 49
-6.5
 74
     4
 75
     0
340
0
 46
0.0
 50
0.0
 44
0.0
 45
0.0
 49
6.5
 74
     4
 75
     0
340
0
 46
0.0
 50
0.0
 44
0.0
 45
0.0
 49
-6.5
 74
     4
 75
     0
340
0
 46
0.0
 50
0.0
 44
0.0
 45
0.0
  0
LTYPE
  5
351
330
5
100
AcDbSymbolTableRecord
100
AcDbLinetypeTableRecord
  2
CENTER2
 70
     0
  3
Center (.5x) ___ _ ___ _ ___ _ ___ _ ___ _ ___
 72
    65
 73
     4
 40
1.125
 49
0.75
 74
     0
 49
-0.125
 74
     0
 49
0.125
 74
     0
 49
-0.125
 74
     0
  0
ENDTAB
  0
TABLE
  2
LAYER
  5
2
330
0
100
AcDbSymbolTable
 70
    22
  0
LAYER
  5
10
102
{ACAD_XDICTIONARY
360
35C
102
}
330
2
100
AcDbSymbolTableRecord
100
AcDbLayerTableRecord
  2
0
 70
     0
 62
     7
  6
Continuous
370
    -3
390
F
  0
LAYER
  5
20A
330
2
100
AcDbSymbolTableRecord
100
AcDbLayerTableRecord
  2
Defpoints
 70
     0
 62
     7
  6
Continuous
290
     0
370
    -3
390
F
  0
LAYER
  5
34E
102
{ACAD_XDICTIONARY
360
35E
102
}
330
2
100
AcDbSymbolTableRecord
100
AcDbLayerTableRecord
  2
1
 70
     0
 62
     4
  6
Continuous
370
    -3
390
F
  0
LAYER
  5
34F
102
{ACAD_XDICTIONARY
360
360
102
}
330
2
100
AcDbSymbolTableRecord
100
AcDbLayerTableRecord
  2
2
 70
     0
 62
     7
  6
Continuous
370
    -3
390
F
  0
LAYER
  5
350
102
{ACAD_XDICTIONARY
360
362
102
}
330
2
100
AcDbSymbolTableRecord
100
AcDbLayerTableRecord
  2
4
 70
     0
 62
     2
  6
CENTER2
370
    -3
390
F
  0
LAYER
  5
352
102
{ACAD_XDICTIONARY
360
364
102
}
330
2
100
AcDbSymbolTableRecord
100
AcDbLayerTableRecord
  2
SK1
 70
     0
 62
     4
  6
Continuous
370
    -3
390
F
  0
LAYER
  5
353
102
{ACAD_XDICTIONARY
360
366
102
}
330
2
100
AcDbSymbolTableRecord
100
AcDbLayerTableRecord
  2
SK2
 70
     0
 62
     7
  6
Continuous
370
    -3
390
F
  0
LAYER
  5
355
102
{ACAD_XDICTIONARY
360
368
102
}
330
2
100
AcDbSymbolTableRecord
100
AcDbLayerTableRecord
  2
SK4
 70
     0
 62
     2
  6
CENTER2
370
    -3
390
F
  0
LAYER
  5
356
102
{ACAD_XDICTIONARY
360
36A
102
}
330
2
100
AcDbSymbolTableRecord
100
AcDbLayerTableRecord
  2
SK6
 70
     0
 62
     5
  6
Continuous
370
    -3
390
F
  0
LAYER
  5
357
102
{ACAD_XDICTIONARY
360
36C
102
}
330
2
100
AcDbSymbolTableRecord
100
AcDbLayerTableRecord
  2
CUT
 70
     0
 62
     1
  6
Continuous
370
    -3
390
F
  0
LAYER
  5
358
102
{ACAD_XDICTIONARY
360
36E
102
}
330
2
100
AcDbSymbolTableRecord
100
AcDbLayerTableRecord
  2
NOCUT
 70
     0
 62
     7
  6
Continuous
370
    -3
390
F
  0
LAYER
  5
359
102
{ACAD_XDICTIONARY
360
370
102
}
330
2
100
AcDbSymbolTableRecord
100
AcDbLayerTableRecord
  2
80
 70
     0
 62
     6
  6
Continuous
370
    -3
390
F
  0
LAYER
  5
35A
102
{ACAD_XDICTIONARY
360
372
102
}
330
2
100
AcDbSymbolTableRecord
100
AcDbLayerTableRecord
  2
81
 70
     0
 62
     3
  6
Continuous
370
    -3
390
F
  0
ENDTAB
  0
TABLE
  2
STYLE
  5
3
330
0
100
AcDbSymbolTable
 70
     3
  0
STYLE
  5
11
330
3
100
AcDbSymbolTableRecord
100
AcDbTextStyleTableRecord
  2
Standard
 70
     0
 40
0.0
 41
1.0
 50
0.0
 71
     0
 42
0.2
  3
txt
  4

  0
STYLE
  5
1FE
330
3
100
AcDbSymbolTableRecord
100
AcDbTextStyleTableRecord
  2
cesky
 70
     0
 40
0.0
 41
1.0
 50
0.0
 71
     0
 42
0.2
  3
simplex.shx
  4

  0
STYLE
  5
1FF
330
3
100
AcDbSymbolTableRecord
100
AcDbTextStyleTableRecord
  2
DWGDirectTextStyle
 70
     0
 40
0.0
 41
1.0
 50
0.0
 71
     0
 42
0.2
  3
simplex
  4

  0
ENDTAB
  0
TABLE
  2
VIEW
  5
6
330
0
100
AcDbSymbolTable
 70
     0
  0
ENDTAB
  0
TABLE
  2
UCS
  5
7
330
0
100
AcDbSymbolTable
 70
     0
  0
ENDTAB
  0
TABLE
  2
APPID
  5
9
330
0
100
AcDbSymbolTable
 70
     7
  0
APPID
  5
12
330
9
100
AcDbSymbolTableRecord
100
AcDbRegAppTableRecord
  2
ACAD
 70
     0
  0
APPID
  5
206
330
9
100
AcDbSymbolTableRecord
100
AcDbRegAppTableRecord
  2
ACAD_DSTYLE_DIMBREAK
 70
     0
  0
APPID
  5
2BF
330
9
100
AcDbSymbolTableRecord
100
AcDbRegAppTableRecord
  2
ACAD_DSTYLE_DIM_LINETYPE
 70
     0
  0
APPID
  5
2C0
330
9
100
AcDbSymbolTableRecord
100
AcDbRegAppTableRecord
  2
ACAD_DSTYLE_DIM_EXT1_LINETYPE
 70
     0
  0
APPID
  5
2C1
330
9
100
AcDbSymbolTableRecord
100
AcDbRegAppTableRecord
  2
ACAD_DSTYLE_DIM_EXT2_LINETYPE
 70
     0
  0
APPID
  5
301
330
9
100
AcDbSymbolTableRecord
100
AcDbRegAppTableRecord
  2
ACAD_MLEADERVER
 70
     0
  0
APPID
  5
377
330
9
100
AcDbSymbolTableRecord
100
AcDbRegAppTableRecord
  2
ACAD_NAV_VCDISPLAY
 70
     0
  0
ENDTAB
  0
TABLE
  2
DIMSTYLE
  5
A
330
0
100
AcDbSymbolTable
 70
     1
100
AcDbDimStyleTable
 71
     0
  0
DIMSTYLE
105
27
330
A
100
AcDbSymbolTableRecord
100
AcDbDimStyleTableRecord
  2
Standard
 70
     0
340
11
1001
ACAD_DSTYLE_DIMBREAK
1070
   391
1040
6.349999999999999
  0
ENDTAB
  0
TABLE
  2
BLOCK_RECORD
  5
1
330
0
100
AcDbSymbolTable
 70
    16
  0
BLOCK_RECORD
  5
1F
102
{ACAD_XDICTIONARY
360
311
102
}
330
1
100
AcDbSymbolTableRecord
100
AcDbBlockTableRecord
  2
*Model_Space
340
22
  0
BLOCK_RECORD
  5
1B
330
1
100
AcDbSymbolTableRecord
100
AcDbBlockTableRecord
  2
*Paper_Space
340
1E
  0
BLOCK_RECORD
  5
23
330
1
100
AcDbSymbolTableRecord
100
AcDbBlockTableRecord
  2
*Paper_Space0
340
26
  0
BLOCK_RECORD
  5
201
330
1
100
AcDbSymbolTableRecord
100
AcDbBlockTableRecord
  2
ASSORTED_DRAFT1
340
0
  0
BLOCK_RECORD
  5
20B
330
1
100
AcDbSymbolTableRecord
100
AcDbBlockTableRecord
  2
*D2
340
0
  0
BLOCK_RECORD
  5
216
330
1
100
AcDbSymbolTableRecord
100
AcDbBlockTableRecord
  2
_U0
340
0
  0
BLOCK_RECORD
  5
221
330
1
100
AcDbSymbolTableRecord
100
AcDbBlockTableRecord
  2
*D4
340
0
  0
BLOCK_RECORD
  5
22D
330
1
100
AcDbSymbolTableRecord
100
AcDbBlockTableRecord
  2
_U1
340
0
  0
BLOCK_RECORD
  5
23A
330
1
100
AcDbSymbolTableRecord
100
AcDbBlockTableRecord
  2
*D6
340
0
  0
BLOCK_RECORD
  5
246
330
1
100
AcDbSymbolTableRecord
100
AcDbBlockTableRecord
  2
_U2
340
0
  0
BLOCK_RECORD
  5
253
330
1
100
AcDbSymbolTableRecord
100
AcDbBlockTableRecord
  2
*D8
340
0
  0
BLOCK_RECORD
  5
25F
330
1
100
AcDbSymbolTableRecord
100
AcDbBlockTableRecord
  2
_U3
340
0
  0
BLOCK_RECORD
  5
26B
330
1
100
AcDbSymbolTableRecord
100
AcDbBlockTableRecord
  2
*D10
340
0
  0
BLOCK_RECORD
  5
277
330
1
100
AcDbSymbolTableRecord
100
AcDbBlockTableRecord
  2
_U4
340
0
  0
BLOCK_RECORD
  5
283
330
1
100
AcDbSymbolTableRecord
100
AcDbBlockTableRecord
  2
*D12
340
0
  0
BLOCK_RECORD
  5
28F
330
1
100
AcDbSymbolTableRecord
100
AcDbBlockTableRecord
  2
_U5
340
0
  0
BLOCK_RECORD
  5
29B
330
1
100
AcDbSymbolTableRecord
100
AcDbBlockTableRecord
  2
*D14
340
0
  0
BLOCK_RECORD
  5
2A7
330
1
100
AcDbSymbolTableRecord
100
AcDbBlockTableRecord
  2
_U6
340
0
  0
ENDTAB
  0
ENDSEC
  0
SECTION
  2
BLOCKS
  0
BLOCK
  5
20
330
1F
100
AcDbEntity
  8
0
100
AcDbBlockBegin
  2
*Model_Space
 70
     0
 10
0.0
 20
0.0
 30
0.0
  3
*Model_Space
  1

  0
ENDBLK
  5
21
330
1F
100
AcDbEntity
  8
0
100
AcDbBlockEnd
  0
BLOCK
  5
1C
330
1B
100
AcDbEntity
 67
     1
  8
0
100
AcDbBlockBegin
  2
*Paper_Space
 70
     0
 10
0.0
 20
0.0
 30
0.0
  3
*Paper_Space
  1

  0
ENDBLK
  5
1D
330
1B
100
AcDbEntity
 67
     1
  8
0
100
AcDbBlockEnd
  0
BLOCK
  5
24
330
23
100
AcDbEntity
 67
     1
  8
0
100
AcDbBlockBegin
  2
*Paper_Space0
 70
     0
 10
0.0
 20
0.0
 30
0.0
  3
*Paper_Space0
  1

  0
ENDBLK
  5
25
330
23
100
AcDbEntity
 67
     1
  8
0
100
AcDbBlockEnd
  0
BLOCK
  5
204
330
201
100
AcDbEntity
  8
0
100
AcDbBlockBegin
  2
ASSORTED_DRAFT1
 70
     0
 10
0.0
 20
0.0
 30
0.0
  3
ASSORTED_DRAFT1
  1

  0
SOLID
  5
202
330
201
100
AcDbEntity
  8
0
 62
   254
370
    13
100
AcDbTrace
 10
270.185042
 20
164.534924
 30
0.0
 11
265.185046
 21
163.42645
 31
0.0
 12
265.1850379999999
 22
165.643397
 32
0.0
 13
270.185042
 23
164.534924
 33
0.0
  0
ENDBLK
  5
205
330
201
100
AcDbEntity
  8
0
100
AcDbBlockEnd
  0
BLOCK
  5
20C
330
20B
100
AcDbEntity
  8
0
100
AcDbBlockBegin
  2
*D2
 70
     1
 10
0.0
 20
0.0
 30
0.0
  3
*D2
  1

  0
LINE
  5
20E
330
20B
100
AcDbEntity
  8
0
 62
   254
370
    -2
100
AcDbLine
 10
289.703832
 20
288.907994
 30
0.0
 11
450.0642599999999
 21
288.907994
 31
0.0
  0
LINE
  5
20F
330
20B
100
AcDbEntity
  8
0
 62
   254
370
    -2
100
AcDbLine
 10
330.83929
 20
305.907994
 30
0.0
 11
450.0642599999999
 21
305.907994
 31
0.0
  0
LINE
  5
210
330
20B
100
AcDbEntity
  8
0
 62
   254
370
    -2
100
AcDbLine
 10
449.06426
 20
288.907994
 30
0.0
 11
449.06426
 21
305.907994
 31
0.0
  0
SOLID
  5
211
330
20B
100
AcDbEntity
  8
0
 62
   254
100
AcDbTrace
 10
449.6475929999999
 20
302.407994
 30
0.0
 11
448.4809259999999
 21
302.407994
 31
0.0
 12
449.06426
 22
305.907994
 32
0.0
 13
449.06426
 23
305.907994
 33
0.0
  0
MTEXT
  5
212
330
20B
100
AcDbEntity
  8
0
 62
   254
370
    13
100
AcDbMText
 10
443.8142599999999
 20
278.991327
 30
0.0
 40
3.5
 41
0.0
 71
     5
 72
     1
  1
\A1;34
  7
cesky
 11
0.0
 21
1.0
 31
0.0
 73
     1
 44
1.0
  0
POINT
  5
213
330
20B
100
AcDbEntity
  8
Defpoints
 62
     0
100
AcDbPoint
 10
289.703832
 20
288.907994
 30
0.0
  0
POINT
  5
214
330
20B
100
AcDbEntity
  8
Defpoints
 62
     0
100
AcDbPoint
 10
330.83929
 20
305.907994
 30
0.0
  0
POINT
  5
215
330
20B
100
AcDbEntity
  8
Defpoints
 62
     0
100
AcDbPoint
 10
449.06426
 20
305.907994
 30
0.0
  0
ENDBLK
  5
20D
330
20B
100
AcDbEntity
  8
0
100
AcDbBlockEnd
  0
BLOCK
  5
21C
330
216
100
AcDbEntity
  8
0
100
AcDbBlockBegin
  2
_U0
 70
     0
 10
0.0
 20
0.0
 30
0.0
  3
_U0
  1

  0
ENDBLK
  5
21D
330
216
100
AcDbEntity
  8
0
100
AcDbBlockEnd
  0
BLOCK
  5
222
330
221
100
AcDbEntity
  8
0
100
AcDbBlockBegin
  2
*D4
 70
     1
 10
0.0
 20
0.0
 30
0.0
  3
*D4
  1

  0
LINE
  5
224
330
221
100
AcDbEntity
  8
0
 62
    95
370
    -2
100
AcDbLine
 10
216.404842
 20
304.907994
 30
0.0
 11
203.66833
 21
304.907994
 31
0.0
  0
LINE
  5
225
330
221
100
AcDbEntity
  8
0
 62
    95
370
    -2
100
AcDbLine
 10
216.404842
 20
272.907994
 30
0.0
 11
203.66833
 21
272.907994
 31
0.0
  0
LINE
  5
226
330
221
100
AcDbEntity
  8
0
 62
    95
370
    -2
100
AcDbLine
 10
204.66833
 20
301.407994
 30
0.0
 11
204.66833
 21
276.407994
 31
0.0
  0
SOLID
  5
227
330
221
100
AcDbEntity
  8
0
 62
    95
100
AcDbTrace
 10
205.251663
 20
301.407994
 30
0.0
 11
204.084996
 21
301.407994
 31
0.0
 12
204.66833
 22
304.907994
 32
0.0
 13
204.66833
 23
304.907994
 33
0.0
  0
SOLID
  5
228
330
221
100
AcDbEntity
  8
0
 62
    95
100
AcDbTrace
 10
204.084996
 20
276.407994
 30
0.0
 11
205.251663
 21
276.407994
 31
0.0
 12
204.66833
 22
272.907994
 32
0.0
 13
204.66833
 23
272.907994
 33
0.0
  0
MTEXT
  5
229
330
221
100
AcDbEntity
  8
0
 62
    95
370
    13
100
AcDbMText
 10
199.41833
 20
288.907994
 30
0.0
 40
3.5
 41
0.0
 71
     5
 72
     1
  1
\A1;32
  7
cesky
 11
0.0
 21
1.0
 31
0.0
 73
     1
 44
1.0
  0
POINT
  5
22A
330
221
100
AcDbEntity
  8
Defpoints
 62
     0
100
AcDbPoint
 10
216.404842
 20
304.907994
 30
0.0
  0
POINT
  5
22B
330
221
100
AcDbEntity
  8
Defpoints
 62
     0
100
AcDbPoint
 10
216.404842
 20
272.907994
 30
0.0
  0
POINT
  5
22C
330
221
100
AcDbEntity
  8
Defpoints
 62
     0
100
AcDbPoint
 10
204.66833
 20
272.907994
 30
0.0
  0
ENDBLK
  5
223
330
221
100
AcDbEntity
  8
0
100
AcDbBlockEnd
  0
BLOCK
  5
235
330
22D
100
AcDbEntity
  8
0
100
AcDbBlockBegin
  2
_U1
 70
     0
 10
0.0
 20
0.0
 30
0.0
  3
_U1
  1

  0
ENDBLK
  5
236
330
22D
100
AcDbEntity
  8
0
100
AcDbBlockEnd
  0
BLOCK
  5
23B
330
23A
100
AcDbEntity
  8
0
100
AcDbBlockBegin
  2
*D6
 70
     1
 10
0.0
 20
0.0
 30
0.0
  3
*D6
  1

  0
LINE
  5
23D
330
23A
100
AcDbEntity
  8
0
 62
    95
370
    -2
100
AcDbLine
 10
277.154842
 20
309.907994
 30
0.0
 11
191.104285
 21
309.907994
 31
0.0
  0
LINE
  5
23E
330
23A
100
AcDbEntity
  8
0
 62
    95
370
    -2
100
AcDbLine
 10
277.154842
 20
267.907994
 30
0.0
 11
191.104285
 21
267.907994
 31
0.0
  0
LINE
  5
23F
330
23A
100
AcDbEntity
  8
0
 62
    95
370
    -2
100
AcDbLine
 10
192.104285
 20
306.407994
 30
0.0
 11
192.104285
 21
271.407994
 31
0.0
  0
SOLID
  5
240
330
23A
100
AcDbEntity
  8
0
 62
    95
100
AcDbTrace
 10
192.687618
 20
306.407994
 30
0.0
 11
191.520952
 21
306.407994
 31
0.0
 12
192.104285
 22
309.907994
 32
0.0
 13
192.104285
 23
309.907994
 33
0.0
  0
SOLID
  5
241
330
23A
100
AcDbEntity
  8
0
 62
    95
100
AcDbTrace
 10
191.520952
 20
271.407994
 30
0.0
 11
192.687618
 21
271.407994
 31
0.0
 12
192.104285
 22
267.907994
 32
0.0
 13
192.104285
 23
267.907994
 33
0.0
  0
MTEXT
  5
242
330
23A
100
AcDbEntity
  8
0
 62
    95
370
    13
100
AcDbMText
 10
186.854285
 20
288.907994
 30
0.0
 40
3.5
 41
0.0
 71
     5
 72
     1
  1
\A1;42
  7
cesky
 11
0.0
 21
1.0
 31
0.0
 73
     1
 44
1.0
  0
POINT
  5
243
330
23A
100
AcDbEntity
  8
Defpoints
 62
     0
100
AcDbPoint
 10
277.154842
 20
309.907994
 30
0.0
  0
POINT
  5
244
330
23A
100
AcDbEntity
  8
Defpoints
 62
     0
100
AcDbPoint
 10
277.154842
 20
267.907994
 30
0.0
  0
POINT
  5
245
330
23A
100
AcDbEntity
  8
Defpoints
 62
     0
100
AcDbPoint
 10
192.104285
 20
267.907994
 30
0.0
  0
ENDBLK
  5
23C
330
23A
100
AcDbEntity
  8
0
100
AcDbBlockEnd
  0
BLOCK
  5
24E
330
246
100
AcDbEntity
  8
0
100
AcDbBlockBegin
  2
_U2
 70
     0
 10
0.0
 20
0.0
 30
0.0
  3
_U2
  1

  0
ENDBLK
  5
24F
330
246
100
AcDbEntity
  8
0
100
AcDbBlockEnd
  0
BLOCK
  5
254
330
253
100
AcDbEntity
  8
0
100
AcDbBlockBegin
  2
*D8
 70
     1
 10
0.0
 20
0.0
 30
0.0
  3
*D8
  1

  0
LINE
  5
256
330
253
100
AcDbEntity
  8
0
 62
   254
370
    -2
100
AcDbLine
 10
435.4048419999999
 20
305.907994
 30
0.0
 11
435.4048419999999
 21
334.9472990000001
 31
0.0
  0
LINE
  5
257
330
253
100
AcDbEntity
  8
0
 62
   254
370
    -2
100
AcDbLine
 10
274.404842
 20
288.907994
 30
0.0
 11
274.404842
 21
334.9472990000001
 31
0.0
  0
LINE
  5
258
330
253
100
AcDbEntity
  8
0
 62
   254
370
    -2
100
AcDbLine
 10
431.9048419999999
 20
333.947299
 30
0.0
 11
277.904842
 21
333.947299
 31
0.0
  0
SOLID
  5
259
330
253
100
AcDbEntity
  8
0
 62
   254
100
AcDbTrace
 10
431.9048419999999
 20
333.363965
 30
0.0
 11
431.9048419999999
 21
334.530632
 31
0.0
 12
435.4048419999999
 22
333.947299
 32
0.0
 13
435.4048419999999
 23
333.947299
 33
0.0
  0
SOLID
  5
25A
330
253
100
AcDbEntity
  8
0
 62
   254
100
AcDbTrace
 10
277.904842
 20
334.530632
 30
0.0
 11
277.904842
 21
333.363965
 31
0.0
 12
274.404842
 22
333.947299
 32
0.0
 13
274.404842
 23
333.947299
 33
0.0
  0
MTEXT
  5
25B
330
253
100
AcDbEntity
  8
0
 62
   254
370
    13
100
AcDbMText
 10
354.904842
 20
339.1972990000001
 30
0.0
 40
3.5
 41
0.0
 71
     5
 72
     1
  1
\A1;161
  7
cesky
 73
     1
 44
1.0
  0
POINT
  5
25C
330
253
100
AcDbEntity
  8
Defpoints
 62
     0
100
AcDbPoint
 10
435.4048419999999
 20
305.907994
 30
0.0
  0
POINT
  5
25D
330
253
100
AcDbEntity
  8
Defpoints
 62
     0
100
AcDbPoint
 10
274.404842
 20
288.907994
 30
0.0
  0
POINT
  5
25E
330
253
100
AcDbEntity
  8
Defpoints
 62
     0
100
AcDbPoint
 10
274.404842
 20
333.947299
 30
0.0
  0
ENDBLK
  5
255
330
253
100
AcDbEntity
  8
0
100
AcDbBlockEnd
  0
BLOCK
  5
266
330
25F
100
AcDbEntity
  8
0
100
AcDbBlockBegin
  2
_U3
 70
     0
 10
0.0
 20
0.0
 30
0.0
  3
_U3
  1

  0
ENDBLK
  5
267
330
25F
100
AcDbEntity
  8
0
100
AcDbBlockEnd
  0
BLOCK
  5
26C
330
26B
100
AcDbEntity
  8
0
100
AcDbBlockBegin
  2
*D10
 70
     1
 10
0.0
 20
0.0
 30
0.0
  3
*D10
  1

  0
LINE
  5
26E
330
26B
100
AcDbEntity
  8
0
 62
   254
370
    -2
100
AcDbLine
 10
435.4048419999999
 20
307.907994
 30
0.0
 11
435.4048419999999
 21
348.392842
 31
0.0
  0
LINE
  5
26F
330
26B
100
AcDbEntity
  8
0
 62
   254
370
    -2
100
AcDbLine
 10
214.404842
 20
302.907994
 30
0.0
 11
214.404842
 21
348.392842
 31
0.0
  0
LINE
  5
270
330
26B
100
AcDbEntity
  8
0
 62
   254
370
    -2
100
AcDbLine
 10
431.9048419999999
 20
347.392842
 30
0.0
 11
217.904842
 21
347.392842
 31
0.0
  0
SOLID
  5
271
330
26B
100
AcDbEntity
  8
0
 62
   254
100
AcDbTrace
 10
431.9048419999999
 20
346.809508
 30
0.0
 11
431.9048419999999
 21
347.976175
 31
0.0
 12
435.4048419999999
 22
347.392842
 32
0.0
 13
435.4048419999999
 23
347.392842
 33
0.0
  0
SOLID
  5
272
330
26B
100
AcDbEntity
  8
0
 62
   254
100
AcDbTrace
 10
217.904842
 20
347.976175
 30
0.0
 11
217.904842
 21
346.809508
 31
0.0
 12
214.404842
 22
347.392842
 32
0.0
 13
214.404842
 23
347.392842
 33
0.0
  0
MTEXT
  5
273
330
26B
100
AcDbEntity
  8
0
 62
   254
370
    13
100
AcDbMText
 10
324.904842
 20
352.642842
 30
0.0
 40
3.5
 41
0.0
 71
     5
 72
     1
  1
\A1;221
  7
cesky
 73
     1
 44
1.0
  0
POINT
  5
274
330
26B
100
AcDbEntity
  8
Defpoints
 62
     0
100
AcDbPoint
 10
435.4048419999999
 20
307.907994
 30
0.0
  0
POINT
  5
275
330
26B
100
AcDbEntity
  8
Defpoints
 62
     0
100
AcDbPoint
 10
214.404842
 20
302.907994
 30
0.0
  0
POINT
  5
276
330
26B
100
AcDbEntity
  8
Defpoints
 62
     0
100
AcDbPoint
 10
214.404842
 20
347.392842
 30
0.0
  0
ENDBLK
  5
26D
330
26B
100
AcDbEntity
  8
0
100
AcDbBlockEnd
  0
BLOCK
  5
27E
330
277
100
AcDbEntity
  8
0
100
AcDbBlockBegin
  2
_U4
 70
     0
 10
0.0
 20
0.0
 30
0.0
  3
_U4
  1

  0
ENDBLK
  5
27F
330
277
100
AcDbEntity
  8
0
100
AcDbBlockEnd
  0
BLOCK
  5
284
330
283
100
AcDbEntity
  8
0
100
AcDbBlockBegin
  2
*D12
 70
     1
 10
0.0
 20
0.0
 30
0.0
  3
*D12
  1

  0
LINE
  5
286
330
283
100
AcDbEntity
  8
0
 62
   254
370
    -2
100
AcDbLine
 10
274.404842
 20
288.907994
 30
0.0
 11
274.404842
 21
334.9472990000001
 31
0.0
  0
LINE
  5
287
330
283
100
AcDbEntity
  8
0
 62
   254
370
    -2
100
AcDbLine
 10
214.404842
 20
295.907994
 30
0.0
 11
214.404842
 21
334.9472990000001
 31
0.0
  0
LINE
  5
288
330
283
100
AcDbEntity
  8
0
 62
   254
370
    -2
100
AcDbLine
 10
270.904842
 20
333.947299
 30
0.0
 11
217.904842
 21
333.947299
 31
0.0
  0
SOLID
  5
289
330
283
100
AcDbEntity
  8
0
 62
   254
100
AcDbTrace
 10
270.904842
 20
333.363965
 30
0.0
 11
270.904842
 21
334.530632
 31
0.0
 12
274.404842
 22
333.947299
 32
0.0
 13
274.404842
 23
333.947299
 33
0.0
  0
SOLID
  5
28A
330
283
100
AcDbEntity
  8
0
 62
   254
100
AcDbTrace
 10
217.904842
 20
334.530632
 30
0.0
 11
217.904842
 21
333.363965
 31
0.0
 12
214.404842
 22
333.947299
 32
0.0
 13
214.404842
 23
333.947299
 33
0.0
  0
MTEXT
  5
28B
330
283
100
AcDbEntity
  8
0
 62
   254
370
    13
100
AcDbMText
 10
244.404842
 20
339.1972990000001
 30
0.0
 40
3.5
 41
0.0
 71
     5
 72
     1
  1
\A1;60
  7
cesky
 73
     1
 44
1.0
  0
POINT
  5
28C
330
283
100
AcDbEntity
  8
Defpoints
 62
     0
100
AcDbPoint
 10
274.404842
 20
288.907994
 30
0.0
  0
POINT
  5
28D
330
283
100
AcDbEntity
  8
Defpoints
 62
     0
100
AcDbPoint
 10
214.404842
 20
295.907994
 30
0.0
  0
POINT
  5
28E
330
283
100
AcDbEntity
  8
Defpoints
 62
     0
100
AcDbPoint
 10
214.404842
 20
333.947299
 30
0.0
  0
ENDBLK
  5
285
330
283
100
AcDbEntity
  8
0
100
AcDbBlockEnd
  0
BLOCK
  5
296
330
28F
100
AcDbEntity
  8
0
100
AcDbBlockBegin
  2
_U5
 70
     0
 10
0.0
 20
0.0
 30
0.0
  3
_U5
  1

  0
ENDBLK
  5
297
330
28F
100
AcDbEntity
  8
0
100
AcDbBlockEnd
  0
BLOCK
  5
29C
330
29B
100
AcDbEntity
  8
0
100
AcDbBlockBegin
  2
*D14
 70
     1
 10
0.0
 20
0.0
 30
0.0
  3
*D14
  1

  0
LINE
  5
29E
330
29B
100
AcDbEntity
  8
0
 62
   254
370
    -2
100
AcDbLine
 10
435.4048419999999
 20
305.907994
 30
0.0
 11
435.4048419999999
 21
321.452442
 31
0.0
  0
LINE
  5
29F
330
29B
100
AcDbEntity
  8
0
 62
   254
370
    -2
100
AcDbLine
 10
289.886743
 20
305.703143
 30
0.0
 11
289.886743
 21
321.452442
 31
0.0
  0
LINE
  5
2A0
330
29B
100
AcDbEntity
  8
0
 62
   254
370
    -2
100
AcDbLine
 10
431.9048419999999
 20
320.452442
 30
0.0
 11
293.386743
 21
320.452442
 31
0.0
  0
SOLID
  5
2A1
330
29B
100
AcDbEntity
  8
0
 62
   254
100
AcDbTrace
 10
431.9048419999999
 20
319.869108
 30
0.0
 11
431.9048419999999
 21
321.035775
 31
0.0
 12
435.4048419999999
 22
320.452442
 32
0.0
 13
435.4048419999999
 23
320.452442
 33
0.0
  0
SOLID
  5
2A2
330
29B
100
AcDbEntity
  8
0
 62
   254
100
AcDbTrace
 10
293.386743
 20
321.035775
 30
0.0
 11
293.386743
 21
319.869108
 31
0.0
 12
289.886743
 22
320.452442
 32
0.0
 13
289.886743
 23
320.452442
 33
0.0
  0
MTEXT
  5
2A3
330
29B
100
AcDbEntity
  8
0
 62
   254
370
    13
100
AcDbMText
 10
362.645792
 20
325.702442
 30
0.0
 40
3.5
 41
0.0
 71
     5
 72
     1
  1
\A1;145.5
  7
cesky
 73
     1
 44
1.0
  0
POINT
  5
2A4
330
29B
100
AcDbEntity
  8
Defpoints
 62
     0
100
AcDbPoint
 10
435.4048419999999
 20
305.907994
 30
0.0
  0
POINT
  5
2A5
330
29B
100
AcDbEntity
  8
Defpoints
 62
     0
100
AcDbPoint
 10
289.886743
 20
305.703143
 30
0.0
  0
POINT
  5
2A6
330
29B
100
AcDbEntity
  8
Defpoints
 62
     0
100
AcDbPoint
 10
289.886743
 20
320.452442
 30
0.0
  0
ENDBLK
  5
29D
330
29B
100
AcDbEntity
  8
0
100
AcDbBlockEnd
  0
BLOCK
  5
2AE
330
2A7
100
AcDbEntity
  8
0
100
AcDbBlockBegin
  2
_U6
 70
     0
 10
0.0
 20
0.0
 30
0.0
  3
_U6
  1

  0
ENDBLK
  5
2AF
330
2A7
100
AcDbEntity
  8
0
100
AcDbBlockEnd
  0
ENDSEC
  0
SECTION
  2
ENTITIES
  0
POINT
  5
73
102
{ACAD_REACTORS
330
35B
102
}
330
1F
100
AcDbEntity
  8
80
100
AcDbPoint
 10
274.404842
 20
288.907994
 30
0.0
  0
POINT
  5
76
330
1F
100
AcDbEntity
  8
SK4
 60
     1
100
AcDbPoint
 10
216.404842
 20
288.907994
 30
0.0
  0
POINT
  5
78
330
1F
100
AcDbEntity
  8
SK4
 60
     1
100
AcDbPoint
 10
274.404842
 20
288.907994
 30
0.0
  0
POINT
  5
79
330
1F
100
AcDbEntity
  8
4
 60
     1
100
AcDbPoint
 10
289.703832
 20
288.907994
 30
0.0
  0
POINT
  5
7A
330
1F
100
AcDbEntity
  8
4
 60
     1
100
AcDbPoint
 10
435.0212309999999
 20
288.907994
 30
0.0
  0
POINT
  5
7B
330
1F
100
AcDbEntity
  8
SK6
 60
     1
100
AcDbPoint
 10
274.404842
 20
288.907994
 30
0.0
  0
POINT
  5
7C
330
1F
100
AcDbEntity
  8
SK6
 60
     1
100
AcDbPoint
 10
289.886743
 20
305.703143
 30
0.0
  0
LINE
  5
7D
330
1F
100
AcDbEntity
  8
80
100
AcDbLine
 10
274.404842
 20
287.90842
 30
0.0
 11
274.404842
 21
289.907567
 31
0.0
  0
LINE
  5
7E
330
1F
100
AcDbEntity
  8
81
100
AcDbLine
 10
435.4048419999999
 20
307.907994
 30
0.0
 11
435.4048419999999
 21
303.907994
 31
0.0
  0
LINE
  5
7F
330
1F
100
AcDbEntity
  8
81
100
AcDbLine
 10
433.404842
 20
305.907994
 30
0.0
 11
437.404842
 21
305.907994
 31
0.0
  0
LINE
  5
80
330
1F
100
AcDbEntity
  8
SK1
100
AcDbLine
 10
216.404842
 20
272.907994
 30
0.0
 11
274.404842
 21
272.907994
 31
0.0
  0
LINE
  5
82
330
1F
100
AcDbEntity
  8
1
100
AcDbLine
 10
274.904842
 20
267.907994
 30
0.0
 11
279.404842
 21
267.907994
 31
0.0
  0
LINE
  5
83
330
1F
100
AcDbEntity
  8
1
100
AcDbLine
 10
434.8470129999999
 20
305.022398
 30
0.0
 11
435.135245
 21
297.067971
 31
0.0
  0
LINE
  5
85
330
1F
100
AcDbEntity
  8
1
100
AcDbLine
 10
426.074112
 20
305.488306
 30
0.0
 11
434.0467359999999
 21
305.766081
 31
0.0
  0
LINE
  5
86
330
1F
100
AcDbEntity
  8
1
100
AcDbLine
 10
425.617911
 20
296.736377
 30
0.0
 11
425.32968
 21
304.690804
 31
0.0
  0
LINE
  5
87
330
1F
100
AcDbEntity
  8
1
100
AcDbLine
 10
434.390812
 20
296.2704700000001
 30
0.0
 11
426.4181889999999
 21
295.992695
 31
0.0
  0
LINE
  5
88
330
1F
100
AcDbEntity
  8
1
100
AcDbLine
 10
426.6062309999999
 20
304.2361899999999
 30
0.0
 11
433.600596
 21
304.479882
 31
0.0
  0
LINE
  5
89
330
1F
100
AcDbEntity
  8
1
100
AcDbLine
 10
426.859095
 20
297.257788
 30
0.0
 11
426.6062309999999
 21
304.2361899999999
 31
0.0
  0
LINE
  5
8A
330
1F
100
AcDbEntity
  8
1
100
AcDbLine
 10
433.853461
 20
297.50148
 30
0.0
 11
426.859095
 21
297.257788
 31
0.0
  0
LINE
  5
8B
330
1F
100
AcDbEntity
  8
1
100
AcDbLine
 10
433.600596
 20
304.479882
 30
0.0
 11
433.853461
 21
297.50148
 31
0.0
  0
LINE
  5
8C
330
1F
100
AcDbEntity
  8
1
100
AcDbLine
 10
433.95972
 20
281.112711
 30
0.0
 11
433.9663119999999
 21
281.490318
 31
0.0
  0
LINE
  5
8D
330
1F
100
AcDbEntity
  8
1
100
AcDbLine
 10
433.9147829999999
 20
281.004831
 30
0.0
 11
433.941569
 21
281.04941
 31
0.0
  0
LINE
  5
8E
330
1F
100
AcDbEntity
  8
1
100
AcDbLine
 10
435.359382
 20
288.276592
 30
0.0
 11
434.728011
 21
289.415615
 31
0.0
  0
LINE
  5
8F
330
1F
100
AcDbEntity
  8
1
100
AcDbLine
 10
435.399861
 20
287.909483
 30
0.0
 11
435.275424
 21
280.780477
 31
0.0
  0
LINE
  5
90
330
1F
100
AcDbEntity
  8
1
100
AcDbLine
 10
435.399861
 20
287.909483
 30
0.0
 11
435.3982219999999
 21
288.129171
 31
0.0
  0
LINE
  5
91
330
1F
100
AcDbEntity
  8
1
100
AcDbLine
 10
434.556683
 20
279.518314
 30
0.0
 11
434.67449
 21
279.703751
 31
0.0
  0
LINE
  5
92
330
1F
100
AcDbEntity
  8
1
100
AcDbLine
 10
435.2334059999999
 20
280.633944
 30
0.0
 11
434.67449
 21
279.703751
 31
0.0
  0
LINE
  5
93
330
1F
100
AcDbEntity
  8
1
100
AcDbLine
 10
434.623573
 20
289.526675
 30
0.0
 11
434.438136
 21
289.644481
 31
0.0
  0
LINE
  5
94
330
1F
100
AcDbEntity
  8
1
100
AcDbLine
 10
434.196794
 20
289.789494
 30
0.0
 11
434.438136
 21
289.644481
 31
0.0
  0
LINE
  5
95
330
1F
100
AcDbEntity
  8
1
100
AcDbLine
 10
433.755981
 20
279.031601
 30
0.0
 11
434.445624
 21
279.413876
 31
0.0
  0
LINE
  5
96
330
1F
100
AcDbEntity
  8
1
100
AcDbLine
 10
274.404842
 20
309.407994
 30
0.0
 11
274.404842
 21
288.907994
 31
0.0
  0
LINE
  5
97
330
1F
100
AcDbEntity
  8
1
100
AcDbLine
 10
274.404842
 20
288.907994
 30
0.0
 11
274.404842
 21
268.407994
 31
0.0
  0
LINE
  5
98
330
1F
100
AcDbEntity
  8
1
100
AcDbLine
 10
425.5809499999999
 20
305.276354
 30
0.0
 11
425.5763759999999
 21
305.40786
 31
0.0
  0
LINE
  5
99
330
1F
100
AcDbEntity
  8
1
100
AcDbLine
 10
428.274148
 20
295.850749
 30
0.0
 11
434.491111
 21
296.067355
 31
0.0
  0
LINE
  5
9A
330
1F
100
AcDbEntity
  8
1
100
AcDbLine
 10
434.7148419999999
 20
290.421821
 30
0.0
 11
434.7148419999999
 21
290.521836
 31
0.0
  0
LINE
  5
9B
330
1F
100
AcDbEntity
  8
1
100
AcDbLine
 10
434.492566
 20
295.920302
 30
0.0
 11
434.491111
 21
296.067355
 31
0.0
  0
LINE
  5
9C
330
1F
100
AcDbEntity
  8
1
100
AcDbLine
 10
425.351236
 20
304.883259
 30
0.0
 11
425.336348
 21
305.311365
 31
0.0
  0
LINE
  5
9D
330
1F
100
AcDbEntity
  8
1
100
AcDbLine
 10
434.4072119999999
 20
295.373207
 30
0.0
 11
426.4681299999999
 21
295.096601
 31
0.0
  0
LINE
  5
9E
330
1F
100
AcDbEntity
  8
1
100
AcDbLine
 10
434.4072119999999
 20
295.373207
 30
0.0
 11
432.4401110000001
 21
292.113906
 31
0.0
  0
LINE
  5
9F
330
1F
100
AcDbEntity
  8
1
100
AcDbLine
 10
433.949248
 20
279.008559
 30
0.0
 11
433.7734779999999
 21
279.011371
 31
0.0
  0
LINE
  5
A0
330
1F
100
AcDbEntity
  8
1
100
AcDbLine
 10
433.756312
 20
279.51171
 30
0.0
 11
434.142841
 21
283.153494
 31
0.0
  0
LINE
  5
A1
330
1F
100
AcDbEntity
  8
1
100
AcDbLine
 10
434.142841
 20
283.153494
 30
0.0
 11
434.142841
 21
289.303997
 31
0.0
  0
LINE
  5
A2
330
1F
100
AcDbEntity
  8
1
100
AcDbLine
 10
434.213111
 20
289.802847
 30
0.0
 11
434.3891799999999
 21
289.799773
 31
0.0
  0
LINE
  5
A3
330
1F
100
AcDbEntity
  8
1
100
AcDbLine
 10
427.423095
 20
301.460722
 30
0.0
 11
427.4026429999999
 21
301.378228
 31
0.0
  0
LINE
  5
A5
330
1F
100
AcDbEntity
  8
1
100
AcDbLine
 10
432.7410259999999
 20
300.054723
 30
0.0
 11
432.761478
 21
300.137217
 31
0.0
  0
LINE
  5
A6
330
1F
100
AcDbEntity
  8
1
100
AcDbLine
 10
279.404842
 20
267.907994
 30
0.0
 11
279.804337
 21
268.307488
 31
0.0
  0
LINE
  5
A7
330
1F
100
AcDbEntity
  8
1
100
AcDbLine
 10
279.804337
 20
309.508499
 30
0.0
 11
279.404842
 21
309.907994
 31
0.0
  0
LINE
  5
A8
330
1F
100
AcDbEntity
  8
SK1
100
AcDbLine
 10
214.404842
 20
274.907994
 30
0.0
 11
216.404842
 21
272.907994
 31
0.0
  0
LINE
  5
A9
330
1F
100
AcDbEntity
  8
SK1
100
AcDbLine
 10
216.404842
 20
304.907994
 30
0.0
 11
214.404842
 21
302.907994
 31
0.0
  0
LINE
  5
AA
330
1F
100
AcDbEntity
  8
SK1
100
AcDbLine
 10
274.404842
 20
304.907994
 30
0.0
 11
216.404842
 21
304.907994
 31
0.0
  0
LINE
  5
AB
330
1F
100
AcDbEntity
  8
1
100
AcDbLine
 10
274.904842
 20
267.907994
 30
0.0
 11
274.404842
 21
268.407994
 31
0.0
  0
LINE
  5
AC
330
1F
100
AcDbEntity
  8
1
100
AcDbLine
 10
274.404842
 20
309.407994
 30
0.0
 11
274.904842
 21
309.907994
 31
0.0
  0
LINE
  5
AD
330
1F
100
AcDbEntity
  8
1
100
AcDbLine
 10
279.404842
 20
309.907994
 30
0.0
 11
274.904842
 21
309.907994
 31
0.0
  0
LINE
  5
B2
330
1F
100
AcDbEntity
  8
80
100
AcDbLine
 10
275.404416
 20
288.907994
 30
0.0
 11
273.405268
 21
288.907994
 31
0.0
  0
LINE
  5
B3
330
1F
100
AcDbEntity
  8
1
100
AcDbLine
 10
434.734349
 20
287.963649
 30
0.0
 11
434.6122849999999
 21
280.970629
 31
0.0
  0
LINE
  5
B4
330
1F
100
AcDbEntity
  8
1
100
AcDbLine
 10
434.237296
 20
288.941736
 30
0.0
 11
434.69747
 21
288.111559
 31
0.0
  0
LINE
  5
B5
330
1F
100
AcDbEntity
  8
1
100
AcDbLine
 10
434.570267
 20
280.824096
 30
0.0
 11
434.0813999999999
 21
280.0104839999999
 31
0.0
  0
LINE
  5
B6
330
1F
100
AcDbEntity
  8
1
100
AcDbLine
 10
433.971745
 20
279.904592
 30
0.0
 11
433.7871469999999
 21
279.802267
 31
0.0
  0
LINE
  5
B7
330
1F
100
AcDbEntity
  8
1
100
AcDbLine
 10
279.404842
 20
267.907994
 30
0.0
 11
279.404842
 21
271.901912
 31
0.0
  0
LINE
  5
B8
330
1F
100
AcDbEntity
  8
1
100
AcDbLine
 10
279.404842
 20
309.907994
 30
0.0
 11
279.404842
 21
279.962706
 31
0.0
  0
LINE
  5
B9
330
1F
100
AcDbEntity
  8
1
100
AcDbLine
 10
434.4072119999999
 20
295.373207
 30
0.0
 11
434.4275849999999
 21
295.384079
 31
0.0
  0
LINE
  5
BA
330
1F
100
AcDbEntity
  8
1
100
AcDbLine
 10
434.5330599999999
 20
296.08974
 30
0.0
 11
428.2793809999999
 21
295.871855
 31
0.0
  0
LINE
  5
BB
330
1F
100
AcDbEntity
  8
1
100
AcDbLine
 10
428.274148
 20
295.850749
 30
0.0
 11
428.2793809999999
 21
295.871855
 31
0.0
  0
LINE
  5
BC
330
1F
100
AcDbEntity
  8
1
100
AcDbLine
 10
434.3891799999999
 20
289.799773
 30
0.0
 11
434.6726799999999
 21
290.183946
 31
0.0
  0
LINE
  5
BD
330
1F
100
AcDbEntity
  8
1
100
AcDbLine
 10
434.6726799999999
 20
290.422557
 30
0.0
 11
434.6726799999999
 21
290.183946
 31
0.0
  0
LINE
  5
BE
330
1F
100
AcDbEntity
  8
1
100
AcDbLine
 10
434.6726799999999
 20
290.422557
 30
0.0
 11
434.7148419999999
 21
290.421821
 31
0.0
  0
LINE
  5
BF
330
1F
100
AcDbEntity
  8
1
100
AcDbLine
 10
434.7148419999999
 20
296.366605
 30
0.0
 11
434.7148419999999
 21
290.521836
 31
0.0
  0
LINE
  5
C0
330
1F
100
AcDbEntity
  8
1
100
AcDbLine
 10
434.5330599999999
 20
296.08974
 30
0.0
 11
434.530987
 21
296.299386
 31
0.0
  0
LINE
  5
C1
330
1F
100
AcDbEntity
  8
1
100
AcDbLine
 10
434.5330599999999
 20
296.08974
 30
0.0
 11
434.491111
 21
296.067355
 31
0.0
  0
LINE
  5
C2
330
1F
100
AcDbEntity
  8
1
100
AcDbLine
 10
433.5743449999999
 20
272.407994
 30
0.0
 11
434.2078469999999
 21
278.376704
 31
0.0
  0
LINE
  5
C3
330
1F
100
AcDbEntity
  8
1
100
AcDbLine
 10
434.2078469999999
 20
278.376704
 30
0.0
 11
434.1657559999999
 21
278.377377
 31
0.0
  0
LINE
  5
C4
330
1F
100
AcDbEntity
  8
1
100
AcDbLine
 10
434.1910379999999
 20
278.615578
 30
0.0
 11
434.1657559999999
 21
278.377377
 31
0.0
  0
LINE
  5
C5
330
1F
100
AcDbEntity
  8
1
100
AcDbLine
 10
434.1910379999999
 20
278.615578
 30
0.0
 11
433.949248
 21
279.008559
 31
0.0
  0
LINE
  5
C6
330
1F
100
AcDbEntity
  8
1
100
AcDbLine
 10
433.341849
 20
283.153494
 30
0.0
 11
434.142841
 21
283.153494
 31
0.0
  0
LINE
  5
C7
330
1F
100
AcDbEntity
  8
SK1
100
AcDbLine
 10
216.404842
 20
304.907994
 30
0.0
 11
216.404842
 21
272.907994
 31
0.0
  0
LINE
  5
C8
330
1F
100
AcDbEntity
  8
SK1
100
AcDbLine
 10
214.404842
 20
302.907994
 30
0.0
 11
214.404842
 21
274.907994
 31
0.0
  0
LINE
  5
C9
330
1F
100
AcDbEntity
  8
1
100
AcDbLine
 10
425.346104
 20
298.579539
 30
0.0
 11
425.340871
 21
298.558434
 31
0.0
  0
LINE
  5
CA
330
1F
100
AcDbEntity
  8
1
100
AcDbLine
 10
425.346104
 20
298.579539
 30
0.0
 11
425.1119809999999
 21
305.311788
 31
0.0
  0
LINE
  5
CB
330
1F
100
AcDbEntity
  8
1
100
AcDbLine
 10
425.1072349999999
 20
305.276692
 30
0.0
 11
425.340871
 21
298.558434
 31
0.0
  0
LINE
  5
CC
330
1F
100
AcDbEntity
  8
1
100
AcDbLine
 10
433.5743449999999
 20
272.407994
 30
0.0
 11
407.2491199999999
 21
272.407994
 31
0.0
  0
LINE
  5
CD
330
1F
100
AcDbEntity
  8
1
100
AcDbLine
 10
274.904842
 20
267.907994
 30
0.0
 11
274.904842
 21
288.907994
 31
0.0
  0
LINE
  5
CE
330
1F
100
AcDbEntity
  8
1
100
AcDbLine
 10
274.904842
 20
288.907994
 30
0.0
 11
274.904842
 21
309.907994
 31
0.0
  0
LINE
  5
CF
330
1F
100
AcDbEntity
  8
1
100
AcDbLine
 10
289.703832
 20
272.407994
 30
0.0
 11
306.201498
 21
272.407994
 31
0.0
  0
LINE
  5
D0
330
1F
100
AcDbEntity
  8
1
100
AcDbLine
 10
425.5776899999999
 20
305.407994
 30
0.0
 11
412.3364919999999
 21
305.407994
 31
0.0
  0
LINE
  5
D1
330
1F
100
AcDbEntity
  8
1
100
AcDbLine
 10
432.541517
 20
283.153494
 30
0.0
 11
432.9566269999999
 21
283.153494
 31
0.0
  0
LINE
  5
D2
330
1F
100
AcDbEntity
  8
1
100
AcDbLine
 10
311.243753
 20
305.407994
 30
0.0
 11
289.703832
 21
305.407994
 31
0.0
  0
LINE
  5
D3
330
1F
100
AcDbEntity
  8
1
100
AcDbLine
 10
428.8417589999999
 20
299.997282
 30
0.0
 11
428.87306
 21
300.123536
 31
0.0
  0
LINE
  5
D4
330
1F
100
AcDbEntity
  8
1
100
AcDbLine
 10
430.898771
 20
299.678004
 30
0.0
 11
430.867394
 21
299.551443
 31
0.0
  0
LINE
  5
D5
330
1F
100
AcDbEntity
  8
1
100
AcDbLine
 10
429.264854
 20
301.835439
 30
0.0
 11
429.296231
 21
301.962
 31
0.0
  0
LINE
  5
D6
330
1F
100
AcDbEntity
  8
1
100
AcDbLine
 10
431.3217889999999
 20
301.515854
 30
0.0
 11
431.2904879999999
 21
301.389601
 31
0.0
  0
LINE
  5
D7
330
1F
100
AcDbEntity
  8
1
100
AcDbLine
 10
431.316886
 20
301.46387
 30
0.0
 11
431.347851
 21
301.588769
 31
0.0
  0
LINE
  5
D8
330
1F
100
AcDbEntity
  8
1
100
AcDbLine
 10
429.394571
 20
299.495673
 30
0.0
 11
429.3638009999999
 21
299.371562
 31
0.0
  0
LINE
  5
D9
330
1F
100
AcDbEntity
  8
1
100
AcDbLine
 10
429.27786
 20
301.934875
 30
0.0
 11
429.308815
 21
302.059734
 31
0.0
  0
LINE
  5
DA
330
1F
100
AcDbEntity
  8
1
100
AcDbLine
 10
428.542351
 20
300.773218
 30
0.0
 11
428.5119289999999
 21
300.650511
 31
0.0
  0
LINE
  5
DB
330
1F
100
AcDbEntity
  8
1
100
AcDbLine
 10
428.61273
 20
300.763013
 30
0.0
 11
428.5818639999999
 21
300.638514
 31
0.0
  0
LINE
  5
DC
330
1F
100
AcDbEntity
  8
1
100
AcDbLine
 10
431.446069
 20
299.975109
 30
0.0
 11
431.4764849999999
 21
300.097794
 31
0.0
  0
LINE
  5
DD
330
1F
100
AcDbEntity
  8
1
100
AcDbLine
 10
431.376718
 20
299.994955
 30
0.0
 11
431.407585
 21
300.119459
 31
0.0
  0
LINE
  5
DE
330
1F
100
AcDbEntity
  8
1
100
AcDbLine
 10
430.119628
 20
299.199005
 30
0.0
 11
430.1504079999999
 21
299.323157
 31
0.0
  0
LINE
  5
DF
330
1F
100
AcDbEntity
  8
1
100
AcDbLine
 10
434.682658
 20
289.477775
 30
0.0
 11
434.1907579999999
 21
289.002752
 31
0.0
  0
LINE
  5
E0
330
1F
100
AcDbEntity
  8
1
100
AcDbLine
 10
433.708098
 20
288.536653
 30
0.0
 11
433.7560169999999
 21
288.582928
 31
0.0
  0
LINE
  5
E1
330
1F
100
AcDbEntity
  8
1
100
AcDbLine
 10
435.3880619999999
 20
288.20519
 30
0.0
 11
434.724553
 21
288.039759
 31
0.0
  0
LINE
  5
E2
330
1F
100
AcDbEntity
  8
1
100
AcDbLine
 10
434.13964
 20
287.893924
 30
0.0
 11
434.724553
 21
288.039759
 31
0.0
  0
LINE
  5
E3
330
1F
100
AcDbEntity
  8
1
100
AcDbLine
 10
433.9548559999999
 20
281.0798529999999
 30
0.0
 11
434.59984
 21
280.894907
 31
0.0
  0
LINE
  5
E4
330
1F
100
AcDbEntity
  8
1
100
AcDbLine
 10
434.59984
 20
280.894907
 30
0.0
 11
435.264067
 21
280.704443
 31
0.0
  0
LINE
  5
E5
330
1F
100
AcDbEntity
  8
1
100
AcDbLine
 10
433.825704
 20
280.165544
 30
0.0
 11
434.0327610000001
 21
279.95113
 31
0.0
  0
LINE
  5
E6
330
1F
100
AcDbEntity
  8
1
100
AcDbLine
 10
434.507783
 20
279.45923
 30
0.0
 11
434.0327610000001
 21
279.95113
 31
0.0
  0
LINE
  5
E7
330
1F
100
AcDbEntity
  8
1
100
AcDbLine
 10
422.9648809999999
 20
295.452128
 30
0.0
 11
422.969855
 21
295.472189
 31
0.0
  0
LINE
  5
E8
330
1F
100
AcDbEntity
  8
1
100
AcDbLine
 10
419.3383899999999
 20
297.04095
 30
0.0
 11
419.732048
 21
296.81436
 31
0.0
  0
LINE
  5
E9
330
1F
100
AcDbEntity
  8
1
100
AcDbLine
 10
422.9668809999999
 20
292.62824
 30
0.0
 11
422.9782559999999
 21
292.295767
 31
0.0
  0
LINE
  5
EA
330
1F
100
AcDbEntity
  8
1
100
AcDbLine
 10
432.9496559999999
 20
295.367459
 30
0.0
 11
426.4598769999999
 21
295.141348
 31
0.0
  0
LINE
  5
EB
330
1F
100
AcDbEntity
  8
1
100
AcDbLine
 10
283.904842
 20
305.165394
 30
0.0
 11
283.904842
 21
285.549461
 31
0.0
  0
LINE
  5
EC
330
1F
100
AcDbEntity
  8
1
100
AcDbLine
 10
283.904842
 20
272.76882
 30
0.0
 11
283.904842
 21
272.650727
 31
0.0
  0
LINE
  5
118
330
1F
100
AcDbEntity
  8
NOCUT
100
AcDbLine
 10
274.404842
 20
304.907994
 30
0.0
 11
216.404842
 21
304.907994
 31
0.0
  0
LINE
  5
119
330
1F
100
AcDbEntity
  8
NOCUT
100
AcDbLine
 10
279.404842
 20
309.907994
 30
0.0
 11
274.904842
 21
309.907994
 31
0.0
  0
LINE
  5
11A
330
1F
100
AcDbEntity
  8
NOCUT
100
AcDbLine
 10
214.404842
 20
302.907994
 30
0.0
 11
214.404842
 21
288.907994
 31
0.0
  0
LINE
  5
11B
330
1F
100
AcDbEntity
  8
NOCUT
100
AcDbLine
 10
279.404842
 20
309.907994
 30
0.0
 11
279.804337
 21
309.508499
 31
0.0
  0
LINE
  5
11C
330
1F
100
AcDbEntity
  8
NOCUT
100
AcDbLine
 10
434.405724
 20
305.407994
 30
0.0
 11
434.7148419999999
 21
296.621375
 31
0.0
  0
LINE
  5
11D
330
1F
100
AcDbEntity
  8
NOCUT
100
AcDbLine
 10
434.7148419999999
 20
296.621375
 30
0.0
 11
434.7148419999999
 21
288.907994
 31
0.0
  0
LINE
  5
11E
330
1F
100
AcDbEntity
  8
NOCUT
100
AcDbLine
 10
434.7148419999999
 20
288.907994
 30
0.0
 11
214.404842
 21
288.907994
 31
0.0
  0
LINE
  5
11F
330
1F
100
AcDbEntity
  8
NOCUT
100
AcDbLine
 10
289.703832
 20
305.407994
 30
0.0
 11
434.405724
 21
305.407994
 31
0.0
  0
LINE
  5
120
330
1F
100
AcDbEntity
  8
NOCUT
100
AcDbLine
 10
274.404842
 20
304.907994
 30
0.0
 11
274.404842
 21
309.407994
 31
0.0
  0
LINE
  5
121
330
1F
100
AcDbEntity
  8
NOCUT
100
AcDbLine
 10
274.404842
 20
309.407994
 30
0.0
 11
274.904842
 21
309.907994
 31
0.0
  0
LINE
  5
122
330
1F
100
AcDbEntity
  8
NOCUT
100
AcDbLine
 10
214.404842
 20
302.907994
 30
0.0
 11
216.404842
 21
304.907994
 31
0.0
  0
CIRCLE
  5
12B
330
1F
100
AcDbEntity
  8
1
100
AcDbCircle
 10
429.418941
 20
284.72888
 30
0.0
 40
1.35
  0
ARC
  5
12C
330
1F
100
AcDbEntity
  8
1
100
AcDbCircle
 10
289.703832
 20
258.407994
 30
0.0
 40
14.0
100
AcDbArc
 50
90.0
 51
135.0
  0
ARC
  5
12D
330
1F
100
AcDbEntity
  8
1
100
AcDbCircle
 10
289.703832
 20
319.407994
 30
0.0
 40
14.0
100
AcDbArc
 50
225.0
 51
270.0
  0
ARC
  5
12E
330
1F
100
AcDbEntity
  8
1
100
AcDbCircle
 10
429.418941
 20
284.72888
 30
0.0
 40
1.75
100
AcDbArc
 50
75.0
 51
345.0
  0
ARC
  5
13D
330
1F
100
AcDbEntity
  8
NOCUT
100
AcDbCircle
 10
289.703832
 20
319.407994
 30
0.0
 40
14.0
100
AcDbArc
 50
225.0
 51
270.0
  0
ELLIPSE
  5
13E
330
1F
100
AcDbEntity
  8
1
100
AcDbEllipse
 10
428.681617
 20
301.980037
 30
0.0
 11
-0.5832372129945669
 21
0.14459755224167
 31
0.0
210
0.0
220
0.0
230
0.9999999999999998
 40
0.9973699999999999
 41
2.002474213456321
 42
3.267004257686486
  0
ELLIPSE
  5
13F
330
1F
100
AcDbEntity
  8
1
100
AcDbEllipse
 10
429.183661
 20
301.920551
 30
0.0
 11
-0.0925165327032324
 21
0.0229369180716156
 31
0.0
210
0.0
220
0.0
230
0.9999999999999998
 40
0.99737
 41
3.267004257686371
 42
3.943736174567318
  0
ELLIPSE
  5
140
330
1F
100
AcDbEntity
  8
1
100
AcDbEllipse
 10
429.345179
 20
302.021322
 30
0.0
 11
-0.0925165327032323
 21
0.0229369180716156
 31
0.0
210
0.0
220
0.0
230
0.9999999999999998
 40
0.99737
 41
5.884998135677857
 42
7.085328828156957
  0
ELLIPSE
  5
141
330
1F
100
AcDbEntity
  8
1
100
AcDbEllipse
 10
429.7504589999999
 20
301.719404
 30
0.0
 11
-0.5832372129945673
 21
0.14459755224167
 31
0.0
210
0.0
220
0.0
230
0.9999999999999998
 40
0.9973699999999999
 41
4.620468091447868
 42
5.884998135677981
  0
ELLIPSE
  5
142
330
1F
100
AcDbEntity
  8
1
100
AcDbEllipse
 10
429.9163319999999
 20
302.1956
 30
0.0
 11
-0.0925165327032344
 21
0.0229369180716161
 31
0.0
210
0.0
220
0.0
230
1.0
 40
0.9973700000000002
 41
3.420137398968747
 42
4.620468091447743
  0
ELLIPSE
  5
143
330
1F
100
AcDbEntity
  8
1
100
AcDbEllipse
 10
430.1068129999999
 20
302.202237
 30
0.0
 11
-0.0925165327032344
 21
0.0229369180716161
 31
0.0
210
0.0
220
0.0
230
1.0
 40
0.9973700000000002
 41
0.2785447453790365
 42
0.9552766622596674
  0
ELLIPSE
  5
144
330
1F
100
AcDbEntity
  8
1
100
AcDbEllipse
 10
430.489218
 20
302.531599
 30
0.0
 11
-0.5832372129945669
 21
0.14459755224167
 31
0.0
210
0.0
220
0.0
230
0.9999999999999998
 40
0.9973699999999999
 41
0.9552766622597065
 42
2.219806706489913
  0
ELLIPSE
  5
145
330
1F
100
AcDbEntity
  8
1
100
AcDbEllipse
 10
430.6891389999999
 20
302.068147
 30
0.0
 11
-0.0925165327032324
 21
0.0229369180716156
 31
0.0
210
0.0
220
0.0
230
0.9999999999999998
 40
0.99737
 41
2.219806706489587
 42
2.89653862337043
  0
ELLIPSE
  5
146
330
1F
100
AcDbEntity
  8
1
100
AcDbEllipse
 10
430.857544
 20
301.978871
 30
0.0
 11
-0.0925165327032323
 21
0.0229369180716156
 31
0.0
210
0.0
220
0.0
230
0.9999999999999998
 40
0.99737
 41
4.837800584481248
 42
6.038131276960222
  0
ELLIPSE
  5
147
330
1F
100
AcDbEntity
  8
1
100
AcDbEllipse
 10
430.7985369999999
 20
301.478067
 30
0.0
 11
-0.5832372129945673
 21
0.14459755224167
 31
0.0
210
0.0
220
0.0
230
0.9999999999999998
 40
0.9973699999999999
 41
3.573270540251261
 42
4.837800584481423
  0
ELLIPSE
  5
148
330
1F
100
AcDbEntity
  8
1
100
AcDbEllipse
 10
431.29501
 20
301.572342
 30
0.0
 11
-0.0925165327032344
 21
0.0229369180716161
 31
0.0
210
0.0
220
0.0
230
1.0
 40
0.9973700000000002
 41
2.372939847772559
 42
3.573270540251103
  0
ELLIPSE
  5
149
330
1F
100
AcDbEntity
  8
1
100
AcDbEllipse
 10
431.396214
 20
301.411076
 30
0.0
 11
-0.0925165327032344
 21
0.0229369180716161
 31
0.0
210
0.0
220
0.0
230
1.0
 40
0.9973700000000002
 41
5.51453250136236
 42
6.191264418242882
  0
ELLIPSE
  5
14A
330
1F
100
AcDbEntity
  8
1
100
AcDbEllipse
 10
431.8737249999999
 20
301.245003
 30
0.0
 11
-0.5832372129945669
 21
0.14459755224167
 31
0.0
210
0.0
220
0.0
230
0.9999999999999998
 40
0.9973699999999999
 41
6.191264418242711
 42
7.455794462472882
  0
ELLIPSE
  5
14B
330
1F
100
AcDbEntity
  8
1
100
AcDbEllipse
 10
431.5716019999999
 20
300.841037
 30
0.0
 11
-0.0925165327032324
 21
0.0229369180716156
 31
0.0
210
0.0
220
0.0
230
0.9999999999999998
 40
0.99737
 41
1.172609155293365
 42
1.849341072174657
  0
ELLIPSE
  5
14C
330
1F
100
AcDbEntity
  8
1
100
AcDbEllipse
 10
431.5784879999999
 20
300.65099
 30
0.0
 11
-0.0925165327032323
 21
0.0229369180716156
 31
0.0
210
0.0
220
0.0
230
0.9999999999999998
 40
0.99737
 41
3.790603033284736
 42
4.990933725763794
  0
ELLIPSE
  5
14D
330
1F
100
AcDbEntity
  8
1
100
AcDbEllipse
 10
431.114202
 20
300.452105
 30
0.0
 11
-0.5832372129945673
 21
0.14459755224167
 31
0.0
210
0.0
220
0.0
230
0.9999999999999998
 40
0.9973699999999999
 41
2.526072989054559
 42
3.790603033284801
  0
ELLIPSE
  5
14E
330
1F
100
AcDbEntity
  8
1
100
AcDbEllipse
 10
431.4448019999999
 20
300.070183
 30
0.0
 11
-0.0925165327032344
 21
0.0229369180716161
 31
0.0
210
0.0
220
0.0
230
1.0
 40
0.9973700000000002
 41
1.325742296575465
 42
2.526072989054175
  0
ELLIPSE
  5
14F
330
1F
100
AcDbEntity
  8
1
100
AcDbEllipse
 10
431.355525
 20
299.90228
 30
0.0
 11
-0.0925165327032344
 21
0.0229369180716161
 31
0.0
210
0.0
220
0.0
230
1.0
 40
0.9973700000000002
 41
4.467334950165492
 42
5.144066867045818
  0
ELLIPSE
  5
150
330
1F
100
AcDbEntity
  8
1
100
AcDbEllipse
 10
431.4506309999999
 20
299.406846
 30
0.0
 11
-0.5832372129945669
 21
0.14459755224167
 31
0.0
210
0.0
220
0.0
230
0.9999999999999998
 40
0.9973699999999999
 41
5.1440668670461
 42
6.408596911276267
  0
ELLIPSE
  5
151
330
1F
100
AcDbEntity
  8
1
100
AcDbEllipse
 10
430.948587
 20
299.466331
 30
0.0
 11
-0.0925165327032324
 21
0.0229369180716156
 31
0.0
210
0.0
220
0.0
230
0.9999999999999998
 40
0.99737
 41
0.1254116040968004
 42
0.8021435209775258
  0
ELLIPSE
  5
152
330
1F
100
AcDbEntity
  8
1
100
AcDbEllipse
 10
430.7870679999999
 20
299.365561
 30
0.0
 11
-0.0925165327032323
 21
0.0229369180716156
 31
0.0
210
0.0
220
0.0
230
0.9999999999999998
 40
0.99737
 41
2.743405482088201
 42
3.943736174567105
  0
ELLIPSE
  5
153
330
1F
100
AcDbEntity
  8
1
100
AcDbEllipse
 10
430.3817879999999
 20
299.667479
 30
0.0
 11
-0.5832372129945673
 21
0.14459755224167
 31
0.0
210
0.0
220
0.0
230
0.9999999999999998
 40
0.9973699999999999
 41
1.478875437858028
 42
2.743405482088232
  0
ELLIPSE
  5
154
330
1F
100
AcDbEntity
  8
1
100
AcDbEllipse
 10
430.215916
 20
299.191282
 30
0.0
 11
-0.0925165327032344
 21
0.0229369180716161
 31
0.0
210
0.0
220
0.0
230
1.0
 40
0.9973700000000002
 41
0.2785447453791287
 42
1.478875437858246
  0
ELLIPSE
  5
155
330
1F
100
AcDbEntity
  8
1
100
AcDbEllipse
 10
430.0254339999999
 20
299.184646
 30
0.0
 11
-0.0925165327032344
 21
0.0229369180716161
 31
0.0
210
0.0
220
0.0
230
1.0
 40
0.9973700000000002
 41
3.420137398968984
 42
4.096869315849618
  0
ELLIPSE
  5
156
330
1F
100
AcDbEntity
  8
1
100
AcDbEllipse
 10
429.6430289999999
 20
298.855284
 30
0.0
 11
-0.5832372129945669
 21
0.14459755224167
 31
0.0
210
0.0
220
0.0
230
0.9999999999999998
 40
0.9973699999999999
 41
4.096869315849524
 42
5.361399360079714
  0
ELLIPSE
  5
157
330
1F
100
AcDbEntity
  8
1
100
AcDbEllipse
 10
430.066124
 20
300.693441
 30
0.0
 11
1.747107238945835
 21
-0.4331469676946396
 31
0.0
210
0.0
220
0.0
230
1.0
 40
0.99737
 41
0.0
 42
6.283185307179585
  0
ELLIPSE
  5
158
330
1F
100
AcDbEntity
  8
1
100
AcDbEllipse
 10
430.0718339999999
 20
300.716476
 30
0.0
 11
2.669191615056137
 21
-0.6617523117556991
 31
0.0
210
0.0
220
0.0
230
1.0
 40
0.99737
 41
0.0
 42
6.283185307179585
  0
ELLIPSE
  5
159
330
1F
100
AcDbEntity
  8
1
100
AcDbEllipse
 10
430.092286
 20
300.798969
 30
0.0
 11
-2.669191615056136
 21
0.6617523117557016
 31
0.0
210
0.0
220
0.0
230
1.0
 40
0.99737
 41
3.141615476525943
 42
6.283109835942772
  0
ELLIPSE
  5
15A
330
1F
100
AcDbEntity
  8
1
100
AcDbEllipse
 10
429.4431089999999
 20
299.318736
 30
0.0
 11
-0.0925165327032324
 21
0.0229369180716156
 31
0.0
210
0.0
220
0.0
230
0.9999999999999998
 40
0.99737
 41
5.361399360079754
 42
6.038131276960512
  0
ELLIPSE
  5
15B
330
1F
100
AcDbEntity
  8
1
100
AcDbEllipse
 10
429.274704
 20
299.408011
 30
0.0
 11
-0.0925165327032323
 21
0.0229369180716156
 31
0.0
210
0.0
220
0.0
230
0.9999999999999998
 40
0.99737
 41
1.696207930891465
 42
2.896538623370648
  0
ELLIPSE
  5
15C
330
1F
100
AcDbEntity
  8
1
100
AcDbEllipse
 10
429.3337099999999
 20
299.908815
 30
0.0
 11
-0.5832372129945673
 21
0.14459755224167
 31
0.0
210
0.0
220
0.0
230
0.9999999999999998
 40
0.9973699999999999
 41
0.431677886661439
 42
1.69620793089154
  0
ELLIPSE
  5
15D
330
1F
100
AcDbEntity
  8
1
100
AcDbEllipse
 10
428.837238
 20
299.81454
 30
0.0
 11
-0.0925165327032344
 21
0.0229369180716161
 31
0.0
210
0.0
220
0.0
230
1.0
 40
0.9973700000000002
 41
5.514532501361621
 42
6.714863193841022
  0
ELLIPSE
  5
15E
330
1F
100
AcDbEntity
  8
1
100
AcDbEllipse
 10
428.736033
 20
299.975807
 30
0.0
 11
-0.0925165327032344
 21
0.0229369180716161
 31
0.0
210
0.0
220
0.0
230
1.0
 40
0.9973700000000002
 41
2.372939847772451
 42
3.049671764652941
  0
ELLIPSE
  5
15F
330
1F
100
AcDbEntity
  8
1
100
AcDbEllipse
 10
428.2585219999999
 20
300.14188
 30
0.0
 11
-0.5832372129945669
 21
0.14459755224167
 31
0.0
210
0.0
220
0.0
230
0.9999999999999998
 40
0.9973699999999999
 41
3.049671764652861
 42
4.314201808883137
  0
ELLIPSE
  5
160
330
1F
100
AcDbEntity
  8
1
100
AcDbEllipse
 10
428.560646
 20
300.545846
 30
0.0
 11
-0.0925165327032324
 21
0.0229369180716156
 31
0.0
210
0.0
220
0.0
230
0.9999999999999998
 40
0.99737
 41
4.314201808883029
 42
4.990933725763465
  0
ELLIPSE
  5
161
330
1F
100
AcDbEntity
  8
1
100
AcDbEllipse
 10
428.5537589999999
 20
300.735892
 30
0.0
 11
-0.0925165327032323
 21
0.0229369180716156
 31
0.0
210
0.0
220
0.0
230
0.9999999999999998
 40
0.99737
 41
0.6490103796948223
 42
1.849341072173673
  0
ELLIPSE
  5
162
330
1F
100
AcDbEntity
  8
1
100
AcDbEllipse
 10
429.018046
 20
300.934778
 30
0.0
 11
-0.5832372129945673
 21
0.14459755224167
 31
0.0
210
0.0
220
0.0
230
0.9999999999999998
 40
0.9973699999999999
 41
5.667665642644416
 42
6.932195686874563
  0
ELLIPSE
  5
163
330
1F
100
AcDbEntity
  8
1
100
AcDbEllipse
 10
428.687445
 20
301.316699
 30
0.0
 11
-0.0925165327032344
 21
0.0229369180716161
 31
0.0
210
0.0
220
0.0
230
1.0
 40
0.9973700000000002
 41
4.467334950165509
 42
5.667665642644203
  0
ELLIPSE
  5
164
330
1F
100
AcDbEntity
  8
1
100
AcDbEllipse
 10
428.7767219999999
 20
301.484603
 30
0.0
 11
-0.0925165327032344
 21
0.0229369180716161
 31
0.0
210
0.0
220
0.0
230
1.0
 40
0.9973700000000002
 41
1.325742296575645
 42
2.00247421345666
  0
ELLIPSE
  5
165
330
1F
100
AcDbEntity
  8
1
100
AcDbEllipse
 10
430.2525199999999
 20
300.960293
 30
0.0
 11
3.004300737143696
 21
-0.744833359583433
 31
0.0
210
0.0
220
0.0
230
1.0
 40
0.99737
 41
2.345516520158035
 42
6.283185307179585
  0
ELLIPSE
  5
166
330
1F
100
AcDbEntity
  8
1
100
AcDbEllipse
 10
430.2525199999999
 20
300.960293
 30
0.0
 11
3.004300737143696
 21
-0.744833359583433
 31
0.0
210
0.0
220
0.0
230
1.0
 40
0.99737
 41
0.0
 42
0.7961221407423266
  0
ELLIPSE
  5
167
330
1F
100
AcDbEntity
  8
1
100
AcDbEllipse
 10
426.33694
 20
296.654493
 30
0.0
 11
0.9628846431049494
 21
1.033844773351707
 31
0.0
210
0.0
220
0.0
230
1.0
 40
0.024929
 41
0.9711163850609354
 42
1.525927418977664
  0
ELLIPSE
  5
168
330
1F
100
AcDbEntity
  8
1
100
AcDbEllipse
 10
430.232724
 20
300.880443
 30
0.0
 11
3.062035671581703
 21
-0.7591471413733597
 31
0.0
210
0.0
220
0.0
230
1.0
 40
0.9973700000000002
 41
0.0
 42
6.283185307179585
  0
ELLIPSE
  5
169
330
1F
100
AcDbEntity
  8
1
100
AcDbEllipse
 10
434.384023
 20
296.934862
 30
0.0
 11
1.034563893410687
 21
-0.9635544047828169
 31
0.0
210
0.0
220
0.0
230
1.0
 40
0.044837
 41
1.595685964449663
 42
2.150496997407995
  0
ELLIPSE
  5
16A
330
1F
100
AcDbEntity
  8
1
100
AcDbEllipse
 10
426.0460169999999
 20
304.68321
 30
0.0
 11
1.034563893193909
 21
-0.963554404583731
 31
0.0
210
0.0
220
0.0
230
1.0
 40
0.044837
 41
1.040874931406635
 42
1.595685964481284
  0
ELLIPSE
  5
16B
330
1F
100
AcDbEntity
  8
1
100
AcDbEllipse
 10
434.0931
 20
304.963579
 30
0.0
 11
0.9628846436139168
 21
1.033844773980857
 31
0.0
210
0.0
220
0.0
230
1.0
 40
0.024929
 41
1.525927417359934
 42
2.080738451022484
  0
ELLIPSE
  5
16C
330
1F
100
AcDbEntity
  8
1
100
AcDbEllipse
 10
430.229846
 20
300.868835
 30
0.0
 11
-3.154499181429984
 21
0.7820709138931033
 31
0.0
210
0.0
220
0.0
230
0.9999999999999996
 40
0.99737
 41
0.0
 42
6.283185307179585
  0
ELLIPSE
  5
16D
330
1F
100
AcDbEntity
  8
1
100
AcDbEllipse
 10
433.6462169999999
 20
281.168354
 30
0.0
 11
-0.3086390084417319
 21
0.0885008115358406
 31
0.0
210
0.0
220
0.0
230
0.9999999999999998
 40
0.6229040000000001
 41
2.976210626445484
 42
3.306974680734084
  0
ELLIPSE
  5
16E
330
1F
100
AcDbEntity
  8
1
100
AcDbEllipse
 10
434.473427
 20
289.275723
 30
0.0
 11
0.159366132975984
 21
-0.254667189722291
 31
0.0
210
0.0
220
0.0
230
0.9999999999999996
 40
0.9668319999999999
 41
1.51596520899374
 42
2.029724467540914
  0
ELLIPSE
  5
16F
330
1F
100
AcDbEntity
  8
1
100
AcDbEllipse
 10
435.105838
 20
288.134824
 30
0.0
 11
0.1315188413592763
 21
-0.2701031954834754
 31
0.0
210
0.0
220
0.0
230
1.0
 40
0.9668319999999999
 41
1.111868186365587
 42
1.625627444964548
  0
ELLIPSE
  5
170
330
1F
100
AcDbEntity
  8
1
100
AcDbEllipse
 10
434.305732
 20
279.66846
 30
0.0
 11
0.25466718957985
 21
0.1593661331140253
 31
0.0
210
0.0
220
0.0
230
1.0
 40
0.9668319999999999
 41
4.657557861912257
 42
5.171317120541474
  0
ELLIPSE
  5
171
330
1F
100
AcDbEntity
  8
1
100
AcDbEllipse
 10
434.969907
 20
280.788792
 30
0.0
 11
-0.2941597133632818
 21
0.0843489404830548
 31
0.0
210
0.0
220
0.0
230
0.9999999999999998
 40
0.9803469999999999
 41
2.884713024277101
 42
3.398472282902498
  0
ELLIPSE
  5
172
330
1F
100
AcDbEntity
  8
1
100
AcDbEllipse
 10
433.792854
 20
288.907989
 30
0.0
 11
28.32091797087967
 21
-16.27817771611804
 31
0.0
210
0.0
220
0.0
230
1.0
 40
0.095213
 41
4.221042816350656
 42
4.254342686111142
  0
ELLIPSE
  5
173
330
1F
100
AcDbEntity
  8
1
100
AcDbEllipse
 10
426.1286049999999
 20
288.907994
 30
0.0
 11
0.551131345303155
 21
-16.49999634639092
 31
0.0
210
0.0
220
0.0
230
1.0
 40
0.019821
 41
3.05058400790666
 42
3.144957044974253
  0
ELLIPSE
  5
174
330
1F
100
AcDbEntity
  8
1
100
AcDbEllipse
 10
426.879333
 20
297.2820529999999
 30
0.0
 11
1.941230265495372
 21
-0.4812744085495991
 31
0.0
210
0.0
220
0.0
230
1.0
 40
0.99737
 41
5.609016561478187
 42
5.726718448338634
  0
ELLIPSE
  5
175
330
1F
100
AcDbEntity
  8
1
100
AcDbEllipse
 10
425.996617
 20
288.907994
 30
0.0
 11
0.4192149556884134
 21
-16.49989390981353
 31
0.0
210
0.0
220
0.0
230
1.0
 40
0.141134
 41
3.142033307411943
 42
3.246284161834678
  0
ELLIPSE
  5
176
330
1F
100
AcDbEntity
  8
1
100
AcDbEllipse
 10
257.574933
 20
288.907994
 30
0.0
 11
429.7364206535013
 21
16.09065869337661
 31
0.0
210
0.0
220
0.0
230
1.0
 40
0.008499
 41
5.116258873606613
 42
5.13114238828138
  0
ELLIPSE
  5
177
330
1F
100
AcDbEntity
  8
1
100
AcDbEllipse
 10
433.826463
 20
279.510587
 30
0.0
 11
0.0538770024353646
 21
0.4991611425091471
 31
0.0
210
0.0
220
0.0
230
1.0
 40
0.139171
 41
1.5835681792482
 42
3.154364506042627
  0
ELLIPSE
  5
178
330
1F
100
AcDbEntity
  8
1
100
AcDbEllipse
 10
434.213111
 20
289.30277
 30
0.0
 11
0.0001758288822657
 21
-0.5000776676663964
 31
0.0
210
0.0
220
0.0
230
0.9999999999999998
 40
0.140519
 41
3.139090475969507
 42
4.709886802763141
  0
ELLIPSE
  5
179
330
1F
100
AcDbEntity
  8
1
100
AcDbEllipse
 10
315.239676
 20
288.907994
 30
0.0
 11
55.65201848491106
 21
-12.90462781358722
 31
0.0
210
0.0
220
0.0
230
0.9999999999999998
 40
0.184756
 41
4.300290424912505
 42
4.481384458926337
  0
ELLIPSE
  5
17A
330
1F
100
AcDbEntity
  8
1
100
AcDbEllipse
 10
434.2487359999999
 20
280.995584
 30
0.0
 11
0.3598828652614792
 21
-0.0632201111924787
 31
0.0
210
0.0
220
0.0
230
1.0
 40
0.81881
 41
6.264719807244276
 42
6.411625120674673
  0
ELLIPSE
  5
17B
330
1F
100
AcDbEntity
  8
1
100
AcDbEllipse
 10
434.37015
 20
287.951396
 30
0.0
 11
0.3618699808227195
 21
0.0506218689179744
 31
0.0
210
0.0
220
0.0
230
0.9999999999999998
 40
0.81881
 41
6.154745490676991
 42
6.301650804811209
  0
ELLIPSE
  5
17C
330
1F
100
AcDbEntity
  8
1
100
AcDbEllipse
 10
434.37015
 20
287.951396
 30
0.0
 11
0.343277740731974
 21
0.1251912004015271
 31
0.0
210
0.0
220
0.0
230
1.0
 40
0.81881
 41
6.264719813312676
 42
6.41162513094286
  0
ELLIPSE
  5
17D
330
1F
100
AcDbEntity
  8
1
100
AcDbEllipse
 10
433.928017
 20
288.7490259999999
 30
0.0
 11
0.2880776344419096
 21
0.2247747987987406
 31
0.0
210
0.0
220
0.0
230
0.9999999999999998
 40
0.81881
 41
6.154745475839666
 42
6.301650796308299
  0
ELLIPSE
  5
17E
330
1F
100
AcDbEntity
  8
1
100
AcDbEllipse
 10
433.928017
 20
288.7490259999999
 30
0.0
 11
0.2346916452066569
 21
0.2800576316286743
 31
0.0
210
0.0
220
0.0
230
0.9999999999999998
 40
0.81881
 41
6.264719813738094
 42
6.366380875097306
  0
ELLIPSE
  5
17F
330
1F
100
AcDbEntity
  8
1
100
AcDbEllipse
 10
433.7790349999999
 20
280.21387
 30
0.0
 11
0.2800576043031974
 21
-0.2346916278547027
 31
0.0
210
0.0
220
0.0
230
0.9999999999999998
 40
0.8188099999999998
 41
6.264719822450926
 42
6.411625146152045
  0
ELLIPSE
  5
180
330
1F
100
AcDbEntity
  8
1
100
AcDbEllipse
 10
434.2487359999999
 20
280.995584
 30
0.0
 11
0.3386995140895884
 21
-0.1370951565019655
 31
0.0
210
0.0
220
0.0
230
0.9999999999999998
 40
0.8188100000000002
 41
6.154745481715215
 42
6.301650799665389
  0
ELLIPSE
  5
181
330
1F
100
AcDbEntity
  8
1
100
AcDbEllipse
 10
433.7790349999999
 20
280.21387
 30
0.0
 11
0.2247748131101195
 21
-0.28807765928414
 31
0.0
210
0.0
220
0.0
230
1.0
 40
0.81881
 41
6.15474548979712
 42
6.301650804548317
  0
ELLIPSE
  5
182
330
1F
100
AcDbEntity
  8
1
100
AcDbEllipse
 10
426.884566
 20
297.303158
 30
0.0
 11
-1.941230265495372
 21
0.481274408549601
 31
0.0
210
0.0
220
0.0
230
1.0
 40
0.99737
 41
2.585125794748851
 42
2.714799021099393
  0
ELLIPSE
  5
183
330
1F
100
AcDbEntity
  8
1
100
AcDbEllipse
 10
434.4226519999999
 20
295.882994
 30
0.0
 11
0.0002992980618974
 21
0.5003076450290644
 31
0.0
210
0.0
220
0.0
230
0.9999999999999998
 40
0.140088
 41
3.216315896184976
 42
4.787112222983146
  0
ELLIPSE
  5
184
330
1F
100
AcDbEntity
  8
1
100
AcDbEllipse
 10
435.325608
 20
288.907994
 30
0.0
 11
1.785939695436346
 21
16.49813393598916
 31
0.0
210
0.0
220
0.0
230
0.9999999999999998
 40
0.138944
 41
1.942081186579953
 42
3.156632395651068
  0
ELLIPSE
  5
185
330
1F
100
AcDbEntity
  8
1
100
AcDbEllipse
 10
434.7148419999999
 20
288.907994
 30
0.0
 11
0.0
 21
16.49999999993766
 31
0.0
210
0.0
220
0.0
230
1.0
 40
0.140541
 41
1.375254872651112
 42
1.927041444519865
  0
ELLIPSE
  5
186
330
1F
100
AcDbEntity
  8
1
100
AcDbEllipse
 10
426.952066
 20
297.57542
 30
0.0
 11
-1.941230265495372
 21
0.481274408549601
 31
0.0
210
0.0
220
0.0
230
1.0
 40
0.99737
 41
0.0758138270677558
 42
1.849341058423438
  0
ELLIPSE
  5
187
330
1F
100
AcDbEntity
  8
1
100
AcDbEllipse
 10
426.952066
 20
297.57542
 30
0.0
 11
-1.941230265495372
 21
0.481274408549601
 31
0.0
210
0.0
220
0.0
230
1.0
 40
0.99737
 41
1.849341058423438
 42
2.519874968114615
  0
ELLIPSE
  5
188
330
1F
100
AcDbEntity
  8
1
100
AcDbEllipse
 10
426.884566
 20
297.303158
 30
0.0
 11
-1.941230265495372
 21
0.481274408549601
 31
0.0
210
0.0
220
0.0
230
1.0
 40
0.99737
 41
5.689739020390957
 42
5.832616980126105
  0
ELLIPSE
  5
189
330
1F
100
AcDbEntity
  8
1
100
AcDbEllipse
 10
426.879333
 20
297.2820529999999
 30
0.0
 11
1.941230265495372
 21
-0.4812744085495991
 31
0.0
210
0.0
220
0.0
230
1.0
 40
0.99737
 41
2.691024326536304
 42
4.355729963920557
  0
ELLIPSE
  5
18A
330
1F
100
AcDbEntity
  8
1
100
AcDbEllipse
 10
425.6950149999999
 20
288.907234
 30
0.0
 11
0.5511584658675783
 21
-16.50075586555312
 31
0.0
210
0.0
220
0.0
230
1.0
 40
0.01982
 41
3.248968053503475
 42
3.267167307609764
  0
ELLIPSE
  5
18B
330
1F
100
AcDbEntity
  8
1
100
AcDbEllipse
 10
372.34306
 20
288.909628
 30
0.0
 11
945.8105970260323
 21
-1.161364618915148
 31
0.0
210
0.0
220
0.0
230
1.0
 40
0.0174
 41
1.515001463231282
 42
1.52025479411465
  0
ELLIPSE
  5
18C
330
1F
100
AcDbEntity
  8
1
100
AcDbEllipse
 10
258.904692
 20
288.907994
 30
0.0
 11
55.65201847820192
 21
-12.90462781060456
 31
0.0
210
0.0
220
0.0
230
1.0
 40
0.184756
 41
5.341064471718266
 42
5.475163082987247
  0
ELLIPSE
  5
18D
330
1F
100
AcDbEntity
  8
1
100
AcDbEllipse
 10
424.1315919999999
 20
293.381027
 30
0.0
 11
-5.118980403100141
 21
-0.2015610961036081
 31
0.0
210
0.0
220
0.0
230
0.9999999999999998
 40
0.22151
 41
2.055869298525789
 42
4.225032580008116
  0
ELLIPSE
  5
18E
330
1F
100
AcDbEntity
  8
1
100
AcDbEllipse
 10
426.011636
 20
307.702712
 30
0.0
 11
-12.22975067262083
 21
3.032028773862484
 31
0.0
210
0.0
220
0.0
230
0.9999999999999998
 40
0.99737
 41
1.291387695327932
 42
1.848791845076108
  0
SPLINE
  5
195
330
1F
100
AcDbEntity
  8
1
100
AcDbSpline
210
0.0
220
0.0
230
1.0
 70
     8
 71
     3
 72
     8
 73
     4
 74
     0
 42
0.000000001
 43
0.0000000001
 40
0.0
 40
0.0
 40
0.0
 40
0.0
 40
1.0
 40
1.0
 40
1.0
 40
1.0
 10
431.3220442875807
 20
301.5168921214586
 30
0.0
 10
431.3263320666082
 20
301.5340746639522
 30
0.0
 10
431.3314075348621
 20
301.5510305731995
 30
0.0
 10
431.337272819588
 20
301.5677657809361
 30
0.0
  0
SPLINE
  5
196
330
1F
100
AcDbEntity
  8
1
100
AcDbSpline
210
0.0
220
0.0
230
1.0
 70
     8
 71
     3
 72
     8
 73
     4
 74
     0
 42
0.000000001
 43
0.0000000001
 40
0.0
 40
0.0
 40
0.0
 40
0.0
 40
1.0
 40
1.0
 40
1.0
 40
1.0
 10
429.3093968617078
 20
302.0347165873991
 30
0.0
 10
429.3066140464268
 20
302.0105560866141
 30
0.0
 10
429.3023139681853
 20
301.9866815845028
 30
0.0
 10
429.2964983572164
 20
301.963076427836
 30
0.0
  0
SPLINE
  5
197
330
1F
100
AcDbEntity
  8
1
100
AcDbSpline
210
0.0
220
0.0
230
1.0
 70
     8
 71
     3
 72
    20
 73
    16
 74
     0
 42
0.000000001
 43
0.0000000001
 40
0.0
 40
0.0
 40
0.0
 40
0.0
 40
0.1250000000000834
 40
0.1250000000000834
 40
0.2500000000001669
 40
0.2500000000001669
 40
0.3750000000002502
 40
0.3750000000002502
 40
0.5000000000003338
 40
0.5000000000003338
 40
0.6250000000004173
 40
0.6250000000004173
 40
0.7500000000005008
 40
0.7500000000005008
 40
1.0
 40
1.0
 40
1.0
 40
1.0
 10
429.3896126478299
 20
299.4872292200075
 30
0.0
 10
429.387380246493
 20
299.4829664550992
 30
0.0
 10
429.3848566257408
 20
299.4788937228848
 30
0.0
 10
429.3792308879301
 20
299.4711259084937
 30
0.0
 10
429.3761202823102
 20
299.4674290166097
 30
0.0
 10
429.369463378872
 20
299.4605899542634
 30
0.0
 10
429.3659015038718
 20
299.4574234499116
 30
0.0
 10
429.3583037014147
 20
299.4516051360155
 30
0.0
 10
429.3542331831555
 20
299.448936223133
 30
0.0
 10
429.3457925656849
 20
299.4442667744104
 30
0.0
 10
429.3414229066967
 20
299.4422578359616
 30
0.0
 10
429.3323826727153
 20
299.4388980930814
 30
0.0
 10
429.3276804355601
 20
299.4375409802265
 30
0.0
 10
429.3133106108152
 20
299.4345795618873
 30
0.0
 10
429.3035874492336
 20
299.4340788992719
 30
0.0
 10
429.2937141233506
 20
299.4351449245801
 30
0.0
  0
SPLINE
  5
198
330
1F
100
AcDbEntity
  8
1
100
AcDbSpline
210
0.0
220
0.0
230
1.0
 70
     8
 71
     3
 72
    18
 73
    14
 74
     0
 42
0.000000001
 43
0.0000000001
 40
0.0
 40
0.0
 40
0.0
 40
0.0
 40
0.2499999999999702
 40
0.2499999999999702
 40
0.3749999999999686
 40
0.3749999999999686
 40
0.499999999999967
 40
0.499999999999967
 40
0.6249999999999653
 40
0.6249999999999653
 40
0.7499999999999636
 40
0.7499999999999636
 40
1.0
 40
1.0
 40
1.0
 40
1.0
 10
430.2147788337145
 20
299.2230550737992
 30
0.0
 10
430.2054232662638
 20
299.226418555104
 30
0.0
 10
430.1967108064562
 20
299.2312549156262
 30
0.0
 10
430.1852278700287
 20
299.2401226425822
 30
0.0
 10
430.1816357509323
 20
299.2433602459146
 30
0.0
 10
430.1749263586983
 20
299.25040233762
 30
0.0
 10
430.1718454043817
 20
299.2541770265666
 30
0.0
 10
430.1663466365173
 20
299.2620312862009
 30
0.0
 10
430.1639042468553
 20
299.2661361967427
 30
0.0
 10
430.1596245112595
 20
299.2746956178538
 30
0.0
 10
430.1577777023284
 20
299.2791872019451
 30
0.0
 10
430.1532997877698
 20
299.2928328438519
 30
0.0
 10
430.151662060622
 20
299.30219386878
 30
0.0
 10
430.1513817611938
 20
299.3118197229711
 30
0.0
  0
SPLINE
  5
199
330
1F
100
AcDbEntity
  8
1
100
AcDbSpline
210
0.0
220
0.0
230
1.0
 70
     8
 71
     3
 72
    10
 73
     6
 74
     0
 42
0.000000001
 43
0.0000000001
 40
0.0
 40
0.0
 40
0.0
 40
0.0
 40
0.5
 40
0.5
 40
1.0
 40
1.0
 40
1.0
 40
1.0
 10
429.3896126478299
 20
299.4872292200073
 30
0.0
 10
429.3947153466259
 20
299.4969728109136
 30
0.0
 10
429.4012795283773
 20
299.5056771382432
 30
0.0
 10
429.4172732455225
 20
299.5208299193647
 30
0.0
 10
429.4263257023779
 20
299.5269379104207
 30
0.0
 10
429.4365016354769
 20
299.5314913201682
 30
0.0
  0
SPLINE
  5
19A
330
1F
100
AcDbEntity
  8
1
100
AcDbSpline
210
0.0
220
0.0
230
1.0
 70
     8
 71
     3
 72
    10
 73
     6
 74
     0
 42
0.000000001
 43
0.0000000001
 40
0.0
 40
0.0
 40
0.0
 40
0.0
 40
0.5
 40
0.5
 40
1.0
 40
1.0
 40
1.0
 40
1.0
 10
430.128614629725
 20
299.3721212563476
 30
0.0
 10
430.1357683647136
 20
299.3635772708147
 30
0.0
 10
430.1412633559841
 20
299.3540607773214
 30
0.0
 10
430.1489842619535
 20
299.3334581133224
 30
0.0
 10
430.1510617160511
 20
299.322810497713
 30
0.0
 10
430.1513817611938
 20
299.3118197229711
 30
0.0
  0
SPLINE
  5
19B
330
1F
100
AcDbEntity
  8
1
100
AcDbSpline
210
0.0
220
0.0
230
1.0
 70
     8
 71
     3
 72
    27
 73
    23
 74
     0
 42
0.000000001
 43
0.0000000001
 40
0.0
 40
0.0
 40
0.0
 40
0.0
 40
0.1291801084762854
 40
0.1291801084762854
 40
0.1937701627144281
 40
0.1937701627144281
 40
0.2583602169525708
 40
0.2583602169525708
 40
0.3875403254288562
 40
0.3875403254288562
 40
0.4521303796670481
 40
0.4521303796670481
 40
0.5167204339052399
 40
0.5167204339052399
 40
0.6459005423816233
 40
0.6459005423816233
 40
0.710490596619815
 40
0.710490596619815
 40
0.7750806508580066
 40
0.7750806508580066
 40
0.9042607593343964
 40
1.0
 40
1.0
 40
1.0
 40
1.0
 10
429.2937141233506
 20
299.4351449245801
 30
0.0
 10
429.2621338144031
 20
299.4385546579343
 30
0.0
 10
429.2311299324015
 20
299.4444459739912
 30
0.0
 10
429.185480329595
 20
299.4569440278815
 30
0.0
 10
429.1704071352405
 20
299.4617230387694
 30
0.0
 10
429.1405538945738
 20
299.4725313280709
 30
0.0
 10
429.1257338168679
 20
299.4785836764773
 30
0.0
 10
429.082425268468
 20
299.4983443048294
 30
0.0
 10
429.0548699483159
 20
299.5137073417132
 30
0.0
 10
429.0154820345401
 20
299.5399822465719
 30
0.0
 10
429.0026784109662
 20
299.5492814584739
 30
0.0
 10
428.9777358815602
 20
299.5689836384394
 30
0.0
 10
428.9655441937384
 20
299.5794389930591
 30
0.0
 10
428.9305270715294
 20
299.6120224434667
 30
0.0
 10
428.9091807752435
 20
299.6353786087366
 30
0.0
 10
428.8800684474189
 20
299.6727897253027
 30
0.0
 10
428.8708511985714
 20
299.6856581584022
 30
0.0
 10
428.8534030532367
 20
299.7122015205734
 30
0.0
 10
428.8451442090035
 20
299.7259284927149
 30
0.0
 10
428.8220943431597
 20
299.7679878528297
 30
0.0
 10
428.7995733794712
 20
299.8183145958827
 30
0.0
 10
428.7841031357005
 20
299.871145762355
 30
0.0
 10
428.7788241919598
 20
299.8940971422062
 30
0.0
  0
SPLINE
  5
19C
330
1F
100
AcDbEntity
  8
1
100
AcDbSpline
210
0.0
220
0.0
230
1.0
 70
     8
 71
     3
 72
    24
 73
    20
 74
     0
 42
0.000000001
 43
0.0000000001
 40
0.0
 40
0.0
 40
0.0
 40
0.0
 40
0.1249999999999213
 40
0.1249999999999213
 40
0.2499999999998426
 40
0.2499999999998426
 40
0.3124999999998558
 40
0.3124999999998558
 40
0.3749999999998689
 40
0.3749999999998689
 40
0.4999999999998951
 40
0.4999999999998951
 40
0.6249999999999213
 40
0.6249999999999213
 40
0.7499999999999476
 40
0.7499999999999476
 40
0.8749999999999737
 40
0.8749999999999737
 40
1.0
 40
1.0
 40
1.0
 40
1.0
 10
429.4365016354769
 20
299.5314913201682
 30
0.0
 10
429.4653202970784
 20
299.5443867640915
 30
0.0
 10
429.4948773170886
 20
299.5549256498808
 30
0.0
 10
429.5555036384733
 20
299.571310261588
 30
0.0
 10
429.5865721575633
 20
299.5771582594139
 30
0.0
 10
429.6344319255664
 20
299.5821339002869
 30
0.0
 10
429.6504959721452
 20
299.5831402540661
 30
0.0
 10
429.6824571155235
 20
299.5838300796743
 30
0.0
 10
429.6984130218458
 20
299.5835201434335
 30
0.0
 10
429.7462087162243
 20
299.5806254872876
 30
0.0
 10
429.7780273548394
 20
299.5760778977583
 30
0.0
 10
429.8412631352883
 20
299.5615070954745
 30
0.0
 10
429.8717565047031
 20
299.551705644162
 30
0.0
 10
429.9306271293623
 20
299.5273565160071
 30
0.0
 10
429.9590146299191
 20
299.5128013266308
 30
0.0
 10
430.013603817517
 20
299.4788788725216
 30
0.0
 10
430.0390132673513
 20
299.4600097734847
 30
0.0
 10
430.0863899123681
 20
299.4187301859302
 30
0.0
 10
430.1083552350804
 20
299.3963178438677
 30
0.0
 10
430.128614629725
 20
299.3721212563476
 30
0.0
  0
SPLINE
  5
19D
330
1F
100
AcDbEntity
  8
1
100
AcDbSpline
210
0.0
220
0.0
230
1.0
 70
     8
 71
     3
 72
    27
 73
    23
 74
     0
 42
0.000000001
 43
0.0000000001
 40
0.0
 40
0.0
 40
0.0
 40
0.0
 40
0.086773499490012
 40
0.086773499490012
 40
0.1520039638121512
 40
0.1520039638121512
 40
0.2172344281342903
 40
0.2172344281342903
 40
0.3476953567785646
 40
0.3476953567785646
 40
0.4129258211006521
 40
0.4129258211006521
 40
0.4781562854227393
 40
0.4781562854227393
 40
0.608617214066914
 40
0.608617214066914
 40
0.6738476783890575
 40
0.6738476783890575
 40
0.7390781427112009
 40
0.7390781427112009
 40
0.8695390713556005
 40
1.0
 40
1.0
 40
1.0
 40
1.0
 10
430.8738739473487
 20
299.4049915035148
 30
0.0
 10
430.8604010649965
 20
299.3886971058635
 30
0.0
 10
430.8461249249861
 20
299.3731744734479
 30
0.0
 10
430.8197251810486
 20
299.3473214025194
 30
0.0
 10
430.8079450389955
 20
299.3366606512201
 30
0.0
 10
430.7834647309282
 20
299.3162243724329
 30
0.0
 10
430.7707245190111
 20
299.3064258654808
 30
0.0
 10
430.7317192746128
 20
299.2788383389659
 30
0.0
 10
430.7045139836215
 20
299.2626933888041
 30
0.0
 10
430.6619320695393
 20
299.2417922223179
 30
0.0
 10
430.6474410571683
 20
299.2353804540199
 30
0.0
 10
430.617852841027
 20
299.2236901152166
 30
0.0
 10
430.602683895228
 20
299.2183922179176
 30
0.0
 10
430.5569296427598
 20
299.2044637755799
 30
0.0
 10
430.5260466191938
 20
299.1977352161686
 30
0.0
 10
430.4791694386374
 20
299.1913624015489
 30
0.0
 10
430.463451167381
 20
299.1898611334183
 30
0.0
 10
430.4318273102417
 20
299.1881208689154
 30
0.0
 10
430.4158627899037
 20
299.1878838986853
 30
0.0
 10
430.3680996010915
 20
299.1891136802968
 30
0.0
 10
430.3054162588176
 20
299.1958444838339
 30
0.0
 10
430.2446582039613
 20
299.2123129457826
 30
0.0
 10
430.2147788337145
 20
299.2230550737992
 30
0.0
  0
SPLINE
  5
19E
330
1F
100
AcDbEntity
  8
1
100
AcDbSpline
210
0.0
220
0.0
230
1.0
 70
     8
 71
     3
 72
    24
 73
    20
 74
     0
 42
0.000000001
 43
0.0000000001
 40
0.0
 40
0.0
 40
0.0
 40
0.0
 40
0.1347958400501146
 40
0.1347958400501146
 40
0.2695916801002292
 40
0.2695916801002292
 40
0.3369896001252894
 40
0.3369896001252894
 40
0.4043875201503497
 40
0.4043875201503497
 40
0.53918336020047
 40
0.53918336020047
 40
0.6739792002505904
 40
0.6739792002505904
 40
0.8087750403007106
 40
0.8087750403007106
 40
0.943570880350831
 40
0.943570880350831
 40
1.0
 40
1.0
 40
1.0
 40
1.0
 10
428.6486902193718
 20
300.747386324154
 30
0.0
 10
428.6738658086853
 20
300.7293610505075
 30
0.0
 10
428.697406007106
 20
300.7094833412864
 30
0.0
 10
428.7412616535951
 20
300.6659919043525
 30
0.0
 10
428.7615786235559
 20
300.6423800407971
 30
0.0
 10
428.7894714624876
 20
300.6039024079593
 30
0.0
 10
428.7982734624253
 20
300.5906409363786
 30
0.0
 10
428.8146792691271
 20
300.5635697804694
 30
0.0
 10
428.8223177950943
 20
300.5497130108491
 30
0.0
 10
428.8435424930593
 20
300.50717582615
 30
0.0
 10
428.8554647589098
 20
300.4774859874502
 30
0.0
 10
428.8745022537094
 20
300.4155791072288
 30
0.0
 10
428.8813466457608
 20
300.3842716616752
 30
0.0
 10
428.8899897624775
 20
300.320987880295
 30
0.0
 10
428.8917872023719
 20
300.2889991711876
 30
0.0
 10
428.8902370549908
 20
300.22438598283
 30
0.0
 10
428.8869166905739
 20
300.1927030951175
 30
0.0
 10
428.8788671062239
 20
300.1485511769524
 30
0.0
 10
428.8760787886247
 20
300.1356204911822
 30
0.0
 10
428.8728770056458
 20
300.1227869161215
 30
0.0
  0
SPLINE
  5
19F
330
1F
100
AcDbEntity
  8
1
100
AcDbSpline
210
0.0
220
0.0
230
1.0
 70
     8
 71
     3
 72
    10
 73
     6
 74
     0
 42
0.000000001
 43
0.0000000001
 40
0.0
 40
0.0
 40
0.0
 40
0.0
 40
0.5
 40
0.5
 40
1.0
 40
1.0
 40
1.0
 40
1.0
 10
428.5879090916455
 20
300.7647245685547
 30
0.0
 10
428.5987178422734
 20
300.7653740227594
 30
0.0
 10
428.6093624479551
 20
300.7642383085771
 30
0.0
 10
428.6301410776606
 20
300.7583532922448
 30
0.0
 10
428.639800242162
 20
300.7537513895323
 30
0.0
 10
428.6486902193718
 20
300.7473863241539
 30
0.0
  0
SPLINE
  5
1A0
330
1F
100
AcDbEntity
  8
1
100
AcDbSpline
210
0.0
220
0.0
230
1.0
 70
     8
 71
     3
 72
    20
 73
    16
 74
     0
 42
0.000000001
 43
0.0000000001
 40
0.0
 40
0.0
 40
0.0
 40
0.0
 40
0.125000000000004
 40
0.125000000000004
 40
0.250000000000008
 40
0.250000000000008
 40
0.3750000000000119
 40
0.3750000000000119
 40
0.5000000000000158
 40
0.5000000000000158
 40
0.6250000000000198
 40
0.6250000000000198
 40
0.7500000000000236
 40
0.7500000000000236
 40
1.0
 40
1.0
 40
1.0
 40
1.0
 10
428.5879090916455
 20
300.7647245685547
 30
0.0
 10
428.5831801971948
 20
300.7644404283715
 30
0.0
 10
428.5784695731654
 20
300.7645032282725
 30
0.0
 10
428.5690847865174
 20
300.7653182195431
 30
0.0
 10
428.5644052321928
 20
300.7660767034851
 30
0.0
 10
428.5553040195274
 20
300.768251886505
 30
0.0
 10
428.5508539065654
 20
300.7696694127114
 30
0.0
 10
428.5421586183737
 20
300.773174924176
 30
0.0
 10
428.5378818861237
 20
300.7752837072286
 30
0.0
 10
428.5297510396999
 20
300.7801009651767
 30
0.0
 10
428.5258895891781
 20
300.7828049498625
 30
0.0
 10
428.5185793575854
 20
300.7888088211088
 30
0.0
 10
428.515109469681
 20
300.7921327359436
 30
0.0
 10
428.5055178046098
 20
300.8028985643948
 30
0.0
 10
428.5003086128336
 20
300.8109559438142
 30
0.0
 10
428.4963616437133
 20
300.8199468588078
 30
0.0
  0
SPLINE
  5
1A1
330
1F
100
AcDbEntity
  8
1
100
AcDbSpline
210
0.0
220
0.0
230
1.0
 70
     8
 71
     3
 72
    24
 73
    20
 74
     0
 42
0.000000001
 43
0.0000000001
 40
0.0
 40
0.0
 40
0.0
 40
0.0
 40
0.028149207162298
 40
0.028149207162298
 40
0.1669850347105891
 40
0.1669850347105891
 40
0.2364029484847066
 40
0.2364029484847066
 40
0.3058208622588243
 40
0.3058208622588243
 40
0.4446566898070595
 40
0.4446566898070595
 40
0.5834925173552945
 40
0.5834925173552945
 40
0.7223283449035298
 40
0.7223283449035298
 40
0.8611641724517649
 40
0.8611641724517649
 40
1.0
 40
1.0
 40
1.0
 40
1.0
 10
430.8985953524001
 20
299.6772980497368
 30
0.0
 10
430.9001270919083
 20
299.6835139605736
 30
0.0
 10
430.9017556257668
 20
299.6897075213997
 30
0.0
 10
430.9119901666101
 20
299.7263169115829
 30
0.0
 10
430.922850347608
 20
299.7562154449413
 30
0.0
 10
430.942952451043
 20
299.8002153151465
 30
0.0
 10
430.9502549307207
 20
299.8146456622948
 30
0.0
 10
430.9658795519121
 20
299.8426858211614
 30
0.0
 10
430.9742260749179
 20
299.8563501314936
 30
0.0
 10
431.0008674767936
 20
299.8962767488215
 30
0.0
 10
431.0207875024627
 20
299.9215171585229
 30
0.0
 10
431.0649864436514
 20
299.9688534477773
 30
0.0
 10
431.0886112071133
 20
299.9902610423912
 30
0.0
 10
431.1387451085343
 20
300.0288179508132
 30
0.0
 10
431.1652649965927
 20
300.0459719094036
 30
0.0
 10
431.2212242235771
 20
300.0759329324275
 30
0.0
 10
431.2498453277298
 20
300.0883073013651
 30
0.0
 10
431.3083222770859
 20
300.1082724084321
 30
0.0
 10
431.3381787144219
 20
300.115860573391
 30
0.0
 10
431.3686791715
 20
300.1210654538704
 30
0.0
  0
SPLINE
  5
1A2
330
1F
100
AcDbEntity
  8
1
100
AcDbSpline
210
0.0
220
0.0
230
1.0
 70
     8
 71
     3
 72
    10
 73
     6
 74
     0
 42
0.000000001
 43
0.0000000001
 40
0.0
 40
0.0
 40
0.0
 40
0.0
 40
0.5
 40
0.5
 40
1.0
 40
1.0
 40
1.0
 40
1.0
 10
431.3686791714999
 20
300.1210654538704
 30
0.0
 10
431.3794482724443
 20
300.1229031929948
 30
0.0
 10
431.3902127694531
 20
300.1228135149653
 30
0.0
 10
431.4114289585813
 20
300.1190131351833
 30
0.0
 10
431.4214419932102
 20
300.1153969553329
 30
0.0
 10
431.4308701263562
 20
300.110087413485
 30
0.0
  0
SPLINE
  5
1A3
330
1F
100
AcDbEntity
  8
1
100
AcDbSpline
210
0.0
220
0.0
230
1.0
 70
     8
 71
     3
 72
    18
 73
    14
 74
     0
 42
0.000000001
 43
0.0000000001
 40
0.0
 40
0.0
 40
0.0
 40
0.0
 40
0.2500000000004695
 40
0.2500000000004695
 40
0.3750000000003912
 40
0.3750000000003912
 40
0.500000000000313
 40
0.500000000000313
 40
0.6250000000002347
 40
0.6250000000002347
 40
0.7500000000001564
 40
0.7500000000001564
 40
1.0
 40
1.0
 40
1.0
 40
1.0
 10
431.537265935057
 20
300.1197301095033
 30
0.0
 10
431.5297786227803
 20
300.1133608085266
 30
0.0
 10
431.5213678900136
 20
300.1082952625426
 30
0.0
 10
431.5081773895469
 20
300.1028848666517
 30
0.0
 10
431.5036596296926
 20
300.1014277584042
 30
0.0
 10
431.4943813405499
 20
300.0992116140773
 30
0.0
 10
431.4896658521203
 20
300.0984691127716
 30
0.0
 10
431.4803059678981
 20
300.0977112610453
 30
0.0
 10
431.4756285312419
 20
300.0976877317234
 30
0.0
 10
431.4662794497483
 20
300.0983409918854
 30
0.0
 10
431.4615720584743
 20
300.0990284683633
 30
0.0
 10
431.4478368676726
 20
300.1020949117508
 30
0.0
 10
431.4391274563521
 20
300.1054372204418
 30
0.0
 10
431.4308701263562
 20
300.110087413485
 30
0.0
  0
SPLINE
  5
1A4
330
1F
100
AcDbEntity
  8
1
100
AcDbSpline
210
0.0
220
0.0
230
1.0
 70
     8
 71
     3
 72
    16
 73
    12
 74
     0
 42
0.000000001
 43
0.0000000001
 40
0.0
 40
0.0
 40
0.0
 40
0.0
 40
0.2922265880988419
 40
0.2922265880988419
 40
0.4383398821482701
 40
0.4383398821482701
 40
0.5844531761976987
 40
0.5844531761976987
 40
0.8766797642965947
 40
0.8766797642965947
 40
1.0
 40
1.0
 40
1.0
 40
1.0
 10
428.4963616437133
 20
300.8199468588078
 30
0.0
 10
428.4837377390771
 20
300.8487032159043
 30
0.0
 10
428.4735261261844
 20
300.8782291941833
 30
0.0
 10
428.4617730581556
 20
300.9236461070746
 30
0.0
 10
428.4584521459434
 20
300.9389739630265
 30
0.0
 10
428.4530282631496
 20
300.9700139116357
 30
0.0
 10
428.450925421712
 20
300.9857717535696
 30
0.0
 10
428.446561482377
 20
301.0328734641728
 30
0.0
 10
428.4461812526838
 20
301.0642591363529
 30
0.0
 10
428.4491802600717
 20
301.108865537364
 30
0.0
 10
428.4505156237024
 20
301.1221001907496
 30
0.0
 10
428.4523040277898
 20
301.1353317087418
 30
0.0
  0
SPLINE
  5
1A5
330
1F
100
AcDbEntity
  8
1
100
AcDbSpline
210
0.0
220
0.0
230
1.0
 70
     8
 71
     3
 72
    15
 73
    11
 74
     0
 42
0.000000001
 43
0.0000000001
 40
0.0
 40
0.0
 40
0.0
 40
0.0
 40
0.0169968353551086
 40
0.0169968353551086
 40
0.1808306961293059
 40
0.1808306961293059
 40
0.3446645569035032
 40
0.3446645569035032
 40
0.6723322784517516
 40
1.0
 40
1.0
 40
1.0
 40
1.0
 10
431.702649719689
 20
300.3508685514851
 30
0.0
 10
431.7020488106382
 20
300.3493536674818
 30
0.0
 10
431.701441712553
 20
300.3478413054409
 30
0.0
 10
431.6949170082991
 20
300.3317779530054
 30
0.0
 10
431.6884287148954
 20
300.3174595349012
 30
0.0
 10
431.6742836383817
 20
300.2892992466475
 30
0.0
 10
431.6665959637506
 20
300.2754075004717
 30
0.0
 10
431.6419440067631
 20
300.2348265585532
 30
0.0
 10
431.6052310964244
 20
300.1841561440438
 30
0.0
 10
431.5611784217692
 20
300.1400719650774
 30
0.0
 10
431.537265935057
 20
300.1197301095033
 30
0.0
  0
SPLINE
  5
1A6
330
1F
100
AcDbEntity
  8
1
100
AcDbSpline
210
0.0
220
0.0
230
1.0
 70
     8
 71
     3
 72
    10
 73
     6
 74
     0
 42
0.000000001
 43
0.0000000001
 40
0.0
 40
0.0
 40
0.0
 40
0.0
 40
0.5
 40
0.5
 40
1.0
 40
1.0
 40
1.0
 40
1.0
 10
429.2951267416308
 20
302.0947923418337
 30
0.0
 10
429.3009021169424
 20
302.0859734407859
 30
0.0
 10
429.3050486569638
 20
302.0764037673856
 30
0.0
 10
429.3099634230527
 20
302.0558864581726
 30
0.0
 10
429.3106293216963
 20
302.0454168486508
 30
0.0
 10
429.3093968617078
 20
302.0347165873991
 30
0.0
  0
SPLINE
  5
1A7
330
1F
100
AcDbEntity
  8
1
100
AcDbSpline
210
0.0
220
0.0
230
1.0
 70
     8
 71
     3
 72
    10
 73
     6
 74
     0
 42
0.000000001
 43
0.0000000001
 40
0.0
 40
0.0
 40
0.0
 40
0.0
 40
0.5
 40
0.5
 40
1.0
 40
1.0
 40
1.0
 40
1.0
 10
431.337272819588
 20
301.5677657809361
 30
0.0
 10
431.3408350235252
 20
301.577929690392
 30
0.0
 10
431.3460434605609
 20
301.587116470159
 30
0.0
 10
431.3594103584743
 20
301.6033945628089
 30
0.0
 10
431.3672789559306
 20
301.6101575297757
 30
0.0
 10
431.3763186629776
 20
301.6155646838004
 30
0.0
  0
SPLINE
  5
1A8
330
1F
100
AcDbEntity
  8
1
100
AcDbSpline
210
0.0
220
0.0
230
1.0
 70
     8
 71
     3
 72
    36
 73
    32
 74
     0
 42
0.000000001
 43
0.0000000001
 40
0.0
 40
0.0
 40
0.0
 40
0.0
 40
0.1250000000000326
 40
0.1250000000000326
 40
0.1875000000000488
 40
0.1875000000000488
 40
0.218750000000057
 40
0.218750000000057
 40
0.2500000000000651
 40
0.2500000000000651
 40
0.3750000000000977
 40
0.3750000000000977
 40
0.406250000000079
 40
0.406250000000079
 40
0.4375000000000603
 40
0.4375000000000603
 40
0.5000000000000294
 40
0.5000000000000294
 40
0.6249999999999618
 40
0.6249999999999618
 40
0.6562499999999706
 40
0.6562499999999706
 40
0.6874999999999792
 40
0.7499999999999965
 40
0.8125000000000138
 40
0.8125000000000138
 40
0.8437500000000225
 40
0.8437500000000225
 40
0.8750000000000312
 40
0.8750000000000312
 40
1.0
 40
1.0
 40
1.0
 40
1.0
 10
434.8470132345146
 20
305.0223982831108
 30
0.0
 10
434.8451722971653
 20
305.0732033241474
 30
0.0
 10
434.8381835465284
 20
305.1229463881527
 30
0.0
 10
434.820458338958
 20
305.1960669664284
 30
0.0
 10
434.8133328681329
 20
305.2201894153134
 30
0.0
 10
434.8007929260297
 20
305.255991081593
 30
0.0
 10
434.7962904837919
 20
305.2678926848822
 30
0.0
 10
434.7867271431134
 20
305.2913941616292
 30
0.0
 10
434.781672773685
 20
305.3029835728592
 30
0.0
 10
434.7550682743161
 20
305.3601422399568
 30
0.0
 10
434.7295597199734
 20
305.4033697157229
 30
0.0
 10
434.6924717985258
 20
305.4543264532842
 30
0.0
 10
434.6847916559223
 20
305.464362472875
 30
0.0
 10
434.6688982859888
 20
305.4841191423341
 30
0.0
 10
434.6606698176425
 20
305.4938548065794
 30
0.0
 10
434.6354360942577
 20
305.5222869644252
 30
0.0
 10
434.6178139118726
 20
305.5403043312274
 30
0.0
 10
434.5626144424283
 20
305.5916217900335
 30
0.0
 10
434.5227274950055
 20
305.6222145079668
 30
0.0
 10
434.4688765798276
 20
305.6557757292755
 30
0.0
 10
434.4578910477799
 20
305.6622574802746
 30
0.0
 10
434.4357527244525
 20
305.6746056757975
 30
0.0
 10
434.4022105324987
 20
305.6922589901851
 30
0.0
 10
434.3446617967272
 20
305.7174101552852
 30
0.0
 10
434.2968790611063
 20
305.7330039053372
 30
0.0
 10
434.2603721765036
 20
305.74296017236
 30
0.0
 10
434.248091367031
 20
305.7459885441792
 30
0.0
 10
434.223300682617
 20
305.7514505793706
 30
0.0
 10
434.2107745656297
 20
305.753885501983
 30
0.0
 10
434.1481517411527
 20
305.7644392802154
 30
0.0
 10
434.0976512580247
 20
305.7678547278428
 30
0.0
 10
434.0467356045165
 20
305.7660807721514
 30
0.0
  0
SPLINE
  5
1A9
330
1F
100
AcDbEntity
  8
1
100
AcDbSpline
210
0.0
220
0.0
230
1.0
 70
     8
 71
     3
 72
    36
 73
    32
 74
     0
 42
0.000000001
 43
0.0000000001
 40
0.0
 40
0.0
 40
0.0
 40
0.0
 40
0.1249999999999701
 40
0.1249999999999701
 40
0.1874999999999551
 40
0.1874999999999551
 40
0.2187499999999477
 40
0.2187499999999477
 40
0.2499999999999402
 40
0.2499999999999402
 40
0.3749999999999689
 40
0.3749999999999689
 40
0.4062499999999902
 40
0.4062499999999902
 40
0.4375000000000112
 40
0.4375000000000112
 40
0.5000000000000079
 40
0.5000000000000079
 40
0.6249999999999539
 40
0.6249999999999539
 40
0.656249999999937
 40
0.656249999999937
 40
0.68749999999992
 40
0.749999999999924
 40
0.812499999999928
 40
0.812499999999928
 40
0.8437499999999392
 40
0.8437499999999392
 40
0.87499999999995
 40
0.87499999999995
 40
1.0
 40
1.0
 40
1.0
 40
1.0
 10
426.074112094763
 20
305.4883060628641
 30
0.0
 10
426.0231908319104
 20
305.4865319117372
 30
0.0
 10
425.9733403561845
 20
305.4796206107111
 30
0.0
 10
425.9000710546068
 20
305.4620265790981
 30
0.0
 10
425.8759011142088
 20
305.4549473546766
 30
0.0
 10
425.8400313797664
 20
305.4424806179391
 30
0.0
 10
425.8281075591106
 20
305.4380032875721
 30
0.0
 10
425.8045630383905
 20
305.4284910979652
 30
0.0
 10
425.7929528169208
 20
305.4234627396843
 30
0.0
 10
425.7356935768601
 20
305.3969904248424
 30
0.0
 10
425.6923966698944
 20
305.3715943670986
 30
0.0
 10
425.6413667211976
 20
305.3346553764813
 30
0.0
 10
425.6313167446593
 20
305.3270054394568
 30
0.0
 10
425.6115335526613
 20
305.3111733322351
 30
0.0
 10
425.6017853065593
 20
305.3029759749329
 30
0.0
 10
425.5733178847989
 20
305.2778359063749
 30
0.0
 10
425.5552801787951
 20
305.26027686675
 30
0.0
 10
425.5039109502742
 20
305.2052688857714
 30
0.0
 10
425.4732959575051
 20
305.1655123236971
 30
0.0
 10
425.4397227181721
 20
305.1118279157125
 30
0.0
 10
425.4332393660654
 20
305.1008759022668
 30
0.0
 10
425.4208896091153
 20
305.0788042480493
 30
0.0
 10
425.4032363909967
 20
305.0453617689296
 30
0.0
 10
425.378097371114
 20
304.9879777917847
 30
0.0
 10
425.3625260407963
 20
304.9403253479043
 30
0.0
 10
425.3525914684466
 20
304.9039156000818
 30
0.0
 10
425.3495711430206
 20
304.8916670723501
 30
0.0
 10
425.3441268694052
 20
304.8669407523803
 30
0.0
 10
425.3417016790215
 20
304.8544467574124
 30
0.0
 10
425.3312003324708
 20
304.7919825308696
 30
0.0
 10
425.3278390502777
 20
304.7416036759186
 30
0.0
 10
425.3296797848346
 20
304.6908042314237
 30
0.0
  0
SPLINE
  5
1AA
330
1F
100
AcDbEntity
  8
1
100
AcDbSpline
210
0.0
220
0.0
230
1.0
 70
     8
 71
     3
 72
    36
 73
    32
 74
     0
 42
0.000000001
 43
0.0000000001
 40
0.0
 40
0.0
 40
0.0
 40
0.0
 40
0.1250000000001122
 40
0.1250000000001122
 40
0.1875000000001683
 40
0.1875000000001683
 40
0.2187500000001953
 40
0.2187500000001953
 40
0.2500000000002223
 40
0.2500000000002223
 40
0.3750000000002398
 40
0.3750000000002398
 40
0.4062500000002152
 40
0.4062500000002152
 40
0.4375000000001906
 40
0.4375000000001906
 40
0.5000000000001396
 40
0.5000000000001396
 40
0.6250000000000379
 40
0.6250000000000379
 40
0.6562500000000407
 40
0.6562500000000407
 40
0.6875000000000435
 40
0.7500000000000479
 40
0.8125000000000522
 40
0.8125000000000522
 40
0.8437500000000548
 40
0.8437500000000548
 40
0.8750000000000571
 40
0.8750000000000571
 40
1.0
 40
1.0
 40
1.0
 40
1.0
 10
425.6179110573795
 20
296.736377300686
 30
0.0
 10
425.619751994729
 20
296.6855722596495
 30
0.0
 10
425.6267407453658
 20
296.6358291956441
 30
0.0
 10
425.6444659529361
 20
296.5627086173684
 30
0.0
 10
425.6515914237613
 20
296.5385861684834
 30
0.0
 10
425.6641313658646
 20
296.5027845022039
 30
0.0
 10
425.6686338081023
 20
296.4908828989146
 30
0.0
 10
425.6781971487808
 20
296.4673814221677
 30
0.0
 10
425.6832515182093
 20
296.4557920109376
 30
0.0
 10
425.7098560175781
 20
296.3986333438401
 30
0.0
 10
425.7353645719207
 20
296.3554058680738
 30
0.0
 10
425.7724524933685
 20
296.3044491305126
 30
0.0
 10
425.780132635972
 20
296.2944131109218
 30
0.0
 10
425.7960260059053
 20
296.2746564414627
 30
0.0
 10
425.8042544742517
 20
296.2649207772173
 30
0.0
 10
425.8294881976365
 20
296.2364886193716
 30
0.0
 10
425.8471103800216
 20
296.2184712525694
 30
0.0
 10
425.9023098494661
 20
296.1671537937633
 30
0.0
 10
425.9421967968888
 20
296.1365610758301
 30
0.0
 10
425.9960477120666
 20
296.1029998545213
 30
0.0
 10
426.0070332441143
 20
296.0965181035222
 30
0.0
 10
426.0291715674416
 20
296.0841699079994
 30
0.0
 10
426.0627137593955
 20
296.0665165936116
 30
0.0
 10
426.1202624951671
 20
296.0413654285115
 30
0.0
 10
426.168045230788
 20
296.0257716784596
 30
0.0
 10
426.2045521153907
 20
296.0158154114368
 30
0.0
 10
426.2168329248633
 20
296.0127870396176
 30
0.0
 10
426.2416236092773
 20
296.0073250044263
 30
0.0
 10
426.2541497262644
 20
296.0048900818138
 30
0.0
 10
426.3167725507415
 20
295.9943363035813
 30
0.0
 10
426.3672730338696
 20
295.9909208559539
 30
0.0
 10
426.4181886873778
 20
295.9926948116454
 30
0.0
  0
SPLINE
  5
1AB
330
1F
100
AcDbEntity
  8
1
100
AcDbSpline
210
0.0
220
0.0
230
1.0
 70
     8
 71
     3
 72
    36
 73
    32
 74
     0
 42
0.000000001
 43
0.0000000001
 40
0.0
 40
0.0
 40
0.0
 40
0.0
 40
0.1249999999998953
 40
0.1249999999998953
 40
0.1874999999998432
 40
0.1874999999998432
 40
0.2187499999998172
 40
0.2187499999998172
 40
0.2499999999997911
 40
0.2499999999997911
 40
0.3749999999996869
 40
0.3749999999996869
 40
0.4062499999996744
 40
0.4062499999996744
 40
0.4374999999996621
 40
0.4374999999996621
 40
0.4999999999996882
 40
0.4999999999996882
 40
0.6249999999997424
 40
0.6249999999997424
 40
0.6562499999997558
 40
0.6562499999997558
 40
0.6874999999997692
 40
0.7499999999998268
 40
0.8124999999998843
 40
0.8124999999998843
 40
0.8437499999999042
 40
0.8437499999999042
 40
0.8749999999999239
 40
0.8749999999999239
 40
1.0
 40
1.0
 40
1.0
 40
1.0
 10
434.3908121971313
 20
296.2704695209326
 30
0.0
 10
434.441733459984
 20
296.2722436720597
 30
0.0
 10
434.4915839357097
 20
296.2791549730856
 30
0.0
 10
434.5648532372875
 20
296.2967490046988
 30
0.0
 10
434.5890231776855
 20
296.3038282291203
 30
0.0
 10
434.6248929121278
 20
296.3162949658577
 30
0.0
 10
434.6368167327836
 20
296.3207722962247
 30
0.0
 10
434.6603612535038
 20
296.3302844858317
 30
0.0
 10
434.6719714749733
 20
296.3353128441125
 30
0.0
 10
434.7292307150341
 20
296.3617851589544
 30
0.0
 10
434.772527622
 20
296.3871812166982
 30
0.0
 10
434.8235575706968
 20
296.4241202073155
 30
0.0
 10
434.8336075472349
 20
296.43177014434
 30
0.0
 10
434.8533907392329
 20
296.4476022515617
 30
0.0
 10
434.863138985335
 20
296.455799608864
 30
0.0
 10
434.8916064070952
 20
296.4809396774218
 30
0.0
 10
434.9096441130989
 20
296.4984987170469
 30
0.0
 10
434.96101334162
 20
296.5535066980254
 30
0.0
 10
434.9916283343891
 20
296.5932632600996
 30
0.0
 10
435.0252015737221
 20
296.6469476680843
 30
0.0
 10
435.0316849258287
 20
296.65789968153
 30
0.0
 10
435.0440346827788
 20
296.6799713357477
 30
0.0
 10
435.0616879008976
 20
296.7134138148672
 30
0.0
 10
435.0868269207802
 20
296.7707977920122
 30
0.0
 10
435.1023982510979
 20
296.8184502358925
 30
0.0
 10
435.1123328234478
 20
296.8548599837149
 30
0.0
 10
435.1153531488736
 20
296.8671085114468
 30
0.0
 10
435.120797422489
 20
296.8918348314165
 30
0.0
 10
435.1232226128728
 20
296.9043288263844
 30
0.0
 10
435.1337239594234
 20
296.9667930529271
 30
0.0
 10
435.1370852416165
 20
297.0171719078782
 30
0.0
 10
435.1352445070597
 20
297.0679713523732
 30
0.0
  0
SPLINE
  5
1AC
330
1F
100
AcDbEntity
  8
1
100
AcDbSpline
210
0.0
220
0.0
230
1.0
 70
     8
 71
     3
 72
    22
 73
    18
 74
     0
 42
0.000000001
 43
0.0000000001
 40
0.0
 40
0.0
 40
0.0
 40
0.0
 40
0.1251387030320259
 40
0.1251387030320259
 40
0.2502774060640518
 40
0.2502774060640518
 40
0.3754161090960777
 40
0.3754161090960777
 40
0.5005548121281036
 40
0.5005548121281036
 40
0.6256935151601296
 40
0.6256935151601296
 40
0.7508322181921554
 40
0.7508322181921554
 40
0.8759709212241812
 40
0.8759709212241812
 40
1.0
 40
1.0
 40
1.0
 40
1.0
 10
423.8958419467365
 20
294.8419860214183
 30
0.0
 10
423.8958419468418
 20
294.4310767757198
 30
0.0
 10
423.8958419469386
 20
294.0465980969443
 30
0.0
 10
423.895841947112
 20
293.3438592944403
 30
0.0
 10
423.8958419471887
 20
293.0256134320153
 30
0.0
 10
423.8958419473191
 20
292.4664251691252
 30
0.0
 10
423.8958419473728
 20
292.2254941167647
 30
0.0
 10
423.8958419474556
 20
291.8293285109481
 30
0.0
 10
423.8958419474847
 20
291.674101997233
 30
0.0
 10
423.8958419475171
 20
291.4547543723942
 30
0.0
 10
423.8958419475203
 20
291.390637712687
 30
0.0
 10
423.8958419475011
 20
291.3557462168325
 30
0.0
 10
423.8958419474786
 20
291.3849720887693
 30
0.0
 10
423.8958419474084
 20
291.5357517175467
 30
0.0
 10
423.8958419473607
 20
291.6573024144822
 30
0.0
 10
423.8958419472426
 20
291.9870343003451
 30
0.0
 10
423.8958419471721
 20
292.1944311635162
 30
0.0
 10
423.8958419470916
 20
292.441547496334
 30
0.0
  0
SPLINE
  5
1AD
330
1F
100
AcDbEntity
  8
1
100
AcDbSpline
210
0.0
220
0.0
230
1.0
 70
     8
 71
     3
 72
    14
 73
    10
 74
     0
 42
0.000000001
 43
0.0000000001
 40
0.0
 40
0.0
 40
0.0
 40
0.0
 40
0.25
 40
0.25
 40
0.5
 40
0.5
 40
0.75
 40
0.75
 40
1.0
 40
1.0
 40
1.0
 40
1.0
 10
420.7999436315866
 20
296.1875379052741
 30
0.0
 10
421.0489579887987
 20
296.0426583142719
 30
0.0
 10
421.2998564362536
 20
295.9061867959918
 30
0.0
 10
421.8058895877079
 20
295.6495119377887
 30
0.0
 10
422.0610226571548
 20
295.5293094818475
 30
0.0
 10
422.5761059967247
 20
295.3050114692839
 30
0.0
 10
422.8360539972509
 20
295.2009151698365
 30
0.0
 10
423.3615210545406
 20
295.0090477360674
 30
0.0
 10
423.6270369804257
 20
294.9212740585963
 30
0.0
 10
423.8958419452957
 20
294.8419860217227
 30
0.0
  0
SPLINE
  5
1AE
330
1F
100
AcDbEntity
  8
1
100
AcDbSpline
210
0.0
220
0.0
230
1.0
 70
     8
 71
     3
 72
     8
 73
     4
 74
     0
 42
0.000000001
 43
0.0000000001
 40
0.0
 40
0.0
 40
0.0
 40
0.0
 40
1.0
 40
1.0
 40
1.0
 40
1.0
 10
290.7645934046542
 20
284.6554621024564
 30
0.0
 10
290.4163529277308
 20
284.7664148268384
 30
0.0
 10
290.0628486175139
 20
284.8607323827893
 30
0.0
 10
289.7038318185191
 20
284.9373715210783
 30
0.0
  0
SPLINE
  5
1AF
330
1F
100
AcDbEntity
  8
1
100
AcDbSpline
210
0.0
220
0.0
230
1.0
 70
     8
 71
     3
 72
    38
 73
    34
 74
     0
 42
0.000000001
 43
0.0000000001
 40
0.0
 40
0.0
 40
0.0
 40
0.0
 40
0.2500000000000492
 40
0.2500000000000492
 40
0.3750000000000537
 40
0.3750000000000537
 40
0.5000000000000583
 40
0.5000000000000583
 40
0.6250000000000629
 40
0.6250000000000629
 40
0.687500000000064
 40
0.687500000000064
 40
0.750000000000065
 40
0.750000000000065
 40
0.812500000000066
 40
0.812500000000066
 40
0.8437500000000682
 40
0.8437500000000682
 40
0.8750000000000701
 40
0.8750000000000701
 40
0.890625000000065
 40
0.890625000000065
 40
0.9062500000000596
 40
0.9062500000000596
 40
0.9375000000000458
 40
0.9375000000000458
 40
0.9531250000000344
 40
0.9531250000000344
 40
0.9687500000000232
 40
0.9687500000000232
 40
0.9843750000000115
 40
0.9843750000000115
 40
1.0
 40
1.0
 40
1.0
 40
1.0
 10
419.6748396811837
 20
296.807093776713
 30
0.0
 10
419.5699633455687
 20
296.8711589352415
 30
0.0
 10
419.4690369593421
 20
296.9401286220404
 30
0.0
 10
419.3239949233581
 20
297.0516653806105
 30
0.0
 10
419.2767169338127
 20
297.0902046658575
 30
0.0
 10
419.184602495201
 20
297.170401109725
 30
0.0
 10
419.1397575636403
 20
297.2120480556171
 30
0.0
 10
419.0531306145047
 20
297.299239084767
 30
0.0
 10
419.0113192033407
 20
297.3447479321117
 30
0.0
 10
418.9519677267083
 20
297.4172416375069
 30
0.0
 10
418.9327204901839
 20
297.4421738200902
 30
0.0
 10
418.8961718040733
 20
297.4933461749318
 30
0.0
 10
418.8788094308677
 20
297.5196397342961
 30
0.0
 10
418.8467218243816
 20
297.5741382964206
 30
0.0
 10
418.8321056446317
 20
297.6021066410237
 30
0.0
 10
418.813518379891
 20
297.645716945464
 30
0.0
 10
418.8078859515046
 20
297.6605334688218
 30
0.0
 10
418.7981491107684
 20
297.6909200632104
 30
0.0
 10
418.7940324546465
 20
297.7065598431562
 30
0.0
 10
418.7896206459496
 20
297.7302854592194
 30
0.0
 10
418.7884400182726
 20
297.7382528809535
 30
0.0
 10
418.7867757042076
 20
297.7543284443675
 30
0.0
 10
418.7862920270625
 20
297.7624767492882
 30
0.0
 10
418.7861298505359
 20
297.786845910637
 30
0.0
 10
418.7877001635517
 20
297.8029416350107
 30
0.0
 10
418.7935357757048
 20
297.8267683917953
 30
0.0
 10
418.7961003307702
 20
297.8347151612761
 30
0.0
 10
418.8023864980686
 20
297.8499155531126
 30
0.0
 10
418.8061126970808
 20
297.8572249193868
 30
0.0
 10
418.8147723312349
 20
297.8712412313244
 30
0.0
 10
418.8197496594652
 20
297.8779881440992
 30
0.0
 10
418.8306148430785
 20
297.8904961918071
 30
0.0
 10
418.8365175649576
 20
297.8962998861624
 30
0.0
 10
418.8428479863065
 20
297.9016939720121
 30
0.0
  0
SPLINE
  5
1B0
330
1F
100
AcDbEntity
  8
1
100
AcDbSpline
210
0.0
220
0.0
230
1.0
 70
    12
 71
     2
 72
     6
 73
     3
 74
     0
 42
0.000000001
 43
0.0000000001
 40
0.0
 40
0.0
 40
0.0
 40
1.0
 40
1.0
 40
1.0
 10
300.1683131509636
 20
281.826244603513
 30
0.0
 41
0.5000001056553528
 10
300.1726400396847
 20
281.8399416005858
 30
0.0
 41
0.4999998943446473
 10
300.1769647029271
 20
281.8536505384709
 30
0.0
 41
0.5000001056553528
  0
SPLINE
  5
1B1
330
1F
100
AcDbEntity
  8
1
100
AcDbSpline
210
0.0
220
0.0
230
1.0
 70
     8
 71
     3
 72
     8
 73
     4
 74
     0
 42
0.000000001
 43
0.0000000001
 40
0.0
 40
0.0
 40
0.0
 40
0.0
 40
1.0
 40
1.0
 40
1.0
 40
1.0
 10
419.8763883501285
 20
293.7730883463475
 30
0.0
 10
419.6062152323239
 20
293.9168946643304
 30
0.0
 10
419.3354349277976
 20
294.0628795119834
 30
0.0
 10
419.0641333629661
 20
294.2107345932877
 30
0.0
  0
SPLINE
  5
1B2
330
1F
100
AcDbEntity
  8
1
100
AcDbSpline
210
0.0
220
0.0
230
1.0
 70
     8
 71
     3
 72
    40
 73
    36
 74
     0
 42
0.000000001
 43
0.0000000001
 40
0.0
 40
0.0
 40
0.0
 40
0.0
 40
0.0328196567104607
 40
0.0328196567104607
 40
0.0650590014867783
 40
0.0650590014867783
 40
0.0972983462630958
 40
0.0972983462630958
 40
0.161777035815732
 40
0.161777035815732
 40
0.2262557253683679
 40
0.2262557253683679
 40
0.2907344149210039
 40
0.2907344149210039
 40
0.3552131044736398
 40
0.3552131044736398
 40
0.419691794026276
 40
0.419691794026276
 40
0.484170483578912
 40
0.484170483578912
 40
0.548649173131548
 40
0.548649173131548
 40
0.6131278626841839
 40
0.6131278626841839
 40
0.67760655223682
 40
0.67760655223682
 40
0.7420852417894559
 40
0.7420852417894559
 40
0.8065639313420918
 40
0.8065639313420918
 40
0.8710426208947279
 40
0.8710426208947279
 40
0.9355213104473639
 40
0.9355213104473639
 40
1.0
 40
1.0
 40
1.0
 40
1.0
 10
349.5197218691158
 20
275.0737640592683
 30
0.0
 10
348.9603512649837
 20
275.0075914446185
 30
0.0
 10
348.401010360858
 20
274.9426738918009
 30
0.0
 10
347.2922392581432
 20
274.8165446046887
 30
0.0
 10
346.7428083735714
 20
274.7552871578615
 30
0.0
 10
345.6439253145788
 20
274.635321610362
 30
0.0
 10
345.0944671732331
 20
274.5766271307343
 30
0.0
 10
343.4460697320042
 20
274.4042780604433
 30
0.0
 10
342.3471199467793
 20
274.2943188102921
 30
0.0
 10
340.1494555898219
 20
274.0834840750649
 30
0.0
 10
339.0507416978536
 20
273.982609271851
 30
0.0
 10
336.8537689050788
 20
273.7895106885167
 30
0.0
 10
335.7555105247391
 20
273.6972882744911
 30
0.0
 10
333.5595970238356
 20
273.5213947721213
 30
0.0
 10
332.4619422288457
 20
273.4377257040506
 30
0.0
 10
330.2672998369505
 20
273.2791212582466
 30
0.0
 10
329.170312347117
 20
273.2041884491784
 30
0.0
 10
326.9769776064763
 20
273.0634516207195
 30
0.0
 10
325.8806302382991
 20
272.9976505348812
 30
0.0
 10
323.6884580351745
 20
272.8757016648985
 30
0.0
 10
322.5926328731678
 20
272.8195569352079
 30
0.0
 10
320.4013033745042
 20
272.7174838831409
 30
0.0
 10
319.3057985359008
 20
272.6715584646407
 30
0.0
 10
317.1148365632223
 20
272.5904352903549
 30
0.0
 10
316.0193788029122
 20
272.5552400292826
 30
0.0
 10
313.8281835859653
 20
272.4959546170282
 30
0.0
 10
312.7324454383757
 20
272.4718663433815
 30
0.0
 10
310.5403277617581
 20
272.4349722114716
 30
0.0
 10
309.4439475378113
 20
272.4221674827421
 30
0.0
 10
307.250170762401
 20
272.4077720686354
 30
0.0
 10
306.1527735668243
 20
272.4061817224378
 30
0.0
 10
303.956594932345
 20
272.4138789121633
 30
0.0
 10
302.857812943551
 20
272.4231660391229
 30
0.0
 10
300.6585219044934
 20
272.4520155110052
 30
0.0
 10
299.5580124275688
 20
272.4715768099207
 30
0.0
 10
298.4564879334246
 20
272.4958522915398
 30
0.0
  0
SPLINE
  5
1B3
330
1F
100
AcDbEntity
  8
1
100
AcDbSpline
210
0.0
220
0.0
230
1.0
 70
     8
 71
     3
 72
    22
 73
    18
 74
     0
 42
0.000000001
 43
0.0000000001
 40
0.0
 40
0.0
 40
0.0
 40
0.0
 40
0.1606877431437181
 40
0.1606877431437181
 40
0.3213754862874362
 40
0.3213754862874362
 40
0.4820632294311543
 40
0.4820632294311543
 40
0.5624071010030134
 40
0.5624071010030134
 40
0.6427509725748725
 40
0.6427509725748725
 40
0.8034387157185914
 40
0.8034387157185914
 40
0.9641264588623103
 40
0.9641264588623103
 40
1.0
 40
1.0
 40
1.0
 40
1.0
 10
314.3577282722127
 20
273.6978652477126
 30
0.0
 10
315.6899933049656
 20
273.8177920181881
 30
0.0
 10
317.0225042876396
 20
273.9458253007789
 30
0.0
 10
319.6890586120701
 20
274.2138492914668
 30
0.0
 10
321.0231068111494
 20
274.3538160551565
 30
0.0
 10
323.6935958715879
 20
274.6406490558264
 30
0.0
 10
325.0300412504548
 20
274.7874792204328
 30
0.0
 10
327.0368987401665
 20
275.0092015107688
 30
0.0
 10
327.7062130817903
 20
275.0833597238363
 30
0.0
 10
329.0455895806148
 20
275.2316777087636
 30
0.0
 10
329.7156716867095
 20
275.305838485485
 30
0.0
 10
331.7267991888718
 20
275.5277245249806
 30
0.0
 10
333.0687874887358
 20
275.6747679647582
 30
0.0
 10
335.7549408905998
 20
275.9659852314333
 30
0.0
 10
337.0991022697702
 20
276.1101550517751
 30
0.0
 10
338.744262978175
 20
276.2858657577184
 30
0.0
 10
339.0445510721669
 20
276.3179086986837
 30
0.0
 10
339.3448711515415
 20
276.3499513485172
 30
0.0
  0
SPLINE
  5
1B4
330
1F
100
AcDbEntity
  8
1
100
AcDbSpline
210
0.0
220
0.0
230
1.0
 70
     8
 71
     3
 72
     8
 73
     4
 74
     0
 42
0.000000001
 43
0.0000000001
 40
0.0
 40
0.0
 40
0.0
 40
0.0
 40
1.0
 40
1.0
 40
1.0
 40
1.0
 10
420.7999436315861
 20
296.1875379052744
 30
0.0
 10
420.4321415227544
 20
296.3671693426769
 30
0.0
 10
420.0713535627617
 20
296.564788726126
 30
0.0
 10
419.7169771607897
 20
296.7813485218696
 30
0.0
  0
SPLINE
  5
1B5
330
1F
100
AcDbEntity
  8
1
100
AcDbSpline
210
0.0
220
0.0
230
1.0
 70
     8
 71
     3
 72
    44
 73
    40
 74
     0
 42
0.000000001
 43
0.0000000001
 40
0.0
 40
0.0
 40
0.0
 40
0.0
 40
0.0625000000000009
 40
0.0625000000000009
 40
0.1250000000000016
 40
0.1250000000000016
 40
0.1875000000000024
 40
0.1875000000000024
 40
0.2500000000000031
 40
0.2500000000000031
 40
0.3125000000000038
 40
0.3125000000000038
 40
0.3437500000000043
 40
0.3437500000000043
 40
0.3750000000000047
 40
0.3750000000000047
 40
0.4375000000000049
 40
0.4375000000000049
 40
0.5000000000000052
 40
0.5000000000000052
 40
0.5625000000000053
 40
0.5625000000000053
 40
0.6250000000000055
 40
0.6250000000000055
 40
0.6406250000000054
 40
0.6406250000000054
 40
0.6562500000000053
 40
0.6562500000000053
 40
0.6875000000000052
 40
0.6875000000000052
 40
0.750000000000004
 40
0.750000000000004
 40
0.8125000000000031
 40
0.8125000000000031
 40
0.8750000000000021
 40
0.8750000000000021
 40
0.9375000000000012
 40
0.9375000000000012
 40
1.0
 40
1.0
 40
1.0
 40
1.0
 10
279.8043368819074
 20
280.5231281720934
 30
0.0
 10
279.9459121887842
 20
280.7137074711144
 30
0.0
 10
280.0916625898802
 20
280.8991850404372
 30
0.0
 10
280.3916755950433
 20
281.2603034555195
 30
0.0
 10
280.5459379224941
 20
281.4359433841377
 30
0.0
 10
280.8632329931104
 20
281.777569978882
 30
0.0
 10
281.026265172959
 20
281.9435563844531
 30
0.0
 10
281.3614668866201
 20
282.2658965901526
 30
0.0
 10
281.5336355106593
 20
282.422250688882
 30
0.0
 10
281.8876075723734
 20
282.7251833219751
 30
0.0
 10
282.0694096176166
 20
282.8717627557982
 30
0.0
 10
282.3498352117535
 20
283.0840570434121
 30
0.0
 10
282.4445989107146
 20
283.153557828267
 30
0.0
 10
282.6368058494508
 20
283.2899707440938
 30
0.0
 10
282.7338333718588
 20
283.3565869677869
 30
0.0
 10
283.0276220472143
 20
283.5515705632463
 30
0.0
 10
283.2271362526361
 20
283.6751165707233
 30
0.0
 10
283.6338159340929
 20
283.9090752549185
 30
0.0
 10
283.8409804784456
 20
284.0194893837549
 30
0.0
 10
284.2634289991576
 20
284.2266731445096
 30
0.0
 10
284.4787115774153
 20
284.3234452667516
 30
0.0
 10
284.9180268983342
 20
284.5025106595013
 30
0.0
 10
285.1420575141051
 20
284.5848079889832
 30
0.0
 10
285.4280927571796
 20
284.6778470244257
 30
0.0
 10
285.4856002768009
 20
284.6959619852886
 30
0.0
 10
285.6012321967598
 20
284.7311812897203
 30
0.0
 10
285.6592222016148
 20
284.7482441141424
 30
0.0
 10
285.8334846171202
 20
284.7977089725457
 30
0.0
 10
285.9501486070534
 20
284.8284185062448
 30
0.0
 10
286.3016348279592
 20
284.913621731453
 30
0.0
 10
286.5379497748189
 20
284.9612043115446
 30
0.0
 10
287.0147412681091
 20
285.0369467625545
 30
0.0
 10
287.2552176214422
 20
285.0651098327519
 30
0.0
 10
287.740563055178
 20
285.1005400632165
 30
0.0
 10
287.9854318763877
 20
285.1078121821692
 30
0.0
 10
288.4798515271896
 20
285.09937370262
 30
0.0
 10
288.7261201130364
 20
285.0837065832118
 30
0.0
 10
289.216585078073
 20
285.0286467636911
 30
0.0
 10
289.4607852328884
 20
284.9892545553515
 30
0.0
 10
289.7038318185191
 20
284.9373715210785
 30
0.0
  0
SPLINE
  5
1B6
330
1F
100
AcDbEntity
  8
1
100
AcDbSpline
210
0.0
220
0.0
230
1.0
 70
     8
 71
     3
 72
    29
 73
    25
 74
     0
 42
0.000000001
 43
0.0000000001
 40
0.0
 40
0.0
 40
0.0
 40
0.0
 40
0.1249999999999092
 40
0.1249999999999092
 40
0.2499999999998183
 40
0.2499999999998183
 40
0.2812499999998067
 40
0.2812499999998067
 40
0.312499999999795
 40
0.374999999999815
 40
0.374999999999815
 40
0.4999999999998992
 40
0.4999999999998992
 40
0.6249999999999833
 40
0.6249999999999833
 40
0.6562500000000045
 40
0.6562500000000045
 40
0.6875000000000257
 40
0.6875000000000257
 40
0.7500000000000205
 40
0.7500000000000205
 40
0.8750000000000103
 40
0.8750000000000103
 40
1.0
 40
1.0
 40
1.0
 40
1.0
 10
428.0962288129556
 20
295.6974464914518
 30
0.0
 10
428.0377225938372
 20
295.6527552043521
 30
0.0
 10
427.9775198243552
 20
295.6115603722347
 30
0.0
 10
427.8536184008638
 20
295.5357809301478
 30
0.0
 10
427.7899226788849
 20
295.5011990232564
 30
0.0
 10
427.7079720366456
 20
295.4621111340069
 30
0.0
 10
427.6914440775525
 20
295.4544924816861
 30
0.0
 10
427.6582954986406
 20
295.4397387434381
 30
0.0
 10
427.6084090942176
 20
295.4183200970595
 30
0.0
 10
427.5580099092053
 20
295.3990059633371
 30
0.0
 10
427.4564564236238
 20
295.363144283591
 30
0.0
 10
427.3877534854613
 20
295.3429096387799
 30
0.0
 10
427.2478329392427
 20
295.3099492670125
 30
0.0
 10
427.1766115914799
 20
295.2972224743237
 30
0.0
 10
427.0855914535134
 20
295.2864335443286
 30
0.0
 10
427.0672444784806
 20
295.2845294025963
 30
0.0
 10
427.0305539056801
 20
295.2812695287647
 30
0.0
 10
427.0122526162583
 20
295.2799161292183
 30
0.0
 10
426.9574813460873
 20
295.2766722308737
 30
0.0
 10
426.9211446101551
 20
295.2755978350756
 30
0.0
 10
426.8126475273812
 20
295.2755381162246
 30
0.0
 10
426.7410052980407
 20
295.2797078339768
 30
0.0
 10
426.5988051347293
 20
295.2960593025227
 30
0.0
 10
426.528240933139
 20
295.3082359524338
 30
0.0
 10
426.4580297705632
 20
295.32437779193
 30
0.0
  0
SPLINE
  5
1B7
330
1F
100
AcDbEntity
  8
1
100
AcDbSpline
210
0.0
220
0.0
230
1.0
 70
     8
 71
     3
 72
    22
 73
    18
 74
     0
 42
0.000000001
 43
0.0000000001
 40
0.0
 40
0.0
 40
0.0
 40
0.0
 40
0.2499999999999819
 40
0.2499999999999819
 40
0.37499999999998
 40
0.37499999999998
 40
0.4374999999999862
 40
0.4374999999999862
 40
0.4999999999999922
 40
0.4999999999999922
 40
0.7500000000000029
 40
0.7500000000000029
 40
0.8125000000000055
 40
0.8125000000000055
 40
0.8750000000000081
 40
0.8750000000000081
 40
1.0
 40
1.0
 40
1.0
 40
1.0
 10
426.4555289861688
 20
295.0961591817243
 30
0.0
 10
425.9688501565237
 20
295.0789754329475
 30
0.0
 10
425.4844968623848
 20
295.0895105393939
 30
0.0
 10
424.7613826539359
 20
295.1459471571967
 30
0.0
 10
424.520915365781
 20
295.1715489441328
 30
0.0
 10
424.1610747551686
 20
295.2201696102608
 30
0.0
 10
424.0412713628368
 20
295.2380805331678
 30
0.0
 10
423.8019533376011
 20
295.2773286591019
 30
0.0
 10
423.6824041508674
 20
295.2986725582507
 30
0.0
 10
423.0857468313926
 20
295.4139549724119
 30
0.0
 10
422.6164411523253
 20
295.5326043948941
 30
0.0
 10
422.039735500651
 20
295.7134049223557
 30
0.0
 10
421.924892303117
 20
295.7511943653662
 30
0.0
 10
421.6962057530204
 20
295.8300377778839
 30
0.0
 10
421.5822793460977
 20
295.8711247730057
 30
0.0
 10
421.2429950158361
 20
295.9989212612297
 30
0.0
 10
421.0199233103432
 20
296.0902228908544
 30
0.0
 10
420.7999436315861
 20
296.1875379052744
 30
0.0
  0
SPLINE
  5
1B8
330
1F
100
AcDbEntity
  8
1
100
AcDbSpline
210
0.0
220
0.0
230
1.0
 70
     8
 71
     3
 72
    27
 73
    23
 74
     0
 42
0.000000001
 43
0.0000000001
 40
0.0
 40
0.0
 40
0.0
 40
0.0
 40
0.1250000000000107
 40
0.1250000000000107
 40
0.2500000000000214
 40
0.2500000000000214
 40
0.2812500000000163
 40
0.2812500000000163
 40
0.3125000000000111
 40
0.3750000000000009
 40
0.3750000000000009
 40
0.4999999999999917
 40
0.4999999999999917
 40
0.5312499999999893
 40
0.5312499999999893
 40
0.5624999999999869
 40
0.6249999999999938
 40
0.6249999999999938
 40
0.749999999999996
 40
0.8749999999999978
 40
0.8749999999999978
 40
1.0
 40
1.0
 40
1.0
 40
1.0
 10
419.8793135762231
 20
293.6875905856242
 30
0.0
 10
420.1255401690754
 20
293.5302623634377
 30
0.0
 10
420.3774898261841
 20
293.3822121447881
 30
0.0
 10
420.8927621117787
 20
293.1049990049397
 30
0.0
 10
421.1560840510981
 20
292.9758344578713
 30
0.0
 10
421.492396401811
 20
292.8265207590623
 30
0.0
 10
421.5600327072998
 20
292.79726011461
 30
0.0
 10
421.6957218286766
 20
292.7400893618827
 30
0.0
 10
421.8999880743028
 20
292.6563102361699
 30
0.0
 10
422.1064417799133
 20
292.5784556397653
 30
0.0
 10
422.5222500201038
 20
292.4306547766689
 30
0.0
 10
422.8033189558223
 20
292.3426550130819
 30
0.0
 10
423.1594951232611
 20
292.2460007011422
 30
0.0
 10
423.2310209819989
 20
292.2273259595239
 30
0.0
 10
423.3743191577285
 20
292.191379920511
 30
0.0
 10
423.5895012482322
 20
292.1395968088244
 30
0.0
 10
423.8053812466783
 20
292.0941736532977
 30
0.0
 10
424.2380587186009
 20
292.0117150530141
 30
0.0
 10
424.8174056543946
 20
291.9241137771572
 30
0.0
 10
425.4015740023259
 20
291.8808038546893
 30
0.0
 10
425.9881682329889
 20
291.8598308867323
 30
0.0
 10
426.2826781342673
 20
291.8605115195177
 30
0.0
 10
426.5784337439212
 20
291.8726614519941
 30
0.0
  0
SPLINE
  5
1B9
330
1F
100
AcDbEntity
  8
1
100
AcDbSpline
210
0.0
220
0.0
230
1.0
 70
     8
 71
     3
 72
     8
 73
     4
 74
     0
 42
0.000000001
 43
0.0000000001
 40
0.0
 40
0.0
 40
0.0
 40
0.0
 40
1.0
 40
1.0
 40
1.0
 40
1.0
 10
426.4555289861688
 20
295.0961591817243
 30
0.0
 10
426.4597275797971
 20
295.0963074264675
 30
0.0
 10
426.4639278018141
 20
295.0964547484407
 30
0.0
 10
426.4681296559635
 20
295.0966011455222
 30
0.0
  0
SPLINE
  5
1BA
330
1F
100
AcDbEntity
  8
1
100
AcDbSpline
210
0.0
220
0.0
230
1.0
 70
     8
 71
     3
 72
    18
 73
    14
 74
     0
 42
0.000000001
 43
0.0000000001
 40
0.0
 40
0.0
 40
0.0
 40
0.0
 40
0.2500000000000046
 40
0.2500000000000046
 40
0.5000000000000091
 40
0.5000000000000091
 40
0.7500000000000137
 40
0.7500000000000137
 40
0.8125000000000103
 40
0.8125000000000103
 40
0.8750000000000071
 40
0.8750000000000071
 40
1.0
 40
1.0
 40
1.0
 40
1.0
 10
423.895841945296
 20
292.4481894989003
 30
0.0
 10
423.538458515985
 20
292.5049081073406
 30
0.0
 10
423.1872311844147
 20
292.574703455548
 30
0.0
 10
422.4959372414551
 20
292.7406700123904
 30
0.0
 10
422.1558752175382
 20
292.8368400582393
 30
0.0
 10
421.4862104696843
 20
293.0563686500196
 30
0.0
 10
421.1566101956107
 20
293.1797229285916
 30
0.0
 10
420.7509158921932
 20
293.3518349161594
 30
0.0
 10
420.6700930669204
 20
293.3871551199487
 30
0.0
 10
420.5090765007991
 20
293.4596222334984
 30
0.0
 10
420.4288605438811
 20
293.4967810668652
 30
0.0
 10
420.1897338123148
 20
293.6107648595396
 30
0.0
 10
420.0321565315274
 20
293.6901768827354
 30
0.0
 10
419.8763883501285
 20
293.7730883463475
 30
0.0
  0
SPLINE
  5
1BB
330
1F
100
AcDbEntity
  8
1
100
AcDbSpline
210
0.0
220
0.0
230
1.0
 70
     8
 71
     3
 72
     8
 73
     4
 74
     0
 42
0.000000001
 43
0.0000000001
 40
0.0
 40
0.0
 40
0.0
 40
0.0
 40
1.0
 40
1.0
 40
1.0
 40
1.0
 10
279.8043368819074
 20
280.5231281720934
 30
0.0
 10
279.6685097293461
 20
280.3402866576076
 30
0.0
 10
279.5352911685413
 20
280.1535904475256
 30
0.0
 10
279.4048419452957
 20
279.9627064886861
 30
0.0
  0
SPLINE
  5
1BC
330
1F
100
AcDbEntity
  8
1
100
AcDbSpline
210
0.0
220
0.0
230
1.0
 70
     8
 71
     3
 72
    18
 73
    14
 74
     0
 42
0.000000001
 43
0.0000000001
 40
0.0
 40
0.0
 40
0.0
 40
0.0
 40
0.2499999999999076
 40
0.2499999999999076
 40
0.4999999999998154
 40
0.4999999999998154
 40
0.7499999999997229
 40
0.7499999999997229
 40
0.8124999999997694
 40
0.8124999999997694
 40
0.8749999999998159
 40
0.8749999999998159
 40
1.0
 40
1.0
 40
1.0
 40
1.0
 10
426.4580297705633
 20
295.32437779193
 30
0.0
 10
426.3950693037345
 20
295.3388526661932
 30
0.0
 10
426.3333262227075
 20
295.3562737093101
 30
0.0
 10
426.2118848959832
 20
295.3967698798523
 30
0.0
 10
426.1521891837014
 20
295.4198461302328
 30
0.0
 10
426.0345836089563
 20
295.4716814176915
 30
0.0
 10
425.9766761425838
 20
295.5004390896985
 30
0.0
 10
425.9052794266991
 20
295.5401198662038
 30
0.0
 10
425.8910494918738
 20
295.5482434381867
 30
0.0
 10
425.8626850646793
 20
295.5648731816198
 30
0.0
 10
425.8485268841104
 20
295.5733943596676
 30
0.0
 10
425.8064396378485
 20
295.5993893464686
 30
0.0
 10
425.7788620129749
 20
295.6173121788597
 30
0.0
 10
425.7517608143833
 20
295.6358062161405
 30
0.0
  0
SPLINE
  5
1BD
330
1F
100
AcDbEntity
  8
1
100
AcDbSpline
210
0.0
220
0.0
230
1.0
 70
     8
 71
     3
 72
    10
 73
     6
 74
     0
 42
0.000000001
 43
0.0000000001
 40
0.0
 40
0.0
 40
0.0
 40
0.0
 40
0.5
 40
0.5
 40
1.0
 40
1.0
 40
1.0
 40
1.0
 10
419.9117065646167
 20
299.7372865814528
 30
0.0
 10
419.9625361445278
 20
300.6617489981479
 30
0.0
 10
420.005775222702
 20
301.5866133972232
 30
0.0
 10
420.0823855689675
 20
303.4367366246855
 30
0.0
 10
420.1157083259659
 20
304.3619916332545
 30
0.0
 10
420.1456110210949
 20
305.2873793931421
 30
0.0
  0
SPLINE
  5
1BE
330
1F
100
AcDbEntity
  8
1
100
AcDbSpline
210
0.0
220
0.0
230
1.0
 70
     8
 71
     3
 72
    42
 73
    38
 74
     0
 42
0.000000001
 43
0.0000000001
 40
0.0
 40
0.0
 40
0.0
 40
0.0
 40
0.0611714331978728
 40
0.0611714331978728
 40
0.1223428663957455
 40
0.1223428663957455
 40
0.1835142995936182
 40
0.1835142995936182
 40
0.214100016192554
 40
0.214100016192554
 40
0.2446857327914897
 40
0.2446857327914897
 40
0.3058571659893625
 40
0.3058571659893625
 40
0.3670285991872352
 40
0.3670285991872352
 40
0.428200032385108
 40
0.428200032385108
 40
0.4587857489840443
 40
0.4587857489840443
 40
0.4893714655829808
 40
0.4893714655829808
 40
0.6117143319787256
 40
0.6117143319787256
 40
0.7340571983744704
 40
0.7340571983744704
 40
0.7952286315723432
 40
0.7952286315723432
 40
0.8564000647702158
 40
0.8564000647702158
 40
0.9175714979680888
 40
0.9175714979680888
 40
0.9481572145670252
 40
0.9481572145670252
 40
0.9787429311659614
 40
0.9787429311659614
 40
1.0
 40
1.0
 40
1.0
 40
1.0
 10
420.1456110210946
 20
305.2873793931137
 30
0.0
 10
418.9242539045712
 20
305.3293497736375
 30
0.0
 10
417.6992895519839
 20
305.3586187910343
 30
0.0
 10
415.2414510596193
 20
305.3970000127385
 30
0.0
 10
414.0085795285528
 20
305.4061355121557
 30
0.0
 10
411.5349226417905
 20
305.4093372550573
 30
0.0
 10
410.2941407943486
 20
305.4034184905057
 30
0.0
 10
408.4274760827248
 20
305.3864575503658
 30
0.0
 10
407.8042359948721
 20
305.3794476396721
 30
0.0
 10
406.5567730019367
 20
305.3631597663577
 30
0.0
 10
405.9325170133838
 20
305.3538821699938
 30
0.0
 10
404.0583068770072
 20
305.323188259032
 30
0.0
 10
402.8069038303111
 20
305.2989511955979
 30
0.0
 10
400.3011270552348
 20
305.2448387037691
 30
0.0
 10
399.0467557504128
 20
305.2149610869878
 30
0.0
 10
396.5361222276925
 20
305.1502142600031
 30
0.0
 10
395.2798620527742
 20
305.1153423958309
 30
0.0
 10
393.3949522552101
 20
305.0588884695503
 30
0.0
 10
392.7665687378452
 20
305.039363107537
 30
0.0
 10
391.5097572797222
 20
304.9987782093773
 30
0.0
 10
390.881322388482
 20
304.9777300826012
 30
0.0
 10
387.7391777710561
 20
304.8686654788167
 30
0.0
 10
385.2254534612178
 20
304.7692622192234
 30
0.0
 10
380.1992310021316
 20
304.5433187606011
 30
0.0
 10
377.6867036924987
 20
304.4167621225048
 30
0.0
 10
373.9196726360062
 20
304.203030763945
 30
0.0
 10
372.6644632967248
 20
304.1278023645091
 30
0.0
 10
370.1551397185532
 20
303.9685933356722
 30
0.0
 10
368.9010242949936
 20
303.8846168511834
 30
0.0
 10
366.394083577967
 20
303.7068971672468
 30
0.0
 10
365.1412568174495
 20
303.6131605112302
 30
0.0
 10
363.2631884439228
 20
303.4641734287091
 30
0.0
 10
362.6373616945776
 20
303.4131103356009
 30
0.0
 10
361.3861455677471
 20
303.3079494983671
 30
0.0
 10
360.76076306003
 20
303.2538319474042
 30
0.0
 10
359.7010999253284
 20
303.159454419201
 30
0.0
 10
359.2667086520872
 20
303.1200034970534
 30
0.0
 10
358.8324116775333
 20
303.0798023595116
 30
0.0
  0
SPLINE
  5
1BF
330
1F
100
AcDbEntity
  8
1
100
AcDbSpline
210
0.0
220
0.0
230
1.0
 70
    28
 71
     4
 72
    13
 73
     8
 74
     0
 42
0.000000001
 43
0.0000000001
 40
0.0
 40
0.0
 40
0.0
 40
0.0
 40
0.0
 40
0.1489644439356167
 40
0.1489644439356167
 40
0.1489644439356167
 40
1.0
 40
1.0
 40
1.0
 40
1.0
 40
1.0
 10
297.9048419452957
 20
282.4991900165925
 30
0.0
 41
0.9999986960728591
 10
297.9048419452957
 20
282.1599651410462
 30
0.0
 41
1.000589290596092
 10
297.9048419452957
 20
281.816157633244
 30
0.0
 41
1.001130831306571
 10
297.9048419452957
 20
281.4707837745852
 30
0.0
 41
1.001498006703475
 10
297.9048419452957
 20
279.1638832545007
 30
0.0
 41
1.001498006703475
 10
297.9048419452957
 20
276.8468536562723
 30
0.0
 41
0.9895139530756711
 10
297.9048419452957
 20
274.8751070745826
 30
0.0
 41
1.001498006703475
 10
297.9048419452957
 20
273.5629890166015
 30
0.0
 41
1.001498006703475
  0
SPLINE
  5
1C0
330
1F
100
AcDbEntity
  8
1
100
AcDbSpline
210
0.0
220
0.0
230
1.0
 70
     8
 71
     3
 72
    56
 73
    52
 74
     0
 42
0.000000001
 43
0.0000000001
 40
0.0
 40
0.0
 40
0.0
 40
0.0
 40
0.0624999999999995
 40
0.0624999999999995
 40
0.1249999999999989
 40
0.1249999999999989
 40
0.1562499999999986
 40
0.1562499999999986
 40
0.1874999999999983
 40
0.1874999999999983
 40
0.2499999999999977
 40
0.2499999999999977
 40
0.3124999999999971
 40
0.3124999999999971
 40
0.3749999999999965
 40
0.3749999999999965
 40
0.4062499999999964
 40
0.4062499999999964
 40
0.4218749999999963
 40
0.4218749999999963
 40
0.437499999999996
 40
0.437499999999996
 40
0.4687499999999958
 40
0.4687499999999958
 40
0.4999999999999958
 40
0.4999999999999958
 40
0.5312499999999956
 40
0.5312499999999956
 40
0.5624999999999955
 40
0.5624999999999955
 40
0.5781249999999954
 40
0.5781249999999954
 40
0.5937499999999954
 40
0.5937499999999954
 40
0.6249999999999957
 40
0.6249999999999957
 40
0.656249999999996
 40
0.656249999999996
 40
0.6874999999999963
 40
0.6874999999999963
 40
0.7499999999999973
 40
0.7499999999999973
 40
0.812499999999998
 40
0.812499999999998
 40
0.8437499999999985
 40
0.8437499999999985
 40
0.8749999999999989
 40
0.8749999999999989
 40
0.9374999999999994
 40
0.9374999999999994
 40
1.0
 40
1.0
 40
1.0
 40
1.0
 10
300.1683131509636
 20
281.826244603513
 30
0.0
 10
302.4039724762608
 20
281.4927869289227
 30
0.0
 10
304.6393586676677
 20
281.1639579158172
 30
0.0
 10
309.1093322174475
 20
280.5145190908442
 30
0.0
 10
311.3439173591328
 20
280.1938919838695
 30
0.0
 10
314.6948975260905
 20
279.7180889354478
 30
0.0
 10
315.8118062580304
 20
279.5603342271354
 30
0.0
 10
318.0449001321222
 20
279.2464394969739
 30
0.0
 10
319.1610672643656
 20
279.0903011116133
 30
0.0
 10
322.5083100189646
 20
278.6241550251865
 30
0.0
 10
324.7381235056397
 20
278.3163701276019
 30
0.0
 10
329.1937794944102
 20
277.7067752685156
 30
0.0
 10
331.4196153973305
 20
277.4049421697571
 30
0.0
 10
335.8668884545443
 20
276.8089820596339
 30
0.0
 10
338.0883181175053
 20
276.5148389157426
 30
0.0
 10
341.4171456146655
 20
276.0824841972894
 30
0.0
 10
342.5262058277024
 20
275.939862795898
 30
0.0
 10
344.1890140096021
 20
275.7287501793507
 30
0.0
 10
344.7431533789295
 20
275.6588505366045
 30
0.0
 10
345.8511832097768
 20
275.5201049287299
 30
0.0
 10
346.4050638201448
 20
275.4512296711533
 30
0.0
 10
348.0664665658011
 20
275.246705131555
 30
0.0
 10
349.1737782911619
 20
275.1132664423871
 30
0.0
 10
351.3888905858836
 20
274.8555589686921
 30
0.0
 10
352.4964390227203
 20
274.7313169486688
 30
0.0
 10
354.7120083615453
 20
274.4942632972136
 30
0.0
 10
355.8200857155996
 20
274.3814379494718
 30
0.0
 10
358.0375393404679
 20
274.1683362966006
 30
0.0
 10
359.1469141501014
 20
274.0680505934702
 30
0.0
 10
360.8124028916387
 20
273.9273023517057
 30
0.0
 10
361.3678063458235
 20
273.8820025628392
 30
0.0
 10
362.4791410603892
 20
273.7945794155375
 30
0.0
 10
363.0350633719347
 20
273.7524339210781
 30
0.0
 10
364.7035309878201
 20
273.6303199279918
 30
0.0
 10
365.8167740351979
 20
273.5546593553748
 30
0.0
 10
368.0448612958723
 20
273.4132560836376
 30
0.0
 10
369.1597066227844
 20
273.3475192201547
 30
0.0
 10
371.3908194376335
 20
273.2247935683911
 30
0.0
 10
372.5070879515965
 20
273.1678087577863
 30
0.0
 10
375.8578296390273
 20
273.0085930422043
 30
0.0
 10
378.0942417848629
 20
272.9180565446059
 30
0.0
 10
382.5713330950856
 20
272.7624448900002
 30
0.0
 10
384.8120296982724
 20
272.6973787947944
 30
0.0
 10
388.1754603419661
 20
272.6156544207053
 30
0.0
 10
389.2968045571974
 20
272.5910739049906
 30
0.0
 10
391.5397932565488
 20
272.5468313903075
 30
0.0
 10
392.6614344176464
 20
272.527167031894
 30
0.0
 10
396.0266812296057
 20
272.4751273593451
 30
0.0
 10
398.2706346151302
 20
272.4497223466843
 30
0.0
 10
402.7593391754614
 20
272.4161589029166
 30
0.0
 10
405.0040965745242
 20
272.4079935137005
 30
0.0
 10
407.2491199675217
 20
272.4079935137005
 30
0.0
  0
SPLINE
  5
1C1
330
1F
100
AcDbEntity
  8
1
100
AcDbSpline
210
0.0
220
0.0
230
1.0
 70
     8
 71
     3
 72
    73
 73
    69
 74
     0
 42
0.000000001
 43
0.0000000001
 40
0.0
 40
0.0
 40
0.0
 40
0.0
 40
0.0172680058585689
 40
0.0172680058585689
 40
0.0523655770779055
 40
0.0523655770779055
 40
0.0874631482972421
 40
0.0874631482972421
 40
0.1225607195165788
 40
0.1225607195165788
 40
0.1576582907359154
 40
0.1576582907359154
 40
0.192755861955252
 40
0.192755861955252
 40
0.2278534331745887
 40
0.2278534331745887
 40
0.2629510043939254
 40
0.2629510043939254
 40
0.2980485756132619
 40
0.2980485756132619
 40
0.3155973612229303
 40
0.3155973612229303
 40
0.3331461468325986
 40
0.3331461468325986
 40
0.3682437180519353
 40
0.3682437180519353
 40
0.4033412892712721
 40
0.4033412892712721
 40
0.4384388604906088
 40
0.4384388604906088
 40
0.4735364317099453
 40
0.4735364317099453
 40
0.5086340029292821
 40
0.5086340029292821
 40
0.5437315741486187
 40
0.5437315741486187
 40
0.5788291453679554
 40
0.5788291453679554
 40
0.613926716587292
 40
0.613926716587292
 40
0.6490242878066287
 40
0.6490242878066287
 40
0.6841218590259654
 40
0.6841218590259654
 40
0.7192194302453019
 40
0.7192194302453019
 40
0.7543170014646386
 40
0.7543170014646386
 40
0.7894145726839752
 40
0.7894145726839752
 40
0.824512143903312
 40
0.824512143903312
 40
0.8596097151226489
 40
0.8596097151226489
 40
0.8771585007323178
 40
0.8771585007323178
 40
0.8947072863419867
 40
0.9122560719516556
 40
0.9122560719516556
 40
0.9298048575613245
 40
0.9298048575613245
 40
0.9473536431709936
 40
0.9473536431709936
 40
0.9649024287806623
 40
0.9649024287806623
 40
0.9824512143903312
 40
0.9824512143903312
 40
1.0
 40
1.0
 40
1.0
 40
1.0
 10
311.2454094037638
 20
305.4079928853346
 30
0.0
 10
311.8681844615779
 20
305.4080006334046
 30
0.0
 10
312.4908316273683
 20
305.4069741447054
 30
0.0
 10
314.3785571618836
 20
305.4005924001521
 30
0.0
 10
315.6431277410268
 20
305.3918612715752
 30
0.0
 10
318.1711060443296
 20
305.3648450980548
 30
0.0
 10
319.4345138548551
 20
305.3465587293498
 30
0.0
 10
321.960365450221
 20
305.2999047180254
 30
0.0
 10
323.2228094078932
 20
305.2715358980001
 30
0.0
 10
325.7469679242464
 20
305.2043492483472
 30
0.0
 10
327.0086827313751
 20
305.1655305073128
 30
0.0
 10
329.5316470026493
 20
305.0772676864327
 30
0.0
 10
330.7928967746148
 20
305.0278230590019
 30
0.0
 10
333.3152160496322
 20
304.9183457856968
 30
0.0
 10
334.5762859010438
 20
304.858313025392
 30
0.0
 10
337.0985415093563
 20
304.7279206296375
 30
0.0
 10
338.3597276358364
 20
304.657561351812
 30
0.0
 10
340.8825122244231
 20
304.5069973629091
 30
0.0
 10
342.1440183370672
 20
304.4267986190499
 30
0.0
 10
344.0363918292165
 20
304.2996600653414
 30
0.0
 10
344.6672160864304
 20
304.2561411248767
 30
0.0
 10
345.9289672815975
 20
304.1669269110261
 30
0.0
 10
346.5599005825312
 20
304.1212453981779
 30
0.0
 10
348.4528308675361
 20
303.9809413608162
 30
0.0
 10
349.7149389997243
 20
303.8830289208476
 30
0.0
 10
352.2391746176474
 20
303.6778938312011
 30
0.0
 10
353.5013301872364
 20
303.5706628865566
 30
0.0
 10
356.025423555155
 20
303.346513416379
 30
0.0
 10
357.2872715319953
 20
303.2296002280269
 30
0.0
 10
359.8106100274975
 20
302.9860436578322
 30
0.0
 10
361.0720978484748
 20
302.8593883968307
 30
0.0
 10
363.5948962848083
 20
302.5966963301336
 30
0.0
 10
364.856232990701
 20
302.4607294719473
 30
0.0
 10
367.3791261613831
 20
302.180570169753
 30
0.0
 10
368.6407313651825
 20
302.0363717331044
 30
0.0
 10
371.1640346617684
 20
301.7405779413332
 30
0.0
 10
372.4257475205651
 20
301.5889803578351
 30
0.0
 10
374.9494260792201
 20
301.2789636103399
 30
0.0
 10
376.2113911460385
 20
301.1205439873533
 30
0.0
 10
378.735640986261
 20
300.7972692795082
 30
0.0
 10
379.9979255122313
 20
300.6324146313206
 30
0.0
 10
382.5228326597319
 20
300.2964657608229
 30
0.0
 10
383.7854548092782
 20
300.1253726140471
 30
0.0
 10
386.3106232270429
 20
299.7769801930156
 30
0.0
 10
387.5732183968807
 20
299.599676353214
 30
0.0
 10
390.0983559223053
 20
299.2385662866663
 30
0.0
 10
391.3608983798964
 20
299.0547618264467
 30
0.0
 10
393.8858006714213
 20
298.6800443669608
 30
0.0
 10
395.1481553097116
 20
298.4891234241894
 30
0.0
 10
397.6719632414761
 20
298.0967809949794
 30
0.0
 10
398.9332594743786
 20
297.8953628031275
 30
0.0
 10
401.454081997341
 20
297.4797752676456
 30
0.0
 10
402.7136228438144
 20
297.2655754673753
 30
0.0
 10
404.6016443612975
 20
296.9343066216181
 30
0.0
 10
405.2307739350584
 20
296.8222388008838
 30
0.0
 10
406.4886677698527
 20
296.5949909921995
 30
0.0
 10
407.746196160162
 20
296.3646300762238
 30
0.0
 10
409.0031878654043
 20
296.1287816095742
 30
0.0
 10
410.2600518582045
 20
295.890778522887
 30
0.0
 10
410.8884193869731
 20
295.7706989492928
 30
0.0
 10
412.1450831602245
 20
295.5292396293898
 30
0.0
 10
412.7733947514208
 20
295.4078559919521
 30
0.0
 10
414.0302065365155
 20
295.1648798130636
 30
0.0
 10
414.658706466827
 20
295.0432856550544
 30
0.0
 10
415.9161786910859
 20
294.8012882851665
 30
0.0
 10
416.5451504425527
 20
294.6808820760087
 30
0.0
 10
417.8039163295824
 20
294.4430290799938
 30
0.0
 10
418.4337093814487
 20
294.3255765877903
 30
0.0
 10
419.064133362966
 20
294.2107345932877
 30
0.0
  0
SPLINE
  5
1C2
330
1F
100
AcDbEntity
  8
1
100
AcDbSpline
210
0.0
220
0.0
230
1.0
 70
     8
 71
     3
 72
    27
 73
    23
 74
     0
 42
0.000000001
 43
0.0000000001
 40
0.0
 40
0.0
 40
0.0
 40
0.0
 40
0.1249999999999797
 40
0.1249999999999797
 40
0.2499999999999594
 40
0.2499999999999594
 40
0.3749999999999392
 40
0.3749999999999392
 40
0.4999999999999189
 40
0.4999999999999189
 40
0.5624999999999201
 40
0.5624999999999201
 40
0.6249999999999211
 40
0.6249999999999211
 40
0.7499999999999398
 40
0.7499999999999398
 40
0.8124999999999543
 40
0.8124999999999543
 40
0.8437499999999626
 40
0.8437499999999626
 40
0.8749999999999712
 40
1.0
 40
1.0
 40
1.0
 40
1.0
 10
418.8428479863063
 20
297.901693972012
 30
0.0
 10
418.9123209249062
 20
297.9608911366851
 30
0.0
 10
418.9799783808354
 20
298.0217216550974
 30
0.0
 10
419.1111640947286
 20
298.1470976494076
 30
0.0
 10
419.1746943953468
 20
298.2116412875698
 30
0.0
 10
419.296973489287
 20
298.3450303911433
 30
0.0
 10
419.3557257386319
 20
298.4138727472391
 30
0.0
 10
419.4675603467293
 20
298.5566585475055
 30
0.0
 10
419.5206489785002
 20
298.6305963479659
 30
0.0
 10
419.5950817665274
 20
298.7461815291032
 30
0.0
 10
419.6190447211026
 20
298.7855475717629
 30
0.0
 10
419.6645008324404
 20
298.8650746942297
 30
0.0
 10
419.6860636542334
 20
298.905337518376
 30
0.0
 10
419.7470073039544
 20
299.0277305164058
 30
0.0
 10
419.7826606771859
 20
299.1114577773013
 30
0.0
 10
419.8274173605049
 20
299.2407863375066
 30
0.0
 10
419.8408784024406
 20
299.2845204975746
 30
0.0
 10
419.858681231302
 20
299.3511452286171
 30
0.0
 10
419.8642235714968
 20
299.373557627832
 30
0.0
 10
419.8744117394338
 20
299.4184528362827
 30
0.0
 10
419.8976767560355
 20
299.5309869188883
 30
0.0
 10
419.9097578538832
 20
299.6450223720688
 30
0.0
 10
419.9117065646167
 20
299.7372865814528
 30
0.0
  0
SPLINE
  5
1C3
330
1F
100
AcDbEntity
  8
1
100
AcDbSpline
210
0.0
220
0.0
230
1.0
 70
    12
 71
     3
 72
     9
 73
     5
 74
     0
 42
0.000000001
 43
0.0000000001
 40
0.0
 40
0.0
 40
0.0
 40
0.0
 40
0.1065957926400691
 40
1.0
 40
1.0
 40
1.0
 40
1.0
 10
389.5486882371312
 20
299.3180928109207
 30
0.0
 41
1.000277263165045
 10
390.6384802941795
 20
299.2941977031992
 30
0.0
 41
1.000165557179679
 10
400.8568925618568
 20
299.0614793988887
 30
0.0
 41
0.9995842023152412
 10
410.8270798190211
 20
298.8353691458734
 30
0.0
 41
1.004599619534618
 10
419.9117065646166
 20
299.7372865814528
 30
0.0
 41
1.002740424864067
  0
SPLINE
  5
1C4
330
1F
100
AcDbEntity
  8
1
100
AcDbSpline
210
0.0
220
0.0
230
1.0
 70
     8
 71
     3
 72
     8
 73
     4
 74
     0
 42
0.000000001
 43
0.0000000001
 40
0.0
 40
0.0
 40
0.0
 40
0.0
 40
1.0
 40
1.0
 40
1.0
 40
1.0
 10
279.4048419452957
 20
271.9019120216314
 30
0.0
 10
279.5356789657612
 20
271.9156287377312
 30
0.0
 10
279.668947336205
 20
271.9361775855014
 30
0.0
 10
279.8043368819198
 20
271.9626475954076
 30
0.0
  0
SPLINE
  5
1C5
330
1F
100
AcDbEntity
  8
1
100
AcDbSpline
210
0.0
220
0.0
230
1.0
 70
     8
 71
     3
 72
    29
 73
    25
 74
     0
 42
0.000000001
 43
0.0000000001
 40
0.0
 40
0.0
 40
0.0
 40
0.0
 40
0.0312500000000003
 40
0.0312500000000003
 40
0.0625000000000006
 40
0.0625000000000006
 40
0.1250000000000009
 40
0.1250000000000009
 40
0.250000000000001
 40
0.250000000000001
 40
0.3750000000000011
 40
0.3750000000000011
 40
0.5000000000000013
 40
0.5000000000000013
 40
0.6250000000000014
 40
0.6250000000000014
 40
0.6875000000000015
 40
0.7187500000000017
 40
0.7187500000000017
 40
0.7500000000000018
 40
0.7500000000000018
 40
0.875000000000001
 40
0.875000000000001
 40
1.0
 40
1.0
 40
1.0
 40
1.0
 10
286.1325343084411
 20
273.0305944907064
 30
0.0
 10
286.0527250440446
 20
273.024352189413
 30
0.0
 10
285.9731944556386
 20
273.0177753686194
 30
0.0
 10
285.8146867793001
 20
273.0039780568622
 30
0.0
 10
285.7357014557735
 20
272.9967560143311
 30
0.0
 10
285.5004249777125
 20
272.9742482994915
 30
0.0
 10
285.3455197058433
 20
272.9580970617214
 30
0.0
 10
284.8864087695331
 20
272.9065974052044
 30
0.0
 10
284.5877948699465
 20
272.8682074911186
 30
0.0
 10
284.0046296112473
 20
272.7852503047779
 30
0.0
 10
283.7200823730537
 20
272.7406788522884
 30
0.0
 10
283.1645768944304
 20
272.6471921161948
 30
0.0
 10
282.8936209824044
 20
272.5982726839609
 30
0.0
 10
282.365101841605
 20
272.4979525081838
 30
0.0
 10
282.107539801955
 20
272.4465467618808
 30
0.0
 10
281.7312639726605
 20
272.3690960116971
 30
0.0
 10
281.5456453701447
 20
272.3302876867362
 30
0.0
 10
281.3638316383617
 20
272.291673929547
 30
0.0
 10
281.243472374888
 20
272.2660132124477
 30
0.0
 10
281.1837280566074
 20
272.2532258012545
 30
0.0
 10
280.8877935949771
 20
272.1897327095107
 30
0.0
 10
280.6594274984398
 20
272.1402261291828
 30
0.0
 10
280.219355793191
 20
272.0465654032794
 30
0.0
 10
280.0076499385838
 20
272.0023973308506
 30
0.0
 10
279.8043368819197
 20
271.9626475954076
 30
0.0
  0
SPLINE
  5
1CD
330
1F
100
AcDbEntity
  8
1
100
AcDbSpline
210
0.0
220
0.0
230
1.0
 70
     8
 71
     3
 72
     8
 73
     4
 74
     0
 42
0.000000001
 43
0.0000000001
 40
0.0
 40
0.0
 40
0.0
 40
0.0
 40
1.0
 40
1.0
 40
1.0
 40
1.0
 10
434.0081269389876
 20
279.9292402055162
 30
0.0
 10
434.0251824081699
 20
279.943177814217
 30
0.0
 10
434.0409723155493
 20
279.9584259505285
 30
0.0
 10
434.0554966611258
 20
279.9749846144508
 30
0.0
  0
SPLINE
  5
1CE
330
1F
100
AcDbEntity
  8
1
100
AcDbSpline
210
0.0
220
0.0
230
1.0
 70
     8
 71
     3
 72
     8
 73
     4
 74
     0
 42
0.000000001
 43
0.0000000001
 40
0.0
 40
0.0
 40
0.0
 40
0.0
 40
1.0
 40
1.0
 40
1.0
 40
1.0
 10
434.5894505876547
 20
280.8636331788934
 30
0.0
 10
434.5972522528897
 20
280.8842312366872
 30
0.0
 10
434.6033026456479
 20
280.9053314637831
 30
0.0
 10
434.6076017659293
 20
280.9269338601808
 30
0.0
  0
SPLINE
  5
1CF
330
1F
100
AcDbEntity
  8
1
100
AcDbSpline
210
0.0
220
0.0
230
1.0
 70
     8
 71
     3
 72
     8
 73
     4
 74
     0
 42
0.000000001
 43
0.0000000001
 40
0.0
 40
0.0
 40
0.0
 40
0.0
 40
1.0
 40
1.0
 40
1.0
 40
1.0
 10
434.7311931720171
 20
288.0074807728481
 30
0.0
 10
434.7276505834055
 20
288.0292200467837
 30
0.0
 10
434.7223402636891
 20
288.0505185758535
 30
0.0
 10
434.7152622128679
 20
288.0713763600573
 30
0.0
  0
SPLINE
  5
1D0
330
1F
100
AcDbEntity
  8
1
100
AcDbSpline
210
0.0
220
0.0
230
1.0
 70
     8
 71
     3
 72
     8
 73
     4
 74
     0
 42
0.000000001
 43
0.0000000001
 40
0.0
 40
0.0
 40
0.0
 40
0.0
 40
1.0
 40
1.0
 40
1.0
 40
1.0
 10
434.2126469442886
 20
288.9781183071029
 30
0.0
 10
434.1987093355879
 20
288.9951737762852
 30
0.0
 10
434.1834611992762
 20
289.0109636836646
 30
0.0
 10
434.166902535354
 20
289.0254880292411
 30
0.0
  0
SPLINE
  5
1D1
330
1F
100
AcDbEntity
  8
1
100
AcDbSpline
210
0.0
220
0.0
230
1.0
 70
     8
 71
     3
 72
    54
 73
    50
 74
     0
 42
0.000000001
 43
0.0000000001
 40
0.0
 40
0.0
 40
0.0
 40
0.0
 40
0.0625000000000017
 40
0.0625000000000017
 40
0.1250000000000035
 40
0.1250000000000035
 40
0.1875000000000051
 40
0.1875000000000051
 40
0.2187500000000057
 40
0.2187500000000057
 40
0.2343750000000057
 40
0.2343750000000057
 40
0.2500000000000058
 40
0.2500000000000058
 40
0.3125000000000078
 40
0.3125000000000078
 40
0.3750000000000097
 40
0.3750000000000097
 40
0.4375000000000118
 40
0.4375000000000118
 40
0.4453125000000119
 40
0.4453125000000119
 40
0.4531250000000119
 40
0.4531250000000119
 40
0.4687500000000112
 40
0.5000000000000105
 40
0.5000000000000105
 40
0.5625000000000087
 40
0.6250000000000066
 40
0.6250000000000066
 40
0.6562500000000055
 40
0.6562500000000055
 40
0.6718750000000049
 40
0.6718750000000049
 40
0.6875000000000043
 40
0.6875000000000043
 40
0.7500000000000018
 40
0.7500000000000018
 40
0.8124999999999994
 40
0.8124999999999994
 40
0.8437499999999985
 40
0.8437499999999985
 40
0.8593749999999984
 40
0.8593749999999984
 40
0.8749999999999984
 40
0.8749999999999984
 40
0.9374999999999992
 40
0.9374999999999992
 40
1.0
 40
1.0
 40
1.0
 40
1.0
 10
279.4048419452957
 20
279.9627064886861
 30
0.0
 10
279.2415719654213
 20
279.7986868086645
 30
0.0
 10
279.0873099063573
 20
279.6304703638543
 30
0.0
 10
278.7964673750726
 20
279.2862720145062
 30
0.0
 10
278.6598871374479
 20
279.1102892535612
 30
0.0
 10
278.4045246873436
 20
278.7509504757562
 30
0.0
 10
278.2857407346197
 20
278.5675945508851
 30
0.0
 10
278.1213519965305
 20
278.2871592400793
 30
0.0
 10
278.0688574390792
 20
278.1927788291946
 30
0.0
 10
277.9936612592319
 20
278.049854765757
 30
0.0
 10
277.9691885519576
 20
278.0019853813305
 30
0.0
 10
277.9217026300794
 20
277.9063342628654
 30
0.0
 10
277.8986536941871
 20
277.8584859236703
 30
0.0
 10
277.7868543784121
 20
277.6191469085361
 30
0.0
 10
277.7084178640887
 20
277.4273685036162
 30
0.0
 10
277.5732784652145
 20
277.0435507464788
 30
0.0
 10
277.516575376419
 20
276.8515108818105
 30
0.0
 10
277.4251953215698
 20
276.4674244677084
 30
0.0
 10
277.390515720374
 20
276.2753778134666
 30
0.0
 10
277.3643941003083
 20
276.0594150202717
 30
0.0
 10
277.3616711924614
 20
276.0354203432827
 30
0.0
 10
277.3565868758599
 20
275.9874335937244
 30
0.0
 10
277.3542245656084
 20
275.9634291018644
 30
0.0
 10
277.3477015742244
 20
275.8916291392727
 30
0.0
 10
277.3368904685851
 20
275.748704163007
 30
0.0
 10
277.3327038613345
 20
275.6077865883951
 30
0.0
 10
277.3330086412183
 20
275.3285879765361
 30
0.0
 10
277.3565196806604
 20
274.9633501389511
 30
0.0
 10
277.425526622958
 20
274.6118400560391
 30
0.0
 10
277.4945137610871
 20
274.3532767369649
 30
0.0
 10
277.5203858835379
 20
274.2679342277792
 30
0.0
 10
277.5635716386507
 20
274.1411821439845
 30
0.0
 10
277.5786990076098
 20
274.0991439156406
 30
0.0
 10
277.6102409395051
 20
274.0159477814089
 30
0.0
 10
277.6266750048919
 20
273.9747304930402
 30
0.0
 10
277.7121162099443
 20
273.7705079294832
 30
0.0
 10
277.7909138335135
 20
273.6130848071688
 30
0.0
 10
277.9686276614715
 20
273.3092861995393
 30
0.0
 10
278.0675463116614
 20
273.1629125511565
 30
0.0
 10
278.230827362138
 20
272.9511501693225
 30
0.0
 10
278.2877420263478
 20
272.8818638408809
 30
0.0
 10
278.3768553359982
 20
272.7798367051671
 30
0.0
 10
278.4071835543826
 20
272.7461447967124
 30
0.0
 10
278.4690919657562
 20
272.6793879266502
 30
0.0
 10
278.5007027856643
 20
272.6462925671271
 30
0.0
 10
278.6614056999968
 20
272.4828640136758
 30
0.0
 10
278.7985106046546
 20
272.3585379466504
 30
0.0
 10
279.0892822487568
 20
272.1216249591898
 30
0.0
 10
279.2429504660003
 20
272.0090401237935
 30
0.0
 10
279.4048419452955
 20
271.9019120216312
 30
0.0
  0
SPLINE
  5
1D2
330
1F
100
AcDbEntity
  8
1
100
AcDbSpline
210
0.0
220
0.0
230
1.0
 70
     9
 71
     3
 72
   130
 73
   126
 74
     0
 42
0.000000001
 43
0.0000000001
 40
0.0
 40
0.0
 40
0.0
 40
0.0
 40
0.0312500000000501
 40
0.0312500000000501
 40
0.0468750000000743
 40
0.0468750000000743
 40
0.0546875000000866
 40
0.0546875000000866
 40
0.0625000000000989
 40
0.0625000000000989
 40
0.0937500000001453
 40
0.0937500000001453
 40
0.1093750000001708
 40
0.1093750000001708
 40
0.1250000000001964
 40
0.1250000000001964
 40
0.1562500000002411
 40
0.1562500000002411
 40
0.1640625000002467
 40
0.1640625000002467
 40
0.1718750000002522
 40
0.1718750000002522
 40
0.1875000000002714
 40
0.2031250000002907
 40
0.2031250000002907
 40
0.2109375000002959
 40
0.2109375000002959
 40
0.2187500000003012
 40
0.2187500000003012
 40
0.2500000000003135
 40
0.2500000000003135
 40
0.2656250000003152
 40
0.2656250000003152
 40
0.273437500000316
 40
0.273437500000316
 40
0.2812500000003168
 40
0.2812500000003168
 40
0.3125000000003201
 40
0.3125000000003201
 40
0.320312500000321
 40
0.320312500000321
 40
0.3281250000003218
 40
0.3281250000003218
 40
0.3437500000003233
 40
0.3593750000003249
 40
0.3593750000003249
 40
0.367187500000329
 40
0.367187500000329
 40
0.375000000000333
 40
0.375000000000333
 40
0.406250000000343
 40
0.406250000000343
 40
0.4218750000003478
 40
0.4218750000003478
 40
0.4296875000003483
 40
0.4296875000003483
 40
0.4375000000003487
 40
0.4375000000003487
 40
0.4687500000003407
 40
0.4687500000003407
 40
0.4765625000003383
 40
0.4765625000003383
 40
0.4843750000003357
 40
0.4843750000003357
 40
0.5000000000003308
 40
0.5000000000003308
 40
0.5312500000003208
 40
0.5312500000003208
 40
0.5390625000003172
 40
0.5390625000003172
 40
0.5468750000003137
 40
0.5468750000003137
 40
0.5625000000003043
 40
0.5781250000002949
 40
0.5781250000002949
 40
0.5859375000002901
 40
0.5859375000002901
 40
0.5937500000002851
 40
0.5937500000002851
 40
0.6250000000002501
 40
0.6250000000002501
 40
0.6406250000002356
 40
0.6406250000002356
 40
0.6484375000002249
 40
0.6484375000002249
 40
0.6562500000002143
 40
0.6562500000002143
 40
0.6875000000001938
 40
0.6875000000001938
 40
0.6953125000001887
 40
0.6953125000001887
 40
0.7031250000001835
 40
0.7031250000001835
 40
0.7187500000001734
 40
0.7187500000001734
 40
0.7500000000001532
 40
0.7500000000001532
 40
0.7578125000001526
 40
0.7578125000001526
 40
0.765625000000152
 40
0.765625000000152
 40
0.7812500000001509
 40
0.7968750000001496
 40
0.7968750000001496
 40
0.8046875000001447
 40
0.8046875000001447
 40
0.8125000000001401
 40
0.8125000000001401
 40
0.843750000000104
 40
0.843750000000104
 40
0.8515625000000952
 40
0.8515625000000952
 40
0.8593750000000863
 40
0.8593750000000863
 40
0.8750000000000749
 40
0.8750000000000749
 40
0.9062500000000579
 40
0.9062500000000579
 40
0.9375000000000412
 40
0.9375000000000412
 40
0.9531250000000309
 40
0.9531250000000309
 40
0.9687500000000207
 40
0.9687500000000207
 40
1.0
 40
1.0
 40
1.0
 40
1.0
 10
427.9691615337858
 20
284.754186265565
 30
0.0
 10
427.9708071473459
 20
284.8484634032781
 30
0.0
 10
427.981541048254
 20
284.9413177562039
 30
0.0
 10
428.0109430442296
 20
285.0784936041462
 30
0.0
 10
428.022975934102
 20
285.1238652131207
 30
0.0
 10
428.0444733145362
 20
285.1913703898445
 30
0.0
 10
428.0522147832583
 20
285.2137798953078
 30
0.0
 10
428.068878754559
 20
285.2584084768699
 30
0.0
 10
428.0777403937251
 20
285.280462804036
 30
0.0
 10
428.1245898469028
 20
285.3892894534694
 30
0.0
 10
428.1701961236336
 20
285.4719408301463
 30
0.0
 10
428.2508026051792
 20
285.5892313130047
 30
0.0
 10
428.2797178176948
 20
285.627206188668
 30
0.0
 10
428.3418199335863
 20
285.7008005785505
 30
0.0
 10
428.3745461617192
 20
285.7358648574226
 30
0.0
 10
428.4772649466168
 20
285.8356134489394
 30
0.0
 10
428.5518996907722
 20
285.8950779537872
 30
0.0
 10
428.6530679032606
 20
285.9603504106094
 30
0.0
 10
428.6737120967741
 20
285.9729555374794
 30
0.0
 10
428.7157601029215
 20
285.9971964725779
 30
0.0
 10
428.7370059308616
 20
286.0087420849065
 30
0.0
 10
428.8013954220251
 20
286.0416875014424
 30
0.0
 10
428.8889834788929
 20
286.0811126123683
 30
0.0
 10
428.9799798954028
 20
286.1116791469602
 30
0.0
 10
429.04952020726
 20
286.1312384081066
 30
0.0
 10
429.0729162062501
 20
286.1371962067033
 30
0.0
 10
429.1201474652742
 20
286.1479677690942
 30
0.0
 10
429.1440516977938
 20
286.1527927818857
 30
0.0
 10
429.2637478925975
 20
286.1738258528277
 30
0.0
 10
429.3597221061258
 20
286.1808619087936
 30
0.0
 10
429.5039990695038
 20
286.1771825402359
 30
0.0
 10
429.5521443987142
 20
286.1735660367543
 30
0.0
 10
429.6244443043315
 20
286.1644492605616
 30
0.0
 10
429.6485807086003
 20
286.160785808172
 30
0.0
 10
429.696330719514
 20
286.1523066923975
 30
0.0
 10
429.7200124458883
 20
286.1474840872443
 30
0.0
 10
429.8374715067756
 20
286.1205079336688
 30
0.0
 10
429.9284282700855
 20
286.0898486599591
 30
0.0
 10
430.0383408341129
 20
286.0401489355946
 30
0.0
 10
430.0601324152829
 20
286.0296349742128
 30
0.0
 10
430.1033259134968
 20
286.0074366805028
 30
0.0
 10
430.1245813261683
 20
285.9958264005426
 30
0.0
 10
430.1871717347697
 20
285.9595894262923
 30
0.0
 10
430.2676502438616
 20
285.9074532985515
 30
0.0
 10
430.3423196285453
 20
285.8478798559911
 30
0.0
 10
430.3961328701048
 20
285.8004061166502
 30
0.0
 10
430.4137051689561
 20
285.7841151024517
 30
0.0
 10
430.448109122484
 20
285.7505892586528
 30
0.0
 10
430.4649847778795
 20
285.7333060015956
 30
0.0
 10
430.5468815702071
 20
285.6451322397906
 30
0.0
 10
430.6042724661498
 20
285.5693907392459
 30
0.0
 10
430.6787163452707
 20
285.4483992935479
 30
0.0
 10
430.7015763245025
 20
285.4068297161759
 30
0.0
 10
430.7328771762544
 20
285.3425889343863
 30
0.0
 10
430.7428245750973
 20
285.3208231441382
 30
0.0
 10
430.7615137004592
 20
285.2771161850679
 30
0.0
 10
430.7702819260804
 20
285.2551251717576
 30
0.0
 10
430.8113017575696
 20
285.1445000647259
 30
0.0
 10
430.8351664893884
 20
285.0538755237039
 30
0.0
 10
430.8539715715198
 20
284.9380153114095
 30
0.0
 10
430.8571765196216
 20
284.9147130751857
 30
0.0
 10
430.8624589215026
 20
284.8678451858761
 30
0.0
 10
430.8645311083173
 20
284.8442923810743
 30
0.0
 10
430.8690002971363
 20
284.7739753577851
 30
0.0
 10
430.8696849153495
 20
284.7273072435912
 30
0.0
 10
430.8650644603908
 20
284.5879152003476
 30
0.0
 10
430.8531470380991
 20
284.4957994218373
 30
0.0
 10
430.8269527272499
 20
284.3816764226274
 30
0.0
 10
430.8211408498526
 20
284.3589070639268
 30
0.0
 10
430.8084982746681
 20
284.3139402986913
 30
0.0
 10
430.8016547759822
 20
284.2916830105864
 30
0.0
 10
430.7795821016696
 20
284.2255771436802
 30
0.0
 10
430.7460459754666
 20
284.1392091667414
 30
0.0
 10
430.7043773317453
 20
284.0563312465373
 30
0.0
 10
430.6700166268856
 20
283.9954967525929
 30
0.0
 10
430.6580439259945
 20
283.9754396223452
 30
0.0
 10
430.6330384206327
 20
283.9357747670052
 30
0.0
 10
430.6199724358546
 20
283.9161230773622
 30
0.0
 10
430.5525973791757
 20
283.8199541245781
 30
0.0
 10
430.4919171123787
 20
283.7490953094221
 30
0.0
 10
430.3907861900261
 20
283.651751884348
 30
0.0
 10
430.3553787832631
 20
283.6208055228201
 30
0.0
 10
430.2996136748548
 20
283.5767185747145
 30
0.0
 10
430.2805345706688
 20
283.5623789815521
 30
0.0
 10
430.2416891217704
 20
283.534663250906
 30
0.0
 10
430.2219838469979
 20
283.521326761722
 30
0.0
 10
430.1220625170619
 20
283.4572118870836
 30
0.0
 10
430.0377024306093
 20
283.4140599928054
 30
0.0
 10
429.9265944677833
 20
283.3704408966891
 30
0.0
 10
429.9040874023888
 20
283.3622379228274
 30
0.0
 10
429.8584882671893
 20
283.3468974319509
 30
0.0
 10
429.8353470890761
 20
283.3397462768587
 30
0.0
 10
429.7653513673973
 20
283.3200332768911
 30
0.0
 10
429.7183696626498
 20
283.309321014519
 30
0.0
 10
429.5764955653099
 20
283.28426915683
 30
0.0
 10
429.4806831542738
 20
283.2769439600924
 30
0.0
 10
429.3593262776226
 20
283.2799028535327
 30
0.0
 10
429.3349143566646
 20
283.2811133041417
 30
0.0
 10
429.2864852426006
 20
283.2847385988149
 30
0.0
 10
429.2624148106008
 20
283.2871517066252
 30
0.0
 10
429.1906269148033
 20
283.2961559052578
 30
0.0
 10
429.0960366658155
 20
283.3128588124001
 30
0.0
 10
429.0036561866006
 20
283.3387884868069
 30
0.0
 10
428.935207109508
 20
283.361736932535
 30
0.0
 10
428.9124961705014
 20
283.3699845449149
 30
0.0
 10
428.8675075151868
 20
283.3876103132943
 30
0.0
 10
428.8453485198
 20
283.3969398182379
 30
0.0
 10
428.7361834191549
 20
283.4461034754162
 30
0.0
 10
428.6540189839993
 20
283.4934108027894
 30
0.0
 10
428.5575354067472
 20
283.5622428808188
 30
0.0
 10
428.53855272771
 20
283.5764988101765
 30
0.0
 10
428.5012212343858
 20
283.6060013833371
 30
0.0
 10
428.4828835737221
 20
283.6212442240711
 30
0.0
 10
428.4293892016211
 20
283.6679702623884
 30
0.0
 10
428.3955471215555
 20
283.700602140656
 30
0.0
 10
428.2992782461591
 20
283.8028039821426
 30
0.0
 10
428.2420585390847
 20
283.8766390217029
 30
0.0
 10
428.1417184631014
 20
284.03600933888
 30
0.0
 10
428.1001165802297
 20
284.1191350004886
 30
0.0
 10
428.0499514950548
 20
284.2487603288111
 30
0.0
 10
428.0352834008557
 20
284.2928001188924
 30
0.0
 10
428.0101287248506
 20
284.3825823637479
 30
0.0
 10
427.9996235093967
 20
284.4285004656878
 30
0.0
 10
427.9750040970066
 20
284.5666943049238
 30
0.0
 10
427.9675159202258
 20
284.6599091278521
 30
0.0
 10
427.9691615337857
 20
284.754186265565
 30
0.0
  0
SPLINE
  5
1D3
330
1F
100
AcDbEntity
  8
1
100
AcDbSpline
210
0.0
220
0.0
230
1.0
 70
    12
 71
     2
 72
     6
 73
     3
 74
     0
 42
0.000000001
 43
0.0000000001
 40
0.0
 40
0.0
 40
0.0
 40
1.0
 40
1.0
 40
1.0
 10
425.1119805339071
 20
305.3117879968945
 30
0.0
 41
0.4999910368276126
 10
425.2241649119567
 20
305.3115768246515
 30
0.0
 41
0.5000089631723874
 10
425.3363482855837
 20
305.3113651902422
 30
0.0
 41
0.4999910368276126
  0
SPLINE
  5
1D4
330
1F
100
AcDbEntity
  8
1
100
AcDbSpline
210
0.0
220
0.0
230
1.0
 70
    28
 71
     4
 72
    10
 73
     5
 74
     0
 42
0.000000001
 43
0.0000000001
 40
0.0
 40
0.0
 40
0.0
 40
0.0
 40
0.0
 40
1.0
 40
1.0
 40
1.0
 40
1.0
 40
1.0
 10
297.9048419452957
 20
272.5047974977358
 30
0.0
 41
1.001498006703475
 10
297.9048419452957
 20
272.7693453774522
 30
0.0
 41
1.001498006703475
 10
297.9048419452957
 20
273.0338932571686
 30
0.0
 41
1.001498006703475
 10
297.9048419452957
 20
273.2984411368851
 30
0.0
 41
1.001498006703475
 10
297.9048419452957
 20
273.5629890166015
 30
0.0
 41
1.001498006703475
  0
SPLINE
  5
1D5
330
1F
100
AcDbEntity
  8
1
100
AcDbSpline
210
0.0
220
0.0
230
1.0
 70
     8
 71
     3
 72
    14
 73
    10
 74
     0
 42
0.000000001
 43
0.0000000001
 40
0.0
 40
0.0
 40
0.0
 40
0.0
 40
0.2500000000000004
 40
0.2500000000000004
 40
0.5000000000000007
 40
0.5000000000000007
 40
0.7500000000000004
 40
0.7500000000000004
 40
1.0
 40
1.0
 40
1.0
 40
1.0
 10
298.4564879334245
 20
272.4958522915411
 30
0.0
 10
299.7823223397081
 20
272.5694089884514
 30
0.0
 10
301.1072231499382
 20
272.6511712216562
 30
0.0
 10
303.7563071605434
 20
272.8291084979566
 30
0.0
 10
305.0804935039366
 20
272.925274157962
 30
0.0
 10
307.7292812123285
 20
273.1293466801537
 30
0.0
 10
309.0538855377855
 20
273.2372417457268
 30
0.0
 10
311.7045259560894
 20
273.4617623750352
 30
0.0
 10
313.0305644669238
 20
273.57837524296
 30
0.0
 10
314.3577282722128
 20
273.6978652477126
 30
0.0
  0
SPLINE
  5
1D6
330
1F
100
AcDbEntity
  8
1
100
AcDbSpline
210
0.0
220
0.0
230
1.0
 70
     8
 71
     3
 72
     8
 73
     4
 74
     0
 42
0.000000001
 43
0.0000000001
 40
0.0
 40
0.0
 40
0.0
 40
0.0
 40
1.0
 40
1.0
 40
1.0
 40
1.0
 10
298.4564879334246
 20
272.49585229154
 30
0.0
 10
298.2726226576679
 20
272.4987702475512
 30
0.0
 10
298.0887407389096
 20
272.5017524522614
 30
0.0
 10
297.9048419452957
 20
272.5047974977358
 30
0.0
  0
SPLINE
  5
1D7
330
1F
100
AcDbEntity
  8
1
100
AcDbSpline
210
0.0
220
0.0
230
1.0
 70
     8
 71
     3
 72
     8
 73
     4
 74
     0
 42
0.000000001
 43
0.0000000001
 40
0.0
 40
0.0
 40
0.0
 40
0.0
 40
1.0
 40
1.0
 40
1.0
 40
1.0
 10
300.1685967878823
 20
281.8560222526999
 30
0.0
 10
300.1685022303762
 20
281.8460963400199
 30
0.0
 10
300.1684076847382
 20
281.8361704569613
 30
0.0
 10
300.1683131509636
 20
281.826244603513
 30
0.0
  0
SPLINE
  5
1D8
330
1F
100
AcDbEntity
  8
1
100
AcDbSpline
210
0.0
220
0.0
230
1.0
 70
     8
 71
     3
 72
     8
 73
     4
 74
     0
 42
0.000000001
 43
0.0000000001
 40
0.0
 40
0.0
 40
0.0
 40
0.0
 40
1.0
 40
1.0
 40
1.0
 40
1.0
 10
419.7169771607896
 20
296.7813485218696
 30
0.0
 10
419.702937049952
 20
296.789928448519
 30
0.0
 10
419.6888912161353
 20
296.7985102024584
 30
0.0
 10
419.6748396811814
 20
296.8070937767137
 30
0.0
  0
SPLINE
  5
1D9
330
1F
100
AcDbEntity
  8
1
100
AcDbSpline
210
0.0
220
0.0
230
1.0
 70
     8
 71
     3
 72
    12
 73
     8
 74
     0
 42
0.000000001
 43
0.0000000001
 40
0.0
 40
0.0
 40
0.0
 40
0.0
 40
0.25
 40
0.5
 40
0.75
 40
0.75
 40
1.0
 40
1.0
 40
1.0
 40
1.0
 10
295.6327191876643
 20
272.5586826415061
 30
0.0
 10
295.8152413716414
 20
272.5489860441676
 30
0.0
 10
296.183546978958
 20
272.5327686986034
 30
0.0
 10
296.7460639488714
 20
272.5164031153659
 30
0.0
 10
297.1280367026209
 20
272.5100767244831
 30
0.0
 10
297.5136546233251
 20
272.5058560361882
 30
0.0
 10
297.7082859934378
 20
272.5047974977358
 30
0.0
 10
297.9048419452957
 20
272.5047974977358
 30
0.0
  0
SPLINE
  5
1DA
330
1F
100
AcDbEntity
  8
1
100
AcDbSpline
210
0.0
220
0.0
230
1.0
 70
     8
 71
     3
 72
    14
 73
    10
 74
     0
 42
0.000000001
 43
0.0000000001
 40
0.0
 40
0.0
 40
0.0
 40
0.0
 40
0.25
 40
0.25
 40
0.5
 40
0.5
 40
0.75
 40
0.75
 40
1.0
 40
1.0
 40
1.0
 40
1.0
 10
289.7038318185191
 20
273.002920941363
 30
0.0
 10
289.3926535890215
 20
273.032358391898
 30
0.0
 10
289.0852942911067
 20
273.0541604799572
 30
0.0
 10
288.477462710379
 20
273.0839951355842
 30
0.0
 10
288.1769919978807
 20
273.0920245635516
 30
0.0
 10
287.582394970274
 20
273.0953987791064
 30
0.0
 10
287.2882697196545
 20
273.0907414384127
 30
0.0
 10
286.7059859616282
 20
273.0694971777065
 30
0.0
 10
286.4178281729707
 20
273.0529088206661
 30
0.0
 10
286.1325343084412
 20
273.0305944907069
 30
0.0
  0
SPLINE
  5
1DB
330
1F
100
AcDbEntity
  8
1
100
AcDbSpline
210
0.0
220
0.0
230
1.0
 70
     8
 71
     3
 72
    14
 73
    10
 74
     0
 42
0.000000001
 43
0.0000000001
 40
0.0
 40
0.0
 40
0.0
 40
0.0
 40
0.25
 40
0.25
 40
0.5
 40
0.5
 40
0.75
 40
0.75
 40
1.0
 40
1.0
 40
1.0
 40
1.0
 10
426.4893182528078
 20
294.4773062519133
 30
0.0
 10
426.2831193469693
 20
294.4933207938593
 30
0.0
 10
426.0740497789883
 20
294.5121619902961
 30
0.0
 10
425.6508952764788
 20
294.556740550008
 30
0.0
 10
425.4368074673075
 20
294.5824735188369
 30
0.0
 10
425.0040740882978
 20
294.6418851354414
 30
0.0
 10
424.7854271320909
 20
294.6755606684148
 30
0.0
 10
424.3438358507271
 20
294.7518355463848
 30
0.0
 10
424.1208911241127
 20
294.7944322428785
 30
0.0
 10
423.8958419467365
 20
294.8419860214183
 30
0.0
  0
SPLINE
  5
1DC
330
1F
100
AcDbEntity
  8
1
100
AcDbSpline
210
0.0
220
0.0
230
1.0
 70
     8
 71
     3
 72
    14
 73
    10
 74
     0
 42
0.000000001
 43
0.0000000001
 40
0.0
 40
0.0
 40
0.0
 40
0.0
 40
0.25
 40
0.25
 40
0.5
 40
0.5
 40
0.75
 40
0.75
 40
1.0
 40
1.0
 40
1.0
 40
1.0
 10
423.8958419470891
 20
292.4481894986614
 30
0.0
 10
424.1273999728598
 20
292.4172195855919
 30
0.0
 10
424.3566655673791
 20
292.395094127677
 30
0.0
 10
424.8105238126503
 20
292.3674674682376
 30
0.0
 10
425.0351168938286
 20
292.3619690159513
 30
0.0
 10
425.4793417890212
 20
292.3668214555311
 30
0.0
 10
425.6989752355706
 20
292.3771740939592
 30
0.0
 10
426.1327635259998
 20
292.4131693886057
 30
0.0
 10
426.3469218328462
 20
292.4388130397735
 30
0.0
 10
426.5579310272638
 20
292.4719096147832
 30
0.0
  0
SPLINE
  5
1DD
330
1F
100
AcDbEntity
  8
1
100
AcDbSpline
210
0.0
220
0.0
230
1.0
 70
     8
 71
     3
 72
    12
 73
     8
 74
     0
 42
0.000000001
 43
0.0000000001
 40
0.0
 40
0.0
 40
0.0
 40
0.0
 40
0.0142082366499646
 40
0.0142082366499646
 40
0.3428054910999783
 40
0.3428054910999783
 40
1.0
 40
1.0
 40
1.0
 40
1.0
 10
425.6350361106568
 20
305.3266129201846
 30
0.0
 10
425.6348133014658
 20
305.3266802145413
 30
0.0
 10
425.6345918534169
 20
305.3267475272476
 30
0.0
 10
425.6292817873321
 20
305.3283720353892
 30
0.0
 10
425.6249064019723
 20
305.3299461040742
 30
0.0
 10
425.6142054754683
 20
305.3346259734195
 30
0.0
 10
425.6102359793933
 20
305.3376925776016
 30
0.0
 10
425.6094771838758
 20
305.3406986290366
 30
0.0
  0
SPLINE
  5
1DE
330
1F
100
AcDbEntity
  8
1
100
AcDbSpline
210
0.0
220
0.0
230
1.0
 70
     8
 71
     3
 72
    50
 73
    46
 74
     0
 42
0.000000001
 43
0.0000000001
 40
0.0
 40
0.0
 40
0.0
 40
0.0
 40
0.0624999999999955
 40
0.0624999999999955
 40
0.0937499999999919
 40
0.0937499999999919
 40
0.1249999999999883
 40
0.1249999999999883
 40
0.1874999999999847
 40
0.1874999999999847
 40
0.218749999999984
 40
0.218749999999984
 40
0.2499999999999832
 40
0.2499999999999832
 40
0.3124999999999831
 40
0.3124999999999831
 40
0.343749999999983
 40
0.343749999999983
 40
0.3749999999999827
 40
0.3749999999999827
 40
0.4374999999999824
 40
0.4374999999999824
 40
0.4687499999999839
 40
0.4687499999999839
 40
0.4999999999999853
 40
0.4999999999999853
 40
0.5624999999999846
 40
0.5624999999999846
 40
0.5937499999999841
 40
0.5937499999999841
 40
0.6249999999999839
 40
0.6249999999999839
 40
0.687499999999983
 40
0.687499999999983
 40
0.7187499999999841
 40
0.7187499999999841
 40
0.7499999999999849
 40
0.7499999999999849
 40
0.8124999999999888
 40
0.8124999999999888
 40
0.8749999999999925
 40
0.8749999999999925
 40
0.9374999999999962
 40
0.9374999999999962
 40
1.0
 40
1.0
 40
1.0
 40
1.0
 10
432.9566267919493
 20
283.1534935136935
 30
0.0
 10
432.9595861630796
 20
283.1160509386806
 30
0.0
 10
432.9629620743406
 20
283.0806959477188
 30
0.0
 10
432.9686474422799
 20
283.0307782528128
 30
0.0
 10
432.9706462802384
 20
283.0146588136658
 30
0.0
 10
432.9748524221634
 20
282.9834647094075
 30
0.0
 10
432.9770594781179
 20
282.9683954675159
 30
0.0
 10
432.9839640270246
 20
282.9249519785064
 30
0.0
 10
432.9889533782271
 20
282.8982695873579
 30
0.0
 10
432.9970144340001
 20
282.8616514500969
 30
0.0
 10
432.9997977459278
 20
282.8500136983275
 30
0.0
 10
433.0055580187848
 20
282.8278810522916
 30
0.0
 10
433.0085335159231
 20
282.8173941990467
 30
0.0
 10
433.0177106499082
 20
282.7877847458799
 30
0.0
 10
433.0241745966135
 20
282.7704620649622
 30
0.0
 10
433.0343872484653
 20
282.7480891194552
 30
0.0
 10
433.037877696555
 20
282.74123407754
 30
0.0
 10
433.0450320262918
 20
282.7287359991282
 30
0.0
 10
433.0486977658233
 20
282.7230922685934
 30
0.0
 10
433.0599049184061
 20
282.70805897199
 30
0.0
 10
433.0676714905023
 20
282.7005334557958
 30
0.0
 10
433.0797617546768
 20
282.6929707511634
 30
0.0
 10
433.0838653366621
 20
282.6910715639617
 30
0.0
 10
433.092220224185
 20
282.6885228418013
 30
0.0
 10
433.0964765688013
 20
282.6878737302781
 30
0.0
 10
433.1094252168403
 20
282.6878173636163
 30
0.0
 10
433.1182946395905
 20
282.6902902931104
 30
0.0
 10
433.131952101916
 20
282.6977425891874
 30
0.0
 10
433.1365635522042
 20
282.7008512973662
 30
0.0
 10
433.1459049179464
 20
282.7083236474821
 30
0.0
 10
433.1506399729073
 20
282.7126928952113
 30
0.0
 10
433.1649842569995
 20
282.7276577749705
 30
0.0
 10
433.1747203573561
 20
282.7400890162047
 30
0.0
 10
433.1895828013958
 20
282.7623955735891
 30
0.0
 10
433.1945800531231
 20
282.7704418183725
 30
0.0
 10
433.2046611604553
 20
282.7877613764373
 30
0.0
 10
433.2097497287215
 20
282.7970439025258
 30
0.0
 10
433.225112847881
 20
282.8266841386452
 30
0.0
 10
433.2354592891065
 20
282.8487781292001
 30
0.0
 10
433.2563596083987
 20
282.8976050015412
 30
0.0
 10
433.2669223352407
 20
282.924362101157
 30
0.0
 10
433.2882208071161
 20
282.9824791007423
 30
0.0
 10
433.2989020311158
 20
283.0136867174432
 30
0.0
 10
433.3203280485738
 20
283.0803728628362
 30
0.0
 10
433.3310799190886
 20
283.1158761333846
 30
0.0
 10
433.3418492768544
 20
283.1534935136936
 30
0.0
  0
SPLINE
  5
1DF
330
1F
100
AcDbEntity
  8
1
100
AcDbSpline
210
0.0
220
0.0
230
1.0
 70
     8
 71
     3
 72
   144
 73
   140
 74
     0
 42
0.000000001
 43
0.0000000001
 40
0.0
 40
0.0
 40
0.0
 40
0.0
 40
0.0156249999999978
 40
0.0156249999999978
 40
0.0312499999999955
 40
0.0312499999999955
 40
0.0624999999999919
 40
0.0624999999999919
 40
0.0781249999999901
 40
0.0781249999999901
 40
0.0937499999999884
 40
0.0937499999999884
 40
0.1015624999999873
 40
0.1015624999999873
 40
0.1093749999999862
 40
0.1249999999999841
 40
0.1249999999999841
 40
0.1328124999999828
 40
0.1328124999999828
 40
0.1406249999999815
 40
0.1562499999999795
 40
0.1562499999999795
 40
0.1640624999999783
 40
0.1640624999999783
 40
0.1718749999999772
 40
0.1874999999999748
 40
0.1874999999999748
 40
0.2031249999999728
 40
0.2031249999999728
 40
0.2187499999999707
 40
0.2187499999999707
 40
0.2343749999999686
 40
0.2343749999999686
 40
0.2499999999999665
 40
0.2499999999999665
 40
0.2656249999999645
 40
0.2656249999999645
 40
0.2812499999999624
 40
0.2812499999999624
 40
0.2890624999999616
 40
0.2890624999999616
 40
0.2968749999999609
 40
0.2968749999999609
 40
0.3124999999999602
 40
0.3124999999999602
 40
0.3203124999999599
 40
0.3203124999999599
 40
0.3281249999999595
 40
0.3281249999999595
 40
0.3437499999999592
 40
0.3437499999999592
 40
0.3593749999999589
 40
0.3593749999999589
 40
0.3749999999999586
 40
0.3749999999999586
 40
0.3906249999999583
 40
0.3906249999999583
 40
0.406249999999958
 40
0.4218749999999578
 40
0.4218749999999578
 40
0.4374999999999575
 40
0.4374999999999575
 40
0.4531249999999571
 40
0.4531249999999571
 40
0.4609374999999578
 40
0.4609374999999578
 40
0.4687499999999584
 40
0.4687499999999584
 40
0.4999999999999595
 40
0.4999999999999595
 40
0.5156249999999602
 40
0.5156249999999602
 40
0.5312499999999609
 40
0.5312499999999609
 40
0.5468749999999614
 40
0.5468749999999614
 40
0.562499999999962
 40
0.562499999999962
 40
0.5781249999999627
 40
0.5781249999999627
 40
0.5859374999999631
 40
0.5859374999999631
 40
0.5937499999999634
 40
0.5937499999999634
 40
0.6093749999999653
 40
0.6093749999999653
 40
0.617187499999967
 40
0.617187499999967
 40
0.6249999999999686
 40
0.6249999999999686
 40
0.6406249999999712
 40
0.6406249999999712
 40
0.6562499999999735
 40
0.6562499999999735
 40
0.6874999999999777
 40
0.6874999999999777
 40
0.7031249999999797
 40
0.7031249999999797
 40
0.7187499999999817
 40
0.7187499999999817
 40
0.7265624999999828
 40
0.7265624999999828
 40
0.734374999999984
 40
0.7499999999999855
 40
0.7499999999999855
 40
0.7578124999999862
 40
0.7578124999999862
 40
0.7656249999999868
 40
0.7812499999999877
 40
0.7812499999999877
 40
0.789062499999988
 40
0.789062499999988
 40
0.7968749999999884
 40
0.8124999999999889
 40
0.8124999999999889
 40
0.8281249999999895
 40
0.8281249999999895
 40
0.8437499999999902
 40
0.8437499999999902
 40
0.8593749999999909
 40
0.8593749999999909
 40
0.8749999999999914
 40
0.8749999999999914
 40
0.8828124999999918
 40
0.8828124999999918
 40
0.8906249999999921
 40
0.8906249999999921
 40
0.9062499999999928
 40
0.9062499999999928
 40
0.9374999999999953
 40
0.9374999999999953
 40
0.945312499999996
 40
0.945312499999996
 40
0.9531249999999968
 40
0.9531249999999968
 40
0.9687499999999978
 40
0.9843749999999987
 40
0.9843749999999987
 40
1.0
 40
1.0
 40
1.0
 40
1.0
 10
433.3418492768543
 20
283.1534935136936
 30
0.0
 10
433.3482655609532
 20
283.1893835654439
 30
0.0
 10
433.3544661538687
 20
283.2269947200452
 30
0.0
 10
433.3664384489506
 20
283.3056393531427
 30
0.0
 10
433.3722133027391
 20
283.3466971229172
 30
0.0
 10
433.3888668298353
 20
283.4749172959021
 30
0.0
 10
433.3989593791114
 20
283.5661625862303
 30
0.0
 10
433.4125820724663
 20
283.7116864334299
 30
0.0
 10
433.4168443222901
 20
283.7613837822309
 30
0.0
 10
433.4248014311462
 20
283.8629538207493
 30
0.0
 10
433.4284989943268
 20
283.9148553303013
 30
0.0
 10
433.4336210060198
 20
283.994393639183
 30
0.0
 10
433.4352567602722
 20
284.021179351965
 30
0.0
 10
433.4383724922298
 20
284.0750789717125
 30
0.0
 10
433.442817904615
 20
284.1565067054832
 30
0.0
 10
433.4465833278888
 20
284.2396577759081
 30
0.0
 10
433.4498937184677
 20
284.3239620626264
 30
0.0
 10
433.4509218067224
 20
284.3522768795079
 30
0.0
 10
433.4528174115646
 20
284.4090558668911
 30
0.0
 10
433.4554231107087
 20
284.4945239898764
 30
0.0
 10
433.4573213566861
 20
284.5808838898
 30
0.0
 10
433.4587474381491
 20
284.6678389745988
 30
0.0
 10
433.4591442991539
 20
284.6969548758648
 30
0.0
 10
433.4597774325332
 20
284.7551957577368
 30
0.0
 10
433.4604867935596
 20
284.8425729174348
 30
0.0
 10
433.4604816807924
 20
284.9299971566368
 30
0.0
 10
433.4598405404018
 20
285.0466046069816
 30
0.0
 10
433.4592005099686
 20
285.1049875006019
 30
0.0
 10
433.4572965606443
 20
285.2208248684353
 30
0.0
 10
433.4560327211268
 20
285.2783952553769
 30
0.0
 10
433.452883200796
 20
285.3928415443304
 30
0.0
 10
433.4509929270295
 20
285.4498111345456
 30
0.0
 10
433.4466187238752
 20
285.5621771782817
 30
0.0
 10
433.4441335178324
 20
285.6176590134385
 30
0.0
 10
433.4385696294913
 20
285.7272267379969
 30
0.0
 10
433.4354836131569
 20
285.7814184745763
 30
0.0
 10
433.4287583243596
 20
285.8876657851295
 30
0.0
 10
433.4251186400725
 20
285.9397597420304
 30
0.0
 10
433.4192459527378
 20
286.0163650461255
 30
0.0
 10
433.4172194528398
 20
286.0416439216308
 30
0.0
 10
433.4130280499477
 20
286.0916872577535
 30
0.0
 10
433.41086205371
 20
286.1164615503095
 30
0.0
 10
433.4041825781988
 20
286.1897139014148
 30
0.0
 10
433.3994800499668
 20
286.2372210266865
 30
0.0
 10
433.3920544328409
 20
286.3065033111313
 30
0.0
 10
433.3895171868588
 20
286.3292673023622
 30
0.0
 10
433.3843181973285
 20
286.3741328587802
 30
0.0
 10
433.3816537503913
 20
286.3962552153646
 30
0.0
 10
433.3735003952786
 20
286.4614003952627
 30
0.0
 10
433.3678483639095
 20
286.5032395978019
 30
0.0
 10
433.3561145503428
 20
286.5837594794559
 30
0.0
 10
433.3500258864388
 20
286.622480301551
 30
0.0
 10
433.3374444432211
 20
286.6965541922874
 30
0.0
 10
433.3309751622419
 20
286.7317755391654
 30
0.0
 10
433.3176822972687
 20
286.79861566635
 30
0.0
 10
433.3108575630328
 20
286.8302393506933
 30
0.0
 10
433.2968549210631
 20
286.8898285337071
 30
0.0
 10
433.2825792086236
 20
286.945420331434
 30
0.0
 10
433.2677619695504
 20
286.99308490583
 30
0.0
 10
433.2526714240818
 20
287.0367486413035
 30
0.0
 10
433.245021407423
 20
287.0564835035402
 30
0.0
 10
433.2295537648698
 20
287.0916807360893
 30
0.0
 10
433.2217297255183
 20
287.1071618444609
 30
0.0
 10
433.2098571565651
 20
287.1271794833544
 30
0.0
 10
433.2058763598671
 20
287.133315852494
 30
0.0
 10
433.1979185600229
 20
287.1444468250772
 30
0.0
 10
433.1939354028839
 20
287.1494524339898
 30
0.0
 10
433.1739985910967
 20
287.1717152841457
 30
0.0
 10
433.1579822259545
 20
287.1807253098629
 30
0.0
 10
433.1338577785904
 20
287.181102292943
 30
0.0
 10
433.1257995742841
 20
287.1790288210159
 30
0.0
 10
433.1096489000088
 20
287.1703755132725
 30
0.0
 10
433.1015418908806
 20
287.1637663675154
 30
0.0
 10
433.0854946374661
 20
287.1461226458725
 30
0.0
 10
433.0775312222488
 20
287.1350842412562
 30
0.0
 10
433.061725182437
 20
287.1085608105087
 30
0.0
 10
433.0538662592023
 20
287.0930339641227
 30
0.0
 10
433.0383835481343
 20
287.0577125414616
 30
0.0
 10
433.0307538825677
 20
287.0379193870843
 30
0.0
 10
433.0194769547438
 20
287.0050303117338
 30
0.0
 10
433.0157459386909
 20
286.9935334618589
 30
0.0
 10
433.0083402152933
 20
286.9694646869198
 30
0.0
 10
433.0046630027883
 20
286.9568825636019
 30
0.0
 10
432.9937622602393
 20
286.917675532067
 30
0.0
 10
432.9866556792448
 20
286.8895510985518
 30
0.0
 10
432.9762360705339
 20
286.8443923540269
 30
0.0
 10
432.9728029569033
 20
286.8288435275949
 30
0.0
 10
432.9660173569151
 20
286.7967485007159
 30
0.0
 10
432.9626612780976
 20
286.7801833621376
 30
0.0
 10
432.9527462170339
 20
286.7291388547166
 30
0.0
 10
432.9463417553185
 20
286.6933285765918
 30
0.0
 10
432.9339417881988
 20
286.6181658769713
 30
0.0
 10
432.9279424597671
 20
286.5787862267177
 30
0.0
 10
432.9105898325268
 20
286.4554356808658
 30
0.0
 10
432.899997293113
 20
286.3671507861928
 30
0.0
 10
432.8855749570823
 20
286.2256301851699
 30
0.0
 10
432.8810401612923
 20
286.1771961975346
 30
0.0
 10
432.8725245774266
 20
286.0779799624162
 30
0.0
 10
432.8685413623163
 20
286.027173936755
 30
0.0
 10
432.8629813672366
 20
285.949155112132
 30
0.0
 10
432.8611983072715
 20
285.922858343406
 30
0.0
 10
432.8577860237892
 20
285.8698904528512
 30
0.0
 10
432.8528925086981
 20
285.7897939895239
 30
0.0
 10
432.8486693550193
 20
285.7077761659032
 30
0.0
 10
432.8448949761008
 20
285.6244720838711
 30
0.0
 10
432.8437111480204
 20
285.5964704715098
 30
0.0
 10
432.8415033839103
 20
285.5402738648604
 30
0.0
 10
432.8384278593611
 20
285.45561031668
 30
0.0
 10
432.8360551854593
 20
285.3698494627702
 30
0.0
 10
432.8341517717121
 20
285.283355989693
 30
0.0
 10
432.8335951494664
 20
285.254371158446
 30
0.0
 10
432.8326426828546
 20
285.1963525171178
 30
0.0
 10
432.8314544173395
 20
285.1092394543158
 30
0.0
 10
432.8309810021835
 20
285.0218733730451
 30
0.0
 10
432.8309846176646
 20
284.9051605670928
 30
0.0
 10
432.8313058204683
 20
284.8466377595977
 30
0.0
 10
432.8325778523647
 20
284.7303469225416
 30
0.0
 10
432.8335279962056
 20
284.6724609037194
 30
0.0
 10
432.8360547584373
 20
284.5572061945832
 30
0.0
 10
432.8376354104165
 20
284.4997453874104
 30
0.0
 10
432.8413994113072
 20
284.3862375188814
 30
0.0
 10
432.8435836934709
 20
284.3301007958235
 30
0.0
 10
432.8473115084715
 20
284.2468173814294
 30
0.0
 10
432.8486294301278
 20
284.2192100279347
 30
0.0
 10
432.8514165881265
 20
284.1643042814752
 30
0.0
 10
432.8528840376896
 20
284.1370461141152
 30
0.0
 10
432.8574848481363
 20
284.0562231202493
 30
0.0
 10
432.8608237661682
 20
284.0034600314842
 30
0.0
 10
432.8716357652685
 20
283.8484455869573
 30
0.0
 10
432.8798995474398
 20
283.7494503411614
 30
0.0
 10
432.8915540185588
 20
283.6311615819868
 30
0.0
 10
432.8939515131348
 20
283.60777809064
 30
0.0
 10
432.8988813139972
 20
283.5615662630512
 30
0.0
 10
432.9014174794657
 20
283.5387049714681
 30
0.0
 10
432.9092014817497
 20
283.4712255223767
 30
0.0
 10
432.9200278551761
 20
283.3843418002693
 30
0.0
 10
432.9317410829646
 20
283.3035768206947
 30
0.0
 10
432.943901402909
 20
283.2258964984299
 30
0.0
 10
432.9501740163697
 20
283.1888005744572
 30
0.0
 10
432.9566267919493
 20
283.1534935136935
 30
0.0
  0
LINE
  5
1FB
330
1F
100
AcDbEntity
  8
SK4
100
AcDbLine
 10
210.904842
 20
288.907994
 30
0.0
 11
277.404842
 21
288.907994
 31
0.0
  0
LINE
  5
1FC
330
1F
100
AcDbEntity
  8
4
100
AcDbLine
 10
266.703832
 20
288.907994
 30
0.0
 11
439.8212309999999
 21
288.907994
 31
0.0
  0
MTEXT
  5
1FD
330
1F
100
AcDbEntity
  8
SK6
100
AcDbMText
 10
278.633586
 20
248.640145
 30
0.0
 40
3.5
 41
0.0
 71
     7
 72
     5
  1
\W0.7147;804D-34-136-S32
  7
cesky
 73
     2
 44
0.8433729999999998
  0
MTEXT
  5
313
330
1F
100
AcDbEntity
  8
2
100
AcDbMText
 10
448.8768429999999
 20
284.953372
 30
0.0
 40
3.5
 41
0.0
 71
     7
 72
     5
  1
\W0.6844;34
  7
cesky
 11
0.0000000000000001
 21
1.0
 31
0.0
 73
     2
 44
0.8433729999999998
  0
MTEXT
  5
314
330
1F
100
AcDbEntity
  8
2
100
AcDbMText
 10
448.8768429999999
 20
278.215872
 30
0.0
 40
3.5
 41
0.0
 71
     7
 72
     5
  1
\W3.0115;\H2.63;%%c\H3.50;
  7
cesky
 11
0.0000000000000001
 21
1.0
 31
0.0
 73
     2
 44
0.8433729999999998
  0
LINE
  5
315
330
1F
100
AcDbEntity
  8
2
100
AcDbLine
 10
437.404842
 20
305.907994
 30
0.0
 11
450.0642599999999
 21
305.907994
 31
0.0
  0
LINE
  5
316
330
1F
100
AcDbEntity
  8
2
100
AcDbLine
 10
449.06426
 20
305.907994
 30
0.0
 11
449.06426
 21
278.058372
 31
0.0
  0
SOLID
  5
317
330
1F
100
AcDbEntity
  8
2
100
AcDbTrace
 10
449.06426
 20
305.907994
 30
0.0
 11
449.681404
 21
302.407996
 31
0.0
 12
448.447115
 22
302.4079910000001
 32
0.0
 13
448.447115
 23
302.4079910000001
 33
0.0
  0
MTEXT
  5
318
330
1F
100
AcDbEntity
  8
2
100
AcDbMText
 10
351.827842
 20
333.821465
 30
0.0
 40
3.5
 41
0.0
 71
     7
 72
     5
  1
\W0.9524;161
  7
cesky
 73
     2
 44
0.8433729999999998
  0
LINE
  5
319
330
1F
100
AcDbEntity
  8
2
100
AcDbLine
 10
435.4048419999999
 20
305.907994
 30
0.0
 11
435.4048419999999
 21
334.9472990000001
 31
0.0
  0
LINE
  5
31A
330
1F
100
AcDbEntity
  8
2
100
AcDbLine
 10
274.404842
 20
289.907567
 30
0.0
 11
274.404842
 21
334.9472990000001
 31
0.0
  0
LINE
  5
31B
330
1F
100
AcDbEntity
  8
2
100
AcDbLine
 10
435.4048419999999
 20
333.947299
 30
0.0
 11
274.404842
 21
333.947299
 31
0.0
  0
SOLID
  5
31C
330
1F
100
AcDbEntity
  8
2
100
AcDbTrace
 10
435.4048419999999
 20
333.947299
 30
0.0
 11
431.904844
 21
333.330154
 31
0.0
 12
431.90484
 22
334.5644430000001
 32
0.0
 13
431.90484
 23
334.5644430000001
 33
0.0
  0
SOLID
  5
31D
330
1F
100
AcDbEntity
  8
2
100
AcDbTrace
 10
274.404842
 20
333.947299
 30
0.0
 11
277.90484
 21
334.5644430000001
 31
0.0
 12
277.904844
 22
333.330154
 32
0.0
 13
277.904844
 23
333.330154
 33
0.0
  0
MTEXT
  5
31E
330
1F
100
AcDbEntity
  8
2
100
AcDbMText
 10
321.827842
 20
347.267008
 30
0.0
 40
3.5
 41
0.0
 71
     7
 72
     5
  1
\W0.8677;221
  7
cesky
 73
     2
 44
0.8433729999999998
  0
LINE
  5
31F
330
1F
100
AcDbEntity
  8
2
100
AcDbLine
 10
435.4048419999999
 20
307.907994
 30
0.0
 11
435.4048419999999
 21
348.392842
 31
0.0
  0
LINE
  5
320
330
1F
100
AcDbEntity
  8
2
100
AcDbLine
 10
214.404842
 20
302.907994
 30
0.0
 11
214.404842
 21
348.392842
 31
0.0
  0
LINE
  5
321
330
1F
100
AcDbEntity
  8
2
100
AcDbLine
 10
435.4048419999999
 20
347.392842
 30
0.0
 11
214.404842
 21
347.392842
 31
0.0
  0
SOLID
  5
322
330
1F
100
AcDbEntity
  8
2
100
AcDbTrace
 10
435.4048419999999
 20
347.392842
 30
0.0
 11
431.904844
 21
346.775697
 31
0.0
 12
431.90484
 22
348.009986
 32
0.0
 13
431.90484
 23
348.009986
 33
0.0
  0
SOLID
  5
323
330
1F
100
AcDbEntity
  8
2
100
AcDbTrace
 10
214.404842
 20
347.392842
 30
0.0
 11
217.90484
 21
348.009986
 31
0.0
 12
217.904844
 22
346.775697
 32
0.0
 13
217.904844
 23
346.775697
 33
0.0
  0
MTEXT
  5
324
330
1F
100
AcDbEntity
  8
2
100
AcDbMText
 10
242.590342
 20
333.821465
 30
0.0
 40
3.5
 41
0.0
 71
     7
 72
     5
  1
\W0.7045;60
  7
cesky
 73
     2
 44
0.8433729999999998
  0
LINE
  5
325
330
1F
100
AcDbEntity
  8
2
100
AcDbLine
 10
274.404842
 20
288.907994
 30
0.0
 11
274.404842
 21
334.9472990000001
 31
0.0
  0
LINE
  5
326
330
1F
100
AcDbEntity
  8
2
100
AcDbLine
 10
214.404842
 20
302.907994
 30
0.0
 11
214.404842
 21
334.9472990000001
 31
0.0
  0
LINE
  5
327
330
1F
100
AcDbEntity
  8
2
100
AcDbLine
 10
274.404842
 20
333.947299
 30
0.0
 11
214.404842
 21
333.947299
 31
0.0
  0
SOLID
  5
328
330
1F
100
AcDbEntity
  8
2
100
AcDbTrace
 10
274.404842
 20
333.947299
 30
0.0
 11
270.904844
 21
333.330154
 31
0.0
 12
270.90484
 22
334.5644430000001
 32
0.0
 13
270.90484
 23
334.5644430000001
 33
0.0
  0
SOLID
  5
329
330
1F
100
AcDbEntity
  8
2
100
AcDbTrace
 10
214.404842
 20
333.947299
 30
0.0
 11
217.90484
 21
334.5644430000001
 31
0.0
 12
217.904844
 22
333.330154
 32
0.0
 13
217.904844
 23
333.330154
 33
0.0
  0
MTEXT
  5
32A
330
1F
100
AcDbEntity
  8
2
100
AcDbMText
 10
357.043792
 20
320.326608
 30
0.0
 40
3.5
 41
0.0
 71
     7
 72
     5
  1
\W0.8654;145,5
  7
cesky
 73
     2
 44
0.8433729999999998
  0
LINE
  5
32B
330
1F
100
AcDbEntity
  8
2
100
AcDbLine
 10
435.4048419999999
 20
307.907994
 30
0.0
 11
435.4048419999999
 21
321.452442
 31
0.0
  0
LINE
  5
32C
330
1F
100
AcDbEntity
  8
2
100
AcDbLine
 10
289.886743
 20
305.703143
 30
0.0
 11
289.886743
 21
321.452442
 31
0.0
  0
LINE
  5
32D
330
1F
100
AcDbEntity
  8
2
100
AcDbLine
 10
435.4048419999999
 20
320.452442
 30
0.0
 11
289.886743
 21
320.452442
 31
0.0
  0
SOLID
  5
32E
330
1F
100
AcDbEntity
  8
2
100
AcDbTrace
 10
435.4048419999999
 20
320.452442
 30
0.0
 11
431.904844
 21
319.835297
 31
0.0
 12
431.90484
 22
321.069586
 32
0.0
 13
431.90484
 23
321.069586
 33
0.0
  0
SOLID
  5
32F
330
1F
100
AcDbEntity
  8
2
100
AcDbTrace
 10
289.886743
 20
320.452442
 30
0.0
 11
293.386741
 21
321.069586
 31
0.0
 12
293.386745
 22
319.835297
 32
0.0
 13
293.386745
 23
319.835297
 33
0.0
  0
MTEXT
  5
330
330
1F
100
AcDbEntity
  8
SK2
100
AcDbMText
 10
204.480913
 20
290.434244
 30
0.0
 40
3.5
 41
0.0
 71
     7
 72
     5
  1
\W0.7045;32
  7
cesky
 11
0.0000000000000001
 21
1.0
 31
0.0
 73
     2
 44
0.8433729999999998
  0
MTEXT
  5
331
330
1F
100
AcDbEntity
  8
SK2
100
AcDbMText
 10
204.480913
 20
283.696744
 30
0.0
 40
3.5
 41
0.0
 71
     7
 72
     5
  1
\W3.0115;\H2.63;%%c\H3.50;
  7
cesky
 11
0.0000000000000001
 21
1.0
 31
0.0
 73
     2
 44
0.8433729999999998
  0
LINE
  5
332
330
1F
100
AcDbEntity
  8
SK2
100
AcDbLine
 10
216.404842
 20
304.907994
 30
0.0
 11
203.66833
 21
304.907994
 31
0.0
  0
LINE
  5
333
330
1F
100
AcDbEntity
  8
SK2
100
AcDbLine
 10
216.404842
 20
272.907994
 30
0.0
 11
203.66833
 21
272.907994
 31
0.0
  0
LINE
  5
334
330
1F
100
AcDbEntity
  8
SK2
100
AcDbLine
 10
204.66833
 20
304.907994
 30
0.0
 11
204.66833
 21
272.907994
 31
0.0
  0
SOLID
  5
335
330
1F
100
AcDbEntity
  8
SK2
100
AcDbTrace
 10
204.66833
 20
304.907994
 30
0.0
 11
205.285474
 21
301.407996
 31
0.0
 12
204.051185
 22
301.407991
 32
0.0
 13
204.051185
 23
301.407991
 33
0.0
  0
SOLID
  5
336
330
1F
100
AcDbEntity
  8
SK2
100
AcDbTrace
 10
204.66833
 20
272.907994
 30
0.0
 11
204.051185
 21
276.407991
 31
0.0
 12
205.285474
 22
276.407996
 32
0.0
 13
205.285474
 23
276.407996
 33
0.0
  0
MTEXT
  5
337
330
1F
100
AcDbEntity
  8
SK2
100
AcDbMText
 10
191.916868
 20
290.434244
 30
0.0
 40
3.5
 41
0.0
 71
     7
 72
     5
  1
\W0.7045;42
  7
cesky
 11
0.0000000000000001
 21
1.0
 31
0.0
 73
     2
 44
0.8433729999999998
  0
MTEXT
  5
338
330
1F
100
AcDbEntity
  8
SK2
100
AcDbMText
 10
191.916868
 20
283.696744
 30
0.0
 40
3.5
 41
0.0
 71
     7
 72
     5
  1
\W3.0115;\H2.63;%%c\H3.50;
  7
cesky
 11
0.0000000000000001
 21
1.0
 31
0.0
 73
     2
 44
0.8433729999999998
  0
LINE
  5
339
330
1F
100
AcDbEntity
  8
SK2
100
AcDbLine
 10
274.904842
 20
309.907994
 30
0.0
 11
191.104285
 21
309.907994
 31
0.0
  0
LINE
  5
33A
330
1F
100
AcDbEntity
  8
SK2
100
AcDbLine
 10
274.904842
 20
267.907994
 30
0.0
 11
191.104285
 21
267.907994
 31
0.0
  0
LINE
  5
33B
330
1F
100
AcDbEntity
  8
SK2
100
AcDbLine
 10
192.104285
 20
309.907994
 30
0.0
 11
192.104285
 21
267.907994
 31
0.0
  0
SOLID
  5
33C
330
1F
100
AcDbEntity
  8
SK2
100
AcDbTrace
 10
192.104285
 20
309.907994
 30
0.0
 11
192.721429
 21
306.407996
 31
0.0
 12
191.48714
 22
306.407991
 32
0.0
 13
191.48714
 23
306.407991
 33
0.0
  0
SOLID
  5
33D
330
1F
100
AcDbEntity
  8
SK2
100
AcDbTrace
 10
192.104285
 20
267.907994
 30
0.0
 11
191.48714
 21
271.4079910000001
 31
0.0
 12
192.721429
 22
271.407996
 32
0.0
 13
192.721429
 23
271.407996
 33
0.0
  0
LINE
  5
33E
330
1F
100
AcDbEntity
  8
CUT
100
AcDbLine
 10
435.2754235247553
 20
297.0361251382748
 30
0.0
 11
435.3998607906598
 21
289.9114987447
 31
0.0
  0
LINE
  5
341
330
1F
100
AcDbEntity
  8
CUT
100
AcDbLine
 10
434.8470132345146
 20
305.1625015666012
 30
0.0
 11
435.1302951695565
 21
297.3542400235923
 31
0.0
  0
LINE
  5
343
330
1F
100
AcDbEntity
  8
CUT
100
AcDbLine
 10
426.074112094763
 20
305.6095752511592
 30
0.0
 11
434.0467356045165
 21
305.9049165187757
 31
0.0
  0
LINE
  5
344
330
1F
100
AcDbEntity
  8
CUT
100
AcDbLine
 10
435.1302951695565
 20
297.3542400235923
 30
0.0
 11
435.2334058386329
 21
297.1826473299074
 31
0.0
  0
LINE
  5
345
330
1F
100
AcDbEntity
  8
CUT
100
AcDbLine
 10
425.32968
 20
288.907994
 30
0.0
 11
425.32968
 21
304.809555
 31
0.0
  0
LINE
  5
346
330
1F
100
AcDbEntity
  8
CUT
100
AcDbLine
 10
435.399861
 20
288.907994
 30
0.0
 11
425.32968
 21
288.907994
 31
0.0
  0
LINE
  5
347
330
1F
100
AcDbEntity
  8
CUT
100
AcDbLine
 10
435.399861
 20
289.9114990000001
 30
0.0
 11
435.399861
 21
288.907994
 31
0.0
  0
ARC
  5
348
330
1F
100
AcDbEntity
  8
CUT
100
AcDbCircle
 10
426.1119704362264
 20
304.8283362018248
 30
0.0
 40
0.7825160772889621
100
AcDbArc
 50
95.53929728229467
 51
181.3753186283475
  0
ARC
  5
349
330
1F
100
AcDbEntity
  8
CUT
100
AcDbCircle
 10
426.1008952614731
 20
304.8853052626157
 30
0.0
 40
0.724765033872157
100
AcDbArc
 50
92.11780622503329
 51
95.10257176889741
  0
LINE
  5
34A
330
1F
100
AcDbEntity
  8
CUT
100
AcDbLine
 10
435.2334058386329
 20
297.1826473299075
 30
0.0
 11
435.2334058386329
 21
297.1826473299075
 31
0.0
  0
ARC
  5
34B
330
1F
100
AcDbEntity
  8
CUT
100
AcDbCircle
 10
434.9810543088367
 20
297.0309955806546
 30
0.0
 40
0.2944139053134799
100
AcDbArc
 50
0.9983117935969479
 51
31.003945602509
  0
ARC
  5
34C
330
1F
100
AcDbEntity
  8
CUT
100
AcDbCircle
 10
434.0673640570773
 20
305.1240165121161
 30
0.0
 40
0.781172422360125
100
AcDbArc
 50
6.977636344609069
 51
91.51318792671837
  0
ARC
  5
34D
330
1F
100
AcDbEntity
  8
CUT
100
AcDbCircle
 10
434.1247774591683
 20
305.1362995385709
 30
0.0
 40
0.7227109114043868
100
AcDbArc
 50
2.077725241092873
 51
6.564005532061892
  0
ENDSEC
  0
SECTION
  2
OBJECTS
  0
DICTIONARY
  5
C
330
0
100
AcDbDictionary
281
     1
  3
ACAD_CIP_PREVIOUS_PRODUCT_INFO
350
310
  3
ACAD_COLOR
350
30B
  3
ACAD_DETAILVIEWSTYLE
350
307
  3
ACAD_GROUP
350
D
  3
ACAD_LAYOUT
350
1A
  3
ACAD_MATERIAL
350
43
  3
ACAD_MLEADERSTYLE
350
6B
  3
ACAD_MLINESTYLE
350
17
  3
ACAD_PLOTSETTINGS
350
19
  3
ACAD_PLOTSTYLENAME
350
E
  3
ACAD_SCALELIST
350
47
  3
ACAD_SECTIONVIEWSTYLE
350
308
  3
ACAD_TABLESTYLE
350
69
  3
ACAD_VISUALSTYLE
350
2A
  3
ACDB_RECOMPOSE_DATA
350
379
  3
AcDbVariableDictionary
350
2C4
  0
DICTIONARY
  5
35C
330
10
100
AcDbDictionary
280
     1
281
     1
  3
ADSK_XREC_LAYER_RECONCILED
360
35D
  0
DICTIONARY
  5
35E
330
34E
100
AcDbDictionary
280
     1
281
     1
  3
ADSK_XREC_LAYER_RECONCILED
360
35F
  0
DICTIONARY
  5
360
330
34F
100
AcDbDictionary
280
     1
281
     1
  3
ADSK_XREC_LAYER_RECONCILED
360
361
  0
DICTIONARY
  5
362
330
350
100
AcDbDictionary
280
     1
281
     1
  3
ADSK_XREC_LAYER_RECONCILED
360
363
  0
DICTIONARY
  5
364
330
352
100
AcDbDictionary
280
     1
281
     1
  3
ADSK_XREC_LAYER_RECONCILED
360
365
  0
DICTIONARY
  5
366
330
353
100
AcDbDictionary
280
     1
281
     1
  3
ADSK_XREC_LAYER_RECONCILED
360
367
  0
DICTIONARY
  5
368
330
355
100
AcDbDictionary
280
     1
281
     1
  3
ADSK_XREC_LAYER_RECONCILED
360
369
  0
DICTIONARY
  5
36A
330
356
100
AcDbDictionary
280
     1
281
     1
  3
ADSK_XREC_LAYER_RECONCILED
360
36B
  0
DICTIONARY
  5
36C
330
357
100
AcDbDictionary
280
     1
281
     1
  3
ADSK_XREC_LAYER_RECONCILED
360
36D
  0
DICTIONARY
  5
36E
330
358
100
AcDbDictionary
280
     1
281
     1
  3
ADSK_XREC_LAYER_RECONCILED
360
36F
  0
DICTIONARY
  5
370
330
359
100
AcDbDictionary
280
     1
281
     1
  3
ADSK_XREC_LAYER_RECONCILED
360
371
  0
DICTIONARY
  5
372
330
35A
100
AcDbDictionary
280
     1
281
     1
  3
ADSK_XREC_LAYER_RECONCILED
360
373
  0
DICTIONARY
  5
311
330
1F
100
AcDbDictionary
280
     1
281
     1
  3
ACAD_SORTENTS
360
312
  0
XRECORD
  5
310
102
{ACAD_REACTORS
330
C
102
}
330
C
100
AcDbXrecord
280
     1
300
ACD
300
2019
300
87084ACD_2019_0F
  0
DICTIONARY
  5
30B
102
{ACAD_REACTORS
330
C
102
}
330
C
100
AcDbDictionary
281
     1
  0
DICTIONARY
  5
307
102
{ACAD_REACTORS
330
C
102
}
330
C
100
AcDbDictionary
281
     1
  3
Metric50
350
30D
  0
DICTIONARY
  5
D
102
{ACAD_REACTORS
330
C
102
}
330
C
100
AcDbDictionary
281
     1
  3
NULOVY_BOD
350
35B
  0
DICTIONARY
  5
1A
102
{ACAD_REACTORS
330
C
102
}
330
C
100
AcDbDictionary
281
     1
  3
Layout1
350
1E
  3
Layout2
350
26
  3
Model
350
22
  0
DICTIONARY
  5
43
102
{ACAD_REACTORS
330
C
102
}
330
C
100
AcDbDictionary
281
     1
  3
ByBlock
350
45
  3
ByLayer
350
44
  3
Global
350
46
  0
DICTIONARY
  5
6B
102
{ACAD_REACTORS
330
C
102
}
330
C
100
AcDbDictionary
281
     1
  3
Standard
350
6C
  0
DICTIONARY
  5
17
102
{ACAD_REACTORS
330
C
102
}
330
C
100
AcDbDictionary
281
     1
  3
Standard
350
18
  0
DICTIONARY
  5
19
102
{ACAD_REACTORS
330
C
102
}
330
C
100
AcDbDictionary
281
     1
  0
ACDBDICTIONARYWDFLT
  5
E
102
{ACAD_REACTORS
330
C
102
}
330
C
100
AcDbDictionary
281
     1
  3
Normal
350
F
100
AcDbDictionaryWithDefault
340
F
  0
DICTIONARY
  5
47
102
{ACAD_REACTORS
330
C
102
}
330
C
100
AcDbDictionary
281
     1
  3
A0
350
48
  3
A1
350
49
  3
A2
350
4A
  3
A3
350
4B
  3
A4
350
4C
  3
A5
350
4D
  3
A6
350
4E
  3
A7
350
4F
  3
A8
350
50
  3
A9
350
51
  3
B0
350
52
  3
B1
350
53
  3
B2
350
54
  3
B3
350
55
  3
B4
350
56
  3
B5
350
57
  3
B6
350
58
  3
B7
350
59
  3
B8
350
5A
  3
B9
350
5B
  3
C0
350
5C
  3
C1
350
5D
  3
C2
350
5E
  3
C3
350
5F
  3
C4
350
60
  3
C5
350
61
  3
C6
350
62
  3
C7
350
63
  3
C8
350
64
  3
C9
350
65
  3
D0
350
66
  3
D1
350
67
  3
D2
350
68
  0
DICTIONARY
  5
308
102
{ACAD_REACTORS
330
C
102
}
330
C
100
AcDbDictionary
281
     1
  3
Metric50
350
30C
  0
DICTIONARY
  5
69
102
{ACAD_REACTORS
330
C
102
}
330
C
100
AcDbDictionary
281
     1
  3
Standard
350
6A
  0
DICTIONARY
  5
2A
102
{ACAD_REACTORS
330
C
102
}
330
C
100
AcDbDictionary
281
     1
  3
2dWireframe
350
2F
  3
Basic
350
32
  3
Brighten
350
36
  3
ColorChange
350
3A
  3
Conceptual
350
34
  3
Dim
350
35
  3
EdgeColorOff
350
3D
  3
Facepattern
350
39
  3
Flat
350
2B
  3
FlatWithEdges
350
2C
  3
Gouraud
350
2D
  3
GouraudWithEdges
350
2E
  3
Hidden
350
31
  3
JitterOff
350
3B
  3
Linepattern
350
38
  3
OverhangOff
350
3C
  3
Realistic
350
33
  3
Shaded
350
42
  3
Shaded with edges
350
41
  3
Shades of Gray
350
3E
  3
Sketchy
350
3F
  3
Thicken
350
37
  3
Wireframe
350
30
  3
X-Ray
350
40
  0
XRECORD
  5
379
102
{ACAD_REACTORS
330
C
102
}
330
C
100
AcDbXrecord
280
     1
 90
        1
330
6A
  0
DICTIONARY
  5
2C4
102
{ACAD_REACTORS
330
C
102
}
330
C
100
AcDbDictionary
281
     1
  3
CANNOSCALE
350
2C5
  3
CMLEADERSTYLE
350
306
  3
CTABLESTYLE
350
305
  3
CVIEWDETAILSTYLE
350
374
  3
CVIEWSECTIONSTYLE
350
375
  3
MSLTSCALE
350
2C6
  3
XCLIPFRAME
350
376
  0
XRECORD
  5
35D
102
{ACAD_REACTORS
330
35C
102
}
330
35C
100
AcDbXrecord
280
     1
290
     1
  0
XRECORD
  5
35F
102
{ACAD_REACTORS
330
35E
102
}
330
35E
100
AcDbXrecord
280
     1
290
     1
  0
XRECORD
  5
361
102
{ACAD_REACTORS
330
360
102
}
330
360
100
AcDbXrecord
280
     1
290
     1
  0
XRECORD
  5
363
102
{ACAD_REACTORS
330
362
102
}
330
362
100
AcDbXrecord
280
     1
290
     1
  0
XRECORD
  5
365
102
{ACAD_REACTORS
330
364
102
}
330
364
100
AcDbXrecord
280
     1
290
     1
  0
XRECORD
  5
367
102
{ACAD_REACTORS
330
366
102
}
330
366
100
AcDbXrecord
280
     1
290
     1
  0
XRECORD
  5
369
102
{ACAD_REACTORS
330
368
102
}
330
368
100
AcDbXrecord
280
     1
290
     1
  0
XRECORD
  5
36B
102
{ACAD_REACTORS
330
36A
102
}
330
36A
100
AcDbXrecord
280
     1
290
     1
  0
XRECORD
  5
36D
102
{ACAD_REACTORS
330
36C
102
}
330
36C
100
AcDbXrecord
280
     1
290
     1
  0
XRECORD
  5
36F
102
{ACAD_REACTORS
330
36E
102
}
330
36E
100
AcDbXrecord
280
     1
290
     1
  0
XRECORD
  5
371
102
{ACAD_REACTORS
330
370
102
}
330
370
100
AcDbXrecord
280
     1
290
     1
  0
XRECORD
  5
373
102
{ACAD_REACTORS
330
372
102
}
330
372
100
AcDbXrecord
280
     1
290
     1
  0
SORTENTSTABLE
  5
312
102
{ACAD_REACTORS
330
311
102
}
330
311
100
AcDbSortentsTable
330
1F
331
313
  5
21E
331
314
  5
237
331
315
  5
313
331
316
  5
314
331
317
  5
315
331
318
  5
326
331
319
  5
327
331
31A
  5
328
331
31B
  5
329
331
31C
  5
32A
331
31D
  5
32B
331
31E
  5
32C
331
31F
  5
32D
331
320
  5
32E
331
321
  5
32F
331
322
  5
330
331
323
  5
331
331
324
  5
332
331
325
  5
333
331
326
  5
334
331
327
  5
335
331
328
  5
336
331
329
  5
337
331
32A
  5
338
331
32B
  5
339
331
32C
  5
33A
331
32D
  5
33B
331
32E
  5
33C
331
32F
  5
33D
331
330
  5
318
331
331
  5
319
331
332
  5
31A
331
333
  5
31B
331
334
  5
31C
331
335
  5
31D
331
336
  5
31E
331
337
  5
31F
331
338
  5
320
331
339
  5
321
331
33A
  5
322
331
33B
  5
323
331
33C
  5
324
331
33D
  5
325
331
341
  5
346
331
343
  5
349
331
344
  5
34A
331
345
  5
34B
331
346
  5
34C
331
347
  5
34D
331
348
  5
341
331
349
  5
343
331
34A
  5
344
331
34B
  5
345
331
34C
  5
347
331
34D
  5
348
  0
ACDBDETAILVIEWSTYLE
  5
30D
102
{ACAD_XDICTIONARY
360
3AD
102
}
102
{ACAD_REACTORS
330
307
102
}
330
307
100
AcDbModelDocViewStyle
 70
     0
  3
Metric50
290
     0
100
AcDbDetailViewStyle
 70
     0
 71
     0
 90
        3
 71
     1
340
11
 62
   256
 40
5.0
340
0
 62
   256
 40
5.0
300

 40
0.0
280
     1
 71
     2
340
16
 90
       25
 62
   256
 71
     3
340
11
 62
   256
 40
5.0
 90
        0
 40
15.0
 90
        1
300
%<\AcVar ViewDetailId>% (%<\AcVar ViewScale \f "%sn">%)
 71
     4
340
16
 90
       25
 62
   256
340
16
 90
       25
 62
   256
280
     0
  0
GROUP
  5
35B
102
{ACAD_REACTORS
330
D
102
}
330
D
100
AcDbGroup
300

 70
     0
 71
     1
340
73
  0
LAYOUT
  5
1E
102
{ACAD_REACTORS
330
1A
102
}
330
1A
100
AcDbPlotSettings
  1

  2
none_device
  4

  6

 40
0.0
 41
0.0
 42
0.0
 43
0.0
 44
0.0
 45
0.0
 46
0.0
 47
0.0
 48
0.0
 49
0.0
140
0.0
141
0.0
142
1.0
143
1.0
 70
   688
 72
     0
 73
     0
 74
     5
  7

 75
    16
147
1.0
 76
     0
 77
     2
 78
   300
148
0.0
149
0.0
100
AcDbLayout
  1
Layout1
 70
     1
 71
     1
 10
-0.5
 20
-0.5
 11
5.0
 21
5.0
 12
0.0
 22
0.0
 32
0.0
 14
-0.5
 24
-0.5
 34
-0.5
 15
5.0
 25
5.0
 35
5.0
146
0.0
 13
0.0
 23
0.0
 33
0.0
 16
1.0
 26
0.0
 36
0.0
 17
0.0
 27
1.0
 37
0.0
 76
     0
330
1B
  0
LAYOUT
  5
26
102
{ACAD_REACTORS
330
1A
102
}
330
1A
100
AcDbPlotSettings
  1

  2
none_device
  4

  6

 40
0.0
 41
0.0
 42
0.0
 43
0.0
 44
0.0
 45
0.0
 46
0.0
 47
0.0
 48
0.0
 49
0.0
140
0.0
141
0.0
142
1.0
143
1.0
 70
   688
 72
     0
 73
     0
 74
     5
  7

 75
    16
147
1.0
 76
     0
 77
     2
 78
   300
148
0.0
149
0.0
100
AcDbLayout
  1
Layout2
 70
     1
 71
     2
 10
0.0
 20
0.0
 11
0.0
 21
0.0
 12
0.0
 22
0.0
 32
0.0
 14
0.0
 24
0.0
 34
0.0
 15
0.0
 25
0.0
 35
0.0
146
0.0
 13
0.0
 23
0.0
 33
0.0
 16
1.0
 26
0.0
 36
0.0
 17
0.0
 27
1.0
 37
0.0
 76
     0
330
23
  0
LAYOUT
  5
22
102
{ACAD_REACTORS
330
1A
102
}
330
1A
100
AcDbPlotSettings
  1

  2
none_device
  4
Letter_(8.50_x_11.00_Inches)
  6

 40
6.349999999999999
 41
6.349999999999999
 42
6.350005
 43
6.350005
 44
215.9
 45
279.4
 46
0.0
 47
0.0
 48
0.0
 49
0.0
140
0.0
141
0.0
142
1.0
143
1.0
 70
  1712
 72
     0
 73
     0
 74
     0
  7

 75
     0
147
1.0
 76
     0
 77
     2
 78
   300
148
0.0
149
0.0
100
AcDbLayout
  1
Model
 70
     1
 71
     0
 10
-0.5
 20
-0.5
 11
5.0
 21
5.0
 12
0.0
 22
0.0
 32
0.0
 14
-0.5
 24
-0.5
 34
-0.5
 15
5.0
 25
5.0
 35
5.0
146
0.0
 13
0.0
 23
0.0
 33
0.0
 16
1.0
 26
0.0
 36
0.0
 17
0.0
 27
1.0
 37
0.0
 76
     0
330
1F
331
29
  0
MATERIAL
  5
45
102
{ACAD_XDICTIONARY
360
2FA
102
}
102
{ACAD_REACTORS
330
43
102
}
330
43
100
AcDbMaterial
  1
ByBlock
  0
MATERIAL
  5
44
102
{ACAD_XDICTIONARY
360
2F8
102
}
102
{ACAD_REACTORS
330
43
102
}
330
43
100
AcDbMaterial
  1
ByLayer
  0
MATERIAL
  5
46
102
{ACAD_XDICTIONARY
360
2FC
102
}
102
{ACAD_REACTORS
330
43
102
}
330
43
100
AcDbMaterial
  1
Global
  0
MLEADERSTYLE
  5
6C
102
{ACAD_REACTORS
330
6B
102
}
330
6B
100
AcDbMLeaderStyle
170
     2
171
     1
172
     0
 90
        2
 40
0.0
 41
0.0
173
     1
 91
-1056964608
340
14
 92
       -2
290
     1
 42
0.09
291
     1
 43
0.36
  3
Standard
 44
0.18
300

342
11
174
     1
178
     6
175
     1
176
     0
 93
-1056964608
 45
0.18
292
     0
297
     0
 46
0.18
 94
-1056964608
 47
1.0
 49
1.0
140
1.0
293
     1
141
0.0
294
     1
177
     0
142
1.0
295
     0
296
     0
143
0.125
1001
ACAD_MLEADERVER
1070
     2
  0
MLINESTYLE
  5
18
102
{ACAD_REACTORS
330
17
102
}
330
17
100
AcDbMlineStyle
  2
STANDARD
 70
     0
  3

 62
   256
 51
90.0
 52
90.0
 71
     2
 49
0.5
 62
   256
  6
BYLAYER
 49
-0.5
 62
   256
  6
BYLAYER
  0
ACDBPLACEHOLDER
  5
F
102
{ACAD_REACTORS
330
E
102
}
330
E
  0
SCALE
  5
48
102
{ACAD_REACTORS
330
47
102
}
330
47
100
AcDbScale
 70
     0
300
1:1
140
1.0
141
1.0
290
     1
  0
SCALE
  5
49
102
{ACAD_REACTORS
330
47
102
}
330
47
100
AcDbScale
 70
     0
300
1:2
140
1.0
141
2.0
290
     0
  0
SCALE
  5
4A
102
{ACAD_REACTORS
330
47
102
}
330
47
100
AcDbScale
 70
     0
300
1:4
140
1.0
141
4.0
290
     0
  0
SCALE
  5
4B
102
{ACAD_REACTORS
330
47
102
}
330
47
100
AcDbScale
 70
     0
300
1:5
140
1.0
141
5.0
290
     0
  0
SCALE
  5
4C
102
{ACAD_REACTORS
330
47
102
}
330
47
100
AcDbScale
 70
     0
300
1:8
140
1.0
141
8.0
290
     0
  0
SCALE
  5
4D
102
{ACAD_REACTORS
330
47
102
}
330
47
100
AcDbScale
 70
     0
300
1:10
140
1.0
141
10.0
290
     0
  0
SCALE
  5
4E
102
{ACAD_REACTORS
330
47
102
}
330
47
100
AcDbScale
 70
     0
300
1:16
140
1.0
141
16.0
290
     0
  0
SCALE
  5
4F
102
{ACAD_REACTORS
330
47
102
}
330
47
100
AcDbScale
 70
     0
300
1:20
140
1.0
141
20.0
290
     0
  0
SCALE
  5
50
102
{ACAD_REACTORS
330
47
102
}
330
47
100
AcDbScale
 70
     0
300
1:30
140
1.0
141
30.0
290
     0
  0
SCALE
  5
51
102
{ACAD_REACTORS
330
47
102
}
330
47
100
AcDbScale
 70
     0
300
1:40
140
1.0
141
40.0
290
     0
  0
SCALE
  5
52
102
{ACAD_REACTORS
330
47
102
}
330
47
100
AcDbScale
 70
     0
300
1:50
140
1.0
141
50.0
290
     0
  0
SCALE
  5
53
102
{ACAD_REACTORS
330
47
102
}
330
47
100
AcDbScale
 70
     0
300
1:100
140
1.0
141
100.0
290
     0
  0
SCALE
  5
54
102
{ACAD_REACTORS
330
47
102
}
330
47
100
AcDbScale
 70
     0
300
2:1
140
2.0
141
1.0
290
     0
  0
SCALE
  5
55
102
{ACAD_REACTORS
330
47
102
}
330
47
100
AcDbScale
 70
     0
300
4:1
140
4.0
141
1.0
290
     0
  0
SCALE
  5
56
102
{ACAD_REACTORS
330
47
102
}
330
47
100
AcDbScale
 70
     0
300
8:1
140
8.0
141
1.0
290
     0
  0
SCALE
  5
57
102
{ACAD_REACTORS
330
47
102
}
330
47
100
AcDbScale
 70
     0
300
10:1
140
10.0
141
1.0
290
     0
  0
SCALE
  5
58
102
{ACAD_REACTORS
330
47
102
}
330
47
100
AcDbScale
 70
     0
300
100:1
140
100.0
141
1.0
290
     0
  0
SCALE
  5
59
102
{ACAD_REACTORS
330
47
102
}
330
47
100
AcDbScale
 70
     0
300
1/128" = 1'-0"
140
0.007812
141
12.0
290
     0
  0
SCALE
  5
5A
102
{ACAD_REACTORS
330
47
102
}
330
47
100
AcDbScale
 70
     0
300
1/64" = 1'-0"
140
0.015625
141
12.0
290
     0
  0
SCALE
  5
5B
102
{ACAD_REACTORS
330
47
102
}
330
47
100
AcDbScale
 70
     0
300
1/32" = 1'-0"
140
0.03125
141
12.0
290
     0
  0
SCALE
  5
5C
102
{ACAD_REACTORS
330
47
102
}
330
47
100
AcDbScale
 70
     0
300
1/16" = 1'-0"
140
0.0625
141
12.0
290
     0
  0
SCALE
  5
5D
102
{ACAD_REACTORS
330
47
102
}
330
47
100
AcDbScale
 70
     0
300
3/32" = 1'-0"
140
0.09375
141
12.0
290
     0
  0
SCALE
  5
5E
102
{ACAD_REACTORS
330
47
102
}
330
47
100
AcDbScale
 70
     0
300
1/8" = 1'-0"
140
0.125
141
12.0
290
     0
  0
SCALE
  5
5F
102
{ACAD_REACTORS
330
47
102
}
330
47
100
AcDbScale
 70
     0
300
3/16" = 1'-0"
140
0.1875
141
12.0
290
     0
  0
SCALE
  5
60
102
{ACAD_REACTORS
330
47
102
}
330
47
100
AcDbScale
 70
     0
300
1/4" = 1'-0"
140
0.25
141
12.0
290
     0
  0
SCALE
  5
61
102
{ACAD_REACTORS
330
47
102
}
330
47
100
AcDbScale
 70
     0
300
3/8" = 1'-0"
140
0.375
141
12.0
290
     0
  0
SCALE
  5
62
102
{ACAD_REACTORS
330
47
102
}
330
47
100
AcDbScale
 70
     0
300
1/2" = 1'-0"
140
0.5
141
12.0
290
     0
  0
SCALE
  5
63
102
{ACAD_REACTORS
330
47
102
}
330
47
100
AcDbScale
 70
     0
300
3/4" = 1'-0"
140
0.75
141
12.0
290
     0
  0
SCALE
  5
64
102
{ACAD_REACTORS
330
47
102
}
330
47
100
AcDbScale
 70
     0
300
1" = 1'-0"
140
1.0
141
12.0
290
     0
  0
SCALE
  5
65
102
{ACAD_REACTORS
330
47
102
}
330
47
100
AcDbScale
 70
     0
300
1-1/2" = 1'-0"
140
1.5
141
12.0
290
     0
  0
SCALE
  5
66
102
{ACAD_REACTORS
330
47
102
}
330
47
100
AcDbScale
 70
     0
300
3" = 1'-0"
140
3.0
141
12.0
290
     0
  0
SCALE
  5
67
102
{ACAD_REACTORS
330
47
102
}
330
47
100
AcDbScale
 70
     0
300
6" = 1'-0"
140
6.0
141
12.0
290
     0
  0
SCALE
  5
68
102
{ACAD_REACTORS
330
47
102
}
330
47
100
AcDbScale
 70
     0
300
1'-0" = 1'-0"
140
12.0
141
12.0
290
     0
  0
ACDBSECTIONVIEWSTYLE
  5
30C
102
{ACAD_XDICTIONARY
360
3AB
102
}
102
{ACAD_REACTORS
330
308
102
}
330
308
100
AcDbModelDocViewStyle
 70
     0
  3
Metric50
290
     0
100
AcDbSectionViewStyle
 70
     0
 71
     0
 90
      102
 71
     1
340
11
 62
   256
 40
5.0
340
0
340
0
 62
   256
 40
5.0
300
I, O, Q, S, X, Z
 40
10.0
 90
        0
 40
2.5
 90
        0
 71
     2
340
16
 90
       25
 62
   256
340
16
 90
       50
 62
   256
 40
5.0
 40
2.5
 40
5.0
 71
     3
340
11
 62
   256
 40
5.0
 90
        0
 40
15.0
 90
        1
300
%<\AcVar ViewSectionStartId>%-%<\AcVar ViewSectionEndId>% (%<\AcVar ViewScale \f "%sn">%)
 71
     4
 62
   256
 62
   257
300
ANSI31
 40
1.0
 90
        0
290
     0
290
     0
 90
        6
 40
0.0
 40
1.570796326794896
 40
0.2617993877991494
 40
1.308996938995747
 40
-0.2617993877991494
 40
1.832595714594046
  0
TABLESTYLE
  5
6A
102
{ACAD_XDICTIONARY
360
2FE
102
}
102
{ACAD_REACTORS
330
69
102
}
330
69
100
AcDbTableStyle
  3
Standard
 70
     0
 71
     0
 40
0.06
 41
0.06
280
     0
281
     0
  7
Standard
140
0.18
170
     2
 62
     0
 63
     7
283
     0
274
    -2
284
     1
 64
     0
275
    -2
285
     1
 65
     0
276
    -2
286
     1
 66
     0
277
    -2
287
     1
 67
     0
278
    -2
288
     1
 68
     0
279
    -2
289
     1
 69
     0
  7
Standard
140
0.25
170
     5
 62
     0
 63
     7
283
     0
274
    -2
284
     1
 64
     0
275
    -2
285
     1
 65
     0
276
    -2
286
     1
 66
     0
277
    -2
287
     1
 67
     0
278
    -2
288
     1
 68
     0
279
    -2
289
     1
 69
     0
  7
Standard
140
0.18
170
     5
 62
     0
 63
     7
283
     0
274
    -2
284
     1
 64
     0
275
    -2
285
     1
 65
     0
276
    -2
286
     1
 66
     0
277
    -2
287
     1
 67
     0
278
    -2
288
     1
 68
     0
279
    -2
289
     1
 69
     0
  0
VISUALSTYLE
  5
2F
102
{ACAD_XDICTIONARY
360
382
102
}
102
{ACAD_REACTORS
330
2A
102
}
330
2A
100
AcDbVisualStyle
  2

 70
     4
 71
     0
 72
     2
 73
     0
 90
        0
 40
-0.6
 41
-30.0
 62
     5
 63
     7
421
 16777215
 74
     1
 91
        4
 64
     7
 65
   257
 75
     1
175
     1
 42
1.0
 92
        0
 66
   257
 43
1.0
 76
     1
 77
     6
 78
     2
 67
     7
 79
     5
170
     0
171
     0
290
     0
174
     0
 93
        1
 44
0.0
173
     0
291
     0
 45
0.0
1001
ACAD
1000
AcDbSavedByObjectVersion
1070
     0
  0
VISUALSTYLE
  5
32
102
{ACAD_XDICTIONARY
360
388
102
}
102
{ACAD_REACTORS
330
2A
102
}
330
2A
100
AcDbVisualStyle
  2

 70
     7
 71
     1
 72
     0
 73
     1
 90
        0
 40
-0.6
 41
-30.0
 62
     5
 63
     7
421
 16777215
 74
     0
 91
        4
 64
     7
 65
   257
 75
     1
175
     1
 42
1.0
 92
        8
 66
     7
 43
1.0
 76
     1
 77
     6
 78
     2
 67
     7
 79
     5
170
     0
171
     0
290
     0
174
     0
 93
        1
 44
0.0
173
     0
291
     1
 45
0.0
1001
ACAD
1000
AcDbSavedByObjectVersion
1070
     0
  0
VISUALSTYLE
  5
36
102
{ACAD_XDICTIONARY
360
390
102
}
102
{ACAD_REACTORS
330
2A
102
}
330
2A
100
AcDbVisualStyle
  2

 70
    12
 71
     2
 72
     2
 73
     0
 90
        0
 40
-0.6
 41
-30.0
 62
     5
 63
     7
421
 16777215
 74
     1
 91
        4
 64
     7
 65
   257
 75
     1
175
     1
 42
1.0
 92
        8
 66
     7
 43
1.0
 76
     1
 77
     6
 78
     2
 67
     7
 79
     5
170
     0
171
     0
290
     0
174
     0
 93
        1
 44
50.0
173
     0
291
     1
 45
0.0
1001
ACAD
1000
AcDbSavedByObjectVersion
1070
     0
  0
VISUALSTYLE
  5
3A
102
{ACAD_XDICTIONARY
360
398
102
}
102
{ACAD_REACTORS
330
2A
102
}
330
2A
100
AcDbVisualStyle
  2

 70
    16
 71
     2
 72
     2
 73
     3
 90
        0
 40
-0.6
 41
-30.0
 62
     5
 63
     8
421
  8421504
 74
     1
 91
        4
 64
     7
 65
   257
 75
     1
175
     1
 42
1.0
 92
        8
 66
     8
424
  8421504
 43
1.0
 76
     1
 77
     6
 78
     2
 67
     7
 79
     5
170
     0
171
     0
290
     0
174
     0
 93
        1
 44
0.0
173
     0
291
     1
 45
0.0
1001
ACAD
1000
AcDbSavedByObjectVersion
1070
     0
  0
VISUALSTYLE
  5
34
102
{ACAD_XDICTIONARY
360
38C
102
}
102
{ACAD_REACTORS
330
2A
102
}
330
2A
100
AcDbVisualStyle
  2

 70
     9
 71
     3
 72
     2
 73
     0
 90
        0
 40
-0.6
 41
-30.0
 62
     5
 63
     7
421
 16777215
 74
     2
 91
        2
 64
     7
 65
   257
 75
     1
175
     1
 42
179.0
 92
        8
 66
     7
 43
1.0
 76
     1
 77
     6
 78
     2
 67
     7
 79
     3
170
     0
171
     0
290
     0
174
     0
 93
        1
 44
0.0
173
     0
291
     0
 45
0.0
1001
ACAD
1000
AcDbSavedByObjectVersion
1070
     0
  0
VISUALSTYLE
  5
35
102
{ACAD_XDICTIONARY
360
38E
102
}
102
{ACAD_REACTORS
330
2A
102
}
330
2A
100
AcDbVisualStyle
  2

 70
    11
 71
     2
 72
     2
 73
     0
 90
        0
 40
-0.6
 41
-30.0
 62
     5
 63
     7
421
 16777215
 74
     1
 91
        4
 64
     7
 65
   257
 75
     1
175
     1
 42
1.0
 92
        8
 66
     7
 43
1.0
 76
     1
 77
     6
 78
     2
 67
     7
 79
     5
170
     0
171
     0
290
     0
174
     0
 93
        1
 44
-50.0
173
     0
291
     1
 45
0.0
1001
ACAD
1000
AcDbSavedByObjectVersion
1070
     0
  0
VISUALSTYLE
  5
3D
102
{ACAD_XDICTIONARY
360
39E
102
}
102
{ACAD_REACTORS
330
2A
102
}
330
2A
100
AcDbVisualStyle
  2

 70
    22
 71
     2
 72
     2
 73
     0
 90
        0
 40
-0.6
 41
-30.0
 62
     5
 63
     7
421
 16777215
 74
     1
 91
        4
 64
     7
 65
   257
 75
     1
175
     1
 42
1.0
 92
        8
 66
     7
 43
1.0
 76
     1
 77
     6
 78
     2
 67
     7
 79
     5
170
     0
171
     0
290
     0
174
     0
 93
        1
 44
0.0
173
     0
291
     1
 45
0.0
1001
ACAD
1000
AcDbSavedByObjectVersion
1070
     0
  0
VISUALSTYLE
  5
39
102
{ACAD_XDICTIONARY
360
396
102
}
102
{ACAD_REACTORS
330
2A
102
}
330
2A
100
AcDbVisualStyle
  2

 70
    15
 71
     2
 72
     2
 73
     0
 90
        0
 40
-0.6
 41
-30.0
 62
     5
 63
     7
421
 16777215
 74
     1
 91
        4
 64
     7
 65
   257
 75
     1
175
     1
 42
1.0
 92
        8
 66
     7
 43
1.0
 76
     1
 77
     6
 78
     2
 67
     7
 79
     5
170
     0
171
     0
290
     0
174
     0
 93
        1
 44
0.0
173
     0
291
     1
 45
0.0
1001
ACAD
1000
AcDbSavedByObjectVersion
1070
     0
  0
VISUALSTYLE
  5
2B
102
{ACAD_XDICTIONARY
360
37A
102
}
102
{ACAD_REACTORS
330
2A
102
}
330
2A
100
AcDbVisualStyle
  2

 70
     0
 71
     2
 72
     1
 73
     1
 90
        2
 40
-0.6
 41
30.0
 62
     5
 63
     7
421
 16777215
 74
     0
 91
        0
 64
     7
 65
   257
 75
     1
175
     1
 42
1.0
 92
        8
 66
     7
 43
1.0
 76
     1
 77
     6
 78
     2
 67
     7
 79
     5
170
     0
171
     0
290
     0
174
     0
 93
       13
 44
0.0
173
     0
291
     1
 45
0.0
1001
ACAD
1000
AcDbSavedByObjectVersion
1070
     0
  0
VISUALSTYLE
  5
2C
102
{ACAD_XDICTIONARY
360
37C
102
}
102
{ACAD_REACTORS
330
2A
102
}
330
2A
100
AcDbVisualStyle
  2

 70
     1
 71
     2
 72
     1
 73
     1
 90
        2
 40
-0.6
 41
30.0
 62
     5
 63
     7
421
 16777215
 74
     1
 91
        0
 64
     7
 65
   257
 75
     1
175
     1
 42
1.0
 92
        0
 66
   257
 43
1.0
 76
     1
 77
     6
 78
     2
 67
     7
 79
     5
170
     0
171
     0
290
     0
174
     0
 93
       13
 44
0.0
173
     0
291
     1
 45
0.0
1001
ACAD
1000
AcDbSavedByObjectVersion
1070
     0
  0
VISUALSTYLE
  5
2D
102
{ACAD_XDICTIONARY
360
37E
102
}
102
{ACAD_REACTORS
330
2A
102
}
330
2A
100
AcDbVisualStyle
  2

 70
     2
 71
     2
 72
     2
 73
     1
 90
        2
 40
-0.6
 41
30.0
 62
     5
 63
     7
421
 16777215
 74
     0
 91
        0
 64
     7
 65
   257
 75
     1
175
     1
 42
1.0
 92
        0
 66
     7
 43
1.0
 76
     1
 77
     6
 78
     2
 67
     7
 79
     5
170
     0
171
     0
290
     0
174
     0
 93
       13
 44
0.0
173
     0
291
     1
 45
0.0
1001
ACAD
1000
AcDbSavedByObjectVersion
1070
     0
  0
VISUALSTYLE
  5
2E
102
{ACAD_XDICTIONARY
360
380
102
}
102
{ACAD_REACTORS
330
2A
102
}
330
2A
100
AcDbVisualStyle
  2

 70
     3
 71
     2
 72
     2
 73
     1
 90
        2
 40
-0.6
 41
30.0
 62
     5
 63
     7
421
 16777215
 74
     1
 91
        0
 64
     7
 65
   257
 75
     1
175
     1
 42
1.0
 92
        0
 66
   257
 43
1.0
 76
     1
 77
     6
 78
     2
 67
     7
 79
     5
170
     0
171
     0
290
     0
174
     0
 93
       13
 44
0.0
173
     0
291
     1
 45
0.0
1001
ACAD
1000
AcDbSavedByObjectVersion
1070
     0
  0
VISUALSTYLE
  5
31
102
{ACAD_XDICTIONARY
360
386
102
}
102
{ACAD_REACTORS
330
2A
102
}
330
2A
100
AcDbVisualStyle
  2

 70
     6
 71
     1
 72
     2
 73
     2
 90
        0
 40
-0.6
 41
-30.0
 62
     5
 63
     7
421
 16777215
 74
     2
 91
        2
 64
     7
 65
   257
 75
     2
175
     1
 42
40.0
 92
        0
 66
   257
 43
1.0
 76
     1
 77
     6
 78
     2
 67
     7
 79
     3
170
     0
171
     0
290
     0
174
     0
 93
        1
 44
0.0
173
     0
291
     0
 45
0.0
1001
ACAD
1000
AcDbSavedByObjectVersion
1070
     0
  0
VISUALSTYLE
  5
3B
102
{ACAD_XDICTIONARY
360
39A
102
}
102
{ACAD_REACTORS
330
2A
102
}
330
2A
100
AcDbVisualStyle
  2

 70
    20
 71
     2
 72
     2
 73
     0
 90
        0
 40
-0.6
 41
-30.0
 62
     5
 63
     7
421
 16777215
 74
     1
 91
        4
 64
     7
 65
   257
 75
     1
175
     1
 42
1.0
 92
       10
 66
     7
 43
1.0
 76
     1
 77
     6
 78
     2
 67
     7
 79
     5
170
     0
171
     0
290
     0
174
     0
 93
        1
 44
0.0
173
     0
291
     1
 45
0.0
1001
ACAD
1000
AcDbSavedByObjectVersion
1070
     0
  0
VISUALSTYLE
  5
38
102
{ACAD_XDICTIONARY
360
394
102
}
102
{ACAD_REACTORS
330
2A
102
}
330
2A
100
AcDbVisualStyle
  2

 70
    14
 71
     2
 72
     2
 73
     0
 90
        0
 40
-0.6
 41
-30.0
 62
     5
 63
     7
421
 16777215
 74
     1
 91
        4
 64
     7
 65
   257
 75
     7
175
     7
 42
1.0
 92
        8
 66
     7
 43
1.0
 76
     1
 77
     6
 78
     2
 67
     7
 79
     5
170
     0
171
     0
290
     0
174
     0
 93
        1
 44
0.0
173
     0
291
     1
 45
0.0
1001
ACAD
1000
AcDbSavedByObjectVersion
1070
     0
  0
VISUALSTYLE
  5
3C
102
{ACAD_XDICTIONARY
360
39C
102
}
102
{ACAD_REACTORS
330
2A
102
}
330
2A
100
AcDbVisualStyle
  2

 70
    21
 71
     2
 72
     2
 73
     0
 90
        0
 40
-0.6
 41
-30.0
 62
     5
 63
     7
421
 16777215
 74
     1
 91
        4
 64
     7
 65
   257
 75
     1
175
     1
 42
1.0
 92
        9
 66
     7
 43
1.0
 76
     1
 77
     6
 78
     2
 67
     7
 79
     5
170
     0
171
     0
290
     0
174
     0
 93
        1
 44
0.0
173
     0
291
     1
 45
0.0
1001
ACAD
1000
AcDbSavedByObjectVersion
1070
     0
  0
VISUALSTYLE
  5
33
102
{ACAD_XDICTIONARY
360
38A
102
}
102
{ACAD_REACTORS
330
2A
102
}
330
2A
100
AcDbVisualStyle
  2

 70
     8
 71
     2
 72
     3
 73
     0
 90
        2
 40
-0.6
 41
30.0
 62
     5
 63
     7
421
 16777215
 74
     0
 91
        0
 64
     7
 65
   257
 75
     1
175
     1
 42
1.0
 92
        8
 66
   257
 43
1.0
 76
     1
 77
     6
 78
     2
 67
     7
 79
     3
170
     0
171
     0
290
     0
174
     0
 93
       13
 44
0.0
173
     0
291
     0
 45
0.0
1001
ACAD
1000
AcDbSavedByObjectVersion
1070
     0
  0
VISUALSTYLE
  5
42
102
{ACAD_XDICTIONARY
360
3A8
102
}
102
{ACAD_REACTORS
330
2A
102
}
330
2A
100
AcDbVisualStyle
  2

 70
    27
 71
     2
 72
     2
 73
     1
 90
        2
 40
-0.6
 41
30.0
 62
     5
 63
     7
421
 16777215
 74
     0
 91
        4
 64
     7
 65
   257
 75
     1
175
     1
 42
1.0
 92
        8
 66
   257
 43
1.0
 76
     1
 77
     6
 78
     2
 67
     8
425
  7895160
 79
     3
170
     0
171
     0
290
     0
174
     0
 93
        5
 44
0.0
173
     0
291
     0
 45
0.0
1001
ACAD
1000
AcDbSavedByObjectVersion
1070
     0
  0
VISUALSTYLE
  5
41
102
{ACAD_XDICTIONARY
360
3A6
102
}
102
{ACAD_REACTORS
330
2A
102
}
330
2A
100
AcDbVisualStyle
  2

 70
    26
 71
     2
 72
     2
 73
     1
 90
        2
 40
-0.6
 41
30.0
 62
     5
 63
     7
421
 16777215
 74
     1
 91
       10
 64
     7
 65
   257
 75
     2
175
     1
 42
1.0
 92
        8
 66
   257
 43
1.0
 76
     1
 77
     6
 78
     2
 67
     7
 79
     3
170
     0
171
     0
290
     0
174
     0
 93
        5
 44
0.0
173
     0
291
     0
 45
0.0
1001
ACAD
1000
AcDbSavedByObjectVersion
1070
     0
  0
VISUALSTYLE
  5
3E
102
{ACAD_XDICTIONARY
360
3A0
102
}
102
{ACAD_REACTORS
330
2A
102
}
330
2A
100
AcDbVisualStyle
  2

 70
    23
 71
     2
 72
     2
 73
     3
 90
        0
 40
-0.6
 41
-30.0
 62
     5
 63
     7
421
 16777215
 74
     2
 91
        2
 64
     7
 65
     7
 75
     1
175
     1
 42
40.0
 92
        8
 66
     7
 43
1.0
 76
     1
 77
     6
 78
     2
 67
     7
 79
     3
170
     0
171
     0
290
     0
174
     0
 93
        1
 44
0.0
173
     0
291
     0
 45
0.0
1001
ACAD
1000
AcDbSavedByObjectVersion
1070
     0
  0
VISUALSTYLE
  5
3F
102
{ACAD_XDICTIONARY
360
3A2
102
}
102
{ACAD_REACTORS
330
2A
102
}
330
2A
100
AcDbVisualStyle
  2

 70
    24
 71
     1
 72
     2
 73
     2
 90
        0
 40
-0.6
 41
-30.0
 62
     5
 63
     7
421
 16777215
 74
     2
 91
        2
 64
     7
 65
     7
 75
     1
175
     1
 42
40.0
 92
       11
 66
     7
 43
1.0
 76
     1
 77
     6
 78
     2
 67
     7
 79
     6
170
     0
171
     0
290
     0
174
     0
 93
        1
 44
0.0
173
     0
291
     0
 45
0.0
1001
ACAD
1000
AcDbSavedByObjectVersion
1070
     0
  0
VISUALSTYLE
  5
37
102
{ACAD_XDICTIONARY
360
392
102
}
102
{ACAD_REACTORS
330
2A
102
}
330
2A
100
AcDbVisualStyle
  2

 70
    13
 71
     2
 72
     2
 73
     0
 90
        0
 40
-0.6
 41
-30.0
 62
     5
 63
     7
421
 16777215
 74
     1
 91
        4
 64
     7
 65
   257
 75
     1
175
     1
 42
1.0
 92
       12
 66
     7
 43
1.0
 76
     1
 77
     6
 78
     2
 67
     7
 79
     5
170
     0
171
     0
290
     0
174
     0
 93
        1
 44
0.0
173
     0
291
     1
 45
0.0
1001
ACAD
1000
AcDbSavedByObjectVersion
1070
     0
  0
VISUALSTYLE
  5
30
102
{ACAD_XDICTIONARY
360
384
102
}
102
{ACAD_REACTORS
330
2A
102
}
330
2A
100
AcDbVisualStyle
  2

 70
     5
 71
     0
 72
     2
 73
     0
 90
        0
 40
-0.6
 41
-30.0
 62
     5
 63
     7
421
 16777215
 74
     1
 91
        4
 64
     7
 65
   257
 75
     1
175
     1
 42
1.0
 92
        0
 66
   257
 43
1.0
 76
     1
 77
     6
 78
     2
 67
     7
 79
     3
170
     0
171
     0
290
     0
174
     0
 93
        1
 44
0.0
173
     0
291
     0
 45
0.0
1001
ACAD
1000
AcDbSavedByObjectVersion
1070
     0
  0
VISUALSTYLE
  5
40
102
{ACAD_XDICTIONARY
360
3A4
102
}
102
{ACAD_REACTORS
330
2A
102
}
330
2A
100
AcDbVisualStyle
  2

 70
    25
 71
     2
 72
     2
 73
     1
 90
        1
 40
0.5
 41
-30.0
 62
     5
 63
     7
421
 16777215
 74
     1
 91
        0
 64
     7
 65
   257
 75
     1
175
     1
 42
1.0
 92
        8
 66
     7
 43
1.0
 76
     1
 77
     6
 78
     2
 67
     7
 79
     3
170
     0
171
     0
290
     0
174
     0
 93
       13
 44
0.0
173
     0
291
     0
 45
0.0
1001
ACAD
1000
AcDbSavedByObjectVersion
1070
     0
  0
DICTIONARYVAR
  5
2C5
102
{ACAD_REACTORS
330
2C4
102
}
330
2C4
100
DictionaryVariables
280
     0
  1
1:1
  0
DICTIONARYVAR
  5
306
102
{ACAD_REACTORS
330
2C4
102
}
330
2C4
100
DictionaryVariables
280
     0
  1
STANDARD
  0
DICTIONARYVAR
  5
305
102
{ACAD_REACTORS
330
2C4
102
}
330
2C4
100
DictionaryVariables
280
     0
  1
STANDARD
  0
DICTIONARYVAR
  5
374
102
{ACAD_REACTORS
330
2C4
102
}
330
2C4
100
DictionaryVariables
280
     0
  1
Metric50
  0
DICTIONARYVAR
  5
375
102
{ACAD_REACTORS
330
2C4
102
}
330
2C4
100
DictionaryVariables
280
     0
  1
Metric50
  0
DICTIONARYVAR
  5
2C6
102
{ACAD_REACTORS
330
2C4
102
}
330
2C4
100
DictionaryVariables
280
     0
  1
1
  0
DICTIONARYVAR
  5
376
102
{ACAD_REACTORS
330
2C4
102
}
330
2C4
100
DictionaryVariables
280
     0
  1
2
  0
DICTIONARY
  5
3AD
330
30D
100
AcDbDictionary
280
     1
281
     1
  3
ACAD_XREC_ROUNDTRIP
360
3AE
  0
DICTIONARY
  5
2FA
330
45
100
AcDbDictionary
280
     1
281
     1
  3
ACAD_XREC_ROUNDTRIP
360
2FB
  0
DICTIONARY
  5
2F8
330
44
100
AcDbDictionary
280
     1
281
     1
  3
ACAD_XREC_ROUNDTRIP
360
2F9
  0
DICTIONARY
  5
2FC
330
46
100
AcDbDictionary
280
     1
281
     1
  3
ACAD_XREC_ROUNDTRIP
360
2FD
  0
DICTIONARY
  5
3AB
330
30C
100
AcDbDictionary
280
     1
281
     1
  3
ACAD_XREC_ROUNDTRIP
360
3AC
  0
DICTIONARY
  5
2FE
330
6A
100
AcDbDictionary
280
     1
281
     1
  3
ACAD_ROUNDTRIP_2008_TABLESTYLE_CELLSTYLEMAP
360
378
  3
ACAD_XREC_ROUNDTRIP
360
3AA
  0
DICTIONARY
  5
382
330
2F
100
AcDbDictionary
280
     1
281
     1
  3
ACAD_XREC_ROUNDTRIP
360
383
  0
DICTIONARY
  5
388
330
32
100
AcDbDictionary
280
     1
281
     1
  3
ACAD_XREC_ROUNDTRIP
360
389
  0
DICTIONARY
  5
390
330
36
100
AcDbDictionary
280
     1
281
     1
  3
ACAD_XREC_ROUNDTRIP
360
391
  0
DICTIONARY
  5
398
330
3A
100
AcDbDictionary
280
     1
281
     1
  3
ACAD_XREC_ROUNDTRIP
360
399
  0
DICTIONARY
  5
38C
330
34
100
AcDbDictionary
280
     1
281
     1
  3
ACAD_XREC_ROUNDTRIP
360
38D
  0
DICTIONARY
  5
38E
330
35
100
AcDbDictionary
280
     1
281
     1
  3
ACAD_XREC_ROUNDTRIP
360
38F
  0
DICTIONARY
  5
39E
330
3D
100
AcDbDictionary
280
     1
281
     1
  3
ACAD_XREC_ROUNDTRIP
360
39F
  0
DICTIONARY
  5
396
330
39
100
AcDbDictionary
280
     1
281
     1
  3
ACAD_XREC_ROUNDTRIP
360
397
  0
DICTIONARY
  5
37A
330
2B
100
AcDbDictionary
280
     1
281
     1
  3
ACAD_XREC_ROUNDTRIP
360
37B
  0
DICTIONARY
  5
37C
330
2C
100
AcDbDictionary
280
     1
281
     1
  3
ACAD_XREC_ROUNDTRIP
360
37D
  0
DICTIONARY
  5
37E
330
2D
100
AcDbDictionary
280
     1
281
     1
  3
ACAD_XREC_ROUNDTRIP
360
37F
  0
DICTIONARY
  5
380
330
2E
100
AcDbDictionary
280
     1
281
     1
  3
ACAD_XREC_ROUNDTRIP
360
381
  0
DICTIONARY
  5
386
330
31
100
AcDbDictionary
280
     1
281
     1
  3
ACAD_XREC_ROUNDTRIP
360
387
  0
DICTIONARY
  5
39A
330
3B
100
AcDbDictionary
280
     1
281
     1
  3
ACAD_XREC_ROUNDTRIP
360
39B
  0
DICTIONARY
  5
394
330
38
100
AcDbDictionary
280
     1
281
     1
  3
ACAD_XREC_ROUNDTRIP
360
395
  0
DICTIONARY
  5
39C
330
3C
100
AcDbDictionary
280
     1
281
     1
  3
ACAD_XREC_ROUNDTRIP
360
39D
  0
DICTIONARY
  5
38A
330
33
100
AcDbDictionary
280
     1
281
     1
  3
ACAD_XREC_ROUNDTRIP
360
38B
  0
DICTIONARY
  5
3A8
330
42
100
AcDbDictionary
280
     1
281
     1
  3
ACAD_XREC_ROUNDTRIP
360
3A9
  0
DICTIONARY
  5
3A6
330
41
100
AcDbDictionary
280
     1
281
     1
  3
ACAD_XREC_ROUNDTRIP
360
3A7
  0
DICTIONARY
  5
3A0
330
3E
100
AcDbDictionary
280
     1
281
     1
  3
ACAD_XREC_ROUNDTRIP
360
3A1
  0
DICTIONARY
  5
3A2
330
3F
100
AcDbDictionary
280
     1
281
     1
  3
ACAD_XREC_ROUNDTRIP
360
3A3
  0
DICTIONARY
  5
392
330
37
100
AcDbDictionary
280
     1
281
     1
  3
ACAD_XREC_ROUNDTRIP
360
393
  0
DICTIONARY
  5
384
330
30
100
AcDbDictionary
280
     1
281
     1
  3
ACAD_XREC_ROUNDTRIP
360
385
  0
DICTIONARY
  5
3A4
330
40
100
AcDbDictionary
280
     1
281
     1
  3
ACAD_XREC_ROUNDTRIP
360
3A5
  0
XRECORD
  5
3AE
102
{ACAD_REACTORS
330
3AD
102
}
330
3AD
100
AcDbXrecord
280
     1
102
DISPLAYNAME
  1
Metric50
102
FLAGS
 90
        0
  0
XRECORD
  5
2FB
102
{ACAD_REACTORS
330
2FA
102
}
330
2FA
100
AcDbXrecord
280
     1
102
MATERIAL
148
0.0
149
0.0
149
0.0
 93
        0
 94
      127
282
     0
 72
     1
 77
     1
171
     1
175
     1
179
     1
273
     0
  0
XRECORD
  5
2F9
102
{ACAD_REACTORS
330
2F8
102
}
330
2F8
100
AcDbXrecord
280
     1
102
MATERIAL
148
0.0
149
0.0
149
0.0
 93
        0
 94
      127
282
     0
 72
     1
 77
     1
171
     1
175
     1
179
     1
273
     0
  0
XRECORD
  5
2FD
102
{ACAD_REACTORS
330
2FC
102
}
330
2FC
100
AcDbXrecord
280
     1
102
MATERIAL
148
0.0
149
0.0
149
0.0
 93
        0
 94
      127
282
     0
 72
     1
 77
     1
171
     1
175
     1
179
     1
273
     0
  0
XRECORD
  5
3AC
102
{ACAD_REACTORS
330
3AB
102
}
330
3AB
100
AcDbXrecord
280
     1
102
DISPLAYNAME
  1
Metric50
102
FLAGS
 90
        0
  0
CELLSTYLEMAP
  5
378
102
{ACAD_REACTORS
330
2FE
102
}
330
2FE
100
AcDbCellStyleMap
 90
        3
300
CELLSTYLE
  1
TABLEFORMAT_BEGIN
 90
        5
170
     1
 91
        0
 92
    32768
 62
   257
 93
        1
300
CONTENTFORMAT
  1
CONTENTFORMAT_BEGIN
 90
        0
 91
        0
 92
        4
 93
        0
300

 40
0.0
140
1.0
 94
        5
 62
     0
340
11
144
0.25
309
CONTENTFORMAT_END
171
     1
301
MARGIN
  1
CELLMARGIN_BEGIN
 40
0.06
 40
0.06
 40
0.06
 40
0.06
 40
0.18
 40
0.18
309
CELLMARGIN_END
 94
        6
 95
        1
302
GRIDFORMAT
  1
GRIDFORMAT_BEGIN
 90
        0
 91
        1
 62
     0
 92
       -2
340
14
 93
        0
 40
0.045
309
GRIDFORMAT_END
 95
        2
302
GRIDFORMAT
  1
GRIDFORMAT_BEGIN
 90
        0
 91
        1
 62
     0
 92
       -2
340
14
 93
        0
 40
0.045
309
GRIDFORMAT_END
 95
        4
302
GRIDFORMAT
  1
GRIDFORMAT_BEGIN
 90
        0
 91
        1
 62
     0
 92
       -2
340
14
 93
        0
 40
0.045
309
GRIDFORMAT_END
 95
        8
302
GRIDFORMAT
  1
GRIDFORMAT_BEGIN
 90
        0
 91
        1
 62
     0
 92
       -2
340
14
 93
        0
 40
0.045
309
GRIDFORMAT_END
 95
       16
302
GRIDFORMAT
  1
GRIDFORMAT_BEGIN
 90
        0
 91
        1
 62
     0
 92
       -2
340
14
 93
        0
 40
0.045
309
GRIDFORMAT_END
 95
       32
302
GRIDFORMAT
  1
GRIDFORMAT_BEGIN
 90
        0
 91
        1
 62
     0
 92
       -2
340
14
 93
        0
 40
0.045
309
GRIDFORMAT_END
309
TABLEFORMAT_END
  1
CELLSTYLE_BEGIN
 90
        1
 91
        1
300
_TITLE
309
CELLSTYLE_END
300
CELLSTYLE
  1
TABLEFORMAT_BEGIN
 90
        5
170
     1
 91
        0
 92
        0
 62
   257
 93
        1
300
CONTENTFORMAT
  1
CONTENTFORMAT_BEGIN
 90
        0
 91
        0
 92
        4
 93
        0
300

 40
0.0
140
1.0
 94
        5
 62
     0
340
11
144
0.18
309
CONTENTFORMAT_END
171
     1
301
MARGIN
  1
CELLMARGIN_BEGIN
 40
0.06
 40
0.06
 40
0.06
 40
0.06
 40
0.18
 40
0.18
309
CELLMARGIN_END
 94
        6
 95
        1
302
GRIDFORMAT
  1
GRIDFORMAT_BEGIN
 90
        0
 91
        1
 62
     0
 92
       -2
340
14
 93
        0
 40
0.045
309
GRIDFORMAT_END
 95
        2
302
GRIDFORMAT
  1
GRIDFORMAT_BEGIN
 90
        0
 91
        1
 62
     0
 92
       -2
340
14
 93
        0
 40
0.045
309
GRIDFORMAT_END
 95
        4
302
GRIDFORMAT
  1
GRIDFORMAT_BEGIN
 90
        0
 91
        1
 62
     0
 92
       -2
340
14
 93
        0
 40
0.045
309
GRIDFORMAT_END
 95
        8
302
GRIDFORMAT
  1
GRIDFORMAT_BEGIN
 90
        0
 91
        1
 62
     0
 92
       -2
340
14
 93
        0
 40
0.045
309
GRIDFORMAT_END
 95
       16
302
GRIDFORMAT
  1
GRIDFORMAT_BEGIN
 90
        0
 91
        1
 62
     0
 92
       -2
340
14
 93
        0
 40
0.045
309
GRIDFORMAT_END
 95
       32
302
GRIDFORMAT
  1
GRIDFORMAT_BEGIN
 90
        0
 91
        1
 62
     0
 92
       -2
340
14
 93
        0
 40
0.045
309
GRIDFORMAT_END
309
TABLEFORMAT_END
  1
CELLSTYLE_BEGIN
 90
        2
 91
        1
300
_HEADER
309
CELLSTYLE_END
300
CELLSTYLE
  1
TABLEFORMAT_BEGIN
 90
        5
170
     1
 91
        0
 92
        0
 62
   257
 93
        1
300
CONTENTFORMAT
  1
CONTENTFORMAT_BEGIN
 90
        0
 91
        0
 92
        4
 93
        0
300

 40
0.0
140
1.0
 94
        2
 62
     0
340
11
144
0.18
309
CONTENTFORMAT_END
171
     1
301
MARGIN
  1
CELLMARGIN_BEGIN
 40
0.06
 40
0.06
 40
0.06
 40
0.06
 40
0.18
 40
0.18
309
CELLMARGIN_END
 94
        6
 95
        1
302
GRIDFORMAT
  1
GRIDFORMAT_BEGIN
 90
        0
 91
        1
 62
     0
 92
       -2
340
14
 93
        0
 40
0.045
309
GRIDFORMAT_END
 95
        2
302
GRIDFORMAT
  1
GRIDFORMAT_BEGIN
 90
        0
 91
        1
 62
     0
 92
       -2
340
14
 93
        0
 40
0.045
309
GRIDFORMAT_END
 95
        4
302
GRIDFORMAT
  1
GRIDFORMAT_BEGIN
 90
        0
 91
        1
 62
     0
 92
       -2
340
14
 93
        0
 40
0.045
309
GRIDFORMAT_END
 95
        8
302
GRIDFORMAT
  1
GRIDFORMAT_BEGIN
 90
        0
 91
        1
 62
     0
 92
       -2
340
14
 93
        0
 40
0.045
309
GRIDFORMAT_END
 95
       16
302
GRIDFORMAT
  1
GRIDFORMAT_BEGIN
 90
        0
 91
        1
 62
     0
 92
       -2
340
14
 93
        0
 40
0.045
309
GRIDFORMAT_END
 95
       32
302
GRIDFORMAT
  1
GRIDFORMAT_BEGIN
 90
        0
 91
        1
 62
     0
 92
       -2
340
14
 93
        0
 40
0.045
309
GRIDFORMAT_END
309
TABLEFORMAT_END
  1
CELLSTYLE_BEGIN
 90
        3
 91
        2
300
_DATA
309
CELLSTYLE_END
  0
XRECORD
  5
3AA
102
{ACAD_REACTORS
330
2FE
102
}
330
2FE
100
AcDbXrecord
280
     1
102
ACAD_ROUNDTRIP_PRE2007_TABLESTYLE
 90
        4
 91
        0
  1

 92
        4
 93
        0
  2

 94
        4
 95
        0
  3

  0
XRECORD
  5
383
102
{ACAD_REACTORS
330
382
102
}
330
382
100
AcDbXrecord
280
     1
102
RTVSPost2010Prop28
280
     1
102
RTVSPost2010PropOp28
 70
     1
102
RTVSPost2010Prop29
280
     1
102
RTVSPost2010PropOp29
 70
     1
102
RTVSPost2010Prop30
280
     0
102
RTVSPost2010PropOp30
 70
     1
102
RTVSPost2010Prop31
280
     0
102
RTVSPost2010PropOp31
 70
     1
102
RTVSPost2010Prop32
280
     0
102
RTVSPost2010PropOp32
 70
     1
102
RTVSPost2010Prop33
280
     0
102
RTVSPost2010PropOp33
 70
     1
102
RTVSPost2010Prop34
280
     0
102
RTVSPost2010PropOp34
 70
     1
102
RTVSPost2010Prop35
280
     0
102
RTVSPost2010PropOp35
 70
     1
102
RTVSPost2010Prop36
280
     0
102
RTVSPost2010PropOp36
 70
     1
102
RTVSPost2010Prop37
 90
       50
102
RTVSPost2010PropOp37
 70
     1
102
RTVSPost2010Prop38
140
0.0
102
RTVSPost2010PropOp38
 70
     1
102
RTVSPost2010Prop39
140
1.0
102
RTVSPost2010PropOp39
 70
     1
102
RTVSPost2010Prop40
 90
        0
102
RTVSPost2010PropOp40
 70
     1
102
RTVSPost2010Prop41ColorIndex
 90
       18
102
RTVSPost2010Prop41ColorRGB
 90
        0
102
RTVSPost2010PropOp41
 70
     1
102
RTVSPost2010Prop42
 90
       50
102
RTVSPost2010PropOp42
 70
     1
102
RTVSPost2010Prop43
 90
        3
102
RTVSPost2010PropOp43
 70
     1
102
RTVSPost2010Prop44ColorIndex
 90
        5
102
RTVSPost2010Prop44ColorRGB
 90
      255
102
RTVSPost2010PropOp44
 70
     1
102
RTVSPost2010Prop45
280
     0
102
RTVSPost2010PropOp45
 70
     1
102
RTVSPost2010Prop46
 90
       50
102
RTVSPost2010PropOp46
 70
     1
102
RTVSPost2010Prop47
 90
       50
102
RTVSPost2010PropOp47
 70
     1
102
RTVSPost2010Prop48
 90
       50
102
RTVSPost2010PropOp48
 70
     1
102
RTVSPost2010Prop49
280
     0
102
RTVSPost2010PropOp49
 70
     1
102
RTVSPost2010Prop50
 90
       50
102
RTVSPost2010PropOp50
 70
     1
102
RTVSPost2010Prop51ColorIndex
 90
      256
102
RTVSPost2010Prop51ColorRGB
 90
-16777216
102
RTVSPost2010PropOp51
 70
     0
102
RTVSPost2010Prop52
140
1.0
102
RTVSPost2010PropOp52
 70
     0
102
RTVSPost2010Prop53
 90
        2
102
RTVSPost2010PropOp53
 70
     1
102
RTVSPost2010Prop54
  1
strokes_ogs.tif
102
RTVSPost2010PropOp54
 70
     1
102
RTVSPost2010Prop55
280
     0
102
RTVSPost2010PropOp55
 70
     1
102
RTVSPost2010Prop56
140
1.0
102
RTVSPost2010PropOp56
 70
     1
102
RTVSPost2010Prop57
140
1.0
102
RTVSPost2010PropOp57
 70
     1
102
RTVSPropertyOp0
 70
     1
102
RTVSPropertyOp1
 70
     1
102
RTVSPropertyOp2
 70
     1
102
RTVSPropertyOp3
 70
     1
102
RTVSPropertyOp4
 70
     1
102
RTVSPropertyOp5
 70
     1
102
RTVSPropertyOp6
 70
     1
102
RTVSPropertyOp7
 70
     1
102
RTVSPropertyOp8
 70
     1
102
RTVSPropertyOp9
 70
     1
102
RTVSPropertyOp10
 70
     1
102
RTVSPropertyOp11
 70
     1
102
RTVSPropertyOp12
 70
     1
102
RTVSPropertyOp13
 70
     1
102
RTVSPropertyOp14
 70
     1
102
RTVSPropertyOp15
 70
     1
102
RTVSPropertyOp16
 70
     1
102
RTVSPropertyOp17
 70
     1
102
RTVSPropertyOp18
 70
     1
102
RTVSPropertyOp19
 70
     1
102
RTVSPropertyOp20
 70
     1
102
RTVSPropertyOp21
 70
     1
102
RTVSPropertyOp22
 70
     1
102
RTVSPropertyOp23
 70
     1
102
RTVSPropertyOp24
 70
     1
102
RTVSPropertyOp25
 70
     1
102
RTVSPropertyOp26
 70
     1
102
RTVSPropertyOp27
 70
     1
102
RTVSPropertyOp28
 70
     1
102
RTVSPropertyOp29
 70
     1
102
RTVSPropertyOp30
 70
     1
102
RTVSPropertyOp31
 70
     1
102
RTVSPropertyOp32
 70
     1
102
RTVSPropertyOp33
 70
     1
102
RTVSPropertyOp34
 70
     1
102
RTVSPropertyOp35
 70
     1
102
RTVSPropertyOp36
 70
     1
102
RTVSPropertyOp37
 70
     1
102
RTVSPropertyOp38
 70
     1
102
RTVSPropertyOp39
 70
     1
102
RTVSPropertyOp40
 70
     1
102
RTVSPropertyOp41
 70
     1
102
RTVSPropertyOp42
 70
     1
102
RTVSPropertyOp43
 70
     1
102
RTVSPropertyOp44
 70
     1
102
RTVSPropertyOp45
 70
     1
102
RTVSPropertyOp46
 70
     1
102
RTVSPropertyOp47
 70
     1
102
RTVSPropertyOp48
 70
     1
102
RTVSPropertyOp49
 70
     1
102
RTVSPropertyOp50
 70
     1
102
RTVSPropertyOp51
 70
     0
102
RTVSPropertyOp52
 70
     0
102
RTVSPropertyOp53
 70
     1
102
RTVSPropertyOp54
 70
     1
102
RTVSPropertyOp55
 70
     1
102
RTVSPropertyOp56
 70
     1
102
RTVSPropertyOp57
 70
     1
102
RTVSPropertyOp58
 70
     1
102
RTVSPropertyOp59
 70
     1
102
RTVSPropertyOp60
 70
     1
102
RTVSPropertyOp61
 70
     1
102
RTVSPropertyOp62
 70
     1
  0
XRECORD
  5
389
102
{ACAD_REACTORS
330
388
102
}
330
388
100
AcDbXrecord
280
     1
102
RTVSPost2010Prop28
280
     0
102
RTVSPost2010PropOp28
 70
     1
102
RTVSPost2010Prop29
280
     1
102
RTVSPost2010PropOp29
 70
     1
102
RTVSPost2010Prop30
280
     1
102
RTVSPost2010PropOp30
 70
     1
102
RTVSPost2010Prop31
280
     0
102
RTVSPost2010PropOp31
 70
     1
102
RTVSPost2010Prop32
280
     0
102
RTVSPost2010PropOp32
 70
     1
102
RTVSPost2010Prop33
280
     0
102
RTVSPost2010PropOp33
 70
     1
102
RTVSPost2010Prop34
280
     0
102
RTVSPost2010PropOp34
 70
     1
102
RTVSPost2010Prop35
280
     0
102
RTVSPost2010PropOp35
 70
     1
102
RTVSPost2010Prop36
280
     0
102
RTVSPost2010PropOp36
 70
     1
102
RTVSPost2010Prop37
 90
       50
102
RTVSPost2010PropOp37
 70
     1
102
RTVSPost2010Prop38
140
0.0
102
RTVSPost2010PropOp38
 70
     1
102
RTVSPost2010Prop39
140
1.0
102
RTVSPost2010PropOp39
 70
     1
102
RTVSPost2010Prop40
 90
        0
102
RTVSPost2010PropOp40
 70
     1
102
RTVSPost2010Prop41ColorIndex
 90
       18
102
RTVSPost2010Prop41ColorRGB
 90
        0
102
RTVSPost2010PropOp41
 70
     1
102
RTVSPost2010Prop42
 90
       50
102
RTVSPost2010PropOp42
 70
     1
102
RTVSPost2010Prop43
 90
        3
102
RTVSPost2010PropOp43
 70
     1
102
RTVSPost2010Prop44ColorIndex
 90
        5
102
RTVSPost2010Prop44ColorRGB
 90
      255
102
RTVSPost2010PropOp44
 70
     1
102
RTVSPost2010Prop45
280
     0
102
RTVSPost2010PropOp45
 70
     1
102
RTVSPost2010Prop46
 90
       50
102
RTVSPost2010PropOp46
 70
     1
102
RTVSPost2010Prop47
 90
       50
102
RTVSPost2010PropOp47
 70
     1
102
RTVSPost2010Prop48
 90
       50
102
RTVSPost2010PropOp48
 70
     1
102
RTVSPost2010Prop49
280
     0
102
RTVSPost2010PropOp49
 70
     1
102
RTVSPost2010Prop50
 90
       50
102
RTVSPost2010PropOp50
 70
     1
102
RTVSPost2010Prop51ColorIndex
 90
      256
102
RTVSPost2010Prop51ColorRGB
 90
-16777216
102
RTVSPost2010PropOp51
 70
     0
102
RTVSPost2010Prop52
140
1.0
102
RTVSPost2010PropOp52
 70
     0
102
RTVSPost2010Prop53
 90
        2
102
RTVSPost2010PropOp53
 70
     1
102
RTVSPost2010Prop54
  1
strokes_ogs.tif
102
RTVSPost2010PropOp54
 70
     1
102
RTVSPost2010Prop55
280
     0
102
RTVSPost2010PropOp55
 70
     1
102
RTVSPost2010Prop56
140
1.0
102
RTVSPost2010PropOp56
 70
     1
102
RTVSPost2010Prop57
140
1.0
102
RTVSPost2010PropOp57
 70
     1
102
RTVSPropertyOp0
 70
     1
102
RTVSPropertyOp1
 70
     1
102
RTVSPropertyOp2
 70
     1
102
RTVSPropertyOp3
 70
     1
102
RTVSPropertyOp4
 70
     1
102
RTVSPropertyOp5
 70
     1
102
RTVSPropertyOp6
 70
     1
102
RTVSPropertyOp7
 70
     1
102
RTVSPropertyOp8
 70
     1
102
RTVSPropertyOp9
 70
     1
102
RTVSPropertyOp10
 70
     1
102
RTVSPropertyOp11
 70
     1
102
RTVSPropertyOp12
 70
     1
102
RTVSPropertyOp13
 70
     1
102
RTVSPropertyOp14
 70
     1
102
RTVSPropertyOp15
 70
     1
102
RTVSPropertyOp16
 70
     1
102
RTVSPropertyOp17
 70
     1
102
RTVSPropertyOp18
 70
     1
102
RTVSPropertyOp19
 70
     1
102
RTVSPropertyOp20
 70
     1
102
RTVSPropertyOp21
 70
     1
102
RTVSPropertyOp22
 70
     1
102
RTVSPropertyOp23
 70
     1
102
RTVSPropertyOp24
 70
     1
102
RTVSPropertyOp25
 70
     1
102
RTVSPropertyOp26
 70
     1
102
RTVSPropertyOp27
 70
     1
102
RTVSPropertyOp28
 70
     1
102
RTVSPropertyOp29
 70
     1
102
RTVSPropertyOp30
 70
     1
102
RTVSPropertyOp31
 70
     1
102
RTVSPropertyOp32
 70
     1
102
RTVSPropertyOp33
 70
     1
102
RTVSPropertyOp34
 70
     1
102
RTVSPropertyOp35
 70
     1
102
RTVSPropertyOp36
 70
     1
102
RTVSPropertyOp37
 70
     1
102
RTVSPropertyOp38
 70
     1
102
RTVSPropertyOp39
 70
     1
102
RTVSPropertyOp40
 70
     1
102
RTVSPropertyOp41
 70
     1
102
RTVSPropertyOp42
 70
     1
102
RTVSPropertyOp43
 70
     1
102
RTVSPropertyOp44
 70
     1
102
RTVSPropertyOp45
 70
     1
102
RTVSPropertyOp46
 70
     1
102
RTVSPropertyOp47
 70
     1
102
RTVSPropertyOp48
 70
     1
102
RTVSPropertyOp49
 70
     1
102
RTVSPropertyOp50
 70
     1
102
RTVSPropertyOp51
 70
     0
102
RTVSPropertyOp52
 70
     0
102
RTVSPropertyOp53
 70
     1
102
RTVSPropertyOp54
 70
     1
102
RTVSPropertyOp55
 70
     1
102
RTVSPropertyOp56
 70
     1
102
RTVSPropertyOp57
 70
     1
102
RTVSPropertyOp58
 70
     1
102
RTVSPropertyOp59
 70
     1
102
RTVSPropertyOp60
 70
     1
102
RTVSPropertyOp61
 70
     1
102
RTVSPropertyOp62
 70
     1
  0
XRECORD
  5
391
102
{ACAD_REACTORS
330
390
102
}
330
390
100
AcDbXrecord
280
     1
102
RTVSPost2010Prop28
280
     0
102
RTVSPost2010PropOp28
 70
     1
102
RTVSPost2010Prop29
280
     1
102
RTVSPost2010PropOp29
 70
     1
102
RTVSPost2010Prop30
280
     1
102
RTVSPost2010PropOp30
 70
     1
102
RTVSPost2010Prop31
280
     0
102
RTVSPost2010PropOp31
 70
     1
102
RTVSPost2010Prop32
280
     0
102
RTVSPost2010PropOp32
 70
     1
102
RTVSPost2010Prop33
280
     0
102
RTVSPost2010PropOp33
 70
     1
102
RTVSPost2010Prop34
280
     0
102
RTVSPost2010PropOp34
 70
     1
102
RTVSPost2010Prop35
280
     0
102
RTVSPost2010PropOp35
 70
     1
102
RTVSPost2010Prop36
280
     0
102
RTVSPost2010PropOp36
 70
     1
102
RTVSPost2010Prop37
 90
       50
102
RTVSPost2010PropOp37
 70
     1
102
RTVSPost2010Prop38
140
0.0
102
RTVSPost2010PropOp38
 70
     1
102
RTVSPost2010Prop39
140
1.0
102
RTVSPost2010PropOp39
 70
     1
102
RTVSPost2010Prop40
 90
        0
102
RTVSPost2010PropOp40
 70
     1
102
RTVSPost2010Prop41ColorIndex
 90
       18
102
RTVSPost2010Prop41ColorRGB
 90
        0
102
RTVSPost2010PropOp41
 70
     1
102
RTVSPost2010Prop42
 90
       50
102
RTVSPost2010PropOp42
 70
     1
102
RTVSPost2010Prop43
 90
        3
102
RTVSPost2010PropOp43
 70
     1
102
RTVSPost2010Prop44ColorIndex
 90
        5
102
RTVSPost2010Prop44ColorRGB
 90
      255
102
RTVSPost2010PropOp44
 70
     1
102
RTVSPost2010Prop45
280
     0
102
RTVSPost2010PropOp45
 70
     1
102
RTVSPost2010Prop46
 90
       50
102
RTVSPost2010PropOp46
 70
     1
102
RTVSPost2010Prop47
 90
       50
102
RTVSPost2010PropOp47
 70
     1
102
RTVSPost2010Prop48
 90
       50
102
RTVSPost2010PropOp48
 70
     1
102
RTVSPost2010Prop49
280
     0
102
RTVSPost2010PropOp49
 70
     1
102
RTVSPost2010Prop50
 90
       50
102
RTVSPost2010PropOp50
 70
     1
102
RTVSPost2010Prop51ColorIndex
 90
      256
102
RTVSPost2010Prop51ColorRGB
 90
-16777216
102
RTVSPost2010PropOp51
 70
     0
102
RTVSPost2010Prop52
140
1.0
102
RTVSPost2010PropOp52
 70
     0
102
RTVSPost2010Prop53
 90
        2
102
RTVSPost2010PropOp53
 70
     1
102
RTVSPost2010Prop54
  1
strokes_ogs.tif
102
RTVSPost2010PropOp54
 70
     1
102
RTVSPost2010Prop55
280
     0
102
RTVSPost2010PropOp55
 70
     1
102
RTVSPost2010Prop56
140
1.0
102
RTVSPost2010PropOp56
 70
     1
102
RTVSPost2010Prop57
140
1.0
102
RTVSPost2010PropOp57
 70
     1
102
RTVSPropertyOp0
 70
     1
102
RTVSPropertyOp1
 70
     1
102
RTVSPropertyOp2
 70
     1
102
RTVSPropertyOp3
 70
     1
102
RTVSPropertyOp4
 70
     1
102
RTVSPropertyOp5
 70
     1
102
RTVSPropertyOp6
 70
     1
102
RTVSPropertyOp7
 70
     1
102
RTVSPropertyOp8
 70
     1
102
RTVSPropertyOp9
 70
     1
102
RTVSPropertyOp10
 70
     1
102
RTVSPropertyOp11
 70
     1
102
RTVSPropertyOp12
 70
     1
102
RTVSPropertyOp13
 70
     1
102
RTVSPropertyOp14
 70
     1
102
RTVSPropertyOp15
 70
     1
102
RTVSPropertyOp16
 70
     1
102
RTVSPropertyOp17
 70
     1
102
RTVSPropertyOp18
 70
     1
102
RTVSPropertyOp19
 70
     1
102
RTVSPropertyOp20
 70
     1
102
RTVSPropertyOp21
 70
     1
102
RTVSPropertyOp22
 70
     1
102
RTVSPropertyOp23
 70
     1
102
RTVSPropertyOp24
 70
     1
102
RTVSPropertyOp25
 70
     1
102
RTVSPropertyOp26
 70
     1
102
RTVSPropertyOp27
 70
     1
102
RTVSPropertyOp28
 70
     1
102
RTVSPropertyOp29
 70
     1
102
RTVSPropertyOp30
 70
     1
102
RTVSPropertyOp31
 70
     1
102
RTVSPropertyOp32
 70
     1
102
RTVSPropertyOp33
 70
     1
102
RTVSPropertyOp34
 70
     1
102
RTVSPropertyOp35
 70
     1
102
RTVSPropertyOp36
 70
     1
102
RTVSPropertyOp37
 70
     1
102
RTVSPropertyOp38
 70
     1
102
RTVSPropertyOp39
 70
     1
102
RTVSPropertyOp40
 70
     1
102
RTVSPropertyOp41
 70
     1
102
RTVSPropertyOp42
 70
     1
102
RTVSPropertyOp43
 70
     1
102
RTVSPropertyOp44
 70
     1
102
RTVSPropertyOp45
 70
     1
102
RTVSPropertyOp46
 70
     1
102
RTVSPropertyOp47
 70
     1
102
RTVSPropertyOp48
 70
     1
102
RTVSPropertyOp49
 70
     1
102
RTVSPropertyOp50
 70
     1
102
RTVSPropertyOp51
 70
     0
102
RTVSPropertyOp52
 70
     0
102
RTVSPropertyOp53
 70
     1
102
RTVSPropertyOp54
 70
     1
102
RTVSPropertyOp55
 70
     1
102
RTVSPropertyOp56
 70
     1
102
RTVSPropertyOp57
 70
     1
102
RTVSPropertyOp58
 70
     1
102
RTVSPropertyOp59
 70
     1
102
RTVSPropertyOp60
 70
     1
102
RTVSPropertyOp61
 70
     1
102
RTVSPropertyOp62
 70
     1
  0
XRECORD
  5
399
102
{ACAD_REACTORS
330
398
102
}
330
398
100
AcDbXrecord
280
     1
102
RTVSPost2010Prop28
280
     0
102
RTVSPost2010PropOp28
 70
     1
102
RTVSPost2010Prop29
280
     1
102
RTVSPost2010PropOp29
 70
     1
102
RTVSPost2010Prop30
280
     1
102
RTVSPost2010PropOp30
 70
     1
102
RTVSPost2010Prop31
280
     0
102
RTVSPost2010PropOp31
 70
     1
102
RTVSPost2010Prop32
280
     0
102
RTVSPost2010PropOp32
 70
     1
102
RTVSPost2010Prop33
280
     0
102
RTVSPost2010PropOp33
 70
     1
102
RTVSPost2010Prop34
280
     0
102
RTVSPost2010PropOp34
 70
     1
102
RTVSPost2010Prop35
280
     0
102
RTVSPost2010PropOp35
 70
     1
102
RTVSPost2010Prop36
280
     0
102
RTVSPost2010PropOp36
 70
     1
102
RTVSPost2010Prop37
 90
       50
102
RTVSPost2010PropOp37
 70
     1
102
RTVSPost2010Prop38
140
0.0
102
RTVSPost2010PropOp38
 70
     1
102
RTVSPost2010Prop39
140
1.0
102
RTVSPost2010PropOp39
 70
     1
102
RTVSPost2010Prop40
 90
        0
102
RTVSPost2010PropOp40
 70
     1
102
RTVSPost2010Prop41ColorIndex
 90
       18
102
RTVSPost2010Prop41ColorRGB
 90
        0
102
RTVSPost2010PropOp41
 70
     1
102
RTVSPost2010Prop42
 90
       50
102
RTVSPost2010PropOp42
 70
     1
102
RTVSPost2010Prop43
 90
        3
102
RTVSPost2010PropOp43
 70
     1
102
RTVSPost2010Prop44ColorIndex
 90
        5
102
RTVSPost2010Prop44ColorRGB
 90
      255
102
RTVSPost2010PropOp44
 70
     1
102
RTVSPost2010Prop45
280
     0
102
RTVSPost2010PropOp45
 70
     1
102
RTVSPost2010Prop46
 90
       50
102
RTVSPost2010PropOp46
 70
     1
102
RTVSPost2010Prop47
 90
       50
102
RTVSPost2010PropOp47
 70
     1
102
RTVSPost2010Prop48
 90
       50
102
RTVSPost2010PropOp48
 70
     1
102
RTVSPost2010Prop49
280
     0
102
RTVSPost2010PropOp49
 70
     1
102
RTVSPost2010Prop50
 90
       50
102
RTVSPost2010PropOp50
 70
     1
102
RTVSPost2010Prop51ColorIndex
 90
      256
102
RTVSPost2010Prop51ColorRGB
 90
-16777216
102
RTVSPost2010PropOp51
 70
     0
102
RTVSPost2010Prop52
140
1.0
102
RTVSPost2010PropOp52
 70
     0
102
RTVSPost2010Prop53
 90
        2
102
RTVSPost2010PropOp53
 70
     1
102
RTVSPost2010Prop54
  1
strokes_ogs.tif
102
RTVSPost2010PropOp54
 70
     1
102
RTVSPost2010Prop55
280
     0
102
RTVSPost2010PropOp55
 70
     1
102
RTVSPost2010Prop56
140
1.0
102
RTVSPost2010PropOp56
 70
     1
102
RTVSPost2010Prop57
140
1.0
102
RTVSPost2010PropOp57
 70
     1
102
RTVSPropertyOp0
 70
     1
102
RTVSPropertyOp1
 70
     1
102
RTVSPropertyOp2
 70
     1
102
RTVSPropertyOp3
 70
     1
102
RTVSPropertyOp4
 70
     1
102
RTVSPropertyOp5
 70
     1
102
RTVSPropertyOp6
 70
     1
102
RTVSPropertyOp7
 70
     1
102
RTVSPropertyOp8
 70
     1
102
RTVSPropertyOp9
 70
     1
102
RTVSPropertyOp10
 70
     1
102
RTVSPropertyOp11
 70
     1
102
RTVSPropertyOp12
 70
     1
102
RTVSPropertyOp13
 70
     1
102
RTVSPropertyOp14
 70
     1
102
RTVSPropertyOp15
 70
     1
102
RTVSPropertyOp16
 70
     1
102
RTVSPropertyOp17
 70
     1
102
RTVSPropertyOp18
 70
     1
102
RTVSPropertyOp19
 70
     1
102
RTVSPropertyOp20
 70
     1
102
RTVSPropertyOp21
 70
     1
102
RTVSPropertyOp22
 70
     1
102
RTVSPropertyOp23
 70
     1
102
RTVSPropertyOp24
 70
     1
102
RTVSPropertyOp25
 70
     1
102
RTVSPropertyOp26
 70
     1
102
RTVSPropertyOp27
 70
     1
102
RTVSPropertyOp28
 70
     1
102
RTVSPropertyOp29
 70
     1
102
RTVSPropertyOp30
 70
     1
102
RTVSPropertyOp31
 70
     1
102
RTVSPropertyOp32
 70
     1
102
RTVSPropertyOp33
 70
     1
102
RTVSPropertyOp34
 70
     1
102
RTVSPropertyOp35
 70
     1
102
RTVSPropertyOp36
 70
     1
102
RTVSPropertyOp37
 70
     1
102
RTVSPropertyOp38
 70
     1
102
RTVSPropertyOp39
 70
     1
102
RTVSPropertyOp40
 70
     1
102
RTVSPropertyOp41
 70
     1
102
RTVSPropertyOp42
 70
     1
102
RTVSPropertyOp43
 70
     1
102
RTVSPropertyOp44
 70
     1
102
RTVSPropertyOp45
 70
     1
102
RTVSPropertyOp46
 70
     1
102
RTVSPropertyOp47
 70
     1
102
RTVSPropertyOp48
 70
     1
102
RTVSPropertyOp49
 70
     1
102
RTVSPropertyOp50
 70
     1
102
RTVSPropertyOp51
 70
     0
102
RTVSPropertyOp52
 70
     0
102
RTVSPropertyOp53
 70
     1
102
RTVSPropertyOp54
 70
     1
102
RTVSPropertyOp55
 70
     1
102
RTVSPropertyOp56
 70
     1
102
RTVSPropertyOp57
 70
     1
102
RTVSPropertyOp58
 70
     1
102
RTVSPropertyOp59
 70
     1
102
RTVSPropertyOp60
 70
     1
102
RTVSPropertyOp61
 70
     1
102
RTVSPropertyOp62
 70
     1
  0
XRECORD
  5
38D
102
{ACAD_REACTORS
330
38C
102
}
330
38C
100
AcDbXrecord
280
     1
102
RTVSPost2010Prop28
280
     0
102
RTVSPost2010PropOp28
 70
     1
102
RTVSPost2010Prop29
280
     1
102
RTVSPost2010PropOp29
 70
     1
102
RTVSPost2010Prop30
280
     1
102
RTVSPost2010PropOp30
 70
     1
102
RTVSPost2010Prop31
280
     0
102
RTVSPost2010PropOp31
 70
     1
102
RTVSPost2010Prop32
280
     0
102
RTVSPost2010PropOp32
 70
     1
102
RTVSPost2010Prop33
280
     0
102
RTVSPost2010PropOp33
 70
     1
102
RTVSPost2010Prop34
280
     0
102
RTVSPost2010PropOp34
 70
     1
102
RTVSPost2010Prop35
280
     0
102
RTVSPost2010PropOp35
 70
     1
102
RTVSPost2010Prop36
280
     0
102
RTVSPost2010PropOp36
 70
     1
102
RTVSPost2010Prop37
 90
       50
102
RTVSPost2010PropOp37
 70
     1
102
RTVSPost2010Prop38
140
0.0
102
RTVSPost2010PropOp38
 70
     1
102
RTVSPost2010Prop39
140
1.0
102
RTVSPost2010PropOp39
 70
     1
102
RTVSPost2010Prop40
 90
        0
102
RTVSPost2010PropOp40
 70
     1
102
RTVSPost2010Prop41ColorIndex
 90
       18
102
RTVSPost2010Prop41ColorRGB
 90
        0
102
RTVSPost2010PropOp41
 70
     1
102
RTVSPost2010Prop42
 90
       50
102
RTVSPost2010PropOp42
 70
     1
102
RTVSPost2010Prop43
 90
        3
102
RTVSPost2010PropOp43
 70
     1
102
RTVSPost2010Prop44ColorIndex
 90
        5
102
RTVSPost2010Prop44ColorRGB
 90
      255
102
RTVSPost2010PropOp44
 70
     1
102
RTVSPost2010Prop45
280
     0
102
RTVSPost2010PropOp45
 70
     1
102
RTVSPost2010Prop46
 90
       50
102
RTVSPost2010PropOp46
 70
     1
102
RTVSPost2010Prop47
 90
       50
102
RTVSPost2010PropOp47
 70
     1
102
RTVSPost2010Prop48
 90
       50
102
RTVSPost2010PropOp48
 70
     1
102
RTVSPost2010Prop49
280
     0
102
RTVSPost2010PropOp49
 70
     1
102
RTVSPost2010Prop50
 90
       50
102
RTVSPost2010PropOp50
 70
     1
102
RTVSPost2010Prop51ColorIndex
 90
      256
102
RTVSPost2010Prop51ColorRGB
 90
-16777216
102
RTVSPost2010PropOp51
 70
     0
102
RTVSPost2010Prop52
140
1.0
102
RTVSPost2010PropOp52
 70
     0
102
RTVSPost2010Prop53
 90
        2
102
RTVSPost2010PropOp53
 70
     1
102
RTVSPost2010Prop54
  1
strokes_ogs.tif
102
RTVSPost2010PropOp54
 70
     1
102
RTVSPost2010Prop55
280
     0
102
RTVSPost2010PropOp55
 70
     1
102
RTVSPost2010Prop56
140
1.0
102
RTVSPost2010PropOp56
 70
     1
102
RTVSPost2010Prop57
140
1.0
102
RTVSPost2010PropOp57
 70
     1
102
RTVSPropertyOp0
 70
     1
102
RTVSPropertyOp1
 70
     1
102
RTVSPropertyOp2
 70
     1
102
RTVSPropertyOp3
 70
     1
102
RTVSPropertyOp4
 70
     1
102
RTVSPropertyOp5
 70
     1
102
RTVSPropertyOp6
 70
     1
102
RTVSPropertyOp7
 70
     1
102
RTVSPropertyOp8
 70
     1
102
RTVSPropertyOp9
 70
     1
102
RTVSPropertyOp10
 70
     1
102
RTVSPropertyOp11
 70
     1
102
RTVSPropertyOp12
 70
     1
102
RTVSPropertyOp13
 70
     1
102
RTVSPropertyOp14
 70
     1
102
RTVSPropertyOp15
 70
     1
102
RTVSPropertyOp16
 70
     1
102
RTVSPropertyOp17
 70
     1
102
RTVSPropertyOp18
 70
     1
102
RTVSPropertyOp19
 70
     1
102
RTVSPropertyOp20
 70
     1
102
RTVSPropertyOp21
 70
     1
102
RTVSPropertyOp22
 70
     1
102
RTVSPropertyOp23
 70
     1
102
RTVSPropertyOp24
 70
     1
102
RTVSPropertyOp25
 70
     1
102
RTVSPropertyOp26
 70
     1
102
RTVSPropertyOp27
 70
     1
102
RTVSPropertyOp28
 70
     1
102
RTVSPropertyOp29
 70
     1
102
RTVSPropertyOp30
 70
     1
102
RTVSPropertyOp31
 70
     1
102
RTVSPropertyOp32
 70
     1
102
RTVSPropertyOp33
 70
     1
102
RTVSPropertyOp34
 70
     1
102
RTVSPropertyOp35
 70
     1
102
RTVSPropertyOp36
 70
     1
102
RTVSPropertyOp37
 70
     1
102
RTVSPropertyOp38
 70
     1
102
RTVSPropertyOp39
 70
     1
102
RTVSPropertyOp40
 70
     1
102
RTVSPropertyOp41
 70
     1
102
RTVSPropertyOp42
 70
     1
102
RTVSPropertyOp43
 70
     1
102
RTVSPropertyOp44
 70
     1
102
RTVSPropertyOp45
 70
     1
102
RTVSPropertyOp46
 70
     1
102
RTVSPropertyOp47
 70
     1
102
RTVSPropertyOp48
 70
     1
102
RTVSPropertyOp49
 70
     1
102
RTVSPropertyOp50
 70
     1
102
RTVSPropertyOp51
 70
     0
102
RTVSPropertyOp52
 70
     0
102
RTVSPropertyOp53
 70
     1
102
RTVSPropertyOp54
 70
     1
102
RTVSPropertyOp55
 70
     1
102
RTVSPropertyOp56
 70
     1
102
RTVSPropertyOp57
 70
     1
102
RTVSPropertyOp58
 70
     1
102
RTVSPropertyOp59
 70
     1
102
RTVSPropertyOp60
 70
     1
102
RTVSPropertyOp61
 70
     1
102
RTVSPropertyOp62
 70
     1
  0
XRECORD
  5
38F
102
{ACAD_REACTORS
330
38E
102
}
330
38E
100
AcDbXrecord
280
     1
102
RTVSPost2010Prop28
280
     0
102
RTVSPost2010PropOp28
 70
     1
102
RTVSPost2010Prop29
280
     1
102
RTVSPost2010PropOp29
 70
     1
102
RTVSPost2010Prop30
280
     1
102
RTVSPost2010PropOp30
 70
     1
102
RTVSPost2010Prop31
280
     0
102
RTVSPost2010PropOp31
 70
     1
102
RTVSPost2010Prop32
280
     0
102
RTVSPost2010PropOp32
 70
     1
102
RTVSPost2010Prop33
280
     0
102
RTVSPost2010PropOp33
 70
     1
102
RTVSPost2010Prop34
280
     0
102
RTVSPost2010PropOp34
 70
     1
102
RTVSPost2010Prop35
280
     0
102
RTVSPost2010PropOp35
 70
     1
102
RTVSPost2010Prop36
280
     0
102
RTVSPost2010PropOp36
 70
     1
102
RTVSPost2010Prop37
 90
       50
102
RTVSPost2010PropOp37
 70
     1
102
RTVSPost2010Prop38
140
0.0
102
RTVSPost2010PropOp38
 70
     1
102
RTVSPost2010Prop39
140
1.0
102
RTVSPost2010PropOp39
 70
     1
102
RTVSPost2010Prop40
 90
        0
102
RTVSPost2010PropOp40
 70
     1
102
RTVSPost2010Prop41ColorIndex
 90
       18
102
RTVSPost2010Prop41ColorRGB
 90
        0
102
RTVSPost2010PropOp41
 70
     1
102
RTVSPost2010Prop42
 90
       50
102
RTVSPost2010PropOp42
 70
     1
102
RTVSPost2010Prop43
 90
        3
102
RTVSPost2010PropOp43
 70
     1
102
RTVSPost2010Prop44ColorIndex
 90
        5
102
RTVSPost2010Prop44ColorRGB
 90
      255
102
RTVSPost2010PropOp44
 70
     1
102
RTVSPost2010Prop45
280
     0
102
RTVSPost2010PropOp45
 70
     1
102
RTVSPost2010Prop46
 90
       50
102
RTVSPost2010PropOp46
 70
     1
102
RTVSPost2010Prop47
 90
       50
102
RTVSPost2010PropOp47
 70
     1
102
RTVSPost2010Prop48
 90
       50
102
RTVSPost2010PropOp48
 70
     1
102
RTVSPost2010Prop49
280
     0
102
RTVSPost2010PropOp49
 70
     1
102
RTVSPost2010Prop50
 90
       50
102
RTVSPost2010PropOp50
 70
     1
102
RTVSPost2010Prop51ColorIndex
 90
      256
102
RTVSPost2010Prop51ColorRGB
 90
-16777216
102
RTVSPost2010PropOp51
 70
     0
102
RTVSPost2010Prop52
140
1.0
102
RTVSPost2010PropOp52
 70
     0
102
RTVSPost2010Prop53
 90
        2
102
RTVSPost2010PropOp53
 70
     1
102
RTVSPost2010Prop54
  1
strokes_ogs.tif
102
RTVSPost2010PropOp54
 70
     1
102
RTVSPost2010Prop55
280
     0
102
RTVSPost2010PropOp55
 70
     1
102
RTVSPost2010Prop56
140
1.0
102
RTVSPost2010PropOp56
 70
     1
102
RTVSPost2010Prop57
140
1.0
102
RTVSPost2010PropOp57
 70
     1
102
RTVSPropertyOp0
 70
     1
102
RTVSPropertyOp1
 70
     1
102
RTVSPropertyOp2
 70
     1
102
RTVSPropertyOp3
 70
     1
102
RTVSPropertyOp4
 70
     1
102
RTVSPropertyOp5
 70
     1
102
RTVSPropertyOp6
 70
     1
102
RTVSPropertyOp7
 70
     1
102
RTVSPropertyOp8
 70
     1
102
RTVSPropertyOp9
 70
     1
102
RTVSPropertyOp10
 70
     1
102
RTVSPropertyOp11
 70
     1
102
RTVSPropertyOp12
 70
     1
102
RTVSPropertyOp13
 70
     1
102
RTVSPropertyOp14
 70
     1
102
RTVSPropertyOp15
 70
     1
102
RTVSPropertyOp16
 70
     1
102
RTVSPropertyOp17
 70
     1
102
RTVSPropertyOp18
 70
     1
102
RTVSPropertyOp19
 70
     1
102
RTVSPropertyOp20
 70
     1
102
RTVSPropertyOp21
 70
     1
102
RTVSPropertyOp22
 70
     1
102
RTVSPropertyOp23
 70
     1
102
RTVSPropertyOp24
 70
     1
102
RTVSPropertyOp25
 70
     1
102
RTVSPropertyOp26
 70
     1
102
RTVSPropertyOp27
 70
     1
102
RTVSPropertyOp28
 70
     1
102
RTVSPropertyOp29
 70
     1
102
RTVSPropertyOp30
 70
     1
102
RTVSPropertyOp31
 70
     1
102
RTVSPropertyOp32
 70
     1
102
RTVSPropertyOp33
 70
     1
102
RTVSPropertyOp34
 70
     1
102
RTVSPropertyOp35
 70
     1
102
RTVSPropertyOp36
 70
     1
102
RTVSPropertyOp37
 70
     1
102
RTVSPropertyOp38
 70
     1
102
RTVSPropertyOp39
 70
     1
102
RTVSPropertyOp40
 70
     1
102
RTVSPropertyOp41
 70
     1
102
RTVSPropertyOp42
 70
     1
102
RTVSPropertyOp43
 70
     1
102
RTVSPropertyOp44
 70
     1
102
RTVSPropertyOp45
 70
     1
102
RTVSPropertyOp46
 70
     1
102
RTVSPropertyOp47
 70
     1
102
RTVSPropertyOp48
 70
     1
102
RTVSPropertyOp49
 70
     1
102
RTVSPropertyOp50
 70
     1
102
RTVSPropertyOp51
 70
     0
102
RTVSPropertyOp52
 70
     0
102
RTVSPropertyOp53
 70
     1
102
RTVSPropertyOp54
 70
     1
102
RTVSPropertyOp55
 70
     1
102
RTVSPropertyOp56
 70
     1
102
RTVSPropertyOp57
 70
     1
102
RTVSPropertyOp58
 70
     1
102
RTVSPropertyOp59
 70
     1
102
RTVSPropertyOp60
 70
     1
102
RTVSPropertyOp61
 70
     1
102
RTVSPropertyOp62
 70
     1
  0
XRECORD
  5
39F
102
{ACAD_REACTORS
330
39E
102
}
330
39E
100
AcDbXrecord
280
     1
102
RTVSPost2010Prop28
280
     0
102
RTVSPost2010PropOp28
 70
     0
102
RTVSPost2010Prop29
280
     1
102
RTVSPost2010PropOp29
 70
     0
102
RTVSPost2010Prop30
280
     1
102
RTVSPost2010PropOp30
 70
     0
102
RTVSPost2010Prop31
280
     0
102
RTVSPost2010PropOp31
 70
     0
102
RTVSPost2010Prop32
280
     0
102
RTVSPost2010PropOp32
 70
     0
102
RTVSPost2010Prop33
280
     0
102
RTVSPost2010PropOp33
 70
     0
102
RTVSPost2010Prop34
280
     0
102
RTVSPost2010PropOp34
 70
     0
102
RTVSPost2010Prop35
280
     0
102
RTVSPost2010PropOp35
 70
     0
102
RTVSPost2010Prop36
280
     0
102
RTVSPost2010PropOp36
 70
     0
102
RTVSPost2010Prop37
 90
       50
102
RTVSPost2010PropOp37
 70
     0
102
RTVSPost2010Prop38
140
0.0
102
RTVSPost2010PropOp38
 70
     0
102
RTVSPost2010Prop39
140
1.0
102
RTVSPost2010PropOp39
 70
     0
102
RTVSPost2010Prop40
 90
        0
102
RTVSPost2010PropOp40
 70
     0
102
RTVSPost2010Prop41ColorIndex
 90
       18
102
RTVSPost2010Prop41ColorRGB
 90
        0
102
RTVSPost2010PropOp41
 70
     0
102
RTVSPost2010Prop42
 90
       50
102
RTVSPost2010PropOp42
 70
     0
102
RTVSPost2010Prop43
 90
        3
102
RTVSPost2010PropOp43
 70
     0
102
RTVSPost2010Prop44ColorIndex
 90
        5
102
RTVSPost2010Prop44ColorRGB
 90
      255
102
RTVSPost2010PropOp44
 70
     0
102
RTVSPost2010Prop45
280
     0
102
RTVSPost2010PropOp45
 70
     0
102
RTVSPost2010Prop46
 90
       50
102
RTVSPost2010PropOp46
 70
     0
102
RTVSPost2010Prop47
 90
       50
102
RTVSPost2010PropOp47
 70
     0
102
RTVSPost2010Prop48
 90
       50
102
RTVSPost2010PropOp48
 70
     0
102
RTVSPost2010Prop49
280
     0
102
RTVSPost2010PropOp49
 70
     0
102
RTVSPost2010Prop50
 90
       50
102
RTVSPost2010PropOp50
 70
     0
102
RTVSPost2010Prop51ColorIndex
 90
      256
102
RTVSPost2010Prop51ColorRGB
 90
-16777216
102
RTVSPost2010PropOp51
 70
     0
102
RTVSPost2010Prop52
140
1.0
102
RTVSPost2010PropOp52
 70
     0
102
RTVSPost2010Prop53
 90
        2
102
RTVSPost2010PropOp53
 70
     0
102
RTVSPost2010Prop54
  1
strokes_ogs.tif
102
RTVSPost2010PropOp54
 70
     0
102
RTVSPost2010Prop55
280
     0
102
RTVSPost2010PropOp55
 70
     0
102
RTVSPost2010Prop56
140
1.0
102
RTVSPost2010PropOp56
 70
     0
102
RTVSPost2010Prop57
140
1.0
102
RTVSPost2010PropOp57
 70
     0
102
RTVSPropertyOp0
 70
     0
102
RTVSPropertyOp1
 70
     0
102
RTVSPropertyOp2
 70
     0
102
RTVSPropertyOp3
 70
     0
102
RTVSPropertyOp4
 70
     0
102
RTVSPropertyOp5
 70
     0
102
RTVSPropertyOp6
 70
     0
102
RTVSPropertyOp7
 70
     0
102
RTVSPropertyOp8
 70
     0
102
RTVSPropertyOp9
 70
     0
102
RTVSPropertyOp10
 70
     0
102
RTVSPropertyOp11
 70
     0
102
RTVSPropertyOp12
 70
     0
102
RTVSPropertyOp13
 70
     0
102
RTVSPropertyOp14
 70
     2
102
RTVSPropertyOp15
 70
     0
102
RTVSPropertyOp16
 70
     0
102
RTVSPropertyOp17
 70
     0
102
RTVSPropertyOp18
 70
     0
102
RTVSPropertyOp19
 70
     0
102
RTVSPropertyOp20
 70
     0
102
RTVSPropertyOp21
 70
     0
102
RTVSPropertyOp22
 70
     0
102
RTVSPropertyOp23
 70
     0
102
RTVSPropertyOp24
 70
     0
102
RTVSPropertyOp25
 70
     0
102
RTVSPropertyOp26
 70
     0
102
RTVSPropertyOp27
 70
     0
102
RTVSPropertyOp28
 70
     0
102
RTVSPropertyOp29
 70
     0
102
RTVSPropertyOp30
 70
     0
102
RTVSPropertyOp31
 70
     0
102
RTVSPropertyOp32
 70
     0
102
RTVSPropertyOp33
 70
     0
102
RTVSPropertyOp34
 70
     0
102
RTVSPropertyOp35
 70
     0
102
RTVSPropertyOp36
 70
     0
102
RTVSPropertyOp37
 70
     0
102
RTVSPropertyOp38
 70
     0
102
RTVSPropertyOp39
 70
     0
102
RTVSPropertyOp40
 70
     0
102
RTVSPropertyOp41
 70
     0
102
RTVSPropertyOp42
 70
     0
102
RTVSPropertyOp43
 70
     0
102
RTVSPropertyOp44
 70
     0
102
RTVSPropertyOp45
 70
     0
102
RTVSPropertyOp46
 70
     0
102
RTVSPropertyOp47
 70
     0
102
RTVSPropertyOp48
 70
     0
102
RTVSPropertyOp49
 70
     0
102
RTVSPropertyOp50
 70
     0
102
RTVSPropertyOp51
 70
     0
102
RTVSPropertyOp52
 70
     0
102
RTVSPropertyOp53
 70
     0
102
RTVSPropertyOp54
 70
     0
102
RTVSPropertyOp55
 70
     0
102
RTVSPropertyOp56
 70
     0
102
RTVSPropertyOp57
 70
     0
102
RTVSPropertyOp58
 70
     1
102
RTVSPropertyOp59
 70
     1
102
RTVSPropertyOp60
 70
     1
102
RTVSPropertyOp61
 70
     1
102
RTVSPropertyOp62
 70
     1
  0
XRECORD
  5
397
102
{ACAD_REACTORS
330
396
102
}
330
396
100
AcDbXrecord
280
     1
102
RTVSPost2010Prop28
280
     0
102
RTVSPost2010PropOp28
 70
     1
102
RTVSPost2010Prop29
280
     1
102
RTVSPost2010PropOp29
 70
     1
102
RTVSPost2010Prop30
280
     1
102
RTVSPost2010PropOp30
 70
     1
102
RTVSPost2010Prop31
280
     0
102
RTVSPost2010PropOp31
 70
     1
102
RTVSPost2010Prop32
280
     0
102
RTVSPost2010PropOp32
 70
     1
102
RTVSPost2010Prop33
280
     0
102
RTVSPost2010PropOp33
 70
     1
102
RTVSPost2010Prop34
280
     0
102
RTVSPost2010PropOp34
 70
     1
102
RTVSPost2010Prop35
280
     0
102
RTVSPost2010PropOp35
 70
     1
102
RTVSPost2010Prop36
280
     0
102
RTVSPost2010PropOp36
 70
     1
102
RTVSPost2010Prop37
 90
       50
102
RTVSPost2010PropOp37
 70
     1
102
RTVSPost2010Prop38
140
0.0
102
RTVSPost2010PropOp38
 70
     1
102
RTVSPost2010Prop39
140
1.0
102
RTVSPost2010PropOp39
 70
     1
102
RTVSPost2010Prop40
 90
        0
102
RTVSPost2010PropOp40
 70
     1
102
RTVSPost2010Prop41ColorIndex
 90
       18
102
RTVSPost2010Prop41ColorRGB
 90
        0
102
RTVSPost2010PropOp41
 70
     1
102
RTVSPost2010Prop42
 90
       50
102
RTVSPost2010PropOp42
 70
     1
102
RTVSPost2010Prop43
 90
        3
102
RTVSPost2010PropOp43
 70
     1
102
RTVSPost2010Prop44ColorIndex
 90
        5
102
RTVSPost2010Prop44ColorRGB
 90
      255
102
RTVSPost2010PropOp44
 70
     1
102
RTVSPost2010Prop45
280
     0
102
RTVSPost2010PropOp45
 70
     1
102
RTVSPost2010Prop46
 90
       50
102
RTVSPost2010PropOp46
 70
     1
102
RTVSPost2010Prop47
 90
       50
102
RTVSPost2010PropOp47
 70
     1
102
RTVSPost2010Prop48
 90
       50
102
RTVSPost2010PropOp48
 70
     1
102
RTVSPost2010Prop49
280
     0
102
RTVSPost2010PropOp49
 70
     1
102
RTVSPost2010Prop50
 90
       50
102
RTVSPost2010PropOp50
 70
     1
102
RTVSPost2010Prop51ColorIndex
 90
      256
102
RTVSPost2010Prop51ColorRGB
 90
-16777216
102
RTVSPost2010PropOp51
 70
     0
102
RTVSPost2010Prop52
140
1.0
102
RTVSPost2010PropOp52
 70
     0
102
RTVSPost2010Prop53
 90
        2
102
RTVSPost2010PropOp53
 70
     1
102
RTVSPost2010Prop54
  1
strokes_ogs.tif
102
RTVSPost2010PropOp54
 70
     1
102
RTVSPost2010Prop55
280
     0
102
RTVSPost2010PropOp55
 70
     1
102
RTVSPost2010Prop56
140
1.0
102
RTVSPost2010PropOp56
 70
     1
102
RTVSPost2010Prop57
140
1.0
102
RTVSPost2010PropOp57
 70
     1
102
RTVSPropertyOp0
 70
     1
102
RTVSPropertyOp1
 70
     1
102
RTVSPropertyOp2
 70
     1
102
RTVSPropertyOp3
 70
     1
102
RTVSPropertyOp4
 70
     1
102
RTVSPropertyOp5
 70
     1
102
RTVSPropertyOp6
 70
     1
102
RTVSPropertyOp7
 70
     1
102
RTVSPropertyOp8
 70
     1
102
RTVSPropertyOp9
 70
     1
102
RTVSPropertyOp10
 70
     1
102
RTVSPropertyOp11
 70
     1
102
RTVSPropertyOp12
 70
     1
102
RTVSPropertyOp13
 70
     1
102
RTVSPropertyOp14
 70
     1
102
RTVSPropertyOp15
 70
     1
102
RTVSPropertyOp16
 70
     1
102
RTVSPropertyOp17
 70
     1
102
RTVSPropertyOp18
 70
     1
102
RTVSPropertyOp19
 70
     1
102
RTVSPropertyOp20
 70
     1
102
RTVSPropertyOp21
 70
     1
102
RTVSPropertyOp22
 70
     1
102
RTVSPropertyOp23
 70
     1
102
RTVSPropertyOp24
 70
     1
102
RTVSPropertyOp25
 70
     1
102
RTVSPropertyOp26
 70
     1
102
RTVSPropertyOp27
 70
     1
102
RTVSPropertyOp28
 70
     1
102
RTVSPropertyOp29
 70
     1
102
RTVSPropertyOp30
 70
     1
102
RTVSPropertyOp31
 70
     1
102
RTVSPropertyOp32
 70
     1
102
RTVSPropertyOp33
 70
     1
102
RTVSPropertyOp34
 70
     1
102
RTVSPropertyOp35
 70
     1
102
RTVSPropertyOp36
 70
     1
102
RTVSPropertyOp37
 70
     1
102
RTVSPropertyOp38
 70
     1
102
RTVSPropertyOp39
 70
     1
102
RTVSPropertyOp40
 70
     1
102
RTVSPropertyOp41
 70
     1
102
RTVSPropertyOp42
 70
     1
102
RTVSPropertyOp43
 70
     1
102
RTVSPropertyOp44
 70
     1
102
RTVSPropertyOp45
 70
     1
102
RTVSPropertyOp46
 70
     1
102
RTVSPropertyOp47
 70
     1
102
RTVSPropertyOp48
 70
     1
102
RTVSPropertyOp49
 70
     1
102
RTVSPropertyOp50
 70
     1
102
RTVSPropertyOp51
 70
     0
102
RTVSPropertyOp52
 70
     0
102
RTVSPropertyOp53
 70
     1
102
RTVSPropertyOp54
 70
     1
102
RTVSPropertyOp55
 70
     1
102
RTVSPropertyOp56
 70
     1
102
RTVSPropertyOp57
 70
     1
102
RTVSPropertyOp58
 70
     1
102
RTVSPropertyOp59
 70
     1
102
RTVSPropertyOp60
 70
     1
102
RTVSPropertyOp61
 70
     1
102
RTVSPropertyOp62
 70
     1
  0
XRECORD
  5
37B
102
{ACAD_REACTORS
330
37A
102
}
330
37A
100
AcDbXrecord
280
     1
102
RTVSPost2010Prop28
280
     0
102
RTVSPost2010PropOp28
 70
     1
102
RTVSPost2010Prop29
280
     1
102
RTVSPost2010PropOp29
 70
     1
102
RTVSPost2010Prop30
280
     1
102
RTVSPost2010PropOp30
 70
     1
102
RTVSPost2010Prop31
280
     0
102
RTVSPost2010PropOp31
 70
     1
102
RTVSPost2010Prop32
280
     0
102
RTVSPost2010PropOp32
 70
     1
102
RTVSPost2010Prop33
280
     0
102
RTVSPost2010PropOp33
 70
     1
102
RTVSPost2010Prop34
280
     0
102
RTVSPost2010PropOp34
 70
     1
102
RTVSPost2010Prop35
280
     0
102
RTVSPost2010PropOp35
 70
     1
102
RTVSPost2010Prop36
280
     0
102
RTVSPost2010PropOp36
 70
     1
102
RTVSPost2010Prop37
 90
       50
102
RTVSPost2010PropOp37
 70
     1
102
RTVSPost2010Prop38
140
0.0
102
RTVSPost2010PropOp38
 70
     1
102
RTVSPost2010Prop39
140
1.0
102
RTVSPost2010PropOp39
 70
     1
102
RTVSPost2010Prop40
 90
        0
102
RTVSPost2010PropOp40
 70
     1
102
RTVSPost2010Prop41ColorIndex
 90
       18
102
RTVSPost2010Prop41ColorRGB
 90
        0
102
RTVSPost2010PropOp41
 70
     1
102
RTVSPost2010Prop42
 90
       50
102
RTVSPost2010PropOp42
 70
     1
102
RTVSPost2010Prop43
 90
        3
102
RTVSPost2010PropOp43
 70
     1
102
RTVSPost2010Prop44ColorIndex
 90
        5
102
RTVSPost2010Prop44ColorRGB
 90
      255
102
RTVSPost2010PropOp44
 70
     1
102
RTVSPost2010Prop45
280
     0
102
RTVSPost2010PropOp45
 70
     1
102
RTVSPost2010Prop46
 90
       50
102
RTVSPost2010PropOp46
 70
     1
102
RTVSPost2010Prop47
 90
       50
102
RTVSPost2010PropOp47
 70
     1
102
RTVSPost2010Prop48
 90
       50
102
RTVSPost2010PropOp48
 70
     1
102
RTVSPost2010Prop49
280
     0
102
RTVSPost2010PropOp49
 70
     1
102
RTVSPost2010Prop50
 90
       50
102
RTVSPost2010PropOp50
 70
     1
102
RTVSPost2010Prop51ColorIndex
 90
      256
102
RTVSPost2010Prop51ColorRGB
 90
-16777216
102
RTVSPost2010PropOp51
 70
     0
102
RTVSPost2010Prop52
140
1.0
102
RTVSPost2010PropOp52
 70
     0
102
RTVSPost2010Prop53
 90
        2
102
RTVSPost2010PropOp53
 70
     1
102
RTVSPost2010Prop54
  1
strokes_ogs.tif
102
RTVSPost2010PropOp54
 70
     1
102
RTVSPost2010Prop55
280
     0
102
RTVSPost2010PropOp55
 70
     1
102
RTVSPost2010Prop56
140
1.0
102
RTVSPost2010PropOp56
 70
     1
102
RTVSPost2010Prop57
140
1.0
102
RTVSPost2010PropOp57
 70
     1
102
RTVSPropertyOp0
 70
     1
102
RTVSPropertyOp1
 70
     1
102
RTVSPropertyOp2
 70
     1
102
RTVSPropertyOp3
 70
     1
102
RTVSPropertyOp4
 70
     1
102
RTVSPropertyOp5
 70
     1
102
RTVSPropertyOp6
 70
     1
102
RTVSPropertyOp7
 70
     1
102
RTVSPropertyOp8
 70
     1
102
RTVSPropertyOp9
 70
     1
102
RTVSPropertyOp10
 70
     1
102
RTVSPropertyOp11
 70
     1
102
RTVSPropertyOp12
 70
     1
102
RTVSPropertyOp13
 70
     1
102
RTVSPropertyOp14
 70
     1
102
RTVSPropertyOp15
 70
     1
102
RTVSPropertyOp16
 70
     1
102
RTVSPropertyOp17
 70
     1
102
RTVSPropertyOp18
 70
     1
102
RTVSPropertyOp19
 70
     1
102
RTVSPropertyOp20
 70
     1
102
RTVSPropertyOp21
 70
     1
102
RTVSPropertyOp22
 70
     1
102
RTVSPropertyOp23
 70
     1
102
RTVSPropertyOp24
 70
     1
102
RTVSPropertyOp25
 70
     1
102
RTVSPropertyOp26
 70
     1
102
RTVSPropertyOp27
 70
     1
102
RTVSPropertyOp28
 70
     1
102
RTVSPropertyOp29
 70
     1
102
RTVSPropertyOp30
 70
     1
102
RTVSPropertyOp31
 70
     1
102
RTVSPropertyOp32
 70
     1
102
RTVSPropertyOp33
 70
     1
102
RTVSPropertyOp34
 70
     1
102
RTVSPropertyOp35
 70
     1
102
RTVSPropertyOp36
 70
     1
102
RTVSPropertyOp37
 70
     1
102
RTVSPropertyOp38
 70
     1
102
RTVSPropertyOp39
 70
     1
102
RTVSPropertyOp40
 70
     1
102
RTVSPropertyOp41
 70
     1
102
RTVSPropertyOp42
 70
     1
102
RTVSPropertyOp43
 70
     1
102
RTVSPropertyOp44
 70
     1
102
RTVSPropertyOp45
 70
     1
102
RTVSPropertyOp46
 70
     1
102
RTVSPropertyOp47
 70
     1
102
RTVSPropertyOp48
 70
     1
102
RTVSPropertyOp49
 70
     1
102
RTVSPropertyOp50
 70
     1
102
RTVSPropertyOp51
 70
     0
102
RTVSPropertyOp52
 70
     0
102
RTVSPropertyOp53
 70
     1
102
RTVSPropertyOp54
 70
     1
102
RTVSPropertyOp55
 70
     1
102
RTVSPropertyOp56
 70
     1
102
RTVSPropertyOp57
 70
     1
102
RTVSPropertyOp58
 70
     1
102
RTVSPropertyOp59
 70
     1
102
RTVSPropertyOp60
 70
     1
102
RTVSPropertyOp61
 70
     1
102
RTVSPropertyOp62
 70
     1
  0
XRECORD
  5
37D
102
{ACAD_REACTORS
330
37C
102
}
330
37C
100
AcDbXrecord
280
     1
102
RTVSPost2010Prop28
280
     0
102
RTVSPost2010PropOp28
 70
     1
102
RTVSPost2010Prop29
280
     1
102
RTVSPost2010PropOp29
 70
     1
102
RTVSPost2010Prop30
280
     1
102
RTVSPost2010PropOp30
 70
     1
102
RTVSPost2010Prop31
280
     0
102
RTVSPost2010PropOp31
 70
     1
102
RTVSPost2010Prop32
280
     0
102
RTVSPost2010PropOp32
 70
     1
102
RTVSPost2010Prop33
280
     0
102
RTVSPost2010PropOp33
 70
     1
102
RTVSPost2010Prop34
280
     0
102
RTVSPost2010PropOp34
 70
     1
102
RTVSPost2010Prop35
280
     0
102
RTVSPost2010PropOp35
 70
     1
102
RTVSPost2010Prop36
280
     0
102
RTVSPost2010PropOp36
 70
     1
102
RTVSPost2010Prop37
 90
       50
102
RTVSPost2010PropOp37
 70
     1
102
RTVSPost2010Prop38
140
0.0
102
RTVSPost2010PropOp38
 70
     1
102
RTVSPost2010Prop39
140
1.0
102
RTVSPost2010PropOp39
 70
     1
102
RTVSPost2010Prop40
 90
        0
102
RTVSPost2010PropOp40
 70
     1
102
RTVSPost2010Prop41ColorIndex
 90
       18
102
RTVSPost2010Prop41ColorRGB
 90
        0
102
RTVSPost2010PropOp41
 70
     1
102
RTVSPost2010Prop42
 90
       50
102
RTVSPost2010PropOp42
 70
     1
102
RTVSPost2010Prop43
 90
        3
102
RTVSPost2010PropOp43
 70
     1
102
RTVSPost2010Prop44ColorIndex
 90
        5
102
RTVSPost2010Prop44ColorRGB
 90
      255
102
RTVSPost2010PropOp44
 70
     1
102
RTVSPost2010Prop45
280
     0
102
RTVSPost2010PropOp45
 70
     1
102
RTVSPost2010Prop46
 90
       50
102
RTVSPost2010PropOp46
 70
     1
102
RTVSPost2010Prop47
 90
       50
102
RTVSPost2010PropOp47
 70
     1
102
RTVSPost2010Prop48
 90
       50
102
RTVSPost2010PropOp48
 70
     1
102
RTVSPost2010Prop49
280
     0
102
RTVSPost2010PropOp49
 70
     1
102
RTVSPost2010Prop50
 90
       50
102
RTVSPost2010PropOp50
 70
     1
102
RTVSPost2010Prop51ColorIndex
 90
      256
102
RTVSPost2010Prop51ColorRGB
 90
-16777216
102
RTVSPost2010PropOp51
 70
     0
102
RTVSPost2010Prop52
140
1.0
102
RTVSPost2010PropOp52
 70
     0
102
RTVSPost2010Prop53
 90
        2
102
RTVSPost2010PropOp53
 70
     1
102
RTVSPost2010Prop54
  1
strokes_ogs.tif
102
RTVSPost2010PropOp54
 70
     1
102
RTVSPost2010Prop55
280
     0
102
RTVSPost2010PropOp55
 70
     1
102
RTVSPost2010Prop56
140
1.0
102
RTVSPost2010PropOp56
 70
     1
102
RTVSPost2010Prop57
140
1.0
102
RTVSPost2010PropOp57
 70
     1
102
RTVSPropertyOp0
 70
     1
102
RTVSPropertyOp1
 70
     1
102
RTVSPropertyOp2
 70
     1
102
RTVSPropertyOp3
 70
     1
102
RTVSPropertyOp4
 70
     1
102
RTVSPropertyOp5
 70
     1
102
RTVSPropertyOp6
 70
     1
102
RTVSPropertyOp7
 70
     1
102
RTVSPropertyOp8
 70
     1
102
RTVSPropertyOp9
 70
     1
102
RTVSPropertyOp10
 70
     1
102
RTVSPropertyOp11
 70
     1
102
RTVSPropertyOp12
 70
     1
102
RTVSPropertyOp13
 70
     1
102
RTVSPropertyOp14
 70
     1
102
RTVSPropertyOp15
 70
     1
102
RTVSPropertyOp16
 70
     1
102
RTVSPropertyOp17
 70
     1
102
RTVSPropertyOp18
 70
     1
102
RTVSPropertyOp19
 70
     1
102
RTVSPropertyOp20
 70
     1
102
RTVSPropertyOp21
 70
     1
102
RTVSPropertyOp22
 70
     1
102
RTVSPropertyOp23
 70
     1
102
RTVSPropertyOp24
 70
     1
102
RTVSPropertyOp25
 70
     1
102
RTVSPropertyOp26
 70
     1
102
RTVSPropertyOp27
 70
     1
102
RTVSPropertyOp28
 70
     1
102
RTVSPropertyOp29
 70
     1
102
RTVSPropertyOp30
 70
     1
102
RTVSPropertyOp31
 70
     1
102
RTVSPropertyOp32
 70
     1
102
RTVSPropertyOp33
 70
     1
102
RTVSPropertyOp34
 70
     1
102
RTVSPropertyOp35
 70
     1
102
RTVSPropertyOp36
 70
     1
102
RTVSPropertyOp37
 70
     1
102
RTVSPropertyOp38
 70
     1
102
RTVSPropertyOp39
 70
     1
102
RTVSPropertyOp40
 70
     1
102
RTVSPropertyOp41
 70
     1
102
RTVSPropertyOp42
 70
     1
102
RTVSPropertyOp43
 70
     1
102
RTVSPropertyOp44
 70
     1
102
RTVSPropertyOp45
 70
     1
102
RTVSPropertyOp46
 70
     1
102
RTVSPropertyOp47
 70
     1
102
RTVSPropertyOp48
 70
     1
102
RTVSPropertyOp49
 70
     1
102
RTVSPropertyOp50
 70
     1
102
RTVSPropertyOp51
 70
     0
102
RTVSPropertyOp52
 70
     0
102
RTVSPropertyOp53
 70
     1
102
RTVSPropertyOp54
 70
     1
102
RTVSPropertyOp55
 70
     1
102
RTVSPropertyOp56
 70
     1
102
RTVSPropertyOp57
 70
     1
102
RTVSPropertyOp58
 70
     1
102
RTVSPropertyOp59
 70
     1
102
RTVSPropertyOp60
 70
     1
102
RTVSPropertyOp61
 70
     1
102
RTVSPropertyOp62
 70
     1
  0
XRECORD
  5
37F
102
{ACAD_REACTORS
330
37E
102
}
330
37E
100
AcDbXrecord
280
     1
102
RTVSPost2010Prop28
280
     0
102
RTVSPost2010PropOp28
 70
     1
102
RTVSPost2010Prop29
280
     1
102
RTVSPost2010PropOp29
 70
     1
102
RTVSPost2010Prop30
280
     1
102
RTVSPost2010PropOp30
 70
     1
102
RTVSPost2010Prop31
280
     0
102
RTVSPost2010PropOp31
 70
     1
102
RTVSPost2010Prop32
280
     0
102
RTVSPost2010PropOp32
 70
     1
102
RTVSPost2010Prop33
280
     0
102
RTVSPost2010PropOp33
 70
     1
102
RTVSPost2010Prop34
280
     0
102
RTVSPost2010PropOp34
 70
     1
102
RTVSPost2010Prop35
280
     0
102
RTVSPost2010PropOp35
 70
     1
102
RTVSPost2010Prop36
280
     0
102
RTVSPost2010PropOp36
 70
     1
102
RTVSPost2010Prop37
 90
       50
102
RTVSPost2010PropOp37
 70
     1
102
RTVSPost2010Prop38
140
0.0
102
RTVSPost2010PropOp38
 70
     1
102
RTVSPost2010Prop39
140
1.0
102
RTVSPost2010PropOp39
 70
     1
102
RTVSPost2010Prop40
 90
        0
102
RTVSPost2010PropOp40
 70
     1
102
RTVSPost2010Prop41ColorIndex
 90
       18
102
RTVSPost2010Prop41ColorRGB
 90
        0
102
RTVSPost2010PropOp41
 70
     1
102
RTVSPost2010Prop42
 90
       50
102
RTVSPost2010PropOp42
 70
     1
102
RTVSPost2010Prop43
 90
        3
102
RTVSPost2010PropOp43
 70
     1
102
RTVSPost2010Prop44ColorIndex
 90
        5
102
RTVSPost2010Prop44ColorRGB
 90
      255
102
RTVSPost2010PropOp44
 70
     1
102
RTVSPost2010Prop45
280
     0
102
RTVSPost2010PropOp45
 70
     1
102
RTVSPost2010Prop46
 90
       50
102
RTVSPost2010PropOp46
 70
     1
102
RTVSPost2010Prop47
 90
       50
102
RTVSPost2010PropOp47
 70
     1
102
RTVSPost2010Prop48
 90
       50
102
RTVSPost2010PropOp48
 70
     1
102
RTVSPost2010Prop49
280
     0
102
RTVSPost2010PropOp49
 70
     1
102
RTVSPost2010Prop50
 90
       50
102
RTVSPost2010PropOp50
 70
     1
102
RTVSPost2010Prop51ColorIndex
 90
      256
102
RTVSPost2010Prop51ColorRGB
 90
-16777216
102
RTVSPost2010PropOp51
 70
     0
102
RTVSPost2010Prop52
140
1.0
102
RTVSPost2010PropOp52
 70
     0
102
RTVSPost2010Prop53
 90
        2
102
RTVSPost2010PropOp53
 70
     1
102
RTVSPost2010Prop54
  1
strokes_ogs.tif
102
RTVSPost2010PropOp54
 70
     1
102
RTVSPost2010Prop55
280
     0
102
RTVSPost2010PropOp55
 70
     1
102
RTVSPost2010Prop56
140
1.0
102
RTVSPost2010PropOp56
 70
     1
102
RTVSPost2010Prop57
140
1.0
102
RTVSPost2010PropOp57
 70
     1
102
RTVSPropertyOp0
 70
     1
102
RTVSPropertyOp1
 70
     1
102
RTVSPropertyOp2
 70
     1
102
RTVSPropertyOp3
 70
     1
102
RTVSPropertyOp4
 70
     1
102
RTVSPropertyOp5
 70
     1
102
RTVSPropertyOp6
 70
     1
102
RTVSPropertyOp7
 70
     1
102
RTVSPropertyOp8
 70
     1
102
RTVSPropertyOp9
 70
     1
102
RTVSPropertyOp10
 70
     1
102
RTVSPropertyOp11
 70
     1
102
RTVSPropertyOp12
 70
     1
102
RTVSPropertyOp13
 70
     1
102
RTVSPropertyOp14
 70
     1
102
RTVSPropertyOp15
 70
     1
102
RTVSPropertyOp16
 70
     1
102
RTVSPropertyOp17
 70
     1
102
RTVSPropertyOp18
 70
     1
102
RTVSPropertyOp19
 70
     1
102
RTVSPropertyOp20
 70
     1
102
RTVSPropertyOp21
 70
     1
102
RTVSPropertyOp22
 70
     1
102
RTVSPropertyOp23
 70
     1
102
RTVSPropertyOp24
 70
     1
102
RTVSPropertyOp25
 70
     1
102
RTVSPropertyOp26
 70
     1
102
RTVSPropertyOp27
 70
     1
102
RTVSPropertyOp28
 70
     1
102
RTVSPropertyOp29
 70
     1
102
RTVSPropertyOp30
 70
     1
102
RTVSPropertyOp31
 70
     1
102
RTVSPropertyOp32
 70
     1
102
RTVSPropertyOp33
 70
     1
102
RTVSPropertyOp34
 70
     1
102
RTVSPropertyOp35
 70
     1
102
RTVSPropertyOp36
 70
     1
102
RTVSPropertyOp37
 70
     1
102
RTVSPropertyOp38
 70
     1
102
RTVSPropertyOp39
 70
     1
102
RTVSPropertyOp40
 70
     1
102
RTVSPropertyOp41
 70
     1
102
RTVSPropertyOp42
 70
     1
102
RTVSPropertyOp43
 70
     1
102
RTVSPropertyOp44
 70
     1
102
RTVSPropertyOp45
 70
     1
102
RTVSPropertyOp46
 70
     1
102
RTVSPropertyOp47
 70
     1
102
RTVSPropertyOp48
 70
     1
102
RTVSPropertyOp49
 70
     1
102
RTVSPropertyOp50
 70
     1
102
RTVSPropertyOp51
 70
     0
102
RTVSPropertyOp52
 70
     0
102
RTVSPropertyOp53
 70
     1
102
RTVSPropertyOp54
 70
     1
102
RTVSPropertyOp55
 70
     1
102
RTVSPropertyOp56
 70
     1
102
RTVSPropertyOp57
 70
     1
102
RTVSPropertyOp58
 70
     1
102
RTVSPropertyOp59
 70
     1
102
RTVSPropertyOp60
 70
     1
102
RTVSPropertyOp61
 70
     1
102
RTVSPropertyOp62
 70
     1
  0
XRECORD
  5
381
102
{ACAD_REACTORS
330
380
102
}
330
380
100
AcDbXrecord
280
     1
102
RTVSPost2010Prop28
280
     0
102
RTVSPost2010PropOp28
 70
     1
102
RTVSPost2010Prop29
280
     1
102
RTVSPost2010PropOp29
 70
     1
102
RTVSPost2010Prop30
280
     1
102
RTVSPost2010PropOp30
 70
     1
102
RTVSPost2010Prop31
280
     0
102
RTVSPost2010PropOp31
 70
     1
102
RTVSPost2010Prop32
280
     0
102
RTVSPost2010PropOp32
 70
     1
102
RTVSPost2010Prop33
280
     0
102
RTVSPost2010PropOp33
 70
     1
102
RTVSPost2010Prop34
280
     0
102
RTVSPost2010PropOp34
 70
     1
102
RTVSPost2010Prop35
280
     0
102
RTVSPost2010PropOp35
 70
     1
102
RTVSPost2010Prop36
280
     0
102
RTVSPost2010PropOp36
 70
     1
102
RTVSPost2010Prop37
 90
       50
102
RTVSPost2010PropOp37
 70
     1
102
RTVSPost2010Prop38
140
0.0
102
RTVSPost2010PropOp38
 70
     1
102
RTVSPost2010Prop39
140
1.0
102
RTVSPost2010PropOp39
 70
     1
102
RTVSPost2010Prop40
 90
        0
102
RTVSPost2010PropOp40
 70
     1
102
RTVSPost2010Prop41ColorIndex
 90
       18
102
RTVSPost2010Prop41ColorRGB
 90
        0
102
RTVSPost2010PropOp41
 70
     1
102
RTVSPost2010Prop42
 90
       50
102
RTVSPost2010PropOp42
 70
     1
102
RTVSPost2010Prop43
 90
        3
102
RTVSPost2010PropOp43
 70
     1
102
RTVSPost2010Prop44ColorIndex
 90
        5
102
RTVSPost2010Prop44ColorRGB
 90
      255
102
RTVSPost2010PropOp44
 70
     1
102
RTVSPost2010Prop45
280
     0
102
RTVSPost2010PropOp45
 70
     1
102
RTVSPost2010Prop46
 90
       50
102
RTVSPost2010PropOp46
 70
     1
102
RTVSPost2010Prop47
 90
       50
102
RTVSPost2010PropOp47
 70
     1
102
RTVSPost2010Prop48
 90
       50
102
RTVSPost2010PropOp48
 70
     1
102
RTVSPost2010Prop49
280
     0
102
RTVSPost2010PropOp49
 70
     1
102
RTVSPost2010Prop50
 90
       50
102
RTVSPost2010PropOp50
 70
     1
102
RTVSPost2010Prop51ColorIndex
 90
      256
102
RTVSPost2010Prop51ColorRGB
 90
-16777216
102
RTVSPost2010PropOp51
 70
     0
102
RTVSPost2010Prop52
140
1.0
102
RTVSPost2010PropOp52
 70
     0
102
RTVSPost2010Prop53
 90
        2
102
RTVSPost2010PropOp53
 70
     1
102
RTVSPost2010Prop54
  1
strokes_ogs.tif
102
RTVSPost2010PropOp54
 70
     1
102
RTVSPost2010Prop55
280
     0
102
RTVSPost2010PropOp55
 70
     1
102
RTVSPost2010Prop56
140
1.0
102
RTVSPost2010PropOp56
 70
     1
102
RTVSPost2010Prop57
140
1.0
102
RTVSPost2010PropOp57
 70
     1
102
RTVSPropertyOp0
 70
     1
102
RTVSPropertyOp1
 70
     1
102
RTVSPropertyOp2
 70
     1
102
RTVSPropertyOp3
 70
     1
102
RTVSPropertyOp4
 70
     1
102
RTVSPropertyOp5
 70
     1
102
RTVSPropertyOp6
 70
     1
102
RTVSPropertyOp7
 70
     1
102
RTVSPropertyOp8
 70
     1
102
RTVSPropertyOp9
 70
     1
102
RTVSPropertyOp10
 70
     1
102
RTVSPropertyOp11
 70
     1
102
RTVSPropertyOp12
 70
     1
102
RTVSPropertyOp13
 70
     1
102
RTVSPropertyOp14
 70
     1
102
RTVSPropertyOp15
 70
     1
102
RTVSPropertyOp16
 70
     1
102
RTVSPropertyOp17
 70
     1
102
RTVSPropertyOp18
 70
     1
102
RTVSPropertyOp19
 70
     1
102
RTVSPropertyOp20
 70
     1
102
RTVSPropertyOp21
 70
     1
102
RTVSPropertyOp22
 70
     1
102
RTVSPropertyOp23
 70
     1
102
RTVSPropertyOp24
 70
     1
102
RTVSPropertyOp25
 70
     1
102
RTVSPropertyOp26
 70
     1
102
RTVSPropertyOp27
 70
     1
102
RTVSPropertyOp28
 70
     1
102
RTVSPropertyOp29
 70
     1
102
RTVSPropertyOp30
 70
     1
102
RTVSPropertyOp31
 70
     1
102
RTVSPropertyOp32
 70
     1
102
RTVSPropertyOp33
 70
     1
102
RTVSPropertyOp34
 70
     1
102
RTVSPropertyOp35
 70
     1
102
RTVSPropertyOp36
 70
     1
102
RTVSPropertyOp37
 70
     1
102
RTVSPropertyOp38
 70
     1
102
RTVSPropertyOp39
 70
     1
102
RTVSPropertyOp40
 70
     1
102
RTVSPropertyOp41
 70
     1
102
RTVSPropertyOp42
 70
     1
102
RTVSPropertyOp43
 70
     1
102
RTVSPropertyOp44
 70
     1
102
RTVSPropertyOp45
 70
     1
102
RTVSPropertyOp46
 70
     1
102
RTVSPropertyOp47
 70
     1
102
RTVSPropertyOp48
 70
     1
102
RTVSPropertyOp49
 70
     1
102
RTVSPropertyOp50
 70
     1
102
RTVSPropertyOp51
 70
     0
102
RTVSPropertyOp52
 70
     0
102
RTVSPropertyOp53
 70
     1
102
RTVSPropertyOp54
 70
     1
102
RTVSPropertyOp55
 70
     1
102
RTVSPropertyOp56
 70
     1
102
RTVSPropertyOp57
 70
     1
102
RTVSPropertyOp58
 70
     1
102
RTVSPropertyOp59
 70
     1
102
RTVSPropertyOp60
 70
     1
102
RTVSPropertyOp61
 70
     1
102
RTVSPropertyOp62
 70
     1
  0
XRECORD
  5
387
102
{ACAD_REACTORS
330
386
102
}
330
386
100
AcDbXrecord
280
     1
102
RTVSPost2010Prop28
280
     0
102
RTVSPost2010PropOp28
 70
     1
102
RTVSPost2010Prop29
280
     1
102
RTVSPost2010PropOp29
 70
     1
102
RTVSPost2010Prop30
280
     1
102
RTVSPost2010PropOp30
 70
     1
102
RTVSPost2010Prop31
280
     0
102
RTVSPost2010PropOp31
 70
     1
102
RTVSPost2010Prop32
280
     0
102
RTVSPost2010PropOp32
 70
     1
102
RTVSPost2010Prop33
280
     0
102
RTVSPost2010PropOp33
 70
     1
102
RTVSPost2010Prop34
280
     0
102
RTVSPost2010PropOp34
 70
     1
102
RTVSPost2010Prop35
280
     0
102
RTVSPost2010PropOp35
 70
     1
102
RTVSPost2010Prop36
280
     0
102
RTVSPost2010PropOp36
 70
     1
102
RTVSPost2010Prop37
 90
       50
102
RTVSPost2010PropOp37
 70
     1
102
RTVSPost2010Prop38
140
0.0
102
RTVSPost2010PropOp38
 70
     1
102
RTVSPost2010Prop39
140
1.0
102
RTVSPost2010PropOp39
 70
     1
102
RTVSPost2010Prop40
 90
        0
102
RTVSPost2010PropOp40
 70
     1
102
RTVSPost2010Prop41ColorIndex
 90
       18
102
RTVSPost2010Prop41ColorRGB
 90
        0
102
RTVSPost2010PropOp41
 70
     1
102
RTVSPost2010Prop42
 90
       50
102
RTVSPost2010PropOp42
 70
     1
102
RTVSPost2010Prop43
 90
        3
102
RTVSPost2010PropOp43
 70
     1
102
RTVSPost2010Prop44ColorIndex
 90
        5
102
RTVSPost2010Prop44ColorRGB
 90
      255
102
RTVSPost2010PropOp44
 70
     1
102
RTVSPost2010Prop45
280
     0
102
RTVSPost2010PropOp45
 70
     1
102
RTVSPost2010Prop46
 90
       50
102
RTVSPost2010PropOp46
 70
     1
102
RTVSPost2010Prop47
 90
       50
102
RTVSPost2010PropOp47
 70
     1
102
RTVSPost2010Prop48
 90
       50
102
RTVSPost2010PropOp48
 70
     1
102
RTVSPost2010Prop49
280
     0
102
RTVSPost2010PropOp49
 70
     1
102
RTVSPost2010Prop50
 90
       50
102
RTVSPost2010PropOp50
 70
     1
102
RTVSPost2010Prop51ColorIndex
 90
      256
102
RTVSPost2010Prop51ColorRGB
 90
-16777216
102
RTVSPost2010PropOp51
 70
     0
102
RTVSPost2010Prop52
140
1.0
102
RTVSPost2010PropOp52
 70
     0
102
RTVSPost2010Prop53
 90
        2
102
RTVSPost2010PropOp53
 70
     1
102
RTVSPost2010Prop54
  1
strokes_ogs.tif
102
RTVSPost2010PropOp54
 70
     1
102
RTVSPost2010Prop55
280
     0
102
RTVSPost2010PropOp55
 70
     1
102
RTVSPost2010Prop56
140
1.0
102
RTVSPost2010PropOp56
 70
     1
102
RTVSPost2010Prop57
140
1.0
102
RTVSPost2010PropOp57
 70
     1
102
RTVSPropertyOp0
 70
     1
102
RTVSPropertyOp1
 70
     1
102
RTVSPropertyOp2
 70
     1
102
RTVSPropertyOp3
 70
     1
102
RTVSPropertyOp4
 70
     1
102
RTVSPropertyOp5
 70
     1
102
RTVSPropertyOp6
 70
     1
102
RTVSPropertyOp7
 70
     1
102
RTVSPropertyOp8
 70
     1
102
RTVSPropertyOp9
 70
     1
102
RTVSPropertyOp10
 70
     1
102
RTVSPropertyOp11
 70
     1
102
RTVSPropertyOp12
 70
     1
102
RTVSPropertyOp13
 70
     1
102
RTVSPropertyOp14
 70
     1
102
RTVSPropertyOp15
 70
     1
102
RTVSPropertyOp16
 70
     1
102
RTVSPropertyOp17
 70
     1
102
RTVSPropertyOp18
 70
     1
102
RTVSPropertyOp19
 70
     1
102
RTVSPropertyOp20
 70
     1
102
RTVSPropertyOp21
 70
     1
102
RTVSPropertyOp22
 70
     1
102
RTVSPropertyOp23
 70
     1
102
RTVSPropertyOp24
 70
     1
102
RTVSPropertyOp25
 70
     1
102
RTVSPropertyOp26
 70
     1
102
RTVSPropertyOp27
 70
     1
102
RTVSPropertyOp28
 70
     1
102
RTVSPropertyOp29
 70
     1
102
RTVSPropertyOp30
 70
     1
102
RTVSPropertyOp31
 70
     1
102
RTVSPropertyOp32
 70
     1
102
RTVSPropertyOp33
 70
     1
102
RTVSPropertyOp34
 70
     1
102
RTVSPropertyOp35
 70
     1
102
RTVSPropertyOp36
 70
     1
102
RTVSPropertyOp37
 70
     1
102
RTVSPropertyOp38
 70
     1
102
RTVSPropertyOp39
 70
     1
102
RTVSPropertyOp40
 70
     1
102
RTVSPropertyOp41
 70
     1
102
RTVSPropertyOp42
 70
     1
102
RTVSPropertyOp43
 70
     1
102
RTVSPropertyOp44
 70
     1
102
RTVSPropertyOp45
 70
     1
102
RTVSPropertyOp46
 70
     1
102
RTVSPropertyOp47
 70
     1
102
RTVSPropertyOp48
 70
     1
102
RTVSPropertyOp49
 70
     1
102
RTVSPropertyOp50
 70
     1
102
RTVSPropertyOp51
 70
     0
102
RTVSPropertyOp52
 70
     0
102
RTVSPropertyOp53
 70
     1
102
RTVSPropertyOp54
 70
     1
102
RTVSPropertyOp55
 70
     1
102
RTVSPropertyOp56
 70
     1
102
RTVSPropertyOp57
 70
     1
102
RTVSPropertyOp58
 70
     1
102
RTVSPropertyOp59
 70
     1
102
RTVSPropertyOp60
 70
     1
102
RTVSPropertyOp61
 70
     1
102
RTVSPropertyOp62
 70
     1
  0
XRECORD
  5
39B
102
{ACAD_REACTORS
330
39A
102
}
330
39A
100
AcDbXrecord
280
     1
102
RTVSPost2010Prop28
280
     0
102
RTVSPost2010PropOp28
 70
     0
102
RTVSPost2010Prop29
280
     1
102
RTVSPost2010PropOp29
 70
     0
102
RTVSPost2010Prop30
280
     1
102
RTVSPost2010PropOp30
 70
     0
102
RTVSPost2010Prop31
280
     0
102
RTVSPost2010PropOp31
 70
     0
102
RTVSPost2010Prop32
280
     0
102
RTVSPost2010PropOp32
 70
     0
102
RTVSPost2010Prop33
280
     0
102
RTVSPost2010PropOp33
 70
     0
102
RTVSPost2010Prop34
280
     0
102
RTVSPost2010PropOp34
 70
     0
102
RTVSPost2010Prop35
280
     0
102
RTVSPost2010PropOp35
 70
     0
102
RTVSPost2010Prop36
280
     0
102
RTVSPost2010PropOp36
 70
     0
102
RTVSPost2010Prop37
 90
       50
102
RTVSPost2010PropOp37
 70
     0
102
RTVSPost2010Prop38
140
0.0
102
RTVSPost2010PropOp38
 70
     0
102
RTVSPost2010Prop39
140
1.0
102
RTVSPost2010PropOp39
 70
     0
102
RTVSPost2010Prop40
 90
        0
102
RTVSPost2010PropOp40
 70
     0
102
RTVSPost2010Prop41ColorIndex
 90
       18
102
RTVSPost2010Prop41ColorRGB
 90
        0
102
RTVSPost2010PropOp41
 70
     0
102
RTVSPost2010Prop42
 90
       50
102
RTVSPost2010PropOp42
 70
     0
102
RTVSPost2010Prop43
 90
        3
102
RTVSPost2010PropOp43
 70
     0
102
RTVSPost2010Prop44ColorIndex
 90
        5
102
RTVSPost2010Prop44ColorRGB
 90
      255
102
RTVSPost2010PropOp44
 70
     0
102
RTVSPost2010Prop45
280
     0
102
RTVSPost2010PropOp45
 70
     0
102
RTVSPost2010Prop46
 90
       50
102
RTVSPost2010PropOp46
 70
     0
102
RTVSPost2010Prop47
 90
       50
102
RTVSPost2010PropOp47
 70
     0
102
RTVSPost2010Prop48
 90
       50
102
RTVSPost2010PropOp48
 70
     0
102
RTVSPost2010Prop49
280
     0
102
RTVSPost2010PropOp49
 70
     0
102
RTVSPost2010Prop50
 90
       50
102
RTVSPost2010PropOp50
 70
     0
102
RTVSPost2010Prop51ColorIndex
 90
      256
102
RTVSPost2010Prop51ColorRGB
 90
-16777216
102
RTVSPost2010PropOp51
 70
     0
102
RTVSPost2010Prop52
140
1.0
102
RTVSPost2010PropOp52
 70
     0
102
RTVSPost2010Prop53
 90
        2
102
RTVSPost2010PropOp53
 70
     0
102
RTVSPost2010Prop54
  1
strokes_ogs.tif
102
RTVSPost2010PropOp54
 70
     0
102
RTVSPost2010Prop55
280
     0
102
RTVSPost2010PropOp55
 70
     0
102
RTVSPost2010Prop56
140
1.0
102
RTVSPost2010PropOp56
 70
     0
102
RTVSPost2010Prop57
140
1.0
102
RTVSPost2010PropOp57
 70
     0
102
RTVSPropertyOp0
 70
     0
102
RTVSPropertyOp1
 70
     0
102
RTVSPropertyOp2
 70
     0
102
RTVSPropertyOp3
 70
     0
102
RTVSPropertyOp4
 70
     0
102
RTVSPropertyOp5
 70
     0
102
RTVSPropertyOp6
 70
     0
102
RTVSPropertyOp7
 70
     0
102
RTVSPropertyOp8
 70
     0
102
RTVSPropertyOp9
 70
     0
102
RTVSPropertyOp10
 70
     0
102
RTVSPropertyOp11
 70
     0
102
RTVSPropertyOp12
 70
     0
102
RTVSPropertyOp13
 70
     0
102
RTVSPropertyOp14
 70
     2
102
RTVSPropertyOp15
 70
     0
102
RTVSPropertyOp16
 70
     0
102
RTVSPropertyOp17
 70
     0
102
RTVSPropertyOp18
 70
     0
102
RTVSPropertyOp19
 70
     0
102
RTVSPropertyOp20
 70
     0
102
RTVSPropertyOp21
 70
     0
102
RTVSPropertyOp22
 70
     0
102
RTVSPropertyOp23
 70
     0
102
RTVSPropertyOp24
 70
     0
102
RTVSPropertyOp25
 70
     0
102
RTVSPropertyOp26
 70
     0
102
RTVSPropertyOp27
 70
     0
102
RTVSPropertyOp28
 70
     0
102
RTVSPropertyOp29
 70
     0
102
RTVSPropertyOp30
 70
     0
102
RTVSPropertyOp31
 70
     0
102
RTVSPropertyOp32
 70
     0
102
RTVSPropertyOp33
 70
     0
102
RTVSPropertyOp34
 70
     0
102
RTVSPropertyOp35
 70
     0
102
RTVSPropertyOp36
 70
     0
102
RTVSPropertyOp37
 70
     0
102
RTVSPropertyOp38
 70
     0
102
RTVSPropertyOp39
 70
     0
102
RTVSPropertyOp40
 70
     0
102
RTVSPropertyOp41
 70
     0
102
RTVSPropertyOp42
 70
     0
102
RTVSPropertyOp43
 70
     0
102
RTVSPropertyOp44
 70
     0
102
RTVSPropertyOp45
 70
     0
102
RTVSPropertyOp46
 70
     0
102
RTVSPropertyOp47
 70
     0
102
RTVSPropertyOp48
 70
     0
102
RTVSPropertyOp49
 70
     0
102
RTVSPropertyOp50
 70
     0
102
RTVSPropertyOp51
 70
     0
102
RTVSPropertyOp52
 70
     0
102
RTVSPropertyOp53
 70
     0
102
RTVSPropertyOp54
 70
     0
102
RTVSPropertyOp55
 70
     0
102
RTVSPropertyOp56
 70
     0
102
RTVSPropertyOp57
 70
     0
102
RTVSPropertyOp58
 70
     1
102
RTVSPropertyOp59
 70
     1
102
RTVSPropertyOp60
 70
     1
102
RTVSPropertyOp61
 70
     1
102
RTVSPropertyOp62
 70
     1
  0
XRECORD
  5
395
102
{ACAD_REACTORS
330
394
102
}
330
394
100
AcDbXrecord
280
     1
102
RTVSPost2010Prop28
280
     0
102
RTVSPost2010PropOp28
 70
     1
102
RTVSPost2010Prop29
280
     1
102
RTVSPost2010PropOp29
 70
     1
102
RTVSPost2010Prop30
280
     1
102
RTVSPost2010PropOp30
 70
     1
102
RTVSPost2010Prop31
280
     0
102
RTVSPost2010PropOp31
 70
     1
102
RTVSPost2010Prop32
280
     0
102
RTVSPost2010PropOp32
 70
     1
102
RTVSPost2010Prop33
280
     0
102
RTVSPost2010PropOp33
 70
     1
102
RTVSPost2010Prop34
280
     0
102
RTVSPost2010PropOp34
 70
     1
102
RTVSPost2010Prop35
280
     0
102
RTVSPost2010PropOp35
 70
     1
102
RTVSPost2010Prop36
280
     0
102
RTVSPost2010PropOp36
 70
     1
102
RTVSPost2010Prop37
 90
       50
102
RTVSPost2010PropOp37
 70
     1
102
RTVSPost2010Prop38
140
0.0
102
RTVSPost2010PropOp38
 70
     1
102
RTVSPost2010Prop39
140
1.0
102
RTVSPost2010PropOp39
 70
     1
102
RTVSPost2010Prop40
 90
        0
102
RTVSPost2010PropOp40
 70
     1
102
RTVSPost2010Prop41ColorIndex
 90
       18
102
RTVSPost2010Prop41ColorRGB
 90
        0
102
RTVSPost2010PropOp41
 70
     1
102
RTVSPost2010Prop42
 90
       50
102
RTVSPost2010PropOp42
 70
     1
102
RTVSPost2010Prop43
 90
        3
102
RTVSPost2010PropOp43
 70
     1
102
RTVSPost2010Prop44ColorIndex
 90
        5
102
RTVSPost2010Prop44ColorRGB
 90
      255
102
RTVSPost2010PropOp44
 70
     1
102
RTVSPost2010Prop45
280
     0
102
RTVSPost2010PropOp45
 70
     1
102
RTVSPost2010Prop46
 90
       50
102
RTVSPost2010PropOp46
 70
     1
102
RTVSPost2010Prop47
 90
       50
102
RTVSPost2010PropOp47
 70
     1
102
RTVSPost2010Prop48
 90
       50
102
RTVSPost2010PropOp48
 70
     1
102
RTVSPost2010Prop49
280
     0
102
RTVSPost2010PropOp49
 70
     1
102
RTVSPost2010Prop50
 90
       50
102
RTVSPost2010PropOp50
 70
     1
102
RTVSPost2010Prop51ColorIndex
 90
      256
102
RTVSPost2010Prop51ColorRGB
 90
-16777216
102
RTVSPost2010PropOp51
 70
     0
102
RTVSPost2010Prop52
140
1.0
102
RTVSPost2010PropOp52
 70
     0
102
RTVSPost2010Prop53
 90
        2
102
RTVSPost2010PropOp53
 70
     1
102
RTVSPost2010Prop54
  1
strokes_ogs.tif
102
RTVSPost2010PropOp54
 70
     1
102
RTVSPost2010Prop55
280
     0
102
RTVSPost2010PropOp55
 70
     1
102
RTVSPost2010Prop56
140
1.0
102
RTVSPost2010PropOp56
 70
     1
102
RTVSPost2010Prop57
140
1.0
102
RTVSPost2010PropOp57
 70
     1
102
RTVSPropertyOp0
 70
     1
102
RTVSPropertyOp1
 70
     1
102
RTVSPropertyOp2
 70
     1
102
RTVSPropertyOp3
 70
     1
102
RTVSPropertyOp4
 70
     1
102
RTVSPropertyOp5
 70
     1
102
RTVSPropertyOp6
 70
     1
102
RTVSPropertyOp7
 70
     1
102
RTVSPropertyOp8
 70
     1
102
RTVSPropertyOp9
 70
     1
102
RTVSPropertyOp10
 70
     1
102
RTVSPropertyOp11
 70
     1
102
RTVSPropertyOp12
 70
     1
102
RTVSPropertyOp13
 70
     1
102
RTVSPropertyOp14
 70
     1
102
RTVSPropertyOp15
 70
     1
102
RTVSPropertyOp16
 70
     1
102
RTVSPropertyOp17
 70
     1
102
RTVSPropertyOp18
 70
     1
102
RTVSPropertyOp19
 70
     1
102
RTVSPropertyOp20
 70
     1
102
RTVSPropertyOp21
 70
     1
102
RTVSPropertyOp22
 70
     1
102
RTVSPropertyOp23
 70
     1
102
RTVSPropertyOp24
 70
     1
102
RTVSPropertyOp25
 70
     1
102
RTVSPropertyOp26
 70
     1
102
RTVSPropertyOp27
 70
     1
102
RTVSPropertyOp28
 70
     1
102
RTVSPropertyOp29
 70
     1
102
RTVSPropertyOp30
 70
     1
102
RTVSPropertyOp31
 70
     1
102
RTVSPropertyOp32
 70
     1
102
RTVSPropertyOp33
 70
     1
102
RTVSPropertyOp34
 70
     1
102
RTVSPropertyOp35
 70
     1
102
RTVSPropertyOp36
 70
     1
102
RTVSPropertyOp37
 70
     1
102
RTVSPropertyOp38
 70
     1
102
RTVSPropertyOp39
 70
     1
102
RTVSPropertyOp40
 70
     1
102
RTVSPropertyOp41
 70
     1
102
RTVSPropertyOp42
 70
     1
102
RTVSPropertyOp43
 70
     1
102
RTVSPropertyOp44
 70
     1
102
RTVSPropertyOp45
 70
     1
102
RTVSPropertyOp46
 70
     1
102
RTVSPropertyOp47
 70
     1
102
RTVSPropertyOp48
 70
     1
102
RTVSPropertyOp49
 70
     1
102
RTVSPropertyOp50
 70
     1
102
RTVSPropertyOp51
 70
     0
102
RTVSPropertyOp52
 70
     0
102
RTVSPropertyOp53
 70
     1
102
RTVSPropertyOp54
 70
     1
102
RTVSPropertyOp55
 70
     1
102
RTVSPropertyOp56
 70
     1
102
RTVSPropertyOp57
 70
     1
102
RTVSPropertyOp58
 70
     1
102
RTVSPropertyOp59
 70
     1
102
RTVSPropertyOp60
 70
     1
102
RTVSPropertyOp61
 70
     1
102
RTVSPropertyOp62
 70
     1
  0
XRECORD
  5
39D
102
{ACAD_REACTORS
330
39C
102
}
330
39C
100
AcDbXrecord
280
     1
102
RTVSPost2010Prop28
280
     0
102
RTVSPost2010PropOp28
 70
     0
102
RTVSPost2010Prop29
280
     1
102
RTVSPost2010PropOp29
 70
     0
102
RTVSPost2010Prop30
280
     1
102
RTVSPost2010PropOp30
 70
     0
102
RTVSPost2010Prop31
280
     0
102
RTVSPost2010PropOp31
 70
     0
102
RTVSPost2010Prop32
280
     0
102
RTVSPost2010PropOp32
 70
     0
102
RTVSPost2010Prop33
280
     0
102
RTVSPost2010PropOp33
 70
     0
102
RTVSPost2010Prop34
280
     0
102
RTVSPost2010PropOp34
 70
     0
102
RTVSPost2010Prop35
280
     0
102
RTVSPost2010PropOp35
 70
     0
102
RTVSPost2010Prop36
280
     0
102
RTVSPost2010PropOp36
 70
     0
102
RTVSPost2010Prop37
 90
       50
102
RTVSPost2010PropOp37
 70
     0
102
RTVSPost2010Prop38
140
0.0
102
RTVSPost2010PropOp38
 70
     0
102
RTVSPost2010Prop39
140
1.0
102
RTVSPost2010PropOp39
 70
     0
102
RTVSPost2010Prop40
 90
        0
102
RTVSPost2010PropOp40
 70
     0
102
RTVSPost2010Prop41ColorIndex
 90
       18
102
RTVSPost2010Prop41ColorRGB
 90
        0
102
RTVSPost2010PropOp41
 70
     0
102
RTVSPost2010Prop42
 90
       50
102
RTVSPost2010PropOp42
 70
     0
102
RTVSPost2010Prop43
 90
        3
102
RTVSPost2010PropOp43
 70
     0
102
RTVSPost2010Prop44ColorIndex
 90
        5
102
RTVSPost2010Prop44ColorRGB
 90
      255
102
RTVSPost2010PropOp44
 70
     0
102
RTVSPost2010Prop45
280
     0
102
RTVSPost2010PropOp45
 70
     0
102
RTVSPost2010Prop46
 90
       50
102
RTVSPost2010PropOp46
 70
     0
102
RTVSPost2010Prop47
 90
       50
102
RTVSPost2010PropOp47
 70
     0
102
RTVSPost2010Prop48
 90
       50
102
RTVSPost2010PropOp48
 70
     0
102
RTVSPost2010Prop49
280
     0
102
RTVSPost2010PropOp49
 70
     0
102
RTVSPost2010Prop50
 90
       50
102
RTVSPost2010PropOp50
 70
     0
102
RTVSPost2010Prop51ColorIndex
 90
      256
102
RTVSPost2010Prop51ColorRGB
 90
-16777216
102
RTVSPost2010PropOp51
 70
     0
102
RTVSPost2010Prop52
140
1.0
102
RTVSPost2010PropOp52
 70
     0
102
RTVSPost2010Prop53
 90
        2
102
RTVSPost2010PropOp53
 70
     0
102
RTVSPost2010Prop54
  1
strokes_ogs.tif
102
RTVSPost2010PropOp54
 70
     0
102
RTVSPost2010Prop55
280
     0
102
RTVSPost2010PropOp55
 70
     0
102
RTVSPost2010Prop56
140
1.0
102
RTVSPost2010PropOp56
 70
     0
102
RTVSPost2010Prop57
140
1.0
102
RTVSPost2010PropOp57
 70
     0
102
RTVSPropertyOp0
 70
     0
102
RTVSPropertyOp1
 70
     0
102
RTVSPropertyOp2
 70
     0
102
RTVSPropertyOp3
 70
     0
102
RTVSPropertyOp4
 70
     0
102
RTVSPropertyOp5
 70
     0
102
RTVSPropertyOp6
 70
     0
102
RTVSPropertyOp7
 70
     0
102
RTVSPropertyOp8
 70
     0
102
RTVSPropertyOp9
 70
     0
102
RTVSPropertyOp10
 70
     0
102
RTVSPropertyOp11
 70
     0
102
RTVSPropertyOp12
 70
     0
102
RTVSPropertyOp13
 70
     0
102
RTVSPropertyOp14
 70
     2
102
RTVSPropertyOp15
 70
     0
102
RTVSPropertyOp16
 70
     0
102
RTVSPropertyOp17
 70
     0
102
RTVSPropertyOp18
 70
     0
102
RTVSPropertyOp19
 70
     0
102
RTVSPropertyOp20
 70
     0
102
RTVSPropertyOp21
 70
     0
102
RTVSPropertyOp22
 70
     0
102
RTVSPropertyOp23
 70
     0
102
RTVSPropertyOp24
 70
     0
102
RTVSPropertyOp25
 70
     0
102
RTVSPropertyOp26
 70
     0
102
RTVSPropertyOp27
 70
     0
102
RTVSPropertyOp28
 70
     0
102
RTVSPropertyOp29
 70
     0
102
RTVSPropertyOp30
 70
     0
102
RTVSPropertyOp31
 70
     0
102
RTVSPropertyOp32
 70
     0
102
RTVSPropertyOp33
 70
     0
102
RTVSPropertyOp34
 70
     0
102
RTVSPropertyOp35
 70
     0
102
RTVSPropertyOp36
 70
     0
102
RTVSPropertyOp37
 70
     0
102
RTVSPropertyOp38
 70
     0
102
RTVSPropertyOp39
 70
     0
102
RTVSPropertyOp40
 70
     0
102
RTVSPropertyOp41
 70
     0
102
RTVSPropertyOp42
 70
     0
102
RTVSPropertyOp43
 70
     0
102
RTVSPropertyOp44
 70
     0
102
RTVSPropertyOp45
 70
     0
102
RTVSPropertyOp46
 70
     0
102
RTVSPropertyOp47
 70
     0
102
RTVSPropertyOp48
 70
     0
102
RTVSPropertyOp49
 70
     0
102
RTVSPropertyOp50
 70
     0
102
RTVSPropertyOp51
 70
     0
102
RTVSPropertyOp52
 70
     0
102
RTVSPropertyOp53
 70
     0
102
RTVSPropertyOp54
 70
     0
102
RTVSPropertyOp55
 70
     0
102
RTVSPropertyOp56
 70
     0
102
RTVSPropertyOp57
 70
     0
102
RTVSPropertyOp58
 70
     1
102
RTVSPropertyOp59
 70
     1
102
RTVSPropertyOp60
 70
     1
102
RTVSPropertyOp61
 70
     1
102
RTVSPropertyOp62
 70
     1
  0
XRECORD
  5
38B
102
{ACAD_REACTORS
330
38A
102
}
330
38A
100
AcDbXrecord
280
     1
102
RTVSPost2010Prop28
280
     0
102
RTVSPost2010PropOp28
 70
     1
102
RTVSPost2010Prop29
280
     1
102
RTVSPost2010PropOp29
 70
     1
102
RTVSPost2010Prop30
280
     1
102
RTVSPost2010PropOp30
 70
     1
102
RTVSPost2010Prop31
280
     0
102
RTVSPost2010PropOp31
 70
     1
102
RTVSPost2010Prop32
280
     0
102
RTVSPost2010PropOp32
 70
     1
102
RTVSPost2010Prop33
280
     0
102
RTVSPost2010PropOp33
 70
     1
102
RTVSPost2010Prop34
280
     0
102
RTVSPost2010PropOp34
 70
     1
102
RTVSPost2010Prop35
280
     0
102
RTVSPost2010PropOp35
 70
     1
102
RTVSPost2010Prop36
280
     0
102
RTVSPost2010PropOp36
 70
     1
102
RTVSPost2010Prop37
 90
       50
102
RTVSPost2010PropOp37
 70
     1
102
RTVSPost2010Prop38
140
0.0
102
RTVSPost2010PropOp38
 70
     1
102
RTVSPost2010Prop39
140
1.0
102
RTVSPost2010PropOp39
 70
     1
102
RTVSPost2010Prop40
 90
        0
102
RTVSPost2010PropOp40
 70
     1
102
RTVSPost2010Prop41ColorIndex
 90
       18
102
RTVSPost2010Prop41ColorRGB
 90
        0
102
RTVSPost2010PropOp41
 70
     1
102
RTVSPost2010Prop42
 90
       50
102
RTVSPost2010PropOp42
 70
     1
102
RTVSPost2010Prop43
 90
        3
102
RTVSPost2010PropOp43
 70
     1
102
RTVSPost2010Prop44ColorIndex
 90
        5
102
RTVSPost2010Prop44ColorRGB
 90
      255
102
RTVSPost2010PropOp44
 70
     1
102
RTVSPost2010Prop45
280
     0
102
RTVSPost2010PropOp45
 70
     1
102
RTVSPost2010Prop46
 90
       50
102
RTVSPost2010PropOp46
 70
     1
102
RTVSPost2010Prop47
 90
       50
102
RTVSPost2010PropOp47
 70
     1
102
RTVSPost2010Prop48
 90
       50
102
RTVSPost2010PropOp48
 70
     1
102
RTVSPost2010Prop49
280
     0
102
RTVSPost2010PropOp49
 70
     1
102
RTVSPost2010Prop50
 90
       50
102
RTVSPost2010PropOp50
 70
     1
102
RTVSPost2010Prop51ColorIndex
 90
      256
102
RTVSPost2010Prop51ColorRGB
 90
-16777216
102
RTVSPost2010PropOp51
 70
     0
102
RTVSPost2010Prop52
140
1.0
102
RTVSPost2010PropOp52
 70
     0
102
RTVSPost2010Prop53
 90
        2
102
RTVSPost2010PropOp53
 70
     1
102
RTVSPost2010Prop54
  1
strokes_ogs.tif
102
RTVSPost2010PropOp54
 70
     1
102
RTVSPost2010Prop55
280
     0
102
RTVSPost2010PropOp55
 70
     1
102
RTVSPost2010Prop56
140
1.0
102
RTVSPost2010PropOp56
 70
     1
102
RTVSPost2010Prop57
140
1.0
102
RTVSPost2010PropOp57
 70
     1
102
RTVSPropertyOp0
 70
     1
102
RTVSPropertyOp1
 70
     1
102
RTVSPropertyOp2
 70
     1
102
RTVSPropertyOp3
 70
     1
102
RTVSPropertyOp4
 70
     1
102
RTVSPropertyOp5
 70
     1
102
RTVSPropertyOp6
 70
     1
102
RTVSPropertyOp7
 70
     1
102
RTVSPropertyOp8
 70
     1
102
RTVSPropertyOp9
 70
     1
102
RTVSPropertyOp10
 70
     1
102
RTVSPropertyOp11
 70
     1
102
RTVSPropertyOp12
 70
     1
102
RTVSPropertyOp13
 70
     1
102
RTVSPropertyOp14
 70
     1
102
RTVSPropertyOp15
 70
     1
102
RTVSPropertyOp16
 70
     1
102
RTVSPropertyOp17
 70
     1
102
RTVSPropertyOp18
 70
     1
102
RTVSPropertyOp19
 70
     1
102
RTVSPropertyOp20
 70
     1
102
RTVSPropertyOp21
 70
     1
102
RTVSPropertyOp22
 70
     1
102
RTVSPropertyOp23
 70
     1
102
RTVSPropertyOp24
 70
     1
102
RTVSPropertyOp25
 70
     1
102
RTVSPropertyOp26
 70
     1
102
RTVSPropertyOp27
 70
     1
102
RTVSPropertyOp28
 70
     1
102
RTVSPropertyOp29
 70
     1
102
RTVSPropertyOp30
 70
     1
102
RTVSPropertyOp31
 70
     1
102
RTVSPropertyOp32
 70
     1
102
RTVSPropertyOp33
 70
     1
102
RTVSPropertyOp34
 70
     1
102
RTVSPropertyOp35
 70
     1
102
RTVSPropertyOp36
 70
     1
102
RTVSPropertyOp37
 70
     1
102
RTVSPropertyOp38
 70
     1
102
RTVSPropertyOp39
 70
     1
102
RTVSPropertyOp40
 70
     1
102
RTVSPropertyOp41
 70
     1
102
RTVSPropertyOp42
 70
     1
102
RTVSPropertyOp43
 70
     1
102
RTVSPropertyOp44
 70
     1
102
RTVSPropertyOp45
 70
     1
102
RTVSPropertyOp46
 70
     1
102
RTVSPropertyOp47
 70
     1
102
RTVSPropertyOp48
 70
     1
102
RTVSPropertyOp49
 70
     1
102
RTVSPropertyOp50
 70
     1
102
RTVSPropertyOp51
 70
     0
102
RTVSPropertyOp52
 70
     0
102
RTVSPropertyOp53
 70
     1
102
RTVSPropertyOp54
 70
     1
102
RTVSPropertyOp55
 70
     1
102
RTVSPropertyOp56
 70
     1
102
RTVSPropertyOp57
 70
     1
102
RTVSPropertyOp58
 70
     1
102
RTVSPropertyOp59
 70
     1
102
RTVSPropertyOp60
 70
     1
102
RTVSPropertyOp61
 70
     1
102
RTVSPropertyOp62
 70
     1
  0
XRECORD
  5
3A9
102
{ACAD_REACTORS
330
3A8
102
}
330
3A8
100
AcDbXrecord
280
     1
102
RTVSPost2010Prop28
280
     0
102
RTVSPost2010PropOp28
 70
     1
102
RTVSPost2010Prop29
280
     1
102
RTVSPost2010PropOp29
 70
     1
102
RTVSPost2010Prop30
280
     1
102
RTVSPost2010PropOp30
 70
     1
102
RTVSPost2010Prop31
280
     0
102
RTVSPost2010PropOp31
 70
     1
102
RTVSPost2010Prop32
280
     0
102
RTVSPost2010PropOp32
 70
     1
102
RTVSPost2010Prop33
280
     0
102
RTVSPost2010PropOp33
 70
     1
102
RTVSPost2010Prop34
280
     0
102
RTVSPost2010PropOp34
 70
     1
102
RTVSPost2010Prop35
280
     0
102
RTVSPost2010PropOp35
 70
     1
102
RTVSPost2010Prop36
280
     0
102
RTVSPost2010PropOp36
 70
     1
102
RTVSPost2010Prop37
 90
       50
102
RTVSPost2010PropOp37
 70
     1
102
RTVSPost2010Prop38
140
0.0
102
RTVSPost2010PropOp38
 70
     1
102
RTVSPost2010Prop39
140
1.0
102
RTVSPost2010PropOp39
 70
     1
102
RTVSPost2010Prop40
 90
        0
102
RTVSPost2010PropOp40
 70
     1
102
RTVSPost2010Prop41ColorIndex
 90
       18
102
RTVSPost2010Prop41ColorRGB
 90
        0
102
RTVSPost2010PropOp41
 70
     1
102
RTVSPost2010Prop42
 90
       50
102
RTVSPost2010PropOp42
 70
     1
102
RTVSPost2010Prop43
 90
        3
102
RTVSPost2010PropOp43
 70
     1
102
RTVSPost2010Prop44ColorIndex
 90
        5
102
RTVSPost2010Prop44ColorRGB
 90
      255
102
RTVSPost2010PropOp44
 70
     1
102
RTVSPost2010Prop45
280
     0
102
RTVSPost2010PropOp45
 70
     1
102
RTVSPost2010Prop46
 90
       50
102
RTVSPost2010PropOp46
 70
     1
102
RTVSPost2010Prop47
 90
       50
102
RTVSPost2010PropOp47
 70
     1
102
RTVSPost2010Prop48
 90
       50
102
RTVSPost2010PropOp48
 70
     1
102
RTVSPost2010Prop49
280
     0
102
RTVSPost2010PropOp49
 70
     1
102
RTVSPost2010Prop50
 90
       50
102
RTVSPost2010PropOp50
 70
     1
102
RTVSPost2010Prop51ColorIndex
 90
      256
102
RTVSPost2010Prop51ColorRGB
 90
-16777216
102
RTVSPost2010PropOp51
 70
     0
102
RTVSPost2010Prop52
140
1.0
102
RTVSPost2010PropOp52
 70
     0
102
RTVSPost2010Prop53
 90
        2
102
RTVSPost2010PropOp53
 70
     1
102
RTVSPost2010Prop54
  1
strokes_ogs.tif
102
RTVSPost2010PropOp54
 70
     1
102
RTVSPost2010Prop55
280
     0
102
RTVSPost2010PropOp55
 70
     1
102
RTVSPost2010Prop56
140
1.0
102
RTVSPost2010PropOp56
 70
     1
102
RTVSPost2010Prop57
140
1.0
102
RTVSPost2010PropOp57
 70
     1
102
RTVSPropertyOp0
 70
     1
102
RTVSPropertyOp1
 70
     1
102
RTVSPropertyOp2
 70
     1
102
RTVSPropertyOp3
 70
     1
102
RTVSPropertyOp4
 70
     1
102
RTVSPropertyOp5
 70
     1
102
RTVSPropertyOp6
 70
     1
102
RTVSPropertyOp7
 70
     1
102
RTVSPropertyOp8
 70
     1
102
RTVSPropertyOp9
 70
     1
102
RTVSPropertyOp10
 70
     1
102
RTVSPropertyOp11
 70
     1
102
RTVSPropertyOp12
 70
     1
102
RTVSPropertyOp13
 70
     1
102
RTVSPropertyOp14
 70
     1
102
RTVSPropertyOp15
 70
     1
102
RTVSPropertyOp16
 70
     1
102
RTVSPropertyOp17
 70
     1
102
RTVSPropertyOp18
 70
     1
102
RTVSPropertyOp19
 70
     1
102
RTVSPropertyOp20
 70
     1
102
RTVSPropertyOp21
 70
     1
102
RTVSPropertyOp22
 70
     1
102
RTVSPropertyOp23
 70
     1
102
RTVSPropertyOp24
 70
     1
102
RTVSPropertyOp25
 70
     1
102
RTVSPropertyOp26
 70
     1
102
RTVSPropertyOp27
 70
     1
102
RTVSPropertyOp28
 70
     1
102
RTVSPropertyOp29
 70
     1
102
RTVSPropertyOp30
 70
     1
102
RTVSPropertyOp31
 70
     1
102
RTVSPropertyOp32
 70
     1
102
RTVSPropertyOp33
 70
     1
102
RTVSPropertyOp34
 70
     1
102
RTVSPropertyOp35
 70
     1
102
RTVSPropertyOp36
 70
     1
102
RTVSPropertyOp37
 70
     1
102
RTVSPropertyOp38
 70
     1
102
RTVSPropertyOp39
 70
     1
102
RTVSPropertyOp40
 70
     1
102
RTVSPropertyOp41
 70
     1
102
RTVSPropertyOp42
 70
     1
102
RTVSPropertyOp43
 70
     1
102
RTVSPropertyOp44
 70
     1
102
RTVSPropertyOp45
 70
     1
102
RTVSPropertyOp46
 70
     1
102
RTVSPropertyOp47
 70
     1
102
RTVSPropertyOp48
 70
     1
102
RTVSPropertyOp49
 70
     1
102
RTVSPropertyOp50
 70
     1
102
RTVSPropertyOp51
 70
     0
102
RTVSPropertyOp52
 70
     0
102
RTVSPropertyOp53
 70
     1
102
RTVSPropertyOp54
 70
     1
102
RTVSPropertyOp55
 70
     1
102
RTVSPropertyOp56
 70
     1
102
RTVSPropertyOp57
 70
     1
102
RTVSPropertyOp58
 70
     1
102
RTVSPropertyOp59
 70
     1
102
RTVSPropertyOp60
 70
     1
102
RTVSPropertyOp61
 70
     1
102
RTVSPropertyOp62
 70
     1
  0
XRECORD
  5
3A7
102
{ACAD_REACTORS
330
3A6
102
}
330
3A6
100
AcDbXrecord
280
     1
102
RTVSPost2010Prop28
280
     0
102
RTVSPost2010PropOp28
 70
     1
102
RTVSPost2010Prop29
280
     1
102
RTVSPost2010PropOp29
 70
     1
102
RTVSPost2010Prop30
280
     1
102
RTVSPost2010PropOp30
 70
     1
102
RTVSPost2010Prop31
280
     0
102
RTVSPost2010PropOp31
 70
     1
102
RTVSPost2010Prop32
280
     0
102
RTVSPost2010PropOp32
 70
     1
102
RTVSPost2010Prop33
280
     0
102
RTVSPost2010PropOp33
 70
     1
102
RTVSPost2010Prop34
280
     0
102
RTVSPost2010PropOp34
 70
     1
102
RTVSPost2010Prop35
280
     0
102
RTVSPost2010PropOp35
 70
     1
102
RTVSPost2010Prop36
280
     0
102
RTVSPost2010PropOp36
 70
     1
102
RTVSPost2010Prop37
 90
       50
102
RTVSPost2010PropOp37
 70
     1
102
RTVSPost2010Prop38
140
0.0
102
RTVSPost2010PropOp38
 70
     1
102
RTVSPost2010Prop39
140
1.0
102
RTVSPost2010PropOp39
 70
     1
102
RTVSPost2010Prop40
 90
        0
102
RTVSPost2010PropOp40
 70
     1
102
RTVSPost2010Prop41ColorIndex
 90
       18
102
RTVSPost2010Prop41ColorRGB
 90
        0
102
RTVSPost2010PropOp41
 70
     1
102
RTVSPost2010Prop42
 90
       50
102
RTVSPost2010PropOp42
 70
     1
102
RTVSPost2010Prop43
 90
        3
102
RTVSPost2010PropOp43
 70
     1
102
RTVSPost2010Prop44ColorIndex
 90
        5
102
RTVSPost2010Prop44ColorRGB
 90
      255
102
RTVSPost2010PropOp44
 70
     1
102
RTVSPost2010Prop45
280
     0
102
RTVSPost2010PropOp45
 70
     1
102
RTVSPost2010Prop46
 90
       50
102
RTVSPost2010PropOp46
 70
     1
102
RTVSPost2010Prop47
 90
       50
102
RTVSPost2010PropOp47
 70
     1
102
RTVSPost2010Prop48
 90
       50
102
RTVSPost2010PropOp48
 70
     1
102
RTVSPost2010Prop49
280
     0
102
RTVSPost2010PropOp49
 70
     1
102
RTVSPost2010Prop50
 90
       50
102
RTVSPost2010PropOp50
 70
     1
102
RTVSPost2010Prop51ColorIndex
 90
      256
102
RTVSPost2010Prop51ColorRGB
 90
-16777216
102
RTVSPost2010PropOp51
 70
     0
102
RTVSPost2010Prop52
140
1.0
102
RTVSPost2010PropOp52
 70
     0
102
RTVSPost2010Prop53
 90
        2
102
RTVSPost2010PropOp53
 70
     1
102
RTVSPost2010Prop54
  1
strokes_ogs.tif
102
RTVSPost2010PropOp54
 70
     1
102
RTVSPost2010Prop55
280
     0
102
RTVSPost2010PropOp55
 70
     1
102
RTVSPost2010Prop56
140
1.0
102
RTVSPost2010PropOp56
 70
     1
102
RTVSPost2010Prop57
140
1.0
102
RTVSPost2010PropOp57
 70
     1
102
RTVSPropertyOp0
 70
     1
102
RTVSPropertyOp1
 70
     1
102
RTVSPropertyOp2
 70
     1
102
RTVSPropertyOp3
 70
     1
102
RTVSPropertyOp4
 70
     1
102
RTVSPropertyOp5
 70
     1
102
RTVSPropertyOp6
 70
     1
102
RTVSPropertyOp7
 70
     1
102
RTVSPropertyOp8
 70
     1
102
RTVSPropertyOp9
 70
     1
102
RTVSPropertyOp10
 70
     1
102
RTVSPropertyOp11
 70
     1
102
RTVSPropertyOp12
 70
     1
102
RTVSPropertyOp13
 70
     1
102
RTVSPropertyOp14
 70
     1
102
RTVSPropertyOp15
 70
     1
102
RTVSPropertyOp16
 70
     1
102
RTVSPropertyOp17
 70
     1
102
RTVSPropertyOp18
 70
     1
102
RTVSPropertyOp19
 70
     1
102
RTVSPropertyOp20
 70
     1
102
RTVSPropertyOp21
 70
     1
102
RTVSPropertyOp22
 70
     1
102
RTVSPropertyOp23
 70
     1
102
RTVSPropertyOp24
 70
     1
102
RTVSPropertyOp25
 70
     1
102
RTVSPropertyOp26
 70
     1
102
RTVSPropertyOp27
 70
     1
102
RTVSPropertyOp28
 70
     1
102
RTVSPropertyOp29
 70
     1
102
RTVSPropertyOp30
 70
     1
102
RTVSPropertyOp31
 70
     1
102
RTVSPropertyOp32
 70
     1
102
RTVSPropertyOp33
 70
     1
102
RTVSPropertyOp34
 70
     1
102
RTVSPropertyOp35
 70
     1
102
RTVSPropertyOp36
 70
     1
102
RTVSPropertyOp37
 70
     1
102
RTVSPropertyOp38
 70
     1
102
RTVSPropertyOp39
 70
     1
102
RTVSPropertyOp40
 70
     1
102
RTVSPropertyOp41
 70
     1
102
RTVSPropertyOp42
 70
     1
102
RTVSPropertyOp43
 70
     1
102
RTVSPropertyOp44
 70
     1
102
RTVSPropertyOp45
 70
     1
102
RTVSPropertyOp46
 70
     1
102
RTVSPropertyOp47
 70
     1
102
RTVSPropertyOp48
 70
     1
102
RTVSPropertyOp49
 70
     1
102
RTVSPropertyOp50
 70
     1
102
RTVSPropertyOp51
 70
     0
102
RTVSPropertyOp52
 70
     0
102
RTVSPropertyOp53
 70
     1
102
RTVSPropertyOp54
 70
     1
102
RTVSPropertyOp55
 70
     1
102
RTVSPropertyOp56
 70
     1
102
RTVSPropertyOp57
 70
     1
102
RTVSPropertyOp58
 70
     1
102
RTVSPropertyOp59
 70
     1
102
RTVSPropertyOp60
 70
     1
102
RTVSPropertyOp61
 70
     1
102
RTVSPropertyOp62
 70
     1
  0
XRECORD
  5
3A1
102
{ACAD_REACTORS
330
3A0
102
}
330
3A0
100
AcDbXrecord
280
     1
102
RTVSPost2010Prop28
280
     0
102
RTVSPost2010PropOp28
 70
     1
102
RTVSPost2010Prop29
280
     1
102
RTVSPost2010PropOp29
 70
     1
102
RTVSPost2010Prop30
280
     1
102
RTVSPost2010PropOp30
 70
     1
102
RTVSPost2010Prop31
280
     0
102
RTVSPost2010PropOp31
 70
     1
102
RTVSPost2010Prop32
280
     0
102
RTVSPost2010PropOp32
 70
     1
102
RTVSPost2010Prop33
280
     0
102
RTVSPost2010PropOp33
 70
     1
102
RTVSPost2010Prop34
280
     0
102
RTVSPost2010PropOp34
 70
     1
102
RTVSPost2010Prop35
280
     0
102
RTVSPost2010PropOp35
 70
     1
102
RTVSPost2010Prop36
280
     0
102
RTVSPost2010PropOp36
 70
     1
102
RTVSPost2010Prop37
 90
       50
102
RTVSPost2010PropOp37
 70
     1
102
RTVSPost2010Prop38
140
0.0
102
RTVSPost2010PropOp38
 70
     1
102
RTVSPost2010Prop39
140
1.0
102
RTVSPost2010PropOp39
 70
     1
102
RTVSPost2010Prop40
 90
        0
102
RTVSPost2010PropOp40
 70
     1
102
RTVSPost2010Prop41ColorIndex
 90
       18
102
RTVSPost2010Prop41ColorRGB
 90
        0
102
RTVSPost2010PropOp41
 70
     1
102
RTVSPost2010Prop42
 90
       50
102
RTVSPost2010PropOp42
 70
     1
102
RTVSPost2010Prop43
 90
        3
102
RTVSPost2010PropOp43
 70
     1
102
RTVSPost2010Prop44ColorIndex
 90
        5
102
RTVSPost2010Prop44ColorRGB
 90
      255
102
RTVSPost2010PropOp44
 70
     1
102
RTVSPost2010Prop45
280
     0
102
RTVSPost2010PropOp45
 70
     1
102
RTVSPost2010Prop46
 90
       50
102
RTVSPost2010PropOp46
 70
     1
102
RTVSPost2010Prop47
 90
       50
102
RTVSPost2010PropOp47
 70
     1
102
RTVSPost2010Prop48
 90
       50
102
RTVSPost2010PropOp48
 70
     1
102
RTVSPost2010Prop49
280
     0
102
RTVSPost2010PropOp49
 70
     1
102
RTVSPost2010Prop50
 90
       50
102
RTVSPost2010PropOp50
 70
     1
102
RTVSPost2010Prop51ColorIndex
 90
      256
102
RTVSPost2010Prop51ColorRGB
 90
-16777216
102
RTVSPost2010PropOp51
 70
     0
102
RTVSPost2010Prop52
140
1.0
102
RTVSPost2010PropOp52
 70
     0
102
RTVSPost2010Prop53
 90
        2
102
RTVSPost2010PropOp53
 70
     1
102
RTVSPost2010Prop54
  1
strokes_ogs.tif
102
RTVSPost2010PropOp54
 70
     1
102
RTVSPost2010Prop55
280
     0
102
RTVSPost2010PropOp55
 70
     1
102
RTVSPost2010Prop56
140
1.0
102
RTVSPost2010PropOp56
 70
     1
102
RTVSPost2010Prop57
140
1.0
102
RTVSPost2010PropOp57
 70
     1
102
RTVSPropertyOp0
 70
     1
102
RTVSPropertyOp1
 70
     1
102
RTVSPropertyOp2
 70
     1
102
RTVSPropertyOp3
 70
     1
102
RTVSPropertyOp4
 70
     1
102
RTVSPropertyOp5
 70
     1
102
RTVSPropertyOp6
 70
     1
102
RTVSPropertyOp7
 70
     1
102
RTVSPropertyOp8
 70
     1
102
RTVSPropertyOp9
 70
     1
102
RTVSPropertyOp10
 70
     1
102
RTVSPropertyOp11
 70
     1
102
RTVSPropertyOp12
 70
     1
102
RTVSPropertyOp13
 70
     1
102
RTVSPropertyOp14
 70
     1
102
RTVSPropertyOp15
 70
     1
102
RTVSPropertyOp16
 70
     1
102
RTVSPropertyOp17
 70
     1
102
RTVSPropertyOp18
 70
     1
102
RTVSPropertyOp19
 70
     1
102
RTVSPropertyOp20
 70
     1
102
RTVSPropertyOp21
 70
     1
102
RTVSPropertyOp22
 70
     1
102
RTVSPropertyOp23
 70
     1
102
RTVSPropertyOp24
 70
     1
102
RTVSPropertyOp25
 70
     1
102
RTVSPropertyOp26
 70
     1
102
RTVSPropertyOp27
 70
     1
102
RTVSPropertyOp28
 70
     1
102
RTVSPropertyOp29
 70
     1
102
RTVSPropertyOp30
 70
     1
102
RTVSPropertyOp31
 70
     1
102
RTVSPropertyOp32
 70
     1
102
RTVSPropertyOp33
 70
     1
102
RTVSPropertyOp34
 70
     1
102
RTVSPropertyOp35
 70
     1
102
RTVSPropertyOp36
 70
     1
102
RTVSPropertyOp37
 70
     1
102
RTVSPropertyOp38
 70
     1
102
RTVSPropertyOp39
 70
     1
102
RTVSPropertyOp40
 70
     1
102
RTVSPropertyOp41
 70
     1
102
RTVSPropertyOp42
 70
     1
102
RTVSPropertyOp43
 70
     1
102
RTVSPropertyOp44
 70
     1
102
RTVSPropertyOp45
 70
     1
102
RTVSPropertyOp46
 70
     1
102
RTVSPropertyOp47
 70
     1
102
RTVSPropertyOp48
 70
     1
102
RTVSPropertyOp49
 70
     1
102
RTVSPropertyOp50
 70
     1
102
RTVSPropertyOp51
 70
     0
102
RTVSPropertyOp52
 70
     0
102
RTVSPropertyOp53
 70
     1
102
RTVSPropertyOp54
 70
     1
102
RTVSPropertyOp55
 70
     1
102
RTVSPropertyOp56
 70
     1
102
RTVSPropertyOp57
 70
     1
102
RTVSPropertyOp58
 70
     1
102
RTVSPropertyOp59
 70
     1
102
RTVSPropertyOp60
 70
     1
102
RTVSPropertyOp61
 70
     1
102
RTVSPropertyOp62
 70
     1
  0
XRECORD
  5
3A3
102
{ACAD_REACTORS
330
3A2
102
}
330
3A2
100
AcDbXrecord
280
     1
102
RTVSPost2010Prop28
280
     0
102
RTVSPost2010PropOp28
 70
     1
102
RTVSPost2010Prop29
280
     1
102
RTVSPost2010PropOp29
 70
     1
102
RTVSPost2010Prop30
280
     1
102
RTVSPost2010PropOp30
 70
     1
102
RTVSPost2010Prop31
280
     0
102
RTVSPost2010PropOp31
 70
     1
102
RTVSPost2010Prop32
280
     0
102
RTVSPost2010PropOp32
 70
     1
102
RTVSPost2010Prop33
280
     0
102
RTVSPost2010PropOp33
 70
     1
102
RTVSPost2010Prop34
280
     0
102
RTVSPost2010PropOp34
 70
     1
102
RTVSPost2010Prop35
280
     0
102
RTVSPost2010PropOp35
 70
     1
102
RTVSPost2010Prop36
280
     0
102
RTVSPost2010PropOp36
 70
     1
102
RTVSPost2010Prop37
 90
       50
102
RTVSPost2010PropOp37
 70
     1
102
RTVSPost2010Prop38
140
0.0
102
RTVSPost2010PropOp38
 70
     1
102
RTVSPost2010Prop39
140
1.0
102
RTVSPost2010PropOp39
 70
     1
102
RTVSPost2010Prop40
 90
        0
102
RTVSPost2010PropOp40
 70
     1
102
RTVSPost2010Prop41ColorIndex
 90
       18
102
RTVSPost2010Prop41ColorRGB
 90
        0
102
RTVSPost2010PropOp41
 70
     1
102
RTVSPost2010Prop42
 90
       50
102
RTVSPost2010PropOp42
 70
     1
102
RTVSPost2010Prop43
 90
        3
102
RTVSPost2010PropOp43
 70
     1
102
RTVSPost2010Prop44ColorIndex
 90
        5
102
RTVSPost2010Prop44ColorRGB
 90
      255
102
RTVSPost2010PropOp44
 70
     1
102
RTVSPost2010Prop45
280
     0
102
RTVSPost2010PropOp45
 70
     1
102
RTVSPost2010Prop46
 90
       50
102
RTVSPost2010PropOp46
 70
     1
102
RTVSPost2010Prop47
 90
       50
102
RTVSPost2010PropOp47
 70
     1
102
RTVSPost2010Prop48
 90
       50
102
RTVSPost2010PropOp48
 70
     1
102
RTVSPost2010Prop49
280
     0
102
RTVSPost2010PropOp49
 70
     1
102
RTVSPost2010Prop50
 90
       50
102
RTVSPost2010PropOp50
 70
     1
102
RTVSPost2010Prop51ColorIndex
 90
      256
102
RTVSPost2010Prop51ColorRGB
 90
-16777216
102
RTVSPost2010PropOp51
 70
     0
102
RTVSPost2010Prop52
140
1.0
102
RTVSPost2010PropOp52
 70
     0
102
RTVSPost2010Prop53
 90
        2
102
RTVSPost2010PropOp53
 70
     1
102
RTVSPost2010Prop54
  1
strokes_ogs.tif
102
RTVSPost2010PropOp54
 70
     1
102
RTVSPost2010Prop55
280
     0
102
RTVSPost2010PropOp55
 70
     1
102
RTVSPost2010Prop56
140
1.0
102
RTVSPost2010PropOp56
 70
     1
102
RTVSPost2010Prop57
140
1.0
102
RTVSPost2010PropOp57
 70
     1
102
RTVSPropertyOp0
 70
     1
102
RTVSPropertyOp1
 70
     1
102
RTVSPropertyOp2
 70
     1
102
RTVSPropertyOp3
 70
     1
102
RTVSPropertyOp4
 70
     1
102
RTVSPropertyOp5
 70
     1
102
RTVSPropertyOp6
 70
     1
102
RTVSPropertyOp7
 70
     1
102
RTVSPropertyOp8
 70
     1
102
RTVSPropertyOp9
 70
     1
102
RTVSPropertyOp10
 70
     1
102
RTVSPropertyOp11
 70
     1
102
RTVSPropertyOp12
 70
     1
102
RTVSPropertyOp13
 70
     1
102
RTVSPropertyOp14
 70
     1
102
RTVSPropertyOp15
 70
     1
102
RTVSPropertyOp16
 70
     1
102
RTVSPropertyOp17
 70
     1
102
RTVSPropertyOp18
 70
     1
102
RTVSPropertyOp19
 70
     1
102
RTVSPropertyOp20
 70
     1
102
RTVSPropertyOp21
 70
     1
102
RTVSPropertyOp22
 70
     1
102
RTVSPropertyOp23
 70
     1
102
RTVSPropertyOp24
 70
     1
102
RTVSPropertyOp25
 70
     1
102
RTVSPropertyOp26
 70
     1
102
RTVSPropertyOp27
 70
     1
102
RTVSPropertyOp28
 70
     1
102
RTVSPropertyOp29
 70
     1
102
RTVSPropertyOp30
 70
     1
102
RTVSPropertyOp31
 70
     1
102
RTVSPropertyOp32
 70
     1
102
RTVSPropertyOp33
 70
     1
102
RTVSPropertyOp34
 70
     1
102
RTVSPropertyOp35
 70
     1
102
RTVSPropertyOp36
 70
     1
102
RTVSPropertyOp37
 70
     1
102
RTVSPropertyOp38
 70
     1
102
RTVSPropertyOp39
 70
     1
102
RTVSPropertyOp40
 70
     1
102
RTVSPropertyOp41
 70
     1
102
RTVSPropertyOp42
 70
     1
102
RTVSPropertyOp43
 70
     1
102
RTVSPropertyOp44
 70
     1
102
RTVSPropertyOp45
 70
     1
102
RTVSPropertyOp46
 70
     1
102
RTVSPropertyOp47
 70
     1
102
RTVSPropertyOp48
 70
     1
102
RTVSPropertyOp49
 70
     1
102
RTVSPropertyOp50
 70
     1
102
RTVSPropertyOp51
 70
     0
102
RTVSPropertyOp52
 70
     0
102
RTVSPropertyOp53
 70
     1
102
RTVSPropertyOp54
 70
     1
102
RTVSPropertyOp55
 70
     1
102
RTVSPropertyOp56
 70
     1
102
RTVSPropertyOp57
 70
     1
102
RTVSPropertyOp58
 70
     1
102
RTVSPropertyOp59
 70
     1
102
RTVSPropertyOp60
 70
     1
102
RTVSPropertyOp61
 70
     1
102
RTVSPropertyOp62
 70
     1
  0
XRECORD
  5
393
102
{ACAD_REACTORS
330
392
102
}
330
392
100
AcDbXrecord
280
     1
102
RTVSPost2010Prop28
280
     0
102
RTVSPost2010PropOp28
 70
     1
102
RTVSPost2010Prop29
280
     1
102
RTVSPost2010PropOp29
 70
     1
102
RTVSPost2010Prop30
280
     1
102
RTVSPost2010PropOp30
 70
     1
102
RTVSPost2010Prop31
280
     0
102
RTVSPost2010PropOp31
 70
     1
102
RTVSPost2010Prop32
280
     0
102
RTVSPost2010PropOp32
 70
     1
102
RTVSPost2010Prop33
280
     0
102
RTVSPost2010PropOp33
 70
     1
102
RTVSPost2010Prop34
280
     0
102
RTVSPost2010PropOp34
 70
     1
102
RTVSPost2010Prop35
280
     0
102
RTVSPost2010PropOp35
 70
     1
102
RTVSPost2010Prop36
280
     0
102
RTVSPost2010PropOp36
 70
     1
102
RTVSPost2010Prop37
 90
       50
102
RTVSPost2010PropOp37
 70
     1
102
RTVSPost2010Prop38
140
0.0
102
RTVSPost2010PropOp38
 70
     1
102
RTVSPost2010Prop39
140
1.0
102
RTVSPost2010PropOp39
 70
     1
102
RTVSPost2010Prop40
 90
        0
102
RTVSPost2010PropOp40
 70
     1
102
RTVSPost2010Prop41ColorIndex
 90
       18
102
RTVSPost2010Prop41ColorRGB
 90
        0
102
RTVSPost2010PropOp41
 70
     1
102
RTVSPost2010Prop42
 90
       50
102
RTVSPost2010PropOp42
 70
     1
102
RTVSPost2010Prop43
 90
        3
102
RTVSPost2010PropOp43
 70
     1
102
RTVSPost2010Prop44ColorIndex
 90
        5
102
RTVSPost2010Prop44ColorRGB
 90
      255
102
RTVSPost2010PropOp44
 70
     1
102
RTVSPost2010Prop45
280
     0
102
RTVSPost2010PropOp45
 70
     1
102
RTVSPost2010Prop46
 90
       50
102
RTVSPost2010PropOp46
 70
     1
102
RTVSPost2010Prop47
 90
       50
102
RTVSPost2010PropOp47
 70
     1
102
RTVSPost2010Prop48
 90
       50
102
RTVSPost2010PropOp48
 70
     1
102
RTVSPost2010Prop49
280
     0
102
RTVSPost2010PropOp49
 70
     1
102
RTVSPost2010Prop50
 90
       50
102
RTVSPost2010PropOp50
 70
     1
102
RTVSPost2010Prop51ColorIndex
 90
      256
102
RTVSPost2010Prop51ColorRGB
 90
-16777216
102
RTVSPost2010PropOp51
 70
     0
102
RTVSPost2010Prop52
140
1.0
102
RTVSPost2010PropOp52
 70
     0
102
RTVSPost2010Prop53
 90
        2
102
RTVSPost2010PropOp53
 70
     1
102
RTVSPost2010Prop54
  1
strokes_ogs.tif
102
RTVSPost2010PropOp54
 70
     1
102
RTVSPost2010Prop55
280
     0
102
RTVSPost2010PropOp55
 70
     1
102
RTVSPost2010Prop56
140
1.0
102
RTVSPost2010PropOp56
 70
     1
102
RTVSPost2010Prop57
140
1.0
102
RTVSPost2010PropOp57
 70
     1
102
RTVSPropertyOp0
 70
     1
102
RTVSPropertyOp1
 70
     1
102
RTVSPropertyOp2
 70
     1
102
RTVSPropertyOp3
 70
     1
102
RTVSPropertyOp4
 70
     1
102
RTVSPropertyOp5
 70
     1
102
RTVSPropertyOp6
 70
     1
102
RTVSPropertyOp7
 70
     1
102
RTVSPropertyOp8
 70
     1
102
RTVSPropertyOp9
 70
     1
102
RTVSPropertyOp10
 70
     1
102
RTVSPropertyOp11
 70
     1
102
RTVSPropertyOp12
 70
     1
102
RTVSPropertyOp13
 70
     1
102
RTVSPropertyOp14
 70
     1
102
RTVSPropertyOp15
 70
     1
102
RTVSPropertyOp16
 70
     1
102
RTVSPropertyOp17
 70
     1
102
RTVSPropertyOp18
 70
     1
102
RTVSPropertyOp19
 70
     1
102
RTVSPropertyOp20
 70
     1
102
RTVSPropertyOp21
 70
     1
102
RTVSPropertyOp22
 70
     1
102
RTVSPropertyOp23
 70
     1
102
RTVSPropertyOp24
 70
     1
102
RTVSPropertyOp25
 70
     1
102
RTVSPropertyOp26
 70
     1
102
RTVSPropertyOp27
 70
     1
102
RTVSPropertyOp28
 70
     1
102
RTVSPropertyOp29
 70
     1
102
RTVSPropertyOp30
 70
     1
102
RTVSPropertyOp31
 70
     1
102
RTVSPropertyOp32
 70
     1
102
RTVSPropertyOp33
 70
     1
102
RTVSPropertyOp34
 70
     1
102
RTVSPropertyOp35
 70
     1
102
RTVSPropertyOp36
 70
     1
102
RTVSPropertyOp37
 70
     1
102
RTVSPropertyOp38
 70
     1
102
RTVSPropertyOp39
 70
     1
102
RTVSPropertyOp40
 70
     1
102
RTVSPropertyOp41
 70
     1
102
RTVSPropertyOp42
 70
     1
102
RTVSPropertyOp43
 70
     1
102
RTVSPropertyOp44
 70
     1
102
RTVSPropertyOp45
 70
     1
102
RTVSPropertyOp46
 70
     1
102
RTVSPropertyOp47
 70
     1
102
RTVSPropertyOp48
 70
     1
102
RTVSPropertyOp49
 70
     1
102
RTVSPropertyOp50
 70
     1
102
RTVSPropertyOp51
 70
     0
102
RTVSPropertyOp52
 70
     0
102
RTVSPropertyOp53
 70
     1
102
RTVSPropertyOp54
 70
     1
102
RTVSPropertyOp55
 70
     1
102
RTVSPropertyOp56
 70
     1
102
RTVSPropertyOp57
 70
     1
102
RTVSPropertyOp58
 70
     1
102
RTVSPropertyOp59
 70
     1
102
RTVSPropertyOp60
 70
     1
102
RTVSPropertyOp61
 70
     1
102
RTVSPropertyOp62
 70
     1
  0
XRECORD
  5
385
102
{ACAD_REACTORS
330
384
102
}
330
384
100
AcDbXrecord
280
     1
102
RTVSPost2010Prop28
280
     0
102
RTVSPost2010PropOp28
 70
     1
102
RTVSPost2010Prop29
280
     1
102
RTVSPost2010PropOp29
 70
     1
102
RTVSPost2010Prop30
280
     1
102
RTVSPost2010PropOp30
 70
     1
102
RTVSPost2010Prop31
280
     0
102
RTVSPost2010PropOp31
 70
     1
102
RTVSPost2010Prop32
280
     0
102
RTVSPost2010PropOp32
 70
     1
102
RTVSPost2010Prop33
280
     0
102
RTVSPost2010PropOp33
 70
     1
102
RTVSPost2010Prop34
280
     0
102
RTVSPost2010PropOp34
 70
     1
102
RTVSPost2010Prop35
280
     0
102
RTVSPost2010PropOp35
 70
     1
102
RTVSPost2010Prop36
280
     0
102
RTVSPost2010PropOp36
 70
     1
102
RTVSPost2010Prop37
 90
       50
102
RTVSPost2010PropOp37
 70
     1
102
RTVSPost2010Prop38
140
0.0
102
RTVSPost2010PropOp38
 70
     1
102
RTVSPost2010Prop39
140
1.0
102
RTVSPost2010PropOp39
 70
     1
102
RTVSPost2010Prop40
 90
        0
102
RTVSPost2010PropOp40
 70
     1
102
RTVSPost2010Prop41ColorIndex
 90
       18
102
RTVSPost2010Prop41ColorRGB
 90
        0
102
RTVSPost2010PropOp41
 70
     1
102
RTVSPost2010Prop42
 90
       50
102
RTVSPost2010PropOp42
 70
     1
102
RTVSPost2010Prop43
 90
        3
102
RTVSPost2010PropOp43
 70
     1
102
RTVSPost2010Prop44ColorIndex
 90
        5
102
RTVSPost2010Prop44ColorRGB
 90
      255
102
RTVSPost2010PropOp44
 70
     1
102
RTVSPost2010Prop45
280
     0
102
RTVSPost2010PropOp45
 70
     1
102
RTVSPost2010Prop46
 90
       50
102
RTVSPost2010PropOp46
 70
     1
102
RTVSPost2010Prop47
 90
       50
102
RTVSPost2010PropOp47
 70
     1
102
RTVSPost2010Prop48
 90
       50
102
RTVSPost2010PropOp48
 70
     1
102
RTVSPost2010Prop49
280
     0
102
RTVSPost2010PropOp49
 70
     1
102
RTVSPost2010Prop50
 90
       50
102
RTVSPost2010PropOp50
 70
     1
102
RTVSPost2010Prop51ColorIndex
 90
      256
102
RTVSPost2010Prop51ColorRGB
 90
-16777216
102
RTVSPost2010PropOp51
 70
     0
102
RTVSPost2010Prop52
140
1.0
102
RTVSPost2010PropOp52
 70
     0
102
RTVSPost2010Prop53
 90
        2
102
RTVSPost2010PropOp53
 70
     1
102
RTVSPost2010Prop54
  1
strokes_ogs.tif
102
RTVSPost2010PropOp54
 70
     1
102
RTVSPost2010Prop55
280
     0
102
RTVSPost2010PropOp55
 70
     1
102
RTVSPost2010Prop56
140
1.0
102
RTVSPost2010PropOp56
 70
     1
102
RTVSPost2010Prop57
140
1.0
102
RTVSPost2010PropOp57
 70
     1
102
RTVSPropertyOp0
 70
     1
102
RTVSPropertyOp1
 70
     1
102
RTVSPropertyOp2
 70
     1
102
RTVSPropertyOp3
 70
     1
102
RTVSPropertyOp4
 70
     1
102
RTVSPropertyOp5
 70
     1
102
RTVSPropertyOp6
 70
     1
102
RTVSPropertyOp7
 70
     1
102
RTVSPropertyOp8
 70
     1
102
RTVSPropertyOp9
 70
     1
102
RTVSPropertyOp10
 70
     1
102
RTVSPropertyOp11
 70
     1
102
RTVSPropertyOp12
 70
     1
102
RTVSPropertyOp13
 70
     1
102
RTVSPropertyOp14
 70
     1
102
RTVSPropertyOp15
 70
     1
102
RTVSPropertyOp16
 70
     1
102
RTVSPropertyOp17
 70
     1
102
RTVSPropertyOp18
 70
     1
102
RTVSPropertyOp19
 70
     1
102
RTVSPropertyOp20
 70
     1
102
RTVSPropertyOp21
 70
     1
102
RTVSPropertyOp22
 70
     1
102
RTVSPropertyOp23
 70
     1
102
RTVSPropertyOp24
 70
     1
102
RTVSPropertyOp25
 70
     1
102
RTVSPropertyOp26
 70
     1
102
RTVSPropertyOp27
 70
     1
102
RTVSPropertyOp28
 70
     1
102
RTVSPropertyOp29
 70
     1
102
RTVSPropertyOp30
 70
     1
102
RTVSPropertyOp31
 70
     1
102
RTVSPropertyOp32
 70
     1
102
RTVSPropertyOp33
 70
     1
102
RTVSPropertyOp34
 70
     1
102
RTVSPropertyOp35
 70
     1
102
RTVSPropertyOp36
 70
     1
102
RTVSPropertyOp37
 70
     1
102
RTVSPropertyOp38
 70
     1
102
RTVSPropertyOp39
 70
     1
102
RTVSPropertyOp40
 70
     1
102
RTVSPropertyOp41
 70
     1
102
RTVSPropertyOp42
 70
     1
102
RTVSPropertyOp43
 70
     1
102
RTVSPropertyOp44
 70
     1
102
RTVSPropertyOp45
 70
     1
102
RTVSPropertyOp46
 70
     1
102
RTVSPropertyOp47
 70
     1
102
RTVSPropertyOp48
 70
     1
102
RTVSPropertyOp49
 70
     1
102
RTVSPropertyOp50
 70
     1
102
RTVSPropertyOp51
 70
     0
102
RTVSPropertyOp52
 70
     0
102
RTVSPropertyOp53
 70
     1
102
RTVSPropertyOp54
 70
     1
102
RTVSPropertyOp55
 70
     1
102
RTVSPropertyOp56
 70
     1
102
RTVSPropertyOp57
 70
     1
102
RTVSPropertyOp58
 70
     1
102
RTVSPropertyOp59
 70
     1
102
RTVSPropertyOp60
 70
     1
102
RTVSPropertyOp61
 70
     1
102
RTVSPropertyOp62
 70
     1
  0
XRECORD
  5
3A5
102
{ACAD_REACTORS
330
3A4
102
}
330
3A4
100
AcDbXrecord
280
     1
102
RTVSPost2010Prop28
280
     0
102
RTVSPost2010PropOp28
 70
     1
102
RTVSPost2010Prop29
280
     1
102
RTVSPost2010PropOp29
 70
     1
102
RTVSPost2010Prop30
280
     1
102
RTVSPost2010PropOp30
 70
     1
102
RTVSPost2010Prop31
280
     0
102
RTVSPost2010PropOp31
 70
     1
102
RTVSPost2010Prop32
280
     0
102
RTVSPost2010PropOp32
 70
     1
102
RTVSPost2010Prop33
280
     0
102
RTVSPost2010PropOp33
 70
     1
102
RTVSPost2010Prop34
280
     0
102
RTVSPost2010PropOp34
 70
     1
102
RTVSPost2010Prop35
280
     0
102
RTVSPost2010PropOp35
 70
     1
102
RTVSPost2010Prop36
280
     0
102
RTVSPost2010PropOp36
 70
     1
102
RTVSPost2010Prop37
 90
       50
102
RTVSPost2010PropOp37
 70
     1
102
RTVSPost2010Prop38
140
0.0
102
RTVSPost2010PropOp38
 70
     1
102
RTVSPost2010Prop39
140
1.0
102
RTVSPost2010PropOp39
 70
     1
102
RTVSPost2010Prop40
 90
        0
102
RTVSPost2010PropOp40
 70
     1
102
RTVSPost2010Prop41ColorIndex
 90
       18
102
RTVSPost2010Prop41ColorRGB
 90
        0
102
RTVSPost2010PropOp41
 70
     1
102
RTVSPost2010Prop42
 90
       50
102
RTVSPost2010PropOp42
 70
     1
102
RTVSPost2010Prop43
 90
        3
102
RTVSPost2010PropOp43
 70
     1
102
RTVSPost2010Prop44ColorIndex
 90
        5
102
RTVSPost2010Prop44ColorRGB
 90
      255
102
RTVSPost2010PropOp44
 70
     1
102
RTVSPost2010Prop45
280
     0
102
RTVSPost2010PropOp45
 70
     1
102
RTVSPost2010Prop46
 90
       50
102
RTVSPost2010PropOp46
 70
     1
102
RTVSPost2010Prop47
 90
       50
102
RTVSPost2010PropOp47
 70
     1
102
RTVSPost2010Prop48
 90
       50
102
RTVSPost2010PropOp48
 70
     1
102
RTVSPost2010Prop49
280
     0
102
RTVSPost2010PropOp49
 70
     1
102
RTVSPost2010Prop50
 90
       50
102
RTVSPost2010PropOp50
 70
     1
102
RTVSPost2010Prop51ColorIndex
 90
      256
102
RTVSPost2010Prop51ColorRGB
 90
-16777216
102
RTVSPost2010PropOp51
 70
     0
102
RTVSPost2010Prop52
140
1.0
102
RTVSPost2010PropOp52
 70
     0
102
RTVSPost2010Prop53
 90
        2
102
RTVSPost2010PropOp53
 70
     1
102
RTVSPost2010Prop54
  1
strokes_ogs.tif
102
RTVSPost2010PropOp54
 70
     1
102
RTVSPost2010Prop55
280
     0
102
RTVSPost2010PropOp55
 70
     1
102
RTVSPost2010Prop56
140
1.0
102
RTVSPost2010PropOp56
 70
     1
102
RTVSPost2010Prop57
140
1.0
102
RTVSPost2010PropOp57
 70
     1
102
RTVSPropertyOp0
 70
     1
102
RTVSPropertyOp1
 70
     1
102
RTVSPropertyOp2
 70
     1
102
RTVSPropertyOp3
 70
     1
102
RTVSPropertyOp4
 70
     1
102
RTVSPropertyOp5
 70
     1
102
RTVSPropertyOp6
 70
     1
102
RTVSPropertyOp7
 70
     1
102
RTVSPropertyOp8
 70
     1
102
RTVSPropertyOp9
 70
     1
102
RTVSPropertyOp10
 70
     1
102
RTVSPropertyOp11
 70
     1
102
RTVSPropertyOp12
 70
     1
102
RTVSPropertyOp13
 70
     1
102
RTVSPropertyOp14
 70
     1
102
RTVSPropertyOp15
 70
     1
102
RTVSPropertyOp16
 70
     1
102
RTVSPropertyOp17
 70
     1
102
RTVSPropertyOp18
 70
     1
102
RTVSPropertyOp19
 70
     1
102
RTVSPropertyOp20
 70
     1
102
RTVSPropertyOp21
 70
     1
102
RTVSPropertyOp22
 70
     1
102
RTVSPropertyOp23
 70
     1
102
RTVSPropertyOp24
 70
     1
102
RTVSPropertyOp25
 70
     1
102
RTVSPropertyOp26
 70
     1
102
RTVSPropertyOp27
 70
     1
102
RTVSPropertyOp28
 70
     1
102
RTVSPropertyOp29
 70
     1
102
RTVSPropertyOp30
 70
     1
102
RTVSPropertyOp31
 70
     1
102
RTVSPropertyOp32
 70
     1
102
RTVSPropertyOp33
 70
     1
102
RTVSPropertyOp34
 70
     1
102
RTVSPropertyOp35
 70
     1
102
RTVSPropertyOp36
 70
     1
102
RTVSPropertyOp37
 70
     1
102
RTVSPropertyOp38
 70
     1
102
RTVSPropertyOp39
 70
     1
102
RTVSPropertyOp40
 70
     1
102
RTVSPropertyOp41
 70
     1
102
RTVSPropertyOp42
 70
     1
102
RTVSPropertyOp43
 70
     1
102
RTVSPropertyOp44
 70
     1
102
RTVSPropertyOp45
 70
     1
102
RTVSPropertyOp46
 70
     1
102
RTVSPropertyOp47
 70
     1
102
RTVSPropertyOp48
 70
     1
102
RTVSPropertyOp49
 70
     1
102
RTVSPropertyOp50
 70
     1
102
RTVSPropertyOp51
 70
     0
102
RTVSPropertyOp52
 70
     0
102
RTVSPropertyOp53
 70
     1
102
RTVSPropertyOp54
 70
     1
102
RTVSPropertyOp55
 70
     1
102
RTVSPropertyOp56
 70
     1
102
RTVSPropertyOp57
 70
     1
102
RTVSPropertyOp58
 70
     1
102
RTVSPropertyOp59
 70
     1
102
RTVSPropertyOp60
 70
     1
102
RTVSPropertyOp61
 70
     1
102
RTVSPropertyOp62
 70
     1
  0
ENDSEC
  0
EOF
