  0
SECTION
  2
HEADER
  9
$ACADVER
  1
AC1018
  9
$ACADMAINTVER
 70
   104
  9
$DWGCODEPAGE
  3
ANSI_1250
  9
$LASTSAVEDBY
  1
wq7085
  9
$INSBASE
 10
0.0
 20
0.0
 30
0.0
  9
$EXTMIN
 10
187.2502013333333
 20
118.534924
 30
0.0
  9
$EXTMAX
 10
450.0642599999999
 20
351.9336746666668
 30
0.0
  9
$LIMMIN
 10
-0.5
 20
-0.5
  9
$LIMMAX
 10
5.0
 20
5.0
  9
$ORTHOMODE
 70
     0
  9
$REGENMODE
 70
     1
  9
$FILLMODE
 70
     1
  9
$QTEXTMODE
 70
     0
  9
$MIRRTEXT
 70
     1
  9
$LTSCALE
 40
1.0
  9
$ATTMODE
 70
     1
  9
$TEXTSIZE
 40
0.2
  9
$TRACEWID
 40
0.05
  9
$TEXTSTYLE
  7
Standard
  9
$CLAYER
  8
0
  9
$CELTYPE
  6
ByLayer
  9
$CECOLOR
 62
   256
  9
$CELTSCALE
 40
1.0
  9
$DISPSILH
 70
     0
  9
$DIMSCALE
 40
1.0
  9
$DIMASZ
 40
0.18
  9
$DIMEXO
 40
0.0625
  9
$DIMDLI
 40
0.38
  9
$DIMRND
 40
0.0
  9
$DIMDLE
 40
0.0
  9
$DIMEXE
 40
0.18
  9
$DIMTP
 40
0.0
  9
$DIMTM
 40
0.0
  9
$DIMTXT
 40
0.18
  9
$DIMCEN
 40
0.09
  9
$DIMTSZ
 40
0.0
  9
$DIMTOL
 70
     0
  9
$DIMLIM
 70
     0
  9
$DIMTIH
 70
     1
  9
$DIMTOH
 70
     1
  9
$DIMSE1
 70
     0
  9
$DIMSE2
 70
     0
  9
$DIMTAD
 70
     0
  9
$DIMZIN
 70
     0
  9
$DIMBLK
  1

  9
$DIMASO
 70
     1
  9
$DIMSHO
 70
     1
  9
$DIMPOST
  1

  9
$DIMAPOST
  1

  9
$DIMALT
 70
     0
  9
$DIMALTD
 70
     2
  9
$DIMALTF
 40
25.4
  9
$DIMLFAC
 40
1.0
  9
$DIMTOFL
 70
     0
  9
$DIMTVP
 40
0.0
  9
$DIMTIX
 70
     0
  9
$DIMSOXD
 70
     0
  9
$DIMSAH
 70
     0
  9
$DIMBLK1
  1

  9
$DIMBLK2
  1

  9
$DIMSTYLE
  2
Standard
  9
$DIMCLRD
 70
     0
  9
$DIMCLRE
 70
     0
  9
$DIMCLRT
 70
     0
  9
$DIMTFAC
 40
1.0
  9
$DIMGAP
 40
0.09
  9
$DIMJUST
 70
     0
  9
$DIMSD1
 70
     0
  9
$DIMSD2
 70
     0
  9
$DIMTOLJ
 70
     1
  9
$DIMTZIN
 70
     0
  9
$DIMALTZ
 70
     0
  9
$DIMALTTZ
 70
     0
  9
$DIMUPT
 70
     0
  9
$DIMDEC
 70
     4
  9
$DIMTDEC
 70
     4
  9
$DIMALTU
 70
     2
  9
$DIMALTTD
 70
     2
  9
$DIMTXSTY
  7
Standard
  9
$DIMAUNIT
 70
     0
  9
$DIMADEC
 70
     0
  9
$DIMALTRND
 40
0.0
  9
$DIMAZIN
 70
     0
  9
$DIMDSEP
 70
    46
  9
$DIMATFIT
 70
     3
  9
$DIMFRAC
 70
     0
  9
$DIMLDRBLK
  1

  9
$DIMLUNIT
 70
     2
  9
$DIMLWD
 70
    -2
  9
$DIMLWE
 70
    -2
  9
$DIMTMOVE
 70
     0
  9
$LUNITS
 70
     2
  9
$LUPREC
 70
     4
  9
$SKETCHINC
 40
0.1
  9
$FILLETRAD
 40
0.5
  9
$AUNITS
 70
     0
  9
$AUPREC
 70
     0
  9
$MENU
  1
.
  9
$ELEVATION
 40
0.0
  9
$PELEVATION
 40
0.0
  9
$THICKNESS
 40
0.0
  9
$LIMCHECK
 70
     0
  9
$CHAMFERA
 40
0.0
  9
$CHAMFERB
 40
0.0
  9
$CHAMFERC
 40
0.0
  9
$CHAMFERD
 40
0.0
  9
$SKPOLY
 70
     0
  9
$TDCREATE
 40
2459089.333217593
  9
$TDUCREATE
 40
2459089.249892118
  9
$TDUPDATE
 40
2459089.334363426
  9
$TDUUPDATE
 40
2459089.251030093
  9
$TDINDWG
 40
0.0004514005
  9
$TDUSRTIMER
 40
0.0004514005
  9
$USRTIMER
 70
     1
  9
$ANGBASE
 50
0.0
  9
$ANGDIR
 70
     0
  9
$PDMODE
 70
     0
  9
$PDSIZE
 40
0.0
  9
$PLINEWID
 40
0.0
  9
$SPLFRAME
 70
     0
  9
$SPLINETYPE
 70
     6
  9
$SPLINESEGS
 70
     8
  9
$HANDSEED
  5
3AC
  9
$SURFTAB1
 70
     6
  9
$SURFTAB2
 70
     6
  9
$SURFTYPE
 70
     6
  9
$SURFU
 70
     6
  9
$SURFV
 70
     6
  9
$UCSBASE
  2

  9
$UCSNAME
  2

  9
$UCSORG
 10
274.404842
 20
288.907994
 30
0.0
  9
$UCSXDIR
 10
1.0
 20
0.0
 30
0.0
  9
$UCSYDIR
 10
0.0
 20
1.0
 30
0.0
  9
$UCSORTHOREF
  2

  9
$UCSORTHOVIEW
 70
     0
  9
$UCSORGTOP
 10
0.0
 20
0.0
 30
0.0
  9
$UCSORGBOTTOM
 10
0.0
 20
0.0
 30
0.0
  9
$UCSORGLEFT
 10
0.0
 20
0.0
 30
0.0
  9
$UCSORGRIGHT
 10
0.0
 20
0.0
 30
0.0
  9
$UCSORGFRONT
 10
0.0
 20
0.0
 30
0.0
  9
$UCSORGBACK
 10
0.0
 20
0.0
 30
0.0
  9
$PUCSBASE
  2

  9
$PUCSNAME
  2

  9
$PUCSORG
 10
0.0
 20
0.0
 30
0.0
  9
$PUCSXDIR
 10
1.0
 20
0.0
 30
0.0
  9
$PUCSYDIR
 10
0.0
 20
1.0
 30
0.0
  9
$PUCSORTHOREF
  2

  9
$PUCSORTHOVIEW
 70
     0
  9
$PUCSORGTOP
 10
0.0
 20
0.0
 30
0.0
  9
$PUCSORGBOTTOM
 10
0.0
 20
0.0
 30
0.0
  9
$PUCSORGLEFT
 10
0.0
 20
0.0
 30
0.0
  9
$PUCSORGRIGHT
 10
0.0
 20
0.0
 30
0.0
  9
$PUCSORGFRONT
 10
0.0
 20
0.0
 30
0.0
  9
$PUCSORGBACK
 10
0.0
 20
0.0
 30
0.0
  9
$USERI1
 70
     0
  9
$USERI2
 70
     0
  9
$USERI3
 70
     0
  9
$USERI4
 70
     0
  9
$USERI5
 70
     0
  9
$USERR1
 40
0.0
  9
$USERR2
 40
0.0
  9
$USERR3
 40
0.0
  9
$USERR4
 40
0.0
  9
$USERR5
 40
0.0
  9
$WORLDVIEW
 70
     1
  9
$SHADEDGE
 70
     3
  9
$SHADEDIF
 70
    70
  9
$TILEMODE
 70
     1
  9
$MAXACTVP
 70
    64
  9
$PINSBASE
 10
0.0
 20
0.0
 30
0.0
  9
$PLIMCHECK
 70
     0
  9
$PEXTMIN
 10
-0.5
 20
-0.5
 30
-0.5
  9
$PEXTMAX
 10
5.0
 20
5.0
 30
5.0
  9
$PLIMMIN
 10
-0.5
 20
-0.5
  9
$PLIMMAX
 10
5.0
 20
5.0
  9
$UNITMODE
 70
     0
  9
$VISRETAIN
 70
     1
  9
$PLINEGEN
 70
     0
  9
$PSLTSCALE
 70
     1
  9
$TREEDEPTH
 70
  3020
  9
$CMLSTYLE
  2
Standard
  9
$CMLJUST
 70
     0
  9
$CMLSCALE
 40
1.0
  9
$PROXYGRAPHICS
 70
     1
  9
$MEASUREMENT
 70
     1
  9
$CELWEIGHT
370
    13
  9
$ENDCAPS
280
     0
  9
$JOINSTYLE
280
     0
  9
$LWDISPLAY
290
     0
  9
$INSUNITS
 70
     4
  9
$HYPERLINKBASE
  1

  9
$STYLESHEET
  1

  9
$XEDIT
290
     1
  9
$CEPSNTYPE
380
     0
  9
$PSTYLEMODE
290
     1
  9
$FINGERPRINTGUID
  2
{5A99D27F-B0B0-4B51-8A6B-75AA7161B6F8}
  9
$VERSIONGUID
  2
{F273A077-3DF9-764C-B0F4-4BB03BA09377}
  9
$EXTNAMES
290
     1
  9
$PSVPSCALE
 40
0.0
  9
$OLESTARTUP
290
     0
  9
$SORTENTS
280
   127
  9
$INDEXCTL
280
     0
  9
$HIDETEXT
280
     1
  9
$XCLIPFRAME
290
     0
  9
$HALOGAP
280
     0
  9
$OBSCOLOR
 70
   257
  9
$OBSLTYPE
280
     0
  9
$INTERSECTIONDISPLAY
280
     0
  9
$INTERSECTIONCOLOR
 70
   257
  9
$DIMASSOC
280
     2
  9
$PROJECTNAME
  1

  0
ENDSEC
  0
SECTION
  2
CLASSES
  0
CLASS
  1
ACDBDICTIONARYWDFLT
  2
AcDbDictionaryWithDefault
  3
ObjectDBX Classes
 90
        0
 91
        1
280
     0
281
     0
  0
CLASS
  1
VISUALSTYLE
  2
AcDbVisualStyle
  3
ObjectDBX Classes
 90
     4095
 91
       24
280
     0
281
     0
  0
CLASS
  1
MATERIAL
  2
AcDbMaterial
  3
ObjectDBX Classes
 90
     1153
 91
        3
280
     0
281
     0
  0
CLASS
  1
SCALE
  2
AcDbScale
  3
ObjectDBX Classes
 90
     1153
 91
       33
280
     0
281
     0
  0
CLASS
  1
TABLESTYLE
  2
AcDbTableStyle
  3
ObjectDBX Classes
 90
     4095
 91
        1
280
     0
281
     0
  0
CLASS
  1
MLEADERSTYLE
  2
AcDbMLeaderStyle
  3
ACDB_MLEADERSTYLE_CLASS
 90
     4095
 91
        1
280
     0
281
     0
  0
CLASS
  1
SUN
  2
AcDbSun
  3
SCENEOE
 90
     1153
 91
        0
280
     0
281
     0
  0
CLASS
  1
DIMASSOC
  2
AcDbDimAssoc
  3
"AcDbDimAssoc|Product Desc:     AcDim ARX App For Dimension|Company:          Autodesk, Inc.|WEB Address:      www.autodesk.com"
 90
        0
 91
        7
280
     0
281
     0
  0
CLASS
  1
DICTIONARYVAR
  2
AcDbDictionaryVar
  3
ObjectDBX Classes
 90
        0
 91
        8
280
     0
281
     0
  0
CLASS
  1
CELLSTYLEMAP
  2
AcDbCellStyleMap
  3
ObjectDBX Classes
 90
     1152
 91
        2
280
     0
281
     0
  0
CLASS
  1
ACDBSECTIONVIEWSTYLE
  2
AcDbSectionViewStyle
  3
ObjectDBX Classes
 90
     1025
 91
        1
280
     0
281
     0
  0
CLASS
  1
ACDBDETAILVIEWSTYLE
  2
AcDbDetailViewStyle
  3
ObjectDBX Classes
 90
     1025
 91
        1
280
     0
281
     0
  0
CLASS
  1
SORTENTSTABLE
  2
AcDbSortentsTable
  3
ObjectDBX Classes
 90
        0
 91
        1
280
     0
281
     0
  0
ENDSEC
  0
SECTION
  2
TABLES
  0
TABLE
  2
VPORT
  5
8
330
0
100
AcDbSymbolTable
 70
    16
  0
VPORT
  5
29
330
8
100
AcDbSymbolTableRecord
100
AcDbViewportTableRecord
  2
*Active
 70
     0
 10
0.0
 20
0.0
 11
1.0
 21
1.0
 12
336.9263248922748
 22
294.9581630639713
 13
0.0
 23
0.0
 14
0.5
 24
0.5
 15
0.5
 25
0.5
 16
0.0
 26
0.0
 36
1.0
 17
0.0
 27
0.0
 37
0.0
 40
211.0755158507497
 41
2.292712066905615
 42
50.0
 43
465.2464179999999
 44
-465.2464179999999
 50
0.0
 51
0.0
 71
     0
 72
   100
 73
     1
 74
     3
 75
     0
 76
     0
 77
     0
 78
     0
281
     0
 65
     1
110
274.404842
120
288.907994
130
0.0
111
1.0
121
0.0
131
0.0
112
0.0
122
1.0
132
0.0
 79
     0
146
0.0
1001
ACAD_NAV_VCDISPLAY
1070
     3
  0
VPORT
  5
2AD
330
8
100
AcDbSymbolTableRecord
100
AcDbViewportTableRecord
  2
L1
 70
     0
 10
0.0
 20
0.0
 11
1.0
 21
1.0
 12
318.15303
 22
235.225034
 13
0.0
 23
0.0
 14
0.5
 24
0.5
 15
0.5
 25
0.5
 16
0.0
 26
0.0
 36
1.0
 17
0.0
 27
0.0
 37
0.0
 40
207.433333
 41
0.085602
 42
50.0
 43
465.2464179999999
 44
-465.2464179999999
 50
0.0
 51
0.0
 71
     0
 72
   100
 73
     1
 74
     3
 75
     0
 76
     0
 77
     0
 78
     0
281
     0
 65
     1
110
0.0
120
0.0
130
0.0
111
1.0
121
0.0
131
0.0
112
0.0
122
1.0
132
0.0
 79
     0
146
0.0
  0
VPORT
  5
2AE
330
8
100
AcDbSymbolTableRecord
100
AcDbViewportTableRecord
  2
L2
 70
     0
 10
0.0
 20
0.0
 11
0.5
 21
1.0
 12
0.0
 22
0.0
 13
0.0
 23
0.0
 14
0.5
 24
0.5
 15
0.5
 25
0.5
 16
0.0
 26
-1.0
 36
0.0
 17
0.0
 27
0.0
 37
0.0
 40
1316.18997
 41
0.013491
 42
50.0
 43
678.00864
 44
-678.00864
 50
0.0
 51
0.0
 71
     0
 72
   100
 73
     1
 74
     3
 75
     0
 76
     0
 77
     0
 78
     0
281
     0
 65
     1
110
0.0
120
0.0
130
0.0
111
1.0
121
0.0
131
0.0
112
0.0
122
1.0
132
0.0
 79
     0
146
0.0
  0
VPORT
  5
2AF
330
8
100
AcDbSymbolTableRecord
100
AcDbViewportTableRecord
  2
L2
 70
     0
 10
0.5
 20
0.0
 11
1.0
 21
1.0
 12
0.0
 22
0.0
 13
0.0
 23
0.0
 14
0.5
 24
0.5
 15
0.5
 25
0.5
 16
1.0
 26
0.0
 36
0.0
 17
0.0
 27
0.0
 37
0.0
 40
1316.18997
 41
0.013491
 42
50.0
 43
666.2177989999999
 44
-666.2177989999999
 50
0.0
 51
0.0
 71
     0
 72
   100
 73
     1
 74
     3
 75
     0
 76
     0
 77
     0
 78
     0
281
     0
 65
     1
110
0.0
120
0.0
130
0.0
111
1.0
121
0.0
131
0.0
112
0.0
122
1.0
132
0.0
 79
     0
146
0.0
  0
VPORT
  5
2B0
330
8
100
AcDbSymbolTableRecord
100
AcDbViewportTableRecord
  2
L3
 70
     0
 10
0.0
 20
0.5
 11
1.0
 21
1.0
 12
318.15303
 22
235.225034
 13
0.0
 23
0.0
 14
0.5
 24
0.5
 15
0.5
 25
0.5
 16
0.0
 26
0.0
 36
1.0
 17
0.0
 27
0.0
 37
0.0
 40
207.433333
 41
0.085602
 42
50.0
 43
465.2464179999999
 44
-465.2464179999999
 50
0.0
 51
0.0
 71
     0
 72
   100
 73
     1
 74
     3
 75
     0
 76
     0
 77
     0
 78
     0
281
     0
 65
     1
110
0.0
120
0.0
130
0.0
111
1.0
121
0.0
131
0.0
112
0.0
122
1.0
132
0.0
 79
     0
146
0.0
  0
VPORT
  5
2B1
330
8
100
AcDbSymbolTableRecord
100
AcDbViewportTableRecord
  2
L3
 70
     0
 10
0.0
 20
0.0
 11
1.0
 21
0.5
 12
0.0
 22
0.0
 13
0.0
 23
0.0
 14
0.5
 24
0.5
 15
0.5
 25
0.5
 16
0.0
 26
-1.0
 36
0.0
 17
0.0
 27
0.0
 37
0.0
 40
1316.18997
 41
0.013491
 42
50.0
 43
678.00864
 44
-678.00864
 50
0.0
 51
0.0
 71
     0
 72
   100
 73
     1
 74
     3
 75
     0
 76
     0
 77
     0
 78
     0
281
     0
 65
     1
110
0.0
120
0.0
130
0.0
111
1.0
121
0.0
131
0.0
112
0.0
122
1.0
132
0.0
 79
     0
146
0.0
  0
VPORT
  5
2B2
330
8
100
AcDbSymbolTableRecord
100
AcDbViewportTableRecord
  2
L4
 70
     0
 10
0.0
 20
0.5
 11
0.5
 21
1.0
 12
318.15303
 22
235.225034
 13
0.0
 23
0.0
 14
0.5
 24
0.5
 15
0.5
 25
0.5
 16
0.0
 26
0.0
 36
1.0
 17
0.0
 27
0.0
 37
0.0
 40
207.433333
 41
0.085602
 42
50.0
 43
465.2464179999999
 44
-465.2464179999999
 50
0.0
 51
0.0
 71
     0
 72
   100
 73
     1
 74
     3
 75
     0
 76
     0
 77
     0
 78
     0
281
     0
 65
     1
110
0.0
120
0.0
130
0.0
111
1.0
121
0.0
131
0.0
112
0.0
122
1.0
132
0.0
 79
     0
146
0.0
  0
VPORT
  5
2B3
330
8
100
AcDbSymbolTableRecord
100
AcDbViewportTableRecord
  2
L4
 70
     0
 10
0.0
 20
0.0
 11
0.5
 21
0.5
 12
0.0
 22
0.0
 13
0.0
 23
0.0
 14
0.5
 24
0.5
 15
0.5
 25
0.5
 16
0.0
 26
-1.0
 36
0.0
 17
0.0
 27
0.0
 37
0.0
 40
1316.18997
 41
0.013491
 42
50.0
 43
678.00864
 44
-678.00864
 50
0.0
 51
0.0
 71
     0
 72
   100
 73
     1
 74
     3
 75
     0
 76
     0
 77
     0
 78
     0
281
     0
 65
     1
110
0.0
120
0.0
130
0.0
111
1.0
121
0.0
131
0.0
112
0.0
122
1.0
132
0.0
 79
     0
146
0.0
  0
VPORT
  5
2B4
330
8
100
AcDbSymbolTableRecord
100
AcDbViewportTableRecord
  2
L4
 70
     0
 10
0.5
 20
0.0
 11
1.0
 21
0.5
 12
0.0
 22
0.0
 13
0.0
 23
0.0
 14
0.5
 24
0.5
 15
0.5
 25
0.5
 16
1.0
 26
0.0
 36
0.0
 17
0.0
 27
0.0
 37
0.0
 40
1316.18997
 41
0.013491
 42
50.0
 43
666.2177989999999
 44
-666.2177989999999
 50
0.0
 51
0.0
 71
     0
 72
   100
 73
     1
 74
     3
 75
     0
 76
     0
 77
     0
 78
     0
281
     0
 65
     1
110
0.0
120
0.0
130
0.0
111
1.0
121
0.0
131
0.0
112
0.0
122
1.0
132
0.0
 79
     0
146
0.0
  0
VPORT
  5
2B5
330
8
100
AcDbSymbolTableRecord
100
AcDbViewportTableRecord
  2
L4
 70
     0
 10
0.5
 20
0.5
 11
1.0
 21
1.0
 12
0.0
 22
0.0
 13
0.0
 23
0.0
 14
0.5
 24
0.5
 15
0.5
 25
0.5
 16
0.5773502691896259
 26
-0.5773502691896259
 36
0.5773502691896259
 17
0.0
 27
0.0
 37
0.0
 40
1292.532264
 41
0.013738
 42
50.0
 43
673.245608
 44
-673.245608
 50
0.0
 51
0.0
 71
     0
 72
   100
 73
     1
 74
     3
 75
     0
 76
     0
 77
     0
 78
     0
281
     0
 65
     1
110
0.0
120
0.0
130
0.0
111
1.0
121
0.0
131
0.0
112
0.0
122
1.0
132
0.0
 79
     0
146
0.0
  0
VPORT
  5
2B6
330
8
100
AcDbSymbolTableRecord
100
AcDbViewportTableRecord
  2
L6
 70
     0
 10
0.0
 20
0.5
 11
0.333333
 21
1.0
 12
0.0
 22
0.0
 13
0.0
 23
0.0
 14
0.5
 24
0.5
 15
0.5
 25
0.5
 16
0.7188730927569434
 26
-0.5850486126764433
 36
0.3754192287502549
 17
0.0
 27
0.0
 37
0.0
 40
1364.064247
 41
0.013018
 42
50.0
 43
706.2613849999999
 44
-706.2613849999999
 50
0.0
 51
0.0
 71
     0
 72
   100
 73
     1
 74
     3
 75
     0
 76
     0
 77
     0
 78
     0
281
     0
 65
     1
110
0.0
120
0.0
130
0.0
111
1.0
121
0.0
131
0.0
112
0.0
122
1.0
132
0.0
 79
     0
146
0.0
  0
VPORT
  5
2B7
330
8
100
AcDbSymbolTableRecord
100
AcDbViewportTableRecord
  2
L6
 70
     0
 10
0.0
 20
0.0
 11
0.333333
 21
0.5
 12
0.0
 22
0.0
 13
0.0
 23
0.0
 14
0.5
 24
0.5
 15
0.5
 25
0.5
 16
-1.0
 26
0.0
 36
0.0
 17
0.0
 27
0.0
 37
0.0
 40
1316.18997
 41
0.013491
 42
50.0
 43
666.2177989999999
 44
-666.2177989999999
 50
0.0
 51
0.0
 71
     0
 72
   100
 73
     1
 74
     3
 75
     0
 76
     0
 77
     0
 78
     0
281
     0
 65
     1
110
0.0
120
0.0
130
0.0
111
1.0
121
0.0
131
0.0
112
0.0
122
1.0
132
0.0
 79
     0
146
0.0
  0
VPORT
  5
2B8
330
8
100
AcDbSymbolTableRecord
100
AcDbViewportTableRecord
  2
L6
 70
     0
 10
0.333333
 20
0.5
 11
0.666667
 21
1.0
 12
318.15303
 22
235.225034
 13
0.0
 23
0.0
 14
0.5
 24
0.5
 15
0.5
 25
0.5
 16
0.0
 26
0.0
 36
1.0
 17
0.0
 27
0.0
 37
0.0
 40
207.433333
 41
0.085602
 42
50.0
 43
465.2464179999999
 44
-465.2464179999999
 50
0.0
 51
0.0
 71
     0
 72
   100
 73
     1
 74
     3
 75
     0
 76
     0
 77
     0
 78
     0
281
     0
 65
     1
110
0.0
120
0.0
130
0.0
111
1.0
121
0.0
131
0.0
112
0.0
122
1.0
132
0.0
 79
     0
146
0.0
  0
VPORT
  5
2B9
330
8
100
AcDbSymbolTableRecord
100
AcDbViewportTableRecord
  2
L6
 70
     0
 10
0.333333
 20
0.0
 11
0.666667
 21
0.5
 12
0.0
 22
0.0
 13
0.0
 23
0.0
 14
0.5
 24
0.5
 15
0.5
 25
0.5
 16
0.0
 26
-1.0
 36
0.0
 17
0.0
 27
0.0
 37
0.0
 40
1316.18997
 41
0.013491
 42
50.0
 43
678.00864
 44
-678.00864
 50
0.0
 51
0.0
 71
     0
 72
   100
 73
     1
 74
     3
 75
     0
 76
     0
 77
     0
 78
     0
281
     0
 65
     1
110
0.0
120
0.0
130
0.0
111
1.0
121
0.0
131
0.0
112
0.0
122
1.0
132
0.0
 79
     0
146
0.0
  0
VPORT
  5
2BA
330
8
100
AcDbSymbolTableRecord
100
AcDbViewportTableRecord
  2
L6
 70
     0
 10
0.666667
 20
0.5
 11
1.0
 21
1.0
 12
0.0
 22
0.0
 13
0.0
 23
0.0
 14
0.5
 24
0.5
 15
0.5
 25
0.5
 16
0.5773502691896259
 26
-0.5773502691896259
 36
0.5773502691896259
 17
0.0
 27
0.0
 37
0.0
 40
1292.532264
 41
0.013738
 42
50.0
 43
673.245608
 44
-673.245608
 50
0.0
 51
0.0
 71
     0
 72
   100
 73
     1
 74
     3
 75
     0
 76
     0
 77
     0
 78
     0
281
     0
 65
     1
110
0.0
120
0.0
130
0.0
111
1.0
121
0.0
131
0.0
112
0.0
122
1.0
132
0.0
 79
     0
146
0.0
  0
VPORT
  5
2BB
330
8
100
AcDbSymbolTableRecord
100
AcDbViewportTableRecord
  2
L6
 70
     0
 10
0.666667
 20
0.0
 11
1.0
 21
0.5
 12
0.0
 22
0.0
 13
0.0
 23
0.0
 14
0.5
 24
0.5
 15
0.5
 25
0.5
 16
1.0
 26
0.0
 36
0.0
 17
0.0
 27
0.0
 37
0.0
 40
1316.18997
 41
0.013491
 42
50.0
 43
666.2177989999999
 44
-666.2177989999999
 50
0.0
 51
0.0
 71
     0
 72
   100
 73
     1
 74
     3
 75
     0
 76
     0
 77
     0
 78
     0
281
     0
 65
     1
110
0.0
120
0.0
130
0.0
111
1.0
121
0.0
131
0.0
112
0.0
122
1.0
132
0.0
 79
     0
146
0.0
  0
ENDTAB
  0
TABLE
  2
LTYPE
  5
5
330
0
100
AcDbSymbolTable
 70
     7
  0
LTYPE
  5
14
330
5
100
AcDbSymbolTableRecord
100
AcDbLinetypeTableRecord
  2
ByBlock
 70
     0
  3

 72
    65
 73
     0
 40
0.0
  0
LTYPE
  5
15
330
5
100
AcDbSymbolTableRecord
100
AcDbLinetypeTableRecord
  2
ByLayer
 70
     0
  3

 72
    65
 73
     0
 40
0.0
  0
LTYPE
  5
16
330
5
100
AcDbSymbolTableRecord
100
AcDbLinetypeTableRecord
  2
Continuous
 70
     0
  3
Solid line
 72
    65
 73
     0
 40
0.0
  0
LTYPE
  5
6E
330
5
100
AcDbSymbolTableRecord
100
AcDbLinetypeTableRecord
  2
CENTER
 70
     0
  3
____ _ ____ _ ____ _ ____
 72
    65
 73
     4
 40
47.4
 49
22.0
 74
     4
 75
     0
340
0
 46
0.0
 50
0.0
 44
0.0
 45
0.0
 49
-8.5
 74
     4
 75
     0
340
0
 46
0.0
 50
0.0
 44
0.0
 45
0.0
 49
8.5
 74
     4
 75
     0
340
0
 46
0.0
 50
0.0
 44
0.0
 45
0.0
 49
-8.5
 74
     4
 75
     0
340
0
 46
0.0
 50
0.0
 44
0.0
 45
0.0
  0
LTYPE
  5
6F
330
5
100
AcDbSymbolTableRecord
100
AcDbLinetypeTableRecord
  2
DASHDOT
 70
     0
  3
_._._._._._._._._._._._._._._._.
 72
    65
 73
     4
 40
70.0
 49
31.0
 74
     4
 75
     0
340
0
 46
0.0
 50
0.0
 44
0.0
 45
0.0
 49
-13.0
 74
     4
 75
     0
340
0
 46
0.0
 50
0.0
 44
0.0
 45
0.0
 49
13.0
 74
     4
 75
     0
340
0
 46
0.0
 50
0.0
 44
0.0
 45
0.0
 49
-13.0
 74
     4
 75
     0
340
0
 46
0.0
 50
0.0
 44
0.0
 45
0.0
  0
LTYPE
  5
70
330
5
100
AcDbSymbolTableRecord
100
AcDbLinetypeTableRecord
  2
DASHED
 70
     0
  3
__ __ __ __ __ __ __ __ __
 72
    65
 73
     2
 40
25.72
 49
12.86
 74
     4
 75
     0
340
0
 46
0.0
 50
0.0
 44
0.0
 45
0.0
 49
-12.86
 74
     4
 75
     0
340
0
 46
0.0
 50
0.0
 44
0.0
 45
0.0
  0
LTYPE
  5
71
330
5
100
AcDbSymbolTableRecord
100
AcDbLinetypeTableRecord
  2
DOT
 70
     0
  3
.........................
 72
    65
 73
     2
 40
10.0
 49
0.0
 74
     4
 75
     0
340
0
 46
0.0
 50
0.0
 44
0.0
 45
0.0
 49
-10.0
 74
     4
 75
     0
340
0
 46
0.0
 50
0.0
 44
0.0
 45
0.0
  0
LTYPE
  5
72
330
5
100
AcDbSymbolTableRecord
100
AcDbLinetypeTableRecord
  2
PHANTOM
 70
     0
  3
____ _ _ ____ _ _ _____ _ _ ____
 72
    65
 73
     6
 40
50.5
 49
18.0
 74
     4
 75
     0
340
0
 46
0.0
 50
0.0
 44
0.0
 45
0.0
 49
-6.5
 74
     4
 75
     0
340
0
 46
0.0
 50
0.0
 44
0.0
 45
0.0
 49
6.5
 74
     4
 75
     0
340
0
 46
0.0
 50
0.0
 44
0.0
 45
0.0
 49
-6.5
 74
     4
 75
     0
340
0
 46
0.0
 50
0.0
 44
0.0
 45
0.0
 49
6.5
 74
     4
 75
     0
340
0
 46
0.0
 50
0.0
 44
0.0
 45
0.0
 49
-6.5
 74
     4
 75
     0
340
0
 46
0.0
 50
0.0
 44
0.0
 45
0.0
  0
LTYPE
  5
34E
330
5
100
AcDbSymbolTableRecord
100
AcDbLinetypeTableRecord
  2
CENTER2
 70
     0
  3
Center (.5x) ___ _ ___ _ ___ _ ___ _ ___ _ ___
 72
    65
 73
     4
 40
1.125
 49
0.75
 74
     0
 49
-0.125
 74
     0
 49
0.125
 74
     0
 49
-0.125
 74
     0
  0
ENDTAB
  0
TABLE
  2
LAYER
  5
2
330
0
100
AcDbSymbolTable
 70
    22
  0
LAYER
  5
10
102
{ACAD_XDICTIONARY
360
359
102
}
330
2
100
AcDbSymbolTableRecord
100
AcDbLayerTableRecord
  2
0
 70
     0
 62
     7
  6
Continuous
370
    -3
390
F
  0
LAYER
  5
207
330
2
100
AcDbSymbolTableRecord
100
AcDbLayerTableRecord
  2
Defpoints
 70
     0
 62
     7
  6
Continuous
290
     0
370
    -3
390
F
  0
LAYER
  5
34B
102
{ACAD_XDICTIONARY
360
35B
102
}
330
2
100
AcDbSymbolTableRecord
100
AcDbLayerTableRecord
  2
1
 70
     0
 62
     4
  6
Continuous
370
    -3
390
F
  0
LAYER
  5
34C
102
{ACAD_XDICTIONARY
360
35D
102
}
330
2
100
AcDbSymbolTableRecord
100
AcDbLayerTableRecord
  2
2
 70
     0
 62
     7
  6
Continuous
370
    -3
390
F
  0
LAYER
  5
34D
102
{ACAD_XDICTIONARY
360
35F
102
}
330
2
100
AcDbSymbolTableRecord
100
AcDbLayerTableRecord
  2
4
 70
     0
 62
     2
  6
CENTER2
370
    -3
390
F
  0
LAYER
  5
34F
102
{ACAD_XDICTIONARY
360
361
102
}
330
2
100
AcDbSymbolTableRecord
100
AcDbLayerTableRecord
  2
SK1
 70
     0
 62
     4
  6
Continuous
370
    -3
390
F
  0
LAYER
  5
350
102
{ACAD_XDICTIONARY
360
363
102
}
330
2
100
AcDbSymbolTableRecord
100
AcDbLayerTableRecord
  2
SK2
 70
     0
 62
     7
  6
Continuous
370
    -3
390
F
  0
LAYER
  5
352
102
{ACAD_XDICTIONARY
360
365
102
}
330
2
100
AcDbSymbolTableRecord
100
AcDbLayerTableRecord
  2
SK4
 70
     0
 62
     2
  6
CENTER2
370
    -3
390
F
  0
LAYER
  5
353
102
{ACAD_XDICTIONARY
360
367
102
}
330
2
100
AcDbSymbolTableRecord
100
AcDbLayerTableRecord
  2
SK6
 70
     0
 62
     5
  6
Continuous
370
    -3
390
F
  0
LAYER
  5
354
102
{ACAD_XDICTIONARY
360
369
102
}
330
2
100
AcDbSymbolTableRecord
100
AcDbLayerTableRecord
  2
CUT
 70
     0
 62
     1
  6
Continuous
370
    -3
390
F
  0
LAYER
  5
355
102
{ACAD_XDICTIONARY
360
36B
102
}
330
2
100
AcDbSymbolTableRecord
100
AcDbLayerTableRecord
  2
NOCUT
 70
     0
 62
     7
  6
Continuous
370
    -3
390
F
  0
LAYER
  5
356
102
{ACAD_XDICTIONARY
360
36D
102
}
330
2
100
AcDbSymbolTableRecord
100
AcDbLayerTableRecord
  2
80
 70
     0
 62
     6
  6
Continuous
370
    -3
390
F
  0
LAYER
  5
357
102
{ACAD_XDICTIONARY
360
36F
102
}
330
2
100
AcDbSymbolTableRecord
100
AcDbLayerTableRecord
  2
81
 70
     0
 62
     3
  6
Continuous
370
    -3
390
F
  0
ENDTAB
  0
TABLE
  2
STYLE
  5
3
330
0
100
AcDbSymbolTable
 70
     3
  0
STYLE
  5
11
330
3
100
AcDbSymbolTableRecord
100
AcDbTextStyleTableRecord
  2
Standard
 70
     0
 40
0.0
 41
1.0
 50
0.0
 71
     0
 42
0.2
  3
txt
  4

  0
STYLE
  5
200
330
3
100
AcDbSymbolTableRecord
100
AcDbTextStyleTableRecord
  2
cesky
 70
     0
 40
0.0
 41
1.0
 50
0.0
 71
     0
 42
0.2
  3
simplex.shx
  4

  0
STYLE
  5
201
330
3
100
AcDbSymbolTableRecord
100
AcDbTextStyleTableRecord
  2
DWGDirectTextStyle
 70
     0
 40
0.0
 41
1.0
 50
0.0
 71
     0
 42
0.2
  3
simplex
  4

  0
ENDTAB
  0
TABLE
  2
VIEW
  5
6
330
0
100
AcDbSymbolTable
 70
     0
  0
ENDTAB
  0
TABLE
  2
UCS
  5
7
330
0
100
AcDbSymbolTable
 70
     0
  0
ENDTAB
  0
TABLE
  2
APPID
  5
9
330
0
100
AcDbSymbolTable
 70
     7
  0
APPID
  5
12
330
9
100
AcDbSymbolTableRecord
100
AcDbRegAppTableRecord
  2
ACAD
 70
     0
  0
APPID
  5
203
330
9
100
AcDbSymbolTableRecord
100
AcDbRegAppTableRecord
  2
ACAD_DSTYLE_DIMBREAK
 70
     0
  0
APPID
  5
2BC
330
9
100
AcDbSymbolTableRecord
100
AcDbRegAppTableRecord
  2
ACAD_DSTYLE_DIM_LINETYPE
 70
     0
  0
APPID
  5
2BD
330
9
100
AcDbSymbolTableRecord
100
AcDbRegAppTableRecord
  2
ACAD_DSTYLE_DIM_EXT1_LINETYPE
 70
     0
  0
APPID
  5
2BE
330
9
100
AcDbSymbolTableRecord
100
AcDbRegAppTableRecord
  2
ACAD_DSTYLE_DIM_EXT2_LINETYPE
 70
     0
  0
APPID
  5
2FE
330
9
100
AcDbSymbolTableRecord
100
AcDbRegAppTableRecord
  2
ACAD_MLEADERVER
 70
     0
  0
APPID
  5
374
330
9
100
AcDbSymbolTableRecord
100
AcDbRegAppTableRecord
  2
ACAD_NAV_VCDISPLAY
 70
     0
  0
ENDTAB
  0
TABLE
  2
DIMSTYLE
  5
A
330
0
100
AcDbSymbolTable
 70
     1
100
AcDbDimStyleTable
 71
     0
  0
DIMSTYLE
105
27
330
A
100
AcDbSymbolTableRecord
100
AcDbDimStyleTableRecord
  2
Standard
 70
     0
340
11
1001
ACAD_DSTYLE_DIMBREAK
1070
   391
1040
6.349999999999999
  0
ENDTAB
  0
TABLE
  2
BLOCK_RECORD
  5
1
330
0
100
AcDbSymbolTable
 70
    16
  0
BLOCK_RECORD
  5
1F
102
{ACAD_XDICTIONARY
360
30E
102
}
330
1
100
AcDbSymbolTableRecord
100
AcDbBlockTableRecord
  2
*Model_Space
340
22
  0
BLOCK_RECORD
  5
1B
330
1
100
AcDbSymbolTableRecord
100
AcDbBlockTableRecord
  2
*Paper_Space
340
1E
  0
BLOCK_RECORD
  5
23
330
1
100
AcDbSymbolTableRecord
100
AcDbBlockTableRecord
  2
*Paper_Space0
340
26
  0
BLOCK_RECORD
  5
1FA
330
1
100
AcDbSymbolTableRecord
100
AcDbBlockTableRecord
  2
ASSORTED_DRAFT1
340
0
  0
BLOCK_RECORD
  5
208
330
1
100
AcDbSymbolTableRecord
100
AcDbBlockTableRecord
  2
*D2
340
0
  0
BLOCK_RECORD
  5
213
330
1
100
AcDbSymbolTableRecord
100
AcDbBlockTableRecord
  2
_U0
340
0
  0
BLOCK_RECORD
  5
21E
330
1
100
AcDbSymbolTableRecord
100
AcDbBlockTableRecord
  2
*D4
340
0
  0
BLOCK_RECORD
  5
22A
330
1
100
AcDbSymbolTableRecord
100
AcDbBlockTableRecord
  2
_U1
340
0
  0
BLOCK_RECORD
  5
237
330
1
100
AcDbSymbolTableRecord
100
AcDbBlockTableRecord
  2
*D6
340
0
  0
BLOCK_RECORD
  5
243
330
1
100
AcDbSymbolTableRecord
100
AcDbBlockTableRecord
  2
_U2
340
0
  0
BLOCK_RECORD
  5
250
330
1
100
AcDbSymbolTableRecord
100
AcDbBlockTableRecord
  2
*D8
340
0
  0
BLOCK_RECORD
  5
25C
330
1
100
AcDbSymbolTableRecord
100
AcDbBlockTableRecord
  2
_U3
340
0
  0
BLOCK_RECORD
  5
268
330
1
100
AcDbSymbolTableRecord
100
AcDbBlockTableRecord
  2
*D10
340
0
  0
BLOCK_RECORD
  5
274
330
1
100
AcDbSymbolTableRecord
100
AcDbBlockTableRecord
  2
_U4
340
0
  0
BLOCK_RECORD
  5
280
330
1
100
AcDbSymbolTableRecord
100
AcDbBlockTableRecord
  2
*D12
340
0
  0
BLOCK_RECORD
  5
28C
330
1
100
AcDbSymbolTableRecord
100
AcDbBlockTableRecord
  2
_U5
340
0
  0
BLOCK_RECORD
  5
298
330
1
100
AcDbSymbolTableRecord
100
AcDbBlockTableRecord
  2
*D14
340
0
  0
BLOCK_RECORD
  5
2A4
330
1
100
AcDbSymbolTableRecord
100
AcDbBlockTableRecord
  2
_U6
340
0
  0
ENDTAB
  0
ENDSEC
  0
SECTION
  2
BLOCKS
  0
BLOCK
  5
20
330
1F
100
AcDbEntity
  8
0
100
AcDbBlockBegin
  2
*Model_Space
 70
     0
 10
0.0
 20
0.0
 30
0.0
  3
*Model_Space
  1

  0
ENDBLK
  5
21
330
1F
100
AcDbEntity
  8
0
100
AcDbBlockEnd
  0
BLOCK
  5
1C
330
1B
100
AcDbEntity
 67
     1
  8
0
100
AcDbBlockBegin
  2
*Paper_Space
 70
     0
 10
0.0
 20
0.0
 30
0.0
  3
*Paper_Space
  1

  0
ENDBLK
  5
1D
330
1B
100
AcDbEntity
 67
     1
  8
0
100
AcDbBlockEnd
  0
BLOCK
  5
24
330
23
100
AcDbEntity
 67
     1
  8
0
100
AcDbBlockBegin
  2
*Paper_Space0
 70
     0
 10
0.0
 20
0.0
 30
0.0
  3
*Paper_Space0
  1

  0
ENDBLK
  5
25
330
23
100
AcDbEntity
 67
     1
  8
0
100
AcDbBlockEnd
  0
BLOCK
  5
1FD
330
1FA
100
AcDbEntity
  8
0
100
AcDbBlockBegin
  2
ASSORTED_DRAFT1
 70
     0
 10
0.0
 20
0.0
 30
0.0
  3
ASSORTED_DRAFT1
  1

  0
SOLID
  5
1FB
330
1FA
100
AcDbEntity
  8
0
 62
   254
370
    13
100
AcDbTrace
 10
270.185042
 20
164.534924
 30
0.0
 11
265.185046
 21
163.42645
 31
0.0
 12
265.1850379999999
 22
165.643397
 32
0.0
 13
270.185042
 23
164.534924
 33
0.0
  0
ENDBLK
  5
1FE
330
1FA
100
AcDbEntity
  8
0
100
AcDbBlockEnd
  0
BLOCK
  5
209
330
208
100
AcDbEntity
  8
0
100
AcDbBlockBegin
  2
*D2
 70
     1
 10
0.0
 20
0.0
 30
0.0
  3
*D2
  1

  0
LINE
  5
20B
330
208
100
AcDbEntity
  8
0
 62
   254
370
    -2
100
AcDbLine
 10
290.203832
 20
288.907994
 30
0.0
 11
450.0642599999999
 21
288.907994
 31
0.0
  0
LINE
  5
20C
330
208
100
AcDbEntity
  8
0
 62
   254
370
    -2
100
AcDbLine
 10
330.83929
 20
305.407994
 30
0.0
 11
450.0642599999999
 21
305.407994
 31
0.0
  0
LINE
  5
20D
330
208
100
AcDbEntity
  8
0
 62
   254
370
    -2
100
AcDbLine
 10
449.06426
 20
288.907994
 30
0.0
 11
449.06426
 21
305.407994
 31
0.0
  0
SOLID
  5
20E
330
208
100
AcDbEntity
  8
0
 62
   254
100
AcDbTrace
 10
449.6475929999999
 20
301.907994
 30
0.0
 11
448.4809259999999
 21
301.907994
 31
0.0
 12
449.06426
 22
305.407994
 32
0.0
 13
449.06426
 23
305.407994
 33
0.0
  0
MTEXT
  5
20F
330
208
100
AcDbEntity
  8
0
 62
   254
370
    13
100
AcDbMText
 10
443.8142599999999
 20
279.07466
 30
0.0
 40
3.5
 41
0.0
 71
     5
 72
     1
  1
\A1;33
  7
cesky
 11
0.0
 21
1.0
 31
0.0
 73
     1
 44
1.0
  0
POINT
  5
210
330
208
100
AcDbEntity
  8
Defpoints
 62
     0
100
AcDbPoint
 10
290.203832
 20
288.907994
 30
0.0
  0
POINT
  5
211
330
208
100
AcDbEntity
  8
Defpoints
 62
     0
100
AcDbPoint
 10
330.83929
 20
305.407994
 30
0.0
  0
POINT
  5
212
330
208
100
AcDbEntity
  8
Defpoints
 62
     0
100
AcDbPoint
 10
449.06426
 20
305.407994
 30
0.0
  0
ENDBLK
  5
20A
330
208
100
AcDbEntity
  8
0
100
AcDbBlockEnd
  0
BLOCK
  5
219
330
213
100
AcDbEntity
  8
0
100
AcDbBlockBegin
  2
_U0
 70
     0
 10
0.0
 20
0.0
 30
0.0
  3
_U0
  1

  0
ENDBLK
  5
21A
330
213
100
AcDbEntity
  8
0
100
AcDbBlockEnd
  0
BLOCK
  5
21F
330
21E
100
AcDbEntity
  8
0
100
AcDbBlockBegin
  2
*D4
 70
     1
 10
0.0
 20
0.0
 30
0.0
  3
*D4
  1

  0
LINE
  5
221
330
21E
100
AcDbEntity
  8
0
 62
    95
370
    -2
100
AcDbLine
 10
216.404842
 20
304.907994
 30
0.0
 11
203.66833
 21
304.907994
 31
0.0
  0
LINE
  5
222
330
21E
100
AcDbEntity
  8
0
 62
    95
370
    -2
100
AcDbLine
 10
216.404842
 20
272.907994
 30
0.0
 11
203.66833
 21
272.907994
 31
0.0
  0
LINE
  5
223
330
21E
100
AcDbEntity
  8
0
 62
    95
370
    -2
100
AcDbLine
 10
204.66833
 20
301.407994
 30
0.0
 11
204.66833
 21
276.407994
 31
0.0
  0
SOLID
  5
224
330
21E
100
AcDbEntity
  8
0
 62
    95
100
AcDbTrace
 10
205.251663
 20
301.407994
 30
0.0
 11
204.084996
 21
301.407994
 31
0.0
 12
204.66833
 22
304.907994
 32
0.0
 13
204.66833
 23
304.907994
 33
0.0
  0
SOLID
  5
225
330
21E
100
AcDbEntity
  8
0
 62
    95
100
AcDbTrace
 10
204.084996
 20
276.407994
 30
0.0
 11
205.251663
 21
276.407994
 31
0.0
 12
204.66833
 22
272.907994
 32
0.0
 13
204.66833
 23
272.907994
 33
0.0
  0
MTEXT
  5
226
330
21E
100
AcDbEntity
  8
0
 62
    95
370
    13
100
AcDbMText
 10
199.41833
 20
288.907994
 30
0.0
 40
3.5
 41
0.0
 71
     5
 72
     1
  1
\A1;32
  7
cesky
 11
0.0
 21
1.0
 31
0.0
 73
     1
 44
1.0
  0
POINT
  5
227
330
21E
100
AcDbEntity
  8
Defpoints
 62
     0
100
AcDbPoint
 10
216.404842
 20
304.907994
 30
0.0
  0
POINT
  5
228
330
21E
100
AcDbEntity
  8
Defpoints
 62
     0
100
AcDbPoint
 10
216.404842
 20
272.907994
 30
0.0
  0
POINT
  5
229
330
21E
100
AcDbEntity
  8
Defpoints
 62
     0
100
AcDbPoint
 10
204.66833
 20
272.907994
 30
0.0
  0
ENDBLK
  5
220
330
21E
100
AcDbEntity
  8
0
100
AcDbBlockEnd
  0
BLOCK
  5
232
330
22A
100
AcDbEntity
  8
0
100
AcDbBlockBegin
  2
_U1
 70
     0
 10
0.0
 20
0.0
 30
0.0
  3
_U1
  1

  0
ENDBLK
  5
233
330
22A
100
AcDbEntity
  8
0
100
AcDbBlockEnd
  0
BLOCK
  5
238
330
237
100
AcDbEntity
  8
0
100
AcDbBlockBegin
  2
*D6
 70
     1
 10
0.0
 20
0.0
 30
0.0
  3
*D6
  1

  0
LINE
  5
23A
330
237
100
AcDbEntity
  8
0
 62
    95
370
    -2
100
AcDbLine
 10
277.154842
 20
309.907994
 30
0.0
 11
191.104285
 21
309.907994
 31
0.0
  0
LINE
  5
23B
330
237
100
AcDbEntity
  8
0
 62
    95
370
    -2
100
AcDbLine
 10
277.154842
 20
267.907994
 30
0.0
 11
191.104285
 21
267.907994
 31
0.0
  0
LINE
  5
23C
330
237
100
AcDbEntity
  8
0
 62
    95
370
    -2
100
AcDbLine
 10
192.104285
 20
306.407994
 30
0.0
 11
192.104285
 21
271.407994
 31
0.0
  0
SOLID
  5
23D
330
237
100
AcDbEntity
  8
0
 62
    95
100
AcDbTrace
 10
192.687618
 20
306.407994
 30
0.0
 11
191.520952
 21
306.407994
 31
0.0
 12
192.104285
 22
309.907994
 32
0.0
 13
192.104285
 23
309.907994
 33
0.0
  0
SOLID
  5
23E
330
237
100
AcDbEntity
  8
0
 62
    95
100
AcDbTrace
 10
191.520952
 20
271.407994
 30
0.0
 11
192.687618
 21
271.407994
 31
0.0
 12
192.104285
 22
267.907994
 32
0.0
 13
192.104285
 23
267.907994
 33
0.0
  0
MTEXT
  5
23F
330
237
100
AcDbEntity
  8
0
 62
    95
370
    13
100
AcDbMText
 10
186.854285
 20
288.907994
 30
0.0
 40
3.5
 41
0.0
 71
     5
 72
     1
  1
\A1;42
  7
cesky
 11
0.0
 21
1.0
 31
0.0
 73
     1
 44
1.0
  0
POINT
  5
240
330
237
100
AcDbEntity
  8
Defpoints
 62
     0
100
AcDbPoint
 10
277.154842
 20
309.907994
 30
0.0
  0
POINT
  5
241
330
237
100
AcDbEntity
  8
Defpoints
 62
     0
100
AcDbPoint
 10
277.154842
 20
267.907994
 30
0.0
  0
POINT
  5
242
330
237
100
AcDbEntity
  8
Defpoints
 62
     0
100
AcDbPoint
 10
192.104285
 20
267.907994
 30
0.0
  0
ENDBLK
  5
239
330
237
100
AcDbEntity
  8
0
100
AcDbBlockEnd
  0
BLOCK
  5
24B
330
243
100
AcDbEntity
  8
0
100
AcDbBlockBegin
  2
_U2
 70
     0
 10
0.0
 20
0.0
 30
0.0
  3
_U2
  1

  0
ENDBLK
  5
24C
330
243
100
AcDbEntity
  8
0
100
AcDbBlockEnd
  0
BLOCK
  5
251
330
250
100
AcDbEntity
  8
0
100
AcDbBlockBegin
  2
*D8
 70
     1
 10
0.0
 20
0.0
 30
0.0
  3
*D8
  1

  0
LINE
  5
253
330
250
100
AcDbEntity
  8
0
 62
   254
370
    -2
100
AcDbLine
 10
431.4048419999999
 20
307.407994
 30
0.0
 11
431.4048419999999
 21
348.392842
 31
0.0
  0
LINE
  5
254
330
250
100
AcDbEntity
  8
0
 62
   254
370
    -2
100
AcDbLine
 10
214.404842
 20
302.907994
 30
0.0
 11
214.404842
 21
348.392842
 31
0.0
  0
LINE
  5
255
330
250
100
AcDbEntity
  8
0
 62
   254
370
    -2
100
AcDbLine
 10
427.9048419999999
 20
347.392842
 30
0.0
 11
217.904842
 21
347.392842
 31
0.0
  0
SOLID
  5
256
330
250
100
AcDbEntity
  8
0
 62
   254
100
AcDbTrace
 10
427.9048419999999
 20
346.809508
 30
0.0
 11
427.9048419999999
 21
347.976175
 31
0.0
 12
431.4048419999999
 22
347.392842
 32
0.0
 13
431.4048419999999
 23
347.392842
 33
0.0
  0
SOLID
  5
257
330
250
100
AcDbEntity
  8
0
 62
   254
100
AcDbTrace
 10
217.904842
 20
347.976175
 30
0.0
 11
217.904842
 21
346.809508
 31
0.0
 12
214.404842
 22
347.392842
 32
0.0
 13
214.404842
 23
347.392842
 33
0.0
  0
MTEXT
  5
258
330
250
100
AcDbEntity
  8
0
 62
   254
370
    13
100
AcDbMText
 10
322.904842
 20
352.642842
 30
0.0
 40
3.5
 41
0.0
 71
     5
 72
     1
  1
\A1;217
  7
cesky
 73
     1
 44
1.0
  0
POINT
  5
259
330
250
100
AcDbEntity
  8
Defpoints
 62
     0
100
AcDbPoint
 10
431.4048419999999
 20
307.407994
 30
0.0
  0
POINT
  5
25A
330
250
100
AcDbEntity
  8
Defpoints
 62
     0
100
AcDbPoint
 10
214.404842
 20
302.907994
 30
0.0
  0
POINT
  5
25B
330
250
100
AcDbEntity
  8
Defpoints
 62
     0
100
AcDbPoint
 10
214.404842
 20
347.392842
 30
0.0
  0
ENDBLK
  5
252
330
250
100
AcDbEntity
  8
0
100
AcDbBlockEnd
  0
BLOCK
  5
263
330
25C
100
AcDbEntity
  8
0
100
AcDbBlockBegin
  2
_U3
 70
     0
 10
0.0
 20
0.0
 30
0.0
  3
_U3
  1

  0
ENDBLK
  5
264
330
25C
100
AcDbEntity
  8
0
100
AcDbBlockEnd
  0
BLOCK
  5
269
330
268
100
AcDbEntity
  8
0
100
AcDbBlockBegin
  2
*D10
 70
     1
 10
0.0
 20
0.0
 30
0.0
  3
*D10
  1

  0
LINE
  5
26B
330
268
100
AcDbEntity
  8
0
 62
   254
370
    -2
100
AcDbLine
 10
274.404842
 20
288.907994
 30
0.0
 11
274.404842
 21
334.9472990000001
 31
0.0
  0
LINE
  5
26C
330
268
100
AcDbEntity
  8
0
 62
   254
370
    -2
100
AcDbLine
 10
214.404842
 20
295.907994
 30
0.0
 11
214.404842
 21
334.9472990000001
 31
0.0
  0
LINE
  5
26D
330
268
100
AcDbEntity
  8
0
 62
   254
370
    -2
100
AcDbLine
 10
270.904842
 20
333.947299
 30
0.0
 11
217.904842
 21
333.947299
 31
0.0
  0
SOLID
  5
26E
330
268
100
AcDbEntity
  8
0
 62
   254
100
AcDbTrace
 10
270.904842
 20
333.363965
 30
0.0
 11
270.904842
 21
334.530632
 31
0.0
 12
274.404842
 22
333.947299
 32
0.0
 13
274.404842
 23
333.947299
 33
0.0
  0
SOLID
  5
26F
330
268
100
AcDbEntity
  8
0
 62
   254
100
AcDbTrace
 10
217.904842
 20
334.530632
 30
0.0
 11
217.904842
 21
333.363965
 31
0.0
 12
214.404842
 22
333.947299
 32
0.0
 13
214.404842
 23
333.947299
 33
0.0
  0
MTEXT
  5
270
330
268
100
AcDbEntity
  8
0
 62
   254
370
    13
100
AcDbMText
 10
244.404842
 20
339.1972990000001
 30
0.0
 40
3.5
 41
0.0
 71
     5
 72
     1
  1
\A1;60
  7
cesky
 73
     1
 44
1.0
  0
POINT
  5
271
330
268
100
AcDbEntity
  8
Defpoints
 62
     0
100
AcDbPoint
 10
274.404842
 20
288.907994
 30
0.0
  0
POINT
  5
272
330
268
100
AcDbEntity
  8
Defpoints
 62
     0
100
AcDbPoint
 10
214.404842
 20
295.907994
 30
0.0
  0
POINT
  5
273
330
268
100
AcDbEntity
  8
Defpoints
 62
     0
100
AcDbPoint
 10
214.404842
 20
333.947299
 30
0.0
  0
ENDBLK
  5
26A
330
268
100
AcDbEntity
  8
0
100
AcDbBlockEnd
  0
BLOCK
  5
27B
330
274
100
AcDbEntity
  8
0
100
AcDbBlockBegin
  2
_U4
 70
     0
 10
0.0
 20
0.0
 30
0.0
  3
_U4
  1

  0
ENDBLK
  5
27C
330
274
100
AcDbEntity
  8
0
100
AcDbBlockEnd
  0
BLOCK
  5
281
330
280
100
AcDbEntity
  8
0
100
AcDbBlockBegin
  2
*D12
 70
     1
 10
0.0
 20
0.0
 30
0.0
  3
*D12
  1

  0
LINE
  5
283
330
280
100
AcDbEntity
  8
0
 62
   254
370
    -2
100
AcDbLine
 10
431.4048419999999
 20
305.407994
 30
0.0
 11
431.4048419999999
 21
321.452442
 31
0.0
  0
LINE
  5
284
330
280
100
AcDbEntity
  8
0
 62
   254
370
    -2
100
AcDbLine
 10
290.358753
 20
305.215491
 30
0.0
 11
290.358753
 21
321.452442
 31
0.0
  0
LINE
  5
285
330
280
100
AcDbEntity
  8
0
 62
   254
370
    -2
100
AcDbLine
 10
427.9048419999999
 20
320.452442
 30
0.0
 11
293.858753
 21
320.452442
 31
0.0
  0
SOLID
  5
286
330
280
100
AcDbEntity
  8
0
 62
   254
100
AcDbTrace
 10
427.9048419999999
 20
319.869108
 30
0.0
 11
427.9048419999999
 21
321.035775
 31
0.0
 12
431.4048419999999
 22
320.452442
 32
0.0
 13
431.4048419999999
 23
320.452442
 33
0.0
  0
SOLID
  5
287
330
280
100
AcDbEntity
  8
0
 62
   254
100
AcDbTrace
 10
293.858753
 20
321.035775
 30
0.0
 11
293.858753
 21
319.869108
 31
0.0
 12
290.358753
 22
320.452442
 32
0.0
 13
290.358753
 23
320.452442
 33
0.0
  0
MTEXT
  5
288
330
280
100
AcDbEntity
  8
0
 62
   254
370
    13
100
AcDbMText
 10
360.881797
 20
325.702442
 30
0.0
 40
3.5
 41
0.0
 71
     5
 72
     1
  1
\A1;141
  7
cesky
 73
     1
 44
1.0
  0
POINT
  5
289
330
280
100
AcDbEntity
  8
Defpoints
 62
     0
100
AcDbPoint
 10
431.4048419999999
 20
305.407994
 30
0.0
  0
POINT
  5
28A
330
280
100
AcDbEntity
  8
Defpoints
 62
     0
100
AcDbPoint
 10
290.358753
 20
305.215491
 30
0.0
  0
POINT
  5
28B
330
280
100
AcDbEntity
  8
Defpoints
 62
     0
100
AcDbPoint
 10
290.358753
 20
320.452442
 30
0.0
  0
ENDBLK
  5
282
330
280
100
AcDbEntity
  8
0
100
AcDbBlockEnd
  0
BLOCK
  5
293
330
28C
100
AcDbEntity
  8
0
100
AcDbBlockBegin
  2
_U5
 70
     0
 10
0.0
 20
0.0
 30
0.0
  3
_U5
  1

  0
ENDBLK
  5
294
330
28C
100
AcDbEntity
  8
0
100
AcDbBlockEnd
  0
BLOCK
  5
299
330
298
100
AcDbEntity
  8
0
100
AcDbBlockBegin
  2
*D14
 70
     1
 10
0.0
 20
0.0
 30
0.0
  3
*D14
  1

  0
LINE
  5
29B
330
298
100
AcDbEntity
  8
0
 62
   254
370
    -2
100
AcDbLine
 10
431.4048419999999
 20
305.407994
 30
0.0
 11
431.4048419999999
 21
334.9472990000001
 31
0.0
  0
LINE
  5
29C
330
298
100
AcDbEntity
  8
0
 62
   254
370
    -2
100
AcDbLine
 10
274.404842
 20
288.907994
 30
0.0
 11
274.404842
 21
334.9472990000001
 31
0.0
  0
LINE
  5
29D
330
298
100
AcDbEntity
  8
0
 62
   254
370
    -2
100
AcDbLine
 10
427.9048419999999
 20
333.947299
 30
0.0
 11
277.904842
 21
333.947299
 31
0.0
  0
SOLID
  5
29E
330
298
100
AcDbEntity
  8
0
 62
   254
100
AcDbTrace
 10
427.9048419999999
 20
333.363965
 30
0.0
 11
427.9048419999999
 21
334.530632
 31
0.0
 12
431.4048419999999
 22
333.947299
 32
0.0
 13
431.4048419999999
 23
333.947299
 33
0.0
  0
SOLID
  5
29F
330
298
100
AcDbEntity
  8
0
 62
   254
100
AcDbTrace
 10
277.904842
 20
334.530632
 30
0.0
 11
277.904842
 21
333.363965
 31
0.0
 12
274.404842
 22
333.947299
 32
0.0
 13
274.404842
 23
333.947299
 33
0.0
  0
MTEXT
  5
2A0
330
298
100
AcDbEntity
  8
0
 62
   254
370
    13
100
AcDbMText
 10
352.904842
 20
339.1972990000001
 30
0.0
 40
3.5
 41
0.0
 71
     5
 72
     1
  1
\A1;157
  7
cesky
 73
     1
 44
1.0
  0
POINT
  5
2A1
330
298
100
AcDbEntity
  8
Defpoints
 62
     0
100
AcDbPoint
 10
431.4048419999999
 20
305.407994
 30
0.0
  0
POINT
  5
2A2
330
298
100
AcDbEntity
  8
Defpoints
 62
     0
100
AcDbPoint
 10
274.404842
 20
288.907994
 30
0.0
  0
POINT
  5
2A3
330
298
100
AcDbEntity
  8
Defpoints
 62
     0
100
AcDbPoint
 10
274.404842
 20
333.947299
 30
0.0
  0
ENDBLK
  5
29A
330
298
100
AcDbEntity
  8
0
100
AcDbBlockEnd
  0
BLOCK
  5
2AB
330
2A4
100
AcDbEntity
  8
0
100
AcDbBlockBegin
  2
_U6
 70
     0
 10
0.0
 20
0.0
 30
0.0
  3
_U6
  1

  0
ENDBLK
  5
2AC
330
2A4
100
AcDbEntity
  8
0
100
AcDbBlockEnd
  0
ENDSEC
  0
SECTION
  2
ENTITIES
  0
POINT
  5
73
102
{ACAD_REACTORS
330
358
102
}
330
1F
100
AcDbEntity
  8
80
100
AcDbPoint
 10
274.404842
 20
288.907994
 30
0.0
  0
POINT
  5
76
330
1F
100
AcDbEntity
  8
SK4
 60
     1
100
AcDbPoint
 10
216.404842
 20
288.907994
 30
0.0
  0
POINT
  5
78
330
1F
100
AcDbEntity
  8
SK4
 60
     1
100
AcDbPoint
 10
274.404842
 20
288.907994
 30
0.0
  0
POINT
  5
79
330
1F
100
AcDbEntity
  8
4
 60
     1
100
AcDbPoint
 10
290.203832
 20
288.907994
 30
0.0
  0
POINT
  5
7A
330
1F
100
AcDbEntity
  8
4
 60
     1
100
AcDbPoint
 10
430.871162
 20
288.907994
 30
0.0
  0
POINT
  5
7B
330
1F
100
AcDbEntity
  8
SK6
 60
     1
100
AcDbPoint
 10
274.404842
 20
288.907994
 30
0.0
  0
POINT
  5
7C
330
1F
100
AcDbEntity
  8
SK6
 60
     1
100
AcDbPoint
 10
290.358753
 20
305.215491
 30
0.0
  0
LINE
  5
7D
330
1F
100
AcDbEntity
  8
1
100
AcDbLine
 10
274.404842
 20
309.407994
 30
0.0
 11
274.404842
 21
288.907994
 31
0.0
  0
LINE
  5
7F
330
1F
100
AcDbEntity
  8
1
100
AcDbLine
 10
274.404842
 20
288.907994
 30
0.0
 11
274.404842
 21
268.407994
 31
0.0
  0
LINE
  5
80
330
1F
100
AcDbEntity
  8
1
100
AcDbLine
 10
429.95972
 20
281.532711
 30
0.0
 11
429.975253
 21
282.4225600000001
 31
0.0
  0
LINE
  5
82
330
1F
100
AcDbEntity
  8
1
100
AcDbLine
 10
430.0528389999999
 20
286.867491
 30
0.0
 11
430.077223
 21
288.264428
 31
0.0
  0
LINE
  5
83
330
1F
100
AcDbEntity
  8
1
100
AcDbLine
 10
430.0528400000001
 20
288.34357
 30
0.0
 11
430.0612919999999
 21
288.328323
 31
0.0
  0
LINE
  5
84
330
1F
100
AcDbEntity
  8
1
100
AcDbLine
 10
429.8596179999999
 20
281.33302
 30
0.0
 11
429.941569
 21
281.46941
 31
0.0
  0
LINE
  5
85
330
1F
100
AcDbEntity
  8
1
100
AcDbLine
 10
290.203832
 20
272.907994
 30
0.0
 11
305.367537
 21
272.907994
 31
0.0
  0
LINE
  5
86
330
1F
100
AcDbEntity
  8
1
100
AcDbLine
 10
421.464907
 20
304.907994
 30
0.0
 11
408.8783349999999
 21
304.907994
 31
0.0
  0
LINE
  5
87
330
1F
100
AcDbEntity
  8
1
100
AcDbLine
 10
305.892425
 20
304.907994
 30
0.0
 11
290.203832
 21
304.907994
 31
0.0
  0
LINE
  5
88
330
1F
100
AcDbEntity
  8
1
100
AcDbLine
 10
424.744832
 20
299.49216
 30
0.0
 11
424.776019
 21
299.596158
 31
0.0
  0
LINE
  5
8A
330
1F
100
AcDbEntity
  8
1
100
AcDbLine
 10
426.817132
 20
299.206763
 30
0.0
 11
426.785641
 21
299.1017540000001
 31
0.0
  0
LINE
  5
8B
330
1F
100
AcDbEntity
  8
1
100
AcDbLine
 10
425.168321
 20
301.3317629999999
 30
0.0
 11
425.199811
 21
301.436773
 31
0.0
  0
LINE
  5
8C
330
1F
100
AcDbEntity
  8
80
100
AcDbLine
 10
274.404842
 20
287.90842
 30
0.0
 11
274.404842
 21
289.907567
 31
0.0
  0
LINE
  5
8D
330
1F
100
AcDbEntity
  8
81
100
AcDbLine
 10
431.4048419999999
 20
307.407994
 30
0.0
 11
431.4048419999999
 21
303.407994
 31
0.0
  0
LINE
  5
8E
330
1F
100
AcDbEntity
  8
SK1
100
AcDbLine
 10
216.404842
 20
272.907994
 30
0.0
 11
274.404842
 21
272.907994
 31
0.0
  0
LINE
  5
8F
330
1F
100
AcDbEntity
  8
81
100
AcDbLine
 10
429.404842
 20
305.407994
 30
0.0
 11
433.404842
 21
305.407994
 31
0.0
  0
LINE
  5
90
330
1F
100
AcDbEntity
  8
1
100
AcDbLine
 10
274.904842
 20
267.907994
 30
0.0
 11
279.404842
 21
267.907994
 31
0.0
  0
LINE
  5
95
330
1F
100
AcDbEntity
  8
80
100
AcDbLine
 10
275.404416
 20
288.907994
 30
0.0
 11
273.405268
 21
288.907994
 31
0.0
  0
LINE
  5
96
330
1F
100
AcDbEntity
  8
1
100
AcDbLine
 10
422.5178469999999
 20
303.762295
 30
0.0
 11
429.512267
 21
304.006178
 31
0.0
  0
LINE
  5
97
330
1F
100
AcDbEntity
  8
1
100
AcDbLine
 10
422.769215
 20
296.778402
 30
0.0
 11
422.5178469999999
 21
303.762295
 31
0.0
  0
LINE
  5
98
330
1F
100
AcDbEntity
  8
1
100
AcDbLine
 10
429.7636349999999
 20
297.022285
 30
0.0
 11
422.769215
 21
296.778402
 31
0.0
  0
LINE
  5
99
330
1F
100
AcDbEntity
  8
1
100
AcDbLine
 10
429.512267
 20
304.006178
 30
0.0
 11
429.7636349999999
 21
297.022285
 31
0.0
  0
LINE
  5
9A
330
1F
100
AcDbEntity
  8
1
100
AcDbLine
 10
431.359382
 20
288.696592
 30
0.0
 11
430.728011
 21
289.835615
 31
0.0
  0
LINE
  5
9B
330
1F
100
AcDbEntity
  8
1
100
AcDbLine
 10
431.399861
 20
288.329483
 30
0.0
 11
431.275424
 21
281.200477
 31
0.0
  0
LINE
  5
9C
330
1F
100
AcDbEntity
  8
1
100
AcDbLine
 10
431.399861
 20
288.329483
 30
0.0
 11
431.3982219999999
 21
288.549171
 31
0.0
  0
LINE
  5
9D
330
1F
100
AcDbEntity
  8
1
100
AcDbLine
 10
430.556683
 20
279.938314
 30
0.0
 11
430.67449
 21
280.1237509999999
 31
0.0
  0
LINE
  5
9E
330
1F
100
AcDbEntity
  8
1
100
AcDbLine
 10
431.2334059999999
 20
281.053944
 30
0.0
 11
430.67449
 21
280.1237509999999
 31
0.0
  0
LINE
  5
9F
330
1F
100
AcDbEntity
  8
1
100
AcDbLine
 10
430.623573
 20
289.946675
 30
0.0
 11
430.438136
 21
290.064481
 31
0.0
  0
LINE
  5
A0
330
1F
100
AcDbEntity
  8
1
100
AcDbLine
 10
430.173409
 20
290.223545
 30
0.0
 11
430.438136
 21
290.064481
 31
0.0
  0
LINE
  5
A1
330
1F
100
AcDbEntity
  8
1
100
AcDbLine
 10
429.7232519999999
 20
279.433459
 30
0.0
 11
430.445624
 21
279.833876
 31
0.0
  0
LINE
  5
A2
330
1F
100
AcDbEntity
  8
1
100
AcDbLine
 10
430.734349
 20
288.3836490000001
 30
0.0
 11
430.612285
 21
281.390629
 31
0.0
  0
LINE
  5
A3
330
1F
100
AcDbEntity
  8
1
100
AcDbLine
 10
430.237296
 20
289.361736
 30
0.0
 11
430.69747
 21
288.531559
 31
0.0
  0
LINE
  5
A4
330
1F
100
AcDbEntity
  8
1
100
AcDbLine
 10
430.0528389999999
 20
289.518598
 30
0.0
 11
430.131403
 21
289.4713910000001
 31
0.0
  0
LINE
  5
A5
330
1F
100
AcDbEntity
  8
1
100
AcDbLine
 10
430.570267
 20
281.244096
 30
0.0
 11
430.0813999999999
 21
280.430484
 31
0.0
  0
LINE
  5
A6
330
1F
100
AcDbEntity
  8
1
100
AcDbLine
 10
429.971745
 20
280.324592
 30
0.0
 11
429.73888
 21
280.195512
 31
0.0
  0
LINE
  5
A7
330
1F
100
AcDbEntity
  8
1
100
AcDbLine
 10
427.240317
 20
301.045356
 30
0.0
 11
427.2091299999999
 21
300.941358
 31
0.0
  0
LINE
  5
A8
330
1F
100
AcDbEntity
  8
1
100
AcDbLine
 10
430.1625019999999
 20
278.797429
 30
0.0
 11
430.120411
 21
278.798103
 31
0.0
  0
LINE
  5
A9
330
1F
100
AcDbEntity
  8
1
100
AcDbLine
 10
430.1456929999999
 20
279.036303
 30
0.0
 11
430.120411
 21
278.798103
 31
0.0
  0
LINE
  5
AA
330
1F
100
AcDbEntity
  8
1
100
AcDbLine
 10
430.1456929999999
 20
279.036303
 30
0.0
 11
429.903903
 21
279.429284
 31
0.0
  0
LINE
  5
AB
330
1F
100
AcDbEntity
  8
1
100
AcDbLine
 10
428.526658
 20
283.153494
 30
0.0
 11
430.052841
 21
283.153494
 31
0.0
  0
LINE
  5
AC
330
1F
100
AcDbEntity
  8
SK1
100
AcDbLine
 10
216.404842
 20
304.907994
 30
0.0
 11
216.404842
 21
272.907994
 31
0.0
  0
LINE
  5
AD
330
1F
100
AcDbEntity
  8
SK1
100
AcDbLine
 10
214.404842
 20
302.907994
 30
0.0
 11
214.404842
 21
274.907994
 31
0.0
  0
LINE
  5
AE
330
1F
100
AcDbEntity
  8
1
100
AcDbLine
 10
421.2565009999999
 20
298.096908
 30
0.0
 11
421.251269
 21
298.079459
 31
0.0
  0
LINE
  5
AF
330
1F
100
AcDbEntity
  8
1
100
AcDbLine
 10
421.2565009999999
 20
298.096908
 30
0.0
 11
421.023874
 21
304.832931
 31
0.0
  0
LINE
  5
B0
330
1F
100
AcDbEntity
  8
1
100
AcDbLine
 10
421.01914
 20
304.801071
 30
0.0
 11
421.251269
 21
298.079459
 31
0.0
  0
LINE
  5
B1
330
1F
100
AcDbEntity
  8
1
100
AcDbLine
 10
429.5374139999999
 20
272.907994
 30
0.0
 11
404.555181
 21
272.907994
 31
0.0
  0
LINE
  5
B2
330
1F
100
AcDbEntity
  8
1
100
AcDbLine
 10
274.904842
 20
267.907994
 30
0.0
 11
274.904842
 21
288.907994
 31
0.0
  0
LINE
  5
B3
330
1F
100
AcDbEntity
  8
1
100
AcDbLine
 10
274.904842
 20
288.907994
 30
0.0
 11
274.904842
 21
309.907994
 31
0.0
  0
LINE
  5
B4
330
1F
100
AcDbEntity
  8
1
100
AcDbLine
 10
423.369036
 20
301.093923
 30
0.0
 11
423.3485839999999
 21
301.025722
 31
0.0
  0
LINE
  5
B5
330
1F
100
AcDbEntity
  8
1
100
AcDbLine
 10
428.6167999999999
 20
299.445881
 30
0.0
 11
428.6372519999999
 21
299.5140819999999
 31
0.0
  0
LINE
  5
B6
330
1F
100
AcDbEntity
  8
1
100
AcDbLine
 10
279.404842
 20
267.907994
 30
0.0
 11
280.3043370000001
 21
268.807488
 31
0.0
  0
LINE
  5
B7
330
1F
100
AcDbEntity
  8
1
100
AcDbLine
 10
280.3043370000001
 20
309.008499
 30
0.0
 11
279.404842
 21
309.907994
 31
0.0
  0
LINE
  5
B8
330
1F
100
AcDbEntity
  8
SK1
100
AcDbLine
 10
214.404842
 20
274.907994
 30
0.0
 11
216.404842
 21
272.907994
 31
0.0
  0
LINE
  5
B9
330
1F
100
AcDbEntity
  8
SK1
100
AcDbLine
 10
216.404842
 20
304.907994
 30
0.0
 11
214.404842
 21
302.907994
 31
0.0
  0
LINE
  5
BA
330
1F
100
AcDbEntity
  8
SK1
100
AcDbLine
 10
274.404842
 20
304.907994
 30
0.0
 11
216.404842
 21
304.907994
 31
0.0
  0
LINE
  5
BB
330
1F
100
AcDbEntity
  8
1
100
AcDbLine
 10
274.904842
 20
267.907994
 30
0.0
 11
274.404842
 21
268.407994
 31
0.0
  0
LINE
  5
BC
330
1F
100
AcDbEntity
  8
1
100
AcDbLine
 10
274.404842
 20
309.407994
 30
0.0
 11
274.904842
 21
309.907994
 31
0.0
  0
LINE
  5
BD
330
1F
100
AcDbEntity
  8
1
100
AcDbLine
 10
279.404842
 20
309.907994
 30
0.0
 11
274.904842
 21
309.907994
 31
0.0
  0
LINE
  5
BE
330
1F
100
AcDbEntity
  8
1
100
AcDbLine
 10
421.4919769999999
 20
304.800501
 30
0.0
 11
421.488294
 21
304.907134
 31
0.0
  0
LINE
  5
BF
330
1F
100
AcDbEntity
  8
1
100
AcDbLine
 10
424.183966
 20
295.369644
 30
0.0
 11
430.4176889999999
 21
295.587003
 31
0.0
  0
LINE
  5
C0
330
1F
100
AcDbEntity
  8
1
100
AcDbLine
 10
430.624842
 20
290.843392
 30
0.0
 11
430.624842
 21
290.943407
 31
0.0
  0
LINE
  5
C1
330
1F
100
AcDbEntity
  8
1
100
AcDbLine
 10
430.4189169999999
 20
295.436757
 30
0.0
 11
430.4176889999999
 21
295.587003
 31
0.0
  0
LINE
  5
C2
330
1F
100
AcDbEntity
  8
1
100
AcDbLine
 10
421.26291
 20
304.407768
 30
0.0
 11
421.2482409999999
 21
304.832551
 31
0.0
  0
LINE
  5
C3
330
1F
100
AcDbEntity
  8
1
100
AcDbLine
 10
430.3393929999999
 20
294.900125
 30
0.0
 11
422.467796
 21
294.625657
 31
0.0
  0
LINE
  5
C4
330
1F
100
AcDbEntity
  8
1
100
AcDbLine
 10
430.3393929999999
 20
294.900125
 30
0.0
 11
428.410809
 21
291.704792
 31
0.0
  0
LINE
  5
C5
330
1F
100
AcDbEntity
  8
1
100
AcDbLine
 10
429.903903
 20
279.429284
 30
0.0
 11
429.728133
 21
279.432097
 31
0.0
  0
LINE
  5
C6
330
1F
100
AcDbEntity
  8
1
100
AcDbLine
 10
429.710967
 20
279.932435
 30
0.0
 11
430.052841
 21
283.153494
 31
0.0
  0
LINE
  5
C7
330
1F
100
AcDbEntity
  8
1
100
AcDbLine
 10
430.052841
 20
283.153494
 30
0.0
 11
430.052841
 21
289.725568
 31
0.0
  0
LINE
  5
C8
330
1F
100
AcDbEntity
  8
1
100
AcDbLine
 10
430.123111
 20
290.224418
 30
0.0
 11
430.29918
 21
290.221344
 31
0.0
  0
LINE
  5
C9
330
1F
100
AcDbEntity
  8
1
100
AcDbLine
 10
279.404842
 20
267.907994
 30
0.0
 11
279.404842
 21
271.995149
 31
0.0
  0
LINE
  5
CA
330
1F
100
AcDbEntity
  8
1
100
AcDbLine
 10
279.404842
 20
309.907994
 30
0.0
 11
279.404842
 21
280.066301
 31
0.0
  0
LINE
  5
CB
330
1F
100
AcDbEntity
  8
1
100
AcDbLine
 10
430.3393929999999
 20
294.900125
 30
0.0
 11
430.353023
 21
294.906206
 31
0.0
  0
LINE
  5
CC
330
1F
100
AcDbEntity
  8
1
100
AcDbLine
 10
430.459673
 20
295.605733
 30
0.0
 11
424.189198
 21
295.387093
 31
0.0
  0
LINE
  5
CD
330
1F
100
AcDbEntity
  8
1
100
AcDbLine
 10
424.183966
 20
295.369644
 30
0.0
 11
424.189198
 21
295.387093
 31
0.0
  0
LINE
  5
CE
330
1F
100
AcDbEntity
  8
1
100
AcDbLine
 10
430.29918
 20
290.221344
 30
0.0
 11
430.58268
 21
290.605517
 31
0.0
  0
LINE
  5
CF
330
1F
100
AcDbEntity
  8
1
100
AcDbLine
 10
430.58268
 20
290.8441279999999
 30
0.0
 11
430.58268
 21
290.605517
 31
0.0
  0
LINE
  5
D0
330
1F
100
AcDbEntity
  8
1
100
AcDbLine
 10
430.58268
 20
290.8441279999999
 30
0.0
 11
430.624842
 21
290.843392
 31
0.0
  0
LINE
  5
D1
330
1F
100
AcDbEntity
  8
1
100
AcDbLine
 10
430.624842
 20
295.884749
 30
0.0
 11
430.624842
 21
290.943407
 31
0.0
  0
LINE
  5
D2
330
1F
100
AcDbEntity
  8
1
100
AcDbLine
 10
430.459673
 20
295.605733
 30
0.0
 11
430.4578429999999
 21
295.829696
 31
0.0
  0
LINE
  5
D3
330
1F
100
AcDbEntity
  8
1
100
AcDbLine
 10
430.459673
 20
295.605733
 30
0.0
 11
430.4176889999999
 21
295.587003
 31
0.0
  0
LINE
  5
D4
330
1F
100
AcDbEntity
  8
1
100
AcDbLine
 10
429.5374139999999
 20
272.907994
 30
0.0
 11
430.1625019999999
 21
278.797429
 31
0.0
  0
LINE
  5
D5
330
1F
100
AcDbEntity
  8
1
100
AcDbLine
 10
430.758798
 20
304.547285
 30
0.0
 11
431.045323
 21
296.5865990000001
 31
0.0
  0
LINE
  5
D6
330
1F
100
AcDbEntity
  8
1
100
AcDbLine
 10
421.985995
 20
305.013559
 30
0.0
 11
429.9586799999999
 21
305.291553
 31
0.0
  0
LINE
  5
D7
330
1F
100
AcDbEntity
  8
1
100
AcDbLine
 10
421.5279159999999
 20
296.254744
 30
0.0
 11
421.241391
 21
304.21543
 31
0.0
  0
LINE
  5
D8
330
1F
100
AcDbEntity
  8
1
100
AcDbLine
 10
430.30072
 20
295.78847
 30
0.0
 11
422.3280349999999
 21
295.510477
 31
0.0
  0
LINE
  5
D9
330
1F
100
AcDbEntity
  8
1
100
AcDbLine
 10
427.226258
 20
300.985234
 30
0.0
 11
427.257245
 21
301.088563
 31
0.0
  0
LINE
  5
DA
330
1F
100
AcDbEntity
  8
1
100
AcDbLine
 10
425.303476
 20
298.993825
 30
0.0
 11
425.2727259999999
 21
298.891284
 31
0.0
  0
LINE
  5
DB
330
1F
100
AcDbEntity
  8
1
100
AcDbLine
 10
426.0315549999999
 20
298.704715
 30
0.0
 11
426.0622259999999
 21
298.806991
 31
0.0
  0
LINE
  5
DC
330
1F
100
AcDbEntity
  8
1
100
AcDbLine
 10
425.188698
 20
301.460918
 30
0.0
 11
425.2196429999999
 21
301.564111
 31
0.0
  0
LINE
  5
DD
330
1F
100
AcDbEntity
  8
1
100
AcDbLine
 10
424.454446
 20
300.274672
 30
0.0
 11
424.424017
 21
300.173199
 31
0.0
  0
LINE
  5
DE
330
1F
100
AcDbEntity
  8
1
100
AcDbLine
 10
424.5232309999999
 20
300.264788
 30
0.0
 11
424.492367
 21
300.161866
 31
0.0
  0
LINE
  5
DF
330
1F
100
AcDbEntity
  8
1
100
AcDbLine
 10
427.358211
 20
299.49789
 30
0.0
 11
427.388619
 21
299.59929
 31
0.0
  0
LINE
  5
E0
330
1F
100
AcDbEntity
  8
1
100
AcDbLine
 10
427.287083
 20
299.5178
 30
0.0
 11
427.317953
 21
299.620741
 31
0.0
  0
LINE
  5
E1
330
1F
100
AcDbEntity
  8
1
100
AcDbLine
 10
426.029879
 20
298.722893
 30
0.0
 11
426.060671
 21
298.825573
 31
0.0
  0
LINE
  5
E2
330
1F
100
AcDbEntity
  8
1
100
AcDbLine
 10
430.682658
 20
289.897775
 30
0.0
 11
430.1907579999999
 21
289.422752
 31
0.0
  0
LINE
  5
E3
330
1F
100
AcDbEntity
  8
1
100
AcDbLine
 10
430.052838
 20
289.289564
 30
0.0
 11
430.1907579999999
 21
289.422752
 31
0.0
  0
LINE
  5
E4
330
1F
100
AcDbEntity
  8
1
100
AcDbLine
 10
431.3880619999999
 20
288.62519
 30
0.0
 11
430.724553
 21
288.459759
 31
0.0
  0
LINE
  5
E5
330
1F
100
AcDbEntity
  8
1
100
AcDbLine
 10
430.0735079999999
 20
288.297435
 30
0.0
 11
430.724553
 21
288.459759
 31
0.0
  0
LINE
  5
E6
330
1F
100
AcDbEntity
  8
1
100
AcDbLine
 10
429.9548559999999
 20
281.499853
 30
0.0
 11
430.59984
 21
281.314907
 31
0.0
  0
LINE
  5
E7
330
1F
100
AcDbEntity
  8
1
100
AcDbLine
 10
430.59984
 20
281.314907
 30
0.0
 11
431.264067
 21
281.124443
 31
0.0
  0
LINE
  5
E8
330
1F
100
AcDbEntity
  8
1
100
AcDbLine
 10
429.566662
 20
280.853789
 30
0.0
 11
429.814634
 21
280.597007
 31
0.0
  0
LINE
  5
E9
330
1F
100
AcDbEntity
  8
1
100
AcDbLine
 10
430.507783
 20
279.87923
 30
0.0
 11
430.032761
 21
280.37113
 31
0.0
  0
LINE
  5
EA
330
1F
100
AcDbEntity
  8
1
100
AcDbLine
 10
418.98973
 20
294.977782
 30
0.0
 11
418.993722
 21
294.9910930000001
 31
0.0
  0
LINE
  5
EB
330
1F
100
AcDbEntity
  8
1
100
AcDbLine
 10
415.022961
 20
296.742824
 30
0.0
 11
415.730699
 21
296.33508
 31
0.0
  0
LINE
  5
EC
330
1F
100
AcDbEntity
  8
1
100
AcDbLine
 10
418.9633249999999
 20
292.250567
 30
0.0
 11
418.9757379999999
 21
291.887746
 31
0.0
  0
LINE
  5
ED
330
1F
100
AcDbEntity
  8
1
100
AcDbLine
 10
428.873614
 20
294.883399
 30
0.0
 11
422.459816
 21
294.659761
 31
0.0
  0
LINE
  5
EE
330
1F
100
AcDbEntity
  8
1
100
AcDbLine
 10
284.404842
 20
304.6653720000001
 30
0.0
 11
284.404842
 21
286.042448
 31
0.0
  0
LINE
  5
EF
330
1F
100
AcDbEntity
  8
1
100
AcDbLine
 10
427.2938019999999
 20
301.122324
 30
0.0
 11
427.2873469999999
 21
301.11805
 31
0.0
  0
LINE
  5
119
330
1F
100
AcDbEntity
  8
NOCUT
100
AcDbLine
 10
279.404842
 20
309.907994
 30
0.0
 11
280.3043370000001
 21
309.008499
 31
0.0
  0
LINE
  5
11A
330
1F
100
AcDbEntity
  8
NOCUT
100
AcDbLine
 10
430.315219
 20
304.907994
 30
0.0
 11
430.624842
 21
296.11371
 31
0.0
  0
LINE
  5
11B
330
1F
100
AcDbEntity
  8
NOCUT
100
AcDbLine
 10
430.624842
 20
296.11371
 30
0.0
 11
430.624842
 21
288.907994
 31
0.0
  0
LINE
  5
11C
330
1F
100
AcDbEntity
  8
NOCUT
100
AcDbLine
 10
430.624842
 20
288.907994
 30
0.0
 11
214.404842
 21
288.907994
 31
0.0
  0
LINE
  5
11D
330
1F
100
AcDbEntity
  8
NOCUT
100
AcDbLine
 10
214.404842
 20
302.907994
 30
0.0
 11
214.404842
 21
288.907994
 31
0.0
  0
LINE
  5
11E
330
1F
100
AcDbEntity
  8
NOCUT
100
AcDbLine
 10
274.404842
 20
304.907994
 30
0.0
 11
216.404842
 21
304.907994
 31
0.0
  0
LINE
  5
11F
330
1F
100
AcDbEntity
  8
NOCUT
100
AcDbLine
 10
279.404842
 20
309.907994
 30
0.0
 11
274.904842
 21
309.907994
 31
0.0
  0
LINE
  5
120
330
1F
100
AcDbEntity
  8
NOCUT
100
AcDbLine
 10
290.203832
 20
304.907994
 30
0.0
 11
430.315219
 21
304.907994
 31
0.0
  0
LINE
  5
121
330
1F
100
AcDbEntity
  8
NOCUT
100
AcDbLine
 10
274.404842
 20
304.907994
 30
0.0
 11
274.404842
 21
309.407994
 31
0.0
  0
LINE
  5
122
330
1F
100
AcDbEntity
  8
NOCUT
100
AcDbLine
 10
274.404842
 20
309.407994
 30
0.0
 11
274.904842
 21
309.907994
 31
0.0
  0
LINE
  5
123
330
1F
100
AcDbEntity
  8
NOCUT
100
AcDbLine
 10
214.404842
 20
302.907994
 30
0.0
 11
216.404842
 21
304.907994
 31
0.0
  0
ARC
  5
12C
330
1F
100
AcDbEntity
  8
1
100
AcDbCircle
 10
290.203832
 20
258.907994
 30
0.0
 40
14.0
100
AcDbArc
 50
90.0
 51
135.0
  0
ARC
  5
12D
330
1F
100
AcDbEntity
  8
1
100
AcDbCircle
 10
290.203832
 20
318.907994
 30
0.0
 40
14.0
100
AcDbArc
 50
225.0
 51
270.0
  0
CIRCLE
  5
12E
330
1F
100
AcDbEntity
  8
1
100
AcDbCircle
 10
425.418941
 20
285.14888
 30
0.0
 40
1.35
  0
ARC
  5
12F
330
1F
100
AcDbEntity
  8
1
100
AcDbCircle
 10
425.418941
 20
285.14888
 30
0.0
 40
1.75
100
AcDbArc
 50
75.0
 51
345.0
  0
ARC
  5
13E
330
1F
100
AcDbEntity
  8
NOCUT
100
AcDbCircle
 10
290.203832
 20
318.907994
 30
0.0
 40
14.0
100
AcDbArc
 50
225.0
 51
270.0
  0
ELLIPSE
  5
13F
330
1F
100
AcDbEntity
  8
1
100
AcDbEllipse
 10
429.6462169999999
 20
281.588354
 30
0.0
 11
-0.3086390084417319
 21
0.0885008115358406
 31
0.0
210
0.0
220
0.0
230
0.9999999999999998
 40
0.6229040000000001
 41
2.976210626445484
 42
3.306974680734084
  0
ELLIPSE
  5
140
330
1F
100
AcDbEntity
  8
1
100
AcDbEllipse
 10
429.761969
 20
288.21976
 30
0.0
 11
-0.3115396276772998
 21
-0.0776755531752887
 31
0.0
210
-0.0000000000000001
220
0.0
230
1.0
 40
0.6229040000000001
 41
2.976210626445514
 42
3.306974680734071
  0
ELLIPSE
  5
141
330
1F
100
AcDbEntity
  8
1
100
AcDbEllipse
 10
421.957742
 20
304.220075
 30
0.0
 11
1.034593836952492
 21
-0.9637903490949247
 31
0.0
210
0.0
220
0.0
230
1.0
 40
0.038513
 41
1.034998867694365
 42
1.589809900403553
  0
ELLIPSE
  5
142
330
1F
100
AcDbEntity
  8
1
100
AcDbEllipse
 10
430.004887
 20
304.500664
 30
0.0
 11
0.9632498695867369
 21
1.03401365183948
 31
0.0
210
0.0
220
0.0
230
0.9999999999999998
 40
0.019037
 41
1.532258934396462
 42
2.087069966763489
  0
ELLIPSE
  5
143
330
1F
100
AcDbEntity
  8
1
100
AcDbEllipse
 10
426.140741
 20
300.39229
 30
0.0
 11
-3.113036858559408
 21
0.9335424560514642
 31
0.0
210
0.0
220
0.0
230
0.9999999999999998
 40
0.9981549999999998
 41
0.0
 42
6.283185307179585
  0
ELLIPSE
  5
144
330
1F
100
AcDbEntity
  8
1
100
AcDbEllipse
 10
430.4734269999999
 20
289.695723
 30
0.0
 11
0.1593661323324512
 21
-0.2546671902714057
 31
0.0
210
0.0
220
0.0
230
1.0
 40
0.9668319999999999
 41
1.515965211899648
 42
2.029724470241707
  0
ELLIPSE
  5
145
330
1F
100
AcDbEntity
  8
1
100
AcDbEllipse
 10
431.105838
 20
288.554824
 30
0.0
 11
0.1315188412993868
 21
-0.2701031955023608
 31
0.0
210
0.0
220
0.0
230
1.0
 40
0.9668319999999999
 41
1.11186818656604
 42
1.625627445180254
  0
ELLIPSE
  5
146
330
1F
100
AcDbEntity
  8
1
100
AcDbEllipse
 10
430.305732
 20
280.08846
 30
0.0
 11
0.2546671889589466
 21
0.1593661338018612
 31
0.0
210
0.0
220
0.0
230
0.9999999999999998
 40
0.9668320000000001
 41
4.657557858741058
 42
5.171317117641902
  0
ELLIPSE
  5
147
330
1F
100
AcDbEntity
  8
1
100
AcDbEllipse
 10
430.969907
 20
281.208792
 30
0.0
 11
-0.2941597133632818
 21
0.0843489404830548
 31
0.0
210
0.0
220
0.0
230
0.9999999999999998
 40
0.9803469999999999
 41
2.884713024277101
 42
3.398472282902498
  0
ELLIPSE
  5
148
330
1F
100
AcDbEntity
  8
1
100
AcDbEllipse
 10
430.2487359999999
 20
281.415584
 30
0.0
 11
0.359882880605697
 21
-0.0632201124813119
 31
0.0
210
0.0
220
0.0
230
1.0
 40
0.81881
 41
6.264719804524973
 42
6.411625114870674
  0
ELLIPSE
  5
149
330
1F
100
AcDbEntity
  8
1
100
AcDbEllipse
 10
430.37015
 20
288.371396
 30
0.0
 11
0.3618699808754786
 21
0.0506218689177316
 31
0.0
210
0.0
220
0.0
230
1.0
 40
0.8188100000000002
 41
6.154745490703101
 42
6.301650804826802
  0
ELLIPSE
  5
14A
330
1F
100
AcDbEntity
  8
1
100
AcDbEllipse
 10
430.37015
 20
288.371396
 30
0.0
 11
0.3432777482795237
 21
0.125191204118405
 31
0.0
210
0.0
220
0.0
230
1.0
 40
0.81881
 41
6.264719811494245
 42
6.411625127439923
  0
ELLIPSE
  5
14B
330
1F
100
AcDbEntity
  8
1
100
AcDbEllipse
 10
429.928017
 20
289.169026
 30
0.0
 11
0.2880776841864842
 21
0.2247748275925764
 31
0.0
210
0.0
220
0.0
230
0.9999999999999998
 40
0.81881
 41
6.154745503562072
 42
6.301650812566061
  0
ELLIPSE
  5
14C
330
1F
100
AcDbEntity
  8
1
100
AcDbEllipse
 10
429.928017
 20
289.169026
 30
0.0
 11
0.2346916544018327
 21
0.2800576472468171
 31
0.0
210
0.0
220
0.0
230
1.0
 40
0.81881
 41
6.2647198075074
 42
6.411625121143756
  0
ELLIPSE
  5
14D
330
1F
100
AcDbEntity
  8
1
100
AcDbEllipse
 10
429.7790349999999
 20
280.63387
 30
0.0
 11
0.2800576466791539
 21
-0.2346916546839132
 31
0.0
210
0.0
220
0.0
230
0.9999999999999998
 40
0.81881
 41
6.264719808800442
 42
6.411625122490221
  0
ELLIPSE
  5
14E
330
1F
100
AcDbEntity
  8
1
100
AcDbEllipse
 10
430.2487359999999
 20
281.415584
 30
0.0
 11
0.3386995134879792
 21
-0.1370951561922409
 31
0.0
210
0.0
220
0.0
230
1.0
 40
0.8188100000000002
 41
6.154745481459023
 42
6.301650799544906
  0
ELLIPSE
  5
14F
330
1F
100
AcDbEntity
  8
1
100
AcDbEllipse
 10
429.7790349999999
 20
280.63387
 30
0.0
 11
0.2247747979948846
 21
-0.2880776333212189
 31
0.0
210
0.0
220
0.0
230
1.0
 40
0.81881
 41
6.154745475472052
 42
6.301650796217215
  0
ELLIPSE
  5
150
330
1F
100
AcDbEntity
  8
1
100
AcDbEllipse
 10
431.2356079999999
 20
288.907994
 30
0.0
 11
1.731820310724409
 21
15.99819048337474
 31
0.0
210
0.0
220
0.0
230
1.0
 40
0.138944
 41
1.95373553448218
 42
3.156632395651098
  0
ELLIPSE
  5
151
330
1F
100
AcDbEntity
  8
1
100
AcDbEllipse
 10
430.624842
 20
288.907994
 30
0.0
 11
0.0
 21
16.0000000000304
 31
0.0
210
0.0
220
0.0
230
1.0
 40
0.140541
 41
1.395093783948587
 42
1.938695792420336
  0
ELLIPSE
  5
152
330
1F
100
AcDbEntity
  8
1
100
AcDbEllipse
 10
422.86219
 20
297.04461
 30
0.0
 11
-1.91571498988271
 21
0.5744876652624386
 31
0.0
210
0.0
220
0.0
230
1.0
 40
0.9981549999999998
 41
0.0634585961627261
 42
1.897559557858015
  0
ELLIPSE
  5
153
330
1F
100
AcDbEntity
  8
1
100
AcDbEllipse
 10
422.86219
 20
297.04461
 30
0.0
 11
-1.91571498988271
 21
0.5744876652624386
 31
0.0
210
0.0
220
0.0
230
1.0
 40
0.9981549999999998
 41
1.897559557858016
 42
2.607363341518176
  0
ELLIPSE
  5
154
330
1F
100
AcDbEntity
  8
1
100
AcDbEllipse
 10
422.79469
 20
296.819522
 30
0.0
 11
-1.91571498988271
 21
0.5744876652624386
 31
0.0
210
0.0
220
0.0
230
1.0
 40
0.9981549999999998
 41
5.737896998741032
 42
5.880835539025659
  0
ELLIPSE
  5
155
330
1F
100
AcDbEntity
  8
1
100
AcDbEllipse
 10
422.789458
 20
296.802073
 30
0.0
 11
1.91571498988271
 21
-0.5744876652624389
 31
0.0
210
0.0
220
0.0
230
1.0
 40
0.9981549999999998
 41
2.739242885435851
 42
4.401664854490396
  0
ELLIPSE
  5
156
330
1F
100
AcDbEntity
  8
1
100
AcDbEllipse
 10
421.586067
 20
288.907996
 30
0.0
 11
0.5348380253580172
 21
-15.99999405677423
 31
0.0
210
0.0
220
0.0
230
1.0
 40
0.019399
 41
3.237847332749383
 42
3.256616993963299
  0
ELLIPSE
  5
157
330
1F
100
AcDbEntity
  8
1
100
AcDbEllipse
 10
368.337356
 20
288.907792
 30
0.0
 11
917.2022673334966
 21
-0.9310159467319923
 31
0.0
210
0.0
220
0.0
230
1.0
 40
0.017415
 41
1.513344899027561
 42
1.519005588191181
  0
ELLIPSE
  5
158
330
1F
100
AcDbEntity
  8
1
100
AcDbEllipse
 10
260.130645
 20
288.907994
 30
0.0
 11
52.27933654950183
 21
-12.54089795811713
 31
0.0
210
0.0
220
0.0
230
0.9999999999999998
 40
0.190058
 41
5.370117414544115
 42
5.501766567764593
  0
ELLIPSE
  5
159
330
1F
100
AcDbEntity
  8
1
100
AcDbEllipse
 10
420.1454169999999
 20
292.917765
 30
0.0
 11
-4.636453962307195
 21
-0.1822239646526232
 31
0.0
210
0.0
220
0.0
230
0.9999999999999998
 40
0.22151
 41
2.108124036537204
 42
4.172810044224515
  0
ELLIPSE
  5
15A
330
1F
100
AcDbEntity
  8
1
100
AcDbEllipse
 10
428.9405069999999
 20
288.908001
 30
0.0
 11
27.44887128013555
 21
-15.78499113591855
 31
0.0
210
0.0
220
0.0
230
0.9999999999999998
 40
0.095236
 41
4.240452465500713
 42
4.271923306912528
  0
ELLIPSE
  5
15B
330
1F
100
AcDbEntity
  8
1
100
AcDbEllipse
 10
422.019682
 20
288.907993
 30
0.0
 11
0.5348381149663626
 21
-15.9999967667598
 31
0.0
210
0.0
220
0.0
230
0.9999999999999998
 40
0.019399
 41
3.033213751181523
 42
3.130579520758857
  0
ELLIPSE
  5
15C
330
1F
100
AcDbEntity
  8
1
100
AcDbEllipse
 10
422.789458
 20
296.802073
 30
0.0
 11
1.91571498988271
 21
-0.5744876652624389
 31
0.0
210
0.0
220
0.0
230
1.0
 40
0.9981549999999998
 41
5.654578117271862
 42
5.774937007238189
  0
ELLIPSE
  5
15D
330
1F
100
AcDbEntity
  8
1
100
AcDbEllipse
 10
421.887464
 20
288.907994
 30
0.0
 11
0.4311062623265669
 21
-15.99988487159253
 31
0.0
210
0.0
220
0.0
230
1.0
 40
0.140795
 41
3.127434387754051
 42
3.234946998129365
  0
ELLIPSE
  5
15E
330
1F
100
AcDbEntity
  8
1
100
AcDbEllipse
 10
266.129274
 20
288.907991
 30
0.0
 11
417.4861389691193
 21
15.60306715208252
 31
0.0
210
0.0
220
0.0
230
0.9999999999999998
 40
0.008484
 41
5.096182691695156
 42
5.111304259936603
  0
ELLIPSE
  5
15F
330
1F
100
AcDbEntity
  8
1
100
AcDbEllipse
 10
429.781118
 20
279.931313
 30
0.0
 11
0.053877002434851
 21
0.4991611425065203
 31
0.0
210
0.0
220
0.0
230
0.9999999999999998
 40
0.139171
 41
1.583568179242881
 42
3.154364506042874
  0
ELLIPSE
  5
160
330
1F
100
AcDbEntity
  8
1
100
AcDbEllipse
 10
430.123111
 20
289.7243410000001
 30
0.0
 11
0.0001758288822668
 21
-0.5000776676664058
 31
0.0
210
0.0
220
0.0
230
0.9999999999999998
 40
0.140519
 41
3.139090475969511
 42
4.709886802763122
  0
ELLIPSE
  5
161
330
1F
100
AcDbEntity
  8
1
100
AcDbEllipse
 10
314.855503
 20
288.907994
 30
0.0
 11
52.27933655106077
 21
-12.54089795879275
 31
0.0
210
0.0
220
0.0
230
1.0
 40
0.190058
 41
4.290491510463966
 42
4.474985390841726
  0
ELLIPSE
  5
162
330
1F
100
AcDbEntity
  8
1
100
AcDbEllipse
 10
422.79469
 20
296.819522
 30
0.0
 11
-1.91571498988271
 21
0.5744876652624386
 31
0.0
210
0.0
220
0.0
230
1.0
 40
0.9981549999999998
 41
2.633344353648385
 42
2.764625407905431
  0
ELLIPSE
  5
163
330
1F
100
AcDbEntity
  8
1
100
AcDbEllipse
 10
430.3489439999999
 20
295.40554
 30
0.0
 11
0.0003006604976639
 21
0.5003081624138436
 31
0.0
210
0.0
220
0.0
230
0.9999999999999998
 40
0.140096
 41
3.204112759000669
 42
4.774909085791855
  0
ELLIPSE
  5
164
330
1F
100
AcDbEntity
  8
1
100
AcDbEllipse
 10
427.3072259999999
 20
300.934958
 30
0.0
 11
-0.0913005075502119
 21
0.0273793417584566
 31
0.0
210
0.0
220
0.0
230
0.9999999999999998
 40
0.9981549999999998
 41
5.562751060261576
 42
6.239482977142275
  0
ELLIPSE
  5
165
330
1F
100
AcDbEntity
  8
1
100
AcDbEllipse
 10
427.784701
 20
300.768754
 30
0.0
 11
-0.5755712196801058
 21
0.1726032149524094
 31
0.0
210
0.0
220
0.0
230
0.9999999999999998
 40
0.9981549999999998
 41
6.239482977142257
 42
7.504013021372425
  0
ELLIPSE
  5
166
330
1F
100
AcDbEntity
  8
1
100
AcDbEllipse
 10
427.482491
 20
300.3644700000001
 30
0.0
 11
-0.0913005075502099
 21
0.027379341758456
 31
0.0
210
0.0
220
0.0
230
1.0
 40
0.9981549999999998
 41
1.220827714192668
 42
1.897559631073433
  0
ELLIPSE
  5
167
330
1F
100
AcDbEntity
  8
1
100
AcDbEllipse
 10
427.489337
 20
300.174274
 30
0.0
 11
-0.0913005075502098
 21
0.0273793417584559
 31
0.0
210
0.0
220
0.0
230
1.0
 40
0.9981549999999998
 41
3.838821592184283
 42
5.039152284663249
  0
ELLIPSE
  5
168
330
1F
100
AcDbEntity
  8
1
100
AcDbEllipse
 10
427.025007
 20
299.975232
 30
0.0
 11
-0.5755712196801062
 21
0.1726032149524095
 31
0.0
210
0.0
220
0.0
230
1.0
 40
0.9981549999999998
 41
2.574291547954142
 42
3.838821592184357
  0
ELLIPSE
  5
169
330
1F
100
AcDbEntity
  8
1
100
AcDbEllipse
 10
427.355526
 20
299.59301
 30
0.0
 11
-0.0913005075502119
 21
0.0273793417584566
 31
0.0
210
0.0
220
0.0
230
0.9999999999999998
 40
0.9981549999999998
 41
1.373960855475335
 42
2.574291547954119
  0
ELLIPSE
  5
16A
330
1F
100
AcDbEntity
  8
1
100
AcDbEllipse
 10
427.2662129999999
 20
299.424975
 30
0.0
 11
-0.0913005075502119
 21
0.0273793417584566
 31
0.0
210
0.0
220
0.0
230
0.9999999999999998
 40
0.9981549999999998
 41
4.515553509064763
 42
5.19228542594524
  0
ELLIPSE
  5
16B
330
1F
100
AcDbEntity
  8
1
100
AcDbEllipse
 10
427.361213
 20
298.929151
 30
0.0
 11
-0.5755712196801058
 21
0.1726032149524094
 31
0.0
210
0.0
220
0.0
230
0.9999999999999998
 40
0.9981549999999998
 41
5.192285425945675
 42
6.456815470175834
  0
ELLIPSE
  5
16C
330
1F
100
AcDbEntity
  8
1
100
AcDbEllipse
 10
426.859181
 20
298.988683
 30
0.0
 11
-0.0913005075502099
 21
0.027379341758456
 31
0.0
210
0.0
220
0.0
230
1.0
 40
0.9981549999999998
 41
0.1736301629961357
 42
0.8503620798766849
  0
ELLIPSE
  5
16D
330
1F
100
AcDbEntity
  8
1
100
AcDbEllipse
 10
426.697641
 20
298.887833
 30
0.0
 11
-0.0913005075502098
 21
0.0273793417584559
 31
0.0
210
0.0
220
0.0
230
1.0
 40
0.9981549999999998
 41
2.791624040987593
 42
3.991954733466701
  0
ELLIPSE
  5
16E
330
1F
100
AcDbEntity
  8
1
100
AcDbEllipse
 10
426.292426
 20
299.189989
 30
0.0
 11
-0.5755712196801062
 21
0.1726032149524095
 31
0.0
210
0.0
220
0.0
230
1.0
 40
0.9981549999999998
 41
1.527093996757506
 42
2.79162404098772
  0
ELLIPSE
  5
16F
330
1F
100
AcDbEntity
  8
1
100
AcDbEllipse
 10
426.126451
 20
298.713418
 30
0.0
 11
-0.0913005075502119
 21
0.0273793417584566
 31
0.0
210
0.0
220
0.0
230
0.9999999999999998
 40
0.9981549999999998
 41
0.3267633042786344
 42
1.527093996757863
  0
ELLIPSE
  5
170
330
1F
100
AcDbEntity
  8
1
100
AcDbEllipse
 10
425.9359679999999
 20
298.706776
 30
0.0
 11
-0.0913005075502119
 21
0.0273793417584566
 31
0.0
210
0.0
220
0.0
230
0.9999999999999998
 40
0.9981549999999998
 41
3.468355957868543
 42
4.145087874749075
  0
ELLIPSE
  5
171
330
1F
100
AcDbEntity
  8
1
100
AcDbEllipse
 10
425.553492
 20
298.377155
 30
0.0
 11
-0.5755712196801058
 21
0.1726032149524094
 31
0.0
210
0.0
220
0.0
230
0.9999999999999998
 40
0.9981549999999998
 41
4.145087874749046
 42
5.409617918979233
  0
ELLIPSE
  5
172
330
1F
100
AcDbEntity
  8
1
100
AcDbEllipse
 10
425.9769809999999
 20
300.2167589999999
 30
0.0
 11
1.724143490894439
 21
-0.5170388987361955
 31
0.0
210
0.0
220
0.0
230
1.0
 40
0.9981549999999998
 41
0.0
 42
6.283185307179585
  0
ELLIPSE
  5
173
330
1F
100
AcDbEntity
  8
1
100
AcDbEllipse
 10
425.982692
 20
300.235802
 30
0.0
 11
2.634108111088727
 21
-0.7899205397358537
 31
0.0
210
0.0
220
0.0
230
1.0
 40
0.9981549999999998
 41
0.0
 42
6.283185307179585
  0
ELLIPSE
  5
174
330
1F
100
AcDbEntity
  8
1
100
AcDbEllipse
 10
426.163415
 20
300.467901
 30
0.0
 11
2.964812602894983
 21
-0.8890927299587897
 31
0.0
210
0.0
220
0.0
230
1.0
 40
0.9981549999999998
 41
2.109028101135688
 42
6.283185307179585
  0
ELLIPSE
  5
175
330
1F
100
AcDbEntity
  8
1
100
AcDbEllipse
 10
426.163415
 20
300.467901
 30
0.0
 11
2.964812602894983
 21
-0.8890927299587897
 31
0.0
210
0.0
220
0.0
230
1.0
 40
0.9981549999999998
 41
0.0
 42
1.032541571739217
  0
ELLIPSE
  5
176
330
1F
100
AcDbEntity
  8
1
100
AcDbEllipse
 10
422.246943
 20
296.18504
 30
0.0
 11
0.9632498678795059
 21
1.034013650020817
 31
0.0
210
0.0
220
0.0
230
1.0
 40
0.019037
 41
0.9774479006631864
 42
1.532258933961933
  0
ELLIPSE
  5
177
330
1F
100
AcDbEntity
  8
1
100
AcDbEllipse
 10
426.143619
 20
300.401887
 30
0.0
 11
3.02178867693871
 21
-0.9061788058761703
 31
0.0
210
0.0
220
0.0
230
0.9999999999999998
 40
0.9981549999999998
 41
0.0
 42
6.283185307179585
  0
ELLIPSE
  5
178
330
1F
100
AcDbEntity
  8
1
100
AcDbEllipse
 10
430.294089
 20
296.46563
 30
0.0
 11
1.034593837063155
 21
-0.9637903492422239
 31
0.0
210
0.0
220
0.0
230
0.9999999999999996
 40
0.038513
 41
1.589809901009649
 42
2.144620933652166
  0
ELLIPSE
  5
179
330
1F
100
AcDbEntity
  8
1
100
AcDbEllipse
 10
422.0143359999999
 20
307.231012
 30
0.0
 11
-12.06900443626108
 21
3.619272291153365
 31
0.0
210
0.0
220
0.0
230
1.0
 40
0.9981549999999998
 41
1.339449352448133
 42
1.897005016164443
  0
ELLIPSE
  5
17A
330
1F
100
AcDbEntity
  8
1
100
AcDbEllipse
 10
426.003144
 20
300.304002
 30
0.0
 11
-2.634108111088727
 21
0.7899205397358533
 31
0.0
210
0.0
220
0.0
230
1.0
 40
0.9981549999999998
 41
3.141630460996419
 42
6.283124831951991
  0
ELLIPSE
  5
17B
330
1F
100
AcDbEntity
  8
1
100
AcDbEllipse
 10
425.353671
 20
298.840971
 30
0.0
 11
-0.0913005075502099
 21
0.027379341758456
 31
0.0
210
0.0
220
0.0
230
1.0
 40
0.9981549999999998
 41
5.409617918979551
 42
6.086349835859999
  0
ELLIPSE
  5
17C
330
1F
100
AcDbEntity
  8
1
100
AcDbEllipse
 10
425.1852849999999
 20
298.930317
 30
0.0
 11
-0.0913005075502098
 21
0.0273793417584559
 31
0.0
210
0.0
220
0.0
230
1.0
 40
0.9981549999999998
 41
1.744426489790978
 42
2.944757182270001
  0
ELLIPSE
  5
17D
330
1F
100
AcDbEntity
  8
1
100
AcDbEllipse
 10
425.244399
 20
299.431515
 30
0.0
 11
-0.5755712196801062
 21
0.1726032149524095
 31
0.0
210
0.0
220
0.0
230
1.0
 40
0.9981549999999998
 41
0.4798964455609566
 42
1.744426489791114
  0
ELLIPSE
  5
17E
330
1F
100
AcDbEntity
  8
1
100
AcDbEllipse
 10
424.7479059999999
 20
299.337166
 30
0.0
 11
-0.0913005075502119
 21
0.0273793417584566
 31
0.0
210
0.0
220
0.0
230
0.9999999999999998
 40
0.9981549999999998
 41
5.562751060261576
 42
6.763081752740773
  0
ELLIPSE
  5
17F
330
1F
100
AcDbEntity
  8
1
100
AcDbEllipse
 10
424.646736
 20
299.49856
 30
0.0
 11
-0.0913005075502119
 21
0.0273793417584566
 31
0.0
210
0.0
220
0.0
230
0.9999999999999998
 40
0.9981549999999998
 41
2.421158406671727
 42
3.097890323552346
  0
ELLIPSE
  5
180
330
1F
100
AcDbEntity
  8
1
100
AcDbEllipse
 10
424.169261
 20
299.664763
 30
0.0
 11
-0.5755712196801058
 21
0.1726032149524094
 31
0.0
210
0.0
220
0.0
230
0.9999999999999998
 40
0.9981549999999998
 41
3.09789032355249
 42
4.362420367782645
  0
ELLIPSE
  5
181
330
1F
100
AcDbEntity
  8
1
100
AcDbEllipse
 10
424.471471
 20
300.069047
 30
0.0
 11
-0.0913005075502099
 21
0.027379341758456
 31
0.0
210
0.0
220
0.0
230
1.0
 40
0.9981549999999998
 41
4.362420367782919
 42
5.039152284663321
  0
ELLIPSE
  5
182
330
1F
100
AcDbEntity
  8
1
100
AcDbEllipse
 10
424.464625
 20
300.259243
 30
0.0
 11
-0.0913005075502098
 21
0.0273793417584559
 31
0.0
210
0.0
220
0.0
230
1.0
 40
0.9981549999999998
 41
0.6972289385943557
 42
1.897559631073456
  0
ELLIPSE
  5
183
330
1F
100
AcDbEntity
  8
1
100
AcDbEllipse
 10
424.9289549999999
 20
300.458285
 30
0.0
 11
-0.5755712196801062
 21
0.1726032149524095
 31
0.0
210
0.0
220
0.0
230
1.0
 40
0.9981549999999998
 41
5.715884201543982
 42
6.98041424577417
  0
ELLIPSE
  5
184
330
1F
100
AcDbEntity
  8
1
100
AcDbEllipse
 10
424.598436
 20
300.840507
 30
0.0
 11
-0.0913005075502119
 21
0.0273793417584566
 31
0.0
210
0.0
220
0.0
230
0.9999999999999998
 40
0.9981549999999998
 41
4.515553509065056
 42
5.715884201544101
  0
ELLIPSE
  5
185
330
1F
100
AcDbEntity
  8
1
100
AcDbEllipse
 10
424.687749
 20
301.008542
 30
0.0
 11
-0.0913005075502119
 21
0.0273793417584566
 31
0.0
210
0.0
220
0.0
230
0.9999999999999998
 40
0.9981549999999998
 41
1.373960855474736
 42
2.050692772355446
  0
ELLIPSE
  5
186
330
1F
100
AcDbEntity
  8
1
100
AcDbEllipse
 10
424.592749
 20
301.504367
 30
0.0
 11
-0.5755712196801058
 21
0.1726032149524094
 31
0.0
210
0.0
220
0.0
230
0.9999999999999998
 40
0.9981549999999998
 41
2.050692772355855
 42
3.315222816586049
  0
ELLIPSE
  5
187
330
1F
100
AcDbEntity
  8
1
100
AcDbEllipse
 10
425.0947809999999
 20
301.4448339999999
 30
0.0
 11
-0.0913005075502099
 21
0.027379341758456
 31
0.0
210
0.0
220
0.0
230
1.0
 40
0.9981549999999998
 41
3.315222816586098
 42
3.991954733466626
  0
ELLIPSE
  5
188
330
1F
100
AcDbEntity
  8
1
100
AcDbEllipse
 10
425.2563209999999
 20
301.545684
 30
0.0
 11
-0.0913005075502098
 21
0.0273793417584559
 31
0.0
210
0.0
220
0.0
230
1.0
 40
0.9981549999999998
 41
5.933216694577456
 42
7.13354738705637
  0
ELLIPSE
  5
189
330
1F
100
AcDbEntity
  8
1
100
AcDbEllipse
 10
425.661536
 20
301.243529
 30
0.0
 11
-0.5755712196801062
 21
0.1726032149524095
 31
0.0
210
0.0
220
0.0
230
1.0
 40
0.9981549999999998
 41
4.668686650347394
 42
5.933216694577557
  0
ELLIPSE
  5
18A
330
1F
100
AcDbEntity
  8
1
100
AcDbEllipse
 10
425.827511
 20
301.7201
 30
0.0
 11
-0.0913005075502119
 21
0.0273793417584566
 31
0.0
210
0.0
220
0.0
230
0.9999999999999998
 40
0.9981549999999998
 41
3.468355957868261
 42
4.668686650347355
  0
ELLIPSE
  5
18B
330
1F
100
AcDbEntity
  8
1
100
AcDbEllipse
 10
426.017994
 20
301.726741
 30
0.0
 11
-0.0913005075502119
 21
0.0273793417584566
 31
0.0
210
0.0
220
0.0
230
0.9999999999999998
 40
0.9981549999999998
 41
0.3267633042785844
 42
1.003495221159282
  0
ELLIPSE
  5
18C
330
1F
100
AcDbEntity
  8
1
100
AcDbEllipse
 10
426.40047
 20
302.056362
 30
0.0
 11
-0.5755712196801058
 21
0.1726032149524094
 31
0.0
210
0.0
220
0.0
230
0.9999999999999998
 40
0.9981549999999998
 41
1.003495221159252
 42
2.268025265389431
  0
ELLIPSE
  5
18D
330
1F
100
AcDbEntity
  8
1
100
AcDbEllipse
 10
426.600291
 20
301.592546
 30
0.0
 11
-0.0913005075502099
 21
0.027379341758456
 31
0.0
210
0.0
220
0.0
230
1.0
 40
0.9981549999999998
 41
2.26802526538971
 42
2.944757182270148
  0
ELLIPSE
  5
18E
330
1F
100
AcDbEntity
  8
1
100
AcDbEllipse
 10
426.768677
 20
301.5032
 30
0.0
 11
-0.0913005075502098
 21
0.0273793417584559
 31
0.0
210
0.0
220
0.0
230
1.0
 40
0.9981549999999998
 41
4.886019143380771
 42
6.086349835859928
  0
ELLIPSE
  5
18F
330
1F
100
AcDbEntity
  8
1
100
AcDbEllipse
 10
426.709563
 20
301.002002
 30
0.0
 11
-0.5755712196801062
 21
0.1726032149524095
 31
0.0
210
0.0
220
0.0
230
1.0
 40
0.9981549999999998
 41
3.62148909915075
 42
4.886019143380865
  0
ELLIPSE
  5
190
330
1F
100
AcDbEntity
  8
1
100
AcDbEllipse
 10
427.2060559999999
 20
301.096351
 30
0.0
 11
-0.0913005075502119
 21
0.0273793417584566
 31
0.0
210
0.0
220
0.0
230
0.9999999999999998
 40
0.9981549999999998
 41
2.421158406671585
 42
3.621489099150846
  0
SPLINE
  5
19E
330
1F
100
AcDbEntity
  8
1
100
AcDbSpline
210
0.0
220
0.0
230
1.0
 70
     8
 71
     3
 72
     8
 73
     4
 74
     0
 42
0.000000001
 43
0.0000000001
 40
0.0
 40
0.0
 40
0.0
 40
0.0
 40
1.0
 40
1.0
 40
1.0
 40
1.0
 10
430.0081269389876
 20
280.3492402055163
 30
0.0
 10
430.0251824081699
 20
280.363177814217
 30
0.0
 10
430.0409723155493
 20
280.3784259505285
 30
0.0
 10
430.0554966611258
 20
280.3949846144508
 30
0.0
  0
SPLINE
  5
19F
330
1F
100
AcDbEntity
  8
1
100
AcDbSpline
210
0.0
220
0.0
230
1.0
 70
     8
 71
     3
 72
     8
 73
     4
 74
     0
 42
0.000000001
 43
0.0000000001
 40
0.0
 40
0.0
 40
0.0
 40
0.0
 40
1.0
 40
1.0
 40
1.0
 40
1.0
 10
430.5894505876547
 20
281.2836331788933
 30
0.0
 10
430.5972522528897
 20
281.3042312366872
 30
0.0
 10
430.6033026456479
 20
281.3253314637831
 30
0.0
 10
430.6076017659293
 20
281.3469338601809
 30
0.0
  0
SPLINE
  5
1A0
330
1F
100
AcDbEntity
  8
1
100
AcDbSpline
210
0.0
220
0.0
230
1.0
 70
     8
 71
     3
 72
     8
 73
     4
 74
     0
 42
0.000000001
 43
0.0000000001
 40
0.0
 40
0.0
 40
0.0
 40
0.0
 40
1.0
 40
1.0
 40
1.0
 40
1.0
 10
430.7311931720171
 20
288.4274807728481
 30
0.0
 10
430.7276505834055
 20
288.4492200467838
 30
0.0
 10
430.7223402636891
 20
288.4705185758535
 30
0.0
 10
430.7152622128679
 20
288.4913763600573
 30
0.0
  0
SPLINE
  5
1A1
330
1F
100
AcDbEntity
  8
1
100
AcDbSpline
210
0.0
220
0.0
230
1.0
 70
     8
 71
     3
 72
     8
 73
     4
 74
     0
 42
0.000000001
 43
0.0000000001
 40
0.0
 40
0.0
 40
0.0
 40
0.0
 40
1.0
 40
1.0
 40
1.0
 40
1.0
 10
430.2126469442886
 20
289.3981183071029
 30
0.0
 10
430.1987093355879
 20
289.4151737762852
 30
0.0
 10
430.1834611992762
 20
289.4309636836646
 30
0.0
 10
430.166902535354
 20
289.4454880292411
 30
0.0
  0
SPLINE
  5
1A2
330
1F
100
AcDbEntity
  8
1
100
AcDbSpline
210
0.0
220
0.0
230
1.0
 70
     9
 71
     3
 72
   131
 73
   127
 74
     0
 42
0.000000001
 43
0.0000000001
 40
0.0
 40
0.0
 40
0.0
 40
0.0
 40
0.0312500000000208
 40
0.0312500000000208
 40
0.0468750000000302
 40
0.0468750000000302
 40
0.0625000000000395
 40
0.0625000000000395
 40
0.0937500000000579
 40
0.0937500000000579
 40
0.109375000000067
 40
0.109375000000067
 40
0.1250000000000761
 40
0.1250000000000761
 40
0.1562500000000877
 40
0.1562500000000877
 40
0.1640625000000906
 40
0.1640625000000906
 40
0.1718750000000935
 40
0.1718750000000935
 40
0.187500000000091
 40
0.2031250000000887
 40
0.2031250000000887
 40
0.2109375000000874
 40
0.2109375000000874
 40
0.2187500000000862
 40
0.2187500000000862
 40
0.2500000000000637
 40
0.2500000000000637
 40
0.2656250000000569
 40
0.2656250000000569
 40
0.273437500000058
 40
0.273437500000058
 40
0.281250000000059
 40
0.281250000000059
 40
0.3125000000000456
 40
0.3125000000000456
 40
0.3203125000000423
 40
0.3203125000000423
 40
0.328125000000039
 40
0.328125000000039
 40
0.3437500000000325
 40
0.3593750000000259
 40
0.3593750000000259
 40
0.3671875000000259
 40
0.3671875000000259
 40
0.3750000000000259
 40
0.3750000000000259
 40
0.4062500000000206
 40
0.4062500000000206
 40
0.4218750000000177
 40
0.4218750000000177
 40
0.4296875000000182
 40
0.4296875000000182
 40
0.4375000000000185
 40
0.4375000000000185
 40
0.4687500000000134
 40
0.4687500000000134
 40
0.4765625000000127
 40
0.4765625000000127
 40
0.484375000000012
 40
0.484375000000012
 40
0.5000000000000114
 40
0.5000000000000114
 40
0.5312500000000097
 40
0.5312500000000097
 40
0.5390625000000086
 40
0.5390625000000086
 40
0.5468750000000075
 40
0.5468750000000075
 40
0.5625000000000055
 40
0.5781250000000035
 40
0.5781250000000035
 40
0.5859375000000023
 40
0.5859375000000023
 40
0.5937500000000014
 40
0.5937500000000014
 40
0.6249999999999979
 40
0.6249999999999979
 40
0.6406249999999929
 40
0.6406249999999929
 40
0.6484374999999943
 40
0.6484374999999943
 40
0.6562499999999955
 40
0.6562499999999955
 40
0.6874999999999933
 40
0.6874999999999933
 40
0.6953124999999904
 40
0.6953124999999904
 40
0.7031249999999878
 40
0.7031249999999878
 40
0.7187499999999825
 40
0.7187499999999825
 40
0.7499999999999629
 40
0.7499999999999629
 40
0.7578124999999626
 40
0.7578124999999626
 40
0.765624999999962
 40
0.765624999999962
 40
0.7812499999999613
 40
0.7968749999999605
 40
0.7968749999999605
 40
0.8046874999999602
 40
0.8046874999999602
 40
0.8124999999999596
 40
0.8124999999999596
 40
0.8437499999999666
 40
0.8437499999999666
 40
0.8515624999999701
 40
0.8515624999999701
 40
0.8593749999999737
 40
0.8593749999999737
 40
0.874999999999974
 40
0.874999999999974
 40
0.9062499999999808
 40
0.9062499999999808
 40
0.921874999999984
 40
0.921874999999984
 40
0.9374999999999875
 40
0.9531249999999909
 40
0.9531249999999909
 40
0.9609374999999925
 40
0.9609374999999925
 40
0.9687499999999939
 40
0.9687499999999939
 40
1.0
 40
1.0
 40
1.0
 40
1.0
 10
423.9691615337857
 20
285.174186265565
 30
0.0
 10
423.9708111028401
 20
285.2686900133981
 30
0.0
 10
423.9815917956154
 20
285.3617419740334
 30
0.0
 10
424.0111095782291
 20
285.4991759280439
 30
0.0
 10
424.0231888279825
 20
285.5446271410431
 30
0.0
 10
424.0519587735096
 20
285.6347807613347
 30
0.0
 10
424.0687468829377
 20
285.6796602899192
 30
0.0
 10
424.1251218961048
 20
285.8103452422587
 30
0.0
 10
424.1708379779939
 20
285.8930268942412
 30
0.0
 10
424.2516080188784
 20
286.0103256164126
 30
0.0
 10
424.2805798884618
 20
286.0482996447844
 30
0.0
 10
424.3427848937
 20
286.1218701103591
 30
0.0
 10
424.3754832276484
 20
286.1568341726752
 30
0.0
 10
424.4782167583771
 20
286.2564165637841
 30
0.0
 10
424.5528464387225
 20
286.3157755986072
 30
0.0
 10
424.6539924968535
 20
286.380924616297
 30
0.0
 10
424.6746567064383
 20
286.3935198031783
 30
0.0
 10
424.7166252046358
 20
286.4176746486143
 30
0.0
 10
424.7378310480169
 20
286.4291803934829
 30
0.0
 10
424.8021002065078
 20
286.4620149623036
 30
0.0
 10
424.8895268579718
 20
286.5013154770984
 30
0.0
 10
424.9803627165682
 20
286.5317976383487
 30
0.0
 10
425.0497838259031
 20
286.5513070928892
 30
0.0
 10
425.0731402921778
 20
286.5572505415429
 30
0.0
 10
425.1202930292756
 20
286.5679977112091
 30
0.0
 10
425.1441582833329
 20
286.5728121269533
 30
0.0
 10
425.2635003954331
 20
286.5937798969732
 30
0.0
 10
425.3592239223065
 20
286.6008269501778
 30
0.0
 10
425.5031729543378
 20
286.5972271735854
 30
0.0
 10
425.5512170458568
 20
286.5936479511914
 30
0.0
 10
425.6233776424316
 20
286.5846007226678
 30
0.0
 10
425.6474516324628
 20
286.5809653317015
 30
0.0
 10
425.6950812619963
 20
286.5725485106145
 30
0.0
 10
425.7187066392738
 20
286.5677595850406
 30
0.0
 10
425.835902295799
 20
286.5409624867507
 30
0.0
 10
425.9267063705065
 20
286.5104800211278
 30
0.0
 10
426.0364941664424
 20
286.4610188727687
 30
0.0
 10
426.0582641374066
 20
286.4505535311735
 30
0.0
 10
426.1014210862738
 20
286.4284537371509
 30
0.0
 10
426.1226553888191
 20
286.4168964380019
 30
0.0
 10
426.1852032771163
 20
286.3808130551205
 30
0.0
 10
426.2656551471341
 20
286.3288804341082
 30
0.0
 10
426.3403514407731
 20
286.2694993147869
 30
0.0
 10
426.3942031365241
 20
286.2221623283167
 30
0.0
 10
426.4117913048006
 20
286.205915648482
 30
0.0
 10
426.4462328537576
 20
286.1724753777741
 30
0.0
 10
426.4631290182004
 20
286.1552350258801
 30
0.0
 10
426.5451797469035
 20
286.0672221962384
 30
0.0
 10
426.6027226491433
 20
285.9915768676647
 30
0.0
 10
426.6774193687038
 20
285.8706667658819
 30
0.0
 10
426.7003678054788
 20
285.8291137640458
 30
0.0
 10
426.73180520736
 20
285.7648794849258
 30
0.0
 10
426.7418029691721
 20
285.743104163603
 30
0.0
 10
426.7605951340926
 20
285.6993618750991
 30
0.0
 10
426.7694136154781
 20
285.6773511577106
 30
0.0
 10
426.8106781818773
 20
285.5666172781614
 30
0.0
 10
426.8347183175118
 20
285.4758732022568
 30
0.0
 10
426.8537082505253
 20
285.35981917384
 30
0.0
 10
426.8569484120351
 20
285.3364759358537
 30
0.0
 10
426.8622973392584
 20
285.2895213911384
 30
0.0
 10
426.8644019884426
 20
285.2659102352937
 30
0.0
 10
426.8689583979984
 20
285.1954220604207
 30
0.0
 10
426.8696893932292
 20
285.148639510935
 30
0.0
 10
426.8651750331446
 20
285.0089029891165
 30
0.0
 10
426.8532848467082
 20
284.9165559187935
 30
0.0
 10
426.8270685075291
 20
284.8021423859125
 30
0.0
 10
426.8212497219082
 20
284.7793164795121
 30
0.0
 10
426.8085890447727
 20
284.7342413117699
 30
0.0
 10
426.8017342273926
 20
284.711931580755
 30
0.0
 10
426.7796212973216
 20
284.6456734583641
 30
0.0
 10
426.7460147973377
 20
284.559115948226
 30
0.0
 10
426.7042462791275
 20
284.4760743476373
 30
0.0
 10
426.6698005674874
 20
284.4151268170112
 30
0.0
 10
426.6577978427648
 20
284.3950336328864
 30
0.0
 10
426.6327290226739
 20
284.3552999778271
 30
0.0
 10
426.6196351500506
 20
284.3356242285971
 30
0.0
 10
426.5521535065929
 20
284.2393914004727
 30
0.0
 10
426.4913831947858
 20
284.1685042399977
 30
0.0
 10
426.3901185057766
 20
284.0711483163983
 30
0.0
 10
426.3546667156596
 20
284.04020284147
 30
0.0
 10
426.2988364877718
 20
283.9961246214185
 30
0.0
 10
426.2797264365787
 20
283.9817831044502
 30
0.0
 10
426.2409093485803
 20
283.9541269820038
 30
0.0
 10
426.2212187060118
 20
283.9408188144063
 30
0.0
 10
426.1213725845061
 20
283.8768387835318
 30
0.0
 10
426.0370790692595
 20
283.8337735141701
 30
0.0
 10
425.9260606930856
 20
283.7902419478512
 30
0.0
 10
425.9035718721008
 20
283.7820554193086
 30
0.0
 10
425.8580098694548
 20
283.766745757576
 30
0.0
 10
425.8348678727306
 20
283.7596039804246
 30
0.0
 10
425.7650757473466
 20
283.7399705178982
 30
0.0
 10
425.7182222221413
 20
283.7292940596802
 30
0.0
 10
425.5767093945043
 20
283.7043087553218
 30
0.0
 10
425.4811070413587
 20
283.6969738340761
 30
0.0
 10
425.3599693575162
 20
283.6998772767605
 30
0.0
 10
425.3356205184058
 20
283.7010737342198
 30
0.0
 10
425.2873373713736
 20
283.7046619407839
 30
0.0
 10
425.2633349970549
 20
283.7070532018615
 30
0.0
 10
425.1917371969857
 20
283.715983808105
 30
0.0
 10
425.0973630042092
 20
283.7325674447914
 30
0.0
 10
425.0051290240216
 20
283.7583520158148
 30
0.0
 10
424.9367648717552
 20
283.7811874329931
 30
0.0
 10
424.9140712020468
 20
283.7893993737163
 30
0.0
 10
424.8691440452849
 20
283.8069394528451
 30
0.0
 10
424.8470106956714
 20
283.8162258999962
 30
0.0
 10
424.7379505444422
 20
283.8651754308429
 30
0.0
 10
424.6557965042698
 20
283.9123155230217
 30
0.0
 10
424.5592581889955
 20
283.9809730305889
 30
0.0
 10
424.5402611246346
 20
283.9951957573051
 30
0.0
 10
424.5028944241824
 20
284.0246360916562
 30
0.0
 10
424.4845303087634
 20
284.0398545417826
 30
0.0
 10
424.4309528529909
 20
284.0865133883148
 30
0.0
 10
424.3970479288478
 20
284.1191093769749
 30
0.0
 10
424.3005747746833
 20
284.2212330529169
 30
0.0
 10
424.2431978752625
 20
284.2950548752008
 30
0.0
 10
424.1676975874104
 20
284.4146371691403
 30
0.0
 10
424.144660798754
 20
284.4554253763752
 30
0.0
 10
424.1027874883249
 20
284.5386263337402
 30
0.0
 10
424.0650790607813
 20
284.6235102859467
 30
0.0
 10
424.0356120218403
 20
284.7117482201019
 30
0.0
 10
424.0166592964958
 20
284.7792148202174
 30
0.0
 10
424.0108672493433
 20
284.8019187416753
 30
0.0
 10
424.0003556341008
 20
284.8477664109134
 30
0.0
 10
423.99565994607
 20
284.8708119848429
 30
0.0
 10
423.9750388234711
 20
284.9862509846002
 30
0.0
 10
423.9675119647314
 20
285.0796825177318
 30
0.0
 10
423.9691615337857
 20
285.174186265565
 30
0.0
  0
SPLINE
  5
1A3
330
1F
100
AcDbEntity
  8
1
100
AcDbSpline
210
0.0
220
0.0
230
1.0
 70
    12
 71
     2
 72
     6
 73
     3
 74
     0
 42
0.000000001
 43
0.0000000001
 40
0.0
 40
0.0
 40
0.0
 40
1.0
 40
1.0
 40
1.0
 10
421.0238744585057
 20
304.8329305241253
 30
0.0
 41
0.4999978670611575
 10
421.1360580946678
 20
304.8327410410642
 30
0.0
 41
0.5000021329388426
 10
421.2482406644654
 20
304.8325510808168
 30
0.0
 41
0.4999978670611575
  0
SPLINE
  5
1A4
330
1F
100
AcDbEntity
  8
1
100
AcDbSpline
210
0.0
220
0.0
230
1.0
 70
    28
 71
     4
 72
    10
 73
     5
 74
     0
 42
0.000000001
 43
0.0000000001
 40
0.0
 40
0.0
 40
0.0
 40
0.0
 40
0.0
 40
1.0
 40
1.0
 40
1.0
 40
1.0
 40
1.0
 10
297.9048419452957
 20
272.9608202713141
 30
0.0
 41
1.001498006703475
 10
297.9048419452957
 20
273.1299135097394
 30
0.0
 41
1.001498006703475
 10
297.9048419452957
 20
273.2990067481646
 30
0.0
 41
1.001498006703475
 10
297.9048419452957
 20
273.4680999865899
 30
0.0
 41
1.001498006703475
 10
297.9048419452957
 20
273.6371932250152
 30
0.0
 41
1.001498006703475
  0
SPLINE
  5
1A5
330
1F
100
AcDbEntity
  8
1
100
AcDbSpline
210
0.0
220
0.0
230
1.0
 70
     8
 71
     3
 72
    10
 73
     6
 74
     0
 42
0.000000001
 43
0.0000000001
 40
0.0
 40
0.0
 40
0.0
 40
0.0
 40
0.5
 40
0.5
 40
1.0
 40
1.0
 40
1.0
 40
1.0
 10
303.4168589826431
 20
272.913981359372
 30
0.0
 10
305.1292269623721
 20
273.0376223583461
 30
0.0
 10
306.8411350637519
 20
273.1733919425199
 30
0.0
 10
310.2666464079854
 20
273.4626564176623
 30
0.0
 10
311.9802613160957
 20
273.6160999078386
 30
0.0
 10
313.6957925939658
 20
273.7748794327115
 30
0.0
  0
SPLINE
  5
1A6
330
1F
100
AcDbEntity
  8
1
100
AcDbSpline
210
0.0
220
0.0
230
1.0
 70
     8
 71
     3
 72
     8
 73
     4
 74
     0
 42
0.000000001
 43
0.0000000001
 40
0.0
 40
0.0
 40
0.0
 40
0.0
 40
1.0
 40
1.0
 40
1.0
 40
1.0
 10
303.4168589826429
 20
272.9139813593737
 30
0.0
 10
301.5810805047919
 20
272.9220685772968
 30
0.0
 10
299.7438316205864
 20
272.938158703283
 30
0.0
 10
297.9048419452957
 20
272.9608202713141
 30
0.0
  0
SPLINE
  5
1A7
330
1F
100
AcDbEntity
  8
1
100
AcDbSpline
210
0.0
220
0.0
230
1.0
 70
     8
 71
     3
 72
     8
 73
     4
 74
     0
 42
0.000000001
 43
0.0000000001
 40
0.0
 40
0.0
 40
0.0
 40
0.0
 40
1.0
 40
1.0
 40
1.0
 40
1.0
 10
300.2386074781248
 20
282.201494843007
 30
0.0
 10
300.2385443931387
 20
282.1954214915381
 30
0.0
 10
300.2384813132786
 20
282.1893481524486
 30
0.0
 10
300.2384182385433
 20
282.1832748257353
 30
0.0
  0
SPLINE
  5
1A8
330
1F
100
AcDbEntity
  8
1
100
AcDbSpline
210
0.0
220
0.0
230
1.0
 70
     8
 71
     3
 72
     8
 73
     4
 74
     0
 42
0.000000001
 43
0.0000000001
 40
0.0
 40
0.0
 40
0.0
 40
0.0
 40
1.0
 40
1.0
 40
1.0
 40
1.0
 10
415.7145583162701
 20
296.2981243580653
 30
0.0
 10
415.5867172795117
 20
296.3759303837811
 30
0.0
 10
415.4583651799535
 20
296.4539255279277
 30
0.0
 10
415.3295162504613
 20
296.532104523643
 30
0.0
  0
SPLINE
  5
1A9
330
1F
100
AcDbEntity
  8
1
100
AcDbSpline
210
0.0
220
0.0
230
1.0
 70
     8
 71
     3
 72
    13
 73
     9
 74
     0
 42
0.000000001
 43
0.0000000001
 40
0.0
 40
0.0
 40
0.0
 40
0.0
 40
0.25
 40
0.5
 40
0.5
 40
0.75
 40
0.75
 40
1.0
 40
1.0
 40
1.0
 40
1.0
 10
295.5658683075139
 20
273.0071593760894
 30
0.0
 10
295.7530371841714
 20
272.9985152224599
 30
0.0
 10
296.1310423772154
 20
272.9843230216435
 30
0.0
 10
296.5166404483694
 20
272.9750566122437
 30
0.0
 10
296.9062083861579
 20
272.9678010621657
 30
0.0
 10
297.1029772303809
 20
272.9651778280707
 30
0.0
 10
297.5007025745549
 20
272.9616881456069
 30
0.0
 10
297.7016588616266
 20
272.9608202713141
 30
0.0
 10
297.9048419452957
 20
272.9608202713141
 30
0.0
  0
SPLINE
  5
1AA
330
1F
100
AcDbEntity
  8
1
100
AcDbSpline
210
0.0
220
0.0
230
1.0
 70
     8
 71
     3
 72
    14
 73
    10
 74
     0
 42
0.000000001
 43
0.0000000001
 40
0.0
 40
0.0
 40
0.0
 40
0.0
 40
0.25
 40
0.25
 40
0.5
 40
0.5
 40
0.75
 40
0.75
 40
1.0
 40
1.0
 40
1.0
 40
1.0
 10
290.2038318185191
 20
273.3782305906219
 30
0.0
 10
289.8775027045288
 20
273.4075682856278
 30
0.0
 10
289.5557608376386
 20
273.4284897259572
 30
0.0
 10
288.9204115401668
 20
273.4554082988283
 30
0.0
 10
288.6068067519754
 20
273.4614005833581
 30
0.0
 10
287.9869977841671
 20
273.4598072035596
 30
0.0
 10
287.680795364789
 20
273.4522183097094
 30
0.0
 10
287.075291224649
 20
273.4243797614847
 30
0.0
 10
286.7759906841736
 20
273.4041279416302
 30
0.0
 10
286.479985954862
 20
273.3778292737396
 30
0.0
  0
SPLINE
  5
1AB
330
1F
100
AcDbEntity
  8
1
100
AcDbSpline
210
0.0
220
0.0
230
1.0
 70
     9
 71
     3
 72
   178
 73
   174
 74
     0
 42
0.000000001
 43
0.0000000001
 40
0.0
 40
0.0
 40
0.0
 40
0.0
 40
0.0156249999999991
 40
0.0156249999999991
 40
0.0234374999999984
 40
0.0234374999999984
 40
0.0312499999999978
 40
0.0312499999999978
 40
0.0468749999999964
 40
0.0468749999999964
 40
0.0546874999999958
 40
0.0546874999999958
 40
0.0624999999999951
 40
0.0624999999999951
 40
0.0781249999999941
 40
0.0781249999999941
 40
0.0937499999999931
 40
0.0937499999999931
 40
0.1015624999999924
 40
0.1015624999999924
 40
0.1093749999999917
 40
0.1093749999999917
 40
0.1249999999999903
 40
0.1249999999999903
 40
0.1328124999999899
 40
0.1328124999999899
 40
0.1406249999999895
 40
0.1406249999999895
 40
0.1562499999999892
 40
0.1562499999999892
 40
0.1718749999999889
 40
0.1718749999999889
 40
0.1796874999999888
 40
0.1796874999999888
 40
0.1874999999999886
 40
0.1874999999999886
 40
0.2031249999999884
 40
0.2031249999999884
 40
0.2109374999999881
 40
0.2109374999999881
 40
0.2187499999999878
 40
0.2187499999999878
 40
0.2343749999999873
 40
0.2343749999999873
 40
0.2499999999999868
 40
0.2499999999999868
 40
0.2578124999999866
 40
0.2578124999999866
 40
0.2656249999999863
 40
0.2656249999999863
 40
0.2812499999999858
 40
0.2812499999999858
 40
0.2890624999999856
 40
0.2890624999999856
 40
0.2968749999999853
 40
0.2968749999999853
 40
0.3124999999999852
 40
0.3124999999999852
 40
0.3281249999999851
 40
0.3281249999999851
 40
0.3359374999999852
 40
0.3359374999999852
 40
0.3437499999999854
 40
0.3437499999999854
 40
0.3593749999999858
 40
0.3593749999999858
 40
0.3671874999999857
 40
0.3671874999999857
 40
0.3749999999999856
 40
0.3749999999999856
 40
0.3906249999999856
 40
0.3906249999999856
 40
0.4062499999999857
 40
0.4062499999999857
 40
0.4140624999999857
 40
0.4140624999999857
 40
0.4218749999999857
 40
0.4218749999999857
 40
0.4374999999999868
 40
0.4374999999999868
 40
0.4453124999999872
 40
0.4453124999999872
 40
0.4531249999999875
 40
0.4531249999999875
 40
0.4687499999999883
 40
0.4687499999999883
 40
0.4843749999999892
 40
0.4843749999999892
 40
0.4921874999999898
 40
0.4921874999999898
 40
0.4999999999999905
 40
0.4999999999999905
 40
0.5156249999999913
 40
0.5156249999999913
 40
0.5234374999999919
 40
0.5234374999999919
 40
0.5312499999999921
 40
0.5390624999999926
 40
0.5390624999999926
 40
0.546874999999993
 40
0.546874999999993
 40
0.5624999999999936
 40
0.5624999999999936
 40
0.5703124999999933
 40
0.5703124999999933
 40
0.5781249999999929
 40
0.5781249999999929
 40
0.5937499999999917
 40
0.5937499999999917
 40
0.6015624999999917
 40
0.6015624999999917
 40
0.6093749999999917
 40
0.6171874999999917
 40
0.6171874999999917
 40
0.6249999999999917
 40
0.6249999999999917
 40
0.6406249999999924
 40
0.6406249999999924
 40
0.6562499999999929
 40
0.6562499999999929
 40
0.6718749999999936
 40
0.6718749999999936
 40
0.6796874999999938
 40
0.6796874999999938
 40
0.687499999999994
 40
0.6953124999999943
 40
0.6953124999999943
 40
0.7031249999999945
 40
0.7031249999999945
 40
0.7187499999999949
 40
0.7187499999999949
 40
0.7343749999999956
 40
0.7343749999999956
 40
0.7499999999999963
 40
0.7499999999999963
 40
0.7578124999999966
 40
0.7578124999999966
 40
0.7656249999999969
 40
0.7734374999999973
 40
0.7734374999999973
 40
0.7812499999999975
 40
0.7812499999999975
 40
0.7968749999999979
 40
0.7968749999999979
 40
0.8124999999999984
 40
0.8124999999999984
 40
0.8281249999999989
 40
0.8281249999999989
 40
0.8359374999999992
 40
0.8359374999999992
 40
0.8437499999999992
 40
0.8515624999999996
 40
0.8515624999999996
 40
0.8593749999999998
 40
0.8593749999999998
 40
0.8750000000000007
 40
0.8750000000000007
 40
0.8906250000000015
 40
0.8906250000000015
 40
0.9062500000000024
 40
0.9062500000000024
 40
0.9140625000000024
 40
0.9140625000000024
 40
0.9218750000000028
 40
0.929687500000003
 40
0.929687500000003
 40
0.9375000000000031
 40
0.9375000000000031
 40
0.9531250000000028
 40
0.9531250000000028
 40
0.9687500000000021
 40
0.9687500000000021
 40
1.0
 40
1.0
 40
1.0
 40
1.0
 10
429.0239622959084
 20
283.6284985845406
 30
0.0
 10
429.0331130172173
 20
283.6276510908629
 30
0.0
 10
429.0422326255987
 20
283.6300112039812
 30
0.0
 10
429.0558656471013
 20
283.6383340901696
 30
0.0
 10
429.0604022418523
 20
283.6419069385028
 30
0.0
 10
429.0694598180102
 20
283.6506623027433
 30
0.0
 10
429.0739822516667
 20
283.6558493406581
 30
0.0
 10
429.087452777547
 20
283.6737490803311
 30
0.0
 10
429.0963286301853
 20
283.6888145280747
 30
0.0
 10
429.1094851826633
 20
283.7161255061562
 30
0.0
 10
429.1138499774791
 20
283.7260301033836
 30
0.0
 10
429.1224978044467
 20
283.7473604955246
 30
0.0
 10
429.1267774228473
 20
283.7587752507131
 30
0.0
 10
429.139484051103
 20
283.7952570538363
 30
0.0
 10
429.1477791575164
 20
283.8225561650086
 30
0.0
 10
429.1640131971621
 20
283.8831815315578
 30
0.0
 10
429.1718986683328
 20
283.9163144659348
 30
0.0
 10
429.1833512628738
 20
283.970092423786
 30
0.0
 10
429.1871077761603
 20
283.9887057098272
 30
0.0
 10
429.1944979472718
 20
284.027316107278
 30
0.0
 10
429.1981342315191
 20
284.0473311173521
 30
0.0
 10
429.2087994754688
 20
284.1091363698173
 30
0.0
 10
429.2156040496406
 20
284.1527731960155
 30
0.0
 10
429.225352465989
 20
284.2218789175652
 30
0.0
 10
429.2285292442019
 20
284.2455543962573
 30
0.0
 10
429.2347085309843
 20
284.2939832408904
 30
0.0
 10
429.2377081620174
 20
284.3187104656711
 30
0.0
 10
429.2464387952418
 20
284.3944204226568
 30
0.0
 10
429.2519021938745
 20
284.4469276984585
 30
0.0
 10
429.2621086360362
 20
284.5560461295681
 30
0.0
 10
429.266815915787
 20
284.6122833439152
 30
0.0
 10
429.2732735464228
 20
284.6989519021089
 30
0.0
 10
429.2753262544371
 20
284.7282371506535
 30
0.0
 10
429.2792309888333
 20
284.7876031117419
 30
0.0
 10
429.2810836809541
 20
284.8177016910516
 30
0.0
 10
429.2863100216404
 20
284.908698331877
 30
0.0
 10
429.2893636330623
 20
284.9704506317871
 30
0.0
 10
429.2933001457043
 20
285.0647057898937
 30
0.0
 10
429.2945061988829
 20
285.0964385783039
 30
0.0
 10
429.2966936310006
 20
285.1602220373597
 30
0.0
 10
429.297674783206
 20
285.1922548237353
 30
0.0
 10
429.3002832527297
 20
285.288772964363
 30
0.0
 10
429.3015763936678
 20
285.3536770841898
 30
0.0
 10
429.3032657923432
 20
285.4846092327469
 30
0.0
 10
429.3036554323726
 20
285.5501491545606
 30
0.0
 10
429.3035654581908
 20
285.6484633177925
 30
0.0
 10
429.3034229296272
 20
285.6812412488488
 30
0.0
 10
429.3029119223331
 20
285.7468102485098
 30
0.0
 10
429.3025429649959
 20
285.7796086064137
 30
0.0
 10
429.3011033595262
 20
285.8774960730131
 30
0.0
 10
429.2996998794471
 20
285.9422547062528
 30
0.0
 10
429.2969319335859
 20
286.0386463924303
 30
0.0
 10
429.2958970234764
 20
286.0706945139053
 30
0.0
 10
429.293613193774
 20
286.1342929209317
 30
0.0
 10
429.2923647797537
 20
286.1658403121477
 30
0.0
 10
429.2883025796753
 20
286.2597330534105
 30
0.0
 10
429.2851725424903
 20
286.3213316234185
 30
0.0
 10
429.278064167244
 20
286.4425190693356
 30
0.0
 10
429.2741137139029
 20
286.5016328864205
 30
0.0
 10
429.2676011476663
 20
286.5881118090941
 30
0.0
 10
429.2653323000972
 20
286.6165721521945
 30
0.0
 10
429.2605977542293
 20
286.6727576737373
 30
0.0
 10
429.2581320773518
 20
286.7004774344057
 30
0.0
 10
429.2504782878991
 20
286.7821048218212
 30
0.0
 10
429.2450220333702
 20
286.8346311820598
 30
0.0
 10
429.2363081141464
 20
286.9105885174946
 30
0.0
 10
429.2333110444813
 20
286.9354652852566
 30
0.0
 10
429.2271640609915
 20
286.9840654253863
 30
0.0
 10
429.2240136706113
 20
287.0077967991812
 30
0.0
 10
429.2143332428823
 20
287.0772954760862
 30
0.0
 10
429.2075718548008
 20
287.1213869578382
 30
0.0
 10
429.1934441295984
 20
287.2049528852642
 30
0.0
 10
429.1861269729263
 20
287.2441395165926
 30
0.0
 10
429.174774567484
 20
287.2990584902805
 30
0.0
 10
429.1709275415953
 20
287.3167201678214
 30
0.0
 10
429.1631069027721
 20
287.3507459716217
 30
0.0
 10
429.1591353285296
 20
287.3670984429803
 30
0.0
 10
429.1470910769951
 20
287.4139604836959
 30
0.0
 10
429.1388700122836
 20
287.4423652614061
 30
0.0
 10
429.1262503892387
 20
287.4807074781277
 30
0.0
 10
429.1219904995858
 20
287.4927888734299
 30
0.0
 10
429.11341173164
 20
287.515413811873
 30
0.0
 10
429.1090905838922
 20
287.5259665112115
 30
0.0
 10
429.0960322385556
 20
287.5553546097386
 30
0.0
 10
429.0871939429576
 20
287.5719350564434
 30
0.0
 10
429.0692880900416
 20
287.5989329034407
 30
0.0
 10
429.0602770825447
 20
287.6092697689399
 30
0.0
 10
429.0466738595252
 20
287.6200542897199
 30
0.0
 10
429.0421249740782
 20
287.6228609285007
 30
0.0
 10
429.0329980027768
 20
287.626884472407
 30
0.0
 10
429.0284247625917
 20
287.6280970817992
 30
0.0
 10
429.0147310060703
 20
287.6293295631447
 30
0.0
 10
429.0056152773711
 20
287.6269603502638
 30
0.0
 10
428.99196196204
 20
287.6185931114625
 30
0.0
 10
428.9874091467114
 20
287.6149940224163
 30
0.0
 10
428.9783542428193
 20
287.6062144758123
 30
0.0
 10
428.9693423293271
 20
287.5958525044573
 30
0.0
 10
428.9604161382863
 20
287.5823351931131
 30
0.0
 10
428.9515329898325
 20
287.5672335360995
 30
0.0
 10
428.9471088657956
 20
287.5588819392546
 30
0.0
 10
428.9339296766227
 20
287.5314819937072
 30
0.0
 10
428.9253012839457
 20
287.5101710482394
 30
0.0
 10
428.9125944250828
 20
287.4736549487981
 30
0.0
 10
428.9083981647531
 20
287.4607232664177
 30
0.0
 10
428.9000850805211
 20
287.4333267485222
 30
0.0
 10
428.8959752301461
 20
287.4188828008628
 30
0.0
 10
428.8838280789788
 20
287.3734734012177
 30
0.0
 10
428.8759553435923
 20
287.3403789636379
 30
0.0
 10
428.864486175061
 20
287.2864814326478
 30
0.0
 10
428.8607163412866
 20
287.2677843142388
 30
0.0
 10
428.8533299039298
 20
287.2291573637145
 30
0.0
 10
428.8460881784155
 20
287.1892615377359
 30
0.0
 10
428.8391348059146
 20
287.1468373488155
 30
0.0
 10
428.8323261301319
 20
287.1031444170549
 30
0.0
 10
428.8289904465388
 20
287.0806370333659
 30
0.0
 10
428.8192294990436
 20
287.0113821910797
 30
0.0
 10
428.8130674739535
 20
286.9630440291759
 30
0.0
 10
428.8014298195739
 20
286.8620572369539
 30
0.0
 10
428.7959424466839
 20
286.8092644428063
 30
0.0
 10
428.7857661226609
 20
286.7003678870238
 30
0.0
 10
428.7810666358411
 20
286.6441997178716
 30
0.0
 10
428.7746019481287
 20
286.557360858182
 30
0.0
 10
428.7725433975505
 20
286.5279586142143
 30
0.0
 10
428.7686440388738
 20
286.4686056994263
 30
0.0
 10
428.7649567427605
 20
286.4086338076263
 30
0.0
 10
428.7616913244328
 20
286.3474305214339
 30
0.0
 10
428.7586372655086
 20
286.2856103106425
 30
0.0
 10
428.7572142999366
 20
286.2543516984875
 30
0.0
 10
428.7532778464687
 20
286.1599480286823
 30
0.0
 10
428.7510994963938
 20
286.0962949334973
 30
0.0
 10
428.7476266523348
 20
285.9675670583445
 30
0.0
 10
428.746331722815
 20
285.9023364652508
 30
0.0
 10
428.7446541451691
 20
285.7717302533864
 30
0.0
 10
428.7442664213091
 20
285.706247452748
 30
0.0
 10
428.7443615186938
 20
285.6077536755782
 30
0.0
 10
428.7445066581844
 20
285.5748615040305
 30
0.0
 10
428.7450213120354
 20
285.5093382461168
 30
0.0
 10
428.7457601313888
 20
285.4439903795982
 30
0.0
 10
428.7469445839765
 20
285.3789911850827
 30
0.0
 10
428.7483521186167
 20
285.3141665342503
 30
0.0
 10
428.7491687059147
 20
285.2817995460929
 30
0.0
 10
428.7519455774353
 20
285.1853068901776
 30
0.0
 10
428.754229137673
 20
285.1218422674879
 30
0.0
 10
428.759652807815
 20
284.9966245155276
 30
0.0
 10
428.7628019727812
 20
284.9347472694741
 30
0.0
 10
428.7698980495014
 20
284.8139046375613
 30
0.0
 10
428.7738482380486
 20
284.7548188367373
 30
0.0
 10
428.7803773036593
 20
284.6681952596534
 30
0.0
 10
428.7826551337263
 20
284.6396526730771
 30
0.0
 10
428.7873886881707
 20
284.5835328097834
 30
0.0
 10
428.7923056201647
 20
284.5283022873171
 30
0.0
 10
428.7975874877917
 20
284.4748416224985
 30
0.0
 10
428.8030522197082
 20
284.4222678093082
 30
0.0
 10
428.8058798542936
 20
284.3963919555908
 30
0.0
 10
428.8146055164083
 20
284.3203979007095
 30
0.0
 10
428.8207442873076
 20
284.2719047968464
 30
0.0
 10
428.8336611411991
 20
284.1792307166901
 30
0.0
 10
428.8404537001672
 20
284.1349801873205
 30
0.0
 10
428.8545504652192
 20
284.0516634382956
 30
0.0
 10
428.8618664480873
 20
284.0124962160335
 30
0.0
 10
428.8732437280985
 20
283.957499846913
 30
0.0
 10
428.8771027913059
 20
283.9398010730186
 30
0.0
 10
428.8849162487858
 20
283.9058386786899
 30
0.0
 10
428.8928346339156
 20
283.8732637248115
 30
0.0
 10
428.9009622815183
 20
283.8434558129957
 30
0.0
 10
428.9091950117728
 20
283.8150373911954
 30
0.0
 10
428.913369299985
 20
283.8015075362867
 30
0.0
 10
428.9259982150653
 20
283.7631825406471
 30
0.0
 10
428.9345635629223
 20
283.7406191831317
 30
0.0
 10
428.9519858540464
 20
283.7014545658275
 30
0.0
 10
428.9608624499739
 20
283.6848414636002
 30
0.0
 10
428.9875996436204
 20
283.6445941256889
 30
0.0
 10
429.0056608532906
 20
283.6301935718962
 30
0.0
 10
429.0239622959084
 20
283.6284985845406
 30
0.0
  0
SPLINE
  5
1AC
330
1F
100
AcDbEntity
  8
1
100
AcDbSpline
210
0.0
220
0.0
230
1.0
 70
     8
 71
     3
 72
    14
 73
    10
 74
     0
 42
0.000000001
 43
0.0000000001
 40
0.0
 40
0.0
 40
0.0
 40
0.0
 40
0.25
 40
0.25
 40
0.5
 40
0.5
 40
0.75
 40
0.75
 40
1.0
 40
1.0
 40
1.0
 40
1.0
 10
422.4928803753813
 20
293.8924953784693
 30
0.0
 10
422.2890722017918
 20
293.9114223175595
 30
0.0
 10
422.0815200852547
 20
293.9327617195545
 30
0.0
 10
421.6600334020956
 20
293.981900126732
 30
0.0
 10
421.4460933545406
 20
294.0096923331898
 30
0.0
 10
421.0125153288307
 20
294.0730610793206
 30
0.0
 10
420.7928747385794
 20
294.1086331559806
 30
0.0
 10
420.348293783932
 20
294.1887598133281
 30
0.0
 10
420.1233524902256
 20
294.2333108142901
 30
0.0
 10
419.8958419452964
 20
294.2829467215976
 30
0.0
  0
SPLINE
  5
1AD
330
1F
100
AcDbEntity
  8
1
100
AcDbSpline
210
0.0
220
0.0
230
1.0
 70
     8
 71
     3
 72
    14
 73
    10
 74
     0
 42
0.000000001
 43
0.0000000001
 40
0.0
 40
0.0
 40
0.0
 40
0.0
 40
0.25
 40
0.25
 40
0.5
 40
0.5
 40
0.75
 40
0.75
 40
1.0
 40
1.0
 40
1.0
 40
1.0
 10
419.8958419452956
 20
292.0792951959056
 30
0.0
 10
420.1292625523508
 20
292.0496681951635
 30
0.0
 10
420.359908777115
 20
292.029165109428
 30
0.0
 10
420.8154862020148
 20
292.0052094316726
 30
0.0
 10
421.0404184201506
 20
292.0017600283486
 30
0.0
 10
421.4841302151127
 20
292.0110311956721
 30
0.0
 10
421.7029128166352
 20
292.0237536928119
 30
0.0
 10
422.1335592595194
 20
292.0647201671954
 30
0.0
 10
422.345429580285
 20
292.0929649892199
 30
0.0
 10
422.5532255639547
 20
292.1287416286581
 30
0.0
  0
SPLINE
  5
1AE
330
1F
100
AcDbEntity
  8
1
100
AcDbSpline
210
0.0
220
0.0
230
1.0
 70
    24
 71
     3
 72
    12
 73
     8
 74
     0
 42
0.000000001
 43
0.0000000001
 40
0.0
 40
0.0
 40
0.0
 40
0.0
 40
0.37880574940812
 40
0.37880574940812
 40
0.7576114988162401
 40
0.7576114988162401
 40
1.0
 40
1.0
 40
1.0
 40
1.0
 10
419.8958419452957
 20
294.2829467215975
 30
0.0
 10
419.8958419452957
 20
293.9303719575147
 30
0.0
 10
419.8958419452957
 20
293.601600291791
 30
0.0
 10
419.8958419452957
 20
293.0010181809138
 30
0.0
 10
419.8958419452957
 20
292.7292158986942
 30
0.0
 10
419.8958419452957
 20
292.3365534377921
 30
0.0
 10
419.8958419452957
 20
292.1965879209529
 30
0.0
 10
419.8958419452957
 20
292.0706447216021
 30
0.0
  0
SPLINE
  5
1AF
330
1F
100
AcDbEntity
  8
1
100
AcDbSpline
210
0.0
220
0.0
230
1.0
 70
     8
 71
     3
 72
    16
 73
    12
 74
     0
 42
0.000000001
 43
0.0000000001
 40
0.0
 40
0.0
 40
0.0
 40
0.0
 40
0.2499999999999999
 40
0.2499999999999999
 40
0.3749999999999999
 40
0.3749999999999999
 40
0.5
 40
0.5
 40
0.75
 40
0.75
 40
1.0
 40
1.0
 40
1.0
 40
1.0
 10
416.3834885501819
 20
295.9175916335324
 30
0.0
 10
416.6627550405148
 20
295.7393717052726
 30
0.0
 10
416.9450603278542
 20
295.5717328110393
 30
0.0
 10
417.3737369296762
 20
295.3356057723102
 30
0.0
 10
417.5175012534176
 20
295.2594574356528
 30
0.0
 10
417.806918599121
 20
295.1122570656945
 30
0.0
 10
417.952667889742
 20
295.0411626688963
 30
0.0
 10
418.3918300585601
 20
294.8360870213191
 30
0.0
 10
418.6873897121846
 20
294.7101433089659
 30
0.0
 10
419.2856835171394
 20
294.479980986241
 30
0.0
 10
419.5884082958368
 20
294.3757550755342
 30
0.0
 10
419.8958419452957
 20
294.2829467215975
 30
0.0
  0
SPLINE
  5
1B0
330
1F
100
AcDbEntity
  8
1
100
AcDbSpline
210
0.0
220
0.0
230
1.0
 70
     8
 71
     3
 72
     8
 73
     4
 74
     0
 42
0.000000001
 43
0.0000000001
 40
0.0
 40
0.0
 40
0.0
 40
0.0
 40
1.0
 40
1.0
 40
1.0
 40
1.0
 10
291.2730243335527
 20
284.9785647744616
 30
0.0
 10
290.9257961708074
 20
285.0938388281005
 30
0.0
 10
290.569763199183
 20
285.1946289361251
 30
0.0
 10
290.2038318185191
 20
285.2787246399541
 30
0.0
  0
SPLINE
  5
1B1
330
1F
100
AcDbEntity
  8
1
100
AcDbSpline
210
0.0
220
0.0
230
1.0
 70
     8
 71
     3
 72
    41
 73
    37
 74
     0
 42
0.000000001
 43
0.0000000001
 40
0.0
 40
0.0
 40
0.0
 40
0.0
 40
0.2500000000000405
 40
0.2500000000000405
 40
0.3750000000000386
 40
0.3750000000000386
 40
0.5000000000000366
 40
0.5000000000000366
 40
0.6250000000000347
 40
0.6250000000000347
 40
0.6562500000000491
 40
0.6562500000000491
 40
0.6875000000000635
 40
0.6875000000000635
 40
0.7500000000000631
 40
0.7500000000000631
 40
0.7812500000000629
 40
0.7812500000000629
 40
0.8125000000000625
 40
0.8125000000000625
 40
0.8437500000000623
 40
0.8437500000000623
 40
0.8593750000000619
 40
0.8593750000000619
 40
0.8750000000000618
 40
0.8750000000000618
 40
0.9062500000000552
 40
0.9062500000000552
 40
0.9375000000000486
 40
0.9375000000000486
 40
0.9531250000000364
 40
0.9531250000000364
 40
0.9687500000000245
 40
0.9843750000000122
 40
0.9843750000000122
 40
1.0
 40
1.0
 40
1.0
 40
1.0
 10
415.3295162504634
 20
296.5321045236423
 30
0.0
 10
415.2282746941916
 20
296.5935327654226
 30
0.0
 10
415.1310043715983
 20
296.6596938961895
 30
0.0
 10
414.9915922966378
 20
296.7668646220114
 30
0.0
 10
414.9462153994899
 20
296.8039227101719
 30
0.0
 10
414.8579814876422
 20
296.8811244370802
 30
0.0
 10
414.8151152225544
 20
296.9212573644255
 30
0.0
 10
414.7325750378083
 20
297.0054181127468
 30
0.0
 10
414.6928685614212
 20
297.0494083890702
 30
0.0
 10
414.6461965453761
 20
297.1079665188724
 30
0.0
 10
414.6370141794922
 20
297.1198612552892
 30
0.0
 10
414.6190008048373
 20
297.1440720249891
 30
0.0
 10
414.6101535411092
 20
297.1564117509912
 30
0.0
 10
414.5843782021412
 20
297.1939625240983
 30
0.0
 10
414.5681988135051
 20
297.2196815312362
 30
0.0
 10
414.5460785601838
 20
297.2597095077566
 30
0.0
 10
414.5390611110695
 20
297.2733136905026
 30
0.0
 10
414.5260432216257
 20
297.3008944546169
 30
0.0
 10
414.520027488226
 20
297.3148928689037
 30
0.0
 10
414.5092492600904
 20
297.3434143031862
 30
0.0
 10
414.5044827983566
 20
297.357935716517
 30
0.0
 10
414.4985966037729
 20
297.3802427353056
 30
0.0
 10
414.4968467269777
 20
297.3877665418528
 30
0.0
 10
414.4938566651291
 20
297.4030250454368
 30
0.0
 10
414.4926204797208
 20
297.4107524839148
 30
0.0
 10
414.4898765268281
 20
297.4339627864052
 30
0.0
 10
414.4892886888443
 20
297.4495716276267
 30
0.0
 10
414.4916891581031
 20
297.4811711136235
 30
0.0
 10
414.4946548055093
 20
297.4966112709904
 30
0.0
 10
414.5024127387545
 20
297.5190158557606
 30
0.0
 10
414.5055859614435
 20
297.5264203115322
 30
0.0
 10
414.5130505187368
 20
297.5406665029146
 30
0.0
 10
414.5215205539271
 20
297.5541795685768
 30
0.0
 10
414.5319124143389
 20
297.5662909975111
 30
0.0
 10
414.5432287291518
 20
297.577728036534
 30
0.0
 10
414.549340792686
 20
297.5830913210545
 30
0.0
 10
414.5557453959987
 20
297.5880319402424
 30
0.0
  0
SPLINE
  5
1B2
330
1F
100
AcDbEntity
  8
1
100
AcDbSpline
210
0.0
220
0.0
230
1.0
 70
    12
 71
     2
 72
     6
 73
     3
 74
     0
 42
0.000000001
 43
0.0000000001
 40
0.0
 40
0.0
 40
0.0
 40
1.0
 40
1.0
 40
1.0
 10
300.2384182385433
 20
282.1832748257353
 30
0.0
 41
0.5000000416886954
 10
300.241117360595
 20
282.1916146188326
 30
0.0
 41
0.4999999583113048
 10
300.2438155830777
 20
282.1999588444417
 30
0.0
 41
0.5000000416886954
  0
SPLINE
  5
1B3
330
1F
100
AcDbEntity
  8
1
100
AcDbSpline
210
0.0
220
0.0
230
1.0
 70
     8
 71
     3
 72
     8
 73
     4
 74
     0
 42
0.000000001
 43
0.0000000001
 40
0.0
 40
0.0
 40
0.0
 40
0.0
 40
1.0
 40
1.0
 40
1.0
 40
1.0
 10
415.8746540164235
 20
293.3588491441863
 30
0.0
 10
415.6250065786343
 20
293.4888900380277
 30
0.0
 10
415.3743958673971
 20
293.6212722446005
 30
0.0
 10
415.1229509940895
 20
293.7556819484325
 30
0.0
  0
SPLINE
  5
1B4
330
1F
100
AcDbEntity
  8
1
100
AcDbSpline
210
0.0
220
0.0
230
1.0
 70
     8
 71
     3
 72
    38
 73
    34
 74
     0
 42
0.000000001
 43
0.0000000001
 40
0.0
 40
0.0
 40
0.0
 40
0.0
 40
0.0538622704860106
 40
0.0538622704860106
 40
0.0876529036829389
 40
0.0876529036829389
 40
0.1214435368798675
 40
0.1214435368798675
 40
0.1890248032737242
 40
0.1890248032737242
 40
0.2566060696675809
 40
0.2566060696675809
 40
0.3241873360614372
 40
0.3241873360614372
 40
0.3917686024552934
 40
0.3917686024552934
 40
0.4593498688491497
 40
0.4593498688491497
 40
0.5269311352430062
 40
0.5269311352430062
 40
0.5945124016368624
 40
0.5945124016368624
 40
0.6620936680307186
 40
0.6620936680307186
 40
0.7296749344245749
 40
0.7296749344245749
 40
0.7972562008184311
 40
0.7972562008184311
 40
0.8648374672122875
 40
0.8648374672122875
 40
0.9324187336061438
 40
0.9324187336061438
 40
1.0
 40
1.0
 40
1.0
 40
1.0
 10
348.0162454137643
 20
275.5844431799405
 30
0.0
 10
347.2141341953531
 20
275.4879906402147
 30
0.0
 10
346.4120801005214
 20
275.3942078645903
 30
0.0
 10
345.1068642837379
 20
275.2460828758103
 30
0.0
 10
344.6036979872354
 20
275.1900655672368
 30
0.0
 10
343.597337191173
 20
275.0802410074795
 30
0.0
 10
343.0941438830938
 20
275.0264298869709
 30
0.0
 10
341.5845713432203
 20
274.8681416642701
 30
0.0
 10
340.5782006567641
 20
274.766800593695
 30
0.0
 10
338.5657056240463
 20
274.5718613068879
 30
0.0
 10
337.5595818142187
 20
274.478263529695
 30
0.0
 10
335.547762428435
 20
274.2984712673374
 30
0.0
 10
334.5420672633305
 20
274.2122777676965
 30
0.0
 10
332.5312290353437
 20
274.047219743085
 30
0.0
 10
331.526086230912
 20
273.9683567209844
 30
0.0
 10
329.5164084308826
 20
273.8181130871309
 30
0.0
 10
328.511873524845
 20
273.7467344110955
 30
0.0
 10
326.5033937938178
 20
273.6117886923324
 30
0.0
 10
325.4994488866888
 20
273.5482238794552
 30
0.0
 10
323.4920578833836
 20
273.4293478225794
 30
0.0
 10
322.4886115455951
 20
273.3740389230818
 30
0.0
 10
320.482057787157
 20
273.2721599941428
 30
0.0
 10
319.4789499916017
 20
273.2255922265872
 30
0.0
 10
317.4728541625102
 20
273.1416543566772
 30
0.0
 10
316.4698656576007
 20
273.1042862455577
 30
0.0
 10
314.4637428397805
 20
273.0391154669968
 30
0.0
 10
313.4606080017324
 20
273.011314366097
 30
0.0
 10
311.4538956506326
 20
272.9655004430074
 30
0.0
 10
310.4503176020618
 20
272.9474886601237
 30
0.0
 10
308.4424067438608
 20
272.9212918302855
 30
0.0
 10
307.4380734277227
 20
272.9131072521367
 30
0.0
 10
305.4283405082424
 20
272.9063961771732
 30
0.0
 10
304.4229404593366
 20
272.9078695929115
 30
0.0
 10
303.4168589826429
 20
272.9139813593737
 30
0.0
  0
SPLINE
  5
1B5
330
1F
100
AcDbEntity
  8
1
100
AcDbSpline
210
0.0
220
0.0
230
1.0
 70
     8
 71
     3
 72
    22
 73
    18
 74
     0
 42
0.000000001
 43
0.0000000001
 40
0.0
 40
0.0
 40
0.0
 40
0.0
 40
0.1498632485510378
 40
0.1498632485510378
 40
0.2997264971020756
 40
0.2997264971020756
 40
0.4495897456531134
 40
0.4495897456531134
 40
0.5245213699286327
 40
0.5245213699286327
 40
0.5994529942041521
 40
0.5994529942041521
 40
0.7493162427551906
 40
0.7493162427551906
 40
0.8991794913062291
 40
0.8991794913062291
 40
1.0
 40
1.0
 40
1.0
 40
1.0
 10
313.6957925939658
 20
273.7748794327115
 30
0.0
 10
314.9893003288468
 20
273.8945755775925
 30
0.0
 10
316.2829955533606
 20
274.0224982093081
 30
0.0
 10
318.8718464989284
 20
274.2906139565854
 30
0.0
 10
320.1670073267105
 20
274.4307837525724
 30
0.0
 10
322.7597045403402
 20
274.718338797495
 30
0.0
 10
324.0572458316235
 20
274.8656877398081
 30
0.0
 10
326.0057752966541
 20
275.0883674051548
 30
0.0
 10
326.6556516070202
 20
275.1628740103075
 30
0.0
 10
327.9561670233621
 20
275.3119320334504
 30
0.0
 10
328.6068264026591
 20
275.3864845197666
 30
0.0
 10
330.5597961662264
 20
275.6095928281383
 30
0.0
 10
331.8630400225003
 20
275.7574993339375
 30
0.0
 10
334.4717794193895
 20
276.0504058764513
 30
0.0
 10
335.7772711801296
 20
276.1954008937277
 30
0.0
 10
337.9623438392564
 20
276.4369522452759
 30
0.0
 10
338.8414928255237
 20
276.5338419513371
 30
0.0
 10
339.7208534051292
 20
276.6311505833129
 30
0.0
  0
SPLINE
  5
1B6
330
1F
100
AcDbEntity
  8
1
100
AcDbSpline
210
0.0
220
0.0
230
1.0
 70
     8
 71
     3
 72
     8
 73
     4
 74
     0
 42
0.000000001
 43
0.0000000001
 40
0.0
 40
0.0
 40
0.0
 40
0.0
 40
1.0
 40
1.0
 40
1.0
 40
1.0
 10
416.3834885501818
 20
295.9175916335324
 30
0.0
 10
416.1577311135092
 20
296.0373141857914
 30
0.0
 10
415.9348150197561
 20
296.1640727329377
 30
0.0
 10
415.7145583162702
 20
296.2981243580653
 30
0.0
  0
SPLINE
  5
1B7
330
1F
100
AcDbEntity
  8
1
100
AcDbSpline
210
0.0
220
0.0
230
1.0
 70
     8
 71
     3
 72
    44
 73
    40
 74
     0
 42
0.000000001
 43
0.0000000001
 40
0.0
 40
0.0
 40
0.0
 40
0.0
 40
0.1250000000000007
 40
0.1250000000000007
 40
0.2500000000000013
 40
0.2500000000000013
 40
0.3125000000000015
 40
0.3125000000000015
 40
0.3437500000000016
 40
0.3437500000000016
 40
0.3593750000000016
 40
0.3593750000000016
 40
0.3750000000000016
 40
0.4375000000000019
 40
0.4375000000000019
 40
0.5000000000000022
 40
0.5000000000000022
 40
0.5625000000000025
 40
0.5625000000000025
 40
0.6250000000000027
 40
0.6250000000000027
 40
0.6406250000000027
 40
0.6406250000000027
 40
0.6562500000000026
 40
0.6562500000000026
 40
0.6875000000000027
 40
0.6875000000000027
 40
0.7500000000000029
 40
0.7500000000000029
 40
0.8125000000000031
 40
0.8125000000000031
 40
0.8750000000000033
 40
0.8750000000000033
 40
0.890625000000003
 40
0.890625000000003
 40
0.9062500000000024
 40
0.9375000000000019
 40
0.9375000000000019
 40
1.0
 40
1.0
 40
1.0
 40
1.0
 10
280.3043368819075
 20
281.2789356938871
 30
0.0
 10
280.5941575241658
 20
281.6368041762626
 30
0.0
 10
280.8998326123307
 20
281.9752956532152
 30
0.0
 10
281.5446415914378
 20
282.6149750565395
 30
0.0
 10
281.8837560082012
 20
282.9161646498579
 30
0.0
 10
282.4200159196718
 20
283.3393416237348
 30
0.0
 10
282.6033813724473
 20
283.4756149969947
 30
0.0
 10
282.8858253686159
 20
283.6725831480588
 30
0.0
 10
282.9812073220768
 20
283.7369974607275
 30
0.0
 10
283.1262044813498
 20
283.8317091168084
 30
0.0
 10
283.1748365868953
 20
283.8629465746585
 30
0.0
 10
283.2724605577309
 20
283.9245943587464
 30
0.0
 10
283.5175904667967
 20
284.0767552510753
 30
0.0
 10
283.7681080656039
 20
284.2191225395522
 30
0.0
 10
284.1761437019004
 20
284.4341054843715
 30
0.0
 10
284.3837644750088
 20
284.5351960211822
 30
0.0
 10
284.8066383439265
 20
284.7240546422449
 30
0.0
 10
285.0218902835168
 20
284.8118250630795
 30
0.0
 10
285.4605942640422
 20
284.9732208317553
 30
0.0
 10
285.6840445806719
 20
285.046849887353
 30
0.0
 10
285.9689531908736
 20
285.1292854785805
 30
0.0
 10
286.0262152309704
 20
285.1452914254711
 30
0.0
 10
286.1413140401658
 20
285.176317000937
 30
0.0
 10
286.1991359608428
 20
285.1913310615557
 30
0.0
 10
286.3727312921372
 20
285.2346770648977
 30
0.0
 10
286.4888771299349
 20
285.2613802951589
 30
0.0
 10
286.8385795063188
 20
285.3347929901557
 30
0.0
 10
287.0734000131524
 20
285.3748182295661
 30
0.0
 10
287.5465298116351
 20
285.4361343310037
 30
0.0
 10
287.7848391133815
 20
285.4574276676444
 30
0.0
 10
288.2650926538902
 20
285.4799443523674
 30
0.0
 10
288.5070369281624
 20
285.481171428529
 30
0.0
 10
288.8118479208137
 20
285.4689961010801
 30
0.0
 10
288.8729780932345
 20
285.4658699647958
 30
0.0
 10
288.9949959655613
 20
285.4582430392943
 30
0.0
 10
289.1778017344872
 20
285.4447378798613
 30
0.0
 10
289.3599329208056
 20
285.4249940015592
 30
0.0
 10
289.7232591927961
 20
285.3770381675486
 30
0.0
 10
289.9642309436707
 20
285.3337879804415
 30
0.0
 10
290.2038318185191
 20
285.2787246399543
 30
0.0
  0
SPLINE
  5
1B8
330
1F
100
AcDbEntity
  8
1
100
AcDbSpline
210
0.0
220
0.0
230
1.0
 70
     8
 71
     3
 72
    26
 73
    22
 74
     0
 42
0.000000001
 43
0.0000000001
 40
0.0
 40
0.0
 40
0.0
 40
0.0
 40
0.1249999999999848
 40
0.1249999999999848
 40
0.2499999999999696
 40
0.2499999999999696
 40
0.3124999999999398
 40
0.3124999999999398
 40
0.3749999999999101
 40
0.3749999999999101
 40
0.4999999999998981
 40
0.4999999999998981
 40
0.6249999999998862
 40
0.6249999999998862
 40
0.6874999999999052
 40
0.6874999999999052
 40
0.7499999999999242
 40
0.7499999999999242
 40
0.8749999999999621
 40
0.8749999999999621
 40
1.0
 40
1.0
 40
1.0
 40
1.0
 10
424.0017922779927
 20
295.213002872411
 30
0.0
 10
423.9466023407238
 20
295.1710505234507
 30
0.0
 10
423.8899148031154
 20
295.132260785779
 30
0.0
 10
423.7734608599081
 20
295.0606340609725
 30
0.0
 10
423.7136966062183
 20
295.0277998432344
 30
0.0
 10
423.6216040604199
 20
294.9829795907176
 30
0.0
 10
423.5904248617099
 20
294.9687514410826
 30
0.0
 10
423.5277380024871
 20
294.9420132994119
 30
0.0
 10
423.4961988821012
 20
294.9294831615313
 30
0.0
 10
423.4009397446446
 20
294.8943594428911
 30
0.0
 10
423.3365824404112
 20
294.8742207690277
 30
0.0
 10
423.2057805626605
 20
294.8405176509207
 30
0.0
 10
423.1393345497989
 20
294.8269522559904
 30
0.0
 10
423.0377142963138
 20
294.8118442980964
 30
0.0
 10
423.0035147320326
 20
294.8076848994385
 30
0.0
 10
422.9343967734333
 20
294.801209243011
 30
0.0
 10
422.8998958961015
 20
294.7989344735836
 30
0.0
 10
422.7968359539478
 20
294.7949541207374
 30
0.0
 10
422.7286093864558
 20
294.7960768409258
 30
0.0
 10
422.5929811311246
 20
294.8055814480941
 30
0.0
 10
422.5255749215924
 20
294.8139591359123
 30
0.0
 10
422.4584543662428
 20
294.8259203354748
 30
0.0
  0
SPLINE
  5
1B9
330
1F
100
AcDbEntity
  8
1
100
AcDbSpline
210
0.0
220
0.0
230
1.0
 70
     8
 71
     3
 72
    25
 73
    21
 74
     0
 42
0.000000001
 43
0.0000000001
 40
0.0
 40
0.0
 40
0.0
 40
0.0
 40
0.1250000000000001
 40
0.2500000000000002
 40
0.3750000000000002
 40
0.3750000000000002
 40
0.4375000000000003
 40
0.4375000000000003
 40
0.4687500000000002
 40
0.4687500000000002
 40
0.5000000000000002
 40
0.5000000000000002
 40
0.6250000000000002
 40
0.7500000000000002
 40
0.7500000000000002
 40
0.8125000000000001
 40
0.8125000000000001
 40
0.8750000000000001
 40
0.8750000000000001
 40
1.0
 40
1.0
 40
1.0
 40
1.0
 10
422.4563779448722
 20
294.6252569380285
 30
0.0
 10
422.1936618310233
 20
294.616011414866
 30
0.0
 10
421.6695809133506
 20
294.6137759996712
 30
0.0
 10
420.8874472841538
 20
294.6583618721327
 30
0.0
 10
420.3686714308918
 20
294.7198704023252
 30
0.0
 10
419.9805892676035
 20
294.7779920585274
 30
0.0
 10
419.8513952909011
 20
294.7993657434539
 30
0.0
 10
419.6578564862088
 20
294.8344479449923
 30
0.0
 10
419.593351243042
 20
294.8466526433264
 30
0.0
 10
419.4646208063189
 20
294.8720350659029
 30
0.0
 10
419.4004014935206
 20
294.885210928006
 30
0.0
 10
419.0800318147171
 20
294.9535032723208
 30
0.0
 10
418.5720880231131
 20
295.0782007322505
 30
0.0
 10
418.0733749712135
 20
295.2334570605555
 30
0.0
 10
417.7028190799238
 20
295.3613750680491
 30
0.0
 10
417.5797857231147
 20
295.4059666818907
 30
0.0
 10
417.3356575866143
 20
295.4986947985729
 30
0.0
 10
417.2144994312052
 20
295.5468497496987
 30
0.0
 10
416.8537270596261
 20
295.6966414183045
 30
0.0
 10
416.6168122477349
 20
295.8036004342462
 30
0.0
 10
416.3834885501818
 20
295.9175916335325
 30
0.0
  0
SPLINE
  5
1BA
330
1F
100
AcDbEntity
  8
1
100
AcDbSpline
210
0.0
220
0.0
230
1.0
 70
     8
 71
     3
 72
    27
 73
    23
 74
     0
 42
0.000000001
 43
0.0000000001
 40
0.0
 40
0.0
 40
0.0
 40
0.0
 40
0.1250000000000115
 40
0.1250000000000115
 40
0.2500000000000229
 40
0.2500000000000229
 40
0.2812500000000312
 40
0.2812500000000312
 40
0.3125000000000394
 40
0.3750000000000451
 40
0.3750000000000451
 40
0.5000000000000452
 40
0.5000000000000452
 40
0.5312500000000425
 40
0.5312500000000425
 40
0.5625000000000397
 40
0.6250000000000339
 40
0.6250000000000339
 40
0.7500000000000226
 40
0.8750000000000113
 40
0.8750000000000113
 40
1.0
 40
1.0
 40
1.0
 40
1.0
 10
415.8775743153921
 20
293.2734953922433
 30
0.0
 10
416.1242221361456
 20
293.1165321284154
 30
0.0
 10
416.3765198394719
 20
292.9689093931145
 30
0.0
 10
416.8923259698314
 20
292.6926240226185
 30
0.0
 10
417.1558337698688
 20
292.5639598593077
 30
0.0
 10
417.4922660056441
 20
292.4152864053067
 30
0.0
 10
417.5599303063755
 20
292.3861503477915
 30
0.0
 10
417.6956747128251
 20
292.3292250802297
 30
0.0
 10
417.9000087023771
 20
292.2458146999878
 30
0.0
 10
418.1064841960508
 20
292.1683271207466
 30
0.0
 10
418.5222734137795
 20
292.0212495244424
 30
0.0
 10
418.8032463284966
 20
291.9337175901861
 30
0.0
 10
419.1591922667662
 20
291.8376025636105
 30
0.0
 10
419.2306436259504
 20
291.8190390558962
 30
0.0
 10
419.3739120276514
 20
291.7832779031211
 30
0.0
 10
419.5890428240356
 20
291.7317636816645
 30
0.0
 10
419.8048517733347
 20
291.6865828550963
 30
0.0
 10
420.2373610405079
 20
291.6045702454089
 30
0.0
 10
420.8164141892061
 20
291.5174605096427
 30
0.0
 10
421.4001496462941
 20
291.4744012669619
 30
0.0
 10
421.9862395704067
 20
291.4535395433824
 30
0.0
 10
422.2804616227615
 20
291.4542061512964
 30
0.0
 10
422.5758917149068
 20
291.466261161186
 30
0.0
  0
SPLINE
  5
1BB
330
1F
100
AcDbEntity
  8
1
100
AcDbSpline
210
0.0
220
0.0
230
1.0
 70
     8
 71
     3
 72
     8
 73
     4
 74
     0
 42
0.000000001
 43
0.0000000001
 40
0.0
 40
0.0
 40
0.0
 40
0.0
 40
1.0
 40
1.0
 40
1.0
 40
1.0
 10
422.4563779448722
 20
294.6252569380287
 30
0.0
 10
422.4601828302196
 20
294.6253908398098
 30
0.0
 10
422.4639888271919
 20
294.6255241647713
 30
0.0
 10
422.4677959377182
 20
294.6256569119119
 30
0.0
  0
SPLINE
  5
1BC
330
1F
100
AcDbEntity
  8
1
100
AcDbSpline
210
0.0
220
0.0
230
1.0
 70
     8
 71
     3
 72
    18
 73
    14
 74
     0
 42
0.000000001
 43
0.0000000001
 40
0.0
 40
0.0
 40
0.0
 40
0.0
 40
0.2500000000000044
 40
0.2500000000000044
 40
0.5000000000000088
 40
0.5000000000000088
 40
0.7500000000000132
 40
0.7500000000000132
 40
0.8125000000000099
 40
0.8125000000000099
 40
0.8750000000000067
 40
0.8750000000000067
 40
1.0
 40
1.0
 40
1.0
 40
1.0
 10
419.895841945296
 20
292.0792951959052
 30
0.0
 10
419.5367770218402
 20
292.1329400530495
 30
0.0
 10
419.1847187223747
 20
292.199240019676
 30
0.0
 10
418.4926391968573
 20
292.3577566519922
 30
0.0
 10
418.1526268384043
 20
292.4499732001054
 30
0.0
 10
417.4834148082949
 20
292.6614659627414
 30
0.0
 10
417.1542204802048
 20
292.7807376443325
 30
0.0
 10
416.7490426129748
 20
292.9478293053457
 30
0.0
 10
416.6683238692068
 20
292.9821494465699
 30
0.0
 10
416.5075129108439
 20
293.0526280169967
 30
0.0
 10
416.4273862664256
 20
293.0888025394888
 30
0.0
 10
416.188175105957
 20
293.2000296352832
 30
0.0
 10
416.0305241876236
 20
293.2776566570311
 30
0.0
 10
415.8746540164235
 20
293.3588491441863
 30
0.0
  0
SPLINE
  5
1BD
330
1F
100
AcDbEntity
  8
1
100
AcDbSpline
210
0.0
220
0.0
230
1.0
 70
     8
 71
     3
 72
    10
 73
     6
 74
     0
 42
0.000000001
 43
0.0000000001
 40
0.0
 40
0.0
 40
0.0
 40
0.0
 40
0.5
 40
0.5
 40
1.0
 40
1.0
 40
1.0
 40
1.0
 10
280.3043368819075
 20
281.2789356938871
 30
0.0
 10
280.1485080708933
 20
281.086519378495
 30
0.0
 10
279.9955270340797
 20
280.8895246999307
 30
0.0
 10
279.695571519435
 20
280.4856109443194
 30
0.0
 10
279.5485951679796
 20
280.2786956422887
 30
0.0
 10
279.4048419452957
 20
280.0663014608288
 30
0.0
  0
SPLINE
  5
1BE
330
1F
100
AcDbEntity
  8
1
100
AcDbSpline
210
0.0
220
0.0
230
1.0
 70
     8
 71
     3
 72
    18
 73
    14
 74
     0
 42
0.000000001
 43
0.0000000001
 40
0.0
 40
0.0
 40
0.0
 40
0.0
 40
0.2499999999999792
 40
0.2499999999999792
 40
0.4999999999999585
 40
0.4999999999999585
 40
0.7499999999999377
 40
0.7499999999999377
 40
0.8124999999999527
 40
0.8124999999999527
 40
0.8749999999999678
 40
0.8749999999999678
 40
1.0
 40
1.0
 40
1.0
 40
1.0
 10
422.4584543662431
 20
294.8259203354748
 30
0.0
 10
422.3866719026081
 20
294.8387123090833
 30
0.0
 10
422.3164295122592
 20
294.8553438374283
 30
0.0
 10
422.1784024088871
 20
294.8958950192962
 30
0.0
 10
422.1106217207707
 20
294.9198169299968
 30
0.0
 10
421.9771164664538
 20
294.9750100308343
 30
0.0
 10
421.9113961278504
 20
295.0062783702536
 30
0.0
 10
421.8303365492046
 20
295.05027249927
 30
0.0
 10
421.8141641792713
 20
295.0593276665583
 30
0.0
 10
421.7821460779168
 20
295.0778126605178
 30
0.0
 10
421.7662747984761
 20
295.0872558028587
 30
0.0
 10
421.7190706874005
 20
295.1161803144767
 30
0.0
 10
421.6881473352334
 20
295.1362564779454
 30
0.0
 10
421.6577636998078
 20
295.1571115827452
 30
0.0
  0
SPLINE
  5
1BF
330
1F
100
AcDbEntity
  8
1
100
AcDbSpline
210
0.0
220
0.0
230
1.0
 70
     8
 71
     3
 72
     8
 73
     4
 74
     0
 42
0.000000001
 43
0.0000000001
 40
0.0
 40
0.0
 40
0.0
 40
0.0
 40
1.0
 40
1.0
 40
1.0
 40
1.0
 10
415.8214562287026
 20
299.6029283225789
 30
0.0
 10
415.8271990272578
 20
301.3390373894702
 30
0.0
 10
415.831401998877
 20
303.0751526093423
 30
0.0
 10
415.8348977177251
 20
304.8112698633331
 30
0.0
  0
SPLINE
  5
1C0
330
1F
100
AcDbEntity
  8
1
100
AcDbSpline
210
0.0
220
0.0
230
1.0
 70
     8
 71
     3
 72
    44
 73
    40
 74
     0
 42
0.000000001
 43
0.0000000001
 40
0.0
 40
0.0
 40
0.0
 40
0.0
 40
0.0592820938129796
 40
0.0592820938129796
 40
0.1185641876259593
 40
0.1185641876259593
 40
0.177846281438939
 40
0.177846281438939
 40
0.1926668048921832
 40
0.1926668048921832
 40
0.2074873283454275
 40
0.2074873283454275
 40
0.237128375251916
 40
0.237128375251916
 40
0.296410469064893
 40
0.296410469064893
 40
0.35569256287787
 40
0.35569256287787
 40
0.4149746566908471
 40
0.4149746566908471
 40
0.4446157035973356
 40
0.4446157035973356
 40
0.474256750503824
 40
0.474256750503824
 40
0.5928209381297781
 40
0.5928209381297781
 40
0.7113851257557321
 40
0.7113851257557321
 40
0.7706672195687093
 40
0.7706672195687093
 40
0.8299493133816861
 40
0.8299493133816861
 40
0.8892314071946632
 40
0.8892314071946632
 40
0.9188724541011511
 40
0.9188724541011511
 40
0.9485135010076394
 40
0.9485135010076394
 40
1.0
 40
1.0
 40
1.0
 40
1.0
 10
415.8348977177252
 20
304.8112698633331
 30
0.0
 10
414.6581811255098
 20
304.8476478744437
 30
0.0
 10
413.4776578307743
 20
304.8720937883228
 30
0.0
 10
411.1087503998068
 20
304.9025814402196
 30
0.0
 10
409.9203693436853
 20
304.9086380059115
 30
0.0
 10
407.5360336334497
 20
304.9072419715436
 30
0.0
 10
406.3400817986134
 20
304.8997976969995
 30
0.0
 10
404.8408627336576
 20
304.8845138763405
 30
0.0
 10
404.5408059164023
 20
304.8811555942335
 30
0.0
 10
403.9402812176692
 20
304.8738866982561
 30
0.0
 10
403.6398069127652
 20
304.8699759472421
 30
0.0
 10
402.7381040360984
 20
304.8574891873747
 30
0.0
 10
402.1364895422975
 20
304.8481598427069
 30
0.0
 10
400.3303376494263
 20
304.8176360217424
 30
0.0
 10
399.1244862077899
 20
304.7939429224415
 30
0.0
 10
396.7101232666955
 20
304.7415212387158
 30
0.0
 10
395.5016131563029
 20
304.7127909672227
 30
0.0
 10
393.0829397292389
 20
304.6507779062364
 30
0.0
 10
391.8727776704841
 20
304.6174938603289
 30
0.0
 10
390.0571427312946
 20
304.5636770339559
 30
0.0
 10
389.4518749786616
 20
304.5450694687724
 30
0.0
 10
388.2413096217385
 20
304.5064274288454
 30
0.0
 10
387.6359980633242
 20
304.4864023812831
 30
0.0
 10
384.6094678298672
 20
304.3827030658933
 30
0.0
 10
382.1883360650595
 20
304.2883819753349
 30
0.0
 10
377.3474033893561
 20
304.0741693336142
 30
0.0
 10
374.9276035866606
 20
303.9542586505546
 30
0.0
 10
371.2995269317631
 20
303.7519690388875
 30
0.0
 10
370.090440177122
 20
303.6807934324723
 30
0.0
 10
367.673422492921
 20
303.5302921440879
 30
0.0
 10
366.4654286755606
 20
303.4509672347084
 30
0.0
 10
364.0506363554502
 20
303.2832779617862
 30
0.0
 10
362.8438363178428
 20
303.1949201166082
 30
0.0
 10
361.034712070366
 20
303.0546717126005
 30
0.0
 10
360.4318507014583
 20
303.0066335349667
 30
0.0
 10
359.2265293651132
 20
302.9077706139829
 30
0.0
 10
358.6240744135787
 20
302.8569311719436
 30
0.0
 10
356.9756798145342
 20
302.7138899649058
 30
0.0
 10
355.9301257324823
 20
302.6188171485744
 30
0.0
 10
354.885051384111
 20
302.5194784390383
 30
0.0
  0
SPLINE
  5
1C1
330
1F
100
AcDbEntity
  8
1
100
AcDbSpline
210
0.0
220
0.0
230
1.0
 70
    28
 71
     4
 72
    13
 73
     8
 74
     0
 42
0.000000001
 43
0.0000000001
 40
0.0
 40
0.0
 40
0.0
 40
0.0
 40
0.0
 40
0.1776527361697651
 40
0.1776527361697651
 40
0.1776527361697651
 40
1.0
 40
1.0
 40
1.0
 40
1.0
 40
1.0
 10
297.9048419452957
 20
282.8897382250064
 30
0.0
 41
0.9994355456494295
 10
297.9048419452957
 20
282.4755995256748
 30
0.0
 41
1.000182609153331
 10
297.9048419452957
 20
282.0523126799523
 30
0.0
 41
1.000938716719459
 10
297.9048419452957
 20
281.6254661935873
 30
0.0
 41
1.001498006703475
 10
297.9048419452957
 20
279.2380874629145
 30
0.0
 41
1.001498006703475
 10
297.9048419452957
 20
276.9210578646861
 30
0.0
 41
0.9895139530756713
 10
297.9048419452957
 20
274.9493112829962
 30
0.0
 41
1.001498006703475
 10
297.9048419452957
 20
273.6371932250152
 30
0.0
 41
1.001498006703475
  0
SPLINE
  5
1C2
330
1F
100
AcDbEntity
  8
1
100
AcDbSpline
210
0.0
220
0.0
230
1.0
 70
     8
 71
     3
 72
    56
 73
    52
 74
     0
 42
0.000000001
 43
0.0000000001
 40
0.0
 40
0.0
 40
0.0
 40
0.0
 40
0.0625
 40
0.0625
 40
0.1250000000000001
 40
0.1250000000000001
 40
0.1562500000000002
 40
0.1562500000000002
 40
0.1875000000000002
 40
0.1875000000000002
 40
0.2500000000000003
 40
0.2500000000000003
 40
0.3125000000000004
 40
0.3125000000000004
 40
0.3750000000000006
 40
0.3750000000000006
 40
0.4062500000000007
 40
0.4062500000000007
 40
0.4218750000000004
 40
0.4218750000000004
 40
0.4375000000000003
 40
0.4375000000000003
 40
0.46875
 40
0.46875
 40
0.4999999999999997
 40
0.4999999999999997
 40
0.5312499999999993
 40
0.5312499999999993
 40
0.5624999999999991
 40
0.5624999999999991
 40
0.578124999999999
 40
0.578124999999999
 40
0.5937499999999988
 40
0.5937499999999988
 40
0.624999999999999
 40
0.624999999999999
 40
0.656249999999999
 40
0.656249999999999
 40
0.687499999999999
 40
0.687499999999999
 40
0.7499999999999993
 40
0.7499999999999993
 40
0.8124999999999998
 40
0.8124999999999998
 40
0.8437499999999998
 40
0.8437499999999998
 40
0.8749999999999998
 40
0.8749999999999998
 40
0.9375
 40
0.9375
 40
1.0
 40
1.0
 40
1.0
 40
1.0
 10
300.2384182385433
 20
282.1832748257353
 30
0.0
 10
302.4169345400599
 20
281.8579683424186
 30
0.0
 10
304.5951347815151
 20
281.536799376905
 30
0.0
 10
308.9506415769798
 20
280.9016897292
 30
0.0
 10
311.1279458618535
 20
280.5877317377223
 30
0.0
 10
314.3929357621604
 20
280.1212232619419
 30
0.0
 10
315.4811567260858
 20
279.9664507319874
 30
0.0
 10
317.6569727870387
 20
279.6582793022137
 30
0.0
 10
318.7444829075607
 20
279.5048915834546
 30
0.0
 10
322.0057018697249
 20
279.0466866426141
 30
0.0
 10
324.1780952028108
 20
278.7437796930109
 30
0.0
 10
328.518790487646
 20
278.1432677795881
 30
0.0
 10
330.6870856935458
 20
277.8456402042482
 30
0.0
 10
335.0191997075983
 20
277.2576257654476
 30
0.0
 10
337.1830109610715
 20
276.9672241197424
 30
0.0
 10
340.4254034382939
 20
276.5403043400702
 30
0.0
 10
341.5056509467526
 20
276.3994650733574
 30
0.0
 10
343.1252466335814
 20
276.191000822534
 30
0.0
 10
343.6649829431329
 20
276.1219798047919
 30
0.0
 10
344.7442103459861
 20
275.9849859529848
 30
0.0
 10
345.2836958990066
 20
275.916997674557
 30
0.0
 10
346.9019780364221
 20
275.7152957183708
 30
0.0
 10
347.9806093233879
 20
275.5838923716514
 30
0.0
 10
350.1384475306451
 20
275.3303541947651
 30
0.0
 10
351.2177473913389
 20
275.2082061832633
 30
0.0
 10
353.3767640044017
 20
274.9752652951715
 30
0.0
 10
354.4565786382747
 20
274.8644522667303
 30
0.0
 10
356.6174742730038
 20
274.6551355841419
 30
0.0
 10
357.6985535165986
 20
274.5566219664353
 30
0.0
 10
359.321533641096
 20
274.4182810705607
 30
0.0
 10
359.8627610636736
 20
274.3737523449057
 30
0.0
 10
360.9456792994294
 20
274.2876966107726
 30
0.0
 10
361.4873646037593
 20
274.246156160704
 30
0.0
 10
363.1130427633852
 20
274.1256579823611
 30
0.0
 10
364.1976550201327
 20
274.0508100602139
 30
0.0
 10
366.3683126782022
 20
273.9106706315659
 30
0.0
 10
367.45435926068
 20
273.8453849050689
 30
0.0
 10
369.6277439603195
 20
273.7233302343686
 30
0.0
 10
370.7150831217687
 20
273.666565109066
 30
0.0
 10
373.9788893343605
 20
273.5078053896152
 30
0.0
 10
376.1571499621022
 20
273.4173127122049
 30
0.0
 10
380.5177511946139
 20
273.2617182529515
 30
0.0
 10
382.7000974063343
 20
273.1966203446628
 30
0.0
 10
385.9760104688618
 20
273.1149210074176
 30
0.0
 10
387.0682258672606
 20
273.0903586072724
 30
0.0
 10
389.2529379215848
 20
273.046181804558
 30
0.0
 10
390.3454507254962
 20
273.026564616206
 30
0.0
 10
393.6233780694113
 20
272.9747104156305
 30
0.0
 10
395.8091956383317
 20
272.9494670847211
 30
0.0
 10
400.1816619342382
 20
272.9161127377889
 30
0.0
 10
402.368315534095
 20
272.9079935137005
 30
0.0
 10
404.5551809924289
 20
272.9079935137005
 30
0.0
  0
SPLINE
  5
1C3
330
1F
100
AcDbEntity
  8
1
100
AcDbSpline
210
0.0
220
0.0
230
1.0
 70
     8
 71
     3
 72
    67
 73
    63
 74
     0
 42
0.000000001
 43
0.0000000001
 40
0.0
 40
0.0
 40
0.0
 40
0.0
 40
0.0613476347618217
 40
0.0613476347618217
 40
0.0948709335203283
 40
0.0948709335203283
 40
0.1283942322788349
 40
0.1283942322788349
 40
0.1954408297958479
 40
0.1954408297958479
 40
0.2624874273128609
 40
0.2624874273128609
 40
0.2960107260713674
 40
0.2960107260713674
 40
0.3295340248298739
 40
0.3295340248298739
 40
0.346295674209127
 40
0.346295674209127
 40
0.3630573235883801
 40
0.3630573235883801
 40
0.3965806223468862
 40
0.3965806223468862
 40
0.4301039211053924
 40
0.4301039211053924
 40
0.4636272198638984
 40
0.4636272198638984
 40
0.4971505186224047
 40
0.4971505186224047
 40
0.5306738173809107
 40
0.5306738173809107
 40
0.5641971161394169
 40
0.5641971161394169
 40
0.597720414897923
 40
0.597720414897923
 40
0.6312437136564292
 40
0.6312437136564292
 40
0.6647670124149353
 40
0.6647670124149353
 40
0.6982903111734414
 40
0.6982903111734414
 40
0.7318136099319477
 40
0.7318136099319477
 40
0.7653369086904539
 40
0.7653369086904539
 40
0.7988602074489599
 40
0.7988602074489599
 40
0.8323835062074659
 40
0.8323835062074659
 40
0.8659068049659721
 40
0.8659068049659721
 40
0.8826684543452255
 40
0.8826684543452255
 40
0.899430103724479
 40
0.899430103724479
 40
0.9161917531037323
 40
0.9329534024829859
 40
0.9329534024829859
 40
0.9497150518622396
 40
0.9497150518622396
 40
0.9664767012414928
 40
0.9832383506207463
 40
1.0
 40
1.0
 40
1.0
 40
1.0
 10
305.8935611322633
 20
304.9079923345068
 30
0.0
 10
308.1366875792891
 20
304.9080173740629
 30
0.0
 10
310.3778104061242
 20
304.89593121613
 30
0.0
 10
313.841263455093
 20
304.8549085994693
 30
0.0
 10
315.0644233927221
 20
304.8361149423644
 30
0.0
 10
317.5095948273085
 20
304.7893641621032
 30
0.0
 10
318.7316064955072
 20
304.7614061445203
 30
0.0
 10
322.3962649863318
 20
304.6631778757289
 30
0.0
 10
324.8375292172572
 20
304.5784527440508
 30
0.0
 10
329.7184545630624
 20
304.3695602098892
 30
0.0
 10
332.1581273538257
 20
304.245403217954
 30
0.0
 10
335.8180461732562
 20
304.0311792127883
 30
0.0
 10
337.038086608081
 20
303.9551296740418
 30
0.0
 10
339.4785442521352
 20
303.794244429137
 30
0.0
 10
340.6989617476361
 20
303.7094102571359
 30
0.0
 10
342.5300306948417
 20
303.5760228122942
 30
0.0
 10
343.1404083670027
 20
303.5305421115038
 30
0.0
 10
344.3612313167133
 20
303.4376263128134
 30
0.0
 10
344.9716826416637
 20
303.3902056488097
 30
0.0
 10
346.8031056122758
 20
303.2449785884452
 30
0.0
 10
348.0241236523527
 20
303.1441640281822
 30
0.0
 10
350.465977324607
 20
302.9337659199001
 30
0.0
 10
351.6868135085141
 20
302.8241764200804
 30
0.0
 10
354.1282050265991
 20
302.5957907871377
 30
0.0
 10
355.3487622618787
 20
302.476992160574
 30
0.0
 10
357.7896890786828
 20
302.2302352516124
 30
0.0
 10
359.009908709408
 20
302.1022840695343
 30
0.0
 10
361.4501084461998
 20
301.8378468866513
 30
0.0
 10
362.670112180605
 20
301.7014304510869
 30
0.0
 10
365.1102959940667
 20
301.4213939353697
 30
0.0
 10
366.3304748313348
 20
301.2777741119196
 30
0.0
 10
368.7712325075332
 20
300.9842280611882
 30
0.0
 10
369.9918113338617
 20
300.8343014442796
 30
0.0
 10
372.433480468413
 20
300.5287441117501
 30
0.0
 10
373.6544241610492
 20
300.3731313314147
 30
0.0
 10
376.0965711937557
 20
300.0565585772757
 30
0.0
 10
377.3177741313457
 20
299.8955986108387
 30
0.0
 10
379.7604162995365
 20
299.5683735609718
 30
0.0
 10
380.9818553985952
 20
299.4021093149282
 30
0.0
 10
383.4248911715206
 20
299.06402861224
 30
0.0
 10
384.6464894466294
 20
298.8922140035178
 30
0.0
 10
387.0897034370386
 20
298.5424551979847
 30
0.0
 10
388.3111829275776
 20
298.3645340651579
 30
0.0
 10
390.753677218193
 20
298.0016150660917
 30
0.0
 10
391.9746911409228
 20
297.8166214694822
 30
0.0
 10
394.4156547205731
 20
297.4366532597453
 30
0.0
 10
395.6356003489547
 20
297.2416548717657
 30
0.0
 10
398.0741296294775
 20
296.8398397164715
 30
0.0
 10
399.2927112461406
 20
296.6329920095635
 30
0.0
 10
401.1196543896451
 20
296.3138980709573
 30
0.0
 10
401.7284368883655
 20
296.2060890727453
 30
0.0
 10
402.9456712082631
 20
295.9878570326637
 30
0.0
 10
403.5541228668402
 20
295.8774328900513
 30
0.0
 10
404.7708037205819
 20
295.654458771763
 30
0.0
 10
405.9872619333519
 20
295.4293576247211
 30
0.0
 10
407.2035845754872
 20
295.2014736830279
 30
0.0
 10
408.4200440907816
 20
294.9732088521976
 30
0.0
 10
409.0283422644256
 20
294.8588855272505
 30
0.0
 10
410.2453312884058
 20
294.6311597958823
 30
0.0
 10
411.4627129814591
 20
294.4043545360407
 30
0.0
 10
413.2908842323733
 20
294.0717196892604
 30
0.0
 10
414.5117761834361
 20
293.8588202145299
 30
0.0
 10
415.1229509940896
 20
293.7556819484325
 30
0.0
  0
SPLINE
  5
1C4
330
1F
100
AcDbEntity
  8
1
100
AcDbSpline
210
0.0
220
0.0
230
1.0
 70
     8
 71
     3
 72
    32
 73
    28
 74
     0
 42
0.000000001
 43
0.0000000001
 40
0.0
 40
0.0
 40
0.0
 40
0.0
 40
0.0625000000000018
 40
0.0625000000000018
 40
0.1250000000000036
 40
0.1250000000000036
 40
0.2500000000000058
 40
0.2500000000000058
 40
0.375000000000008
 40
0.375000000000008
 40
0.4062500000000153
 40
0.4062500000000153
 40
0.4375000000000225
 40
0.4375000000000225
 40
0.5000000000000179
 40
0.5000000000000179
 40
0.6250000000000071
 40
0.6250000000000071
 40
0.7499999999999961
 40
0.7499999999999961
 40
0.7812499999999929
 40
0.7812499999999929
 40
0.8124999999999896
 40
0.8124999999999896
 40
0.8749999999999904
 40
0.8749999999999904
 40
1.0
 40
1.0
 40
1.0
 40
1.0
 10
414.5557453959987
 20
297.5880319402424
 30
0.0
 10
414.5963809247364
 20
297.6193788735625
 30
0.0
 10
414.6367047820915
 20
297.651337746238
 30
0.0
 10
414.7164743373868
 20
297.7164334856661
 30
0.0
 10
414.7558403436297
 20
297.7495041028569
 30
0.0
 10
414.8722630389053
 20
297.8504041182331
 30
0.0
 10
414.9476525269556
 20
297.9199134954976
 30
0.0
 10
415.0931822575094
 20
298.0642217278955
 30
0.0
 10
415.1633276343483
 20
298.1390154093421
 30
0.0
 10
415.2470346467008
 20
298.2365126836073
 30
0.0
 10
415.2635762870766
 20
298.2562134316117
 30
0.0
 10
415.2962379248618
 20
298.2960398022278
 30
0.0
 10
415.3123758088295
 20
298.3161888602559
 30
0.0
 10
415.359933842527
 20
298.3770682802873
 30
0.0
 10
415.390526354105
 20
298.4182586822502
 30
0.0
 10
415.4787033118516
 20
298.5437845081297
 30
0.0
 10
415.532707183708
 20
298.6300636933263
 30
0.0
 10
415.6293581239799
 20
298.8087872520008
 30
0.0
 10
415.6720189983722
 20
298.9012241307247
 30
0.0
 10
415.7166370524806
 20
299.0214975011604
 30
0.0
 10
415.7251226396713
 20
299.0457899620658
 30
0.0
 10
415.7411651962475
 20
299.0948789961157
 30
0.0
 10
415.7487386723788
 20
299.119737012665
 30
0.0
 10
415.7698318079345
 20
299.1945782135516
 30
0.0
 10
415.7817302216131
 20
299.2447992517534
 30
0.0
 10
415.8106751929507
 20
299.3964822470302
 30
0.0
 10
415.8209870520766
 20
299.4989617321698
 30
0.0
 10
415.8214562287028
 20
299.6029283225789
 30
0.0
  0
SPLINE
  5
1C5
330
1F
100
AcDbEntity
  8
1
100
AcDbSpline
210
0.0
220
0.0
230
1.0
 70
     8
 71
     3
 72
    10
 73
     6
 74
     0
 42
0.000000001
 43
0.0000000001
 40
0.0
 40
0.0
 40
0.0
 40
0.0
 40
0.5
 40
0.5
 40
1.0
 40
1.0
 40
1.0
 40
1.0
 10
279.4048419452957
 20
271.9951490346409
 30
0.0
 10
279.5495475205886
 20
272.0080994416624
 30
0.0
 10
279.6971332487912
 20
272.0295602274874
 30
0.0
 10
279.9972253311623
 20
272.0869067047964
 30
0.0
 10
280.1497336412838
 20
272.1227992980592
 30
0.0
 10
280.3043368819222
 20
272.164865926907
 30
0.0
  0
SPLINE
  5
1C6
330
1F
100
AcDbEntity
  8
1
100
AcDbSpline
210
0.0
220
0.0
230
1.0
 70
     8
 71
     3
 72
    27
 73
    23
 74
     0
 42
0.000000001
 43
0.0000000001
 40
0.0
 40
0.0
 40
0.0
 40
0.0
 40
0.0624999999999998
 40
0.0624999999999998
 40
0.0937499999999998
 40
0.0937499999999998
 40
0.1249999999999997
 40
0.2499999999999997
 40
0.2499999999999997
 40
0.3749999999999997
 40
0.3749999999999997
 40
0.4999999999999998
 40
0.4999999999999998
 40
0.6249999999999997
 40
0.6249999999999997
 40
0.7499999999999997
 40
0.7499999999999997
 40
0.8124999999999996
 40
0.8124999999999996
 40
0.8749999999999998
 40
0.8749999999999998
 40
1.0
 40
1.0
 40
1.0
 40
1.0
 10
286.4799859548625
 20
273.3778292737397
 30
0.0
 10
286.3269502069849
 20
273.3642327466903
 30
0.0
 10
286.1749287727067
 20
273.3493221250014
 30
0.0
 10
285.9484102775921
 20
273.3251114525916
 30
0.0
 10
285.87311236378
 20
273.3167282281383
 30
0.0
 10
285.7234663138252
 20
273.2994203622939
 30
0.0
 10
285.3514988910769
 20
273.254772827091
 30
0.0
 10
284.9900723435352
 20
273.2035979454821
 30
0.0
 10
284.4246680377236
 20
273.114993247448
 30
0.0
 10
284.1484077748826
 20
273.067325351958
 30
0.0
 10
283.6084311098706
 20
272.9667644745988
 30
0.0
 10
283.3447163630567
 20
272.9138686717639
 30
0.0
 10
282.829701481455
 20
272.8043165901075
 30
0.0
 10
282.5784022590458
 20
272.7476572453756
 30
0.0
 10
282.0882570908677
 20
272.6320937300967
 30
0.0
 10
281.8494115234252
 20
272.5731856458389
 30
0.0
 10
281.5006240563557
 20
272.4843915133059
 30
0.0
 10
281.385942849413
 20
272.45472301945
 30
0.0
 10
281.159780008451
 20
272.3954799993722
 30
0.0
 10
281.0482263757117
 20
272.3658856307966
 30
0.0
 10
280.7195555594058
 20
272.2779336677784
 30
0.0
 10
280.508100012036
 20
272.2203086713924
 30
0.0
 10
280.3043368819222
 20
272.1648659269072
 30
0.0
  0
SPLINE
  5
1C7
330
1F
100
AcDbEntity
  8
1
100
AcDbSpline
210
0.0
220
0.0
230
1.0
 70
     8
 71
     3
 72
    47
 73
    43
 74
     0
 42
0.000000001
 43
0.0000000001
 40
0.0
 40
0.0
 40
0.0
 40
0.0
 40
0.0624999999999986
 40
0.0624999999999986
 40
0.1249999999999973
 40
0.1249999999999973
 40
0.1874999999999959
 40
0.1874999999999959
 40
0.2187499999999954
 40
0.2187499999999954
 40
0.234374999999995
 40
0.234374999999995
 40
0.2499999999999946
 40
0.2499999999999946
 40
0.3124999999999937
 40
0.374999999999993
 40
0.374999999999993
 40
0.4374999999999921
 40
0.4374999999999921
 40
0.453124999999992
 40
0.453124999999992
 40
0.4687499999999917
 40
0.4999999999999917
 40
0.4999999999999917
 40
0.5624999999999921
 40
0.6249999999999925
 40
0.6249999999999925
 40
0.6562499999999928
 40
0.6562499999999928
 40
0.6718749999999929
 40
0.6718749999999929
 40
0.6874999999999933
 40
0.6874999999999933
 40
0.7499999999999947
 40
0.7499999999999947
 40
0.812499999999996
 40
0.812499999999996
 40
0.8749999999999975
 40
0.8749999999999975
 40
0.9374999999999987
 40
0.9374999999999987
 40
1.0
 40
1.0
 40
1.0
 40
1.0
 10
279.4048419452957
 20
280.0663014608287
 30
0.0
 10
279.2433587457586
 20
279.9019892269882
 30
0.0
 10
279.090805600388
 20
279.7335583197819
 30
0.0
 10
278.8032232688098
 20
279.3890733100881
 30
0.0
 10
278.6681943413026
 20
279.213018368291
 30
0.0
 10
278.4157665256014
 20
278.8536691809264
 30
0.0
 10
278.2983659853566
 20
278.6703750111753
 30
0.0
 10
278.1359110834911
 20
278.3901306775841
 30
0.0
 10
278.084037504697
 20
278.2958303608838
 30
0.0
 10
278.0097344808702
 20
278.1530512765468
 30
0.0
 10
277.9855363462293
 20
278.105201751404
 30
0.0
 10
277.9385778213517
 20
278.0095813940169
 30
0.0
 10
277.9157851779344
 20
277.9617507105295
 30
0.0
 10
277.8052300802467
 20
277.722510808048
 30
0.0
 10
277.6501104484577
 20
277.3391821358921
 30
0.0
 10
277.5379577862597
 20
276.9554451468943
 30
0.0
 10
277.447556367073
 20
276.5717508477408
 30
0.0
 10
277.4132288222824
 20
276.3799249327091
 30
0.0
 10
277.3844473369193
 20
276.1402699459883
 30
0.0
 10
277.3793966830222
 20
276.0923191441831
 30
0.0
 10
277.3707410363226
 20
275.9965411275829
 30
0.0
 10
277.359968535751
 20
275.8535492070468
 30
0.0
 10
277.3557483140109
 20
275.7125644180613
 30
0.0
 10
277.3558873661136
 20
275.4332292444825
 30
0.0
 10
277.3789148508054
 20
275.0678032562656
 30
0.0
 10
277.4468761912563
 20
274.7160778463147
 30
0.0
 10
277.5148435551358
 20
274.4573373781969
 30
0.0
 10
277.5403364523001
 20
274.3719332534129
 30
0.0
 10
277.5828903258393
 20
274.2450843374211
 30
0.0
 10
277.5978163662099
 20
274.202954476813
 30
0.0
 10
277.6289763363341
 20
274.1194891442693
 30
0.0
 10
277.6452131750536
 20
274.0781374281523
 30
0.0
 10
277.7296364725218
 20
273.8732431901289
 30
0.0
 10
277.8075182989198
 20
273.7152841030221
 30
0.0
 10
277.9831805197085
 20
273.4104082031207
 30
0.0
 10
278.0809634222873
 20
273.2634932574258
 30
0.0
 10
278.2961567558176
 20
272.9800496869025
 30
0.0
 10
278.4135676820045
 20
272.8435221274641
 30
0.0
 10
278.6682094696058
 20
272.5803629987735
 30
0.0
 10
278.8040341597744
 20
272.4551810702827
 30
0.0
 10
279.09212518088
 20
272.2165665315734
 30
0.0
 10
279.2443998304863
 20
272.1031289304859
 30
0.0
 10
279.4048419452955
 20
271.9951490346408
 30
0.0
  0
SPLINE
  5
1C8
330
1F
100
AcDbEntity
  8
1
100
AcDbSpline
210
0.0
220
0.0
230
1.0
 70
     8
 71
     3
 72
    36
 73
    32
 74
     0
 42
0.000000001
 43
0.0000000001
 40
0.0
 40
0.0
 40
0.0
 40
0.0
 40
0.1249999999999344
 40
0.1249999999999344
 40
0.1874999999998934
 40
0.1874999999998934
 40
0.2187499999998689
 40
0.2187499999998689
 40
0.2499999999998445
 40
0.2499999999998445
 40
0.3749999999997544
 40
0.3749999999997544
 40
0.4062499999997436
 40
0.4062499999997436
 40
0.4374999999997329
 40
0.4374999999997329
 40
0.499999999999757
 40
0.499999999999757
 40
0.6249999999997603
 40
0.6249999999997603
 40
0.6562499999997611
 40
0.6562499999997611
 40
0.6874999999997619
 40
0.7499999999998213
 40
0.8124999999998808
 40
0.8124999999998808
 40
0.8437499999999115
 40
0.8437499999999115
 40
0.8749999999999424
 40
0.8749999999999424
 40
1.0
 40
1.0
 40
1.0
 40
1.0
 10
430.7587978615782
 20
304.5472851080299
 30
0.0
 10
430.7569678199444
 20
304.5981301254305
 30
0.0
 10
430.7499897360223
 20
304.6479123301745
 30
0.0
 10
430.7322802063589
 20
304.721090443978
 30
0.0
 10
430.7251599073613
 20
304.7452318738102
 30
0.0
 10
430.7126276406249
 20
304.781061710925
 30
0.0
 10
430.7081277498408
 20
304.7929726790886
 30
0.0
 10
430.6985694472236
 20
304.8164926481655
 30
0.0
 10
430.6935175621601
 20
304.8280911786192
 30
0.0
 10
430.6669253152101
 20
304.8852948214836
 30
0.0
 10
430.641426025727
 20
304.9285563111443
 30
0.0
 10
430.6043490240472
 20
304.9795531444333
 30
0.0
 10
430.5966710320208
 20
304.9895970609485
 30
0.0
 10
430.5807818954764
 20
305.0093692761053
 30
0.0
 10
430.5725555131581
 20
305.019112600938
 30
0.0
 10
430.5473278815467
 20
305.0475671308608
 30
0.0
 10
430.5297095591059
 20
305.0655986747762
 30
0.0
 10
430.4745210824351
 20
305.1169565131463
 30
0.0
 10
430.4346406866349
 20
305.1475733032111
 30
0.0
 10
430.3807969563742
 20
305.1811609324427
 30
0.0
 10
430.3698128118242
 20
305.1876477836608
 30
0.0
 10
430.3476771314873
 20
305.2000056954628
 30
0.0
 10
430.3141387175686
 20
305.2176729005059
 30
0.0
 10
430.2565953621193
 20
305.2428438560069
 30
0.0
 10
430.2088159593917
 20
305.2584498761292
 30
0.0
 10
430.1723112013248
 20
305.2684139773226
 30
0.0
 10
430.1600310383919
 20
305.2714447320409
 30
0.0
 10
430.1352415194551
 20
305.2769110650796
 30
0.0
 10
430.1227159216712
 20
305.279347903631
 30
0.0
 10
430.0600953455936
 20
305.2899099861905
 30
0.0
 10
430.0095955828241
 20
305.293328121291
 30
0.0
 10
429.9586795366027
 20
305.2915527697479
 30
0.0
  0
SPLINE
  5
1C9
330
1F
100
AcDbEntity
  8
1
100
AcDbSpline
210
0.0
220
0.0
230
1.0
 70
     8
 71
     3
 72
    36
 73
    32
 74
     0
 42
0.000000001
 43
0.0000000001
 40
0.0
 40
0.0
 40
0.0
 40
0.0
 40
0.1249999999999995
 40
0.1249999999999995
 40
0.1874999999999992
 40
0.1874999999999992
 40
0.2187500000000314
 40
0.2187500000000314
 40
0.2500000000000636
 40
0.2500000000000636
 40
0.3750000000000089
 40
0.3750000000000089
 40
0.4062500000000359
 40
0.4062500000000359
 40
0.4375000000000627
 40
0.4375000000000627
 40
0.5000000000001219
 40
0.5000000000001219
 40
0.6250000000001871
 40
0.6250000000001871
 40
0.6562500000001853
 40
0.6562500000001853
 40
0.6875000000001835
 40
0.7500000000001569
 40
0.8125000000001305
 40
0.8125000000001305
 40
0.8437500000001083
 40
0.8437500000001083
 40
0.8750000000000861
 40
0.8750000000000861
 40
1.0
 40
1.0
 40
1.0
 40
1.0
 10
421.9859945339268
 20
305.0135594911481
 30
0.0
 10
421.9350728783181
 20
305.0117839440157
 30
0.0
 10
421.8852209083292
 20
305.0048672047759
 30
0.0
 10
421.8119478157269
 20
304.9872593291544
 30
0.0
 10
421.7877763512311
 20
304.9801745343869
 30
0.0
 10
421.7519039344154
 20
304.9676979880952
 30
0.0
 10
421.7399791506371
 20
304.9632171347041
 30
0.0
 10
421.7164325841716
 20
304.9536974603527
 30
0.0
 10
421.7048212814757
 20
304.9486651454667
 30
0.0
 10
421.6475563501178
 20
304.9221720006663
 30
0.0
 10
421.6042539860395
 20
304.8967559598259
 30
0.0
 10
421.5532161027559
 20
304.8597879034602
 30
0.0
 10
421.5431644831173
 20
304.8521319470199
 30
0.0
 10
421.5233778908459
 20
304.8362873821745
 30
0.0
 10
421.5136278843106
 20
304.8280835747143
 30
0.0
 10
421.4851550639084
 20
304.802923724487
 30
0.0
 10
421.4671135876764
 20
304.7853508683873
 30
0.0
 10
421.4157325492303
 20
304.7302996039269
 30
0.0
 10
421.3851090225026
 20
304.690511759075
 30
0.0
 10
421.3515242613938
 20
304.6367851090729
 30
0.0
 10
421.3450385588485
 20
304.6258244779455
 30
0.0
 10
421.3326840652181
 20
304.6037354564655
 30
0.0
 10
421.3150236704415
 20
304.5702666628563
 30
0.0
 10
421.2898723373662
 20
304.5128375326573
 30
0.0
 10
421.2742907832803
 20
304.46514759306
 30
0.0
 10
421.26434839974
 20
304.4287091959284
 30
0.0
 10
421.2613254466451
 20
304.4164510303418
 30
0.0
 10
421.2558758686651
 20
304.391705254264
 30
0.0
 10
421.2534479981101
 20
304.3792014282935
 30
0.0
 10
421.2429332523278
 20
304.3166880512608
 30
0.0
 10
421.2395611645715
 20
304.2662695552938
 30
0.0
 10
421.2413910046128
 20
304.2154301388385
 30
0.0
  0
SPLINE
  5
1CA
330
1F
100
AcDbEntity
  8
1
100
AcDbSpline
210
0.0
220
0.0
230
1.0
 70
     8
 71
     3
 72
    36
 73
    32
 74
     0
 42
0.000000001
 43
0.0000000001
 40
0.0
 40
0.0
 40
0.0
 40
0.0
 40
0.1249999999998854
 40
0.1249999999998854
 40
0.1874999999998362
 40
0.1874999999998362
 40
0.2187499999998116
 40
0.2187499999998116
 40
0.249999999999787
 40
0.249999999999787
 40
0.3749999999996826
 40
0.3749999999996826
 40
0.4062499999996663
 40
0.4062499999996663
 40
0.4374999999996498
 40
0.4374999999996498
 40
0.4999999999996608
 40
0.4999999999996608
 40
0.6249999999996825
 40
0.6249999999996825
 40
0.6562499999996888
 40
0.6562499999996888
 40
0.6874999999996952
 40
0.7499999999997693
 40
0.8124999999998435
 40
0.8124999999998435
 40
0.8437499999998809
 40
0.8437499999998809
 40
0.8749999999999184
 40
0.8749999999999184
 40
1.0
 40
1.0
 40
1.0
 40
1.0
 10
421.5279163603373
 20
296.2547442019086
 30
0.0
 10
421.5297464019709
 20
296.203899184508
 30
0.0
 10
421.5367244858933
 20
296.154116979764
 30
0.0
 10
421.5544340155566
 20
296.0809388659605
 30
0.0
 10
421.5615543145538
 20
296.0567974361283
 30
0.0
 10
421.5740865812905
 20
296.0209675990135
 30
0.0
 10
421.5785864720746
 20
296.0090566308499
 30
0.0
 10
421.5881447746919
 20
295.9855366617729
 30
0.0
 10
421.5931966597553
 20
295.9739381313194
 30
0.0
 10
421.6197889067053
 20
295.9167344884548
 30
0.0
 10
421.6452881961883
 20
295.8734729987942
 30
0.0
 10
421.6823651978682
 20
295.8224761655052
 30
0.0
 10
421.6900431898944
 20
295.81243224899
 30
0.0
 10
421.705932326439
 20
295.7926600338332
 30
0.0
 10
421.7141587087573
 20
295.7829167090005
 30
0.0
 10
421.7393863403686
 20
295.7544621790777
 30
0.0
 10
421.7570046628093
 20
295.7364306351624
 30
0.0
 10
421.8121931394802
 20
295.6850727967922
 30
0.0
 10
421.8520735352805
 20
295.6544560067273
 30
0.0
 10
421.9059172655411
 20
295.6208683774958
 30
0.0
 10
421.9169014100911
 20
295.6143815262777
 30
0.0
 10
421.939037090428
 20
295.6020236144758
 30
0.0
 10
421.9725755043468
 20
295.5843564094326
 30
0.0
 10
422.0301188597962
 20
295.5591854539315
 30
0.0
 10
422.0778982625236
 20
295.5435794338093
 30
0.0
 10
422.1144030205906
 20
295.533615332616
 30
0.0
 10
422.1266831835236
 20
295.5305845778975
 30
0.0
 10
422.1514727024604
 20
295.5251182448588
 30
0.0
 10
422.1639983002441
 20
295.5226814063075
 30
0.0
 10
422.2266188763218
 20
295.512119323748
 30
0.0
 10
422.2771186390913
 20
295.5087011886475
 30
0.0
 10
422.3280346853126
 20
295.5104765401906
 30
0.0
  0
SPLINE
  5
1CB
330
1F
100
AcDbEntity
  8
1
100
AcDbSpline
210
0.0
220
0.0
230
1.0
 70
     8
 71
     3
 72
    36
 73
    32
 74
     0
 42
0.000000001
 43
0.0000000001
 40
0.0
 40
0.0
 40
0.0
 40
0.0
 40
0.1249999999998927
 40
0.1249999999998927
 40
0.187499999999839
 40
0.187499999999839
 40
0.2187499999998445
 40
0.2187499999998445
 40
0.24999999999985
 40
0.24999999999985
 40
0.3749999999996833
 40
0.3749999999996833
 40
0.406249999999683
 40
0.406249999999683
 40
0.4374999999996828
 40
0.4374999999996828
 40
0.4999999999996822
 40
0.4999999999996822
 40
0.6249999999997279
 40
0.6249999999997279
 40
0.6562499999997575
 40
0.6562499999997575
 40
0.6874999999997869
 40
0.7499999999998173
 40
0.8124999999998475
 40
0.8124999999998475
 40
0.8437499999998706
 40
0.8437499999998706
 40
0.8749999999998937
 40
0.8749999999998937
 40
1.0
 40
1.0
 40
1.0
 40
1.0
 10
430.3007196879885
 20
295.7884698187903
 30
0.0
 10
430.3516413435973
 20
295.7902453659228
 30
0.0
 10
430.4014933135863
 20
295.7971621051627
 30
0.0
 10
430.4747664061883
 20
295.8147699807842
 30
0.0
 10
430.4989378706843
 20
295.8218547755516
 30
0.0
 10
430.5348102875
 20
295.8343313218433
 30
0.0
 10
430.5467350712785
 20
295.8388121752345
 30
0.0
 10
430.5702816377439
 20
295.8483318495859
 30
0.0
 10
430.5818929404396
 20
295.8533641644719
 30
0.0
 10
430.6391578717977
 20
295.8798573092722
 30
0.0
 10
430.6824602358758
 20
295.9052733501127
 30
0.0
 10
430.7334981191593
 20
295.9422414064783
 30
0.0
 10
430.7435497387983
 20
295.9498973629187
 30
0.0
 10
430.7633363310694
 20
295.9657419277641
 30
0.0
 10
430.7730863376048
 20
295.9739457352242
 30
0.0
 10
430.8015591580069
 20
295.9991055854516
 30
0.0
 10
430.8196006342391
 20
296.0166784415512
 30
0.0
 10
430.8709816726851
 20
296.0717297060116
 30
0.0
 10
430.9016051994128
 20
296.1115175508635
 30
0.0
 10
430.9351899605216
 20
296.1652442008656
 30
0.0
 10
430.9416756630668
 20
296.1762048319931
 30
0.0
 10
430.9540301566974
 20
296.1982938534731
 30
0.0
 10
430.9716905514738
 20
296.2317626470822
 30
0.0
 10
430.9968418845493
 20
296.2891917772811
 30
0.0
 10
431.0124234386351
 20
296.3368817168786
 30
0.0
 10
431.0223658221753
 20
296.3733201140101
 30
0.0
 10
431.0253887752701
 20
296.3855782795967
 30
0.0
 10
431.0308383532502
 20
296.4103240556745
 30
0.0
 10
431.0332662238051
 20
296.422827881645
 30
0.0
 10
431.0437809695875
 20
296.4853412586777
 30
0.0
 10
431.047153057344
 20
296.5357597546447
 30
0.0
 10
431.0453232173026
 20
296.5865991710999
 30
0.0
  0
SPLINE
  5
1CC
330
1F
100
AcDbEntity
  8
1
100
AcDbSpline
210
0.0
220
0.0
230
1.0
 70
     8
 71
     3
 72
     8
 73
     4
 74
     0
 42
0.000000001
 43
0.0000000001
 40
0.0
 40
0.0
 40
0.0
 40
0.0
 40
1.0
 40
1.0
 40
1.0
 40
1.0
 10
427.2405355651267
 20
301.0460889548003
 30
0.0
 10
427.2429462412339
 20
301.0540905609748
 30
0.0
 10
427.2455313211343
 20
301.0620434397505
 30
0.0
 10
427.2482910260965
 20
301.0699481817857
 30
0.0
  0
SPLINE
  5
1CD
330
1F
100
AcDbEntity
  8
1
100
AcDbSpline
210
0.0
220
0.0
230
1.0
 70
     8
 71
     3
 72
    10
 73
     6
 74
     0
 42
0.000000001
 43
0.0000000001
 40
0.0
 40
0.0
 40
0.0
 40
0.0
 40
0.9000885583044963
 40
0.9000885583044963
 40
1.0
 40
1.0
 40
1.0
 40
1.0
 10
425.2205147271714
 20
301.5372664123277
 30
0.0
 10
425.2170175995956
 20
301.5068307769773
 30
0.0
 10
425.2111335041113
 20
301.4768548770517
 30
0.0
 10
425.2019481251691
 20
301.4440272349086
 30
0.0
 10
425.2010010605673
 20
301.4407526485991
 30
0.0
 10
425.2000243867319
 20
301.4374833359053
 30
0.0
  0
SPLINE
  5
1CE
330
1F
100
AcDbEntity
  8
1
100
AcDbSpline
210
0.0
220
0.0
230
1.0
 70
     8
 71
     3
 72
    20
 73
    16
 74
     0
 42
0.000000001
 43
0.0000000001
 40
0.0
 40
0.0
 40
0.0
 40
0.0
 40
0.124999999999999
 40
0.124999999999999
 40
0.2499999999999979
 40
0.2499999999999979
 40
0.3749999999999969
 40
0.3749999999999969
 40
0.4999999999999958
 40
0.4999999999999958
 40
0.6249999999999947
 40
0.6249999999999947
 40
0.7499999999999937
 40
0.7499999999999937
 40
1.0
 40
1.0
 40
1.0
 40
1.0
 10
425.3001845003323
 20
298.9880398937225
 30
0.0
 10
425.2979512100865
 20
298.9837947356498
 30
0.0
 10
425.2954267409421
 20
298.9797396220907
 30
0.0
 10
425.289799386871
 20
298.9720070740828
 30
0.0
 10
425.2866880130231
 20
298.9683278529153
 30
0.0
 10
425.2800296904854
 20
298.9615233447174
 30
0.0
 10
425.2764671595455
 20
298.9583738300343
 30
0.0
 10
425.2688681542921
 20
298.9525889361818
 30
0.0
 10
425.2647970856691
 20
298.9499365776338
 30
0.0
 10
425.2563555084286
 20
298.9452988855188
 30
0.0
 10
425.25198543827
 20
298.9433051736047
 30
0.0
 10
425.242944520809
 20
298.9399746049233
 30
0.0
 10
425.2382420100961
 20
298.9386315259506
 30
0.0
 10
425.2238715983538
 20
298.9357095929796
 30
0.0
 10
425.2141483551899
 20
298.9352313378063
 30
0.0
 10
425.2042752772253
 20
298.9363157590618
 30
0.0
  0
SPLINE
  5
1CF
330
1F
100
AcDbEntity
  8
1
100
AcDbSpline
210
0.0
220
0.0
230
1.0
 70
     8
 71
     3
 72
    18
 73
    14
 74
     0
 42
0.000000001
 43
0.0000000001
 40
0.0
 40
0.0
 40
0.0
 40
0.0
 40
0.2500000000003987
 40
0.2500000000003987
 40
0.3750000000003256
 40
0.3750000000003256
 40
0.5000000000002526
 40
0.5000000000002526
 40
0.6250000000001795
 40
0.6250000000001795
 40
0.7500000000001064
 40
0.7500000000001064
 40
1.0
 40
1.0
 40
1.0
 40
1.0
 10
426.1252947223221
 20
298.7240590236391
 30
0.0
 10
426.115939852291
 20
298.7274075689878
 30
0.0
 10
426.1072283987232
 20
298.7322242987836
 30
0.0
 10
426.0957473102653
 20
298.7410575663554
 30
0.0
 10
426.0921558662586
 20
298.7442827933487
 30
0.0
 10
426.0854479430878
 20
298.7512983004166
 30
0.0
 10
426.0823677765323
 20
298.7550588956191
 30
0.0
 10
426.0768706483306
 20
298.762884067187
 30
0.0
 10
426.074429115856
 20
298.7669738877723
 30
0.0
 10
426.0701511680545
 20
298.7755020219385
 30
0.0
 10
426.068305297478
 20
298.7799772754028
 30
0.0
 10
426.0638302342134
 20
298.7935735118851
 30
0.0
 10
426.0621944637397
 20
298.8029009017023
 30
0.0
 10
426.0619161769321
 20
298.812492374282
 30
0.0
  0
SPLINE
  5
1D0
330
1F
100
AcDbEntity
  8
1
100
AcDbSpline
210
0.0
220
0.0
230
1.0
 70
     8
 71
     3
 72
    10
 73
     6
 74
     0
 42
0.000000001
 43
0.0000000001
 40
0.0
 40
0.0
 40
0.0
 40
0.0
 40
0.5
 40
0.5
 40
1.0
 40
1.0
 40
1.0
 40
1.0
 10
425.3001845003323
 20
298.9880398937225
 30
0.0
 10
425.3052892309466
 20
298.9977432399032
 30
0.0
 10
425.3118552232153
 20
299.0064075083429
 30
0.0
 10
425.3278520819415
 20
299.0214813741726
 30
0.0
 10
425.3369057993133
 20
299.0275523177686
 30
0.0
 10
425.3470826647298
 20
299.0320714617262
 30
0.0
  0
SPLINE
  5
1D1
330
1F
100
AcDbEntity
  8
1
100
AcDbSpline
210
0.0
220
0.0
230
1.0
 70
     8
 71
     3
 72
    10
 73
     6
 74
     0
 42
0.000000001
 43
0.0000000001
 40
0.0
 40
0.0
 40
0.0
 40
0.0
 40
0.5
 40
0.5
 40
1.0
 40
1.0
 40
1.0
 40
1.0
 10
426.0391616454289
 20
298.8725759962613
 30
0.0
 10
426.0463135964126
 20
298.8640631372863
 30
0.0
 10
426.0518066000063
 20
298.8545813013934
 30
0.0
 10
426.0595232011783
 20
298.8340531942176
 30
0.0
 10
426.0615984297943
 20
298.8234438921915
 30
0.0
 10
426.0619161769321
 20
298.812492374282
 30
0.0
  0
SPLINE
  5
1D2
330
1F
100
AcDbEntity
  8
1
100
AcDbSpline
210
0.0
220
0.0
230
1.0
 70
     8
 71
     3
 72
    27
 73
    23
 74
     0
 42
0.000000001
 43
0.0000000001
 40
0.0
 40
0.0
 40
0.0
 40
0.0
 40
0.1249999999999998
 40
0.1249999999999998
 40
0.1875000000000512
 40
0.1875000000000512
 40
0.2500000000001026
 40
0.2500000000001026
 40
0.3750000000001096
 40
0.3750000000001096
 40
0.4375000000000657
 40
0.4375000000000657
 40
0.5000000000000218
 40
0.5000000000000218
 40
0.6250000000000134
 40
0.6250000000000134
 40
0.6875000000000091
 40
0.6875000000000091
 40
0.7500000000000049
 40
0.7500000000000049
 40
0.8750000000000024
 40
1.0
 40
1.0
 40
1.0
 40
1.0
 10
425.2042752772253
 20
298.9363157590618
 30
0.0
 10
425.1726957612562
 20
298.9397843327406
 30
0.0
 10
425.1416931957468
 20
298.9457292695563
 30
0.0
 10
425.0960463407589
 20
298.9583006522801
 30
0.0
 10
425.0809741917819
 20
298.9631029147459
 30
0.0
 10
425.0511233059738
 20
298.9739553585323
 30
0.0
 10
425.036304542723
 20
298.9800286571875
 30
0.0
 10
424.9930002748345
 20
298.9998476830582
 30
0.0
 10
424.9654482692126
 20
299.0152440828506
 30
0.0
 10
424.9260660075668
 20
299.0415610811521
 30
0.0
 10
424.9132643819528
 20
299.0508729908061
 30
0.0
 10
424.8883260809493
 20
299.0705978682165
 30
0.0
 10
424.8761366347834
 20
299.0810632568711
 30
0.0
 10
424.8411264922124
 20
299.1136722574913
 30
0.0
 10
424.8197851910186
 20
299.1370395322099
 30
0.0
 10
424.7906808532454
 20
299.1744586043857
 30
0.0
 10
424.7814663510493
 20
299.1873282291672
 30
0.0
 10
424.7640238677441
 20
299.2138709782513
 30
0.0
 10
424.7557679499764
 20
299.2275961321216
 30
0.0
 10
424.7327270457841
 20
299.2696454116318
 30
0.0
 10
424.7068699839188
 20
299.3274292360425
 30
0.0
 10
424.690316773223
 20
299.3884933976428
 30
0.0
 10
424.6844364605858
 20
299.4198682643022
 30
0.0
  0
SPLINE
  5
1D3
330
1F
100
AcDbEntity
  8
1
100
AcDbSpline
210
0.0
220
0.0
230
1.0
 70
     8
 71
     3
 72
    24
 73
    20
 74
     0
 42
0.000000001
 43
0.0000000001
 40
0.0
 40
0.0
 40
0.0
 40
0.0
 40
0.1249999999999326
 40
0.1249999999999326
 40
0.2499999999998651
 40
0.2499999999998651
 40
0.3124999999998314
 40
0.3124999999998314
 40
0.3749999999997977
 40
0.3749999999997977
 40
0.4999999999998381
 40
0.4999999999998381
 40
0.6249999999998785
 40
0.6249999999998785
 40
0.7499999999999191
 40
0.7499999999999191
 40
0.8749999999999594
 40
0.8749999999999594
 40
1.0
 40
1.0
 40
1.0
 40
1.0
 10
425.3470826647298
 20
299.0320714617262
 30
0.0
 10
425.3759039666923
 20
299.0448698635213
 30
0.0
 10
425.4054631334611
 20
299.0553192791022
 30
0.0
 10
425.4660927685766
 20
299.0715426464677
 30
0.0
 10
425.4971624551091
 20
299.0773188584528
 30
0.0
 10
425.5450231843232
 20
299.082203242755
 30
0.0
 10
425.5610874157563
 20
299.0831821493973
 30
0.0
 10
425.5930486548619
 20
299.0838239635278
 30
0.0
 10
425.6090044733377
 20
299.0834933486404
 30
0.0
 10
425.6567994974177
 20
299.0805469915218
 30
0.0
 10
425.6886171472157
 20
299.0759786811072
 30
0.0
 10
425.7518498179556
 20
299.0613964736031
 30
0.0
 10
425.7823411137477
 20
299.0516044563117
 30
0.0
 10
425.841206611565
 20
299.0273019354152
 30
0.0
 10
425.8695910573213
 20
299.0127839357829
 30
0.0
 10
425.9241731394697
 20
298.9789618372805
 30
0.0
 10
425.9495786429374
 20
298.9601543762024
 30
0.0
 10
425.996946661173
 20
298.9190165944277
 30
0.0
 10
426.0189073030907
 20
298.8966844332946
 30
0.0
 10
426.0391616454289
 20
298.8725759962613
 30
0.0
  0
SPLINE
  5
1D4
330
1F
100
AcDbEntity
  8
1
100
AcDbSpline
210
0.0
220
0.0
230
1.0
 70
     8
 71
     3
 72
    27
 73
    23
 74
     0
 42
0.000000001
 43
0.0000000001
 40
0.0
 40
0.0
 40
0.0
 40
0.0
 40
0.0969339437275209
 40
0.0969339437275209
 40
0.1614386620327122
 40
0.1614386620327122
 40
0.2259433803379035
 40
0.2259433803379035
 40
0.3549528169482859
 40
0.3549528169482859
 40
0.4194575352534772
 40
0.4194575352534772
 40
0.4839622535586685
 40
0.4839622535586685
 40
0.6129716901689458
 40
0.6129716901689458
 40
0.6774764084740843
 40
0.6774764084740843
 40
0.7419811267792229
 40
0.7419811267792229
 40
0.8709905633896115
 40
1.0
 40
1.0
 40
1.0
 40
1.0
 10
426.7896305843446
 20
298.912561331085
 30
0.0
 10
426.7746423320189
 20
298.8939528494776
 30
0.0
 10
426.7586277756182
 20
298.876327316113
 30
0.0
 10
426.7302680747193
 20
298.8485917705536
 30
0.0
 10
426.7184856674697
 20
298.837942121982
 30
0.0
 10
426.6940010145304
 20
298.8175254126825
 30
0.0
 10
426.6812587180353
 20
298.8077353834333
 30
0.0
 10
426.6422476004231
 20
298.7801689975873
 30
0.0
 10
426.6150388665273
 20
298.7640326178765
 30
0.0
 10
426.5724524859526
 20
298.7431364238296
 30
0.0
 10
426.5579601016015
 20
298.7367249909433
 30
0.0
 10
426.5283693799897
 20
298.7250326480567
 30
0.0
 10
426.5131992965301
 20
298.719732389153
 30
0.0
 10
426.4674420457086
 20
298.7057928986239
 30
0.0
 10
426.4365575626682
 20
298.6990517762856
 30
0.0
 10
426.389678977547
 20
298.6926524655142
 30
0.0
 10
426.3739603695072
 20
298.6911410821315
 30
0.0
 10
426.3423361049958
 20
298.6893779492372
 30
0.0
 10
426.3263715144216
 20
298.6891281728849
 30
0.0
 10
426.2786085245932
 20
298.6903157471551
 30
0.0
 10
426.2159265232399
 20
298.6969808924097
 30
0.0
 10
426.1551718651833
 20
298.7133645973744
 30
0.0
 10
426.1252947223221
 20
298.7240590236391
 30
0.0
  0
SPLINE
  5
1D5
330
1F
100
AcDbEntity
  8
1
100
AcDbSpline
210
0.0
220
0.0
230
1.0
 70
     8
 71
     3
 72
    24
 73
    20
 74
     0
 42
0.000000001
 43
0.0000000001
 40
0.0
 40
0.0
 40
0.0
 40
0.0
 40
0.1294225722720408
 40
0.1294225722720408
 40
0.2588451445440815
 40
0.2588451445440815
 40
0.3235564306801336
 40
0.3235564306801336
 40
0.3882677168161859
 40
0.3882677168161859
 40
0.5176902890882407
 40
0.5176902890882407
 40
0.6471128613602954
 40
0.6471128613602954
 40
0.7765354336323501
 40
0.7765354336323501
 40
0.9059580059044048
 40
0.9059580059044048
 40
1.0
 40
1.0
 40
1.0
 40
1.0
 10
424.5595318320797
 20
300.2489232026869
 30
0.0
 10
424.5847034293096
 20
300.2307765561605
 30
0.0
 10
424.6082392495926
 20
300.2107854429755
 30
0.0
 10
424.6520853641587
 20
300.1670856477412
 30
0.0
 10
424.6723971807178
 20
300.143378817825
 30
0.0
 10
424.700281656631
 20
300.1047757372635
 30
0.0
 10
424.7090807796546
 20
300.0914755915821
 30
0.0
 10
424.7254807244416
 20
300.0643345802013
 30
0.0
 10
424.7331162551708
 20
300.0504464725243
 30
0.0
 10
424.7543317743091
 20
300.0078263939427
 30
0.0
 10
424.766247654296
 20
299.9780960511381
 30
0.0
 10
424.7852718765805
 20
299.9161405189608
 30
0.0
 10
424.7921095769273
 20
299.8848255854442
 30
0.0
 10
424.8007392043986
 20
299.821557775437
 30
0.0
 10
424.8025298441255
 20
299.7895925377219
 30
0.0
 10
424.8009659955436
 20
299.7250555563269
 30
0.0
 10
424.7976389296729
 20
299.6934242241967
 30
0.0
 10
424.7878303419062
 20
299.6397945739926
 30
0.0
 10
424.7824584893936
 20
299.6175270868517
 30
0.0
 10
424.775839858944
 20
299.595555058575
 30
0.0
  0
SPLINE
  5
1D6
330
1F
100
AcDbEntity
  8
1
100
AcDbSpline
210
0.0
220
0.0
230
1.0
 70
     8
 71
     3
 72
    10
 73
     6
 74
     0
 42
0.000000001
 43
0.0000000001
 40
0.0
 40
0.0
 40
0.0
 40
0.0
 40
0.5
 40
0.5
 40
1.0
 40
1.0
 40
1.0
 40
1.0
 10
424.4987547356877
 20
300.266540449982
 30
0.0
 10
424.5095635690927
 20
300.2671425081688
 30
0.0
 10
424.5202078758776
 20
300.2659589906912
 30
0.0
 10
424.5409851363389
 20
300.2599785056741
 30
0.0
 10
424.5506432645501
 20
300.255331127127
 30
0.0
 10
424.5595318320797
 20
300.2489232026869
 30
0.0
  0
SPLINE
  5
1D7
330
1F
100
AcDbEntity
  8
1
100
AcDbSpline
210
0.0
220
0.0
230
1.0
 70
     8
 71
     3
 72
    20
 73
    16
 74
     0
 42
0.000000001
 43
0.0000000001
 40
0.0
 40
0.0
 40
0.0
 40
0.0
 40
0.1249999999999442
 40
0.1249999999999442
 40
0.2499999999998884
 40
0.2499999999998884
 40
0.3749999999998328
 40
0.3749999999998328
 40
0.4999999999997772
 40
0.4999999999997772
 40
0.6249999999997216
 40
0.6249999999997216
 40
0.7499999999996659
 40
0.7499999999996659
 40
1.0
 40
1.0
 40
1.0
 40
1.0
 10
424.4987547356877
 20
300.266540449982
 30
0.0
 10
424.4940258050213
 20
300.2662770458461
 30
0.0
 10
424.4893152190202
 20
300.2663607178728
 30
0.0
 10
424.4799306559622
 20
300.267217729282
 30
0.0
 10
424.4752512885761
 20
300.2679973891559
 30
0.0
 10
424.4661505895075
 20
300.2702142185614
 30
0.0
 10
424.4617008035295
 20
300.2716523415298
 30
0.0
 10
424.4530063119598
 20
300.2751986105944
 30
0.0
 10
424.4487300539698
 20
300.2773277081178
 30
0.0
 10
424.4406002824637
 20
300.2821841863827
 30
0.0
 10
424.4367394316748
 20
300.2849071059771
 30
0.0
 10
424.4294305252339
 20
300.2909475198883
 30
0.0
 10
424.4259613680103
 20
300.2942891532488
 30
0.0
 10
424.4163720611726
 20
300.3051052668222
 30
0.0
 10
424.4111646243447
 20
300.3131917883487
 30
0.0
 10
424.4072196042213
 20
300.3222073360704
 30
0.0
  0
SPLINE
  5
1D8
330
1F
100
AcDbEntity
  8
1
100
AcDbSpline
210
0.0
220
0.0
230
1.0
 70
     8
 71
     3
 72
    22
 73
    18
 74
     0
 42
0.000000001
 43
0.0000000001
 40
0.0
 40
0.0
 40
0.0
 40
0.0
 40
0.1290468714531706
 40
0.1290468714531706
 40
0.2016262988320757
 40
0.2016262988320757
 40
0.2742057262109808
 40
0.2742057262109808
 40
0.4193645809687848
 40
0.4193645809687848
 40
0.5645234357265885
 40
0.5645234357265885
 40
0.7096822904843922
 40
0.7096822904843922
 40
0.854841145242196
 40
0.854841145242196
 40
1.0
 40
1.0
 40
1.0
 40
1.0
 10
426.8170199314447
 20
299.2063912017279
 30
0.0
 10
426.8250564401258
 20
299.2332899286652
 30
0.0
 10
426.8349675547623
 20
299.25976831781
 30
0.0
 10
426.8535907966199
 20
299.3004562595757
 30
0.0
 10
426.8608963380867
 20
299.3148697214171
 30
0.0
 10
426.8765269168997
 20
299.3428833888892
 30
0.0
 10
426.8848763472845
 20
299.3565380160932
 30
0.0
 10
426.9115262576502
 20
299.3964466262381
 30
0.0
 10
426.9314516802722
 20
299.4216897539395
 30
0.0
 10
426.9756607843857
 20
299.4690633493817
 30
0.0
 10
426.9992901659771
 20
299.4905049353193
 30
0.0
 10
427.0494324299134
 20
299.5291579492115
 30
0.0
 10
427.0759560633812
 20
299.5463740463098
 30
0.0
 10
427.1319218863397
 20
299.5764856938984
 30
0.0
 10
427.1605457456873
 20
299.5889462857992
 30
0.0
 10
427.2190272060853
 20
299.6091013901494
 30
0.0
 10
427.2488853987352
 20
299.6167933419837
 30
0.0
 10
427.2793871117039
 20
299.62210950668
 30
0.0
  0
SPLINE
  5
1D9
330
1F
100
AcDbEntity
  8
1
100
AcDbSpline
210
0.0
220
0.0
230
1.0
 70
     8
 71
     3
 72
    10
 73
     6
 74
     0
 42
0.000000001
 43
0.0000000001
 40
0.0
 40
0.0
 40
0.0
 40
0.0
 40
0.5
 40
0.5
 40
1.0
 40
1.0
 40
1.0
 40
1.0
 10
427.2793871117039
 20
299.62210950668
 30
0.0
 10
427.2901566560778
 20
299.6239865380342
 30
0.0
 10
427.300921188459
 20
299.6239389446112
 30
0.0
 10
427.3221366796103
 20
299.620226331555
 30
0.0
 10
427.3321489986986
 20
299.6166539975548
 30
0.0
 10
427.3415760544925
 20
299.6113881882877
 30
0.0
  0
SPLINE
  5
1DA
330
1F
100
AcDbEntity
  8
1
100
AcDbSpline
210
0.0
220
0.0
230
1.0
 70
     8
 71
     3
 72
    18
 73
    14
 74
     0
 42
0.000000001
 43
0.0000000001
 40
0.0
 40
0.0
 40
0.0
 40
0.0
 40
0.2500000000006279
 40
0.2500000000006279
 40
0.3750000000006289
 40
0.3750000000006289
 40
0.5000000000006298
 40
0.5000000000006298
 40
0.6250000000006308
 40
0.6250000000006308
 40
0.7500000000006317
 40
0.7500000000006317
 40
1.0
 40
1.0
 40
1.0
 40
1.0
 10
427.4479744518363
 20
299.621439615463
 30
0.0
 10
427.4404857500385
 20
299.6150477200221
 30
0.0
 10
427.4320738999247
 20
299.609954754145
 30
0.0
 10
427.4188821847878
 20
299.6044986645493
 30
0.0
 10
427.4143640929247
 20
299.6030254852854
 30
0.0
 10
427.4050852866086
 20
299.6007754678266
 30
0.0
 10
427.4003696167495
 20
299.6000153220297
 30
0.0
 10
427.3910095242228
 20
299.5992216075022
 30
0.0
 10
427.3863320587898
 20
299.5991797397258
 30
0.0
 10
427.3769830682333
 20
299.5997954897262
 30
0.0
 10
427.3722757987568
 20
299.6004636409484
 30
0.0
 10
427.3585411881065
 20
299.6034723598016
 30
0.0
 10
427.3498324409238
 20
299.6067762970318
 30
0.0
 10
427.3415760544925
 20
299.6113881882877
 30
0.0
  0
SPLINE
  5
1DB
330
1F
100
AcDbEntity
  8
1
100
AcDbSpline
210
0.0
220
0.0
230
1.0
 70
     8
 71
     3
 72
    18
 73
    14
 74
     0
 42
0.000000001
 43
0.0000000001
 40
0.0
 40
0.0
 40
0.0
 40
0.0
 40
0.2502969362749814
 40
0.2502969362749814
 40
0.375445404412445
 40
0.375445404412445
 40
0.5005938725499089
 40
0.5005938725499089
 40
0.7508908088248499
 40
0.7508908088248499
 40
0.8760392769623267
 40
0.8760392769623267
 40
1.0
 40
1.0
 40
1.0
 40
1.0
 10
424.4072196042213
 20
300.3222073360704
 30
0.0
 10
424.3946019332168
 20
300.3510424779766
 30
0.0
 10
424.3843967107472
 20
300.380640674417
 30
0.0
 10
424.372653458803
 20
300.4261568189531
 30
0.0
 10
424.3693358572074
 20
300.4415162270279
 30
0.0
 10
424.3639186742356
 20
300.4726162497326
 30
0.0
 10
424.3618192318508
 20
300.4884026785724
 30
0.0
 10
424.357465446241
 20
300.5355842995562
 30
0.0
 10
424.3570919739926
 20
300.5670159420808
 30
0.0
 10
424.3602655978783
 20
300.6141274808915
 30
0.0
 10
424.3619486735203
 20
300.6298253295038
 30
0.0
 10
424.3665687487885
 20
300.6610596643234
 30
0.0
 10
424.3695123513301
 20
300.6766666812788
 30
0.0
 10
424.3730494930117
 20
300.6920400812493
 30
0.0
  0
SPLINE
  5
1DC
330
1F
100
AcDbEntity
  8
1
100
AcDbSpline
210
0.0
220
0.0
230
1.0
 70
     8
 71
     3
 72
    13
 73
     9
 74
     0
 42
0.000000001
 43
0.0000000001
 40
0.0
 40
0.0
 40
0.0
 40
0.0
 40
0.1055865034807776
 40
0.1055865034807776
 40
0.2844692027845581
 40
0.2844692027845581
 40
0.6422346013922791
 40
1.0
 40
1.0
 40
1.0
 40
1.0
 10
427.604024575911
 20
299.8307427703373
 30
0.0
 10
427.600253732264
 20
299.8222547538192
 30
0.0
 10
427.5962808710038
 20
299.8138485385375
 30
0.0
 10
427.5850289018864
 20
299.7914227983096
 30
0.0
 10
427.5773382304707
 20
299.7775075015223
 30
0.0
 10
427.5526775108816
 20
299.7368514533555
 30
0.0
 10
427.5159536368725
 20
299.6860702141962
 30
0.0
 10
427.4718913763103
 20
299.6418536317548
 30
0.0
 10
427.4479744518363
 20
299.621439615463
 30
0.0
  0
SPLINE
  5
1DD
330
1F
100
AcDbEntity
  8
1
100
AcDbSpline
210
0.0
220
0.0
230
1.0
 70
     8
 71
     3
 72
    10
 73
     6
 74
     0
 42
0.000000001
 43
0.0000000001
 40
0.0
 40
0.0
 40
0.0
 40
0.0
 40
0.5
 40
0.5
 40
1.0
 40
1.0
 40
1.0
 40
1.0
 10
425.2062578155363
 20
301.5976547980177
 30
0.0
 10
425.2120312417293
 20
301.5887810456811
 30
0.0
 10
425.2161756724666
 20
301.5791569390626
 30
0.0
 10
425.2210859272983
 20
301.558532641679
 30
0.0
 10
425.2217495290414
 20
301.5480129403369
 30
0.0
 10
425.2205147271714
 20
301.5372664123277
 30
0.0
  0
SPLINE
  5
1DE
330
1F
100
AcDbEntity
  8
1
100
AcDbSpline
210
0.0
220
0.0
230
1.0
 70
     8
 71
     3
 72
    10
 73
     6
 74
     0
 42
0.000000001
 43
0.0000000001
 40
0.0
 40
0.0
 40
0.0
 40
0.0
 40
0.6199212008835389
 40
0.6199212008835389
 40
1.0
 40
1.0
 40
1.0
 40
1.0
 10
425.2062578155363
 20
301.5976547980177
 30
0.0
 10
425.2037320092923
 20
301.6015369605865
 30
0.0
 10
425.201516053745
 20
301.6055769328608
 30
0.0
 10
425.1984380926193
 20
301.6123466106663
 30
0.0
 10
425.1973850539408
 20
301.6149813511078
 30
0.0
 10
425.1964573332466
 20
301.6176526056396
 30
0.0
  0
SPLINE
  5
1DF
330
1F
100
AcDbEntity
  8
1
100
AcDbSpline
210
0.0
220
0.0
230
1.0
 70
     8
 71
     3
 72
    10
 73
     6
 74
     0
 42
0.000000001
 43
0.0000000001
 40
0.0
 40
0.0
 40
0.0
 40
0.0
 40
0.5
 40
0.5
 40
1.0
 40
1.0
 40
1.0
 40
1.0
 10
427.2482910260965
 20
301.0699481817857
 30
0.0
 10
427.2518554574448
 20
301.0801579363416
 30
0.0
 10
427.257065918039
 20
301.089394100571
 30
0.0
 10
427.2704364223157
 20
301.1057757579389
 30
0.0
 10
427.2783065297309
 20
301.112590737173
 30
0.0
 10
427.2873474577416
 20
301.1180500557637
 30
0.0
  0
LINE
  5
1F8
330
1F
100
AcDbEntity
  8
SK4
100
AcDbLine
 10
210.904842
 20
288.907994
 30
0.0
 11
277.404842
 21
288.907994
 31
0.0
  0
LINE
  5
1F9
330
1F
100
AcDbEntity
  8
4
100
AcDbLine
 10
267.203832
 20
288.907994
 30
0.0
 11
435.671162
 21
288.907994
 31
0.0
  0
MTEXT
  5
1FF
330
1F
100
AcDbEntity
  8
SK6
100
AcDbMText
 10
278.633586
 20
248.640145
 30
0.0
 40
3.5
 41
0.0
 71
     7
 72
     5
  1
\W0.7147;804D-33-132-S32
  7
cesky
 73
     2
 44
0.8433729999999998
  0
MTEXT
  5
310
330
1F
100
AcDbEntity
  8
2
100
AcDbMText
 10
448.8768429999999
 20
284.953372
 30
0.0
 40
3.5
 41
0.0
 71
     7
 72
     5
  1
\W0.7045;33
  7
cesky
 11
0.0000000000000001
 21
1.0
 31
0.0
 73
     2
 44
0.8433729999999998
  0
MTEXT
  5
311
330
1F
100
AcDbEntity
  8
2
100
AcDbMText
 10
448.8768429999999
 20
278.215872
 30
0.0
 40
3.5
 41
0.0
 71
     7
 72
     5
  1
\W3.0115;\H2.63;%%c\H3.50;
  7
cesky
 11
0.0000000000000001
 21
1.0
 31
0.0
 73
     2
 44
0.8433729999999998
  0
LINE
  5
312
330
1F
100
AcDbEntity
  8
2
100
AcDbLine
 10
433.404842
 20
305.407994
 30
0.0
 11
450.0642599999999
 21
305.407994
 31
0.0
  0
LINE
  5
313
330
1F
100
AcDbEntity
  8
2
100
AcDbLine
 10
449.06426
 20
305.407994
 30
0.0
 11
449.06426
 21
278.058372
 31
0.0
  0
SOLID
  5
314
330
1F
100
AcDbEntity
  8
2
100
AcDbTrace
 10
449.06426
 20
305.407994
 30
0.0
 11
449.681404
 21
301.907996
 31
0.0
 12
448.447115
 22
301.907991
 32
0.0
 13
448.447115
 23
301.907991
 33
0.0
  0
MTEXT
  5
315
330
1F
100
AcDbEntity
  8
2
100
AcDbMText
 10
319.827842
 20
347.267008
 30
0.0
 40
3.5
 41
0.0
 71
     7
 72
     5
  1
\W0.7809;217
  7
cesky
 73
     2
 44
0.8433729999999998
  0
LINE
  5
316
330
1F
100
AcDbEntity
  8
2
100
AcDbLine
 10
431.4048419999999
 20
307.407994
 30
0.0
 11
431.4048419999999
 21
348.392842
 31
0.0
  0
LINE
  5
317
330
1F
100
AcDbEntity
  8
2
100
AcDbLine
 10
214.404842
 20
302.907994
 30
0.0
 11
214.404842
 21
348.392842
 31
0.0
  0
LINE
  5
318
330
1F
100
AcDbEntity
  8
2
100
AcDbLine
 10
431.4048419999999
 20
347.392842
 30
0.0
 11
214.404842
 21
347.392842
 31
0.0
  0
SOLID
  5
319
330
1F
100
AcDbEntity
  8
2
100
AcDbTrace
 10
431.4048419999999
 20
347.392842
 30
0.0
 11
427.904844
 21
346.775697
 31
0.0
 12
427.90484
 22
348.009986
 32
0.0
 13
427.90484
 23
348.009986
 33
0.0
  0
SOLID
  5
31A
330
1F
100
AcDbEntity
  8
2
100
AcDbTrace
 10
214.404842
 20
347.392842
 30
0.0
 11
217.90484
 21
348.009986
 31
0.0
 12
217.904844
 22
346.775697
 32
0.0
 13
217.904844
 23
346.775697
 33
0.0
  0
MTEXT
  5
31B
330
1F
100
AcDbEntity
  8
2
100
AcDbMText
 10
242.590342
 20
333.821465
 30
0.0
 40
3.5
 41
0.0
 71
     7
 72
     5
  1
\W0.7045;60
  7
cesky
 73
     2
 44
0.8433729999999998
  0
LINE
  5
31C
330
1F
100
AcDbEntity
  8
2
100
AcDbLine
 10
274.404842
 20
288.907994
 30
0.0
 11
274.404842
 21
334.9472990000001
 31
0.0
  0
LINE
  5
31D
330
1F
100
AcDbEntity
  8
2
100
AcDbLine
 10
214.404842
 20
302.907994
 30
0.0
 11
214.404842
 21
334.9472990000001
 31
0.0
  0
LINE
  5
31E
330
1F
100
AcDbEntity
  8
2
100
AcDbLine
 10
274.404842
 20
333.947299
 30
0.0
 11
214.404842
 21
333.947299
 31
0.0
  0
SOLID
  5
31F
330
1F
100
AcDbEntity
  8
2
100
AcDbTrace
 10
274.404842
 20
333.947299
 30
0.0
 11
270.904844
 21
333.330154
 31
0.0
 12
270.90484
 22
334.5644430000001
 32
0.0
 13
270.90484
 23
334.5644430000001
 33
0.0
  0
SOLID
  5
320
330
1F
100
AcDbEntity
  8
2
100
AcDbTrace
 10
214.404842
 20
333.947299
 30
0.0
 11
217.90484
 21
334.5644430000001
 31
0.0
 12
217.904844
 22
333.330154
 32
0.0
 13
217.904844
 23
333.330154
 33
0.0
  0
MTEXT
  5
321
330
1F
100
AcDbEntity
  8
2
100
AcDbMText
 10
357.804797
 20
320.326608
 30
0.0
 40
3.5
 41
0.0
 71
     7
 72
     5
  1
\W0.9524;141
  7
cesky
 73
     2
 44
0.8433729999999998
  0
LINE
  5
322
330
1F
100
AcDbEntity
  8
2
100
AcDbLine
 10
431.4048419999999
 20
307.407994
 30
0.0
 11
431.4048419999999
 21
321.452442
 31
0.0
  0
LINE
  5
323
330
1F
100
AcDbEntity
  8
2
100
AcDbLine
 10
290.358753
 20
305.215491
 30
0.0
 11
290.358753
 21
321.452442
 31
0.0
  0
LINE
  5
324
330
1F
100
AcDbEntity
  8
2
100
AcDbLine
 10
431.4048419999999
 20
320.452442
 30
0.0
 11
290.358753
 21
320.452442
 31
0.0
  0
SOLID
  5
325
330
1F
100
AcDbEntity
  8
2
100
AcDbTrace
 10
431.4048419999999
 20
320.452442
 30
0.0
 11
427.904844
 21
319.835297
 31
0.0
 12
427.90484
 22
321.069586
 32
0.0
 13
427.90484
 23
321.069586
 33
0.0
  0
SOLID
  5
326
330
1F
100
AcDbEntity
  8
2
100
AcDbTrace
 10
290.358753
 20
320.452442
 30
0.0
 11
293.858751
 21
321.069586
 31
0.0
 12
293.858755
 22
319.835297
 32
0.0
 13
293.858755
 23
319.835297
 33
0.0
  0
MTEXT
  5
327
330
1F
100
AcDbEntity
  8
2
100
AcDbMText
 10
349.827842
 20
333.821465
 30
0.0
 40
3.5
 41
0.0
 71
     7
 72
     5
  1
\W0.7809;157
  7
cesky
 73
     2
 44
0.8433729999999998
  0
LINE
  5
328
330
1F
100
AcDbEntity
  8
2
100
AcDbLine
 10
431.4048419999999
 20
305.407994
 30
0.0
 11
431.4048419999999
 21
334.9472990000001
 31
0.0
  0
LINE
  5
329
330
1F
100
AcDbEntity
  8
2
100
AcDbLine
 10
274.404842
 20
289.907567
 30
0.0
 11
274.404842
 21
334.9472990000001
 31
0.0
  0
LINE
  5
32A
330
1F
100
AcDbEntity
  8
2
100
AcDbLine
 10
431.4048419999999
 20
333.947299
 30
0.0
 11
274.404842
 21
333.947299
 31
0.0
  0
SOLID
  5
32B
330
1F
100
AcDbEntity
  8
2
100
AcDbTrace
 10
431.4048419999999
 20
333.947299
 30
0.0
 11
427.904844
 21
333.330154
 31
0.0
 12
427.90484
 22
334.5644430000001
 32
0.0
 13
427.90484
 23
334.5644430000001
 33
0.0
  0
SOLID
  5
32C
330
1F
100
AcDbEntity
  8
2
100
AcDbTrace
 10
274.404842
 20
333.947299
 30
0.0
 11
277.90484
 21
334.5644430000001
 31
0.0
 12
277.904844
 22
333.330154
 32
0.0
 13
277.904844
 23
333.330154
 33
0.0
  0
MTEXT
  5
32D
330
1F
100
AcDbEntity
  8
SK2
100
AcDbMText
 10
204.480913
 20
290.434244
 30
0.0
 40
3.5
 41
0.0
 71
     7
 72
     5
  1
\W0.7045;32
  7
cesky
 11
0.0000000000000001
 21
1.0
 31
0.0
 73
     2
 44
0.8433729999999998
  0
MTEXT
  5
32E
330
1F
100
AcDbEntity
  8
SK2
100
AcDbMText
 10
204.480913
 20
283.696744
 30
0.0
 40
3.5
 41
0.0
 71
     7
 72
     5
  1
\W3.0115;\H2.63;%%c\H3.50;
  7
cesky
 11
0.0000000000000001
 21
1.0
 31
0.0
 73
     2
 44
0.8433729999999998
  0
LINE
  5
32F
330
1F
100
AcDbEntity
  8
SK2
100
AcDbLine
 10
216.404842
 20
304.907994
 30
0.0
 11
203.66833
 21
304.907994
 31
0.0
  0
LINE
  5
330
330
1F
100
AcDbEntity
  8
SK2
100
AcDbLine
 10
216.404842
 20
272.907994
 30
0.0
 11
203.66833
 21
272.907994
 31
0.0
  0
LINE
  5
331
330
1F
100
AcDbEntity
  8
SK2
100
AcDbLine
 10
204.66833
 20
304.907994
 30
0.0
 11
204.66833
 21
272.907994
 31
0.0
  0
SOLID
  5
332
330
1F
100
AcDbEntity
  8
SK2
100
AcDbTrace
 10
204.66833
 20
304.907994
 30
0.0
 11
205.285474
 21
301.407996
 31
0.0
 12
204.051185
 22
301.407991
 32
0.0
 13
204.051185
 23
301.407991
 33
0.0
  0
SOLID
  5
333
330
1F
100
AcDbEntity
  8
SK2
100
AcDbTrace
 10
204.66833
 20
272.907994
 30
0.0
 11
204.051185
 21
276.407991
 31
0.0
 12
205.285474
 22
276.407996
 32
0.0
 13
205.285474
 23
276.407996
 33
0.0
  0
MTEXT
  5
334
330
1F
100
AcDbEntity
  8
SK2
100
AcDbMText
 10
191.916868
 20
290.434244
 30
0.0
 40
3.5
 41
0.0
 71
     7
 72
     5
  1
\W0.7045;42
  7
cesky
 11
0.0000000000000001
 21
1.0
 31
0.0
 73
     2
 44
0.8433729999999998
  0
MTEXT
  5
335
330
1F
100
AcDbEntity
  8
SK2
100
AcDbMText
 10
191.916868
 20
283.696744
 30
0.0
 40
3.5
 41
0.0
 71
     7
 72
     5
  1
\W3.0115;\H2.63;%%c\H3.50;
  7
cesky
 11
0.0000000000000001
 21
1.0
 31
0.0
 73
     2
 44
0.8433729999999998
  0
LINE
  5
336
330
1F
100
AcDbEntity
  8
SK2
100
AcDbLine
 10
274.904842
 20
309.907994
 30
0.0
 11
191.104285
 21
309.907994
 31
0.0
  0
LINE
  5
337
330
1F
100
AcDbEntity
  8
SK2
100
AcDbLine
 10
274.904842
 20
267.907994
 30
0.0
 11
191.104285
 21
267.907994
 31
0.0
  0
LINE
  5
338
330
1F
100
AcDbEntity
  8
SK2
100
AcDbLine
 10
192.104285
 20
309.907994
 30
0.0
 11
192.104285
 21
267.907994
 31
0.0
  0
SOLID
  5
339
330
1F
100
AcDbEntity
  8
SK2
100
AcDbTrace
 10
192.104285
 20
309.907994
 30
0.0
 11
192.721429
 21
306.407996
 31
0.0
 12
191.48714
 22
306.407991
 32
0.0
 13
191.48714
 23
306.407991
 33
0.0
  0
SOLID
  5
33A
330
1F
100
AcDbEntity
  8
SK2
100
AcDbTrace
 10
192.104285
 20
267.907994
 30
0.0
 11
191.48714
 21
271.4079910000001
 31
0.0
 12
192.721429
 22
271.407996
 32
0.0
 13
192.721429
 23
271.407996
 33
0.0
  0
LINE
  5
33B
330
1F
100
AcDbEntity
  8
CUT
100
AcDbLine
 10
431.2754235247552
 20
296.6161586575744
 30
0.0
 11
431.3998607906598
 21
289.4950830522923
 31
0.0
  0
LINE
  5
33E
330
1F
100
AcDbEntity
  8
CUT
100
AcDbLine
 10
430.7587978615782
 20
304.662501065788
 30
0.0
 11
431.031654694514
 21
297.0984238339418
 31
0.0
  0
LINE
  5
340
330
1F
100
AcDbEntity
  8
CUT
100
AcDbLine
 10
421.9859945339268
 20
305.1111561585326
 30
0.0
 11
429.9586795366028
 21
305.4049848808489
 31
0.0
  0
LINE
  5
341
330
1F
100
AcDbEntity
  8
CUT
100
AcDbLine
 10
431.031654694514
 20
297.098423833942
 30
0.0
 11
431.2334058386329
 21
296.7626796414265
 31
0.0
  0
LINE
  5
342
330
1F
100
AcDbEntity
  8
CUT
100
AcDbLine
 10
421.241391
 20
288.907994
 30
0.0
 11
421.241391
 21
304.311338
 31
0.0
  0
LINE
  5
343
330
1F
100
AcDbEntity
  8
CUT
100
AcDbLine
 10
431.399861
 20
288.907994
 30
0.0
 11
421.241391
 21
288.907994
 31
0.0
  0
LINE
  5
344
330
1F
100
AcDbEntity
  8
CUT
100
AcDbLine
 10
431.399861
 20
289.495083
 30
0.0
 11
431.399861
 21
288.907994
 31
0.0
  0
ARC
  5
345
330
1F
100
AcDbEntity
  8
CUT
100
AcDbCircle
 10
422.023673236564
 20
304.3299202537958
 30
0.0
 40
0.7825029129901285
100
AcDbArc
 50
95.52612475023343
 51
181.3607782712095
  0
ARC
  5
346
330
1F
100
AcDbEntity
  8
CUT
100
AcDbCircle
 10
422.0126416200021
 20
304.3868183549084
 30
0.0
 40
0.7248277871022534
100
AcDbArc
 50
92.10685864940975
 51
95.09127420039353
  0
LINE
  5
347
330
1F
100
AcDbEntity
  8
CUT
100
AcDbLine
 10
431.2334058386331
 20
296.7626796414267
 30
0.0
 11
431.2334058386331
 21
296.7626796414267
 31
0.0
  0
ARC
  5
348
330
1F
100
AcDbEntity
  8
CUT
100
AcDbCircle
 10
430.9810584238199
 20
296.6110290299358
 30
0.0
 40
0.2944097921748802
100
AcDbArc
 50
0.9983393707339526
 51
31.00416831762218
  0
ARC
  5
349
330
1F
100
AcDbEntity
  8
CUT
100
AcDbCircle
 10
429.979197368029
 20
304.6241332151046
 30
0.0
 40
0.7811211847735306
100
AcDbArc
 50
6.969229218965051
 51
91.50517025465163
  0
ARC
  5
34A
330
1F
100
AcDbEntity
  8
CUT
100
AcDbCircle
 10
430.0367365592723
 20
304.6364575397829
 30
0.0
 40
0.7225308225498014
100
AcDbArc
 50
2.065666102868786
 51
6.552774403302176
  0
ENDSEC
  0
SECTION
  2
OBJECTS
  0
DICTIONARY
  5
C
330
0
100
AcDbDictionary
281
     1
  3
ACAD_CIP_PREVIOUS_PRODUCT_INFO
350
30D
  3
ACAD_COLOR
350
308
  3
ACAD_DETAILVIEWSTYLE
350
304
  3
ACAD_GROUP
350
D
  3
ACAD_LAYOUT
350
1A
  3
ACAD_MATERIAL
350
43
  3
ACAD_MLEADERSTYLE
350
6B
  3
ACAD_MLINESTYLE
350
17
  3
ACAD_PLOTSETTINGS
350
19
  3
ACAD_PLOTSTYLENAME
350
E
  3
ACAD_SCALELIST
350
47
  3
ACAD_SECTIONVIEWSTYLE
350
305
  3
ACAD_TABLESTYLE
350
69
  3
ACAD_VISUALSTYLE
350
2A
  3
ACDB_RECOMPOSE_DATA
350
376
  3
AcDbVariableDictionary
350
2C1
  0
DICTIONARY
  5
359
330
10
100
AcDbDictionary
280
     1
281
     1
  3
ADSK_XREC_LAYER_RECONCILED
360
35A
  0
DICTIONARY
  5
35B
330
34B
100
AcDbDictionary
280
     1
281
     1
  3
ADSK_XREC_LAYER_RECONCILED
360
35C
  0
DICTIONARY
  5
35D
330
34C
100
AcDbDictionary
280
     1
281
     1
  3
ADSK_XREC_LAYER_RECONCILED
360
35E
  0
DICTIONARY
  5
35F
330
34D
100
AcDbDictionary
280
     1
281
     1
  3
ADSK_XREC_LAYER_RECONCILED
360
360
  0
DICTIONARY
  5
361
330
34F
100
AcDbDictionary
280
     1
281
     1
  3
ADSK_XREC_LAYER_RECONCILED
360
362
  0
DICTIONARY
  5
363
330
350
100
AcDbDictionary
280
     1
281
     1
  3
ADSK_XREC_LAYER_RECONCILED
360
364
  0
DICTIONARY
  5
365
330
352
100
AcDbDictionary
280
     1
281
     1
  3
ADSK_XREC_LAYER_RECONCILED
360
366
  0
DICTIONARY
  5
367
330
353
100
AcDbDictionary
280
     1
281
     1
  3
ADSK_XREC_LAYER_RECONCILED
360
368
  0
DICTIONARY
  5
369
330
354
100
AcDbDictionary
280
     1
281
     1
  3
ADSK_XREC_LAYER_RECONCILED
360
36A
  0
DICTIONARY
  5
36B
330
355
100
AcDbDictionary
280
     1
281
     1
  3
ADSK_XREC_LAYER_RECONCILED
360
36C
  0
DICTIONARY
  5
36D
330
356
100
AcDbDictionary
280
     1
281
     1
  3
ADSK_XREC_LAYER_RECONCILED
360
36E
  0
DICTIONARY
  5
36F
330
357
100
AcDbDictionary
280
     1
281
     1
  3
ADSK_XREC_LAYER_RECONCILED
360
370
  0
DICTIONARY
  5
30E
330
1F
100
AcDbDictionary
280
     1
281
     1
  3
ACAD_SORTENTS
360
30F
  0
XRECORD
  5
30D
102
{ACAD_REACTORS
330
C
102
}
330
C
100
AcDbXrecord
280
     1
300
ACD
300
2019
300
87084ACD_2019_0F
  0
DICTIONARY
  5
308
102
{ACAD_REACTORS
330
C
102
}
330
C
100
AcDbDictionary
281
     1
  0
DICTIONARY
  5
304
102
{ACAD_REACTORS
330
C
102
}
330
C
100
AcDbDictionary
281
     1
  3
Metric50
350
30A
  0
DICTIONARY
  5
D
102
{ACAD_REACTORS
330
C
102
}
330
C
100
AcDbDictionary
281
     1
  3
NULOVY_BOD
350
358
  0
DICTIONARY
  5
1A
102
{ACAD_REACTORS
330
C
102
}
330
C
100
AcDbDictionary
281
     1
  3
Layout1
350
1E
  3
Layout2
350
26
  3
Model
350
22
  0
DICTIONARY
  5
43
102
{ACAD_REACTORS
330
C
102
}
330
C
100
AcDbDictionary
281
     1
  3
ByBlock
350
45
  3
ByLayer
350
44
  3
Global
350
46
  0
DICTIONARY
  5
6B
102
{ACAD_REACTORS
330
C
102
}
330
C
100
AcDbDictionary
281
     1
  3
Standard
350
6C
  0
DICTIONARY
  5
17
102
{ACAD_REACTORS
330
C
102
}
330
C
100
AcDbDictionary
281
     1
  3
Standard
350
18
  0
DICTIONARY
  5
19
102
{ACAD_REACTORS
330
C
102
}
330
C
100
AcDbDictionary
281
     1
  0
ACDBDICTIONARYWDFLT
  5
E
102
{ACAD_REACTORS
330
C
102
}
330
C
100
AcDbDictionary
281
     1
  3
Normal
350
F
100
AcDbDictionaryWithDefault
340
F
  0
DICTIONARY
  5
47
102
{ACAD_REACTORS
330
C
102
}
330
C
100
AcDbDictionary
281
     1
  3
A0
350
48
  3
A1
350
49
  3
A2
350
4A
  3
A3
350
4B
  3
A4
350
4C
  3
A5
350
4D
  3
A6
350
4E
  3
A7
350
4F
  3
A8
350
50
  3
A9
350
51
  3
B0
350
52
  3
B1
350
53
  3
B2
350
54
  3
B3
350
55
  3
B4
350
56
  3
B5
350
57
  3
B6
350
58
  3
B7
350
59
  3
B8
350
5A
  3
B9
350
5B
  3
C0
350
5C
  3
C1
350
5D
  3
C2
350
5E
  3
C3
350
5F
  3
C4
350
60
  3
C5
350
61
  3
C6
350
62
  3
C7
350
63
  3
C8
350
64
  3
C9
350
65
  3
D0
350
66
  3
D1
350
67
  3
D2
350
68
  0
DICTIONARY
  5
305
102
{ACAD_REACTORS
330
C
102
}
330
C
100
AcDbDictionary
281
     1
  3
Metric50
350
309
  0
DICTIONARY
  5
69
102
{ACAD_REACTORS
330
C
102
}
330
C
100
AcDbDictionary
281
     1
  3
Standard
350
6A
  0
DICTIONARY
  5
2A
102
{ACAD_REACTORS
330
C
102
}
330
C
100
AcDbDictionary
281
     1
  3
2dWireframe
350
2F
  3
Basic
350
32
  3
Brighten
350
36
  3
ColorChange
350
3A
  3
Conceptual
350
34
  3
Dim
350
35
  3
EdgeColorOff
350
3D
  3
Facepattern
350
39
  3
Flat
350
2B
  3
FlatWithEdges
350
2C
  3
Gouraud
350
2D
  3
GouraudWithEdges
350
2E
  3
Hidden
350
31
  3
JitterOff
350
3B
  3
Linepattern
350
38
  3
OverhangOff
350
3C
  3
Realistic
350
33
  3
Shaded
350
42
  3
Shaded with edges
350
41
  3
Shades of Gray
350
3E
  3
Sketchy
350
3F
  3
Thicken
350
37
  3
Wireframe
350
30
  3
X-Ray
350
40
  0
XRECORD
  5
376
102
{ACAD_REACTORS
330
C
102
}
330
C
100
AcDbXrecord
280
     1
 90
        1
330
6A
  0
DICTIONARY
  5
2C1
102
{ACAD_REACTORS
330
C
102
}
330
C
100
AcDbDictionary
281
     1
  3
CANNOSCALE
350
2C2
  3
CMLEADERSTYLE
350
303
  3
CTABLESTYLE
350
302
  3
CVIEWDETAILSTYLE
350
371
  3
CVIEWSECTIONSTYLE
350
372
  3
MSLTSCALE
350
2C3
  3
XCLIPFRAME
350
373
  0
XRECORD
  5
35A
102
{ACAD_REACTORS
330
359
102
}
330
359
100
AcDbXrecord
280
     1
290
     1
  0
XRECORD
  5
35C
102
{ACAD_REACTORS
330
35B
102
}
330
35B
100
AcDbXrecord
280
     1
290
     1
  0
XRECORD
  5
35E
102
{ACAD_REACTORS
330
35D
102
}
330
35D
100
AcDbXrecord
280
     1
290
     1
  0
XRECORD
  5
360
102
{ACAD_REACTORS
330
35F
102
}
330
35F
100
AcDbXrecord
280
     1
290
     1
  0
XRECORD
  5
362
102
{ACAD_REACTORS
330
361
102
}
330
361
100
AcDbXrecord
280
     1
290
     1
  0
XRECORD
  5
364
102
{ACAD_REACTORS
330
363
102
}
330
363
100
AcDbXrecord
280
     1
290
     1
  0
XRECORD
  5
366
102
{ACAD_REACTORS
330
365
102
}
330
365
100
AcDbXrecord
280
     1
290
     1
  0
XRECORD
  5
368
102
{ACAD_REACTORS
330
367
102
}
330
367
100
AcDbXrecord
280
     1
290
     1
  0
XRECORD
  5
36A
102
{ACAD_REACTORS
330
369
102
}
330
369
100
AcDbXrecord
280
     1
290
     1
  0
XRECORD
  5
36C
102
{ACAD_REACTORS
330
36B
102
}
330
36B
100
AcDbXrecord
280
     1
290
     1
  0
XRECORD
  5
36E
102
{ACAD_REACTORS
330
36D
102
}
330
36D
100
AcDbXrecord
280
     1
290
     1
  0
XRECORD
  5
370
102
{ACAD_REACTORS
330
36F
102
}
330
36F
100
AcDbXrecord
280
     1
290
     1
  0
SORTENTSTABLE
  5
30F
102
{ACAD_REACTORS
330
30E
102
}
330
30E
100
AcDbSortentsTable
330
1F
331
310
  5
21B
331
311
  5
234
331
312
  5
310
331
313
  5
311
331
314
  5
312
331
315
  5
323
331
316
  5
324
331
317
  5
325
331
318
  5
326
331
319
  5
327
331
31A
  5
328
331
31B
  5
329
331
31C
  5
32A
331
31D
  5
32B
331
31E
  5
32C
331
31F
  5
32D
331
320
  5
32E
331
321
  5
32F
331
322
  5
330
331
323
  5
331
331
324
  5
332
331
325
  5
333
331
326
  5
334
331
327
  5
335
331
328
  5
336
331
329
  5
337
331
32A
  5
338
331
32B
  5
339
331
32C
  5
33A
331
32D
  5
315
331
32E
  5
316
331
32F
  5
317
331
330
  5
318
331
331
  5
319
331
332
  5
31A
331
333
  5
31B
331
334
  5
31C
331
335
  5
31D
331
336
  5
31E
331
337
  5
31F
331
338
  5
320
331
339
  5
321
331
33A
  5
322
331
33E
  5
343
331
340
  5
346
331
341
  5
347
331
342
  5
348
331
343
  5
349
331
344
  5
34A
331
345
  5
33E
331
346
  5
340
331
347
  5
341
331
348
  5
342
331
349
  5
344
331
34A
  5
345
  0
ACDBDETAILVIEWSTYLE
  5
30A
102
{ACAD_XDICTIONARY
360
3AA
102
}
102
{ACAD_REACTORS
330
304
102
}
330
304
100
AcDbModelDocViewStyle
 70
     0
  3
Metric50
290
     0
100
AcDbDetailViewStyle
 70
     0
 71
     0
 90
        3
 71
     1
340
11
 62
   256
 40
5.0
340
0
 62
   256
 40
5.0
300

 40
0.0
280
     1
 71
     2
340
16
 90
       25
 62
   256
 71
     3
340
11
 62
   256
 40
5.0
 90
        0
 40
15.0
 90
        1
300
%<\AcVar ViewDetailId>% (%<\AcVar ViewScale \f "%sn">%)
 71
     4
340
16
 90
       25
 62
   256
340
16
 90
       25
 62
   256
280
     0
  0
GROUP
  5
358
102
{ACAD_REACTORS
330
D
102
}
330
D
100
AcDbGroup
300

 70
     0
 71
     1
340
73
  0
LAYOUT
  5
1E
102
{ACAD_REACTORS
330
1A
102
}
330
1A
100
AcDbPlotSettings
  1

  2
none_device
  4

  6

 40
0.0
 41
0.0
 42
0.0
 43
0.0
 44
0.0
 45
0.0
 46
0.0
 47
0.0
 48
0.0
 49
0.0
140
0.0
141
0.0
142
1.0
143
1.0
 70
   688
 72
     0
 73
     0
 74
     5
  7

 75
    16
147
1.0
 76
     0
 77
     2
 78
   300
148
0.0
149
0.0
100
AcDbLayout
  1
Layout1
 70
     1
 71
     1
 10
-0.5
 20
-0.5
 11
5.0
 21
5.0
 12
0.0
 22
0.0
 32
0.0
 14
-0.5
 24
-0.5
 34
-0.5
 15
5.0
 25
5.0
 35
5.0
146
0.0
 13
0.0
 23
0.0
 33
0.0
 16
1.0
 26
0.0
 36
0.0
 17
0.0
 27
1.0
 37
0.0
 76
     0
330
1B
  0
LAYOUT
  5
26
102
{ACAD_REACTORS
330
1A
102
}
330
1A
100
AcDbPlotSettings
  1

  2
none_device
  4

  6

 40
0.0
 41
0.0
 42
0.0
 43
0.0
 44
0.0
 45
0.0
 46
0.0
 47
0.0
 48
0.0
 49
0.0
140
0.0
141
0.0
142
1.0
143
1.0
 70
   688
 72
     0
 73
     0
 74
     5
  7

 75
    16
147
1.0
 76
     0
 77
     2
 78
   300
148
0.0
149
0.0
100
AcDbLayout
  1
Layout2
 70
     1
 71
     2
 10
0.0
 20
0.0
 11
0.0
 21
0.0
 12
0.0
 22
0.0
 32
0.0
 14
0.0
 24
0.0
 34
0.0
 15
0.0
 25
0.0
 35
0.0
146
0.0
 13
0.0
 23
0.0
 33
0.0
 16
1.0
 26
0.0
 36
0.0
 17
0.0
 27
1.0
 37
0.0
 76
     0
330
23
  0
LAYOUT
  5
22
102
{ACAD_REACTORS
330
1A
102
}
330
1A
100
AcDbPlotSettings
  1

  2
none_device
  4
Letter_(8.50_x_11.00_Inches)
  6

 40
6.349999999999999
 41
6.349999999999999
 42
6.350005
 43
6.350005
 44
215.9
 45
279.4
 46
0.0
 47
0.0
 48
0.0
 49
0.0
140
0.0
141
0.0
142
1.0
143
1.0
 70
  1712
 72
     0
 73
     0
 74
     0
  7

 75
     0
147
1.0
 76
     0
 77
     2
 78
   300
148
0.0
149
0.0
100
AcDbLayout
  1
Model
 70
     1
 71
     0
 10
-0.5
 20
-0.5
 11
5.0
 21
5.0
 12
0.0
 22
0.0
 32
0.0
 14
-0.5
 24
-0.5
 34
-0.5
 15
5.0
 25
5.0
 35
5.0
146
0.0
 13
0.0
 23
0.0
 33
0.0
 16
1.0
 26
0.0
 36
0.0
 17
0.0
 27
1.0
 37
0.0
 76
     0
330
1F
331
29
  0
MATERIAL
  5
45
102
{ACAD_XDICTIONARY
360
2F7
102
}
102
{ACAD_REACTORS
330
43
102
}
330
43
100
AcDbMaterial
  1
ByBlock
  0
MATERIAL
  5
44
102
{ACAD_XDICTIONARY
360
2F5
102
}
102
{ACAD_REACTORS
330
43
102
}
330
43
100
AcDbMaterial
  1
ByLayer
  0
MATERIAL
  5
46
102
{ACAD_XDICTIONARY
360
2F9
102
}
102
{ACAD_REACTORS
330
43
102
}
330
43
100
AcDbMaterial
  1
Global
  0
MLEADERSTYLE
  5
6C
102
{ACAD_REACTORS
330
6B
102
}
330
6B
100
AcDbMLeaderStyle
170
     2
171
     1
172
     0
 90
        2
 40
0.0
 41
0.0
173
     1
 91
-1056964608
340
14
 92
       -2
290
     1
 42
0.09
291
     1
 43
0.36
  3
Standard
 44
0.18
300

342
11
174
     1
178
     6
175
     1
176
     0
 93
-1056964608
 45
0.18
292
     0
297
     0
 46
0.18
 94
-1056964608
 47
1.0
 49
1.0
140
1.0
293
     1
141
0.0
294
     1
177
     0
142
1.0
295
     0
296
     0
143
0.125
1001
ACAD_MLEADERVER
1070
     2
  0
MLINESTYLE
  5
18
102
{ACAD_REACTORS
330
17
102
}
330
17
100
AcDbMlineStyle
  2
STANDARD
 70
     0
  3

 62
   256
 51
90.0
 52
90.0
 71
     2
 49
0.5
 62
   256
  6
BYLAYER
 49
-0.5
 62
   256
  6
BYLAYER
  0
ACDBPLACEHOLDER
  5
F
102
{ACAD_REACTORS
330
E
102
}
330
E
  0
SCALE
  5
48
102
{ACAD_REACTORS
330
47
102
}
330
47
100
AcDbScale
 70
     0
300
1:1
140
1.0
141
1.0
290
     1
  0
SCALE
  5
49
102
{ACAD_REACTORS
330
47
102
}
330
47
100
AcDbScale
 70
     0
300
1:2
140
1.0
141
2.0
290
     0
  0
SCALE
  5
4A
102
{ACAD_REACTORS
330
47
102
}
330
47
100
AcDbScale
 70
     0
300
1:4
140
1.0
141
4.0
290
     0
  0
SCALE
  5
4B
102
{ACAD_REACTORS
330
47
102
}
330
47
100
AcDbScale
 70
     0
300
1:5
140
1.0
141
5.0
290
     0
  0
SCALE
  5
4C
102
{ACAD_REACTORS
330
47
102
}
330
47
100
AcDbScale
 70
     0
300
1:8
140
1.0
141
8.0
290
     0
  0
SCALE
  5
4D
102
{ACAD_REACTORS
330
47
102
}
330
47
100
AcDbScale
 70
     0
300
1:10
140
1.0
141
10.0
290
     0
  0
SCALE
  5
4E
102
{ACAD_REACTORS
330
47
102
}
330
47
100
AcDbScale
 70
     0
300
1:16
140
1.0
141
16.0
290
     0
  0
SCALE
  5
4F
102
{ACAD_REACTORS
330
47
102
}
330
47
100
AcDbScale
 70
     0
300
1:20
140
1.0
141
20.0
290
     0
  0
SCALE
  5
50
102
{ACAD_REACTORS
330
47
102
}
330
47
100
AcDbScale
 70
     0
300
1:30
140
1.0
141
30.0
290
     0
  0
SCALE
  5
51
102
{ACAD_REACTORS
330
47
102
}
330
47
100
AcDbScale
 70
     0
300
1:40
140
1.0
141
40.0
290
     0
  0
SCALE
  5
52
102
{ACAD_REACTORS
330
47
102
}
330
47
100
AcDbScale
 70
     0
300
1:50
140
1.0
141
50.0
290
     0
  0
SCALE
  5
53
102
{ACAD_REACTORS
330
47
102
}
330
47
100
AcDbScale
 70
     0
300
1:100
140
1.0
141
100.0
290
     0
  0
SCALE
  5
54
102
{ACAD_REACTORS
330
47
102
}
330
47
100
AcDbScale
 70
     0
300
2:1
140
2.0
141
1.0
290
     0
  0
SCALE
  5
55
102
{ACAD_REACTORS
330
47
102
}
330
47
100
AcDbScale
 70
     0
300
4:1
140
4.0
141
1.0
290
     0
  0
SCALE
  5
56
102
{ACAD_REACTORS
330
47
102
}
330
47
100
AcDbScale
 70
     0
300
8:1
140
8.0
141
1.0
290
     0
  0
SCALE
  5
57
102
{ACAD_REACTORS
330
47
102
}
330
47
100
AcDbScale
 70
     0
300
10:1
140
10.0
141
1.0
290
     0
  0
SCALE
  5
58
102
{ACAD_REACTORS
330
47
102
}
330
47
100
AcDbScale
 70
     0
300
100:1
140
100.0
141
1.0
290
     0
  0
SCALE
  5
59
102
{ACAD_REACTORS
330
47
102
}
330
47
100
AcDbScale
 70
     0
300
1/128" = 1'-0"
140
0.007812
141
12.0
290
     0
  0
SCALE
  5
5A
102
{ACAD_REACTORS
330
47
102
}
330
47
100
AcDbScale
 70
     0
300
1/64" = 1'-0"
140
0.015625
141
12.0
290
     0
  0
SCALE
  5
5B
102
{ACAD_REACTORS
330
47
102
}
330
47
100
AcDbScale
 70
     0
300
1/32" = 1'-0"
140
0.03125
141
12.0
290
     0
  0
SCALE
  5
5C
102
{ACAD_REACTORS
330
47
102
}
330
47
100
AcDbScale
 70
     0
300
1/16" = 1'-0"
140
0.0625
141
12.0
290
     0
  0
SCALE
  5
5D
102
{ACAD_REACTORS
330
47
102
}
330
47
100
AcDbScale
 70
     0
300
3/32" = 1'-0"
140
0.09375
141
12.0
290
     0
  0
SCALE
  5
5E
102
{ACAD_REACTORS
330
47
102
}
330
47
100
AcDbScale
 70
     0
300
1/8" = 1'-0"
140
0.125
141
12.0
290
     0
  0
SCALE
  5
5F
102
{ACAD_REACTORS
330
47
102
}
330
47
100
AcDbScale
 70
     0
300
3/16" = 1'-0"
140
0.1875
141
12.0
290
     0
  0
SCALE
  5
60
102
{ACAD_REACTORS
330
47
102
}
330
47
100
AcDbScale
 70
     0
300
1/4" = 1'-0"
140
0.25
141
12.0
290
     0
  0
SCALE
  5
61
102
{ACAD_REACTORS
330
47
102
}
330
47
100
AcDbScale
 70
     0
300
3/8" = 1'-0"
140
0.375
141
12.0
290
     0
  0
SCALE
  5
62
102
{ACAD_REACTORS
330
47
102
}
330
47
100
AcDbScale
 70
     0
300
1/2" = 1'-0"
140
0.5
141
12.0
290
     0
  0
SCALE
  5
63
102
{ACAD_REACTORS
330
47
102
}
330
47
100
AcDbScale
 70
     0
300
3/4" = 1'-0"
140
0.75
141
12.0
290
     0
  0
SCALE
  5
64
102
{ACAD_REACTORS
330
47
102
}
330
47
100
AcDbScale
 70
     0
300
1" = 1'-0"
140
1.0
141
12.0
290
     0
  0
SCALE
  5
65
102
{ACAD_REACTORS
330
47
102
}
330
47
100
AcDbScale
 70
     0
300
1-1/2" = 1'-0"
140
1.5
141
12.0
290
     0
  0
SCALE
  5
66
102
{ACAD_REACTORS
330
47
102
}
330
47
100
AcDbScale
 70
     0
300
3" = 1'-0"
140
3.0
141
12.0
290
     0
  0
SCALE
  5
67
102
{ACAD_REACTORS
330
47
102
}
330
47
100
AcDbScale
 70
     0
300
6" = 1'-0"
140
6.0
141
12.0
290
     0
  0
SCALE
  5
68
102
{ACAD_REACTORS
330
47
102
}
330
47
100
AcDbScale
 70
     0
300
1'-0" = 1'-0"
140
12.0
141
12.0
290
     0
  0
ACDBSECTIONVIEWSTYLE
  5
309
102
{ACAD_XDICTIONARY
360
3A8
102
}
102
{ACAD_REACTORS
330
305
102
}
330
305
100
AcDbModelDocViewStyle
 70
     0
  3
Metric50
290
     0
100
AcDbSectionViewStyle
 70
     0
 71
     0
 90
      102
 71
     1
340
11
 62
   256
 40
5.0
340
0
340
0
 62
   256
 40
5.0
300
I, O, Q, S, X, Z
 40
10.0
 90
        0
 40
2.5
 90
        0
 71
     2
340
16
 90
       25
 62
   256
340
16
 90
       50
 62
   256
 40
5.0
 40
2.5
 40
5.0
 71
     3
340
11
 62
   256
 40
5.0
 90
        0
 40
15.0
 90
        1
300
%<\AcVar ViewSectionStartId>%-%<\AcVar ViewSectionEndId>% (%<\AcVar ViewScale \f "%sn">%)
 71
     4
 62
   256
 62
   257
300
ANSI31
 40
1.0
 90
        0
290
     0
290
     0
 90
        6
 40
0.0
 40
1.570796326794896
 40
0.2617993877991494
 40
1.308996938995747
 40
-0.2617993877991494
 40
1.832595714594046
  0
TABLESTYLE
  5
6A
102
{ACAD_XDICTIONARY
360
2FB
102
}
102
{ACAD_REACTORS
330
69
102
}
330
69
100
AcDbTableStyle
  3
Standard
 70
     0
 71
     0
 40
0.06
 41
0.06
280
     0
281
     0
  7
Standard
140
0.18
170
     2
 62
     0
 63
     7
283
     0
274
    -2
284
     1
 64
     0
275
    -2
285
     1
 65
     0
276
    -2
286
     1
 66
     0
277
    -2
287
     1
 67
     0
278
    -2
288
     1
 68
     0
279
    -2
289
     1
 69
     0
  7
Standard
140
0.25
170
     5
 62
     0
 63
     7
283
     0
274
    -2
284
     1
 64
     0
275
    -2
285
     1
 65
     0
276
    -2
286
     1
 66
     0
277
    -2
287
     1
 67
     0
278
    -2
288
     1
 68
     0
279
    -2
289
     1
 69
     0
  7
Standard
140
0.18
170
     5
 62
     0
 63
     7
283
     0
274
    -2
284
     1
 64
     0
275
    -2
285
     1
 65
     0
276
    -2
286
     1
 66
     0
277
    -2
287
     1
 67
     0
278
    -2
288
     1
 68
     0
279
    -2
289
     1
 69
     0
  0
VISUALSTYLE
  5
2F
102
{ACAD_XDICTIONARY
360
37F
102
}
102
{ACAD_REACTORS
330
2A
102
}
330
2A
100
AcDbVisualStyle
  2

 70
     4
 71
     0
 72
     2
 73
     0
 90
        0
 40
-0.6
 41
-30.0
 62
     5
 63
     7
421
 16777215
 74
     1
 91
        4
 64
     7
 65
   257
 75
     1
175
     1
 42
1.0
 92
        0
 66
   257
 43
1.0
 76
     1
 77
     6
 78
     2
 67
     7
 79
     5
170
     0
171
     0
290
     0
174
     0
 93
        1
 44
0.0
173
     0
291
     0
 45
0.0
1001
ACAD
1000
AcDbSavedByObjectVersion
1070
     0
  0
VISUALSTYLE
  5
32
102
{ACAD_XDICTIONARY
360
385
102
}
102
{ACAD_REACTORS
330
2A
102
}
330
2A
100
AcDbVisualStyle
  2

 70
     7
 71
     1
 72
     0
 73
     1
 90
        0
 40
-0.6
 41
-30.0
 62
     5
 63
     7
421
 16777215
 74
     0
 91
        4
 64
     7
 65
   257
 75
     1
175
     1
 42
1.0
 92
        8
 66
     7
 43
1.0
 76
     1
 77
     6
 78
     2
 67
     7
 79
     5
170
     0
171
     0
290
     0
174
     0
 93
        1
 44
0.0
173
     0
291
     1
 45
0.0
1001
ACAD
1000
AcDbSavedByObjectVersion
1070
     0
  0
VISUALSTYLE
  5
36
102
{ACAD_XDICTIONARY
360
38D
102
}
102
{ACAD_REACTORS
330
2A
102
}
330
2A
100
AcDbVisualStyle
  2

 70
    12
 71
     2
 72
     2
 73
     0
 90
        0
 40
-0.6
 41
-30.0
 62
     5
 63
     7
421
 16777215
 74
     1
 91
        4
 64
     7
 65
   257
 75
     1
175
     1
 42
1.0
 92
        8
 66
     7
 43
1.0
 76
     1
 77
     6
 78
     2
 67
     7
 79
     5
170
     0
171
     0
290
     0
174
     0
 93
        1
 44
50.0
173
     0
291
     1
 45
0.0
1001
ACAD
1000
AcDbSavedByObjectVersion
1070
     0
  0
VISUALSTYLE
  5
3A
102
{ACAD_XDICTIONARY
360
395
102
}
102
{ACAD_REACTORS
330
2A
102
}
330
2A
100
AcDbVisualStyle
  2

 70
    16
 71
     2
 72
     2
 73
     3
 90
        0
 40
-0.6
 41
-30.0
 62
     5
 63
     8
421
  8421504
 74
     1
 91
        4
 64
     7
 65
   257
 75
     1
175
     1
 42
1.0
 92
        8
 66
     8
424
  8421504
 43
1.0
 76
     1
 77
     6
 78
     2
 67
     7
 79
     5
170
     0
171
     0
290
     0
174
     0
 93
        1
 44
0.0
173
     0
291
     1
 45
0.0
1001
ACAD
1000
AcDbSavedByObjectVersion
1070
     0
  0
VISUALSTYLE
  5
34
102
{ACAD_XDICTIONARY
360
389
102
}
102
{ACAD_REACTORS
330
2A
102
}
330
2A
100
AcDbVisualStyle
  2

 70
     9
 71
     3
 72
     2
 73
     0
 90
        0
 40
-0.6
 41
-30.0
 62
     5
 63
     7
421
 16777215
 74
     2
 91
        2
 64
     7
 65
   257
 75
     1
175
     1
 42
179.0
 92
        8
 66
     7
 43
1.0
 76
     1
 77
     6
 78
     2
 67
     7
 79
     3
170
     0
171
     0
290
     0
174
     0
 93
        1
 44
0.0
173
     0
291
     0
 45
0.0
1001
ACAD
1000
AcDbSavedByObjectVersion
1070
     0
  0
VISUALSTYLE
  5
35
102
{ACAD_XDICTIONARY
360
38B
102
}
102
{ACAD_REACTORS
330
2A
102
}
330
2A
100
AcDbVisualStyle
  2

 70
    11
 71
     2
 72
     2
 73
     0
 90
        0
 40
-0.6
 41
-30.0
 62
     5
 63
     7
421
 16777215
 74
     1
 91
        4
 64
     7
 65
   257
 75
     1
175
     1
 42
1.0
 92
        8
 66
     7
 43
1.0
 76
     1
 77
     6
 78
     2
 67
     7
 79
     5
170
     0
171
     0
290
     0
174
     0
 93
        1
 44
-50.0
173
     0
291
     1
 45
0.0
1001
ACAD
1000
AcDbSavedByObjectVersion
1070
     0
  0
VISUALSTYLE
  5
3D
102
{ACAD_XDICTIONARY
360
39B
102
}
102
{ACAD_REACTORS
330
2A
102
}
330
2A
100
AcDbVisualStyle
  2

 70
    22
 71
     2
 72
     2
 73
     0
 90
        0
 40
-0.6
 41
-30.0
 62
     5
 63
     7
421
 16777215
 74
     1
 91
        4
 64
     7
 65
   257
 75
     1
175
     1
 42
1.0
 92
        8
 66
     7
 43
1.0
 76
     1
 77
     6
 78
     2
 67
     7
 79
     5
170
     0
171
     0
290
     0
174
     0
 93
        1
 44
0.0
173
     0
291
     1
 45
0.0
1001
ACAD
1000
AcDbSavedByObjectVersion
1070
     0
  0
VISUALSTYLE
  5
39
102
{ACAD_XDICTIONARY
360
393
102
}
102
{ACAD_REACTORS
330
2A
102
}
330
2A
100
AcDbVisualStyle
  2

 70
    15
 71
     2
 72
     2
 73
     0
 90
        0
 40
-0.6
 41
-30.0
 62
     5
 63
     7
421
 16777215
 74
     1
 91
        4
 64
     7
 65
   257
 75
     1
175
     1
 42
1.0
 92
        8
 66
     7
 43
1.0
 76
     1
 77
     6
 78
     2
 67
     7
 79
     5
170
     0
171
     0
290
     0
174
     0
 93
        1
 44
0.0
173
     0
291
     1
 45
0.0
1001
ACAD
1000
AcDbSavedByObjectVersion
1070
     0
  0
VISUALSTYLE
  5
2B
102
{ACAD_XDICTIONARY
360
377
102
}
102
{ACAD_REACTORS
330
2A
102
}
330
2A
100
AcDbVisualStyle
  2

 70
     0
 71
     2
 72
     1
 73
     1
 90
        2
 40
-0.6
 41
30.0
 62
     5
 63
     7
421
 16777215
 74
     0
 91
        0
 64
     7
 65
   257
 75
     1
175
     1
 42
1.0
 92
        8
 66
     7
 43
1.0
 76
     1
 77
     6
 78
     2
 67
     7
 79
     5
170
     0
171
     0
290
     0
174
     0
 93
       13
 44
0.0
173
     0
291
     1
 45
0.0
1001
ACAD
1000
AcDbSavedByObjectVersion
1070
     0
  0
VISUALSTYLE
  5
2C
102
{ACAD_XDICTIONARY
360
379
102
}
102
{ACAD_REACTORS
330
2A
102
}
330
2A
100
AcDbVisualStyle
  2

 70
     1
 71
     2
 72
     1
 73
     1
 90
        2
 40
-0.6
 41
30.0
 62
     5
 63
     7
421
 16777215
 74
     1
 91
        0
 64
     7
 65
   257
 75
     1
175
     1
 42
1.0
 92
        0
 66
   257
 43
1.0
 76
     1
 77
     6
 78
     2
 67
     7
 79
     5
170
     0
171
     0
290
     0
174
     0
 93
       13
 44
0.0
173
     0
291
     1
 45
0.0
1001
ACAD
1000
AcDbSavedByObjectVersion
1070
     0
  0
VISUALSTYLE
  5
2D
102
{ACAD_XDICTIONARY
360
37B
102
}
102
{ACAD_REACTORS
330
2A
102
}
330
2A
100
AcDbVisualStyle
  2

 70
     2
 71
     2
 72
     2
 73
     1
 90
        2
 40
-0.6
 41
30.0
 62
     5
 63
     7
421
 16777215
 74
     0
 91
        0
 64
     7
 65
   257
 75
     1
175
     1
 42
1.0
 92
        0
 66
     7
 43
1.0
 76
     1
 77
     6
 78
     2
 67
     7
 79
     5
170
     0
171
     0
290
     0
174
     0
 93
       13
 44
0.0
173
     0
291
     1
 45
0.0
1001
ACAD
1000
AcDbSavedByObjectVersion
1070
     0
  0
VISUALSTYLE
  5
2E
102
{ACAD_XDICTIONARY
360
37D
102
}
102
{ACAD_REACTORS
330
2A
102
}
330
2A
100
AcDbVisualStyle
  2

 70
     3
 71
     2
 72
     2
 73
     1
 90
        2
 40
-0.6
 41
30.0
 62
     5
 63
     7
421
 16777215
 74
     1
 91
        0
 64
     7
 65
   257
 75
     1
175
     1
 42
1.0
 92
        0
 66
   257
 43
1.0
 76
     1
 77
     6
 78
     2
 67
     7
 79
     5
170
     0
171
     0
290
     0
174
     0
 93
       13
 44
0.0
173
     0
291
     1
 45
0.0
1001
ACAD
1000
AcDbSavedByObjectVersion
1070
     0
  0
VISUALSTYLE
  5
31
102
{ACAD_XDICTIONARY
360
383
102
}
102
{ACAD_REACTORS
330
2A
102
}
330
2A
100
AcDbVisualStyle
  2

 70
     6
 71
     1
 72
     2
 73
     2
 90
        0
 40
-0.6
 41
-30.0
 62
     5
 63
     7
421
 16777215
 74
     2
 91
        2
 64
     7
 65
   257
 75
     2
175
     1
 42
40.0
 92
        0
 66
   257
 43
1.0
 76
     1
 77
     6
 78
     2
 67
     7
 79
     3
170
     0
171
     0
290
     0
174
     0
 93
        1
 44
0.0
173
     0
291
     0
 45
0.0
1001
ACAD
1000
AcDbSavedByObjectVersion
1070
     0
  0
VISUALSTYLE
  5
3B
102
{ACAD_XDICTIONARY
360
397
102
}
102
{ACAD_REACTORS
330
2A
102
}
330
2A
100
AcDbVisualStyle
  2

 70
    20
 71
     2
 72
     2
 73
     0
 90
        0
 40
-0.6
 41
-30.0
 62
     5
 63
     7
421
 16777215
 74
     1
 91
        4
 64
     7
 65
   257
 75
     1
175
     1
 42
1.0
 92
       10
 66
     7
 43
1.0
 76
     1
 77
     6
 78
     2
 67
     7
 79
     5
170
     0
171
     0
290
     0
174
     0
 93
        1
 44
0.0
173
     0
291
     1
 45
0.0
1001
ACAD
1000
AcDbSavedByObjectVersion
1070
     0
  0
VISUALSTYLE
  5
38
102
{ACAD_XDICTIONARY
360
391
102
}
102
{ACAD_REACTORS
330
2A
102
}
330
2A
100
AcDbVisualStyle
  2

 70
    14
 71
     2
 72
     2
 73
     0
 90
        0
 40
-0.6
 41
-30.0
 62
     5
 63
     7
421
 16777215
 74
     1
 91
        4
 64
     7
 65
   257
 75
     7
175
     7
 42
1.0
 92
        8
 66
     7
 43
1.0
 76
     1
 77
     6
 78
     2
 67
     7
 79
     5
170
     0
171
     0
290
     0
174
     0
 93
        1
 44
0.0
173
     0
291
     1
 45
0.0
1001
ACAD
1000
AcDbSavedByObjectVersion
1070
     0
  0
VISUALSTYLE
  5
3C
102
{ACAD_XDICTIONARY
360
399
102
}
102
{ACAD_REACTORS
330
2A
102
}
330
2A
100
AcDbVisualStyle
  2

 70
    21
 71
     2
 72
     2
 73
     0
 90
        0
 40
-0.6
 41
-30.0
 62
     5
 63
     7
421
 16777215
 74
     1
 91
        4
 64
     7
 65
   257
 75
     1
175
     1
 42
1.0
 92
        9
 66
     7
 43
1.0
 76
     1
 77
     6
 78
     2
 67
     7
 79
     5
170
     0
171
     0
290
     0
174
     0
 93
        1
 44
0.0
173
     0
291
     1
 45
0.0
1001
ACAD
1000
AcDbSavedByObjectVersion
1070
     0
  0
VISUALSTYLE
  5
33
102
{ACAD_XDICTIONARY
360
387
102
}
102
{ACAD_REACTORS
330
2A
102
}
330
2A
100
AcDbVisualStyle
  2

 70
     8
 71
     2
 72
     3
 73
     0
 90
        2
 40
-0.6
 41
30.0
 62
     5
 63
     7
421
 16777215
 74
     0
 91
        0
 64
     7
 65
   257
 75
     1
175
     1
 42
1.0
 92
        8
 66
   257
 43
1.0
 76
     1
 77
     6
 78
     2
 67
     7
 79
     3
170
     0
171
     0
290
     0
174
     0
 93
       13
 44
0.0
173
     0
291
     0
 45
0.0
1001
ACAD
1000
AcDbSavedByObjectVersion
1070
     0
  0
VISUALSTYLE
  5
42
102
{ACAD_XDICTIONARY
360
3A5
102
}
102
{ACAD_REACTORS
330
2A
102
}
330
2A
100
AcDbVisualStyle
  2

 70
    27
 71
     2
 72
     2
 73
     1
 90
        2
 40
-0.6
 41
30.0
 62
     5
 63
     7
421
 16777215
 74
     0
 91
        4
 64
     7
 65
   257
 75
     1
175
     1
 42
1.0
 92
        8
 66
   257
 43
1.0
 76
     1
 77
     6
 78
     2
 67
     8
425
  7895160
 79
     3
170
     0
171
     0
290
     0
174
     0
 93
        5
 44
0.0
173
     0
291
     0
 45
0.0
1001
ACAD
1000
AcDbSavedByObjectVersion
1070
     0
  0
VISUALSTYLE
  5
41
102
{ACAD_XDICTIONARY
360
3A3
102
}
102
{ACAD_REACTORS
330
2A
102
}
330
2A
100
AcDbVisualStyle
  2

 70
    26
 71
     2
 72
     2
 73
     1
 90
        2
 40
-0.6
 41
30.0
 62
     5
 63
     7
421
 16777215
 74
     1
 91
       10
 64
     7
 65
   257
 75
     2
175
     1
 42
1.0
 92
        8
 66
   257
 43
1.0
 76
     1
 77
     6
 78
     2
 67
     7
 79
     3
170
     0
171
     0
290
     0
174
     0
 93
        5
 44
0.0
173
     0
291
     0
 45
0.0
1001
ACAD
1000
AcDbSavedByObjectVersion
1070
     0
  0
VISUALSTYLE
  5
3E
102
{ACAD_XDICTIONARY
360
39D
102
}
102
{ACAD_REACTORS
330
2A
102
}
330
2A
100
AcDbVisualStyle
  2

 70
    23
 71
     2
 72
     2
 73
     3
 90
        0
 40
-0.6
 41
-30.0
 62
     5
 63
     7
421
 16777215
 74
     2
 91
        2
 64
     7
 65
     7
 75
     1
175
     1
 42
40.0
 92
        8
 66
     7
 43
1.0
 76
     1
 77
     6
 78
     2
 67
     7
 79
     3
170
     0
171
     0
290
     0
174
     0
 93
        1
 44
0.0
173
     0
291
     0
 45
0.0
1001
ACAD
1000
AcDbSavedByObjectVersion
1070
     0
  0
VISUALSTYLE
  5
3F
102
{ACAD_XDICTIONARY
360
39F
102
}
102
{ACAD_REACTORS
330
2A
102
}
330
2A
100
AcDbVisualStyle
  2

 70
    24
 71
     1
 72
     2
 73
     2
 90
        0
 40
-0.6
 41
-30.0
 62
     5
 63
     7
421
 16777215
 74
     2
 91
        2
 64
     7
 65
     7
 75
     1
175
     1
 42
40.0
 92
       11
 66
     7
 43
1.0
 76
     1
 77
     6
 78
     2
 67
     7
 79
     6
170
     0
171
     0
290
     0
174
     0
 93
        1
 44
0.0
173
     0
291
     0
 45
0.0
1001
ACAD
1000
AcDbSavedByObjectVersion
1070
     0
  0
VISUALSTYLE
  5
37
102
{ACAD_XDICTIONARY
360
38F
102
}
102
{ACAD_REACTORS
330
2A
102
}
330
2A
100
AcDbVisualStyle
  2

 70
    13
 71
     2
 72
     2
 73
     0
 90
        0
 40
-0.6
 41
-30.0
 62
     5
 63
     7
421
 16777215
 74
     1
 91
        4
 64
     7
 65
   257
 75
     1
175
     1
 42
1.0
 92
       12
 66
     7
 43
1.0
 76
     1
 77
     6
 78
     2
 67
     7
 79
     5
170
     0
171
     0
290
     0
174
     0
 93
        1
 44
0.0
173
     0
291
     1
 45
0.0
1001
ACAD
1000
AcDbSavedByObjectVersion
1070
     0
  0
VISUALSTYLE
  5
30
102
{ACAD_XDICTIONARY
360
381
102
}
102
{ACAD_REACTORS
330
2A
102
}
330
2A
100
AcDbVisualStyle
  2

 70
     5
 71
     0
 72
     2
 73
     0
 90
        0
 40
-0.6
 41
-30.0
 62
     5
 63
     7
421
 16777215
 74
     1
 91
        4
 64
     7
 65
   257
 75
     1
175
     1
 42
1.0
 92
        0
 66
   257
 43
1.0
 76
     1
 77
     6
 78
     2
 67
     7
 79
     3
170
     0
171
     0
290
     0
174
     0
 93
        1
 44
0.0
173
     0
291
     0
 45
0.0
1001
ACAD
1000
AcDbSavedByObjectVersion
1070
     0
  0
VISUALSTYLE
  5
40
102
{ACAD_XDICTIONARY
360
3A1
102
}
102
{ACAD_REACTORS
330
2A
102
}
330
2A
100
AcDbVisualStyle
  2

 70
    25
 71
     2
 72
     2
 73
     1
 90
        1
 40
0.5
 41
-30.0
 62
     5
 63
     7
421
 16777215
 74
     1
 91
        0
 64
     7
 65
   257
 75
     1
175
     1
 42
1.0
 92
        8
 66
     7
 43
1.0
 76
     1
 77
     6
 78
     2
 67
     7
 79
     3
170
     0
171
     0
290
     0
174
     0
 93
       13
 44
0.0
173
     0
291
     0
 45
0.0
1001
ACAD
1000
AcDbSavedByObjectVersion
1070
     0
  0
DICTIONARYVAR
  5
2C2
102
{ACAD_REACTORS
330
2C1
102
}
330
2C1
100
DictionaryVariables
280
     0
  1
1:1
  0
DICTIONARYVAR
  5
303
102
{ACAD_REACTORS
330
2C1
102
}
330
2C1
100
DictionaryVariables
280
     0
  1
STANDARD
  0
DICTIONARYVAR
  5
302
102
{ACAD_REACTORS
330
2C1
102
}
330
2C1
100
DictionaryVariables
280
     0
  1
STANDARD
  0
DICTIONARYVAR
  5
371
102
{ACAD_REACTORS
330
2C1
102
}
330
2C1
100
DictionaryVariables
280
     0
  1
Metric50
  0
DICTIONARYVAR
  5
372
102
{ACAD_REACTORS
330
2C1
102
}
330
2C1
100
DictionaryVariables
280
     0
  1
Metric50
  0
DICTIONARYVAR
  5
2C3
102
{ACAD_REACTORS
330
2C1
102
}
330
2C1
100
DictionaryVariables
280
     0
  1
1
  0
DICTIONARYVAR
  5
373
102
{ACAD_REACTORS
330
2C1
102
}
330
2C1
100
DictionaryVariables
280
     0
  1
2
  0
DICTIONARY
  5
3AA
330
30A
100
AcDbDictionary
280
     1
281
     1
  3
ACAD_XREC_ROUNDTRIP
360
3AB
  0
DICTIONARY
  5
2F7
330
45
100
AcDbDictionary
280
     1
281
     1
  3
ACAD_XREC_ROUNDTRIP
360
2F8
  0
DICTIONARY
  5
2F5
330
44
100
AcDbDictionary
280
     1
281
     1
  3
ACAD_XREC_ROUNDTRIP
360
2F6
  0
DICTIONARY
  5
2F9
330
46
100
AcDbDictionary
280
     1
281
     1
  3
ACAD_XREC_ROUNDTRIP
360
2FA
  0
DICTIONARY
  5
3A8
330
309
100
AcDbDictionary
280
     1
281
     1
  3
ACAD_XREC_ROUNDTRIP
360
3A9
  0
DICTIONARY
  5
2FB
330
6A
100
AcDbDictionary
280
     1
281
     1
  3
ACAD_ROUNDTRIP_2008_TABLESTYLE_CELLSTYLEMAP
360
375
  3
ACAD_XREC_ROUNDTRIP
360
3A7
  0
DICTIONARY
  5
37F
330
2F
100
AcDbDictionary
280
     1
281
     1
  3
ACAD_XREC_ROUNDTRIP
360
380
  0
DICTIONARY
  5
385
330
32
100
AcDbDictionary
280
     1
281
     1
  3
ACAD_XREC_ROUNDTRIP
360
386
  0
DICTIONARY
  5
38D
330
36
100
AcDbDictionary
280
     1
281
     1
  3
ACAD_XREC_ROUNDTRIP
360
38E
  0
DICTIONARY
  5
395
330
3A
100
AcDbDictionary
280
     1
281
     1
  3
ACAD_XREC_ROUNDTRIP
360
396
  0
DICTIONARY
  5
389
330
34
100
AcDbDictionary
280
     1
281
     1
  3
ACAD_XREC_ROUNDTRIP
360
38A
  0
DICTIONARY
  5
38B
330
35
100
AcDbDictionary
280
     1
281
     1
  3
ACAD_XREC_ROUNDTRIP
360
38C
  0
DICTIONARY
  5
39B
330
3D
100
AcDbDictionary
280
     1
281
     1
  3
ACAD_XREC_ROUNDTRIP
360
39C
  0
DICTIONARY
  5
393
330
39
100
AcDbDictionary
280
     1
281
     1
  3
ACAD_XREC_ROUNDTRIP
360
394
  0
DICTIONARY
  5
377
330
2B
100
AcDbDictionary
280
     1
281
     1
  3
ACAD_XREC_ROUNDTRIP
360
378
  0
DICTIONARY
  5
379
330
2C
100
AcDbDictionary
280
     1
281
     1
  3
ACAD_XREC_ROUNDTRIP
360
37A
  0
DICTIONARY
  5
37B
330
2D
100
AcDbDictionary
280
     1
281
     1
  3
ACAD_XREC_ROUNDTRIP
360
37C
  0
DICTIONARY
  5
37D
330
2E
100
AcDbDictionary
280
     1
281
     1
  3
ACAD_XREC_ROUNDTRIP
360
37E
  0
DICTIONARY
  5
383
330
31
100
AcDbDictionary
280
     1
281
     1
  3
ACAD_XREC_ROUNDTRIP
360
384
  0
DICTIONARY
  5
397
330
3B
100
AcDbDictionary
280
     1
281
     1
  3
ACAD_XREC_ROUNDTRIP
360
398
  0
DICTIONARY
  5
391
330
38
100
AcDbDictionary
280
     1
281
     1
  3
ACAD_XREC_ROUNDTRIP
360
392
  0
DICTIONARY
  5
399
330
3C
100
AcDbDictionary
280
     1
281
     1
  3
ACAD_XREC_ROUNDTRIP
360
39A
  0
DICTIONARY
  5
387
330
33
100
AcDbDictionary
280
     1
281
     1
  3
ACAD_XREC_ROUNDTRIP
360
388
  0
DICTIONARY
  5
3A5
330
42
100
AcDbDictionary
280
     1
281
     1
  3
ACAD_XREC_ROUNDTRIP
360
3A6
  0
DICTIONARY
  5
3A3
330
41
100
AcDbDictionary
280
     1
281
     1
  3
ACAD_XREC_ROUNDTRIP
360
3A4
  0
DICTIONARY
  5
39D
330
3E
100
AcDbDictionary
280
     1
281
     1
  3
ACAD_XREC_ROUNDTRIP
360
39E
  0
DICTIONARY
  5
39F
330
3F
100
AcDbDictionary
280
     1
281
     1
  3
ACAD_XREC_ROUNDTRIP
360
3A0
  0
DICTIONARY
  5
38F
330
37
100
AcDbDictionary
280
     1
281
     1
  3
ACAD_XREC_ROUNDTRIP
360
390
  0
DICTIONARY
  5
381
330
30
100
AcDbDictionary
280
     1
281
     1
  3
ACAD_XREC_ROUNDTRIP
360
382
  0
DICTIONARY
  5
3A1
330
40
100
AcDbDictionary
280
     1
281
     1
  3
ACAD_XREC_ROUNDTRIP
360
3A2
  0
XRECORD
  5
3AB
102
{ACAD_REACTORS
330
3AA
102
}
330
3AA
100
AcDbXrecord
280
     1
102
DISPLAYNAME
  1
Metric50
102
FLAGS
 90
        0
  0
XRECORD
  5
2F8
102
{ACAD_REACTORS
330
2F7
102
}
330
2F7
100
AcDbXrecord
280
     1
102
MATERIAL
148
0.0
149
0.0
149
0.0
 93
        0
 94
      127
282
     0
 72
     1
 77
     1
171
     1
175
     1
179
     1
273
     0
  0
XRECORD
  5
2F6
102
{ACAD_REACTORS
330
2F5
102
}
330
2F5
100
AcDbXrecord
280
     1
102
MATERIAL
148
0.0
149
0.0
149
0.0
 93
        0
 94
      127
282
     0
 72
     1
 77
     1
171
     1
175
     1
179
     1
273
     0
  0
XRECORD
  5
2FA
102
{ACAD_REACTORS
330
2F9
102
}
330
2F9
100
AcDbXrecord
280
     1
102
MATERIAL
148
0.0
149
0.0
149
0.0
 93
        0
 94
      127
282
     0
 72
     1
 77
     1
171
     1
175
     1
179
     1
273
     0
  0
XRECORD
  5
3A9
102
{ACAD_REACTORS
330
3A8
102
}
330
3A8
100
AcDbXrecord
280
     1
102
DISPLAYNAME
  1
Metric50
102
FLAGS
 90
        0
  0
CELLSTYLEMAP
  5
375
102
{ACAD_REACTORS
330
2FB
102
}
330
2FB
100
AcDbCellStyleMap
 90
        3
300
CELLSTYLE
  1
TABLEFORMAT_BEGIN
 90
        5
170
     1
 91
        0
 92
    32768
 62
   257
 93
        1
300
CONTENTFORMAT
  1
CONTENTFORMAT_BEGIN
 90
        0
 91
        0
 92
        4
 93
        0
300

 40
0.0
140
1.0
 94
        5
 62
     0
340
11
144
0.25
309
CONTENTFORMAT_END
171
     1
301
MARGIN
  1
CELLMARGIN_BEGIN
 40
0.06
 40
0.06
 40
0.06
 40
0.06
 40
0.18
 40
0.18
309
CELLMARGIN_END
 94
        6
 95
        1
302
GRIDFORMAT
  1
GRIDFORMAT_BEGIN
 90
        0
 91
        1
 62
     0
 92
       -2
340
14
 93
        0
 40
0.045
309
GRIDFORMAT_END
 95
        2
302
GRIDFORMAT
  1
GRIDFORMAT_BEGIN
 90
        0
 91
        1
 62
     0
 92
       -2
340
14
 93
        0
 40
0.045
309
GRIDFORMAT_END
 95
        4
302
GRIDFORMAT
  1
GRIDFORMAT_BEGIN
 90
        0
 91
        1
 62
     0
 92
       -2
340
14
 93
        0
 40
0.045
309
GRIDFORMAT_END
 95
        8
302
GRIDFORMAT
  1
GRIDFORMAT_BEGIN
 90
        0
 91
        1
 62
     0
 92
       -2
340
14
 93
        0
 40
0.045
309
GRIDFORMAT_END
 95
       16
302
GRIDFORMAT
  1
GRIDFORMAT_BEGIN
 90
        0
 91
        1
 62
     0
 92
       -2
340
14
 93
        0
 40
0.045
309
GRIDFORMAT_END
 95
       32
302
GRIDFORMAT
  1
GRIDFORMAT_BEGIN
 90
        0
 91
        1
 62
     0
 92
       -2
340
14
 93
        0
 40
0.045
309
GRIDFORMAT_END
309
TABLEFORMAT_END
  1
CELLSTYLE_BEGIN
 90
        1
 91
        1
300
_TITLE
309
CELLSTYLE_END
300
CELLSTYLE
  1
TABLEFORMAT_BEGIN
 90
        5
170
     1
 91
        0
 92
        0
 62
   257
 93
        1
300
CONTENTFORMAT
  1
CONTENTFORMAT_BEGIN
 90
        0
 91
        0
 92
        4
 93
        0
300

 40
0.0
140
1.0
 94
        5
 62
     0
340
11
144
0.18
309
CONTENTFORMAT_END
171
     1
301
MARGIN
  1
CELLMARGIN_BEGIN
 40
0.06
 40
0.06
 40
0.06
 40
0.06
 40
0.18
 40
0.18
309
CELLMARGIN_END
 94
        6
 95
        1
302
GRIDFORMAT
  1
GRIDFORMAT_BEGIN
 90
        0
 91
        1
 62
     0
 92
       -2
340
14
 93
        0
 40
0.045
309
GRIDFORMAT_END
 95
        2
302
GRIDFORMAT
  1
GRIDFORMAT_BEGIN
 90
        0
 91
        1
 62
     0
 92
       -2
340
14
 93
        0
 40
0.045
309
GRIDFORMAT_END
 95
        4
302
GRIDFORMAT
  1
GRIDFORMAT_BEGIN
 90
        0
 91
        1
 62
     0
 92
       -2
340
14
 93
        0
 40
0.045
309
GRIDFORMAT_END
 95
        8
302
GRIDFORMAT
  1
GRIDFORMAT_BEGIN
 90
        0
 91
        1
 62
     0
 92
       -2
340
14
 93
        0
 40
0.045
309
GRIDFORMAT_END
 95
       16
302
GRIDFORMAT
  1
GRIDFORMAT_BEGIN
 90
        0
 91
        1
 62
     0
 92
       -2
340
14
 93
        0
 40
0.045
309
GRIDFORMAT_END
 95
       32
302
GRIDFORMAT
  1
GRIDFORMAT_BEGIN
 90
        0
 91
        1
 62
     0
 92
       -2
340
14
 93
        0
 40
0.045
309
GRIDFORMAT_END
309
TABLEFORMAT_END
  1
CELLSTYLE_BEGIN
 90
        2
 91
        1
300
_HEADER
309
CELLSTYLE_END
300
CELLSTYLE
  1
TABLEFORMAT_BEGIN
 90
        5
170
     1
 91
        0
 92
        0
 62
   257
 93
        1
300
CONTENTFORMAT
  1
CONTENTFORMAT_BEGIN
 90
        0
 91
        0
 92
        4
 93
        0
300

 40
0.0
140
1.0
 94
        2
 62
     0
340
11
144
0.18
309
CONTENTFORMAT_END
171
     1
301
MARGIN
  1
CELLMARGIN_BEGIN
 40
0.06
 40
0.06
 40
0.06
 40
0.06
 40
0.18
 40
0.18
309
CELLMARGIN_END
 94
        6
 95
        1
302
GRIDFORMAT
  1
GRIDFORMAT_BEGIN
 90
        0
 91
        1
 62
     0
 92
       -2
340
14
 93
        0
 40
0.045
309
GRIDFORMAT_END
 95
        2
302
GRIDFORMAT
  1
GRIDFORMAT_BEGIN
 90
        0
 91
        1
 62
     0
 92
       -2
340
14
 93
        0
 40
0.045
309
GRIDFORMAT_END
 95
        4
302
GRIDFORMAT
  1
GRIDFORMAT_BEGIN
 90
        0
 91
        1
 62
     0
 92
       -2
340
14
 93
        0
 40
0.045
309
GRIDFORMAT_END
 95
        8
302
GRIDFORMAT
  1
GRIDFORMAT_BEGIN
 90
        0
 91
        1
 62
     0
 92
       -2
340
14
 93
        0
 40
0.045
309
GRIDFORMAT_END
 95
       16
302
GRIDFORMAT
  1
GRIDFORMAT_BEGIN
 90
        0
 91
        1
 62
     0
 92
       -2
340
14
 93
        0
 40
0.045
309
GRIDFORMAT_END
 95
       32
302
GRIDFORMAT
  1
GRIDFORMAT_BEGIN
 90
        0
 91
        1
 62
     0
 92
       -2
340
14
 93
        0
 40
0.045
309
GRIDFORMAT_END
309
TABLEFORMAT_END
  1
CELLSTYLE_BEGIN
 90
        3
 91
        2
300
_DATA
309
CELLSTYLE_END
  0
XRECORD
  5
3A7
102
{ACAD_REACTORS
330
2FB
102
}
330
2FB
100
AcDbXrecord
280
     1
102
ACAD_ROUNDTRIP_PRE2007_TABLESTYLE
 90
        4
 91
        0
  1

 92
        4
 93
        0
  2

 94
        4
 95
        0
  3

  0
XRECORD
  5
380
102
{ACAD_REACTORS
330
37F
102
}
330
37F
100
AcDbXrecord
280
     1
102
RTVSPost2010Prop28
280
     1
102
RTVSPost2010PropOp28
 70
     1
102
RTVSPost2010Prop29
280
     1
102
RTVSPost2010PropOp29
 70
     1
102
RTVSPost2010Prop30
280
     0
102
RTVSPost2010PropOp30
 70
     1
102
RTVSPost2010Prop31
280
     0
102
RTVSPost2010PropOp31
 70
     1
102
RTVSPost2010Prop32
280
     0
102
RTVSPost2010PropOp32
 70
     1
102
RTVSPost2010Prop33
280
     0
102
RTVSPost2010PropOp33
 70
     1
102
RTVSPost2010Prop34
280
     0
102
RTVSPost2010PropOp34
 70
     1
102
RTVSPost2010Prop35
280
     0
102
RTVSPost2010PropOp35
 70
     1
102
RTVSPost2010Prop36
280
     0
102
RTVSPost2010PropOp36
 70
     1
102
RTVSPost2010Prop37
 90
       50
102
RTVSPost2010PropOp37
 70
     1
102
RTVSPost2010Prop38
140
0.0
102
RTVSPost2010PropOp38
 70
     1
102
RTVSPost2010Prop39
140
1.0
102
RTVSPost2010PropOp39
 70
     1
102
RTVSPost2010Prop40
 90
        0
102
RTVSPost2010PropOp40
 70
     1
102
RTVSPost2010Prop41ColorIndex
 90
       18
102
RTVSPost2010Prop41ColorRGB
 90
        0
102
RTVSPost2010PropOp41
 70
     1
102
RTVSPost2010Prop42
 90
       50
102
RTVSPost2010PropOp42
 70
     1
102
RTVSPost2010Prop43
 90
        3
102
RTVSPost2010PropOp43
 70
     1
102
RTVSPost2010Prop44ColorIndex
 90
        5
102
RTVSPost2010Prop44ColorRGB
 90
      255
102
RTVSPost2010PropOp44
 70
     1
102
RTVSPost2010Prop45
280
     0
102
RTVSPost2010PropOp45
 70
     1
102
RTVSPost2010Prop46
 90
       50
102
RTVSPost2010PropOp46
 70
     1
102
RTVSPost2010Prop47
 90
       50
102
RTVSPost2010PropOp47
 70
     1
102
RTVSPost2010Prop48
 90
       50
102
RTVSPost2010PropOp48
 70
     1
102
RTVSPost2010Prop49
280
     0
102
RTVSPost2010PropOp49
 70
     1
102
RTVSPost2010Prop50
 90
       50
102
RTVSPost2010PropOp50
 70
     1
102
RTVSPost2010Prop51ColorIndex
 90
      256
102
RTVSPost2010Prop51ColorRGB
 90
-16777216
102
RTVSPost2010PropOp51
 70
     0
102
RTVSPost2010Prop52
140
1.0
102
RTVSPost2010PropOp52
 70
     0
102
RTVSPost2010Prop53
 90
        2
102
RTVSPost2010PropOp53
 70
     1
102
RTVSPost2010Prop54
  1
strokes_ogs.tif
102
RTVSPost2010PropOp54
 70
     1
102
RTVSPost2010Prop55
280
     0
102
RTVSPost2010PropOp55
 70
     1
102
RTVSPost2010Prop56
140
1.0
102
RTVSPost2010PropOp56
 70
     1
102
RTVSPost2010Prop57
140
1.0
102
RTVSPost2010PropOp57
 70
     1
102
RTVSPropertyOp0
 70
     1
102
RTVSPropertyOp1
 70
     1
102
RTVSPropertyOp2
 70
     1
102
RTVSPropertyOp3
 70
     1
102
RTVSPropertyOp4
 70
     1
102
RTVSPropertyOp5
 70
     1
102
RTVSPropertyOp6
 70
     1
102
RTVSPropertyOp7
 70
     1
102
RTVSPropertyOp8
 70
     1
102
RTVSPropertyOp9
 70
     1
102
RTVSPropertyOp10
 70
     1
102
RTVSPropertyOp11
 70
     1
102
RTVSPropertyOp12
 70
     1
102
RTVSPropertyOp13
 70
     1
102
RTVSPropertyOp14
 70
     1
102
RTVSPropertyOp15
 70
     1
102
RTVSPropertyOp16
 70
     1
102
RTVSPropertyOp17
 70
     1
102
RTVSPropertyOp18
 70
     1
102
RTVSPropertyOp19
 70
     1
102
RTVSPropertyOp20
 70
     1
102
RTVSPropertyOp21
 70
     1
102
RTVSPropertyOp22
 70
     1
102
RTVSPropertyOp23
 70
     1
102
RTVSPropertyOp24
 70
     1
102
RTVSPropertyOp25
 70
     1
102
RTVSPropertyOp26
 70
     1
102
RTVSPropertyOp27
 70
     1
102
RTVSPropertyOp28
 70
     1
102
RTVSPropertyOp29
 70
     1
102
RTVSPropertyOp30
 70
     1
102
RTVSPropertyOp31
 70
     1
102
RTVSPropertyOp32
 70
     1
102
RTVSPropertyOp33
 70
     1
102
RTVSPropertyOp34
 70
     1
102
RTVSPropertyOp35
 70
     1
102
RTVSPropertyOp36
 70
     1
102
RTVSPropertyOp37
 70
     1
102
RTVSPropertyOp38
 70
     1
102
RTVSPropertyOp39
 70
     1
102
RTVSPropertyOp40
 70
     1
102
RTVSPropertyOp41
 70
     1
102
RTVSPropertyOp42
 70
     1
102
RTVSPropertyOp43
 70
     1
102
RTVSPropertyOp44
 70
     1
102
RTVSPropertyOp45
 70
     1
102
RTVSPropertyOp46
 70
     1
102
RTVSPropertyOp47
 70
     1
102
RTVSPropertyOp48
 70
     1
102
RTVSPropertyOp49
 70
     1
102
RTVSPropertyOp50
 70
     1
102
RTVSPropertyOp51
 70
     0
102
RTVSPropertyOp52
 70
     0
102
RTVSPropertyOp53
 70
     1
102
RTVSPropertyOp54
 70
     1
102
RTVSPropertyOp55
 70
     1
102
RTVSPropertyOp56
 70
     1
102
RTVSPropertyOp57
 70
     1
102
RTVSPropertyOp58
 70
     1
102
RTVSPropertyOp59
 70
     1
102
RTVSPropertyOp60
 70
     1
102
RTVSPropertyOp61
 70
     1
102
RTVSPropertyOp62
 70
     1
  0
XRECORD
  5
386
102
{ACAD_REACTORS
330
385
102
}
330
385
100
AcDbXrecord
280
     1
102
RTVSPost2010Prop28
280
     0
102
RTVSPost2010PropOp28
 70
     1
102
RTVSPost2010Prop29
280
     1
102
RTVSPost2010PropOp29
 70
     1
102
RTVSPost2010Prop30
280
     1
102
RTVSPost2010PropOp30
 70
     1
102
RTVSPost2010Prop31
280
     0
102
RTVSPost2010PropOp31
 70
     1
102
RTVSPost2010Prop32
280
     0
102
RTVSPost2010PropOp32
 70
     1
102
RTVSPost2010Prop33
280
     0
102
RTVSPost2010PropOp33
 70
     1
102
RTVSPost2010Prop34
280
     0
102
RTVSPost2010PropOp34
 70
     1
102
RTVSPost2010Prop35
280
     0
102
RTVSPost2010PropOp35
 70
     1
102
RTVSPost2010Prop36
280
     0
102
RTVSPost2010PropOp36
 70
     1
102
RTVSPost2010Prop37
 90
       50
102
RTVSPost2010PropOp37
 70
     1
102
RTVSPost2010Prop38
140
0.0
102
RTVSPost2010PropOp38
 70
     1
102
RTVSPost2010Prop39
140
1.0
102
RTVSPost2010PropOp39
 70
     1
102
RTVSPost2010Prop40
 90
        0
102
RTVSPost2010PropOp40
 70
     1
102
RTVSPost2010Prop41ColorIndex
 90
       18
102
RTVSPost2010Prop41ColorRGB
 90
        0
102
RTVSPost2010PropOp41
 70
     1
102
RTVSPost2010Prop42
 90
       50
102
RTVSPost2010PropOp42
 70
     1
102
RTVSPost2010Prop43
 90
        3
102
RTVSPost2010PropOp43
 70
     1
102
RTVSPost2010Prop44ColorIndex
 90
        5
102
RTVSPost2010Prop44ColorRGB
 90
      255
102
RTVSPost2010PropOp44
 70
     1
102
RTVSPost2010Prop45
280
     0
102
RTVSPost2010PropOp45
 70
     1
102
RTVSPost2010Prop46
 90
       50
102
RTVSPost2010PropOp46
 70
     1
102
RTVSPost2010Prop47
 90
       50
102
RTVSPost2010PropOp47
 70
     1
102
RTVSPost2010Prop48
 90
       50
102
RTVSPost2010PropOp48
 70
     1
102
RTVSPost2010Prop49
280
     0
102
RTVSPost2010PropOp49
 70
     1
102
RTVSPost2010Prop50
 90
       50
102
RTVSPost2010PropOp50
 70
     1
102
RTVSPost2010Prop51ColorIndex
 90
      256
102
RTVSPost2010Prop51ColorRGB
 90
-16777216
102
RTVSPost2010PropOp51
 70
     0
102
RTVSPost2010Prop52
140
1.0
102
RTVSPost2010PropOp52
 70
     0
102
RTVSPost2010Prop53
 90
        2
102
RTVSPost2010PropOp53
 70
     1
102
RTVSPost2010Prop54
  1
strokes_ogs.tif
102
RTVSPost2010PropOp54
 70
     1
102
RTVSPost2010Prop55
280
     0
102
RTVSPost2010PropOp55
 70
     1
102
RTVSPost2010Prop56
140
1.0
102
RTVSPost2010PropOp56
 70
     1
102
RTVSPost2010Prop57
140
1.0
102
RTVSPost2010PropOp57
 70
     1
102
RTVSPropertyOp0
 70
     1
102
RTVSPropertyOp1
 70
     1
102
RTVSPropertyOp2
 70
     1
102
RTVSPropertyOp3
 70
     1
102
RTVSPropertyOp4
 70
     1
102
RTVSPropertyOp5
 70
     1
102
RTVSPropertyOp6
 70
     1
102
RTVSPropertyOp7
 70
     1
102
RTVSPropertyOp8
 70
     1
102
RTVSPropertyOp9
 70
     1
102
RTVSPropertyOp10
 70
     1
102
RTVSPropertyOp11
 70
     1
102
RTVSPropertyOp12
 70
     1
102
RTVSPropertyOp13
 70
     1
102
RTVSPropertyOp14
 70
     1
102
RTVSPropertyOp15
 70
     1
102
RTVSPropertyOp16
 70
     1
102
RTVSPropertyOp17
 70
     1
102
RTVSPropertyOp18
 70
     1
102
RTVSPropertyOp19
 70
     1
102
RTVSPropertyOp20
 70
     1
102
RTVSPropertyOp21
 70
     1
102
RTVSPropertyOp22
 70
     1
102
RTVSPropertyOp23
 70
     1
102
RTVSPropertyOp24
 70
     1
102
RTVSPropertyOp25
 70
     1
102
RTVSPropertyOp26
 70
     1
102
RTVSPropertyOp27
 70
     1
102
RTVSPropertyOp28
 70
     1
102
RTVSPropertyOp29
 70
     1
102
RTVSPropertyOp30
 70
     1
102
RTVSPropertyOp31
 70
     1
102
RTVSPropertyOp32
 70
     1
102
RTVSPropertyOp33
 70
     1
102
RTVSPropertyOp34
 70
     1
102
RTVSPropertyOp35
 70
     1
102
RTVSPropertyOp36
 70
     1
102
RTVSPropertyOp37
 70
     1
102
RTVSPropertyOp38
 70
     1
102
RTVSPropertyOp39
 70
     1
102
RTVSPropertyOp40
 70
     1
102
RTVSPropertyOp41
 70
     1
102
RTVSPropertyOp42
 70
     1
102
RTVSPropertyOp43
 70
     1
102
RTVSPropertyOp44
 70
     1
102
RTVSPropertyOp45
 70
     1
102
RTVSPropertyOp46
 70
     1
102
RTVSPropertyOp47
 70
     1
102
RTVSPropertyOp48
 70
     1
102
RTVSPropertyOp49
 70
     1
102
RTVSPropertyOp50
 70
     1
102
RTVSPropertyOp51
 70
     0
102
RTVSPropertyOp52
 70
     0
102
RTVSPropertyOp53
 70
     1
102
RTVSPropertyOp54
 70
     1
102
RTVSPropertyOp55
 70
     1
102
RTVSPropertyOp56
 70
     1
102
RTVSPropertyOp57
 70
     1
102
RTVSPropertyOp58
 70
     1
102
RTVSPropertyOp59
 70
     1
102
RTVSPropertyOp60
 70
     1
102
RTVSPropertyOp61
 70
     1
102
RTVSPropertyOp62
 70
     1
  0
XRECORD
  5
38E
102
{ACAD_REACTORS
330
38D
102
}
330
38D
100
AcDbXrecord
280
     1
102
RTVSPost2010Prop28
280
     0
102
RTVSPost2010PropOp28
 70
     1
102
RTVSPost2010Prop29
280
     1
102
RTVSPost2010PropOp29
 70
     1
102
RTVSPost2010Prop30
280
     1
102
RTVSPost2010PropOp30
 70
     1
102
RTVSPost2010Prop31
280
     0
102
RTVSPost2010PropOp31
 70
     1
102
RTVSPost2010Prop32
280
     0
102
RTVSPost2010PropOp32
 70
     1
102
RTVSPost2010Prop33
280
     0
102
RTVSPost2010PropOp33
 70
     1
102
RTVSPost2010Prop34
280
     0
102
RTVSPost2010PropOp34
 70
     1
102
RTVSPost2010Prop35
280
     0
102
RTVSPost2010PropOp35
 70
     1
102
RTVSPost2010Prop36
280
     0
102
RTVSPost2010PropOp36
 70
     1
102
RTVSPost2010Prop37
 90
       50
102
RTVSPost2010PropOp37
 70
     1
102
RTVSPost2010Prop38
140
0.0
102
RTVSPost2010PropOp38
 70
     1
102
RTVSPost2010Prop39
140
1.0
102
RTVSPost2010PropOp39
 70
     1
102
RTVSPost2010Prop40
 90
        0
102
RTVSPost2010PropOp40
 70
     1
102
RTVSPost2010Prop41ColorIndex
 90
       18
102
RTVSPost2010Prop41ColorRGB
 90
        0
102
RTVSPost2010PropOp41
 70
     1
102
RTVSPost2010Prop42
 90
       50
102
RTVSPost2010PropOp42
 70
     1
102
RTVSPost2010Prop43
 90
        3
102
RTVSPost2010PropOp43
 70
     1
102
RTVSPost2010Prop44ColorIndex
 90
        5
102
RTVSPost2010Prop44ColorRGB
 90
      255
102
RTVSPost2010PropOp44
 70
     1
102
RTVSPost2010Prop45
280
     0
102
RTVSPost2010PropOp45
 70
     1
102
RTVSPost2010Prop46
 90
       50
102
RTVSPost2010PropOp46
 70
     1
102
RTVSPost2010Prop47
 90
       50
102
RTVSPost2010PropOp47
 70
     1
102
RTVSPost2010Prop48
 90
       50
102
RTVSPost2010PropOp48
 70
     1
102
RTVSPost2010Prop49
280
     0
102
RTVSPost2010PropOp49
 70
     1
102
RTVSPost2010Prop50
 90
       50
102
RTVSPost2010PropOp50
 70
     1
102
RTVSPost2010Prop51ColorIndex
 90
      256
102
RTVSPost2010Prop51ColorRGB
 90
-16777216
102
RTVSPost2010PropOp51
 70
     0
102
RTVSPost2010Prop52
140
1.0
102
RTVSPost2010PropOp52
 70
     0
102
RTVSPost2010Prop53
 90
        2
102
RTVSPost2010PropOp53
 70
     1
102
RTVSPost2010Prop54
  1
strokes_ogs.tif
102
RTVSPost2010PropOp54
 70
     1
102
RTVSPost2010Prop55
280
     0
102
RTVSPost2010PropOp55
 70
     1
102
RTVSPost2010Prop56
140
1.0
102
RTVSPost2010PropOp56
 70
     1
102
RTVSPost2010Prop57
140
1.0
102
RTVSPost2010PropOp57
 70
     1
102
RTVSPropertyOp0
 70
     1
102
RTVSPropertyOp1
 70
     1
102
RTVSPropertyOp2
 70
     1
102
RTVSPropertyOp3
 70
     1
102
RTVSPropertyOp4
 70
     1
102
RTVSPropertyOp5
 70
     1
102
RTVSPropertyOp6
 70
     1
102
RTVSPropertyOp7
 70
     1
102
RTVSPropertyOp8
 70
     1
102
RTVSPropertyOp9
 70
     1
102
RTVSPropertyOp10
 70
     1
102
RTVSPropertyOp11
 70
     1
102
RTVSPropertyOp12
 70
     1
102
RTVSPropertyOp13
 70
     1
102
RTVSPropertyOp14
 70
     1
102
RTVSPropertyOp15
 70
     1
102
RTVSPropertyOp16
 70
     1
102
RTVSPropertyOp17
 70
     1
102
RTVSPropertyOp18
 70
     1
102
RTVSPropertyOp19
 70
     1
102
RTVSPropertyOp20
 70
     1
102
RTVSPropertyOp21
 70
     1
102
RTVSPropertyOp22
 70
     1
102
RTVSPropertyOp23
 70
     1
102
RTVSPropertyOp24
 70
     1
102
RTVSPropertyOp25
 70
     1
102
RTVSPropertyOp26
 70
     1
102
RTVSPropertyOp27
 70
     1
102
RTVSPropertyOp28
 70
     1
102
RTVSPropertyOp29
 70
     1
102
RTVSPropertyOp30
 70
     1
102
RTVSPropertyOp31
 70
     1
102
RTVSPropertyOp32
 70
     1
102
RTVSPropertyOp33
 70
     1
102
RTVSPropertyOp34
 70
     1
102
RTVSPropertyOp35
 70
     1
102
RTVSPropertyOp36
 70
     1
102
RTVSPropertyOp37
 70
     1
102
RTVSPropertyOp38
 70
     1
102
RTVSPropertyOp39
 70
     1
102
RTVSPropertyOp40
 70
     1
102
RTVSPropertyOp41
 70
     1
102
RTVSPropertyOp42
 70
     1
102
RTVSPropertyOp43
 70
     1
102
RTVSPropertyOp44
 70
     1
102
RTVSPropertyOp45
 70
     1
102
RTVSPropertyOp46
 70
     1
102
RTVSPropertyOp47
 70
     1
102
RTVSPropertyOp48
 70
     1
102
RTVSPropertyOp49
 70
     1
102
RTVSPropertyOp50
 70
     1
102
RTVSPropertyOp51
 70
     0
102
RTVSPropertyOp52
 70
     0
102
RTVSPropertyOp53
 70
     1
102
RTVSPropertyOp54
 70
     1
102
RTVSPropertyOp55
 70
     1
102
RTVSPropertyOp56
 70
     1
102
RTVSPropertyOp57
 70
     1
102
RTVSPropertyOp58
 70
     1
102
RTVSPropertyOp59
 70
     1
102
RTVSPropertyOp60
 70
     1
102
RTVSPropertyOp61
 70
     1
102
RTVSPropertyOp62
 70
     1
  0
XRECORD
  5
396
102
{ACAD_REACTORS
330
395
102
}
330
395
100
AcDbXrecord
280
     1
102
RTVSPost2010Prop28
280
     0
102
RTVSPost2010PropOp28
 70
     1
102
RTVSPost2010Prop29
280
     1
102
RTVSPost2010PropOp29
 70
     1
102
RTVSPost2010Prop30
280
     1
102
RTVSPost2010PropOp30
 70
     1
102
RTVSPost2010Prop31
280
     0
102
RTVSPost2010PropOp31
 70
     1
102
RTVSPost2010Prop32
280
     0
102
RTVSPost2010PropOp32
 70
     1
102
RTVSPost2010Prop33
280
     0
102
RTVSPost2010PropOp33
 70
     1
102
RTVSPost2010Prop34
280
     0
102
RTVSPost2010PropOp34
 70
     1
102
RTVSPost2010Prop35
280
     0
102
RTVSPost2010PropOp35
 70
     1
102
RTVSPost2010Prop36
280
     0
102
RTVSPost2010PropOp36
 70
     1
102
RTVSPost2010Prop37
 90
       50
102
RTVSPost2010PropOp37
 70
     1
102
RTVSPost2010Prop38
140
0.0
102
RTVSPost2010PropOp38
 70
     1
102
RTVSPost2010Prop39
140
1.0
102
RTVSPost2010PropOp39
 70
     1
102
RTVSPost2010Prop40
 90
        0
102
RTVSPost2010PropOp40
 70
     1
102
RTVSPost2010Prop41ColorIndex
 90
       18
102
RTVSPost2010Prop41ColorRGB
 90
        0
102
RTVSPost2010PropOp41
 70
     1
102
RTVSPost2010Prop42
 90
       50
102
RTVSPost2010PropOp42
 70
     1
102
RTVSPost2010Prop43
 90
        3
102
RTVSPost2010PropOp43
 70
     1
102
RTVSPost2010Prop44ColorIndex
 90
        5
102
RTVSPost2010Prop44ColorRGB
 90
      255
102
RTVSPost2010PropOp44
 70
     1
102
RTVSPost2010Prop45
280
     0
102
RTVSPost2010PropOp45
 70
     1
102
RTVSPost2010Prop46
 90
       50
102
RTVSPost2010PropOp46
 70
     1
102
RTVSPost2010Prop47
 90
       50
102
RTVSPost2010PropOp47
 70
     1
102
RTVSPost2010Prop48
 90
       50
102
RTVSPost2010PropOp48
 70
     1
102
RTVSPost2010Prop49
280
     0
102
RTVSPost2010PropOp49
 70
     1
102
RTVSPost2010Prop50
 90
       50
102
RTVSPost2010PropOp50
 70
     1
102
RTVSPost2010Prop51ColorIndex
 90
      256
102
RTVSPost2010Prop51ColorRGB
 90
-16777216
102
RTVSPost2010PropOp51
 70
     0
102
RTVSPost2010Prop52
140
1.0
102
RTVSPost2010PropOp52
 70
     0
102
RTVSPost2010Prop53
 90
        2
102
RTVSPost2010PropOp53
 70
     1
102
RTVSPost2010Prop54
  1
strokes_ogs.tif
102
RTVSPost2010PropOp54
 70
     1
102
RTVSPost2010Prop55
280
     0
102
RTVSPost2010PropOp55
 70
     1
102
RTVSPost2010Prop56
140
1.0
102
RTVSPost2010PropOp56
 70
     1
102
RTVSPost2010Prop57
140
1.0
102
RTVSPost2010PropOp57
 70
     1
102
RTVSPropertyOp0
 70
     1
102
RTVSPropertyOp1
 70
     1
102
RTVSPropertyOp2
 70
     1
102
RTVSPropertyOp3
 70
     1
102
RTVSPropertyOp4
 70
     1
102
RTVSPropertyOp5
 70
     1
102
RTVSPropertyOp6
 70
     1
102
RTVSPropertyOp7
 70
     1
102
RTVSPropertyOp8
 70
     1
102
RTVSPropertyOp9
 70
     1
102
RTVSPropertyOp10
 70
     1
102
RTVSPropertyOp11
 70
     1
102
RTVSPropertyOp12
 70
     1
102
RTVSPropertyOp13
 70
     1
102
RTVSPropertyOp14
 70
     1
102
RTVSPropertyOp15
 70
     1
102
RTVSPropertyOp16
 70
     1
102
RTVSPropertyOp17
 70
     1
102
RTVSPropertyOp18
 70
     1
102
RTVSPropertyOp19
 70
     1
102
RTVSPropertyOp20
 70
     1
102
RTVSPropertyOp21
 70
     1
102
RTVSPropertyOp22
 70
     1
102
RTVSPropertyOp23
 70
     1
102
RTVSPropertyOp24
 70
     1
102
RTVSPropertyOp25
 70
     1
102
RTVSPropertyOp26
 70
     1
102
RTVSPropertyOp27
 70
     1
102
RTVSPropertyOp28
 70
     1
102
RTVSPropertyOp29
 70
     1
102
RTVSPropertyOp30
 70
     1
102
RTVSPropertyOp31
 70
     1
102
RTVSPropertyOp32
 70
     1
102
RTVSPropertyOp33
 70
     1
102
RTVSPropertyOp34
 70
     1
102
RTVSPropertyOp35
 70
     1
102
RTVSPropertyOp36
 70
     1
102
RTVSPropertyOp37
 70
     1
102
RTVSPropertyOp38
 70
     1
102
RTVSPropertyOp39
 70
     1
102
RTVSPropertyOp40
 70
     1
102
RTVSPropertyOp41
 70
     1
102
RTVSPropertyOp42
 70
     1
102
RTVSPropertyOp43
 70
     1
102
RTVSPropertyOp44
 70
     1
102
RTVSPropertyOp45
 70
     1
102
RTVSPropertyOp46
 70
     1
102
RTVSPropertyOp47
 70
     1
102
RTVSPropertyOp48
 70
     1
102
RTVSPropertyOp49
 70
     1
102
RTVSPropertyOp50
 70
     1
102
RTVSPropertyOp51
 70
     0
102
RTVSPropertyOp52
 70
     0
102
RTVSPropertyOp53
 70
     1
102
RTVSPropertyOp54
 70
     1
102
RTVSPropertyOp55
 70
     1
102
RTVSPropertyOp56
 70
     1
102
RTVSPropertyOp57
 70
     1
102
RTVSPropertyOp58
 70
     1
102
RTVSPropertyOp59
 70
     1
102
RTVSPropertyOp60
 70
     1
102
RTVSPropertyOp61
 70
     1
102
RTVSPropertyOp62
 70
     1
  0
XRECORD
  5
38A
102
{ACAD_REACTORS
330
389
102
}
330
389
100
AcDbXrecord
280
     1
102
RTVSPost2010Prop28
280
     0
102
RTVSPost2010PropOp28
 70
     1
102
RTVSPost2010Prop29
280
     1
102
RTVSPost2010PropOp29
 70
     1
102
RTVSPost2010Prop30
280
     1
102
RTVSPost2010PropOp30
 70
     1
102
RTVSPost2010Prop31
280
     0
102
RTVSPost2010PropOp31
 70
     1
102
RTVSPost2010Prop32
280
     0
102
RTVSPost2010PropOp32
 70
     1
102
RTVSPost2010Prop33
280
     0
102
RTVSPost2010PropOp33
 70
     1
102
RTVSPost2010Prop34
280
     0
102
RTVSPost2010PropOp34
 70
     1
102
RTVSPost2010Prop35
280
     0
102
RTVSPost2010PropOp35
 70
     1
102
RTVSPost2010Prop36
280
     0
102
RTVSPost2010PropOp36
 70
     1
102
RTVSPost2010Prop37
 90
       50
102
RTVSPost2010PropOp37
 70
     1
102
RTVSPost2010Prop38
140
0.0
102
RTVSPost2010PropOp38
 70
     1
102
RTVSPost2010Prop39
140
1.0
102
RTVSPost2010PropOp39
 70
     1
102
RTVSPost2010Prop40
 90
        0
102
RTVSPost2010PropOp40
 70
     1
102
RTVSPost2010Prop41ColorIndex
 90
       18
102
RTVSPost2010Prop41ColorRGB
 90
        0
102
RTVSPost2010PropOp41
 70
     1
102
RTVSPost2010Prop42
 90
       50
102
RTVSPost2010PropOp42
 70
     1
102
RTVSPost2010Prop43
 90
        3
102
RTVSPost2010PropOp43
 70
     1
102
RTVSPost2010Prop44ColorIndex
 90
        5
102
RTVSPost2010Prop44ColorRGB
 90
      255
102
RTVSPost2010PropOp44
 70
     1
102
RTVSPost2010Prop45
280
     0
102
RTVSPost2010PropOp45
 70
     1
102
RTVSPost2010Prop46
 90
       50
102
RTVSPost2010PropOp46
 70
     1
102
RTVSPost2010Prop47
 90
       50
102
RTVSPost2010PropOp47
 70
     1
102
RTVSPost2010Prop48
 90
       50
102
RTVSPost2010PropOp48
 70
     1
102
RTVSPost2010Prop49
280
     0
102
RTVSPost2010PropOp49
 70
     1
102
RTVSPost2010Prop50
 90
       50
102
RTVSPost2010PropOp50
 70
     1
102
RTVSPost2010Prop51ColorIndex
 90
      256
102
RTVSPost2010Prop51ColorRGB
 90
-16777216
102
RTVSPost2010PropOp51
 70
     0
102
RTVSPost2010Prop52
140
1.0
102
RTVSPost2010PropOp52
 70
     0
102
RTVSPost2010Prop53
 90
        2
102
RTVSPost2010PropOp53
 70
     1
102
RTVSPost2010Prop54
  1
strokes_ogs.tif
102
RTVSPost2010PropOp54
 70
     1
102
RTVSPost2010Prop55
280
     0
102
RTVSPost2010PropOp55
 70
     1
102
RTVSPost2010Prop56
140
1.0
102
RTVSPost2010PropOp56
 70
     1
102
RTVSPost2010Prop57
140
1.0
102
RTVSPost2010PropOp57
 70
     1
102
RTVSPropertyOp0
 70
     1
102
RTVSPropertyOp1
 70
     1
102
RTVSPropertyOp2
 70
     1
102
RTVSPropertyOp3
 70
     1
102
RTVSPropertyOp4
 70
     1
102
RTVSPropertyOp5
 70
     1
102
RTVSPropertyOp6
 70
     1
102
RTVSPropertyOp7
 70
     1
102
RTVSPropertyOp8
 70
     1
102
RTVSPropertyOp9
 70
     1
102
RTVSPropertyOp10
 70
     1
102
RTVSPropertyOp11
 70
     1
102
RTVSPropertyOp12
 70
     1
102
RTVSPropertyOp13
 70
     1
102
RTVSPropertyOp14
 70
     1
102
RTVSPropertyOp15
 70
     1
102
RTVSPropertyOp16
 70
     1
102
RTVSPropertyOp17
 70
     1
102
RTVSPropertyOp18
 70
     1
102
RTVSPropertyOp19
 70
     1
102
RTVSPropertyOp20
 70
     1
102
RTVSPropertyOp21
 70
     1
102
RTVSPropertyOp22
 70
     1
102
RTVSPropertyOp23
 70
     1
102
RTVSPropertyOp24
 70
     1
102
RTVSPropertyOp25
 70
     1
102
RTVSPropertyOp26
 70
     1
102
RTVSPropertyOp27
 70
     1
102
RTVSPropertyOp28
 70
     1
102
RTVSPropertyOp29
 70
     1
102
RTVSPropertyOp30
 70
     1
102
RTVSPropertyOp31
 70
     1
102
RTVSPropertyOp32
 70
     1
102
RTVSPropertyOp33
 70
     1
102
RTVSPropertyOp34
 70
     1
102
RTVSPropertyOp35
 70
     1
102
RTVSPropertyOp36
 70
     1
102
RTVSPropertyOp37
 70
     1
102
RTVSPropertyOp38
 70
     1
102
RTVSPropertyOp39
 70
     1
102
RTVSPropertyOp40
 70
     1
102
RTVSPropertyOp41
 70
     1
102
RTVSPropertyOp42
 70
     1
102
RTVSPropertyOp43
 70
     1
102
RTVSPropertyOp44
 70
     1
102
RTVSPropertyOp45
 70
     1
102
RTVSPropertyOp46
 70
     1
102
RTVSPropertyOp47
 70
     1
102
RTVSPropertyOp48
 70
     1
102
RTVSPropertyOp49
 70
     1
102
RTVSPropertyOp50
 70
     1
102
RTVSPropertyOp51
 70
     0
102
RTVSPropertyOp52
 70
     0
102
RTVSPropertyOp53
 70
     1
102
RTVSPropertyOp54
 70
     1
102
RTVSPropertyOp55
 70
     1
102
RTVSPropertyOp56
 70
     1
102
RTVSPropertyOp57
 70
     1
102
RTVSPropertyOp58
 70
     1
102
RTVSPropertyOp59
 70
     1
102
RTVSPropertyOp60
 70
     1
102
RTVSPropertyOp61
 70
     1
102
RTVSPropertyOp62
 70
     1
  0
XRECORD
  5
38C
102
{ACAD_REACTORS
330
38B
102
}
330
38B
100
AcDbXrecord
280
     1
102
RTVSPost2010Prop28
280
     0
102
RTVSPost2010PropOp28
 70
     1
102
RTVSPost2010Prop29
280
     1
102
RTVSPost2010PropOp29
 70
     1
102
RTVSPost2010Prop30
280
     1
102
RTVSPost2010PropOp30
 70
     1
102
RTVSPost2010Prop31
280
     0
102
RTVSPost2010PropOp31
 70
     1
102
RTVSPost2010Prop32
280
     0
102
RTVSPost2010PropOp32
 70
     1
102
RTVSPost2010Prop33
280
     0
102
RTVSPost2010PropOp33
 70
     1
102
RTVSPost2010Prop34
280
     0
102
RTVSPost2010PropOp34
 70
     1
102
RTVSPost2010Prop35
280
     0
102
RTVSPost2010PropOp35
 70
     1
102
RTVSPost2010Prop36
280
     0
102
RTVSPost2010PropOp36
 70
     1
102
RTVSPost2010Prop37
 90
       50
102
RTVSPost2010PropOp37
 70
     1
102
RTVSPost2010Prop38
140
0.0
102
RTVSPost2010PropOp38
 70
     1
102
RTVSPost2010Prop39
140
1.0
102
RTVSPost2010PropOp39
 70
     1
102
RTVSPost2010Prop40
 90
        0
102
RTVSPost2010PropOp40
 70
     1
102
RTVSPost2010Prop41ColorIndex
 90
       18
102
RTVSPost2010Prop41ColorRGB
 90
        0
102
RTVSPost2010PropOp41
 70
     1
102
RTVSPost2010Prop42
 90
       50
102
RTVSPost2010PropOp42
 70
     1
102
RTVSPost2010Prop43
 90
        3
102
RTVSPost2010PropOp43
 70
     1
102
RTVSPost2010Prop44ColorIndex
 90
        5
102
RTVSPost2010Prop44ColorRGB
 90
      255
102
RTVSPost2010PropOp44
 70
     1
102
RTVSPost2010Prop45
280
     0
102
RTVSPost2010PropOp45
 70
     1
102
RTVSPost2010Prop46
 90
       50
102
RTVSPost2010PropOp46
 70
     1
102
RTVSPost2010Prop47
 90
       50
102
RTVSPost2010PropOp47
 70
     1
102
RTVSPost2010Prop48
 90
       50
102
RTVSPost2010PropOp48
 70
     1
102
RTVSPost2010Prop49
280
     0
102
RTVSPost2010PropOp49
 70
     1
102
RTVSPost2010Prop50
 90
       50
102
RTVSPost2010PropOp50
 70
     1
102
RTVSPost2010Prop51ColorIndex
 90
      256
102
RTVSPost2010Prop51ColorRGB
 90
-16777216
102
RTVSPost2010PropOp51
 70
     0
102
RTVSPost2010Prop52
140
1.0
102
RTVSPost2010PropOp52
 70
     0
102
RTVSPost2010Prop53
 90
        2
102
RTVSPost2010PropOp53
 70
     1
102
RTVSPost2010Prop54
  1
strokes_ogs.tif
102
RTVSPost2010PropOp54
 70
     1
102
RTVSPost2010Prop55
280
     0
102
RTVSPost2010PropOp55
 70
     1
102
RTVSPost2010Prop56
140
1.0
102
RTVSPost2010PropOp56
 70
     1
102
RTVSPost2010Prop57
140
1.0
102
RTVSPost2010PropOp57
 70
     1
102
RTVSPropertyOp0
 70
     1
102
RTVSPropertyOp1
 70
     1
102
RTVSPropertyOp2
 70
     1
102
RTVSPropertyOp3
 70
     1
102
RTVSPropertyOp4
 70
     1
102
RTVSPropertyOp5
 70
     1
102
RTVSPropertyOp6
 70
     1
102
RTVSPropertyOp7
 70
     1
102
RTVSPropertyOp8
 70
     1
102
RTVSPropertyOp9
 70
     1
102
RTVSPropertyOp10
 70
     1
102
RTVSPropertyOp11
 70
     1
102
RTVSPropertyOp12
 70
     1
102
RTVSPropertyOp13
 70
     1
102
RTVSPropertyOp14
 70
     1
102
RTVSPropertyOp15
 70
     1
102
RTVSPropertyOp16
 70
     1
102
RTVSPropertyOp17
 70
     1
102
RTVSPropertyOp18
 70
     1
102
RTVSPropertyOp19
 70
     1
102
RTVSPropertyOp20
 70
     1
102
RTVSPropertyOp21
 70
     1
102
RTVSPropertyOp22
 70
     1
102
RTVSPropertyOp23
 70
     1
102
RTVSPropertyOp24
 70
     1
102
RTVSPropertyOp25
 70
     1
102
RTVSPropertyOp26
 70
     1
102
RTVSPropertyOp27
 70
     1
102
RTVSPropertyOp28
 70
     1
102
RTVSPropertyOp29
 70
     1
102
RTVSPropertyOp30
 70
     1
102
RTVSPropertyOp31
 70
     1
102
RTVSPropertyOp32
 70
     1
102
RTVSPropertyOp33
 70
     1
102
RTVSPropertyOp34
 70
     1
102
RTVSPropertyOp35
 70
     1
102
RTVSPropertyOp36
 70
     1
102
RTVSPropertyOp37
 70
     1
102
RTVSPropertyOp38
 70
     1
102
RTVSPropertyOp39
 70
     1
102
RTVSPropertyOp40
 70
     1
102
RTVSPropertyOp41
 70
     1
102
RTVSPropertyOp42
 70
     1
102
RTVSPropertyOp43
 70
     1
102
RTVSPropertyOp44
 70
     1
102
RTVSPropertyOp45
 70
     1
102
RTVSPropertyOp46
 70
     1
102
RTVSPropertyOp47
 70
     1
102
RTVSPropertyOp48
 70
     1
102
RTVSPropertyOp49
 70
     1
102
RTVSPropertyOp50
 70
     1
102
RTVSPropertyOp51
 70
     0
102
RTVSPropertyOp52
 70
     0
102
RTVSPropertyOp53
 70
     1
102
RTVSPropertyOp54
 70
     1
102
RTVSPropertyOp55
 70
     1
102
RTVSPropertyOp56
 70
     1
102
RTVSPropertyOp57
 70
     1
102
RTVSPropertyOp58
 70
     1
102
RTVSPropertyOp59
 70
     1
102
RTVSPropertyOp60
 70
     1
102
RTVSPropertyOp61
 70
     1
102
RTVSPropertyOp62
 70
     1
  0
XRECORD
  5
39C
102
{ACAD_REACTORS
330
39B
102
}
330
39B
100
AcDbXrecord
280
     1
102
RTVSPost2010Prop28
280
     0
102
RTVSPost2010PropOp28
 70
     0
102
RTVSPost2010Prop29
280
     1
102
RTVSPost2010PropOp29
 70
     0
102
RTVSPost2010Prop30
280
     1
102
RTVSPost2010PropOp30
 70
     0
102
RTVSPost2010Prop31
280
     0
102
RTVSPost2010PropOp31
 70
     0
102
RTVSPost2010Prop32
280
     0
102
RTVSPost2010PropOp32
 70
     0
102
RTVSPost2010Prop33
280
     0
102
RTVSPost2010PropOp33
 70
     0
102
RTVSPost2010Prop34
280
     0
102
RTVSPost2010PropOp34
 70
     0
102
RTVSPost2010Prop35
280
     0
102
RTVSPost2010PropOp35
 70
     0
102
RTVSPost2010Prop36
280
     0
102
RTVSPost2010PropOp36
 70
     0
102
RTVSPost2010Prop37
 90
       50
102
RTVSPost2010PropOp37
 70
     0
102
RTVSPost2010Prop38
140
0.0
102
RTVSPost2010PropOp38
 70
     0
102
RTVSPost2010Prop39
140
1.0
102
RTVSPost2010PropOp39
 70
     0
102
RTVSPost2010Prop40
 90
        0
102
RTVSPost2010PropOp40
 70
     0
102
RTVSPost2010Prop41ColorIndex
 90
       18
102
RTVSPost2010Prop41ColorRGB
 90
        0
102
RTVSPost2010PropOp41
 70
     0
102
RTVSPost2010Prop42
 90
       50
102
RTVSPost2010PropOp42
 70
     0
102
RTVSPost2010Prop43
 90
        3
102
RTVSPost2010PropOp43
 70
     0
102
RTVSPost2010Prop44ColorIndex
 90
        5
102
RTVSPost2010Prop44ColorRGB
 90
      255
102
RTVSPost2010PropOp44
 70
     0
102
RTVSPost2010Prop45
280
     0
102
RTVSPost2010PropOp45
 70
     0
102
RTVSPost2010Prop46
 90
       50
102
RTVSPost2010PropOp46
 70
     0
102
RTVSPost2010Prop47
 90
       50
102
RTVSPost2010PropOp47
 70
     0
102
RTVSPost2010Prop48
 90
       50
102
RTVSPost2010PropOp48
 70
     0
102
RTVSPost2010Prop49
280
     0
102
RTVSPost2010PropOp49
 70
     0
102
RTVSPost2010Prop50
 90
       50
102
RTVSPost2010PropOp50
 70
     0
102
RTVSPost2010Prop51ColorIndex
 90
      256
102
RTVSPost2010Prop51ColorRGB
 90
-16777216
102
RTVSPost2010PropOp51
 70
     0
102
RTVSPost2010Prop52
140
1.0
102
RTVSPost2010PropOp52
 70
     0
102
RTVSPost2010Prop53
 90
        2
102
RTVSPost2010PropOp53
 70
     0
102
RTVSPost2010Prop54
  1
strokes_ogs.tif
102
RTVSPost2010PropOp54
 70
     0
102
RTVSPost2010Prop55
280
     0
102
RTVSPost2010PropOp55
 70
     0
102
RTVSPost2010Prop56
140
1.0
102
RTVSPost2010PropOp56
 70
     0
102
RTVSPost2010Prop57
140
1.0
102
RTVSPost2010PropOp57
 70
     0
102
RTVSPropertyOp0
 70
     0
102
RTVSPropertyOp1
 70
     0
102
RTVSPropertyOp2
 70
     0
102
RTVSPropertyOp3
 70
     0
102
RTVSPropertyOp4
 70
     0
102
RTVSPropertyOp5
 70
     0
102
RTVSPropertyOp6
 70
     0
102
RTVSPropertyOp7
 70
     0
102
RTVSPropertyOp8
 70
     0
102
RTVSPropertyOp9
 70
     0
102
RTVSPropertyOp10
 70
     0
102
RTVSPropertyOp11
 70
     0
102
RTVSPropertyOp12
 70
     0
102
RTVSPropertyOp13
 70
     0
102
RTVSPropertyOp14
 70
     2
102
RTVSPropertyOp15
 70
     0
102
RTVSPropertyOp16
 70
     0
102
RTVSPropertyOp17
 70
     0
102
RTVSPropertyOp18
 70
     0
102
RTVSPropertyOp19
 70
     0
102
RTVSPropertyOp20
 70
     0
102
RTVSPropertyOp21
 70
     0
102
RTVSPropertyOp22
 70
     0
102
RTVSPropertyOp23
 70
     0
102
RTVSPropertyOp24
 70
     0
102
RTVSPropertyOp25
 70
     0
102
RTVSPropertyOp26
 70
     0
102
RTVSPropertyOp27
 70
     0
102
RTVSPropertyOp28
 70
     0
102
RTVSPropertyOp29
 70
     0
102
RTVSPropertyOp30
 70
     0
102
RTVSPropertyOp31
 70
     0
102
RTVSPropertyOp32
 70
     0
102
RTVSPropertyOp33
 70
     0
102
RTVSPropertyOp34
 70
     0
102
RTVSPropertyOp35
 70
     0
102
RTVSPropertyOp36
 70
     0
102
RTVSPropertyOp37
 70
     0
102
RTVSPropertyOp38
 70
     0
102
RTVSPropertyOp39
 70
     0
102
RTVSPropertyOp40
 70
     0
102
RTVSPropertyOp41
 70
     0
102
RTVSPropertyOp42
 70
     0
102
RTVSPropertyOp43
 70
     0
102
RTVSPropertyOp44
 70
     0
102
RTVSPropertyOp45
 70
     0
102
RTVSPropertyOp46
 70
     0
102
RTVSPropertyOp47
 70
     0
102
RTVSPropertyOp48
 70
     0
102
RTVSPropertyOp49
 70
     0
102
RTVSPropertyOp50
 70
     0
102
RTVSPropertyOp51
 70
     0
102
RTVSPropertyOp52
 70
     0
102
RTVSPropertyOp53
 70
     0
102
RTVSPropertyOp54
 70
     0
102
RTVSPropertyOp55
 70
     0
102
RTVSPropertyOp56
 70
     0
102
RTVSPropertyOp57
 70
     0
102
RTVSPropertyOp58
 70
     1
102
RTVSPropertyOp59
 70
     1
102
RTVSPropertyOp60
 70
     1
102
RTVSPropertyOp61
 70
     1
102
RTVSPropertyOp62
 70
     1
  0
XRECORD
  5
394
102
{ACAD_REACTORS
330
393
102
}
330
393
100
AcDbXrecord
280
     1
102
RTVSPost2010Prop28
280
     0
102
RTVSPost2010PropOp28
 70
     1
102
RTVSPost2010Prop29
280
     1
102
RTVSPost2010PropOp29
 70
     1
102
RTVSPost2010Prop30
280
     1
102
RTVSPost2010PropOp30
 70
     1
102
RTVSPost2010Prop31
280
     0
102
RTVSPost2010PropOp31
 70
     1
102
RTVSPost2010Prop32
280
     0
102
RTVSPost2010PropOp32
 70
     1
102
RTVSPost2010Prop33
280
     0
102
RTVSPost2010PropOp33
 70
     1
102
RTVSPost2010Prop34
280
     0
102
RTVSPost2010PropOp34
 70
     1
102
RTVSPost2010Prop35
280
     0
102
RTVSPost2010PropOp35
 70
     1
102
RTVSPost2010Prop36
280
     0
102
RTVSPost2010PropOp36
 70
     1
102
RTVSPost2010Prop37
 90
       50
102
RTVSPost2010PropOp37
 70
     1
102
RTVSPost2010Prop38
140
0.0
102
RTVSPost2010PropOp38
 70
     1
102
RTVSPost2010Prop39
140
1.0
102
RTVSPost2010PropOp39
 70
     1
102
RTVSPost2010Prop40
 90
        0
102
RTVSPost2010PropOp40
 70
     1
102
RTVSPost2010Prop41ColorIndex
 90
       18
102
RTVSPost2010Prop41ColorRGB
 90
        0
102
RTVSPost2010PropOp41
 70
     1
102
RTVSPost2010Prop42
 90
       50
102
RTVSPost2010PropOp42
 70
     1
102
RTVSPost2010Prop43
 90
        3
102
RTVSPost2010PropOp43
 70
     1
102
RTVSPost2010Prop44ColorIndex
 90
        5
102
RTVSPost2010Prop44ColorRGB
 90
      255
102
RTVSPost2010PropOp44
 70
     1
102
RTVSPost2010Prop45
280
     0
102
RTVSPost2010PropOp45
 70
     1
102
RTVSPost2010Prop46
 90
       50
102
RTVSPost2010PropOp46
 70
     1
102
RTVSPost2010Prop47
 90
       50
102
RTVSPost2010PropOp47
 70
     1
102
RTVSPost2010Prop48
 90
       50
102
RTVSPost2010PropOp48
 70
     1
102
RTVSPost2010Prop49
280
     0
102
RTVSPost2010PropOp49
 70
     1
102
RTVSPost2010Prop50
 90
       50
102
RTVSPost2010PropOp50
 70
     1
102
RTVSPost2010Prop51ColorIndex
 90
      256
102
RTVSPost2010Prop51ColorRGB
 90
-16777216
102
RTVSPost2010PropOp51
 70
     0
102
RTVSPost2010Prop52
140
1.0
102
RTVSPost2010PropOp52
 70
     0
102
RTVSPost2010Prop53
 90
        2
102
RTVSPost2010PropOp53
 70
     1
102
RTVSPost2010Prop54
  1
strokes_ogs.tif
102
RTVSPost2010PropOp54
 70
     1
102
RTVSPost2010Prop55
280
     0
102
RTVSPost2010PropOp55
 70
     1
102
RTVSPost2010Prop56
140
1.0
102
RTVSPost2010PropOp56
 70
     1
102
RTVSPost2010Prop57
140
1.0
102
RTVSPost2010PropOp57
 70
     1
102
RTVSPropertyOp0
 70
     1
102
RTVSPropertyOp1
 70
     1
102
RTVSPropertyOp2
 70
     1
102
RTVSPropertyOp3
 70
     1
102
RTVSPropertyOp4
 70
     1
102
RTVSPropertyOp5
 70
     1
102
RTVSPropertyOp6
 70
     1
102
RTVSPropertyOp7
 70
     1
102
RTVSPropertyOp8
 70
     1
102
RTVSPropertyOp9
 70
     1
102
RTVSPropertyOp10
 70
     1
102
RTVSPropertyOp11
 70
     1
102
RTVSPropertyOp12
 70
     1
102
RTVSPropertyOp13
 70
     1
102
RTVSPropertyOp14
 70
     1
102
RTVSPropertyOp15
 70
     1
102
RTVSPropertyOp16
 70
     1
102
RTVSPropertyOp17
 70
     1
102
RTVSPropertyOp18
 70
     1
102
RTVSPropertyOp19
 70
     1
102
RTVSPropertyOp20
 70
     1
102
RTVSPropertyOp21
 70
     1
102
RTVSPropertyOp22
 70
     1
102
RTVSPropertyOp23
 70
     1
102
RTVSPropertyOp24
 70
     1
102
RTVSPropertyOp25
 70
     1
102
RTVSPropertyOp26
 70
     1
102
RTVSPropertyOp27
 70
     1
102
RTVSPropertyOp28
 70
     1
102
RTVSPropertyOp29
 70
     1
102
RTVSPropertyOp30
 70
     1
102
RTVSPropertyOp31
 70
     1
102
RTVSPropertyOp32
 70
     1
102
RTVSPropertyOp33
 70
     1
102
RTVSPropertyOp34
 70
     1
102
RTVSPropertyOp35
 70
     1
102
RTVSPropertyOp36
 70
     1
102
RTVSPropertyOp37
 70
     1
102
RTVSPropertyOp38
 70
     1
102
RTVSPropertyOp39
 70
     1
102
RTVSPropertyOp40
 70
     1
102
RTVSPropertyOp41
 70
     1
102
RTVSPropertyOp42
 70
     1
102
RTVSPropertyOp43
 70
     1
102
RTVSPropertyOp44
 70
     1
102
RTVSPropertyOp45
 70
     1
102
RTVSPropertyOp46
 70
     1
102
RTVSPropertyOp47
 70
     1
102
RTVSPropertyOp48
 70
     1
102
RTVSPropertyOp49
 70
     1
102
RTVSPropertyOp50
 70
     1
102
RTVSPropertyOp51
 70
     0
102
RTVSPropertyOp52
 70
     0
102
RTVSPropertyOp53
 70
     1
102
RTVSPropertyOp54
 70
     1
102
RTVSPropertyOp55
 70
     1
102
RTVSPropertyOp56
 70
     1
102
RTVSPropertyOp57
 70
     1
102
RTVSPropertyOp58
 70
     1
102
RTVSPropertyOp59
 70
     1
102
RTVSPropertyOp60
 70
     1
102
RTVSPropertyOp61
 70
     1
102
RTVSPropertyOp62
 70
     1
  0
XRECORD
  5
378
102
{ACAD_REACTORS
330
377
102
}
330
377
100
AcDbXrecord
280
     1
102
RTVSPost2010Prop28
280
     0
102
RTVSPost2010PropOp28
 70
     1
102
RTVSPost2010Prop29
280
     1
102
RTVSPost2010PropOp29
 70
     1
102
RTVSPost2010Prop30
280
     1
102
RTVSPost2010PropOp30
 70
     1
102
RTVSPost2010Prop31
280
     0
102
RTVSPost2010PropOp31
 70
     1
102
RTVSPost2010Prop32
280
     0
102
RTVSPost2010PropOp32
 70
     1
102
RTVSPost2010Prop33
280
     0
102
RTVSPost2010PropOp33
 70
     1
102
RTVSPost2010Prop34
280
     0
102
RTVSPost2010PropOp34
 70
     1
102
RTVSPost2010Prop35
280
     0
102
RTVSPost2010PropOp35
 70
     1
102
RTVSPost2010Prop36
280
     0
102
RTVSPost2010PropOp36
 70
     1
102
RTVSPost2010Prop37
 90
       50
102
RTVSPost2010PropOp37
 70
     1
102
RTVSPost2010Prop38
140
0.0
102
RTVSPost2010PropOp38
 70
     1
102
RTVSPost2010Prop39
140
1.0
102
RTVSPost2010PropOp39
 70
     1
102
RTVSPost2010Prop40
 90
        0
102
RTVSPost2010PropOp40
 70
     1
102
RTVSPost2010Prop41ColorIndex
 90
       18
102
RTVSPost2010Prop41ColorRGB
 90
        0
102
RTVSPost2010PropOp41
 70
     1
102
RTVSPost2010Prop42
 90
       50
102
RTVSPost2010PropOp42
 70
     1
102
RTVSPost2010Prop43
 90
        3
102
RTVSPost2010PropOp43
 70
     1
102
RTVSPost2010Prop44ColorIndex
 90
        5
102
RTVSPost2010Prop44ColorRGB
 90
      255
102
RTVSPost2010PropOp44
 70
     1
102
RTVSPost2010Prop45
280
     0
102
RTVSPost2010PropOp45
 70
     1
102
RTVSPost2010Prop46
 90
       50
102
RTVSPost2010PropOp46
 70
     1
102
RTVSPost2010Prop47
 90
       50
102
RTVSPost2010PropOp47
 70
     1
102
RTVSPost2010Prop48
 90
       50
102
RTVSPost2010PropOp48
 70
     1
102
RTVSPost2010Prop49
280
     0
102
RTVSPost2010PropOp49
 70
     1
102
RTVSPost2010Prop50
 90
       50
102
RTVSPost2010PropOp50
 70
     1
102
RTVSPost2010Prop51ColorIndex
 90
      256
102
RTVSPost2010Prop51ColorRGB
 90
-16777216
102
RTVSPost2010PropOp51
 70
     0
102
RTVSPost2010Prop52
140
1.0
102
RTVSPost2010PropOp52
 70
     0
102
RTVSPost2010Prop53
 90
        2
102
RTVSPost2010PropOp53
 70
     1
102
RTVSPost2010Prop54
  1
strokes_ogs.tif
102
RTVSPost2010PropOp54
 70
     1
102
RTVSPost2010Prop55
280
     0
102
RTVSPost2010PropOp55
 70
     1
102
RTVSPost2010Prop56
140
1.0
102
RTVSPost2010PropOp56
 70
     1
102
RTVSPost2010Prop57
140
1.0
102
RTVSPost2010PropOp57
 70
     1
102
RTVSPropertyOp0
 70
     1
102
RTVSPropertyOp1
 70
     1
102
RTVSPropertyOp2
 70
     1
102
RTVSPropertyOp3
 70
     1
102
RTVSPropertyOp4
 70
     1
102
RTVSPropertyOp5
 70
     1
102
RTVSPropertyOp6
 70
     1
102
RTVSPropertyOp7
 70
     1
102
RTVSPropertyOp8
 70
     1
102
RTVSPropertyOp9
 70
     1
102
RTVSPropertyOp10
 70
     1
102
RTVSPropertyOp11
 70
     1
102
RTVSPropertyOp12
 70
     1
102
RTVSPropertyOp13
 70
     1
102
RTVSPropertyOp14
 70
     1
102
RTVSPropertyOp15
 70
     1
102
RTVSPropertyOp16
 70
     1
102
RTVSPropertyOp17
 70
     1
102
RTVSPropertyOp18
 70
     1
102
RTVSPropertyOp19
 70
     1
102
RTVSPropertyOp20
 70
     1
102
RTVSPropertyOp21
 70
     1
102
RTVSPropertyOp22
 70
     1
102
RTVSPropertyOp23
 70
     1
102
RTVSPropertyOp24
 70
     1
102
RTVSPropertyOp25
 70
     1
102
RTVSPropertyOp26
 70
     1
102
RTVSPropertyOp27
 70
     1
102
RTVSPropertyOp28
 70
     1
102
RTVSPropertyOp29
 70
     1
102
RTVSPropertyOp30
 70
     1
102
RTVSPropertyOp31
 70
     1
102
RTVSPropertyOp32
 70
     1
102
RTVSPropertyOp33
 70
     1
102
RTVSPropertyOp34
 70
     1
102
RTVSPropertyOp35
 70
     1
102
RTVSPropertyOp36
 70
     1
102
RTVSPropertyOp37
 70
     1
102
RTVSPropertyOp38
 70
     1
102
RTVSPropertyOp39
 70
     1
102
RTVSPropertyOp40
 70
     1
102
RTVSPropertyOp41
 70
     1
102
RTVSPropertyOp42
 70
     1
102
RTVSPropertyOp43
 70
     1
102
RTVSPropertyOp44
 70
     1
102
RTVSPropertyOp45
 70
     1
102
RTVSPropertyOp46
 70
     1
102
RTVSPropertyOp47
 70
     1
102
RTVSPropertyOp48
 70
     1
102
RTVSPropertyOp49
 70
     1
102
RTVSPropertyOp50
 70
     1
102
RTVSPropertyOp51
 70
     0
102
RTVSPropertyOp52
 70
     0
102
RTVSPropertyOp53
 70
     1
102
RTVSPropertyOp54
 70
     1
102
RTVSPropertyOp55
 70
     1
102
RTVSPropertyOp56
 70
     1
102
RTVSPropertyOp57
 70
     1
102
RTVSPropertyOp58
 70
     1
102
RTVSPropertyOp59
 70
     1
102
RTVSPropertyOp60
 70
     1
102
RTVSPropertyOp61
 70
     1
102
RTVSPropertyOp62
 70
     1
  0
XRECORD
  5
37A
102
{ACAD_REACTORS
330
379
102
}
330
379
100
AcDbXrecord
280
     1
102
RTVSPost2010Prop28
280
     0
102
RTVSPost2010PropOp28
 70
     1
102
RTVSPost2010Prop29
280
     1
102
RTVSPost2010PropOp29
 70
     1
102
RTVSPost2010Prop30
280
     1
102
RTVSPost2010PropOp30
 70
     1
102
RTVSPost2010Prop31
280
     0
102
RTVSPost2010PropOp31
 70
     1
102
RTVSPost2010Prop32
280
     0
102
RTVSPost2010PropOp32
 70
     1
102
RTVSPost2010Prop33
280
     0
102
RTVSPost2010PropOp33
 70
     1
102
RTVSPost2010Prop34
280
     0
102
RTVSPost2010PropOp34
 70
     1
102
RTVSPost2010Prop35
280
     0
102
RTVSPost2010PropOp35
 70
     1
102
RTVSPost2010Prop36
280
     0
102
RTVSPost2010PropOp36
 70
     1
102
RTVSPost2010Prop37
 90
       50
102
RTVSPost2010PropOp37
 70
     1
102
RTVSPost2010Prop38
140
0.0
102
RTVSPost2010PropOp38
 70
     1
102
RTVSPost2010Prop39
140
1.0
102
RTVSPost2010PropOp39
 70
     1
102
RTVSPost2010Prop40
 90
        0
102
RTVSPost2010PropOp40
 70
     1
102
RTVSPost2010Prop41ColorIndex
 90
       18
102
RTVSPost2010Prop41ColorRGB
 90
        0
102
RTVSPost2010PropOp41
 70
     1
102
RTVSPost2010Prop42
 90
       50
102
RTVSPost2010PropOp42
 70
     1
102
RTVSPost2010Prop43
 90
        3
102
RTVSPost2010PropOp43
 70
     1
102
RTVSPost2010Prop44ColorIndex
 90
        5
102
RTVSPost2010Prop44ColorRGB
 90
      255
102
RTVSPost2010PropOp44
 70
     1
102
RTVSPost2010Prop45
280
     0
102
RTVSPost2010PropOp45
 70
     1
102
RTVSPost2010Prop46
 90
       50
102
RTVSPost2010PropOp46
 70
     1
102
RTVSPost2010Prop47
 90
       50
102
RTVSPost2010PropOp47
 70
     1
102
RTVSPost2010Prop48
 90
       50
102
RTVSPost2010PropOp48
 70
     1
102
RTVSPost2010Prop49
280
     0
102
RTVSPost2010PropOp49
 70
     1
102
RTVSPost2010Prop50
 90
       50
102
RTVSPost2010PropOp50
 70
     1
102
RTVSPost2010Prop51ColorIndex
 90
      256
102
RTVSPost2010Prop51ColorRGB
 90
-16777216
102
RTVSPost2010PropOp51
 70
     0
102
RTVSPost2010Prop52
140
1.0
102
RTVSPost2010PropOp52
 70
     0
102
RTVSPost2010Prop53
 90
        2
102
RTVSPost2010PropOp53
 70
     1
102
RTVSPost2010Prop54
  1
strokes_ogs.tif
102
RTVSPost2010PropOp54
 70
     1
102
RTVSPost2010Prop55
280
     0
102
RTVSPost2010PropOp55
 70
     1
102
RTVSPost2010Prop56
140
1.0
102
RTVSPost2010PropOp56
 70
     1
102
RTVSPost2010Prop57
140
1.0
102
RTVSPost2010PropOp57
 70
     1
102
RTVSPropertyOp0
 70
     1
102
RTVSPropertyOp1
 70
     1
102
RTVSPropertyOp2
 70
     1
102
RTVSPropertyOp3
 70
     1
102
RTVSPropertyOp4
 70
     1
102
RTVSPropertyOp5
 70
     1
102
RTVSPropertyOp6
 70
     1
102
RTVSPropertyOp7
 70
     1
102
RTVSPropertyOp8
 70
     1
102
RTVSPropertyOp9
 70
     1
102
RTVSPropertyOp10
 70
     1
102
RTVSPropertyOp11
 70
     1
102
RTVSPropertyOp12
 70
     1
102
RTVSPropertyOp13
 70
     1
102
RTVSPropertyOp14
 70
     1
102
RTVSPropertyOp15
 70
     1
102
RTVSPropertyOp16
 70
     1
102
RTVSPropertyOp17
 70
     1
102
RTVSPropertyOp18
 70
     1
102
RTVSPropertyOp19
 70
     1
102
RTVSPropertyOp20
 70
     1
102
RTVSPropertyOp21
 70
     1
102
RTVSPropertyOp22
 70
     1
102
RTVSPropertyOp23
 70
     1
102
RTVSPropertyOp24
 70
     1
102
RTVSPropertyOp25
 70
     1
102
RTVSPropertyOp26
 70
     1
102
RTVSPropertyOp27
 70
     1
102
RTVSPropertyOp28
 70
     1
102
RTVSPropertyOp29
 70
     1
102
RTVSPropertyOp30
 70
     1
102
RTVSPropertyOp31
 70
     1
102
RTVSPropertyOp32
 70
     1
102
RTVSPropertyOp33
 70
     1
102
RTVSPropertyOp34
 70
     1
102
RTVSPropertyOp35
 70
     1
102
RTVSPropertyOp36
 70
     1
102
RTVSPropertyOp37
 70
     1
102
RTVSPropertyOp38
 70
     1
102
RTVSPropertyOp39
 70
     1
102
RTVSPropertyOp40
 70
     1
102
RTVSPropertyOp41
 70
     1
102
RTVSPropertyOp42
 70
     1
102
RTVSPropertyOp43
 70
     1
102
RTVSPropertyOp44
 70
     1
102
RTVSPropertyOp45
 70
     1
102
RTVSPropertyOp46
 70
     1
102
RTVSPropertyOp47
 70
     1
102
RTVSPropertyOp48
 70
     1
102
RTVSPropertyOp49
 70
     1
102
RTVSPropertyOp50
 70
     1
102
RTVSPropertyOp51
 70
     0
102
RTVSPropertyOp52
 70
     0
102
RTVSPropertyOp53
 70
     1
102
RTVSPropertyOp54
 70
     1
102
RTVSPropertyOp55
 70
     1
102
RTVSPropertyOp56
 70
     1
102
RTVSPropertyOp57
 70
     1
102
RTVSPropertyOp58
 70
     1
102
RTVSPropertyOp59
 70
     1
102
RTVSPropertyOp60
 70
     1
102
RTVSPropertyOp61
 70
     1
102
RTVSPropertyOp62
 70
     1
  0
XRECORD
  5
37C
102
{ACAD_REACTORS
330
37B
102
}
330
37B
100
AcDbXrecord
280
     1
102
RTVSPost2010Prop28
280
     0
102
RTVSPost2010PropOp28
 70
     1
102
RTVSPost2010Prop29
280
     1
102
RTVSPost2010PropOp29
 70
     1
102
RTVSPost2010Prop30
280
     1
102
RTVSPost2010PropOp30
 70
     1
102
RTVSPost2010Prop31
280
     0
102
RTVSPost2010PropOp31
 70
     1
102
RTVSPost2010Prop32
280
     0
102
RTVSPost2010PropOp32
 70
     1
102
RTVSPost2010Prop33
280
     0
102
RTVSPost2010PropOp33
 70
     1
102
RTVSPost2010Prop34
280
     0
102
RTVSPost2010PropOp34
 70
     1
102
RTVSPost2010Prop35
280
     0
102
RTVSPost2010PropOp35
 70
     1
102
RTVSPost2010Prop36
280
     0
102
RTVSPost2010PropOp36
 70
     1
102
RTVSPost2010Prop37
 90
       50
102
RTVSPost2010PropOp37
 70
     1
102
RTVSPost2010Prop38
140
0.0
102
RTVSPost2010PropOp38
 70
     1
102
RTVSPost2010Prop39
140
1.0
102
RTVSPost2010PropOp39
 70
     1
102
RTVSPost2010Prop40
 90
        0
102
RTVSPost2010PropOp40
 70
     1
102
RTVSPost2010Prop41ColorIndex
 90
       18
102
RTVSPost2010Prop41ColorRGB
 90
        0
102
RTVSPost2010PropOp41
 70
     1
102
RTVSPost2010Prop42
 90
       50
102
RTVSPost2010PropOp42
 70
     1
102
RTVSPost2010Prop43
 90
        3
102
RTVSPost2010PropOp43
 70
     1
102
RTVSPost2010Prop44ColorIndex
 90
        5
102
RTVSPost2010Prop44ColorRGB
 90
      255
102
RTVSPost2010PropOp44
 70
     1
102
RTVSPost2010Prop45
280
     0
102
RTVSPost2010PropOp45
 70
     1
102
RTVSPost2010Prop46
 90
       50
102
RTVSPost2010PropOp46
 70
     1
102
RTVSPost2010Prop47
 90
       50
102
RTVSPost2010PropOp47
 70
     1
102
RTVSPost2010Prop48
 90
       50
102
RTVSPost2010PropOp48
 70
     1
102
RTVSPost2010Prop49
280
     0
102
RTVSPost2010PropOp49
 70
     1
102
RTVSPost2010Prop50
 90
       50
102
RTVSPost2010PropOp50
 70
     1
102
RTVSPost2010Prop51ColorIndex
 90
      256
102
RTVSPost2010Prop51ColorRGB
 90
-16777216
102
RTVSPost2010PropOp51
 70
     0
102
RTVSPost2010Prop52
140
1.0
102
RTVSPost2010PropOp52
 70
     0
102
RTVSPost2010Prop53
 90
        2
102
RTVSPost2010PropOp53
 70
     1
102
RTVSPost2010Prop54
  1
strokes_ogs.tif
102
RTVSPost2010PropOp54
 70
     1
102
RTVSPost2010Prop55
280
     0
102
RTVSPost2010PropOp55
 70
     1
102
RTVSPost2010Prop56
140
1.0
102
RTVSPost2010PropOp56
 70
     1
102
RTVSPost2010Prop57
140
1.0
102
RTVSPost2010PropOp57
 70
     1
102
RTVSPropertyOp0
 70
     1
102
RTVSPropertyOp1
 70
     1
102
RTVSPropertyOp2
 70
     1
102
RTVSPropertyOp3
 70
     1
102
RTVSPropertyOp4
 70
     1
102
RTVSPropertyOp5
 70
     1
102
RTVSPropertyOp6
 70
     1
102
RTVSPropertyOp7
 70
     1
102
RTVSPropertyOp8
 70
     1
102
RTVSPropertyOp9
 70
     1
102
RTVSPropertyOp10
 70
     1
102
RTVSPropertyOp11
 70
     1
102
RTVSPropertyOp12
 70
     1
102
RTVSPropertyOp13
 70
     1
102
RTVSPropertyOp14
 70
     1
102
RTVSPropertyOp15
 70
     1
102
RTVSPropertyOp16
 70
     1
102
RTVSPropertyOp17
 70
     1
102
RTVSPropertyOp18
 70
     1
102
RTVSPropertyOp19
 70
     1
102
RTVSPropertyOp20
 70
     1
102
RTVSPropertyOp21
 70
     1
102
RTVSPropertyOp22
 70
     1
102
RTVSPropertyOp23
 70
     1
102
RTVSPropertyOp24
 70
     1
102
RTVSPropertyOp25
 70
     1
102
RTVSPropertyOp26
 70
     1
102
RTVSPropertyOp27
 70
     1
102
RTVSPropertyOp28
 70
     1
102
RTVSPropertyOp29
 70
     1
102
RTVSPropertyOp30
 70
     1
102
RTVSPropertyOp31
 70
     1
102
RTVSPropertyOp32
 70
     1
102
RTVSPropertyOp33
 70
     1
102
RTVSPropertyOp34
 70
     1
102
RTVSPropertyOp35
 70
     1
102
RTVSPropertyOp36
 70
     1
102
RTVSPropertyOp37
 70
     1
102
RTVSPropertyOp38
 70
     1
102
RTVSPropertyOp39
 70
     1
102
RTVSPropertyOp40
 70
     1
102
RTVSPropertyOp41
 70
     1
102
RTVSPropertyOp42
 70
     1
102
RTVSPropertyOp43
 70
     1
102
RTVSPropertyOp44
 70
     1
102
RTVSPropertyOp45
 70
     1
102
RTVSPropertyOp46
 70
     1
102
RTVSPropertyOp47
 70
     1
102
RTVSPropertyOp48
 70
     1
102
RTVSPropertyOp49
 70
     1
102
RTVSPropertyOp50
 70
     1
102
RTVSPropertyOp51
 70
     0
102
RTVSPropertyOp52
 70
     0
102
RTVSPropertyOp53
 70
     1
102
RTVSPropertyOp54
 70
     1
102
RTVSPropertyOp55
 70
     1
102
RTVSPropertyOp56
 70
     1
102
RTVSPropertyOp57
 70
     1
102
RTVSPropertyOp58
 70
     1
102
RTVSPropertyOp59
 70
     1
102
RTVSPropertyOp60
 70
     1
102
RTVSPropertyOp61
 70
     1
102
RTVSPropertyOp62
 70
     1
  0
XRECORD
  5
37E
102
{ACAD_REACTORS
330
37D
102
}
330
37D
100
AcDbXrecord
280
     1
102
RTVSPost2010Prop28
280
     0
102
RTVSPost2010PropOp28
 70
     1
102
RTVSPost2010Prop29
280
     1
102
RTVSPost2010PropOp29
 70
     1
102
RTVSPost2010Prop30
280
     1
102
RTVSPost2010PropOp30
 70
     1
102
RTVSPost2010Prop31
280
     0
102
RTVSPost2010PropOp31
 70
     1
102
RTVSPost2010Prop32
280
     0
102
RTVSPost2010PropOp32
 70
     1
102
RTVSPost2010Prop33
280
     0
102
RTVSPost2010PropOp33
 70
     1
102
RTVSPost2010Prop34
280
     0
102
RTVSPost2010PropOp34
 70
     1
102
RTVSPost2010Prop35
280
     0
102
RTVSPost2010PropOp35
 70
     1
102
RTVSPost2010Prop36
280
     0
102
RTVSPost2010PropOp36
 70
     1
102
RTVSPost2010Prop37
 90
       50
102
RTVSPost2010PropOp37
 70
     1
102
RTVSPost2010Prop38
140
0.0
102
RTVSPost2010PropOp38
 70
     1
102
RTVSPost2010Prop39
140
1.0
102
RTVSPost2010PropOp39
 70
     1
102
RTVSPost2010Prop40
 90
        0
102
RTVSPost2010PropOp40
 70
     1
102
RTVSPost2010Prop41ColorIndex
 90
       18
102
RTVSPost2010Prop41ColorRGB
 90
        0
102
RTVSPost2010PropOp41
 70
     1
102
RTVSPost2010Prop42
 90
       50
102
RTVSPost2010PropOp42
 70
     1
102
RTVSPost2010Prop43
 90
        3
102
RTVSPost2010PropOp43
 70
     1
102
RTVSPost2010Prop44ColorIndex
 90
        5
102
RTVSPost2010Prop44ColorRGB
 90
      255
102
RTVSPost2010PropOp44
 70
     1
102
RTVSPost2010Prop45
280
     0
102
RTVSPost2010PropOp45
 70
     1
102
RTVSPost2010Prop46
 90
       50
102
RTVSPost2010PropOp46
 70
     1
102
RTVSPost2010Prop47
 90
       50
102
RTVSPost2010PropOp47
 70
     1
102
RTVSPost2010Prop48
 90
       50
102
RTVSPost2010PropOp48
 70
     1
102
RTVSPost2010Prop49
280
     0
102
RTVSPost2010PropOp49
 70
     1
102
RTVSPost2010Prop50
 90
       50
102
RTVSPost2010PropOp50
 70
     1
102
RTVSPost2010Prop51ColorIndex
 90
      256
102
RTVSPost2010Prop51ColorRGB
 90
-16777216
102
RTVSPost2010PropOp51
 70
     0
102
RTVSPost2010Prop52
140
1.0
102
RTVSPost2010PropOp52
 70
     0
102
RTVSPost2010Prop53
 90
        2
102
RTVSPost2010PropOp53
 70
     1
102
RTVSPost2010Prop54
  1
strokes_ogs.tif
102
RTVSPost2010PropOp54
 70
     1
102
RTVSPost2010Prop55
280
     0
102
RTVSPost2010PropOp55
 70
     1
102
RTVSPost2010Prop56
140
1.0
102
RTVSPost2010PropOp56
 70
     1
102
RTVSPost2010Prop57
140
1.0
102
RTVSPost2010PropOp57
 70
     1
102
RTVSPropertyOp0
 70
     1
102
RTVSPropertyOp1
 70
     1
102
RTVSPropertyOp2
 70
     1
102
RTVSPropertyOp3
 70
     1
102
RTVSPropertyOp4
 70
     1
102
RTVSPropertyOp5
 70
     1
102
RTVSPropertyOp6
 70
     1
102
RTVSPropertyOp7
 70
     1
102
RTVSPropertyOp8
 70
     1
102
RTVSPropertyOp9
 70
     1
102
RTVSPropertyOp10
 70
     1
102
RTVSPropertyOp11
 70
     1
102
RTVSPropertyOp12
 70
     1
102
RTVSPropertyOp13
 70
     1
102
RTVSPropertyOp14
 70
     1
102
RTVSPropertyOp15
 70
     1
102
RTVSPropertyOp16
 70
     1
102
RTVSPropertyOp17
 70
     1
102
RTVSPropertyOp18
 70
     1
102
RTVSPropertyOp19
 70
     1
102
RTVSPropertyOp20
 70
     1
102
RTVSPropertyOp21
 70
     1
102
RTVSPropertyOp22
 70
     1
102
RTVSPropertyOp23
 70
     1
102
RTVSPropertyOp24
 70
     1
102
RTVSPropertyOp25
 70
     1
102
RTVSPropertyOp26
 70
     1
102
RTVSPropertyOp27
 70
     1
102
RTVSPropertyOp28
 70
     1
102
RTVSPropertyOp29
 70
     1
102
RTVSPropertyOp30
 70
     1
102
RTVSPropertyOp31
 70
     1
102
RTVSPropertyOp32
 70
     1
102
RTVSPropertyOp33
 70
     1
102
RTVSPropertyOp34
 70
     1
102
RTVSPropertyOp35
 70
     1
102
RTVSPropertyOp36
 70
     1
102
RTVSPropertyOp37
 70
     1
102
RTVSPropertyOp38
 70
     1
102
RTVSPropertyOp39
 70
     1
102
RTVSPropertyOp40
 70
     1
102
RTVSPropertyOp41
 70
     1
102
RTVSPropertyOp42
 70
     1
102
RTVSPropertyOp43
 70
     1
102
RTVSPropertyOp44
 70
     1
102
RTVSPropertyOp45
 70
     1
102
RTVSPropertyOp46
 70
     1
102
RTVSPropertyOp47
 70
     1
102
RTVSPropertyOp48
 70
     1
102
RTVSPropertyOp49
 70
     1
102
RTVSPropertyOp50
 70
     1
102
RTVSPropertyOp51
 70
     0
102
RTVSPropertyOp52
 70
     0
102
RTVSPropertyOp53
 70
     1
102
RTVSPropertyOp54
 70
     1
102
RTVSPropertyOp55
 70
     1
102
RTVSPropertyOp56
 70
     1
102
RTVSPropertyOp57
 70
     1
102
RTVSPropertyOp58
 70
     1
102
RTVSPropertyOp59
 70
     1
102
RTVSPropertyOp60
 70
     1
102
RTVSPropertyOp61
 70
     1
102
RTVSPropertyOp62
 70
     1
  0
XRECORD
  5
384
102
{ACAD_REACTORS
330
383
102
}
330
383
100
AcDbXrecord
280
     1
102
RTVSPost2010Prop28
280
     0
102
RTVSPost2010PropOp28
 70
     1
102
RTVSPost2010Prop29
280
     1
102
RTVSPost2010PropOp29
 70
     1
102
RTVSPost2010Prop30
280
     1
102
RTVSPost2010PropOp30
 70
     1
102
RTVSPost2010Prop31
280
     0
102
RTVSPost2010PropOp31
 70
     1
102
RTVSPost2010Prop32
280
     0
102
RTVSPost2010PropOp32
 70
     1
102
RTVSPost2010Prop33
280
     0
102
RTVSPost2010PropOp33
 70
     1
102
RTVSPost2010Prop34
280
     0
102
RTVSPost2010PropOp34
 70
     1
102
RTVSPost2010Prop35
280
     0
102
RTVSPost2010PropOp35
 70
     1
102
RTVSPost2010Prop36
280
     0
102
RTVSPost2010PropOp36
 70
     1
102
RTVSPost2010Prop37
 90
       50
102
RTVSPost2010PropOp37
 70
     1
102
RTVSPost2010Prop38
140
0.0
102
RTVSPost2010PropOp38
 70
     1
102
RTVSPost2010Prop39
140
1.0
102
RTVSPost2010PropOp39
 70
     1
102
RTVSPost2010Prop40
 90
        0
102
RTVSPost2010PropOp40
 70
     1
102
RTVSPost2010Prop41ColorIndex
 90
       18
102
RTVSPost2010Prop41ColorRGB
 90
        0
102
RTVSPost2010PropOp41
 70
     1
102
RTVSPost2010Prop42
 90
       50
102
RTVSPost2010PropOp42
 70
     1
102
RTVSPost2010Prop43
 90
        3
102
RTVSPost2010PropOp43
 70
     1
102
RTVSPost2010Prop44ColorIndex
 90
        5
102
RTVSPost2010Prop44ColorRGB
 90
      255
102
RTVSPost2010PropOp44
 70
     1
102
RTVSPost2010Prop45
280
     0
102
RTVSPost2010PropOp45
 70
     1
102
RTVSPost2010Prop46
 90
       50
102
RTVSPost2010PropOp46
 70
     1
102
RTVSPost2010Prop47
 90
       50
102
RTVSPost2010PropOp47
 70
     1
102
RTVSPost2010Prop48
 90
       50
102
RTVSPost2010PropOp48
 70
     1
102
RTVSPost2010Prop49
280
     0
102
RTVSPost2010PropOp49
 70
     1
102
RTVSPost2010Prop50
 90
       50
102
RTVSPost2010PropOp50
 70
     1
102
RTVSPost2010Prop51ColorIndex
 90
      256
102
RTVSPost2010Prop51ColorRGB
 90
-16777216
102
RTVSPost2010PropOp51
 70
     0
102
RTVSPost2010Prop52
140
1.0
102
RTVSPost2010PropOp52
 70
     0
102
RTVSPost2010Prop53
 90
        2
102
RTVSPost2010PropOp53
 70
     1
102
RTVSPost2010Prop54
  1
strokes_ogs.tif
102
RTVSPost2010PropOp54
 70
     1
102
RTVSPost2010Prop55
280
     0
102
RTVSPost2010PropOp55
 70
     1
102
RTVSPost2010Prop56
140
1.0
102
RTVSPost2010PropOp56
 70
     1
102
RTVSPost2010Prop57
140
1.0
102
RTVSPost2010PropOp57
 70
     1
102
RTVSPropertyOp0
 70
     1
102
RTVSPropertyOp1
 70
     1
102
RTVSPropertyOp2
 70
     1
102
RTVSPropertyOp3
 70
     1
102
RTVSPropertyOp4
 70
     1
102
RTVSPropertyOp5
 70
     1
102
RTVSPropertyOp6
 70
     1
102
RTVSPropertyOp7
 70
     1
102
RTVSPropertyOp8
 70
     1
102
RTVSPropertyOp9
 70
     1
102
RTVSPropertyOp10
 70
     1
102
RTVSPropertyOp11
 70
     1
102
RTVSPropertyOp12
 70
     1
102
RTVSPropertyOp13
 70
     1
102
RTVSPropertyOp14
 70
     1
102
RTVSPropertyOp15
 70
     1
102
RTVSPropertyOp16
 70
     1
102
RTVSPropertyOp17
 70
     1
102
RTVSPropertyOp18
 70
     1
102
RTVSPropertyOp19
 70
     1
102
RTVSPropertyOp20
 70
     1
102
RTVSPropertyOp21
 70
     1
102
RTVSPropertyOp22
 70
     1
102
RTVSPropertyOp23
 70
     1
102
RTVSPropertyOp24
 70
     1
102
RTVSPropertyOp25
 70
     1
102
RTVSPropertyOp26
 70
     1
102
RTVSPropertyOp27
 70
     1
102
RTVSPropertyOp28
 70
     1
102
RTVSPropertyOp29
 70
     1
102
RTVSPropertyOp30
 70
     1
102
RTVSPropertyOp31
 70
     1
102
RTVSPropertyOp32
 70
     1
102
RTVSPropertyOp33
 70
     1
102
RTVSPropertyOp34
 70
     1
102
RTVSPropertyOp35
 70
     1
102
RTVSPropertyOp36
 70
     1
102
RTVSPropertyOp37
 70
     1
102
RTVSPropertyOp38
 70
     1
102
RTVSPropertyOp39
 70
     1
102
RTVSPropertyOp40
 70
     1
102
RTVSPropertyOp41
 70
     1
102
RTVSPropertyOp42
 70
     1
102
RTVSPropertyOp43
 70
     1
102
RTVSPropertyOp44
 70
     1
102
RTVSPropertyOp45
 70
     1
102
RTVSPropertyOp46
 70
     1
102
RTVSPropertyOp47
 70
     1
102
RTVSPropertyOp48
 70
     1
102
RTVSPropertyOp49
 70
     1
102
RTVSPropertyOp50
 70
     1
102
RTVSPropertyOp51
 70
     0
102
RTVSPropertyOp52
 70
     0
102
RTVSPropertyOp53
 70
     1
102
RTVSPropertyOp54
 70
     1
102
RTVSPropertyOp55
 70
     1
102
RTVSPropertyOp56
 70
     1
102
RTVSPropertyOp57
 70
     1
102
RTVSPropertyOp58
 70
     1
102
RTVSPropertyOp59
 70
     1
102
RTVSPropertyOp60
 70
     1
102
RTVSPropertyOp61
 70
     1
102
RTVSPropertyOp62
 70
     1
  0
XRECORD
  5
398
102
{ACAD_REACTORS
330
397
102
}
330
397
100
AcDbXrecord
280
     1
102
RTVSPost2010Prop28
280
     0
102
RTVSPost2010PropOp28
 70
     0
102
RTVSPost2010Prop29
280
     1
102
RTVSPost2010PropOp29
 70
     0
102
RTVSPost2010Prop30
280
     1
102
RTVSPost2010PropOp30
 70
     0
102
RTVSPost2010Prop31
280
     0
102
RTVSPost2010PropOp31
 70
     0
102
RTVSPost2010Prop32
280
     0
102
RTVSPost2010PropOp32
 70
     0
102
RTVSPost2010Prop33
280
     0
102
RTVSPost2010PropOp33
 70
     0
102
RTVSPost2010Prop34
280
     0
102
RTVSPost2010PropOp34
 70
     0
102
RTVSPost2010Prop35
280
     0
102
RTVSPost2010PropOp35
 70
     0
102
RTVSPost2010Prop36
280
     0
102
RTVSPost2010PropOp36
 70
     0
102
RTVSPost2010Prop37
 90
       50
102
RTVSPost2010PropOp37
 70
     0
102
RTVSPost2010Prop38
140
0.0
102
RTVSPost2010PropOp38
 70
     0
102
RTVSPost2010Prop39
140
1.0
102
RTVSPost2010PropOp39
 70
     0
102
RTVSPost2010Prop40
 90
        0
102
RTVSPost2010PropOp40
 70
     0
102
RTVSPost2010Prop41ColorIndex
 90
       18
102
RTVSPost2010Prop41ColorRGB
 90
        0
102
RTVSPost2010PropOp41
 70
     0
102
RTVSPost2010Prop42
 90
       50
102
RTVSPost2010PropOp42
 70
     0
102
RTVSPost2010Prop43
 90
        3
102
RTVSPost2010PropOp43
 70
     0
102
RTVSPost2010Prop44ColorIndex
 90
        5
102
RTVSPost2010Prop44ColorRGB
 90
      255
102
RTVSPost2010PropOp44
 70
     0
102
RTVSPost2010Prop45
280
     0
102
RTVSPost2010PropOp45
 70
     0
102
RTVSPost2010Prop46
 90
       50
102
RTVSPost2010PropOp46
 70
     0
102
RTVSPost2010Prop47
 90
       50
102
RTVSPost2010PropOp47
 70
     0
102
RTVSPost2010Prop48
 90
       50
102
RTVSPost2010PropOp48
 70
     0
102
RTVSPost2010Prop49
280
     0
102
RTVSPost2010PropOp49
 70
     0
102
RTVSPost2010Prop50
 90
       50
102
RTVSPost2010PropOp50
 70
     0
102
RTVSPost2010Prop51ColorIndex
 90
      256
102
RTVSPost2010Prop51ColorRGB
 90
-16777216
102
RTVSPost2010PropOp51
 70
     0
102
RTVSPost2010Prop52
140
1.0
102
RTVSPost2010PropOp52
 70
     0
102
RTVSPost2010Prop53
 90
        2
102
RTVSPost2010PropOp53
 70
     0
102
RTVSPost2010Prop54
  1
strokes_ogs.tif
102
RTVSPost2010PropOp54
 70
     0
102
RTVSPost2010Prop55
280
     0
102
RTVSPost2010PropOp55
 70
     0
102
RTVSPost2010Prop56
140
1.0
102
RTVSPost2010PropOp56
 70
     0
102
RTVSPost2010Prop57
140
1.0
102
RTVSPost2010PropOp57
 70
     0
102
RTVSPropertyOp0
 70
     0
102
RTVSPropertyOp1
 70
     0
102
RTVSPropertyOp2
 70
     0
102
RTVSPropertyOp3
 70
     0
102
RTVSPropertyOp4
 70
     0
102
RTVSPropertyOp5
 70
     0
102
RTVSPropertyOp6
 70
     0
102
RTVSPropertyOp7
 70
     0
102
RTVSPropertyOp8
 70
     0
102
RTVSPropertyOp9
 70
     0
102
RTVSPropertyOp10
 70
     0
102
RTVSPropertyOp11
 70
     0
102
RTVSPropertyOp12
 70
     0
102
RTVSPropertyOp13
 70
     0
102
RTVSPropertyOp14
 70
     2
102
RTVSPropertyOp15
 70
     0
102
RTVSPropertyOp16
 70
     0
102
RTVSPropertyOp17
 70
     0
102
RTVSPropertyOp18
 70
     0
102
RTVSPropertyOp19
 70
     0
102
RTVSPropertyOp20
 70
     0
102
RTVSPropertyOp21
 70
     0
102
RTVSPropertyOp22
 70
     0
102
RTVSPropertyOp23
 70
     0
102
RTVSPropertyOp24
 70
     0
102
RTVSPropertyOp25
 70
     0
102
RTVSPropertyOp26
 70
     0
102
RTVSPropertyOp27
 70
     0
102
RTVSPropertyOp28
 70
     0
102
RTVSPropertyOp29
 70
     0
102
RTVSPropertyOp30
 70
     0
102
RTVSPropertyOp31
 70
     0
102
RTVSPropertyOp32
 70
     0
102
RTVSPropertyOp33
 70
     0
102
RTVSPropertyOp34
 70
     0
102
RTVSPropertyOp35
 70
     0
102
RTVSPropertyOp36
 70
     0
102
RTVSPropertyOp37
 70
     0
102
RTVSPropertyOp38
 70
     0
102
RTVSPropertyOp39
 70
     0
102
RTVSPropertyOp40
 70
     0
102
RTVSPropertyOp41
 70
     0
102
RTVSPropertyOp42
 70
     0
102
RTVSPropertyOp43
 70
     0
102
RTVSPropertyOp44
 70
     0
102
RTVSPropertyOp45
 70
     0
102
RTVSPropertyOp46
 70
     0
102
RTVSPropertyOp47
 70
     0
102
RTVSPropertyOp48
 70
     0
102
RTVSPropertyOp49
 70
     0
102
RTVSPropertyOp50
 70
     0
102
RTVSPropertyOp51
 70
     0
102
RTVSPropertyOp52
 70
     0
102
RTVSPropertyOp53
 70
     0
102
RTVSPropertyOp54
 70
     0
102
RTVSPropertyOp55
 70
     0
102
RTVSPropertyOp56
 70
     0
102
RTVSPropertyOp57
 70
     0
102
RTVSPropertyOp58
 70
     1
102
RTVSPropertyOp59
 70
     1
102
RTVSPropertyOp60
 70
     1
102
RTVSPropertyOp61
 70
     1
102
RTVSPropertyOp62
 70
     1
  0
XRECORD
  5
392
102
{ACAD_REACTORS
330
391
102
}
330
391
100
AcDbXrecord
280
     1
102
RTVSPost2010Prop28
280
     0
102
RTVSPost2010PropOp28
 70
     1
102
RTVSPost2010Prop29
280
     1
102
RTVSPost2010PropOp29
 70
     1
102
RTVSPost2010Prop30
280
     1
102
RTVSPost2010PropOp30
 70
     1
102
RTVSPost2010Prop31
280
     0
102
RTVSPost2010PropOp31
 70
     1
102
RTVSPost2010Prop32
280
     0
102
RTVSPost2010PropOp32
 70
     1
102
RTVSPost2010Prop33
280
     0
102
RTVSPost2010PropOp33
 70
     1
102
RTVSPost2010Prop34
280
     0
102
RTVSPost2010PropOp34
 70
     1
102
RTVSPost2010Prop35
280
     0
102
RTVSPost2010PropOp35
 70
     1
102
RTVSPost2010Prop36
280
     0
102
RTVSPost2010PropOp36
 70
     1
102
RTVSPost2010Prop37
 90
       50
102
RTVSPost2010PropOp37
 70
     1
102
RTVSPost2010Prop38
140
0.0
102
RTVSPost2010PropOp38
 70
     1
102
RTVSPost2010Prop39
140
1.0
102
RTVSPost2010PropOp39
 70
     1
102
RTVSPost2010Prop40
 90
        0
102
RTVSPost2010PropOp40
 70
     1
102
RTVSPost2010Prop41ColorIndex
 90
       18
102
RTVSPost2010Prop41ColorRGB
 90
        0
102
RTVSPost2010PropOp41
 70
     1
102
RTVSPost2010Prop42
 90
       50
102
RTVSPost2010PropOp42
 70
     1
102
RTVSPost2010Prop43
 90
        3
102
RTVSPost2010PropOp43
 70
     1
102
RTVSPost2010Prop44ColorIndex
 90
        5
102
RTVSPost2010Prop44ColorRGB
 90
      255
102
RTVSPost2010PropOp44
 70
     1
102
RTVSPost2010Prop45
280
     0
102
RTVSPost2010PropOp45
 70
     1
102
RTVSPost2010Prop46
 90
       50
102
RTVSPost2010PropOp46
 70
     1
102
RTVSPost2010Prop47
 90
       50
102
RTVSPost2010PropOp47
 70
     1
102
RTVSPost2010Prop48
 90
       50
102
RTVSPost2010PropOp48
 70
     1
102
RTVSPost2010Prop49
280
     0
102
RTVSPost2010PropOp49
 70
     1
102
RTVSPost2010Prop50
 90
       50
102
RTVSPost2010PropOp50
 70
     1
102
RTVSPost2010Prop51ColorIndex
 90
      256
102
RTVSPost2010Prop51ColorRGB
 90
-16777216
102
RTVSPost2010PropOp51
 70
     0
102
RTVSPost2010Prop52
140
1.0
102
RTVSPost2010PropOp52
 70
     0
102
RTVSPost2010Prop53
 90
        2
102
RTVSPost2010PropOp53
 70
     1
102
RTVSPost2010Prop54
  1
strokes_ogs.tif
102
RTVSPost2010PropOp54
 70
     1
102
RTVSPost2010Prop55
280
     0
102
RTVSPost2010PropOp55
 70
     1
102
RTVSPost2010Prop56
140
1.0
102
RTVSPost2010PropOp56
 70
     1
102
RTVSPost2010Prop57
140
1.0
102
RTVSPost2010PropOp57
 70
     1
102
RTVSPropertyOp0
 70
     1
102
RTVSPropertyOp1
 70
     1
102
RTVSPropertyOp2
 70
     1
102
RTVSPropertyOp3
 70
     1
102
RTVSPropertyOp4
 70
     1
102
RTVSPropertyOp5
 70
     1
102
RTVSPropertyOp6
 70
     1
102
RTVSPropertyOp7
 70
     1
102
RTVSPropertyOp8
 70
     1
102
RTVSPropertyOp9
 70
     1
102
RTVSPropertyOp10
 70
     1
102
RTVSPropertyOp11
 70
     1
102
RTVSPropertyOp12
 70
     1
102
RTVSPropertyOp13
 70
     1
102
RTVSPropertyOp14
 70
     1
102
RTVSPropertyOp15
 70
     1
102
RTVSPropertyOp16
 70
     1
102
RTVSPropertyOp17
 70
     1
102
RTVSPropertyOp18
 70
     1
102
RTVSPropertyOp19
 70
     1
102
RTVSPropertyOp20
 70
     1
102
RTVSPropertyOp21
 70
     1
102
RTVSPropertyOp22
 70
     1
102
RTVSPropertyOp23
 70
     1
102
RTVSPropertyOp24
 70
     1
102
RTVSPropertyOp25
 70
     1
102
RTVSPropertyOp26
 70
     1
102
RTVSPropertyOp27
 70
     1
102
RTVSPropertyOp28
 70
     1
102
RTVSPropertyOp29
 70
     1
102
RTVSPropertyOp30
 70
     1
102
RTVSPropertyOp31
 70
     1
102
RTVSPropertyOp32
 70
     1
102
RTVSPropertyOp33
 70
     1
102
RTVSPropertyOp34
 70
     1
102
RTVSPropertyOp35
 70
     1
102
RTVSPropertyOp36
 70
     1
102
RTVSPropertyOp37
 70
     1
102
RTVSPropertyOp38
 70
     1
102
RTVSPropertyOp39
 70
     1
102
RTVSPropertyOp40
 70
     1
102
RTVSPropertyOp41
 70
     1
102
RTVSPropertyOp42
 70
     1
102
RTVSPropertyOp43
 70
     1
102
RTVSPropertyOp44
 70
     1
102
RTVSPropertyOp45
 70
     1
102
RTVSPropertyOp46
 70
     1
102
RTVSPropertyOp47
 70
     1
102
RTVSPropertyOp48
 70
     1
102
RTVSPropertyOp49
 70
     1
102
RTVSPropertyOp50
 70
     1
102
RTVSPropertyOp51
 70
     0
102
RTVSPropertyOp52
 70
     0
102
RTVSPropertyOp53
 70
     1
102
RTVSPropertyOp54
 70
     1
102
RTVSPropertyOp55
 70
     1
102
RTVSPropertyOp56
 70
     1
102
RTVSPropertyOp57
 70
     1
102
RTVSPropertyOp58
 70
     1
102
RTVSPropertyOp59
 70
     1
102
RTVSPropertyOp60
 70
     1
102
RTVSPropertyOp61
 70
     1
102
RTVSPropertyOp62
 70
     1
  0
XRECORD
  5
39A
102
{ACAD_REACTORS
330
399
102
}
330
399
100
AcDbXrecord
280
     1
102
RTVSPost2010Prop28
280
     0
102
RTVSPost2010PropOp28
 70
     0
102
RTVSPost2010Prop29
280
     1
102
RTVSPost2010PropOp29
 70
     0
102
RTVSPost2010Prop30
280
     1
102
RTVSPost2010PropOp30
 70
     0
102
RTVSPost2010Prop31
280
     0
102
RTVSPost2010PropOp31
 70
     0
102
RTVSPost2010Prop32
280
     0
102
RTVSPost2010PropOp32
 70
     0
102
RTVSPost2010Prop33
280
     0
102
RTVSPost2010PropOp33
 70
     0
102
RTVSPost2010Prop34
280
     0
102
RTVSPost2010PropOp34
 70
     0
102
RTVSPost2010Prop35
280
     0
102
RTVSPost2010PropOp35
 70
     0
102
RTVSPost2010Prop36
280
     0
102
RTVSPost2010PropOp36
 70
     0
102
RTVSPost2010Prop37
 90
       50
102
RTVSPost2010PropOp37
 70
     0
102
RTVSPost2010Prop38
140
0.0
102
RTVSPost2010PropOp38
 70
     0
102
RTVSPost2010Prop39
140
1.0
102
RTVSPost2010PropOp39
 70
     0
102
RTVSPost2010Prop40
 90
        0
102
RTVSPost2010PropOp40
 70
     0
102
RTVSPost2010Prop41ColorIndex
 90
       18
102
RTVSPost2010Prop41ColorRGB
 90
        0
102
RTVSPost2010PropOp41
 70
     0
102
RTVSPost2010Prop42
 90
       50
102
RTVSPost2010PropOp42
 70
     0
102
RTVSPost2010Prop43
 90
        3
102
RTVSPost2010PropOp43
 70
     0
102
RTVSPost2010Prop44ColorIndex
 90
        5
102
RTVSPost2010Prop44ColorRGB
 90
      255
102
RTVSPost2010PropOp44
 70
     0
102
RTVSPost2010Prop45
280
     0
102
RTVSPost2010PropOp45
 70
     0
102
RTVSPost2010Prop46
 90
       50
102
RTVSPost2010PropOp46
 70
     0
102
RTVSPost2010Prop47
 90
       50
102
RTVSPost2010PropOp47
 70
     0
102
RTVSPost2010Prop48
 90
       50
102
RTVSPost2010PropOp48
 70
     0
102
RTVSPost2010Prop49
280
     0
102
RTVSPost2010PropOp49
 70
     0
102
RTVSPost2010Prop50
 90
       50
102
RTVSPost2010PropOp50
 70
     0
102
RTVSPost2010Prop51ColorIndex
 90
      256
102
RTVSPost2010Prop51ColorRGB
 90
-16777216
102
RTVSPost2010PropOp51
 70
     0
102
RTVSPost2010Prop52
140
1.0
102
RTVSPost2010PropOp52
 70
     0
102
RTVSPost2010Prop53
 90
        2
102
RTVSPost2010PropOp53
 70
     0
102
RTVSPost2010Prop54
  1
strokes_ogs.tif
102
RTVSPost2010PropOp54
 70
     0
102
RTVSPost2010Prop55
280
     0
102
RTVSPost2010PropOp55
 70
     0
102
RTVSPost2010Prop56
140
1.0
102
RTVSPost2010PropOp56
 70
     0
102
RTVSPost2010Prop57
140
1.0
102
RTVSPost2010PropOp57
 70
     0
102
RTVSPropertyOp0
 70
     0
102
RTVSPropertyOp1
 70
     0
102
RTVSPropertyOp2
 70
     0
102
RTVSPropertyOp3
 70
     0
102
RTVSPropertyOp4
 70
     0
102
RTVSPropertyOp5
 70
     0
102
RTVSPropertyOp6
 70
     0
102
RTVSPropertyOp7
 70
     0
102
RTVSPropertyOp8
 70
     0
102
RTVSPropertyOp9
 70
     0
102
RTVSPropertyOp10
 70
     0
102
RTVSPropertyOp11
 70
     0
102
RTVSPropertyOp12
 70
     0
102
RTVSPropertyOp13
 70
     0
102
RTVSPropertyOp14
 70
     2
102
RTVSPropertyOp15
 70
     0
102
RTVSPropertyOp16
 70
     0
102
RTVSPropertyOp17
 70
     0
102
RTVSPropertyOp18
 70
     0
102
RTVSPropertyOp19
 70
     0
102
RTVSPropertyOp20
 70
     0
102
RTVSPropertyOp21
 70
     0
102
RTVSPropertyOp22
 70
     0
102
RTVSPropertyOp23
 70
     0
102
RTVSPropertyOp24
 70
     0
102
RTVSPropertyOp25
 70
     0
102
RTVSPropertyOp26
 70
     0
102
RTVSPropertyOp27
 70
     0
102
RTVSPropertyOp28
 70
     0
102
RTVSPropertyOp29
 70
     0
102
RTVSPropertyOp30
 70
     0
102
RTVSPropertyOp31
 70
     0
102
RTVSPropertyOp32
 70
     0
102
RTVSPropertyOp33
 70
     0
102
RTVSPropertyOp34
 70
     0
102
RTVSPropertyOp35
 70
     0
102
RTVSPropertyOp36
 70
     0
102
RTVSPropertyOp37
 70
     0
102
RTVSPropertyOp38
 70
     0
102
RTVSPropertyOp39
 70
     0
102
RTVSPropertyOp40
 70
     0
102
RTVSPropertyOp41
 70
     0
102
RTVSPropertyOp42
 70
     0
102
RTVSPropertyOp43
 70
     0
102
RTVSPropertyOp44
 70
     0
102
RTVSPropertyOp45
 70
     0
102
RTVSPropertyOp46
 70
     0
102
RTVSPropertyOp47
 70
     0
102
RTVSPropertyOp48
 70
     0
102
RTVSPropertyOp49
 70
     0
102
RTVSPropertyOp50
 70
     0
102
RTVSPropertyOp51
 70
     0
102
RTVSPropertyOp52
 70
     0
102
RTVSPropertyOp53
 70
     0
102
RTVSPropertyOp54
 70
     0
102
RTVSPropertyOp55
 70
     0
102
RTVSPropertyOp56
 70
     0
102
RTVSPropertyOp57
 70
     0
102
RTVSPropertyOp58
 70
     1
102
RTVSPropertyOp59
 70
     1
102
RTVSPropertyOp60
 70
     1
102
RTVSPropertyOp61
 70
     1
102
RTVSPropertyOp62
 70
     1
  0
XRECORD
  5
388
102
{ACAD_REACTORS
330
387
102
}
330
387
100
AcDbXrecord
280
     1
102
RTVSPost2010Prop28
280
     0
102
RTVSPost2010PropOp28
 70
     1
102
RTVSPost2010Prop29
280
     1
102
RTVSPost2010PropOp29
 70
     1
102
RTVSPost2010Prop30
280
     1
102
RTVSPost2010PropOp30
 70
     1
102
RTVSPost2010Prop31
280
     0
102
RTVSPost2010PropOp31
 70
     1
102
RTVSPost2010Prop32
280
     0
102
RTVSPost2010PropOp32
 70
     1
102
RTVSPost2010Prop33
280
     0
102
RTVSPost2010PropOp33
 70
     1
102
RTVSPost2010Prop34
280
     0
102
RTVSPost2010PropOp34
 70
     1
102
RTVSPost2010Prop35
280
     0
102
RTVSPost2010PropOp35
 70
     1
102
RTVSPost2010Prop36
280
     0
102
RTVSPost2010PropOp36
 70
     1
102
RTVSPost2010Prop37
 90
       50
102
RTVSPost2010PropOp37
 70
     1
102
RTVSPost2010Prop38
140
0.0
102
RTVSPost2010PropOp38
 70
     1
102
RTVSPost2010Prop39
140
1.0
102
RTVSPost2010PropOp39
 70
     1
102
RTVSPost2010Prop40
 90
        0
102
RTVSPost2010PropOp40
 70
     1
102
RTVSPost2010Prop41ColorIndex
 90
       18
102
RTVSPost2010Prop41ColorRGB
 90
        0
102
RTVSPost2010PropOp41
 70
     1
102
RTVSPost2010Prop42
 90
       50
102
RTVSPost2010PropOp42
 70
     1
102
RTVSPost2010Prop43
 90
        3
102
RTVSPost2010PropOp43
 70
     1
102
RTVSPost2010Prop44ColorIndex
 90
        5
102
RTVSPost2010Prop44ColorRGB
 90
      255
102
RTVSPost2010PropOp44
 70
     1
102
RTVSPost2010Prop45
280
     0
102
RTVSPost2010PropOp45
 70
     1
102
RTVSPost2010Prop46
 90
       50
102
RTVSPost2010PropOp46
 70
     1
102
RTVSPost2010Prop47
 90
       50
102
RTVSPost2010PropOp47
 70
     1
102
RTVSPost2010Prop48
 90
       50
102
RTVSPost2010PropOp48
 70
     1
102
RTVSPost2010Prop49
280
     0
102
RTVSPost2010PropOp49
 70
     1
102
RTVSPost2010Prop50
 90
       50
102
RTVSPost2010PropOp50
 70
     1
102
RTVSPost2010Prop51ColorIndex
 90
      256
102
RTVSPost2010Prop51ColorRGB
 90
-16777216
102
RTVSPost2010PropOp51
 70
     0
102
RTVSPost2010Prop52
140
1.0
102
RTVSPost2010PropOp52
 70
     0
102
RTVSPost2010Prop53
 90
        2
102
RTVSPost2010PropOp53
 70
     1
102
RTVSPost2010Prop54
  1
strokes_ogs.tif
102
RTVSPost2010PropOp54
 70
     1
102
RTVSPost2010Prop55
280
     0
102
RTVSPost2010PropOp55
 70
     1
102
RTVSPost2010Prop56
140
1.0
102
RTVSPost2010PropOp56
 70
     1
102
RTVSPost2010Prop57
140
1.0
102
RTVSPost2010PropOp57
 70
     1
102
RTVSPropertyOp0
 70
     1
102
RTVSPropertyOp1
 70
     1
102
RTVSPropertyOp2
 70
     1
102
RTVSPropertyOp3
 70
     1
102
RTVSPropertyOp4
 70
     1
102
RTVSPropertyOp5
 70
     1
102
RTVSPropertyOp6
 70
     1
102
RTVSPropertyOp7
 70
     1
102
RTVSPropertyOp8
 70
     1
102
RTVSPropertyOp9
 70
     1
102
RTVSPropertyOp10
 70
     1
102
RTVSPropertyOp11
 70
     1
102
RTVSPropertyOp12
 70
     1
102
RTVSPropertyOp13
 70
     1
102
RTVSPropertyOp14
 70
     1
102
RTVSPropertyOp15
 70
     1
102
RTVSPropertyOp16
 70
     1
102
RTVSPropertyOp17
 70
     1
102
RTVSPropertyOp18
 70
     1
102
RTVSPropertyOp19
 70
     1
102
RTVSPropertyOp20
 70
     1
102
RTVSPropertyOp21
 70
     1
102
RTVSPropertyOp22
 70
     1
102
RTVSPropertyOp23
 70
     1
102
RTVSPropertyOp24
 70
     1
102
RTVSPropertyOp25
 70
     1
102
RTVSPropertyOp26
 70
     1
102
RTVSPropertyOp27
 70
     1
102
RTVSPropertyOp28
 70
     1
102
RTVSPropertyOp29
 70
     1
102
RTVSPropertyOp30
 70
     1
102
RTVSPropertyOp31
 70
     1
102
RTVSPropertyOp32
 70
     1
102
RTVSPropertyOp33
 70
     1
102
RTVSPropertyOp34
 70
     1
102
RTVSPropertyOp35
 70
     1
102
RTVSPropertyOp36
 70
     1
102
RTVSPropertyOp37
 70
     1
102
RTVSPropertyOp38
 70
     1
102
RTVSPropertyOp39
 70
     1
102
RTVSPropertyOp40
 70
     1
102
RTVSPropertyOp41
 70
     1
102
RTVSPropertyOp42
 70
     1
102
RTVSPropertyOp43
 70
     1
102
RTVSPropertyOp44
 70
     1
102
RTVSPropertyOp45
 70
     1
102
RTVSPropertyOp46
 70
     1
102
RTVSPropertyOp47
 70
     1
102
RTVSPropertyOp48
 70
     1
102
RTVSPropertyOp49
 70
     1
102
RTVSPropertyOp50
 70
     1
102
RTVSPropertyOp51
 70
     0
102
RTVSPropertyOp52
 70
     0
102
RTVSPropertyOp53
 70
     1
102
RTVSPropertyOp54
 70
     1
102
RTVSPropertyOp55
 70
     1
102
RTVSPropertyOp56
 70
     1
102
RTVSPropertyOp57
 70
     1
102
RTVSPropertyOp58
 70
     1
102
RTVSPropertyOp59
 70
     1
102
RTVSPropertyOp60
 70
     1
102
RTVSPropertyOp61
 70
     1
102
RTVSPropertyOp62
 70
     1
  0
XRECORD
  5
3A6
102
{ACAD_REACTORS
330
3A5
102
}
330
3A5
100
AcDbXrecord
280
     1
102
RTVSPost2010Prop28
280
     0
102
RTVSPost2010PropOp28
 70
     1
102
RTVSPost2010Prop29
280
     1
102
RTVSPost2010PropOp29
 70
     1
102
RTVSPost2010Prop30
280
     1
102
RTVSPost2010PropOp30
 70
     1
102
RTVSPost2010Prop31
280
     0
102
RTVSPost2010PropOp31
 70
     1
102
RTVSPost2010Prop32
280
     0
102
RTVSPost2010PropOp32
 70
     1
102
RTVSPost2010Prop33
280
     0
102
RTVSPost2010PropOp33
 70
     1
102
RTVSPost2010Prop34
280
     0
102
RTVSPost2010PropOp34
 70
     1
102
RTVSPost2010Prop35
280
     0
102
RTVSPost2010PropOp35
 70
     1
102
RTVSPost2010Prop36
280
     0
102
RTVSPost2010PropOp36
 70
     1
102
RTVSPost2010Prop37
 90
       50
102
RTVSPost2010PropOp37
 70
     1
102
RTVSPost2010Prop38
140
0.0
102
RTVSPost2010PropOp38
 70
     1
102
RTVSPost2010Prop39
140
1.0
102
RTVSPost2010PropOp39
 70
     1
102
RTVSPost2010Prop40
 90
        0
102
RTVSPost2010PropOp40
 70
     1
102
RTVSPost2010Prop41ColorIndex
 90
       18
102
RTVSPost2010Prop41ColorRGB
 90
        0
102
RTVSPost2010PropOp41
 70
     1
102
RTVSPost2010Prop42
 90
       50
102
RTVSPost2010PropOp42
 70
     1
102
RTVSPost2010Prop43
 90
        3
102
RTVSPost2010PropOp43
 70
     1
102
RTVSPost2010Prop44ColorIndex
 90
        5
102
RTVSPost2010Prop44ColorRGB
 90
      255
102
RTVSPost2010PropOp44
 70
     1
102
RTVSPost2010Prop45
280
     0
102
RTVSPost2010PropOp45
 70
     1
102
RTVSPost2010Prop46
 90
       50
102
RTVSPost2010PropOp46
 70
     1
102
RTVSPost2010Prop47
 90
       50
102
RTVSPost2010PropOp47
 70
     1
102
RTVSPost2010Prop48
 90
       50
102
RTVSPost2010PropOp48
 70
     1
102
RTVSPost2010Prop49
280
     0
102
RTVSPost2010PropOp49
 70
     1
102
RTVSPost2010Prop50
 90
       50
102
RTVSPost2010PropOp50
 70
     1
102
RTVSPost2010Prop51ColorIndex
 90
      256
102
RTVSPost2010Prop51ColorRGB
 90
-16777216
102
RTVSPost2010PropOp51
 70
     0
102
RTVSPost2010Prop52
140
1.0
102
RTVSPost2010PropOp52
 70
     0
102
RTVSPost2010Prop53
 90
        2
102
RTVSPost2010PropOp53
 70
     1
102
RTVSPost2010Prop54
  1
strokes_ogs.tif
102
RTVSPost2010PropOp54
 70
     1
102
RTVSPost2010Prop55
280
     0
102
RTVSPost2010PropOp55
 70
     1
102
RTVSPost2010Prop56
140
1.0
102
RTVSPost2010PropOp56
 70
     1
102
RTVSPost2010Prop57
140
1.0
102
RTVSPost2010PropOp57
 70
     1
102
RTVSPropertyOp0
 70
     1
102
RTVSPropertyOp1
 70
     1
102
RTVSPropertyOp2
 70
     1
102
RTVSPropertyOp3
 70
     1
102
RTVSPropertyOp4
 70
     1
102
RTVSPropertyOp5
 70
     1
102
RTVSPropertyOp6
 70
     1
102
RTVSPropertyOp7
 70
     1
102
RTVSPropertyOp8
 70
     1
102
RTVSPropertyOp9
 70
     1
102
RTVSPropertyOp10
 70
     1
102
RTVSPropertyOp11
 70
     1
102
RTVSPropertyOp12
 70
     1
102
RTVSPropertyOp13
 70
     1
102
RTVSPropertyOp14
 70
     1
102
RTVSPropertyOp15
 70
     1
102
RTVSPropertyOp16
 70
     1
102
RTVSPropertyOp17
 70
     1
102
RTVSPropertyOp18
 70
     1
102
RTVSPropertyOp19
 70
     1
102
RTVSPropertyOp20
 70
     1
102
RTVSPropertyOp21
 70
     1
102
RTVSPropertyOp22
 70
     1
102
RTVSPropertyOp23
 70
     1
102
RTVSPropertyOp24
 70
     1
102
RTVSPropertyOp25
 70
     1
102
RTVSPropertyOp26
 70
     1
102
RTVSPropertyOp27
 70
     1
102
RTVSPropertyOp28
 70
     1
102
RTVSPropertyOp29
 70
     1
102
RTVSPropertyOp30
 70
     1
102
RTVSPropertyOp31
 70
     1
102
RTVSPropertyOp32
 70
     1
102
RTVSPropertyOp33
 70
     1
102
RTVSPropertyOp34
 70
     1
102
RTVSPropertyOp35
 70
     1
102
RTVSPropertyOp36
 70
     1
102
RTVSPropertyOp37
 70
     1
102
RTVSPropertyOp38
 70
     1
102
RTVSPropertyOp39
 70
     1
102
RTVSPropertyOp40
 70
     1
102
RTVSPropertyOp41
 70
     1
102
RTVSPropertyOp42
 70
     1
102
RTVSPropertyOp43
 70
     1
102
RTVSPropertyOp44
 70
     1
102
RTVSPropertyOp45
 70
     1
102
RTVSPropertyOp46
 70
     1
102
RTVSPropertyOp47
 70
     1
102
RTVSPropertyOp48
 70
     1
102
RTVSPropertyOp49
 70
     1
102
RTVSPropertyOp50
 70
     1
102
RTVSPropertyOp51
 70
     0
102
RTVSPropertyOp52
 70
     0
102
RTVSPropertyOp53
 70
     1
102
RTVSPropertyOp54
 70
     1
102
RTVSPropertyOp55
 70
     1
102
RTVSPropertyOp56
 70
     1
102
RTVSPropertyOp57
 70
     1
102
RTVSPropertyOp58
 70
     1
102
RTVSPropertyOp59
 70
     1
102
RTVSPropertyOp60
 70
     1
102
RTVSPropertyOp61
 70
     1
102
RTVSPropertyOp62
 70
     1
  0
XRECORD
  5
3A4
102
{ACAD_REACTORS
330
3A3
102
}
330
3A3
100
AcDbXrecord
280
     1
102
RTVSPost2010Prop28
280
     0
102
RTVSPost2010PropOp28
 70
     1
102
RTVSPost2010Prop29
280
     1
102
RTVSPost2010PropOp29
 70
     1
102
RTVSPost2010Prop30
280
     1
102
RTVSPost2010PropOp30
 70
     1
102
RTVSPost2010Prop31
280
     0
102
RTVSPost2010PropOp31
 70
     1
102
RTVSPost2010Prop32
280
     0
102
RTVSPost2010PropOp32
 70
     1
102
RTVSPost2010Prop33
280
     0
102
RTVSPost2010PropOp33
 70
     1
102
RTVSPost2010Prop34
280
     0
102
RTVSPost2010PropOp34
 70
     1
102
RTVSPost2010Prop35
280
     0
102
RTVSPost2010PropOp35
 70
     1
102
RTVSPost2010Prop36
280
     0
102
RTVSPost2010PropOp36
 70
     1
102
RTVSPost2010Prop37
 90
       50
102
RTVSPost2010PropOp37
 70
     1
102
RTVSPost2010Prop38
140
0.0
102
RTVSPost2010PropOp38
 70
     1
102
RTVSPost2010Prop39
140
1.0
102
RTVSPost2010PropOp39
 70
     1
102
RTVSPost2010Prop40
 90
        0
102
RTVSPost2010PropOp40
 70
     1
102
RTVSPost2010Prop41ColorIndex
 90
       18
102
RTVSPost2010Prop41ColorRGB
 90
        0
102
RTVSPost2010PropOp41
 70
     1
102
RTVSPost2010Prop42
 90
       50
102
RTVSPost2010PropOp42
 70
     1
102
RTVSPost2010Prop43
 90
        3
102
RTVSPost2010PropOp43
 70
     1
102
RTVSPost2010Prop44ColorIndex
 90
        5
102
RTVSPost2010Prop44ColorRGB
 90
      255
102
RTVSPost2010PropOp44
 70
     1
102
RTVSPost2010Prop45
280
     0
102
RTVSPost2010PropOp45
 70
     1
102
RTVSPost2010Prop46
 90
       50
102
RTVSPost2010PropOp46
 70
     1
102
RTVSPost2010Prop47
 90
       50
102
RTVSPost2010PropOp47
 70
     1
102
RTVSPost2010Prop48
 90
       50
102
RTVSPost2010PropOp48
 70
     1
102
RTVSPost2010Prop49
280
     0
102
RTVSPost2010PropOp49
 70
     1
102
RTVSPost2010Prop50
 90
       50
102
RTVSPost2010PropOp50
 70
     1
102
RTVSPost2010Prop51ColorIndex
 90
      256
102
RTVSPost2010Prop51ColorRGB
 90
-16777216
102
RTVSPost2010PropOp51
 70
     0
102
RTVSPost2010Prop52
140
1.0
102
RTVSPost2010PropOp52
 70
     0
102
RTVSPost2010Prop53
 90
        2
102
RTVSPost2010PropOp53
 70
     1
102
RTVSPost2010Prop54
  1
strokes_ogs.tif
102
RTVSPost2010PropOp54
 70
     1
102
RTVSPost2010Prop55
280
     0
102
RTVSPost2010PropOp55
 70
     1
102
RTVSPost2010Prop56
140
1.0
102
RTVSPost2010PropOp56
 70
     1
102
RTVSPost2010Prop57
140
1.0
102
RTVSPost2010PropOp57
 70
     1
102
RTVSPropertyOp0
 70
     1
102
RTVSPropertyOp1
 70
     1
102
RTVSPropertyOp2
 70
     1
102
RTVSPropertyOp3
 70
     1
102
RTVSPropertyOp4
 70
     1
102
RTVSPropertyOp5
 70
     1
102
RTVSPropertyOp6
 70
     1
102
RTVSPropertyOp7
 70
     1
102
RTVSPropertyOp8
 70
     1
102
RTVSPropertyOp9
 70
     1
102
RTVSPropertyOp10
 70
     1
102
RTVSPropertyOp11
 70
     1
102
RTVSPropertyOp12
 70
     1
102
RTVSPropertyOp13
 70
     1
102
RTVSPropertyOp14
 70
     1
102
RTVSPropertyOp15
 70
     1
102
RTVSPropertyOp16
 70
     1
102
RTVSPropertyOp17
 70
     1
102
RTVSPropertyOp18
 70
     1
102
RTVSPropertyOp19
 70
     1
102
RTVSPropertyOp20
 70
     1
102
RTVSPropertyOp21
 70
     1
102
RTVSPropertyOp22
 70
     1
102
RTVSPropertyOp23
 70
     1
102
RTVSPropertyOp24
 70
     1
102
RTVSPropertyOp25
 70
     1
102
RTVSPropertyOp26
 70
     1
102
RTVSPropertyOp27
 70
     1
102
RTVSPropertyOp28
 70
     1
102
RTVSPropertyOp29
 70
     1
102
RTVSPropertyOp30
 70
     1
102
RTVSPropertyOp31
 70
     1
102
RTVSPropertyOp32
 70
     1
102
RTVSPropertyOp33
 70
     1
102
RTVSPropertyOp34
 70
     1
102
RTVSPropertyOp35
 70
     1
102
RTVSPropertyOp36
 70
     1
102
RTVSPropertyOp37
 70
     1
102
RTVSPropertyOp38
 70
     1
102
RTVSPropertyOp39
 70
     1
102
RTVSPropertyOp40
 70
     1
102
RTVSPropertyOp41
 70
     1
102
RTVSPropertyOp42
 70
     1
102
RTVSPropertyOp43
 70
     1
102
RTVSPropertyOp44
 70
     1
102
RTVSPropertyOp45
 70
     1
102
RTVSPropertyOp46
 70
     1
102
RTVSPropertyOp47
 70
     1
102
RTVSPropertyOp48
 70
     1
102
RTVSPropertyOp49
 70
     1
102
RTVSPropertyOp50
 70
     1
102
RTVSPropertyOp51
 70
     0
102
RTVSPropertyOp52
 70
     0
102
RTVSPropertyOp53
 70
     1
102
RTVSPropertyOp54
 70
     1
102
RTVSPropertyOp55
 70
     1
102
RTVSPropertyOp56
 70
     1
102
RTVSPropertyOp57
 70
     1
102
RTVSPropertyOp58
 70
     1
102
RTVSPropertyOp59
 70
     1
102
RTVSPropertyOp60
 70
     1
102
RTVSPropertyOp61
 70
     1
102
RTVSPropertyOp62
 70
     1
  0
XRECORD
  5
39E
102
{ACAD_REACTORS
330
39D
102
}
330
39D
100
AcDbXrecord
280
     1
102
RTVSPost2010Prop28
280
     0
102
RTVSPost2010PropOp28
 70
     1
102
RTVSPost2010Prop29
280
     1
102
RTVSPost2010PropOp29
 70
     1
102
RTVSPost2010Prop30
280
     1
102
RTVSPost2010PropOp30
 70
     1
102
RTVSPost2010Prop31
280
     0
102
RTVSPost2010PropOp31
 70
     1
102
RTVSPost2010Prop32
280
     0
102
RTVSPost2010PropOp32
 70
     1
102
RTVSPost2010Prop33
280
     0
102
RTVSPost2010PropOp33
 70
     1
102
RTVSPost2010Prop34
280
     0
102
RTVSPost2010PropOp34
 70
     1
102
RTVSPost2010Prop35
280
     0
102
RTVSPost2010PropOp35
 70
     1
102
RTVSPost2010Prop36
280
     0
102
RTVSPost2010PropOp36
 70
     1
102
RTVSPost2010Prop37
 90
       50
102
RTVSPost2010PropOp37
 70
     1
102
RTVSPost2010Prop38
140
0.0
102
RTVSPost2010PropOp38
 70
     1
102
RTVSPost2010Prop39
140
1.0
102
RTVSPost2010PropOp39
 70
     1
102
RTVSPost2010Prop40
 90
        0
102
RTVSPost2010PropOp40
 70
     1
102
RTVSPost2010Prop41ColorIndex
 90
       18
102
RTVSPost2010Prop41ColorRGB
 90
        0
102
RTVSPost2010PropOp41
 70
     1
102
RTVSPost2010Prop42
 90
       50
102
RTVSPost2010PropOp42
 70
     1
102
RTVSPost2010Prop43
 90
        3
102
RTVSPost2010PropOp43
 70
     1
102
RTVSPost2010Prop44ColorIndex
 90
        5
102
RTVSPost2010Prop44ColorRGB
 90
      255
102
RTVSPost2010PropOp44
 70
     1
102
RTVSPost2010Prop45
280
     0
102
RTVSPost2010PropOp45
 70
     1
102
RTVSPost2010Prop46
 90
       50
102
RTVSPost2010PropOp46
 70
     1
102
RTVSPost2010Prop47
 90
       50
102
RTVSPost2010PropOp47
 70
     1
102
RTVSPost2010Prop48
 90
       50
102
RTVSPost2010PropOp48
 70
     1
102
RTVSPost2010Prop49
280
     0
102
RTVSPost2010PropOp49
 70
     1
102
RTVSPost2010Prop50
 90
       50
102
RTVSPost2010PropOp50
 70
     1
102
RTVSPost2010Prop51ColorIndex
 90
      256
102
RTVSPost2010Prop51ColorRGB
 90
-16777216
102
RTVSPost2010PropOp51
 70
     0
102
RTVSPost2010Prop52
140
1.0
102
RTVSPost2010PropOp52
 70
     0
102
RTVSPost2010Prop53
 90
        2
102
RTVSPost2010PropOp53
 70
     1
102
RTVSPost2010Prop54
  1
strokes_ogs.tif
102
RTVSPost2010PropOp54
 70
     1
102
RTVSPost2010Prop55
280
     0
102
RTVSPost2010PropOp55
 70
     1
102
RTVSPost2010Prop56
140
1.0
102
RTVSPost2010PropOp56
 70
     1
102
RTVSPost2010Prop57
140
1.0
102
RTVSPost2010PropOp57
 70
     1
102
RTVSPropertyOp0
 70
     1
102
RTVSPropertyOp1
 70
     1
102
RTVSPropertyOp2
 70
     1
102
RTVSPropertyOp3
 70
     1
102
RTVSPropertyOp4
 70
     1
102
RTVSPropertyOp5
 70
     1
102
RTVSPropertyOp6
 70
     1
102
RTVSPropertyOp7
 70
     1
102
RTVSPropertyOp8
 70
     1
102
RTVSPropertyOp9
 70
     1
102
RTVSPropertyOp10
 70
     1
102
RTVSPropertyOp11
 70
     1
102
RTVSPropertyOp12
 70
     1
102
RTVSPropertyOp13
 70
     1
102
RTVSPropertyOp14
 70
     1
102
RTVSPropertyOp15
 70
     1
102
RTVSPropertyOp16
 70
     1
102
RTVSPropertyOp17
 70
     1
102
RTVSPropertyOp18
 70
     1
102
RTVSPropertyOp19
 70
     1
102
RTVSPropertyOp20
 70
     1
102
RTVSPropertyOp21
 70
     1
102
RTVSPropertyOp22
 70
     1
102
RTVSPropertyOp23
 70
     1
102
RTVSPropertyOp24
 70
     1
102
RTVSPropertyOp25
 70
     1
102
RTVSPropertyOp26
 70
     1
102
RTVSPropertyOp27
 70
     1
102
RTVSPropertyOp28
 70
     1
102
RTVSPropertyOp29
 70
     1
102
RTVSPropertyOp30
 70
     1
102
RTVSPropertyOp31
 70
     1
102
RTVSPropertyOp32
 70
     1
102
RTVSPropertyOp33
 70
     1
102
RTVSPropertyOp34
 70
     1
102
RTVSPropertyOp35
 70
     1
102
RTVSPropertyOp36
 70
     1
102
RTVSPropertyOp37
 70
     1
102
RTVSPropertyOp38
 70
     1
102
RTVSPropertyOp39
 70
     1
102
RTVSPropertyOp40
 70
     1
102
RTVSPropertyOp41
 70
     1
102
RTVSPropertyOp42
 70
     1
102
RTVSPropertyOp43
 70
     1
102
RTVSPropertyOp44
 70
     1
102
RTVSPropertyOp45
 70
     1
102
RTVSPropertyOp46
 70
     1
102
RTVSPropertyOp47
 70
     1
102
RTVSPropertyOp48
 70
     1
102
RTVSPropertyOp49
 70
     1
102
RTVSPropertyOp50
 70
     1
102
RTVSPropertyOp51
 70
     0
102
RTVSPropertyOp52
 70
     0
102
RTVSPropertyOp53
 70
     1
102
RTVSPropertyOp54
 70
     1
102
RTVSPropertyOp55
 70
     1
102
RTVSPropertyOp56
 70
     1
102
RTVSPropertyOp57
 70
     1
102
RTVSPropertyOp58
 70
     1
102
RTVSPropertyOp59
 70
     1
102
RTVSPropertyOp60
 70
     1
102
RTVSPropertyOp61
 70
     1
102
RTVSPropertyOp62
 70
     1
  0
XRECORD
  5
3A0
102
{ACAD_REACTORS
330
39F
102
}
330
39F
100
AcDbXrecord
280
     1
102
RTVSPost2010Prop28
280
     0
102
RTVSPost2010PropOp28
 70
     1
102
RTVSPost2010Prop29
280
     1
102
RTVSPost2010PropOp29
 70
     1
102
RTVSPost2010Prop30
280
     1
102
RTVSPost2010PropOp30
 70
     1
102
RTVSPost2010Prop31
280
     0
102
RTVSPost2010PropOp31
 70
     1
102
RTVSPost2010Prop32
280
     0
102
RTVSPost2010PropOp32
 70
     1
102
RTVSPost2010Prop33
280
     0
102
RTVSPost2010PropOp33
 70
     1
102
RTVSPost2010Prop34
280
     0
102
RTVSPost2010PropOp34
 70
     1
102
RTVSPost2010Prop35
280
     0
102
RTVSPost2010PropOp35
 70
     1
102
RTVSPost2010Prop36
280
     0
102
RTVSPost2010PropOp36
 70
     1
102
RTVSPost2010Prop37
 90
       50
102
RTVSPost2010PropOp37
 70
     1
102
RTVSPost2010Prop38
140
0.0
102
RTVSPost2010PropOp38
 70
     1
102
RTVSPost2010Prop39
140
1.0
102
RTVSPost2010PropOp39
 70
     1
102
RTVSPost2010Prop40
 90
        0
102
RTVSPost2010PropOp40
 70
     1
102
RTVSPost2010Prop41ColorIndex
 90
       18
102
RTVSPost2010Prop41ColorRGB
 90
        0
102
RTVSPost2010PropOp41
 70
     1
102
RTVSPost2010Prop42
 90
       50
102
RTVSPost2010PropOp42
 70
     1
102
RTVSPost2010Prop43
 90
        3
102
RTVSPost2010PropOp43
 70
     1
102
RTVSPost2010Prop44ColorIndex
 90
        5
102
RTVSPost2010Prop44ColorRGB
 90
      255
102
RTVSPost2010PropOp44
 70
     1
102
RTVSPost2010Prop45
280
     0
102
RTVSPost2010PropOp45
 70
     1
102
RTVSPost2010Prop46
 90
       50
102
RTVSPost2010PropOp46
 70
     1
102
RTVSPost2010Prop47
 90
       50
102
RTVSPost2010PropOp47
 70
     1
102
RTVSPost2010Prop48
 90
       50
102
RTVSPost2010PropOp48
 70
     1
102
RTVSPost2010Prop49
280
     0
102
RTVSPost2010PropOp49
 70
     1
102
RTVSPost2010Prop50
 90
       50
102
RTVSPost2010PropOp50
 70
     1
102
RTVSPost2010Prop51ColorIndex
 90
      256
102
RTVSPost2010Prop51ColorRGB
 90
-16777216
102
RTVSPost2010PropOp51
 70
     0
102
RTVSPost2010Prop52
140
1.0
102
RTVSPost2010PropOp52
 70
     0
102
RTVSPost2010Prop53
 90
        2
102
RTVSPost2010PropOp53
 70
     1
102
RTVSPost2010Prop54
  1
strokes_ogs.tif
102
RTVSPost2010PropOp54
 70
     1
102
RTVSPost2010Prop55
280
     0
102
RTVSPost2010PropOp55
 70
     1
102
RTVSPost2010Prop56
140
1.0
102
RTVSPost2010PropOp56
 70
     1
102
RTVSPost2010Prop57
140
1.0
102
RTVSPost2010PropOp57
 70
     1
102
RTVSPropertyOp0
 70
     1
102
RTVSPropertyOp1
 70
     1
102
RTVSPropertyOp2
 70
     1
102
RTVSPropertyOp3
 70
     1
102
RTVSPropertyOp4
 70
     1
102
RTVSPropertyOp5
 70
     1
102
RTVSPropertyOp6
 70
     1
102
RTVSPropertyOp7
 70
     1
102
RTVSPropertyOp8
 70
     1
102
RTVSPropertyOp9
 70
     1
102
RTVSPropertyOp10
 70
     1
102
RTVSPropertyOp11
 70
     1
102
RTVSPropertyOp12
 70
     1
102
RTVSPropertyOp13
 70
     1
102
RTVSPropertyOp14
 70
     1
102
RTVSPropertyOp15
 70
     1
102
RTVSPropertyOp16
 70
     1
102
RTVSPropertyOp17
 70
     1
102
RTVSPropertyOp18
 70
     1
102
RTVSPropertyOp19
 70
     1
102
RTVSPropertyOp20
 70
     1
102
RTVSPropertyOp21
 70
     1
102
RTVSPropertyOp22
 70
     1
102
RTVSPropertyOp23
 70
     1
102
RTVSPropertyOp24
 70
     1
102
RTVSPropertyOp25
 70
     1
102
RTVSPropertyOp26
 70
     1
102
RTVSPropertyOp27
 70
     1
102
RTVSPropertyOp28
 70
     1
102
RTVSPropertyOp29
 70
     1
102
RTVSPropertyOp30
 70
     1
102
RTVSPropertyOp31
 70
     1
102
RTVSPropertyOp32
 70
     1
102
RTVSPropertyOp33
 70
     1
102
RTVSPropertyOp34
 70
     1
102
RTVSPropertyOp35
 70
     1
102
RTVSPropertyOp36
 70
     1
102
RTVSPropertyOp37
 70
     1
102
RTVSPropertyOp38
 70
     1
102
RTVSPropertyOp39
 70
     1
102
RTVSPropertyOp40
 70
     1
102
RTVSPropertyOp41
 70
     1
102
RTVSPropertyOp42
 70
     1
102
RTVSPropertyOp43
 70
     1
102
RTVSPropertyOp44
 70
     1
102
RTVSPropertyOp45
 70
     1
102
RTVSPropertyOp46
 70
     1
102
RTVSPropertyOp47
 70
     1
102
RTVSPropertyOp48
 70
     1
102
RTVSPropertyOp49
 70
     1
102
RTVSPropertyOp50
 70
     1
102
RTVSPropertyOp51
 70
     0
102
RTVSPropertyOp52
 70
     0
102
RTVSPropertyOp53
 70
     1
102
RTVSPropertyOp54
 70
     1
102
RTVSPropertyOp55
 70
     1
102
RTVSPropertyOp56
 70
     1
102
RTVSPropertyOp57
 70
     1
102
RTVSPropertyOp58
 70
     1
102
RTVSPropertyOp59
 70
     1
102
RTVSPropertyOp60
 70
     1
102
RTVSPropertyOp61
 70
     1
102
RTVSPropertyOp62
 70
     1
  0
XRECORD
  5
390
102
{ACAD_REACTORS
330
38F
102
}
330
38F
100
AcDbXrecord
280
     1
102
RTVSPost2010Prop28
280
     0
102
RTVSPost2010PropOp28
 70
     1
102
RTVSPost2010Prop29
280
     1
102
RTVSPost2010PropOp29
 70
     1
102
RTVSPost2010Prop30
280
     1
102
RTVSPost2010PropOp30
 70
     1
102
RTVSPost2010Prop31
280
     0
102
RTVSPost2010PropOp31
 70
     1
102
RTVSPost2010Prop32
280
     0
102
RTVSPost2010PropOp32
 70
     1
102
RTVSPost2010Prop33
280
     0
102
RTVSPost2010PropOp33
 70
     1
102
RTVSPost2010Prop34
280
     0
102
RTVSPost2010PropOp34
 70
     1
102
RTVSPost2010Prop35
280
     0
102
RTVSPost2010PropOp35
 70
     1
102
RTVSPost2010Prop36
280
     0
102
RTVSPost2010PropOp36
 70
     1
102
RTVSPost2010Prop37
 90
       50
102
RTVSPost2010PropOp37
 70
     1
102
RTVSPost2010Prop38
140
0.0
102
RTVSPost2010PropOp38
 70
     1
102
RTVSPost2010Prop39
140
1.0
102
RTVSPost2010PropOp39
 70
     1
102
RTVSPost2010Prop40
 90
        0
102
RTVSPost2010PropOp40
 70
     1
102
RTVSPost2010Prop41ColorIndex
 90
       18
102
RTVSPost2010Prop41ColorRGB
 90
        0
102
RTVSPost2010PropOp41
 70
     1
102
RTVSPost2010Prop42
 90
       50
102
RTVSPost2010PropOp42
 70
     1
102
RTVSPost2010Prop43
 90
        3
102
RTVSPost2010PropOp43
 70
     1
102
RTVSPost2010Prop44ColorIndex
 90
        5
102
RTVSPost2010Prop44ColorRGB
 90
      255
102
RTVSPost2010PropOp44
 70
     1
102
RTVSPost2010Prop45
280
     0
102
RTVSPost2010PropOp45
 70
     1
102
RTVSPost2010Prop46
 90
       50
102
RTVSPost2010PropOp46
 70
     1
102
RTVSPost2010Prop47
 90
       50
102
RTVSPost2010PropOp47
 70
     1
102
RTVSPost2010Prop48
 90
       50
102
RTVSPost2010PropOp48
 70
     1
102
RTVSPost2010Prop49
280
     0
102
RTVSPost2010PropOp49
 70
     1
102
RTVSPost2010Prop50
 90
       50
102
RTVSPost2010PropOp50
 70
     1
102
RTVSPost2010Prop51ColorIndex
 90
      256
102
RTVSPost2010Prop51ColorRGB
 90
-16777216
102
RTVSPost2010PropOp51
 70
     0
102
RTVSPost2010Prop52
140
1.0
102
RTVSPost2010PropOp52
 70
     0
102
RTVSPost2010Prop53
 90
        2
102
RTVSPost2010PropOp53
 70
     1
102
RTVSPost2010Prop54
  1
strokes_ogs.tif
102
RTVSPost2010PropOp54
 70
     1
102
RTVSPost2010Prop55
280
     0
102
RTVSPost2010PropOp55
 70
     1
102
RTVSPost2010Prop56
140
1.0
102
RTVSPost2010PropOp56
 70
     1
102
RTVSPost2010Prop57
140
1.0
102
RTVSPost2010PropOp57
 70
     1
102
RTVSPropertyOp0
 70
     1
102
RTVSPropertyOp1
 70
     1
102
RTVSPropertyOp2
 70
     1
102
RTVSPropertyOp3
 70
     1
102
RTVSPropertyOp4
 70
     1
102
RTVSPropertyOp5
 70
     1
102
RTVSPropertyOp6
 70
     1
102
RTVSPropertyOp7
 70
     1
102
RTVSPropertyOp8
 70
     1
102
RTVSPropertyOp9
 70
     1
102
RTVSPropertyOp10
 70
     1
102
RTVSPropertyOp11
 70
     1
102
RTVSPropertyOp12
 70
     1
102
RTVSPropertyOp13
 70
     1
102
RTVSPropertyOp14
 70
     1
102
RTVSPropertyOp15
 70
     1
102
RTVSPropertyOp16
 70
     1
102
RTVSPropertyOp17
 70
     1
102
RTVSPropertyOp18
 70
     1
102
RTVSPropertyOp19
 70
     1
102
RTVSPropertyOp20
 70
     1
102
RTVSPropertyOp21
 70
     1
102
RTVSPropertyOp22
 70
     1
102
RTVSPropertyOp23
 70
     1
102
RTVSPropertyOp24
 70
     1
102
RTVSPropertyOp25
 70
     1
102
RTVSPropertyOp26
 70
     1
102
RTVSPropertyOp27
 70
     1
102
RTVSPropertyOp28
 70
     1
102
RTVSPropertyOp29
 70
     1
102
RTVSPropertyOp30
 70
     1
102
RTVSPropertyOp31
 70
     1
102
RTVSPropertyOp32
 70
     1
102
RTVSPropertyOp33
 70
     1
102
RTVSPropertyOp34
 70
     1
102
RTVSPropertyOp35
 70
     1
102
RTVSPropertyOp36
 70
     1
102
RTVSPropertyOp37
 70
     1
102
RTVSPropertyOp38
 70
     1
102
RTVSPropertyOp39
 70
     1
102
RTVSPropertyOp40
 70
     1
102
RTVSPropertyOp41
 70
     1
102
RTVSPropertyOp42
 70
     1
102
RTVSPropertyOp43
 70
     1
102
RTVSPropertyOp44
 70
     1
102
RTVSPropertyOp45
 70
     1
102
RTVSPropertyOp46
 70
     1
102
RTVSPropertyOp47
 70
     1
102
RTVSPropertyOp48
 70
     1
102
RTVSPropertyOp49
 70
     1
102
RTVSPropertyOp50
 70
     1
102
RTVSPropertyOp51
 70
     0
102
RTVSPropertyOp52
 70
     0
102
RTVSPropertyOp53
 70
     1
102
RTVSPropertyOp54
 70
     1
102
RTVSPropertyOp55
 70
     1
102
RTVSPropertyOp56
 70
     1
102
RTVSPropertyOp57
 70
     1
102
RTVSPropertyOp58
 70
     1
102
RTVSPropertyOp59
 70
     1
102
RTVSPropertyOp60
 70
     1
102
RTVSPropertyOp61
 70
     1
102
RTVSPropertyOp62
 70
     1
  0
XRECORD
  5
382
102
{ACAD_REACTORS
330
381
102
}
330
381
100
AcDbXrecord
280
     1
102
RTVSPost2010Prop28
280
     0
102
RTVSPost2010PropOp28
 70
     1
102
RTVSPost2010Prop29
280
     1
102
RTVSPost2010PropOp29
 70
     1
102
RTVSPost2010Prop30
280
     1
102
RTVSPost2010PropOp30
 70
     1
102
RTVSPost2010Prop31
280
     0
102
RTVSPost2010PropOp31
 70
     1
102
RTVSPost2010Prop32
280
     0
102
RTVSPost2010PropOp32
 70
     1
102
RTVSPost2010Prop33
280
     0
102
RTVSPost2010PropOp33
 70
     1
102
RTVSPost2010Prop34
280
     0
102
RTVSPost2010PropOp34
 70
     1
102
RTVSPost2010Prop35
280
     0
102
RTVSPost2010PropOp35
 70
     1
102
RTVSPost2010Prop36
280
     0
102
RTVSPost2010PropOp36
 70
     1
102
RTVSPost2010Prop37
 90
       50
102
RTVSPost2010PropOp37
 70
     1
102
RTVSPost2010Prop38
140
0.0
102
RTVSPost2010PropOp38
 70
     1
102
RTVSPost2010Prop39
140
1.0
102
RTVSPost2010PropOp39
 70
     1
102
RTVSPost2010Prop40
 90
        0
102
RTVSPost2010PropOp40
 70
     1
102
RTVSPost2010Prop41ColorIndex
 90
       18
102
RTVSPost2010Prop41ColorRGB
 90
        0
102
RTVSPost2010PropOp41
 70
     1
102
RTVSPost2010Prop42
 90
       50
102
RTVSPost2010PropOp42
 70
     1
102
RTVSPost2010Prop43
 90
        3
102
RTVSPost2010PropOp43
 70
     1
102
RTVSPost2010Prop44ColorIndex
 90
        5
102
RTVSPost2010Prop44ColorRGB
 90
      255
102
RTVSPost2010PropOp44
 70
     1
102
RTVSPost2010Prop45
280
     0
102
RTVSPost2010PropOp45
 70
     1
102
RTVSPost2010Prop46
 90
       50
102
RTVSPost2010PropOp46
 70
     1
102
RTVSPost2010Prop47
 90
       50
102
RTVSPost2010PropOp47
 70
     1
102
RTVSPost2010Prop48
 90
       50
102
RTVSPost2010PropOp48
 70
     1
102
RTVSPost2010Prop49
280
     0
102
RTVSPost2010PropOp49
 70
     1
102
RTVSPost2010Prop50
 90
       50
102
RTVSPost2010PropOp50
 70
     1
102
RTVSPost2010Prop51ColorIndex
 90
      256
102
RTVSPost2010Prop51ColorRGB
 90
-16777216
102
RTVSPost2010PropOp51
 70
     0
102
RTVSPost2010Prop52
140
1.0
102
RTVSPost2010PropOp52
 70
     0
102
RTVSPost2010Prop53
 90
        2
102
RTVSPost2010PropOp53
 70
     1
102
RTVSPost2010Prop54
  1
strokes_ogs.tif
102
RTVSPost2010PropOp54
 70
     1
102
RTVSPost2010Prop55
280
     0
102
RTVSPost2010PropOp55
 70
     1
102
RTVSPost2010Prop56
140
1.0
102
RTVSPost2010PropOp56
 70
     1
102
RTVSPost2010Prop57
140
1.0
102
RTVSPost2010PropOp57
 70
     1
102
RTVSPropertyOp0
 70
     1
102
RTVSPropertyOp1
 70
     1
102
RTVSPropertyOp2
 70
     1
102
RTVSPropertyOp3
 70
     1
102
RTVSPropertyOp4
 70
     1
102
RTVSPropertyOp5
 70
     1
102
RTVSPropertyOp6
 70
     1
102
RTVSPropertyOp7
 70
     1
102
RTVSPropertyOp8
 70
     1
102
RTVSPropertyOp9
 70
     1
102
RTVSPropertyOp10
 70
     1
102
RTVSPropertyOp11
 70
     1
102
RTVSPropertyOp12
 70
     1
102
RTVSPropertyOp13
 70
     1
102
RTVSPropertyOp14
 70
     1
102
RTVSPropertyOp15
 70
     1
102
RTVSPropertyOp16
 70
     1
102
RTVSPropertyOp17
 70
     1
102
RTVSPropertyOp18
 70
     1
102
RTVSPropertyOp19
 70
     1
102
RTVSPropertyOp20
 70
     1
102
RTVSPropertyOp21
 70
     1
102
RTVSPropertyOp22
 70
     1
102
RTVSPropertyOp23
 70
     1
102
RTVSPropertyOp24
 70
     1
102
RTVSPropertyOp25
 70
     1
102
RTVSPropertyOp26
 70
     1
102
RTVSPropertyOp27
 70
     1
102
RTVSPropertyOp28
 70
     1
102
RTVSPropertyOp29
 70
     1
102
RTVSPropertyOp30
 70
     1
102
RTVSPropertyOp31
 70
     1
102
RTVSPropertyOp32
 70
     1
102
RTVSPropertyOp33
 70
     1
102
RTVSPropertyOp34
 70
     1
102
RTVSPropertyOp35
 70
     1
102
RTVSPropertyOp36
 70
     1
102
RTVSPropertyOp37
 70
     1
102
RTVSPropertyOp38
 70
     1
102
RTVSPropertyOp39
 70
     1
102
RTVSPropertyOp40
 70
     1
102
RTVSPropertyOp41
 70
     1
102
RTVSPropertyOp42
 70
     1
102
RTVSPropertyOp43
 70
     1
102
RTVSPropertyOp44
 70
     1
102
RTVSPropertyOp45
 70
     1
102
RTVSPropertyOp46
 70
     1
102
RTVSPropertyOp47
 70
     1
102
RTVSPropertyOp48
 70
     1
102
RTVSPropertyOp49
 70
     1
102
RTVSPropertyOp50
 70
     1
102
RTVSPropertyOp51
 70
     0
102
RTVSPropertyOp52
 70
     0
102
RTVSPropertyOp53
 70
     1
102
RTVSPropertyOp54
 70
     1
102
RTVSPropertyOp55
 70
     1
102
RTVSPropertyOp56
 70
     1
102
RTVSPropertyOp57
 70
     1
102
RTVSPropertyOp58
 70
     1
102
RTVSPropertyOp59
 70
     1
102
RTVSPropertyOp60
 70
     1
102
RTVSPropertyOp61
 70
     1
102
RTVSPropertyOp62
 70
     1
  0
XRECORD
  5
3A2
102
{ACAD_REACTORS
330
3A1
102
}
330
3A1
100
AcDbXrecord
280
     1
102
RTVSPost2010Prop28
280
     0
102
RTVSPost2010PropOp28
 70
     1
102
RTVSPost2010Prop29
280
     1
102
RTVSPost2010PropOp29
 70
     1
102
RTVSPost2010Prop30
280
     1
102
RTVSPost2010PropOp30
 70
     1
102
RTVSPost2010Prop31
280
     0
102
RTVSPost2010PropOp31
 70
     1
102
RTVSPost2010Prop32
280
     0
102
RTVSPost2010PropOp32
 70
     1
102
RTVSPost2010Prop33
280
     0
102
RTVSPost2010PropOp33
 70
     1
102
RTVSPost2010Prop34
280
     0
102
RTVSPost2010PropOp34
 70
     1
102
RTVSPost2010Prop35
280
     0
102
RTVSPost2010PropOp35
 70
     1
102
RTVSPost2010Prop36
280
     0
102
RTVSPost2010PropOp36
 70
     1
102
RTVSPost2010Prop37
 90
       50
102
RTVSPost2010PropOp37
 70
     1
102
RTVSPost2010Prop38
140
0.0
102
RTVSPost2010PropOp38
 70
     1
102
RTVSPost2010Prop39
140
1.0
102
RTVSPost2010PropOp39
 70
     1
102
RTVSPost2010Prop40
 90
        0
102
RTVSPost2010PropOp40
 70
     1
102
RTVSPost2010Prop41ColorIndex
 90
       18
102
RTVSPost2010Prop41ColorRGB
 90
        0
102
RTVSPost2010PropOp41
 70
     1
102
RTVSPost2010Prop42
 90
       50
102
RTVSPost2010PropOp42
 70
     1
102
RTVSPost2010Prop43
 90
        3
102
RTVSPost2010PropOp43
 70
     1
102
RTVSPost2010Prop44ColorIndex
 90
        5
102
RTVSPost2010Prop44ColorRGB
 90
      255
102
RTVSPost2010PropOp44
 70
     1
102
RTVSPost2010Prop45
280
     0
102
RTVSPost2010PropOp45
 70
     1
102
RTVSPost2010Prop46
 90
       50
102
RTVSPost2010PropOp46
 70
     1
102
RTVSPost2010Prop47
 90
       50
102
RTVSPost2010PropOp47
 70
     1
102
RTVSPost2010Prop48
 90
       50
102
RTVSPost2010PropOp48
 70
     1
102
RTVSPost2010Prop49
280
     0
102
RTVSPost2010PropOp49
 70
     1
102
RTVSPost2010Prop50
 90
       50
102
RTVSPost2010PropOp50
 70
     1
102
RTVSPost2010Prop51ColorIndex
 90
      256
102
RTVSPost2010Prop51ColorRGB
 90
-16777216
102
RTVSPost2010PropOp51
 70
     0
102
RTVSPost2010Prop52
140
1.0
102
RTVSPost2010PropOp52
 70
     0
102
RTVSPost2010Prop53
 90
        2
102
RTVSPost2010PropOp53
 70
     1
102
RTVSPost2010Prop54
  1
strokes_ogs.tif
102
RTVSPost2010PropOp54
 70
     1
102
RTVSPost2010Prop55
280
     0
102
RTVSPost2010PropOp55
 70
     1
102
RTVSPost2010Prop56
140
1.0
102
RTVSPost2010PropOp56
 70
     1
102
RTVSPost2010Prop57
140
1.0
102
RTVSPost2010PropOp57
 70
     1
102
RTVSPropertyOp0
 70
     1
102
RTVSPropertyOp1
 70
     1
102
RTVSPropertyOp2
 70
     1
102
RTVSPropertyOp3
 70
     1
102
RTVSPropertyOp4
 70
     1
102
RTVSPropertyOp5
 70
     1
102
RTVSPropertyOp6
 70
     1
102
RTVSPropertyOp7
 70
     1
102
RTVSPropertyOp8
 70
     1
102
RTVSPropertyOp9
 70
     1
102
RTVSPropertyOp10
 70
     1
102
RTVSPropertyOp11
 70
     1
102
RTVSPropertyOp12
 70
     1
102
RTVSPropertyOp13
 70
     1
102
RTVSPropertyOp14
 70
     1
102
RTVSPropertyOp15
 70
     1
102
RTVSPropertyOp16
 70
     1
102
RTVSPropertyOp17
 70
     1
102
RTVSPropertyOp18
 70
     1
102
RTVSPropertyOp19
 70
     1
102
RTVSPropertyOp20
 70
     1
102
RTVSPropertyOp21
 70
     1
102
RTVSPropertyOp22
 70
     1
102
RTVSPropertyOp23
 70
     1
102
RTVSPropertyOp24
 70
     1
102
RTVSPropertyOp25
 70
     1
102
RTVSPropertyOp26
 70
     1
102
RTVSPropertyOp27
 70
     1
102
RTVSPropertyOp28
 70
     1
102
RTVSPropertyOp29
 70
     1
102
RTVSPropertyOp30
 70
     1
102
RTVSPropertyOp31
 70
     1
102
RTVSPropertyOp32
 70
     1
102
RTVSPropertyOp33
 70
     1
102
RTVSPropertyOp34
 70
     1
102
RTVSPropertyOp35
 70
     1
102
RTVSPropertyOp36
 70
     1
102
RTVSPropertyOp37
 70
     1
102
RTVSPropertyOp38
 70
     1
102
RTVSPropertyOp39
 70
     1
102
RTVSPropertyOp40
 70
     1
102
RTVSPropertyOp41
 70
     1
102
RTVSPropertyOp42
 70
     1
102
RTVSPropertyOp43
 70
     1
102
RTVSPropertyOp44
 70
     1
102
RTVSPropertyOp45
 70
     1
102
RTVSPropertyOp46
 70
     1
102
RTVSPropertyOp47
 70
     1
102
RTVSPropertyOp48
 70
     1
102
RTVSPropertyOp49
 70
     1
102
RTVSPropertyOp50
 70
     1
102
RTVSPropertyOp51
 70
     0
102
RTVSPropertyOp52
 70
     0
102
RTVSPropertyOp53
 70
     1
102
RTVSPropertyOp54
 70
     1
102
RTVSPropertyOp55
 70
     1
102
RTVSPropertyOp56
 70
     1
102
RTVSPropertyOp57
 70
     1
102
RTVSPropertyOp58
 70
     1
102
RTVSPropertyOp59
 70
     1
102
RTVSPropertyOp60
 70
     1
102
RTVSPropertyOp61
 70
     1
102
RTVSPropertyOp62
 70
     1
  0
ENDSEC
  0
EOF
