  0
SECTION
  2
HEADER
  9
$ACADVER
  1
AC1018
  9
$ACADMAINTVER
 70
   104
  9
$DWGCODEPAGE
  3
ANSI_1250
  9
$LASTSAVEDBY
  1
wq7085
  9
$INSBASE
 10
0.0
 20
0.0
 30
0.0
  9
$EXTMIN
 10
187.2502013333333
 20
118.534924
 30
0.0
  9
$EXTMAX
 10
441.7718389999999
 20
341.6963336666668
 30
0.0
  9
$LIMMIN
 10
-0.5
 20
-0.5
  9
$LIMMAX
 10
5.0
 20
5.0
  9
$ORTHOMODE
 70
     0
  9
$REGENMODE
 70
     1
  9
$FILLMODE
 70
     1
  9
$QTEXTMODE
 70
     0
  9
$MIRRTEXT
 70
     1
  9
$LTSCALE
 40
1.0
  9
$ATTMODE
 70
     1
  9
$TEXTSIZE
 40
0.2
  9
$TRACEWID
 40
0.05
  9
$TEXTSTYLE
  7
Standard
  9
$CLAYER
  8
0
  9
$CELTYPE
  6
ByLayer
  9
$CECOLOR
 62
   256
  9
$CELTSCALE
 40
1.0
  9
$DISPSILH
 70
     0
  9
$DIMSCALE
 40
1.0
  9
$DIMASZ
 40
0.18
  9
$DIMEXO
 40
0.0625
  9
$DIMDLI
 40
0.38
  9
$DIMRND
 40
0.0
  9
$DIMDLE
 40
0.0
  9
$DIMEXE
 40
0.18
  9
$DIMTP
 40
0.0
  9
$DIMTM
 40
0.0
  9
$DIMTXT
 40
0.18
  9
$DIMCEN
 40
0.09
  9
$DIMTSZ
 40
0.0
  9
$DIMTOL
 70
     0
  9
$DIMLIM
 70
     0
  9
$DIMTIH
 70
     1
  9
$DIMTOH
 70
     1
  9
$DIMSE1
 70
     0
  9
$DIMSE2
 70
     0
  9
$DIMTAD
 70
     0
  9
$DIMZIN
 70
     0
  9
$DIMBLK
  1

  9
$DIMASO
 70
     1
  9
$DIMSHO
 70
     1
  9
$DIMPOST
  1

  9
$DIMAPOST
  1

  9
$DIMALT
 70
     0
  9
$DIMALTD
 70
     2
  9
$DIMALTF
 40
25.4
  9
$DIMLFAC
 40
1.0
  9
$DIMTOFL
 70
     0
  9
$DIMTVP
 40
0.0
  9
$DIMTIX
 70
     0
  9
$DIMSOXD
 70
     0
  9
$DIMSAH
 70
     0
  9
$DIMBLK1
  1

  9
$DIMBLK2
  1

  9
$DIMSTYLE
  2
Standard
  9
$DIMCLRD
 70
     0
  9
$DIMCLRE
 70
     0
  9
$DIMCLRT
 70
     0
  9
$DIMTFAC
 40
1.0
  9
$DIMGAP
 40
0.09
  9
$DIMJUST
 70
     0
  9
$DIMSD1
 70
     0
  9
$DIMSD2
 70
     0
  9
$DIMTOLJ
 70
     1
  9
$DIMTZIN
 70
     0
  9
$DIMALTZ
 70
     0
  9
$DIMALTTZ
 70
     0
  9
$DIMUPT
 70
     0
  9
$DIMDEC
 70
     4
  9
$DIMTDEC
 70
     4
  9
$DIMALTU
 70
     2
  9
$DIMALTTD
 70
     2
  9
$DIMTXSTY
  7
Standard
  9
$DIMAUNIT
 70
     0
  9
$DIMADEC
 70
     0
  9
$DIMALTRND
 40
0.0
  9
$DIMAZIN
 70
     0
  9
$DIMDSEP
 70
    46
  9
$DIMATFIT
 70
     3
  9
$DIMFRAC
 70
     0
  9
$DIMLDRBLK
  1

  9
$DIMLUNIT
 70
     2
  9
$DIMLWD
 70
    -2
  9
$DIMLWE
 70
    -2
  9
$DIMTMOVE
 70
     0
  9
$LUNITS
 70
     2
  9
$LUPREC
 70
     4
  9
$SKETCHINC
 40
0.1
  9
$FILLETRAD
 40
0.5
  9
$AUNITS
 70
     0
  9
$AUPREC
 70
     0
  9
$MENU
  1
.
  9
$ELEVATION
 40
0.0
  9
$PELEVATION
 40
0.0
  9
$THICKNESS
 40
0.0
  9
$LIMCHECK
 70
     0
  9
$CHAMFERA
 40
0.0
  9
$CHAMFERB
 40
0.0
  9
$CHAMFERC
 40
0.0
  9
$CHAMFERD
 40
0.0
  9
$SKPOLY
 70
     0
  9
$TDCREATE
 40
2459089.314502315
  9
$TDUCREATE
 40
2459089.231175359
  9
$TDUPDATE
 40
2459089.315300926
  9
$TDUUPDATE
 40
2459089.231967593
  9
$TDINDWG
 40
0.0005439931
  9
$TDUSRTIMER
 40
0.0005439931
  9
$USRTIMER
 70
     1
  9
$ANGBASE
 50
0.0
  9
$ANGDIR
 70
     0
  9
$PDMODE
 70
     0
  9
$PDSIZE
 40
0.0
  9
$PLINEWID
 40
0.0
  9
$SPLFRAME
 70
     0
  9
$SPLINETYPE
 70
     6
  9
$SPLINESEGS
 70
     8
  9
$HANDSEED
  5
39E
  9
$SURFTAB1
 70
     6
  9
$SURFTAB2
 70
     6
  9
$SURFTYPE
 70
     6
  9
$SURFU
 70
     6
  9
$SURFV
 70
     6
  9
$UCSBASE
  2

  9
$UCSNAME
  2

  9
$UCSORG
 10
274.404842
 20
288.907994
 30
0.0
  9
$UCSXDIR
 10
1.0
 20
0.0
 30
0.0
  9
$UCSYDIR
 10
0.0
 20
1.0
 30
0.0
  9
$UCSORTHOREF
  2

  9
$UCSORTHOVIEW
 70
     0
  9
$UCSORGTOP
 10
0.0
 20
0.0
 30
0.0
  9
$UCSORGBOTTOM
 10
0.0
 20
0.0
 30
0.0
  9
$UCSORGLEFT
 10
0.0
 20
0.0
 30
0.0
  9
$UCSORGRIGHT
 10
0.0
 20
0.0
 30
0.0
  9
$UCSORGFRONT
 10
0.0
 20
0.0
 30
0.0
  9
$UCSORGBACK
 10
0.0
 20
0.0
 30
0.0
  9
$PUCSBASE
  2

  9
$PUCSNAME
  2

  9
$PUCSORG
 10
0.0
 20
0.0
 30
0.0
  9
$PUCSXDIR
 10
1.0
 20
0.0
 30
0.0
  9
$PUCSYDIR
 10
0.0
 20
1.0
 30
0.0
  9
$PUCSORTHOREF
  2

  9
$PUCSORTHOVIEW
 70
     0
  9
$PUCSORGTOP
 10
0.0
 20
0.0
 30
0.0
  9
$PUCSORGBOTTOM
 10
0.0
 20
0.0
 30
0.0
  9
$PUCSORGLEFT
 10
0.0
 20
0.0
 30
0.0
  9
$PUCSORGRIGHT
 10
0.0
 20
0.0
 30
0.0
  9
$PUCSORGFRONT
 10
0.0
 20
0.0
 30
0.0
  9
$PUCSORGBACK
 10
0.0
 20
0.0
 30
0.0
  9
$USERI1
 70
     0
  9
$USERI2
 70
     0
  9
$USERI3
 70
     0
  9
$USERI4
 70
     0
  9
$USERI5
 70
     0
  9
$USERR1
 40
0.0
  9
$USERR2
 40
0.0
  9
$USERR3
 40
0.0
  9
$USERR4
 40
0.0
  9
$USERR5
 40
0.0
  9
$WORLDVIEW
 70
     1
  9
$SHADEDGE
 70
     3
  9
$SHADEDIF
 70
    70
  9
$TILEMODE
 70
     1
  9
$MAXACTVP
 70
    64
  9
$PINSBASE
 10
0.0
 20
0.0
 30
0.0
  9
$PLIMCHECK
 70
     0
  9
$PEXTMIN
 10
-0.5
 20
-0.5
 30
-0.5
  9
$PEXTMAX
 10
5.0
 20
5.0
 30
5.0
  9
$PLIMMIN
 10
-0.5
 20
-0.5
  9
$PLIMMAX
 10
5.0
 20
5.0
  9
$UNITMODE
 70
     0
  9
$VISRETAIN
 70
     1
  9
$PLINEGEN
 70
     0
  9
$PSLTSCALE
 70
     1
  9
$TREEDEPTH
 70
  3020
  9
$CMLSTYLE
  2
Standard
  9
$CMLJUST
 70
     0
  9
$CMLSCALE
 40
1.0
  9
$PROXYGRAPHICS
 70
     1
  9
$MEASUREMENT
 70
     1
  9
$CELWEIGHT
370
    13
  9
$ENDCAPS
280
     0
  9
$JOINSTYLE
280
     0
  9
$LWDISPLAY
290
     0
  9
$INSUNITS
 70
     4
  9
$HYPERLINKBASE
  1

  9
$STYLESHEET
  1

  9
$XEDIT
290
     1
  9
$CEPSNTYPE
380
     0
  9
$PSTYLEMODE
290
     1
  9
$FINGERPRINTGUID
  2
{E96C8BAC-CD33-4248-A670-F13A8B17F561}
  9
$VERSIONGUID
  2
{BA3BB55D-3D1D-FA42-851D-522AD7D5E36A}
  9
$EXTNAMES
290
     1
  9
$PSVPSCALE
 40
0.0
  9
$OLESTARTUP
290
     0
  9
$SORTENTS
280
   127
  9
$INDEXCTL
280
     0
  9
$HIDETEXT
280
     1
  9
$XCLIPFRAME
290
     0
  9
$HALOGAP
280
     0
  9
$OBSCOLOR
 70
   257
  9
$OBSLTYPE
280
     0
  9
$INTERSECTIONDISPLAY
280
     0
  9
$INTERSECTIONCOLOR
 70
   257
  9
$DIMASSOC
280
     2
  9
$PROJECTNAME
  1

  0
ENDSEC
  0
SECTION
  2
CLASSES
  0
CLASS
  1
ACDBDICTIONARYWDFLT
  2
AcDbDictionaryWithDefault
  3
ObjectDBX Classes
 90
        0
 91
        1
280
     0
281
     0
  0
CLASS
  1
VISUALSTYLE
  2
AcDbVisualStyle
  3
ObjectDBX Classes
 90
     4095
 91
       24
280
     0
281
     0
  0
CLASS
  1
MATERIAL
  2
AcDbMaterial
  3
ObjectDBX Classes
 90
     1153
 91
        3
280
     0
281
     0
  0
CLASS
  1
SCALE
  2
AcDbScale
  3
ObjectDBX Classes
 90
     1153
 91
       33
280
     0
281
     0
  0
CLASS
  1
TABLESTYLE
  2
AcDbTableStyle
  3
ObjectDBX Classes
 90
     4095
 91
        1
280
     0
281
     0
  0
CLASS
  1
MLEADERSTYLE
  2
AcDbMLeaderStyle
  3
ACDB_MLEADERSTYLE_CLASS
 90
     4095
 91
        1
280
     0
281
     0
  0
CLASS
  1
SUN
  2
AcDbSun
  3
SCENEOE
 90
     1153
 91
        0
280
     0
281
     0
  0
CLASS
  1
DIMASSOC
  2
AcDbDimAssoc
  3
"AcDbDimAssoc|Product Desc:     AcDim ARX App For Dimension|Company:          Autodesk, Inc.|WEB Address:      www.autodesk.com"
 90
        0
 91
        7
280
     0
281
     0
  0
CLASS
  1
DICTIONARYVAR
  2
AcDbDictionaryVar
  3
ObjectDBX Classes
 90
        0
 91
        8
280
     0
281
     0
  0
CLASS
  1
CELLSTYLEMAP
  2
AcDbCellStyleMap
  3
ObjectDBX Classes
 90
     1152
 91
        2
280
     0
281
     0
  0
CLASS
  1
ACDBSECTIONVIEWSTYLE
  2
AcDbSectionViewStyle
  3
ObjectDBX Classes
 90
     1025
 91
        1
280
     0
281
     0
  0
CLASS
  1
ACDBDETAILVIEWSTYLE
  2
AcDbDetailViewStyle
  3
ObjectDBX Classes
 90
     1025
 91
        1
280
     0
281
     0
  0
CLASS
  1
SORTENTSTABLE
  2
AcDbSortentsTable
  3
ObjectDBX Classes
 90
        0
 91
        1
280
     0
281
     0
  0
ENDSEC
  0
SECTION
  2
TABLES
  0
TABLE
  2
VPORT
  5
8
330
0
100
AcDbSymbolTable
 70
    16
  0
VPORT
  5
29
330
8
100
AcDbSymbolTableRecord
100
AcDbViewportTableRecord
  2
*Active
 70
     0
 10
0.0
 20
0.0
 11
1.0
 21
1.0
 12
311.8331385003715
 22
306.5529204943232
 13
0.0
 23
0.0
 14
0.5
 24
0.5
 15
0.5
 25
0.5
 16
0.0
 26
0.0
 36
1.0
 17
0.0
 27
0.0
 37
0.0
 40
204.6620154937367
 41
2.292712066905615
 42
50.0
 43
455.2684259999999
 44
-455.2684259999999
 50
0.0
 51
0.0
 71
     0
 72
   100
 73
     1
 74
     3
 75
     0
 76
     0
 77
     0
 78
     0
281
     0
 65
     1
110
274.404842
120
288.907994
130
0.0
111
1.0
121
0.0
131
0.0
112
0.0
122
1.0
132
0.0
 79
     0
146
0.0
1001
ACAD_NAV_VCDISPLAY
1070
     3
  0
VPORT
  5
2A2
330
8
100
AcDbSymbolTableRecord
100
AcDbViewportTableRecord
  2
L1
 70
     0
 10
0.0
 20
0.0
 11
1.0
 21
1.0
 12
314.006821
 22
230.118063
 13
0.0
 23
0.0
 14
0.5
 24
0.5
 15
0.5
 25
0.5
 16
0.0
 26
0.0
 36
1.0
 17
0.0
 27
0.0
 37
0.0
 40
207.433333
 41
0.085602
 42
50.0
 43
455.2684259999999
 44
-455.2684259999999
 50
0.0
 51
0.0
 71
     0
 72
   100
 73
     1
 74
     3
 75
     0
 76
     0
 77
     0
 78
     0
281
     0
 65
     1
110
0.0
120
0.0
130
0.0
111
1.0
121
0.0
131
0.0
112
0.0
122
1.0
132
0.0
 79
     0
146
0.0
  0
VPORT
  5
2A3
330
8
100
AcDbSymbolTableRecord
100
AcDbViewportTableRecord
  2
L2
 70
     0
 10
0.0
 20
0.0
 11
0.5
 21
1.0
 12
0.0
 22
0.0
 13
0.0
 23
0.0
 14
0.5
 24
0.5
 15
0.5
 25
0.5
 16
0.0
 26
-1.0
 36
0.0
 17
0.0
 27
0.0
 37
0.0
 40
1316.18997
 41
0.013491
 42
50.0
 43
678.00864
 44
-678.00864
 50
0.0
 51
0.0
 71
     0
 72
   100
 73
     1
 74
     3
 75
     0
 76
     0
 77
     0
 78
     0
281
     0
 65
     1
110
0.0
120
0.0
130
0.0
111
1.0
121
0.0
131
0.0
112
0.0
122
1.0
132
0.0
 79
     0
146
0.0
  0
VPORT
  5
2A4
330
8
100
AcDbSymbolTableRecord
100
AcDbViewportTableRecord
  2
L2
 70
     0
 10
0.5
 20
0.0
 11
1.0
 21
1.0
 12
0.0
 22
0.0
 13
0.0
 23
0.0
 14
0.5
 24
0.5
 15
0.5
 25
0.5
 16
1.0
 26
0.0
 36
0.0
 17
0.0
 27
0.0
 37
0.0
 40
1316.18997
 41
0.013491
 42
50.0
 43
666.2177989999999
 44
-666.2177989999999
 50
0.0
 51
0.0
 71
     0
 72
   100
 73
     1
 74
     3
 75
     0
 76
     0
 77
     0
 78
     0
281
     0
 65
     1
110
0.0
120
0.0
130
0.0
111
1.0
121
0.0
131
0.0
112
0.0
122
1.0
132
0.0
 79
     0
146
0.0
  0
VPORT
  5
2A5
330
8
100
AcDbSymbolTableRecord
100
AcDbViewportTableRecord
  2
L3
 70
     0
 10
0.0
 20
0.5
 11
1.0
 21
1.0
 12
314.006821
 22
230.118063
 13
0.0
 23
0.0
 14
0.5
 24
0.5
 15
0.5
 25
0.5
 16
0.0
 26
0.0
 36
1.0
 17
0.0
 27
0.0
 37
0.0
 40
207.433333
 41
0.085602
 42
50.0
 43
455.2684259999999
 44
-455.2684259999999
 50
0.0
 51
0.0
 71
     0
 72
   100
 73
     1
 74
     3
 75
     0
 76
     0
 77
     0
 78
     0
281
     0
 65
     1
110
0.0
120
0.0
130
0.0
111
1.0
121
0.0
131
0.0
112
0.0
122
1.0
132
0.0
 79
     0
146
0.0
  0
VPORT
  5
2A6
330
8
100
AcDbSymbolTableRecord
100
AcDbViewportTableRecord
  2
L3
 70
     0
 10
0.0
 20
0.0
 11
1.0
 21
0.5
 12
0.0
 22
0.0
 13
0.0
 23
0.0
 14
0.5
 24
0.5
 15
0.5
 25
0.5
 16
0.0
 26
-1.0
 36
0.0
 17
0.0
 27
0.0
 37
0.0
 40
1316.18997
 41
0.013491
 42
50.0
 43
678.00864
 44
-678.00864
 50
0.0
 51
0.0
 71
     0
 72
   100
 73
     1
 74
     3
 75
     0
 76
     0
 77
     0
 78
     0
281
     0
 65
     1
110
0.0
120
0.0
130
0.0
111
1.0
121
0.0
131
0.0
112
0.0
122
1.0
132
0.0
 79
     0
146
0.0
  0
VPORT
  5
2A7
330
8
100
AcDbSymbolTableRecord
100
AcDbViewportTableRecord
  2
L4
 70
     0
 10
0.0
 20
0.5
 11
0.5
 21
1.0
 12
314.006821
 22
230.118063
 13
0.0
 23
0.0
 14
0.5
 24
0.5
 15
0.5
 25
0.5
 16
0.0
 26
0.0
 36
1.0
 17
0.0
 27
0.0
 37
0.0
 40
207.433333
 41
0.085602
 42
50.0
 43
455.2684259999999
 44
-455.2684259999999
 50
0.0
 51
0.0
 71
     0
 72
   100
 73
     1
 74
     3
 75
     0
 76
     0
 77
     0
 78
     0
281
     0
 65
     1
110
0.0
120
0.0
130
0.0
111
1.0
121
0.0
131
0.0
112
0.0
122
1.0
132
0.0
 79
     0
146
0.0
  0
VPORT
  5
2A8
330
8
100
AcDbSymbolTableRecord
100
AcDbViewportTableRecord
  2
L4
 70
     0
 10
0.0
 20
0.0
 11
0.5
 21
0.5
 12
0.0
 22
0.0
 13
0.0
 23
0.0
 14
0.5
 24
0.5
 15
0.5
 25
0.5
 16
0.0
 26
-1.0
 36
0.0
 17
0.0
 27
0.0
 37
0.0
 40
1316.18997
 41
0.013491
 42
50.0
 43
678.00864
 44
-678.00864
 50
0.0
 51
0.0
 71
     0
 72
   100
 73
     1
 74
     3
 75
     0
 76
     0
 77
     0
 78
     0
281
     0
 65
     1
110
0.0
120
0.0
130
0.0
111
1.0
121
0.0
131
0.0
112
0.0
122
1.0
132
0.0
 79
     0
146
0.0
  0
VPORT
  5
2A9
330
8
100
AcDbSymbolTableRecord
100
AcDbViewportTableRecord
  2
L4
 70
     0
 10
0.5
 20
0.0
 11
1.0
 21
0.5
 12
0.0
 22
0.0
 13
0.0
 23
0.0
 14
0.5
 24
0.5
 15
0.5
 25
0.5
 16
1.0
 26
0.0
 36
0.0
 17
0.0
 27
0.0
 37
0.0
 40
1316.18997
 41
0.013491
 42
50.0
 43
666.2177989999999
 44
-666.2177989999999
 50
0.0
 51
0.0
 71
     0
 72
   100
 73
     1
 74
     3
 75
     0
 76
     0
 77
     0
 78
     0
281
     0
 65
     1
110
0.0
120
0.0
130
0.0
111
1.0
121
0.0
131
0.0
112
0.0
122
1.0
132
0.0
 79
     0
146
0.0
  0
VPORT
  5
2AA
330
8
100
AcDbSymbolTableRecord
100
AcDbViewportTableRecord
  2
L4
 70
     0
 10
0.5
 20
0.5
 11
1.0
 21
1.0
 12
0.0
 22
0.0
 13
0.0
 23
0.0
 14
0.5
 24
0.5
 15
0.5
 25
0.5
 16
0.5773502691896259
 26
-0.5773502691896259
 36
0.5773502691896259
 17
0.0
 27
0.0
 37
0.0
 40
1292.532264
 41
0.013738
 42
50.0
 43
673.245608
 44
-673.245608
 50
0.0
 51
0.0
 71
     0
 72
   100
 73
     1
 74
     3
 75
     0
 76
     0
 77
     0
 78
     0
281
     0
 65
     1
110
0.0
120
0.0
130
0.0
111
1.0
121
0.0
131
0.0
112
0.0
122
1.0
132
0.0
 79
     0
146
0.0
  0
VPORT
  5
2AB
330
8
100
AcDbSymbolTableRecord
100
AcDbViewportTableRecord
  2
L6
 70
     0
 10
0.0
 20
0.5
 11
0.333333
 21
1.0
 12
0.0
 22
0.0
 13
0.0
 23
0.0
 14
0.5
 24
0.5
 15
0.5
 25
0.5
 16
0.7188730927569434
 26
-0.5850486126764433
 36
0.3754192287502549
 17
0.0
 27
0.0
 37
0.0
 40
1364.064247
 41
0.013018
 42
50.0
 43
706.2613849999999
 44
-706.2613849999999
 50
0.0
 51
0.0
 71
     0
 72
   100
 73
     1
 74
     3
 75
     0
 76
     0
 77
     0
 78
     0
281
     0
 65
     1
110
0.0
120
0.0
130
0.0
111
1.0
121
0.0
131
0.0
112
0.0
122
1.0
132
0.0
 79
     0
146
0.0
  0
VPORT
  5
2AC
330
8
100
AcDbSymbolTableRecord
100
AcDbViewportTableRecord
  2
L6
 70
     0
 10
0.0
 20
0.0
 11
0.333333
 21
0.5
 12
0.0
 22
0.0
 13
0.0
 23
0.0
 14
0.5
 24
0.5
 15
0.5
 25
0.5
 16
-1.0
 26
0.0
 36
0.0
 17
0.0
 27
0.0
 37
0.0
 40
1316.18997
 41
0.013491
 42
50.0
 43
666.2177989999999
 44
-666.2177989999999
 50
0.0
 51
0.0
 71
     0
 72
   100
 73
     1
 74
     3
 75
     0
 76
     0
 77
     0
 78
     0
281
     0
 65
     1
110
0.0
120
0.0
130
0.0
111
1.0
121
0.0
131
0.0
112
0.0
122
1.0
132
0.0
 79
     0
146
0.0
  0
VPORT
  5
2AD
330
8
100
AcDbSymbolTableRecord
100
AcDbViewportTableRecord
  2
L6
 70
     0
 10
0.333333
 20
0.5
 11
0.666667
 21
1.0
 12
314.006821
 22
230.118063
 13
0.0
 23
0.0
 14
0.5
 24
0.5
 15
0.5
 25
0.5
 16
0.0
 26
0.0
 36
1.0
 17
0.0
 27
0.0
 37
0.0
 40
207.433333
 41
0.085602
 42
50.0
 43
455.2684259999999
 44
-455.2684259999999
 50
0.0
 51
0.0
 71
     0
 72
   100
 73
     1
 74
     3
 75
     0
 76
     0
 77
     0
 78
     0
281
     0
 65
     1
110
0.0
120
0.0
130
0.0
111
1.0
121
0.0
131
0.0
112
0.0
122
1.0
132
0.0
 79
     0
146
0.0
  0
VPORT
  5
2AE
330
8
100
AcDbSymbolTableRecord
100
AcDbViewportTableRecord
  2
L6
 70
     0
 10
0.333333
 20
0.0
 11
0.666667
 21
0.5
 12
0.0
 22
0.0
 13
0.0
 23
0.0
 14
0.5
 24
0.5
 15
0.5
 25
0.5
 16
0.0
 26
-1.0
 36
0.0
 17
0.0
 27
0.0
 37
0.0
 40
1316.18997
 41
0.013491
 42
50.0
 43
678.00864
 44
-678.00864
 50
0.0
 51
0.0
 71
     0
 72
   100
 73
     1
 74
     3
 75
     0
 76
     0
 77
     0
 78
     0
281
     0
 65
     1
110
0.0
120
0.0
130
0.0
111
1.0
121
0.0
131
0.0
112
0.0
122
1.0
132
0.0
 79
     0
146
0.0
  0
VPORT
  5
2AF
330
8
100
AcDbSymbolTableRecord
100
AcDbViewportTableRecord
  2
L6
 70
     0
 10
0.666667
 20
0.5
 11
1.0
 21
1.0
 12
0.0
 22
0.0
 13
0.0
 23
0.0
 14
0.5
 24
0.5
 15
0.5
 25
0.5
 16
0.5773502691896259
 26
-0.5773502691896259
 36
0.5773502691896259
 17
0.0
 27
0.0
 37
0.0
 40
1292.532264
 41
0.013738
 42
50.0
 43
673.245608
 44
-673.245608
 50
0.0
 51
0.0
 71
     0
 72
   100
 73
     1
 74
     3
 75
     0
 76
     0
 77
     0
 78
     0
281
     0
 65
     1
110
0.0
120
0.0
130
0.0
111
1.0
121
0.0
131
0.0
112
0.0
122
1.0
132
0.0
 79
     0
146
0.0
  0
VPORT
  5
2B0
330
8
100
AcDbSymbolTableRecord
100
AcDbViewportTableRecord
  2
L6
 70
     0
 10
0.666667
 20
0.0
 11
1.0
 21
0.5
 12
0.0
 22
0.0
 13
0.0
 23
0.0
 14
0.5
 24
0.5
 15
0.5
 25
0.5
 16
1.0
 26
0.0
 36
0.0
 17
0.0
 27
0.0
 37
0.0
 40
1316.18997
 41
0.013491
 42
50.0
 43
666.2177989999999
 44
-666.2177989999999
 50
0.0
 51
0.0
 71
     0
 72
   100
 73
     1
 74
     3
 75
     0
 76
     0
 77
     0
 78
     0
281
     0
 65
     1
110
0.0
120
0.0
130
0.0
111
1.0
121
0.0
131
0.0
112
0.0
122
1.0
132
0.0
 79
     0
146
0.0
  0
ENDTAB
  0
TABLE
  2
LTYPE
  5
5
330
0
100
AcDbSymbolTable
 70
     7
  0
LTYPE
  5
14
330
5
100
AcDbSymbolTableRecord
100
AcDbLinetypeTableRecord
  2
ByBlock
 70
     0
  3

 72
    65
 73
     0
 40
0.0
  0
LTYPE
  5
15
330
5
100
AcDbSymbolTableRecord
100
AcDbLinetypeTableRecord
  2
ByLayer
 70
     0
  3

 72
    65
 73
     0
 40
0.0
  0
LTYPE
  5
16
330
5
100
AcDbSymbolTableRecord
100
AcDbLinetypeTableRecord
  2
Continuous
 70
     0
  3
Solid line
 72
    65
 73
     0
 40
0.0
  0
LTYPE
  5
6E
330
5
100
AcDbSymbolTableRecord
100
AcDbLinetypeTableRecord
  2
CENTER
 70
     0
  3
____ _ ____ _ ____ _ ____
 72
    65
 73
     4
 40
47.4
 49
22.0
 74
     4
 75
     0
340
0
 46
0.0
 50
0.0
 44
0.0
 45
0.0
 49
-8.5
 74
     4
 75
     0
340
0
 46
0.0
 50
0.0
 44
0.0
 45
0.0
 49
8.5
 74
     4
 75
     0
340
0
 46
0.0
 50
0.0
 44
0.0
 45
0.0
 49
-8.5
 74
     4
 75
     0
340
0
 46
0.0
 50
0.0
 44
0.0
 45
0.0
  0
LTYPE
  5
6F
330
5
100
AcDbSymbolTableRecord
100
AcDbLinetypeTableRecord
  2
DASHDOT
 70
     0
  3
_._._._._._._._._._._._._._._._.
 72
    65
 73
     4
 40
70.0
 49
31.0
 74
     4
 75
     0
340
0
 46
0.0
 50
0.0
 44
0.0
 45
0.0
 49
-13.0
 74
     4
 75
     0
340
0
 46
0.0
 50
0.0
 44
0.0
 45
0.0
 49
13.0
 74
     4
 75
     0
340
0
 46
0.0
 50
0.0
 44
0.0
 45
0.0
 49
-13.0
 74
     4
 75
     0
340
0
 46
0.0
 50
0.0
 44
0.0
 45
0.0
  0
LTYPE
  5
70
330
5
100
AcDbSymbolTableRecord
100
AcDbLinetypeTableRecord
  2
DASHED
 70
     0
  3
__ __ __ __ __ __ __ __ __
 72
    65
 73
     2
 40
25.72
 49
12.86
 74
     4
 75
     0
340
0
 46
0.0
 50
0.0
 44
0.0
 45
0.0
 49
-12.86
 74
     4
 75
     0
340
0
 46
0.0
 50
0.0
 44
0.0
 45
0.0
  0
LTYPE
  5
71
330
5
100
AcDbSymbolTableRecord
100
AcDbLinetypeTableRecord
  2
DOT
 70
     0
  3
.........................
 72
    65
 73
     2
 40
10.0
 49
0.0
 74
     4
 75
     0
340
0
 46
0.0
 50
0.0
 44
0.0
 45
0.0
 49
-10.0
 74
     4
 75
     0
340
0
 46
0.0
 50
0.0
 44
0.0
 45
0.0
  0
LTYPE
  5
72
330
5
100
AcDbSymbolTableRecord
100
AcDbLinetypeTableRecord
  2
PHANTOM
 70
     0
  3
____ _ _ ____ _ _ _____ _ _ ____
 72
    65
 73
     6
 40
50.5
 49
18.0
 74
     4
 75
     0
340
0
 46
0.0
 50
0.0
 44
0.0
 45
0.0
 49
-6.5
 74
     4
 75
     0
340
0
 46
0.0
 50
0.0
 44
0.0
 45
0.0
 49
6.5
 74
     4
 75
     0
340
0
 46
0.0
 50
0.0
 44
0.0
 45
0.0
 49
-6.5
 74
     4
 75
     0
340
0
 46
0.0
 50
0.0
 44
0.0
 45
0.0
 49
6.5
 74
     4
 75
     0
340
0
 46
0.0
 50
0.0
 44
0.0
 45
0.0
 49
-6.5
 74
     4
 75
     0
340
0
 46
0.0
 50
0.0
 44
0.0
 45
0.0
  0
LTYPE
  5
340
330
5
100
AcDbSymbolTableRecord
100
AcDbLinetypeTableRecord
  2
CENTER2
 70
     0
  3
Center (.5x) ___ _ ___ _ ___ _ ___ _ ___ _ ___
 72
    65
 73
     4
 40
1.125
 49
0.75
 74
     0
 49
-0.125
 74
     0
 49
0.125
 74
     0
 49
-0.125
 74
     0
  0
ENDTAB
  0
TABLE
  2
LAYER
  5
2
330
0
100
AcDbSymbolTable
 70
    22
  0
LAYER
  5
10
102
{ACAD_XDICTIONARY
360
34B
102
}
330
2
100
AcDbSymbolTableRecord
100
AcDbLayerTableRecord
  2
0
 70
     0
 62
     7
  6
Continuous
370
    -3
390
F
  0
LAYER
  5
1FC
330
2
100
AcDbSymbolTableRecord
100
AcDbLayerTableRecord
  2
Defpoints
 70
     0
 62
     7
  6
Continuous
290
     0
370
    -3
390
F
  0
LAYER
  5
33D
102
{ACAD_XDICTIONARY
360
34D
102
}
330
2
100
AcDbSymbolTableRecord
100
AcDbLayerTableRecord
  2
1
 70
     0
 62
     4
  6
Continuous
370
    -3
390
F
  0
LAYER
  5
33E
102
{ACAD_XDICTIONARY
360
34F
102
}
330
2
100
AcDbSymbolTableRecord
100
AcDbLayerTableRecord
  2
2
 70
     0
 62
     7
  6
Continuous
370
    -3
390
F
  0
LAYER
  5
33F
102
{ACAD_XDICTIONARY
360
351
102
}
330
2
100
AcDbSymbolTableRecord
100
AcDbLayerTableRecord
  2
4
 70
     0
 62
     2
  6
CENTER2
370
    -3
390
F
  0
LAYER
  5
341
102
{ACAD_XDICTIONARY
360
353
102
}
330
2
100
AcDbSymbolTableRecord
100
AcDbLayerTableRecord
  2
SK1
 70
     0
 62
     4
  6
Continuous
370
    -3
390
F
  0
LAYER
  5
342
102
{ACAD_XDICTIONARY
360
355
102
}
330
2
100
AcDbSymbolTableRecord
100
AcDbLayerTableRecord
  2
SK2
 70
     0
 62
     7
  6
Continuous
370
    -3
390
F
  0
LAYER
  5
344
102
{ACAD_XDICTIONARY
360
357
102
}
330
2
100
AcDbSymbolTableRecord
100
AcDbLayerTableRecord
  2
SK4
 70
     0
 62
     2
  6
CENTER2
370
    -3
390
F
  0
LAYER
  5
345
102
{ACAD_XDICTIONARY
360
359
102
}
330
2
100
AcDbSymbolTableRecord
100
AcDbLayerTableRecord
  2
SK6
 70
     0
 62
     5
  6
Continuous
370
    -3
390
F
  0
LAYER
  5
346
102
{ACAD_XDICTIONARY
360
35B
102
}
330
2
100
AcDbSymbolTableRecord
100
AcDbLayerTableRecord
  2
CUT
 70
     0
 62
     1
  6
Continuous
370
    -3
390
F
  0
LAYER
  5
347
102
{ACAD_XDICTIONARY
360
35D
102
}
330
2
100
AcDbSymbolTableRecord
100
AcDbLayerTableRecord
  2
NOCUT
 70
     0
 62
     7
  6
Continuous
370
    -3
390
F
  0
LAYER
  5
348
102
{ACAD_XDICTIONARY
360
35F
102
}
330
2
100
AcDbSymbolTableRecord
100
AcDbLayerTableRecord
  2
80
 70
     0
 62
     6
  6
Continuous
370
    -3
390
F
  0
LAYER
  5
349
102
{ACAD_XDICTIONARY
360
361
102
}
330
2
100
AcDbSymbolTableRecord
100
AcDbLayerTableRecord
  2
81
 70
     0
 62
     3
  6
Continuous
370
    -3
390
F
  0
ENDTAB
  0
TABLE
  2
STYLE
  5
3
330
0
100
AcDbSymbolTable
 70
     3
  0
STYLE
  5
11
330
3
100
AcDbSymbolTableRecord
100
AcDbTextStyleTableRecord
  2
Standard
 70
     0
 40
0.0
 41
1.0
 50
0.0
 71
     0
 42
0.2
  3
txt
  4

  0
STYLE
  5
1F5
330
3
100
AcDbSymbolTableRecord
100
AcDbTextStyleTableRecord
  2
cesky
 70
     0
 40
0.0
 41
1.0
 50
0.0
 71
     0
 42
0.2
  3
simplex.shx
  4

  0
STYLE
  5
1F6
330
3
100
AcDbSymbolTableRecord
100
AcDbTextStyleTableRecord
  2
DWGDirectTextStyle
 70
     0
 40
0.0
 41
1.0
 50
0.0
 71
     0
 42
0.2
  3
simplex
  4

  0
ENDTAB
  0
TABLE
  2
VIEW
  5
6
330
0
100
AcDbSymbolTable
 70
     0
  0
ENDTAB
  0
TABLE
  2
UCS
  5
7
330
0
100
AcDbSymbolTable
 70
     0
  0
ENDTAB
  0
TABLE
  2
APPID
  5
9
330
0
100
AcDbSymbolTable
 70
     7
  0
APPID
  5
12
330
9
100
AcDbSymbolTableRecord
100
AcDbRegAppTableRecord
  2
ACAD
 70
     0
  0
APPID
  5
1F8
330
9
100
AcDbSymbolTableRecord
100
AcDbRegAppTableRecord
  2
ACAD_DSTYLE_DIMBREAK
 70
     0
  0
APPID
  5
2B1
330
9
100
AcDbSymbolTableRecord
100
AcDbRegAppTableRecord
  2
ACAD_DSTYLE_DIM_LINETYPE
 70
     0
  0
APPID
  5
2B2
330
9
100
AcDbSymbolTableRecord
100
AcDbRegAppTableRecord
  2
ACAD_DSTYLE_DIM_EXT1_LINETYPE
 70
     0
  0
APPID
  5
2B3
330
9
100
AcDbSymbolTableRecord
100
AcDbRegAppTableRecord
  2
ACAD_DSTYLE_DIM_EXT2_LINETYPE
 70
     0
  0
APPID
  5
2F3
330
9
100
AcDbSymbolTableRecord
100
AcDbRegAppTableRecord
  2
ACAD_MLEADERVER
 70
     0
  0
APPID
  5
366
330
9
100
AcDbSymbolTableRecord
100
AcDbRegAppTableRecord
  2
ACAD_NAV_VCDISPLAY
 70
     0
  0
ENDTAB
  0
TABLE
  2
DIMSTYLE
  5
A
330
0
100
AcDbSymbolTable
 70
     1
100
AcDbDimStyleTable
 71
     0
  0
DIMSTYLE
105
27
330
A
100
AcDbSymbolTableRecord
100
AcDbDimStyleTableRecord
  2
Standard
 70
     0
340
11
1001
ACAD_DSTYLE_DIMBREAK
1070
   391
1040
6.349999999999999
  0
ENDTAB
  0
TABLE
  2
BLOCK_RECORD
  5
1
330
0
100
AcDbSymbolTable
 70
    16
  0
BLOCK_RECORD
  5
1F
102
{ACAD_XDICTIONARY
360
303
102
}
330
1
100
AcDbSymbolTableRecord
100
AcDbBlockTableRecord
  2
*Model_Space
340
22
  0
BLOCK_RECORD
  5
1B
330
1
100
AcDbSymbolTableRecord
100
AcDbBlockTableRecord
  2
*Paper_Space
340
1E
  0
BLOCK_RECORD
  5
23
330
1
100
AcDbSymbolTableRecord
100
AcDbBlockTableRecord
  2
*Paper_Space0
340
26
  0
BLOCK_RECORD
  5
1EF
330
1
100
AcDbSymbolTableRecord
100
AcDbBlockTableRecord
  2
ASSORTED_DRAFT1
340
0
  0
BLOCK_RECORD
  5
1FD
330
1
100
AcDbSymbolTableRecord
100
AcDbBlockTableRecord
  2
*D2
340
0
  0
BLOCK_RECORD
  5
209
330
1
100
AcDbSymbolTableRecord
100
AcDbBlockTableRecord
  2
_U0
340
0
  0
BLOCK_RECORD
  5
215
330
1
100
AcDbSymbolTableRecord
100
AcDbBlockTableRecord
  2
*D4
340
0
  0
BLOCK_RECORD
  5
221
330
1
100
AcDbSymbolTableRecord
100
AcDbBlockTableRecord
  2
_U1
340
0
  0
BLOCK_RECORD
  5
22D
330
1
100
AcDbSymbolTableRecord
100
AcDbBlockTableRecord
  2
*D6
340
0
  0
BLOCK_RECORD
  5
239
330
1
100
AcDbSymbolTableRecord
100
AcDbBlockTableRecord
  2
_U2
340
0
  0
BLOCK_RECORD
  5
245
330
1
100
AcDbSymbolTableRecord
100
AcDbBlockTableRecord
  2
*D8
340
0
  0
BLOCK_RECORD
  5
251
330
1
100
AcDbSymbolTableRecord
100
AcDbBlockTableRecord
  2
_U3
340
0
  0
BLOCK_RECORD
  5
25D
330
1
100
AcDbSymbolTableRecord
100
AcDbBlockTableRecord
  2
*D10
340
0
  0
BLOCK_RECORD
  5
268
330
1
100
AcDbSymbolTableRecord
100
AcDbBlockTableRecord
  2
_U4
340
0
  0
BLOCK_RECORD
  5
273
330
1
100
AcDbSymbolTableRecord
100
AcDbBlockTableRecord
  2
*D12
340
0
  0
BLOCK_RECORD
  5
27F
330
1
100
AcDbSymbolTableRecord
100
AcDbBlockTableRecord
  2
_U5
340
0
  0
BLOCK_RECORD
  5
28C
330
1
100
AcDbSymbolTableRecord
100
AcDbBlockTableRecord
  2
*D14
340
0
  0
BLOCK_RECORD
  5
298
330
1
100
AcDbSymbolTableRecord
100
AcDbBlockTableRecord
  2
_U6
340
0
  0
ENDTAB
  0
ENDSEC
  0
SECTION
  2
BLOCKS
  0
BLOCK
  5
20
330
1F
100
AcDbEntity
  8
0
100
AcDbBlockBegin
  2
*Model_Space
 70
     0
 10
0.0
 20
0.0
 30
0.0
  3
*Model_Space
  1

  0
ENDBLK
  5
21
330
1F
100
AcDbEntity
  8
0
100
AcDbBlockEnd
  0
BLOCK
  5
1C
330
1B
100
AcDbEntity
 67
     1
  8
0
100
AcDbBlockBegin
  2
*Paper_Space
 70
     0
 10
0.0
 20
0.0
 30
0.0
  3
*Paper_Space
  1

  0
ENDBLK
  5
1D
330
1B
100
AcDbEntity
 67
     1
  8
0
100
AcDbBlockEnd
  0
BLOCK
  5
24
330
23
100
AcDbEntity
 67
     1
  8
0
100
AcDbBlockBegin
  2
*Paper_Space0
 70
     0
 10
0.0
 20
0.0
 30
0.0
  3
*Paper_Space0
  1

  0
ENDBLK
  5
25
330
23
100
AcDbEntity
 67
     1
  8
0
100
AcDbBlockEnd
  0
BLOCK
  5
1F2
330
1EF
100
AcDbEntity
  8
0
100
AcDbBlockBegin
  2
ASSORTED_DRAFT1
 70
     0
 10
0.0
 20
0.0
 30
0.0
  3
ASSORTED_DRAFT1
  1

  0
SOLID
  5
1F0
330
1EF
100
AcDbEntity
  8
0
 62
   254
370
    13
100
AcDbTrace
 10
270.185042
 20
164.534924
 30
0.0
 11
265.185046
 21
163.42645
 31
0.0
 12
265.1850379999999
 22
165.643397
 32
0.0
 13
270.185042
 23
164.534924
 33
0.0
  0
ENDBLK
  5
1F3
330
1EF
100
AcDbEntity
  8
0
100
AcDbBlockEnd
  0
BLOCK
  5
1FE
330
1FD
100
AcDbEntity
  8
0
100
AcDbBlockBegin
  2
*D2
 70
     1
 10
0.0
 20
0.0
 30
0.0
  3
*D2
  1

  0
LINE
  5
200
330
1FD
100
AcDbEntity
  8
0
 62
   254
370
    -2
100
AcDbLine
 10
423.4048419999999
 20
304.407994
 30
0.0
 11
423.4048419999999
 21
323.882273
 31
0.0
  0
LINE
  5
201
330
1FD
100
AcDbEntity
  8
0
 62
   254
370
    -2
100
AcDbLine
 10
274.404842
 20
288.907994
 30
0.0
 11
274.404842
 21
323.882273
 31
0.0
  0
LINE
  5
202
330
1FD
100
AcDbEntity
  8
0
 62
   254
370
    -2
100
AcDbLine
 10
419.9048419999999
 20
322.882273
 30
0.0
 11
277.904842
 21
322.882273
 31
0.0
  0
SOLID
  5
203
330
1FD
100
AcDbEntity
  8
0
 62
   254
100
AcDbTrace
 10
419.9048419999999
 20
322.29894
 30
0.0
 11
419.9048419999999
 21
323.465606
 31
0.0
 12
423.4048419999999
 22
322.882273
 32
0.0
 13
423.4048419999999
 23
322.882273
 33
0.0
  0
SOLID
  5
204
330
1FD
100
AcDbEntity
  8
0
 62
   254
100
AcDbTrace
 10
277.904842
 20
323.465606
 30
0.0
 11
277.904842
 21
322.29894
 31
0.0
 12
274.404842
 22
322.882273
 32
0.0
 13
274.404842
 23
322.882273
 33
0.0
  0
MTEXT
  5
205
330
1FD
100
AcDbEntity
  8
0
 62
   254
370
    13
100
AcDbMText
 10
348.904842
 20
328.132273
 30
0.0
 40
3.5
 41
0.0
 71
     5
 72
     1
  1
\A1;149
  7
cesky
 73
     1
 44
1.0
  0
POINT
  5
206
330
1FD
100
AcDbEntity
  8
Defpoints
 62
     0
100
AcDbPoint
 10
423.4048419999999
 20
304.407994
 30
0.0
  0
POINT
  5
207
330
1FD
100
AcDbEntity
  8
Defpoints
 62
     0
100
AcDbPoint
 10
274.404842
 20
288.907994
 30
0.0
  0
POINT
  5
208
330
1FD
100
AcDbEntity
  8
Defpoints
 62
     0
100
AcDbPoint
 10
274.404842
 20
322.882273
 30
0.0
  0
ENDBLK
  5
1FF
330
1FD
100
AcDbEntity
  8
0
100
AcDbBlockEnd
  0
BLOCK
  5
210
330
209
100
AcDbEntity
  8
0
100
AcDbBlockBegin
  2
_U0
 70
     0
 10
0.0
 20
0.0
 30
0.0
  3
_U0
  1

  0
ENDBLK
  5
211
330
209
100
AcDbEntity
  8
0
100
AcDbBlockEnd
  0
BLOCK
  5
216
330
215
100
AcDbEntity
  8
0
100
AcDbBlockBegin
  2
*D4
 70
     1
 10
0.0
 20
0.0
 30
0.0
  3
*D4
  1

  0
LINE
  5
218
330
215
100
AcDbEntity
  8
0
 62
   254
370
    -2
100
AcDbLine
 10
423.4048419999999
 20
306.407994
 30
0.0
 11
423.4048419999999
 21
338.155501
 31
0.0
  0
LINE
  5
219
330
215
100
AcDbEntity
  8
0
 62
   254
370
    -2
100
AcDbLine
 10
214.404842
 20
302.907994
 30
0.0
 11
214.404842
 21
338.155501
 31
0.0
  0
LINE
  5
21A
330
215
100
AcDbEntity
  8
0
 62
   254
370
    -2
100
AcDbLine
 10
419.9048419999999
 20
337.155501
 30
0.0
 11
217.904842
 21
337.155501
 31
0.0
  0
SOLID
  5
21B
330
215
100
AcDbEntity
  8
0
 62
   254
100
AcDbTrace
 10
419.9048419999999
 20
336.572167
 30
0.0
 11
419.9048419999999
 21
337.738834
 31
0.0
 12
423.4048419999999
 22
337.155501
 32
0.0
 13
423.4048419999999
 23
337.155501
 33
0.0
  0
SOLID
  5
21C
330
215
100
AcDbEntity
  8
0
 62
   254
100
AcDbTrace
 10
217.904842
 20
337.738834
 30
0.0
 11
217.904842
 21
336.572167
 31
0.0
 12
214.404842
 22
337.155501
 32
0.0
 13
214.404842
 23
337.155501
 33
0.0
  0
MTEXT
  5
21D
330
215
100
AcDbEntity
  8
0
 62
   254
370
    13
100
AcDbMText
 10
318.904842
 20
342.405501
 30
0.0
 40
3.5
 41
0.0
 71
     5
 72
     1
  1
\A1;209
  7
cesky
 73
     1
 44
1.0
  0
POINT
  5
21E
330
215
100
AcDbEntity
  8
Defpoints
 62
     0
100
AcDbPoint
 10
423.4048419999999
 20
306.407994
 30
0.0
  0
POINT
  5
21F
330
215
100
AcDbEntity
  8
Defpoints
 62
     0
100
AcDbPoint
 10
214.404842
 20
302.907994
 30
0.0
  0
POINT
  5
220
330
215
100
AcDbEntity
  8
Defpoints
 62
     0
100
AcDbPoint
 10
214.404842
 20
337.155501
 30
0.0
  0
ENDBLK
  5
217
330
215
100
AcDbEntity
  8
0
100
AcDbBlockEnd
  0
BLOCK
  5
228
330
221
100
AcDbEntity
  8
0
100
AcDbBlockBegin
  2
_U1
 70
     0
 10
0.0
 20
0.0
 30
0.0
  3
_U1
  1

  0
ENDBLK
  5
229
330
221
100
AcDbEntity
  8
0
100
AcDbBlockEnd
  0
BLOCK
  5
22E
330
22D
100
AcDbEntity
  8
0
100
AcDbBlockBegin
  2
*D6
 70
     1
 10
0.0
 20
0.0
 30
0.0
  3
*D6
  1

  0
LINE
  5
230
330
22D
100
AcDbEntity
  8
0
 62
   254
370
    -2
100
AcDbLine
 10
274.404842
 20
288.907994
 30
0.0
 11
274.404842
 21
323.882273
 31
0.0
  0
LINE
  5
231
330
22D
100
AcDbEntity
  8
0
 62
   254
370
    -2
100
AcDbLine
 10
214.404842
 20
295.907994
 30
0.0
 11
214.404842
 21
323.882273
 31
0.0
  0
LINE
  5
232
330
22D
100
AcDbEntity
  8
0
 62
   254
370
    -2
100
AcDbLine
 10
270.904842
 20
322.882273
 30
0.0
 11
217.904842
 21
322.882273
 31
0.0
  0
SOLID
  5
233
330
22D
100
AcDbEntity
  8
0
 62
   254
100
AcDbTrace
 10
270.904842
 20
322.29894
 30
0.0
 11
270.904842
 21
323.465606
 31
0.0
 12
274.404842
 22
322.882273
 32
0.0
 13
274.404842
 23
322.882273
 33
0.0
  0
SOLID
  5
234
330
22D
100
AcDbEntity
  8
0
 62
   254
100
AcDbTrace
 10
217.904842
 20
323.465606
 30
0.0
 11
217.904842
 21
322.29894
 31
0.0
 12
214.404842
 22
322.882273
 32
0.0
 13
214.404842
 23
322.882273
 33
0.0
  0
MTEXT
  5
235
330
22D
100
AcDbEntity
  8
0
 62
   254
370
    13
100
AcDbMText
 10
244.404842
 20
328.132273
 30
0.0
 40
3.5
 41
0.0
 71
     5
 72
     1
  1
\A1;60
  7
cesky
 73
     1
 44
1.0
  0
POINT
  5
236
330
22D
100
AcDbEntity
  8
Defpoints
 62
     0
100
AcDbPoint
 10
274.404842
 20
288.907994
 30
0.0
  0
POINT
  5
237
330
22D
100
AcDbEntity
  8
Defpoints
 62
     0
100
AcDbPoint
 10
214.404842
 20
295.907994
 30
0.0
  0
POINT
  5
238
330
22D
100
AcDbEntity
  8
Defpoints
 62
     0
100
AcDbPoint
 10
214.404842
 20
322.882273
 30
0.0
  0
ENDBLK
  5
22F
330
22D
100
AcDbEntity
  8
0
100
AcDbBlockEnd
  0
BLOCK
  5
240
330
239
100
AcDbEntity
  8
0
100
AcDbBlockBegin
  2
_U2
 70
     0
 10
0.0
 20
0.0
 30
0.0
  3
_U2
  1

  0
ENDBLK
  5
241
330
239
100
AcDbEntity
  8
0
100
AcDbBlockEnd
  0
BLOCK
  5
246
330
245
100
AcDbEntity
  8
0
100
AcDbBlockBegin
  2
*D8
 70
     1
 10
0.0
 20
0.0
 30
0.0
  3
*D8
  1

  0
LINE
  5
248
330
245
100
AcDbEntity
  8
0
 62
   254
370
    -2
100
AcDbLine
 10
423.4048419999999
 20
304.407994
 30
0.0
 11
423.4048419999999
 21
312.992954
 31
0.0
  0
LINE
  5
249
330
245
100
AcDbEntity
  8
0
 62
   254
370
    -2
100
AcDbLine
 10
291.399312
 20
304.207581
 30
0.0
 11
291.399312
 21
312.992954
 31
0.0
  0
LINE
  5
24A
330
245
100
AcDbEntity
  8
0
 62
   254
370
    -2
100
AcDbLine
 10
419.9048419999999
 20
311.992954
 30
0.0
 11
294.899312
 21
311.992954
 31
0.0
  0
SOLID
  5
24B
330
245
100
AcDbEntity
  8
0
 62
   254
100
AcDbTrace
 10
419.9048419999999
 20
311.409621
 30
0.0
 11
419.9048419999999
 21
312.576287
 31
0.0
 12
423.4048419999999
 22
311.992954
 32
0.0
 13
423.4048419999999
 23
311.992954
 33
0.0
  0
SOLID
  5
24C
330
245
100
AcDbEntity
  8
0
 62
   254
100
AcDbTrace
 10
294.899312
 20
312.576287
 30
0.0
 11
294.899312
 21
311.409621
 31
0.0
 12
291.399312
 22
311.992954
 32
0.0
 13
291.399312
 23
311.992954
 33
0.0
  0
MTEXT
  5
24D
330
245
100
AcDbEntity
  8
0
 62
   254
370
    13
100
AcDbMText
 10
357.402077
 20
317.242954
 30
0.0
 40
3.5
 41
0.0
 71
     5
 72
     1
  1
\A1;132
  7
cesky
 73
     1
 44
1.0
  0
POINT
  5
24E
330
245
100
AcDbEntity
  8
Defpoints
 62
     0
100
AcDbPoint
 10
423.4048419999999
 20
304.407994
 30
0.0
  0
POINT
  5
24F
330
245
100
AcDbEntity
  8
Defpoints
 62
     0
100
AcDbPoint
 10
291.399312
 20
304.207581
 30
0.0
  0
POINT
  5
250
330
245
100
AcDbEntity
  8
Defpoints
 62
     0
100
AcDbPoint
 10
291.399312
 20
311.992954
 30
0.0
  0
ENDBLK
  5
247
330
245
100
AcDbEntity
  8
0
100
AcDbBlockEnd
  0
BLOCK
  5
258
330
251
100
AcDbEntity
  8
0
100
AcDbBlockBegin
  2
_U3
 70
     0
 10
0.0
 20
0.0
 30
0.0
  3
_U3
  1

  0
ENDBLK
  5
259
330
251
100
AcDbEntity
  8
0
100
AcDbBlockEnd
  0
BLOCK
  5
25E
330
25D
100
AcDbEntity
  8
0
100
AcDbBlockBegin
  2
*D10
 70
     1
 10
0.0
 20
0.0
 30
0.0
  3
*D10
  1

  0
LINE
  5
260
330
25D
100
AcDbEntity
  8
0
 62
   254
370
    -2
100
AcDbLine
 10
291.203832
 20
288.907994
 30
0.0
 11
441.7718389999999
 21
288.907994
 31
0.0
  0
LINE
  5
261
330
25D
100
AcDbEntity
  8
0
 62
   254
370
    -2
100
AcDbLine
 10
330.83929
 20
304.407994
 30
0.0
 11
441.7718389999999
 21
304.407994
 31
0.0
  0
LINE
  5
262
330
25D
100
AcDbEntity
  8
0
 62
   254
370
    -2
100
AcDbLine
 10
440.7718389999999
 20
288.907994
 30
0.0
 11
440.7718389999999
 21
304.407994
 31
0.0
  0
SOLID
  5
263
330
25D
100
AcDbEntity
  8
0
 62
   254
100
AcDbTrace
 10
441.355172
 20
300.907994
 30
0.0
 11
440.1885049999999
 21
300.907994
 31
0.0
 12
440.7718389999999
 22
304.407994
 32
0.0
 13
440.7718389999999
 23
304.407994
 33
0.0
  0
MTEXT
  5
264
330
25D
100
AcDbEntity
  8
0
 62
   254
370
    13
100
AcDbMText
 10
435.5218389999999
 20
279.82466
 30
0.0
 40
3.5
 41
0.0
 71
     5
 72
     1
  1
\A1;31
  7
cesky
 11
0.0
 21
1.0
 31
0.0
 73
     1
 44
1.0
  0
POINT
  5
265
330
25D
100
AcDbEntity
  8
Defpoints
 62
     0
100
AcDbPoint
 10
291.203832
 20
288.907994
 30
0.0
  0
POINT
  5
266
330
25D
100
AcDbEntity
  8
Defpoints
 62
     0
100
AcDbPoint
 10
330.83929
 20
304.407994
 30
0.0
  0
POINT
  5
267
330
25D
100
AcDbEntity
  8
Defpoints
 62
     0
100
AcDbPoint
 10
440.7718389999999
 20
304.407994
 30
0.0
  0
ENDBLK
  5
25F
330
25D
100
AcDbEntity
  8
0
100
AcDbBlockEnd
  0
BLOCK
  5
26E
330
268
100
AcDbEntity
  8
0
100
AcDbBlockBegin
  2
_U4
 70
     0
 10
0.0
 20
0.0
 30
0.0
  3
_U4
  1

  0
ENDBLK
  5
26F
330
268
100
AcDbEntity
  8
0
100
AcDbBlockEnd
  0
BLOCK
  5
274
330
273
100
AcDbEntity
  8
0
100
AcDbBlockBegin
  2
*D12
 70
     1
 10
0.0
 20
0.0
 30
0.0
  3
*D12
  1

  0
LINE
  5
276
330
273
100
AcDbEntity
  8
0
 62
    95
370
    -2
100
AcDbLine
 10
216.404842
 20
304.907994
 30
0.0
 11
203.66833
 21
304.907994
 31
0.0
  0
LINE
  5
277
330
273
100
AcDbEntity
  8
0
 62
    95
370
    -2
100
AcDbLine
 10
216.404842
 20
272.907994
 30
0.0
 11
203.66833
 21
272.907994
 31
0.0
  0
LINE
  5
278
330
273
100
AcDbEntity
  8
0
 62
    95
370
    -2
100
AcDbLine
 10
204.66833
 20
301.407994
 30
0.0
 11
204.66833
 21
276.407994
 31
0.0
  0
SOLID
  5
279
330
273
100
AcDbEntity
  8
0
 62
    95
100
AcDbTrace
 10
205.251663
 20
301.407994
 30
0.0
 11
204.084996
 21
301.407994
 31
0.0
 12
204.66833
 22
304.907994
 32
0.0
 13
204.66833
 23
304.907994
 33
0.0
  0
SOLID
  5
27A
330
273
100
AcDbEntity
  8
0
 62
    95
100
AcDbTrace
 10
204.084996
 20
276.407994
 30
0.0
 11
205.251663
 21
276.407994
 31
0.0
 12
204.66833
 22
272.907994
 32
0.0
 13
204.66833
 23
272.907994
 33
0.0
  0
MTEXT
  5
27B
330
273
100
AcDbEntity
  8
0
 62
    95
370
    13
100
AcDbMText
 10
199.41833
 20
288.907994
 30
0.0
 40
3.5
 41
0.0
 71
     5
 72
     1
  1
\A1;32
  7
cesky
 11
0.0
 21
1.0
 31
0.0
 73
     1
 44
1.0
  0
POINT
  5
27C
330
273
100
AcDbEntity
  8
Defpoints
 62
     0
100
AcDbPoint
 10
216.404842
 20
304.907994
 30
0.0
  0
POINT
  5
27D
330
273
100
AcDbEntity
  8
Defpoints
 62
     0
100
AcDbPoint
 10
216.404842
 20
272.907994
 30
0.0
  0
POINT
  5
27E
330
273
100
AcDbEntity
  8
Defpoints
 62
     0
100
AcDbPoint
 10
204.66833
 20
272.907994
 30
0.0
  0
ENDBLK
  5
275
330
273
100
AcDbEntity
  8
0
100
AcDbBlockEnd
  0
BLOCK
  5
287
330
27F
100
AcDbEntity
  8
0
100
AcDbBlockBegin
  2
_U5
 70
     0
 10
0.0
 20
0.0
 30
0.0
  3
_U5
  1

  0
ENDBLK
  5
288
330
27F
100
AcDbEntity
  8
0
100
AcDbBlockEnd
  0
BLOCK
  5
28D
330
28C
100
AcDbEntity
  8
0
100
AcDbBlockBegin
  2
*D14
 70
     1
 10
0.0
 20
0.0
 30
0.0
  3
*D14
  1

  0
LINE
  5
28F
330
28C
100
AcDbEntity
  8
0
 62
    95
370
    -2
100
AcDbLine
 10
277.154842
 20
309.907994
 30
0.0
 11
191.104285
 21
309.907994
 31
0.0
  0
LINE
  5
290
330
28C
100
AcDbEntity
  8
0
 62
    95
370
    -2
100
AcDbLine
 10
277.154842
 20
267.907994
 30
0.0
 11
191.104285
 21
267.907994
 31
0.0
  0
LINE
  5
291
330
28C
100
AcDbEntity
  8
0
 62
    95
370
    -2
100
AcDbLine
 10
192.104285
 20
306.407994
 30
0.0
 11
192.104285
 21
271.407994
 31
0.0
  0
SOLID
  5
292
330
28C
100
AcDbEntity
  8
0
 62
    95
100
AcDbTrace
 10
192.687618
 20
306.407994
 30
0.0
 11
191.520952
 21
306.407994
 31
0.0
 12
192.104285
 22
309.907994
 32
0.0
 13
192.104285
 23
309.907994
 33
0.0
  0
SOLID
  5
293
330
28C
100
AcDbEntity
  8
0
 62
    95
100
AcDbTrace
 10
191.520952
 20
271.407994
 30
0.0
 11
192.687618
 21
271.407994
 31
0.0
 12
192.104285
 22
267.907994
 32
0.0
 13
192.104285
 23
267.907994
 33
0.0
  0
MTEXT
  5
294
330
28C
100
AcDbEntity
  8
0
 62
    95
370
    13
100
AcDbMText
 10
186.854285
 20
288.907994
 30
0.0
 40
3.5
 41
0.0
 71
     5
 72
     1
  1
\A1;42
  7
cesky
 11
0.0
 21
1.0
 31
0.0
 73
     1
 44
1.0
  0
POINT
  5
295
330
28C
100
AcDbEntity
  8
Defpoints
 62
     0
100
AcDbPoint
 10
277.154842
 20
309.907994
 30
0.0
  0
POINT
  5
296
330
28C
100
AcDbEntity
  8
Defpoints
 62
     0
100
AcDbPoint
 10
277.154842
 20
267.907994
 30
0.0
  0
POINT
  5
297
330
28C
100
AcDbEntity
  8
Defpoints
 62
     0
100
AcDbPoint
 10
192.104285
 20
267.907994
 30
0.0
  0
ENDBLK
  5
28E
330
28C
100
AcDbEntity
  8
0
100
AcDbBlockEnd
  0
BLOCK
  5
2A0
330
298
100
AcDbEntity
  8
0
100
AcDbBlockBegin
  2
_U6
 70
     0
 10
0.0
 20
0.0
 30
0.0
  3
_U6
  1

  0
ENDBLK
  5
2A1
330
298
100
AcDbEntity
  8
0
100
AcDbBlockEnd
  0
ENDSEC
  0
SECTION
  2
ENTITIES
  0
POINT
  5
73
102
{ACAD_REACTORS
330
34A
102
}
330
1F
100
AcDbEntity
  8
80
100
AcDbPoint
 10
274.404842
 20
288.907994
 30
0.0
  0
POINT
  5
76
330
1F
100
AcDbEntity
  8
SK4
 60
     1
100
AcDbPoint
 10
216.404842
 20
288.907994
 30
0.0
  0
POINT
  5
78
330
1F
100
AcDbEntity
  8
SK4
 60
     1
100
AcDbPoint
 10
274.404842
 20
288.907994
 30
0.0
  0
POINT
  5
79
330
1F
100
AcDbEntity
  8
4
 60
     1
100
AcDbPoint
 10
291.203832
 20
288.907994
 30
0.0
  0
POINT
  5
7A
330
1F
100
AcDbEntity
  8
4
 60
     1
100
AcDbPoint
 10
422.5086469999999
 20
288.907994
 30
0.0
  0
POINT
  5
7B
330
1F
100
AcDbEntity
  8
SK6
 60
     1
100
AcDbPoint
 10
274.404842
 20
288.907994
 30
0.0
  0
POINT
  5
7C
330
1F
100
AcDbEntity
  8
SK6
 60
     1
100
AcDbPoint
 10
291.399312
 20
304.207581
 30
0.0
  0
LINE
  5
7D
330
1F
100
AcDbEntity
  8
1
100
AcDbLine
 10
302.744566
 20
303.907994
 30
0.0
 11
291.203832
 21
303.907994
 31
0.0
  0
LINE
  5
7F
330
1F
100
AcDbEntity
  8
1
100
AcDbLine
 10
421.9349389999999
 20
288.279736
 30
0.0
 11
421.883862
 21
288.310427
 31
0.0
  0
LINE
  5
81
330
1F
100
AcDbEntity
  8
1
100
AcDbLine
 10
291.203832
 20
273.907994
 30
0.0
 11
299.819366
 21
273.907994
 31
0.0
  0
LINE
  5
82
330
1F
100
AcDbEntity
  8
1
100
AcDbLine
 10
413.158705
 20
303.907994
 30
0.0
 11
404.251088
 21
303.907994
 31
0.0
  0
LINE
  5
83
330
1F
100
AcDbEntity
  8
1
100
AcDbLine
 10
296.168999
 20
273.929445
 30
0.0
 11
295.565868
 21
273.938468
 31
0.0
  0
LINE
  5
84
330
1F
100
AcDbEntity
  8
1
100
AcDbLine
 10
274.404842
 20
309.407994
 30
0.0
 11
274.404842
 21
288.907994
 31
0.0
  0
LINE
  5
85
330
1F
100
AcDbEntity
  8
1
100
AcDbLine
 10
274.404842
 20
288.907994
 30
0.0
 11
274.404842
 21
268.407994
 31
0.0
  0
LINE
  5
86
330
1F
100
AcDbEntity
  8
80
100
AcDbLine
 10
274.404842
 20
287.90842
 30
0.0
 11
274.404842
 21
289.907567
 31
0.0
  0
LINE
  5
87
330
1F
100
AcDbEntity
  8
81
100
AcDbLine
 10
421.404842
 20
304.407994
 30
0.0
 11
425.404842
 21
304.407994
 31
0.0
  0
LINE
  5
88
330
1F
100
AcDbEntity
  8
SK1
100
AcDbLine
 10
216.404842
 20
272.907994
 30
0.0
 11
274.404842
 21
272.907994
 31
0.0
  0
LINE
  5
89
330
1F
100
AcDbEntity
  8
81
100
AcDbLine
 10
423.4048419999999
 20
306.407994
 30
0.0
 11
423.4048419999999
 21
302.407994
 31
0.0
  0
LINE
  5
8A
330
1F
100
AcDbEntity
  8
1
100
AcDbLine
 10
274.904842
 20
267.907994
 30
0.0
 11
279.404842
 21
267.907994
 31
0.0
  0
LINE
  5
8F
330
1F
100
AcDbEntity
  8
80
100
AcDbLine
 10
275.404416
 20
288.907994
 30
0.0
 11
273.405268
 21
288.907994
 31
0.0
  0
LINE
  5
90
330
1F
100
AcDbEntity
  8
1
100
AcDbLine
 10
420.345807
 20
284.145494
 30
0.0
 11
420.599945
 21
284.145494
 31
0.0
  0
LINE
  5
91
330
1F
100
AcDbEntity
  8
1
100
AcDbLine
 10
413.212479
 20
303.815331
 30
0.0
 11
413.209443
 21
303.903675
 31
0.0
  0
LINE
  5
92
330
1F
100
AcDbEntity
  8
1
100
AcDbLine
 10
415.9035999999999
 20
294.381566
 30
0.0
 11
422.153496
 21
294.59959
 31
0.0
  0
LINE
  5
93
330
1F
100
AcDbEntity
  8
1
100
AcDbLine
 10
422.3448419999999
 20
289.927977
 30
0.0
 11
422.3448419999999
 21
290.027993
 31
0.0
  0
LINE
  5
94
330
1F
100
AcDbEntity
  8
1
100
AcDbLine
 10
422.154607
 20
294.439542
 30
0.0
 11
422.153496
 21
294.59959
 31
0.0
  0
LINE
  5
95
330
1F
100
AcDbEntity
  8
1
100
AcDbLine
 10
412.9838689999999
 20
303.422886
 30
0.0
 11
412.969317
 21
303.846344
 31
0.0
  0
LINE
  5
96
330
1F
100
AcDbEntity
  8
1
100
AcDbLine
 10
422.078687
 20
293.909493
 30
0.0
 11
414.467589
 21
293.643985
 31
0.0
  0
LINE
  5
97
330
1F
100
AcDbEntity
  8
1
100
AcDbLine
 10
422.078687
 20
293.909493
 30
0.0
 11
420.2551829999999
 21
290.8883649999999
 31
0.0
  0
LINE
  5
98
330
1F
100
AcDbEntity
  8
1
100
AcDbLine
 10
421.66809
 20
280.437252
 30
0.0
 11
421.5607389999999
 21
280.4389700000001
 31
0.0
  0
LINE
  5
99
330
1F
100
AcDbEntity
  8
1
100
AcDbLine
 10
421.543573
 20
280.939309
 30
0.0
 11
421.8838679999999
 21
284.145494
 31
0.0
  0
LINE
  5
9A
330
1F
100
AcDbEntity
  8
1
100
AcDbLine
 10
421.8838679999999
 20
284.145494
 30
0.0
 11
421.8838679999999
 21
288.866538
 31
0.0
  0
LINE
  5
9B
330
1F
100
AcDbEntity
  8
1
100
AcDbLine
 10
421.9541379999999
 20
289.365388
 30
0.0
 11
422.0616719999999
 21
289.3635109999999
 31
0.0
  0
LINE
  5
9C
330
1F
100
AcDbEntity
  8
1
100
AcDbLine
 10
279.404842
 20
267.907994
 30
0.0
 11
279.404842
 21
272.093705
 31
0.0
  0
LINE
  5
9D
330
1F
100
AcDbEntity
  8
1
100
AcDbLine
 10
279.404842
 20
309.907994
 30
0.0
 11
279.404842
 21
279.932322
 31
0.0
  0
LINE
  5
9E
330
1F
100
AcDbEntity
  8
1
100
AcDbLine
 10
422.078687
 20
293.909493
 30
0.0
 11
422.0880669999999
 21
293.913093
 31
0.0
  0
LINE
  5
9F
330
1F
100
AcDbEntity
  8
1
100
AcDbLine
 10
422.195501
 20
294.615708
 30
0.0
 11
415.9088319999999
 21
294.396401
 31
0.0
  0
LINE
  5
A0
330
1F
100
AcDbEntity
  8
1
100
AcDbLine
 10
415.9035999999999
 20
294.381566
 30
0.0
 11
415.9088319999999
 21
294.396401
 31
0.0
  0
LINE
  5
A1
330
1F
100
AcDbEntity
  8
1
100
AcDbLine
 10
422.0616719999999
 20
289.3635109999999
 30
0.0
 11
422.30268
 21
289.6901020000001
 31
0.0
  0
LINE
  5
A2
330
1F
100
AcDbEntity
  8
1
100
AcDbLine
 10
422.30268
 20
289.928713
 30
0.0
 11
422.30268
 21
289.6901020000001
 31
0.0
  0
LINE
  5
A3
330
1F
100
AcDbEntity
  8
1
100
AcDbLine
 10
422.30268
 20
289.928713
 30
0.0
 11
422.3448419999999
 21
289.927977
 31
0.0
  0
LINE
  5
A4
330
1F
100
AcDbEntity
  8
1
100
AcDbLine
 10
422.3448419999999
 20
294.89621
 30
0.0
 11
422.3448419999999
 21
290.027993
 31
0.0
  0
LINE
  5
A5
330
1F
100
AcDbEntity
  8
1
100
AcDbLine
 10
422.195501
 20
294.615708
 30
0.0
 11
422.1939459999999
 21
294.839784
 31
0.0
  0
LINE
  5
A6
330
1F
100
AcDbEntity
  8
1
100
AcDbLine
 10
422.195501
 20
294.615708
 30
0.0
 11
422.153496
 21
294.59959
 31
0.0
  0
LINE
  5
A7
330
1F
100
AcDbEntity
  8
1
100
AcDbLine
 10
421.2582629999999
 20
273.907994
 30
0.0
 11
421.890448
 21
279.864299
 31
0.0
  0
LINE
  5
A8
330
1F
100
AcDbEntity
  8
1
100
AcDbLine
 10
421.890448
 20
279.864299
 30
0.0
 11
421.848357
 21
279.864972
 31
0.0
  0
LINE
  5
A9
330
1F
100
AcDbEntity
  8
1
100
AcDbLine
 10
421.873639
 20
280.103173
 30
0.0
 11
421.848357
 21
279.864972
 31
0.0
  0
LINE
  5
AA
330
1F
100
AcDbEntity
  8
1
100
AcDbLine
 10
421.873639
 20
280.103173
 30
0.0
 11
421.66809
 21
280.437252
 31
0.0
  0
LINE
  5
AB
330
1F
100
AcDbEntity
  8
1
100
AcDbLine
 10
421.043973
 20
284.145494
 30
0.0
 11
421.8838679999999
 21
284.145494
 31
0.0
  0
LINE
  5
AC
330
1F
100
AcDbEntity
  8
SK1
100
AcDbLine
 10
216.404842
 20
304.907994
 30
0.0
 11
216.404842
 21
272.907994
 31
0.0
  0
LINE
  5
AD
330
1F
100
AcDbEntity
  8
SK1
100
AcDbLine
 10
214.404842
 20
302.907994
 30
0.0
 11
214.404842
 21
274.907994
 31
0.0
  0
LINE
  5
AE
330
1F
100
AcDbEntity
  8
1
100
AcDbLine
 10
412.976549
 20
297.10749
 30
0.0
 11
412.971317
 21
297.092655
 31
0.0
  0
LINE
  5
AF
330
1F
100
AcDbEntity
  8
1
100
AcDbLine
 10
412.976549
 20
297.10749
 30
0.0
 11
412.7449519999999
 21
303.846699
 31
0.0
  0
LINE
  5
B0
330
1F
100
AcDbEntity
  8
1
100
AcDbLine
 10
412.740244
 20
303.81658
 30
0.0
 11
412.971317
 21
297.092655
 31
0.0
  0
LINE
  5
B1
330
1F
100
AcDbEntity
  8
1
100
AcDbLine
 10
421.2582629999999
 20
273.907994
 30
0.0
 11
400.872749
 21
273.907994
 31
0.0
  0
LINE
  5
B2
330
1F
100
AcDbEntity
  8
1
100
AcDbLine
 10
274.904842
 20
267.907994
 30
0.0
 11
274.904842
 21
288.907994
 31
0.0
  0
LINE
  5
B3
330
1F
100
AcDbEntity
  8
1
100
AcDbLine
 10
274.904842
 20
288.907994
 30
0.0
 11
274.904842
 21
309.907994
 31
0.0
  0
LINE
  5
B4
330
1F
100
AcDbEntity
  8
1
100
AcDbLine
 10
416.7584019999999
 20
298.668094
 30
0.0
 11
416.7840619999999
 21
298.740843
 31
0.0
  0
LINE
  5
B6
330
1F
100
AcDbEntity
  8
1
100
AcDbLine
 10
418.332321
 20
298.430207
 30
0.0
 11
418.306504
 21
298.357012
 31
0.0
  0
LINE
  5
B7
330
1F
100
AcDbEntity
  8
1
100
AcDbLine
 10
417.085908
 20
300.099258
 30
0.0
 11
417.1117259999999
 21
300.172453
 31
0.0
  0
LINE
  5
B8
330
1F
100
AcDbEntity
  8
1
100
AcDbLine
 10
418.659669
 20
299.860924
 30
0.0
 11
418.6340099999999
 21
299.788176
 31
0.0
  0
LINE
  5
B9
330
1F
100
AcDbEntity
  8
1
100
AcDbLine
 10
415.128962
 20
300.217046
 30
0.0
 11
415.10851
 21
300.159062
 31
0.0
  0
LINE
  5
BA
330
1F
100
AcDbEntity
  8
1
100
AcDbLine
 10
420.295323
 20
298.329589
 30
0.0
 11
420.3157749999999
 21
298.387573
 31
0.0
  0
LINE
  5
BB
330
1F
100
AcDbEntity
  8
1
100
AcDbLine
 10
279.404842
 20
267.907994
 30
0.0
 11
281.304337
 21
269.807488
 31
0.0
  0
LINE
  5
BC
330
1F
100
AcDbEntity
  8
1
100
AcDbLine
 10
281.304337
 20
308.008499
 30
0.0
 11
279.404842
 21
309.907994
 31
0.0
  0
LINE
  5
BD
330
1F
100
AcDbEntity
  8
SK1
100
AcDbLine
 10
214.404842
 20
274.907994
 30
0.0
 11
216.404842
 21
272.907994
 31
0.0
  0
LINE
  5
BE
330
1F
100
AcDbEntity
  8
SK1
100
AcDbLine
 10
216.404842
 20
304.907994
 30
0.0
 11
214.404842
 21
302.907994
 31
0.0
  0
LINE
  5
BF
330
1F
100
AcDbEntity
  8
SK1
100
AcDbLine
 10
274.404842
 20
304.907994
 30
0.0
 11
216.404842
 21
304.907994
 31
0.0
  0
LINE
  5
C0
330
1F
100
AcDbEntity
  8
1
100
AcDbLine
 10
274.904842
 20
267.907994
 30
0.0
 11
274.404842
 21
268.407994
 31
0.0
  0
LINE
  5
C1
330
1F
100
AcDbEntity
  8
1
100
AcDbLine
 10
274.404842
 20
309.407994
 30
0.0
 11
274.904842
 21
309.907994
 31
0.0
  0
LINE
  5
C2
330
1F
100
AcDbEntity
  8
1
100
AcDbLine
 10
279.404842
 20
309.907994
 30
0.0
 11
274.904842
 21
309.907994
 31
0.0
  0
LINE
  5
C3
330
1F
100
AcDbEntity
  8
1
100
AcDbLine
 10
417.737649
 20
298.072257
 30
0.0
 11
417.7629
 21
298.143846
 31
0.0
  0
LINE
  5
C4
330
1F
100
AcDbEntity
  8
1
100
AcDbLine
 10
417.0984999999999
 20
300.153902
 30
0.0
 11
417.1240909999999
 21
300.226457
 31
0.0
  0
LINE
  5
C5
330
1F
100
AcDbEntity
  8
1
100
AcDbLine
 10
416.5157179999999
 20
299.270602
 30
0.0
 11
416.490772
 21
299.199875
 31
0.0
  0
LINE
  5
C6
330
1F
100
AcDbEntity
  8
1
100
AcDbLine
 10
416.5985519999999
 20
299.256191
 30
0.0
 11
416.573093
 21
299.184011
 31
0.0
  0
LINE
  5
C7
330
1F
100
AcDbEntity
  8
1
100
AcDbLine
 10
418.7778859999999
 20
298.675821
 30
0.0
 11
418.8027779999999
 21
298.746391
 31
0.0
  0
LINE
  5
C8
330
1F
100
AcDbEntity
  8
1
100
AcDbLine
 10
418.684014
 20
298.697089
 30
0.0
 11
418.709497
 21
298.769335
 31
0.0
  0
LINE
  5
C9
330
1F
100
AcDbEntity
  8
1
100
AcDbLine
 10
417.735706
 20
298.090687
 30
0.0
 11
417.761076
 21
298.162615
 31
0.0
  0
LINE
  5
CA
330
1F
100
AcDbEntity
  8
1
100
AcDbLine
 10
407.3853839999999
 20
296.11971
 30
0.0
 11
407.388462
 21
296.121083
 31
0.0
  0
LINE
  5
CB
330
1F
100
AcDbEntity
  8
1
100
AcDbLine
 10
410.9522609999999
 20
291.585559
 30
0.0
 11
410.969693
 21
291.076087
 31
0.0
  0
LINE
  5
CC
330
1F
100
AcDbEntity
  8
1
100
AcDbLine
 10
420.6074049999999
 20
293.885861
 30
0.0
 11
414.459756
 21
293.671404
 31
0.0
  0
LINE
  5
CD
330
1F
100
AcDbEntity
  8
1
100
AcDbLine
 10
285.404842
 20
303.665167
 30
0.0
 11
285.404842
 21
286.744659
 31
0.0
  0
LINE
  5
CE
330
1F
100
AcDbEntity
  8
1
100
AcDbLine
 10
418.3233679999999
 20
298.199823
 30
0.0
 11
418.317747
 21
298.194046
 31
0.0
  0
LINE
  5
CF
330
1F
100
AcDbEntity
  8
1
100
AcDbLine
 10
422.4798349999999
 20
303.562649
 30
0.0
 11
422.7651429999999
 21
295.59822
 31
0.0
  0
LINE
  5
D0
330
1F
100
AcDbEntity
  8
1
100
AcDbLine
 10
413.707102
 20
304.029143
 30
0.0
 11
421.6798299999999
 21
304.307267
 31
0.0
  0
LINE
  5
D1
330
1F
100
AcDbEntity
  8
1
100
AcDbLine
 10
413.2476839999999
 20
295.266209
 30
0.0
 11
412.9623759999999
 21
303.230638
 31
0.0
  0
LINE
  5
D2
330
1F
100
AcDbEntity
  8
1
100
AcDbLine
 10
422.0204179999999
 20
294.799715
 30
0.0
 11
414.047689
 21
294.521591
 31
0.0
  0
LINE
  5
D3
330
1F
100
AcDbEntity
  8
1
100
AcDbLine
 10
414.2387639999999
 20
302.778601
 30
0.0
 11
421.2332219999999
 21
303.022599
 31
0.0
  0
LINE
  5
D4
330
1F
100
AcDbEntity
  8
1
100
AcDbLine
 10
414.4890649999999
 20
295.791424
 30
0.0
 11
414.2387639999999
 21
302.778601
 31
0.0
  0
LINE
  5
D5
330
1F
100
AcDbEntity
  8
1
100
AcDbLine
 10
421.483523
 20
296.0354220000001
 30
0.0
 11
414.4890649999999
 21
295.791424
 31
0.0
  0
LINE
  5
D6
330
1F
100
AcDbEntity
  8
1
100
AcDbLine
 10
421.2332219999999
 20
303.022599
 30
0.0
 11
421.483523
 21
296.0354220000001
 31
0.0
  0
LINE
  5
D7
330
1F
100
AcDbEntity
  8
1
100
AcDbLine
 10
421.609179
 20
281.557454
 30
0.0
 11
421.8389519999999
 21
281.684819
 31
0.0
  0
LINE
  5
D8
330
1F
100
AcDbEntity
  8
1
100
AcDbLine
 10
423.297436
 20
281.863516
 30
0.0
 11
422.671836
 21
280.822342
 31
0.0
  0
LINE
  5
D9
330
1F
100
AcDbEntity
  8
1
100
AcDbLine
 10
422.3014
 20
281.205939
 30
0.0
 11
422.671836
 21
280.822342
 31
0.0
  0
LINE
  5
DA
330
1F
100
AcDbEntity
  8
1
100
AcDbLine
 10
422.671836
 20
280.822342
 30
0.0
 11
421.7466849999999
 21
280.309523
 31
0.0
  0
LINE
  5
DB
330
1F
100
AcDbEntity
  8
1
100
AcDbLine
 10
422.15942
 20
289.495967
 30
0.0
 11
422.797416
 21
289.11262
 31
0.0
  0
LINE
  5
DC
330
1F
100
AcDbEntity
  8
1
100
AcDbLine
 10
422.4138179999999
 20
288.742185
 30
0.0
 11
422.797416
 21
289.11262
 31
0.0
  0
LINE
  5
DD
330
1F
100
AcDbEntity
  8
1
100
AcDbLine
 10
422.797416
 20
289.11262
 30
0.0
 11
423.4048419999999
 21
288.016795
 31
0.0
  0
LINE
  5
DE
330
1F
100
AcDbEntity
  8
1
100
AcDbLine
 10
422.8874189999999
 20
287.887787
 30
0.0
 11
423.4048419999999
 21
288.016795
 31
0.0
  0
LINE
  5
DF
330
1F
100
AcDbEntity
  8
1
100
AcDbLine
 10
422.7848309999999
 20
282.010503
 30
0.0
 11
423.297436
 21
281.863516
 31
0.0
  0
LINE
  5
E0
330
1F
100
AcDbEntity
  8
1
100
AcDbLine
 10
423.4048419999999
 20
288.016795
 30
0.0
 11
423.297436
 21
281.863516
 31
0.0
  0
LINE
  5
E1
330
1F
100
AcDbEntity
  8
1
100
AcDbLine
 10
422.3014
 20
281.205939
 30
0.0
 11
421.5302519999999
 21
280.778485
 31
0.0
  0
LINE
  5
E2
330
1F
100
AcDbEntity
  8
1
100
AcDbLine
 10
422.241473
 20
287.7267339999999
 30
0.0
 11
421.9349389999999
 21
288.279736
 31
0.0
  0
LINE
  5
E3
330
1F
100
AcDbEntity
  8
1
100
AcDbLine
 10
422.4138179999999
 20
288.742185
 30
0.0
 11
422.8874189999999
 21
287.887787
 31
0.0
  0
LINE
  5
E4
330
1F
100
AcDbEntity
  8
1
100
AcDbLine
 10
422.8874189999999
 20
287.887787
 30
0.0
 11
422.241473
 21
287.7267339999999
 31
0.0
  0
LINE
  5
E5
330
1F
100
AcDbEntity
  8
1
100
AcDbLine
 10
422.1448989999999
 20
282.194001
 30
0.0
 11
422.241473
 21
287.7267339999999
 31
0.0
  0
LINE
  5
E6
330
1F
100
AcDbEntity
  8
1
100
AcDbLine
 10
422.8874189999999
 20
287.887787
 30
0.0
 11
422.7848309999999
 21
282.010503
 31
0.0
  0
LINE
  5
E7
330
1F
100
AcDbEntity
  8
1
100
AcDbLine
 10
422.7848309999999
 20
282.010503
 30
0.0
 11
422.1448989999999
 21
282.194001
 31
0.0
  0
LINE
  5
E8
330
1F
100
AcDbEntity
  8
1
100
AcDbLine
 10
421.8389519999999
 20
281.684819
 30
0.0
 11
422.1448989999999
 21
282.194001
 31
0.0
  0
LINE
  5
E9
330
1F
100
AcDbEntity
  8
1
100
AcDbLine
 10
422.3014
 20
281.205939
 30
0.0
 11
421.8389519999999
 21
281.684819
 31
0.0
  0
LINE
  5
EA
330
1F
100
AcDbEntity
  8
1
100
AcDbLine
 10
422.7848309999999
 20
282.010503
 30
0.0
 11
422.3014
 21
281.205939
 31
0.0
  0
LINE
  5
EB
330
1F
100
AcDbEntity
  8
1
100
AcDbLine
 10
422.4138179999999
 20
288.742185
 30
0.0
 11
421.9349389999999
 21
288.279736
 31
0.0
  0
LINE
  5
EC
330
1F
100
AcDbEntity
  8
1
100
AcDbLine
 10
421.889205
 20
289.057404
 30
0.0
 11
422.4138179999999
 21
288.742185
 31
0.0
  0
LINE
  5
11D
330
1F
100
AcDbEntity
  8
NOCUT
100
AcDbLine
 10
279.404842
 20
309.907994
 30
0.0
 11
281.304337
 21
308.008499
 31
0.0
  0
LINE
  5
11E
330
1F
100
AcDbEntity
  8
NOCUT
100
AcDbLine
 10
291.203832
 20
303.907994
 30
0.0
 11
422.034846
 21
303.907994
 31
0.0
  0
LINE
  5
11F
330
1F
100
AcDbEntity
  8
NOCUT
100
AcDbLine
 10
422.034846
 20
303.907994
 30
0.0
 11
422.3448419999999
 21
295.107097
 31
0.0
  0
LINE
  5
120
330
1F
100
AcDbEntity
  8
NOCUT
100
AcDbLine
 10
422.3448419999999
 20
295.107097
 30
0.0
 11
422.3448419999999
 21
288.907994
 31
0.0
  0
LINE
  5
121
330
1F
100
AcDbEntity
  8
NOCUT
100
AcDbLine
 10
422.3448419999999
 20
288.907994
 30
0.0
 11
214.404842
 21
288.907994
 31
0.0
  0
LINE
  5
122
330
1F
100
AcDbEntity
  8
NOCUT
100
AcDbLine
 10
214.404842
 20
302.907994
 30
0.0
 11
214.404842
 21
288.907994
 31
0.0
  0
LINE
  5
123
330
1F
100
AcDbEntity
  8
NOCUT
100
AcDbLine
 10
279.404842
 20
309.907994
 30
0.0
 11
274.904842
 21
309.907994
 31
0.0
  0
LINE
  5
124
330
1F
100
AcDbEntity
  8
NOCUT
100
AcDbLine
 10
274.404842
 20
304.907994
 30
0.0
 11
216.404842
 21
304.907994
 31
0.0
  0
LINE
  5
125
330
1F
100
AcDbEntity
  8
NOCUT
100
AcDbLine
 10
274.404842
 20
304.907994
 30
0.0
 11
274.404842
 21
309.407994
 31
0.0
  0
LINE
  5
126
330
1F
100
AcDbEntity
  8
NOCUT
100
AcDbLine
 10
274.404842
 20
309.407994
 30
0.0
 11
274.904842
 21
309.907994
 31
0.0
  0
LINE
  5
127
330
1F
100
AcDbEntity
  8
NOCUT
100
AcDbLine
 10
214.404842
 20
302.907994
 30
0.0
 11
216.404842
 21
304.907994
 31
0.0
  0
ARC
  5
130
330
1F
100
AcDbEntity
  8
1
100
AcDbCircle
 10
291.203832
 20
259.907994
 30
0.0
 40
14.0
100
AcDbArc
 50
90.0
 51
135.0
  0
ARC
  5
131
330
1F
100
AcDbEntity
  8
1
100
AcDbCircle
 10
291.203832
 20
317.907994
 30
0.0
 40
14.0
100
AcDbArc
 50
225.0
 51
270.0
  0
ARC
  5
132
330
1F
100
AcDbEntity
  8
1
100
AcDbCircle
 10
418.402831
 20
285.223558
 30
0.0
 40
1.5
100
AcDbArc
 50
75.0
 51
345.0
  0
CIRCLE
  5
133
330
1F
100
AcDbEntity
  8
1
100
AcDbCircle
 10
418.422479
 20
285.203212
 30
0.0
 40
1.099999999999998
  0
ARC
  5
142
330
1F
100
AcDbEntity
  8
NOCUT
100
AcDbCircle
 10
291.203832
 20
317.907994
 30
0.0
 40
14.0
100
AcDbArc
 50
225.0
 51
270.0
  0
ELLIPSE
  5
143
330
1F
100
AcDbEntity
  8
1
100
AcDbEllipse
 10
417.24306
 20
298.162529
 30
0.0
 11
-0.0942167666043795
 21
0.0332317783578879
 31
0.0
210
0.0
220
0.0
230
1.0
 40
0.9986239999999998
 41
5.28508256763987
 42
6.134017720050548
  0
ELLIPSE
  5
144
330
1F
100
AcDbEntity
  8
1
100
AcDbEllipse
 10
417.0665829999999
 20
298.25622
 30
0.0
 11
-0.0942167666043796
 21
0.0332317783578879
 31
0.0
210
0.0
220
0.0
230
1.0
 40
0.9986239999999998
 41
1.61989113845188
 42
2.992425066460781
  0
ELLIPSE
  5
145
330
1F
100
AcDbEntity
  8
1
100
AcDbEllipse
 10
417.1967859999999
 20
298.69265
 30
0.0
 11
-0.5243116980215658
 21
0.1849332211989812
 31
0.0
210
0.0
220
0.0
230
1.0
 40
0.9986239999999998
 41
0.6997675652817048
 42
1.619891138451515
  0
ELLIPSE
  5
146
330
1F
100
AcDbEntity
  8
1
100
AcDbEllipse
 10
416.7702
 20
298.532083
 30
0.0
 11
-0.0942167666043795
 21
0.0332317783578879
 31
0.0
210
0.0
220
0.0
230
1.0
 40
0.9986239999999998
 41
5.610418944452209
 42
6.982952872461142
  0
ELLIPSE
  5
147
330
1F
100
AcDbEntity
  8
1
100
AcDbEllipse
 10
416.6641859999999
 20
298.701326
 30
0.0
 11
-0.0942167666043795
 21
0.0332317783578879
 31
0.0
210
0.0
220
0.0
230
1.0
 40
0.9986239999999998
 41
2.468826290862359
 42
3.317761443273236
  0
ELLIPSE
  5
148
330
1F
100
AcDbEntity
  8
1
100
AcDbEllipse
 10
416.214197
 20
298.775405
 30
0.0
 11
-0.5243116980215657
 21
0.1849332211989811
 31
0.0
210
0.0
220
0.0
230
1.0
 40
0.9986239999999998
 41
3.317761443273171
 42
4.237885016443029
  0
ELLIPSE
  5
149
330
1F
100
AcDbEntity
  8
1
100
AcDbEllipse
 10
416.545462
 20
299.088144
 30
0.0
 11
-0.0942167666043795
 21
0.0332317783578879
 31
0.0
210
0.0
220
0.0
230
1.0
 40
0.9986239999999998
 41
4.237885016443193
 42
5.086820168854056
  0
ELLIPSE
  5
14A
330
1F
100
AcDbEntity
  8
1
100
AcDbEllipse
 10
416.538317
 20
299.2875899999999
 30
0.0
 11
-0.0942167666043796
 21
0.0332317783578879
 31
0.0
210
0.0
220
0.0
230
1.0
 40
0.9986239999999998
 41
0.57269358725465
 42
1.945227515264023
  0
ELLIPSE
  5
14B
330
1F
100
AcDbEntity
  8
1
100
AcDbEllipse
 10
416.9818819999999
 20
299.39284
 30
0.0
 11
-0.5243116980215658
 21
0.1849332211989812
 31
0.0
210
0.0
220
0.0
230
1.0
 40
0.9986239999999998
 41
5.93575532126472
 42
6.855878894434512
  0
ELLIPSE
  5
14C
330
1F
100
AcDbEntity
  8
1
100
AcDbEllipse
 10
416.6290649999999
 20
299.681716
 30
0.0
 11
-0.0942167666043795
 21
0.0332317783578879
 31
0.0
210
0.0
220
0.0
230
1.0
 40
0.9986239999999998
 41
4.563221393255802
 42
5.935755321264802
  0
ELLIPSE
  5
14D
330
1F
100
AcDbEntity
  8
1
100
AcDbEllipse
 10
416.722704
 20
299.857923
 30
0.0
 11
-0.0942167666043795
 21
0.0332317783578879
 31
0.0
210
0.0
220
0.0
230
1.0
 40
0.9986239999999998
 41
1.42162873966601
 42
2.270563892076729
  0
ELLIPSE
  5
14E
330
1F
100
AcDbEntity
  8
1
100
AcDbEllipse
 10
416.561597
 20
300.284191
 30
0.0
 11
-0.5243116980215657
 21
0.1849332211989811
 31
0.0
210
0.0
220
0.0
230
1.0
 40
0.9986239999999998
 41
2.270563892076553
 42
3.190687465246433
  0
ELLIPSE
  5
14F
330
1F
100
AcDbEntity
  8
1
100
AcDbEllipse
 10
416.998608
 20
300.153751
 30
0.0
 11
-0.0942167666043795
 21
0.0332317783578879
 31
0.0
210
0.0
220
0.0
230
1.0
 40
0.9986239999999998
 41
3.190687465246426
 42
4.039622617657406
  0
ELLIPSE
  5
150
330
1F
100
AcDbEntity
  8
1
100
AcDbEllipse
 10
417.16794
 20
300.259505
 30
0.0
 11
-0.0942167666043796
 21
0.0332317783578879
 31
0.0
210
0.0
220
0.0
230
1.0
 40
0.9986239999999998
 41
5.808681343238034
 42
7.181215271246709
  0
ELLIPSE
  5
151
330
1F
100
AcDbEntity
  8
1
100
AcDbEllipse
 10
417.481302
 20
299.928325
 30
0.0
 11
-0.5243116980215658
 21
0.1849332211989812
 31
0.0
210
0.0
220
0.0
230
1.0
 40
0.9986239999999998
 41
4.888557770068143
 42
5.80868134323795
  0
ELLIPSE
  5
152
330
1F
100
AcDbEntity
  8
1
100
AcDbEllipse
 10
417.555072
 20
300.377767
 30
0.0
 11
-0.0942167666043795
 21
0.0332317783578879
 31
0.0
210
0.0
220
0.0
230
1.0
 40
0.9986239999999998
 41
3.516023842058951
 42
4.888557770068413
  0
ELLIPSE
  5
153
330
1F
100
AcDbEntity
  8
1
100
AcDbEllipse
 10
417.7547249999999
 20
300.384732
 30
0.0
 11
-0.0942167666043795
 21
0.0332317783578879
 31
0.0
210
0.0
220
0.0
230
1.0
 40
0.9986239999999998
 41
0.3744311884692999
 42
1.223366340880017
  0
ELLIPSE
  5
154
330
1F
100
AcDbEntity
  8
1
100
AcDbEllipse
 10
418.0436059999999
 20
300.736921
 30
0.0
 11
-0.5243116980215657
 21
0.1849332211989811
 31
0.0
210
0.0
220
0.0
230
1.0
 40
0.9986239999999998
 41
1.223366340879982
 42
2.14348991404983
  0
ELLIPSE
  5
155
330
1F
100
AcDbEntity
  8
1
100
AcDbEllipse
 10
418.149352
 20
300.293741
 30
0.0
 11
-0.0942167666043795
 21
0.0332317783578879
 31
0.0
210
0.0
220
0.0
230
1.0
 40
0.9986239999999998
 41
2.143489914050316
 42
2.992425066460683
  0
ELLIPSE
  5
156
330
1F
100
AcDbEntity
  8
1
100
AcDbEllipse
 10
418.325829
 20
300.20005
 30
0.0
 11
-0.0942167666043796
 21
0.0332317783578879
 31
0.0
210
0.0
220
0.0
230
1.0
 40
0.9986239999999998
 41
4.761483792041101
 42
6.134017720050687
  0
ELLIPSE
  5
157
330
1F
100
AcDbEntity
  8
1
100
AcDbEllipse
 10
418.1956259999999
 20
299.763619
 30
0.0
 11
-0.5243116980215658
 21
0.1849332211989812
 31
0.0
210
0.0
220
0.0
230
1.0
 40
0.9986239999999998
 41
3.841360218871436
 42
4.761483792041362
  0
ELLIPSE
  5
158
330
1F
100
AcDbEntity
  8
1
100
AcDbEllipse
 10
418.622212
 20
299.924186
 30
0.0
 11
-0.0942167666043795
 21
0.0332317783578879
 31
0.0
210
0.0
220
0.0
230
1.0
 40
0.9986239999999998
 41
2.468826290862471
 42
3.841360218871458
  0
ELLIPSE
  5
159
330
1F
100
AcDbEntity
  8
1
100
AcDbEllipse
 10
418.7282269999999
 20
299.754944
 30
0.0
 11
-0.0942167666043795
 21
0.0332317783578879
 31
0.0
210
0.0
220
0.0
230
1.0
 40
0.9986239999999998
 41
5.610418944452153
 42
6.459354096863119
  0
ELLIPSE
  5
15A
330
1F
100
AcDbEntity
  8
1
100
AcDbEllipse
 10
260.297998
 20
288.907994
 30
0.0
 11
49.01187800097032
 21
-11.75709183029889
 31
0.0
210
0.0
220
0.0
230
1.0
 40
0.190058
 41
5.439404428762861
 42
5.560068703477496
  0
ELLIPSE
  5
15B
330
1F
100
AcDbEntity
  8
1
100
AcDbEllipse
 10
414.1546469999999
 20
292.065227
 30
0.0
 11
-3.513728646387028
 21
-0.1379053516600713
 31
0.0
210
0.0
220
0.0
230
1.0
 40
0.22151
 41
1.674168065285579
 42
4.606790282504913
  0
ELLIPSE
  5
15C
330
1F
100
AcDbEntity
  8
1
100
AcDbEllipse
 10
419.24357
 20
288.907993
 30
0.0
 11
25.72650451467405
 21
-14.79849821180013
 31
0.0
210
0.0
220
0.0
230
1.0
 40
0.095248
 41
4.241981688581228
 42
4.310031335903
  0
ELLIPSE
  5
15D
330
1F
100
AcDbEntity
  8
1
100
AcDbEllipse
 10
413.703872
 20
288.907993
 30
0.0
 11
0.5016380973092537
 21
-14.99999697644765
 31
0.0
210
0.0
220
0.0
230
1.0
 40
0.0191
 41
3.052398768926997
 42
3.11695856137838
  0
ELLIPSE
  5
15E
330
1F
100
AcDbEntity
  8
1
100
AcDbEllipse
 10
414.50931
 20
295.814669
 30
0.0
 11
1.88611381378318
 21
-0.6652628664342132
 31
0.0
210
0.0
220
0.0
230
1.0
 40
0.9986239999999998
 41
5.693765219816858
 42
5.822604891428742
  0
ELLIPSE
  5
15F
330
1F
100
AcDbEntity
  8
1
100
AcDbEllipse
 10
413.570985
 20
288.907993
 30
0.0
 11
0.4205911749464434
 21
-14.99988354795171
 31
0.0
210
0.0
220
0.0
230
0.9999999999999998
 40
0.140543
 41
3.113656564991444
 42
3.228346555188065
  0
ELLIPSE
  5
160
330
1F
100
AcDbEntity
  8
1
100
AcDbEllipse
 10
283.674949
 20
288.907994
 30
0.0
 11
391.9401354279931
 21
14.62786813449821
 31
0.0
210
0.0
220
0.0
230
0.9999999999999998
 40
0.008472
 41
5.052581080991568
 42
5.068013397929502
  0
ELLIPSE
  5
161
330
1F
100
AcDbEntity
  8
1
100
AcDbEllipse
 10
421.613724
 20
280.938186
 30
0.0
 11
0.0538770024353539
 21
0.4991611425091005
 31
0.0
210
0.0
220
0.0
230
1.0
 40
0.139171
 41
1.583568179248107
 42
3.154364506042647
  0
ELLIPSE
  5
162
330
1F
100
AcDbEntity
  8
1
100
AcDbEllipse
 10
421.9541379999999
 20
288.865312
 30
0.0
 11
0.0001758288822671
 21
-0.5000776676664068
 31
0.0
210
0.0
220
0.0
230
0.9999999999999998
 40
0.140519
 41
3.139090475969518
 42
4.709886802763122
  0
ELLIPSE
  5
163
330
1F
100
AcDbEntity
  8
1
100
AcDbEllipse
 10
315.022856
 20
288.907994
 30
0.0
 11
49.01187801535839
 21
-11.7570918362105
 31
0.0
210
0.0
220
0.0
230
1.0
 40
0.190058
 41
4.274633122246962
 42
4.451969702549619
  0
ELLIPSE
  5
164
330
1F
100
AcDbEntity
  8
1
100
AcDbEllipse
 10
414.514543
 20
295.829504
 30
0.0
 11
-1.886113813783179
 21
0.6652628664342175
 31
0.0
210
0.0
220
0.0
230
1.0
 40
0.9986239999999998
 41
2.681012237838972
 42
2.813440321327924
  0
ELLIPSE
  5
165
330
1F
100
AcDbEntity
  8
1
100
AcDbEllipse
 10
422.0845989999999
 20
294.41268
 30
0.0
 11
0.0003016037633163
 21
0.5003084758558747
 31
0.0
210
0.0
220
0.0
230
0.9999999999999996
 40
0.140101
 41
3.195395734394696
 42
4.766192061193017
  0
ELLIPSE
  5
166
330
1F
100
AcDbEntity
  8
1
100
AcDbEllipse
 10
422.85032
 20
288.907994
 30
0.0
 11
1.62358154130392
 21
14.99830357816267
 31
0.0
210
0.0
220
0.0
230
1.0
 40
0.138944
 41
1.908927975894239
 42
3.156632395651096
  0
ELLIPSE
  5
167
330
1F
100
AcDbEntity
  8
1
100
AcDbEllipse
 10
422.3448419999999
 20
288.907994
 30
0.0
 11
0.0
 21
14.99999999967904
 31
0.0
210
0.0
220
0.0
230
0.9999999999999998
 40
0.140541
 41
1.438384985193938
 42
1.89388823384037
  0
ELLIPSE
  5
168
330
1F
100
AcDbEntity
  8
1
100
AcDbEllipse
 10
414.5820429999999
 20
296.020875
 30
0.0
 11
-1.886113813783179
 21
0.6652628664342175
 31
0.0
210
0.0
220
0.0
230
1.0
 40
0.9986239999999998
 41
0.0546757932376176
 42
1.945227331219206
  0
ELLIPSE
  5
169
330
1F
100
AcDbEntity
  8
1
100
AcDbEllipse
 10
414.5820429999999
 20
296.020875
 30
0.0
 11
-1.886113813783179
 21
0.6652628664342175
 31
0.0
210
0.0
220
0.0
230
1.0
 40
0.9986239999999998
 41
1.945227331219204
 42
2.681832479841105
  0
ELLIPSE
  5
16A
330
1F
100
AcDbEntity
  8
1
100
AcDbEllipse
 10
414.514543
 20
295.829504
 30
0.0
 11
-1.886113813783179
 21
0.6652628664342175
 31
0.0
210
0.0
220
0.0
230
1.0
 40
0.9986239999999998
 41
5.785523578469406
 42
5.928503423216213
  0
ELLIPSE
  5
16B
330
1F
100
AcDbEntity
  8
1
100
AcDbEllipse
 10
414.50931
 20
295.814669
 30
0.0
 11
1.88611381378318
 21
-0.6652628664342132
 31
0.0
210
0.0
220
0.0
230
1.0
 40
0.9986239999999998
 41
2.786910769626414
 42
4.438060949560718
  0
ELLIPSE
  5
16C
330
1F
100
AcDbEntity
  8
1
100
AcDbEllipse
 10
413.2702669999999
 20
288.907798
 30
0.0
 11
0.5016450175034139
 21
-15.00019274938869
 31
0.0
210
0.0
220
0.0
230
0.9999999999999998
 40
0.0191
 41
3.231386817337837
 42
3.251410591071428
  0
ELLIPSE
  5
16D
330
1F
100
AcDbEntity
  8
1
100
AcDbEllipse
 10
360.31423
 20
288.901105
 30
0.0
 11
860.0714464026285
 21
-0.7418466934250223
 31
0.0
210
0.0
220
0.0
230
0.9999999999999996
 40
0.017427
 41
1.509818129911066
 42
1.512554658527339
  0
ELLIPSE
  5
16E
330
1F
100
AcDbEntity
  8
1
100
AcDbEllipse
 10
414.0075409999999
 20
306.223844
 30
0.0
 11
-11.88251702683402
 21
4.191156058535569
 31
0.0
210
0.0
220
0.0
230
1.0
 40
0.9986239999999998
 41
1.394827768969745
 42
1.945227515264149
  0
ELLIPSE
  5
16F
330
1F
100
AcDbEntity
  8
1
100
AcDbEllipse
 10
414.0162619999999
 20
306.248569
 30
0.0
 11
-11.88251702683402
 21
4.191156058535569
 31
0.0
210
0.0
220
0.0
230
1.0
 40
0.9986239999999998
 41
1.386999937135823
 42
1.944667796942529
  0
ELLIPSE
  5
170
330
1F
100
AcDbEntity
  8
1
100
AcDbEllipse
 10
417.7223689999999
 20
299.30231
 30
0.0
 11
-2.593406493951871
 21
0.9147364413470493
 31
0.0
210
0.0
220
0.0
230
1.0
 40
0.9986239999999998
 41
3.141683399138616
 42
6.283178024433414
  0
ELLIPSE
  5
171
330
1F
100
AcDbEntity
  8
1
100
AcDbEllipse
 10
419.1782149999999
 20
299.680865
 30
0.0
 11
-0.5243116980215657
 21
0.1849332211989811
 31
0.0
210
0.0
220
0.0
230
1.0
 40
0.9986239999999998
 41
0.176168789683382
 42
1.096292362853237
  0
ELLIPSE
  5
172
330
1F
100
AcDbEntity
  8
1
100
AcDbEllipse
 10
418.84695
 20
299.368125
 30
0.0
 11
-0.0942167666043795
 21
0.0332317783578879
 31
0.0
210
0.0
220
0.0
230
1.0
 40
0.9986239999999998
 41
1.096292362853303
 42
1.945227515264631
  0
ELLIPSE
  5
173
330
1F
100
AcDbEntity
  8
1
100
AcDbEllipse
 10
418.854095
 20
299.16868
 30
0.0
 11
-0.0942167666043796
 21
0.0332317783578879
 31
0.0
210
0.0
220
0.0
230
1.0
 40
0.9986239999999998
 41
3.714286240844681
 42
5.086820168853472
  0
ELLIPSE
  5
174
330
1F
100
AcDbEntity
  8
1
100
AcDbEllipse
 10
418.4105299999999
 20
299.063429
 30
0.0
 11
-0.5243116980215658
 21
0.1849332211989812
 31
0.0
210
0.0
220
0.0
230
1.0
 40
0.9986239999999998
 41
2.794162667674896
 42
3.71428624084472
  0
ELLIPSE
  5
175
330
1F
100
AcDbEntity
  8
1
100
AcDbEllipse
 10
418.7633469999999
 20
298.774554
 30
0.0
 11
-0.0942167666043795
 21
0.0332317783578879
 31
0.0
210
0.0
220
0.0
230
1.0
 40
0.9986239999999998
 41
1.42162873966576
 42
2.794162667674942
  0
ELLIPSE
  5
176
330
1F
100
AcDbEntity
  8
1
100
AcDbEllipse
 10
418.669708
 20
298.598347
 30
0.0
 11
-0.0942167666043795
 21
0.0332317783578879
 31
0.0
210
0.0
220
0.0
230
1.0
 40
0.9986239999999998
 41
4.563221393255791
 42
5.412156545666696
  0
ELLIPSE
  5
177
330
1F
100
AcDbEntity
  8
1
100
AcDbEllipse
 10
418.830815
 20
298.172078
 30
0.0
 11
-0.5243116980215657
 21
0.1849332211989811
 31
0.0
210
0.0
220
0.0
230
1.0
 40
0.9986239999999998
 41
5.412156545666363
 42
6.332280118836229
  0
ELLIPSE
  5
178
330
1F
100
AcDbEntity
  8
1
100
AcDbEllipse
 10
418.393804
 20
298.302519
 30
0.0
 11
-0.0942167666043795
 21
0.0332317783578879
 31
0.0
210
0.0
220
0.0
230
1.0
 40
0.9986239999999998
 41
0.0490948116564473
 42
0.8980299640674356
  0
ELLIPSE
  5
179
330
1F
100
AcDbEntity
  8
1
100
AcDbEllipse
 10
418.224472
 20
298.1967649999999
 30
0.0
 11
-0.0942167666043796
 21
0.0332317783578879
 31
0.0
210
0.0
220
0.0
230
1.0
 40
0.9986239999999998
 41
2.667088689647977
 42
4.039622617657628
  0
ELLIPSE
  5
17A
330
1F
100
AcDbEntity
  8
1
100
AcDbEllipse
 10
417.911111
 20
298.5279450000001
 30
0.0
 11
-0.5243116980215658
 21
0.1849332211989812
 31
0.0
210
0.0
220
0.0
230
1.0
 40
0.9986239999999998
 41
1.74696511647825
 42
2.667088689648156
  0
ELLIPSE
  5
17B
330
1F
100
AcDbEntity
  8
1
100
AcDbEllipse
 10
417.837341
 20
298.078502
 30
0.0
 11
-0.0942167666043795
 21
0.0332317783578879
 31
0.0
210
0.0
220
0.0
230
1.0
 40
0.9986239999999998
 41
0.3744311884692244
 42
1.746965116478328
  0
ELLIPSE
  5
17C
330
1F
100
AcDbEntity
  8
1
100
AcDbEllipse
 10
417.637687
 20
298.071538
 30
0.0
 11
-0.0942167666043795
 21
0.0332317783578879
 31
0.0
210
0.0
220
0.0
230
1.0
 40
0.9986239999999998
 41
3.516023842058856
 42
4.364958994469517
  0
ELLIPSE
  5
17D
330
1F
100
AcDbEntity
  8
1
100
AcDbEllipse
 10
417.348806
 20
297.719348
 30
0.0
 11
-0.5243116980215657
 21
0.1849332211989811
 31
0.0
210
0.0
220
0.0
230
1.0
 40
0.9986239999999998
 41
4.364958994469816
 42
5.285082567639678
  0
ELLIPSE
  5
17E
330
1F
100
AcDbEntity
  8
1
100
AcDbEllipse
 10
417.696206
 20
299.228135
 30
0.0
 11
1.697502432404862
 21
-0.598736579790792
 31
0.0
210
0.0
220
0.0
230
0.9999999999999998
 40
0.9986239999999998
 41
0.0
 42
6.283185307179585
  0
ELLIPSE
  5
17F
330
1F
100
AcDbEntity
  8
1
100
AcDbEllipse
 10
417.7019169999999
 20
299.244326
 30
0.0
 11
2.593406493951873
 21
-0.9147364413470432
 31
0.0
210
0.0
220
0.0
230
1.0
 40
0.9986239999999998
 41
0.0
 42
6.283185307179585
  0
ELLIPSE
  5
180
330
1F
100
AcDbEntity
  8
1
100
AcDbEllipse
 10
417.883818
 20
299.471296
 30
0.0
 11
2.919001017965134
 21
-1.02957889929282
 31
0.0
210
0.0
220
0.0
230
0.9999999999999998
 40
0.9986239999999998
 41
1.945227493391412
 42
6.283185307179585
  0
ELLIPSE
  5
181
330
1F
100
AcDbEntity
  8
1
100
AcDbEllipse
 10
417.883818
 20
299.471296
 30
0.0
 11
2.919001017965134
 21
-1.02957889929282
 31
0.0
210
0.0
220
0.0
230
0.9999999999999998
 40
0.9986239999999998
 41
0.0
 42
1.508938803341973
  0
ELLIPSE
  5
182
330
1F
100
AcDbEntity
  8
1
100
AcDbEllipse
 10
417.883818
 20
299.471296
 30
0.0
 11
2.919001017965134
 21
-1.02957889929282
 31
0.0
210
0.0
220
0.0
230
0.9999999999999998
 40
0.9986239999999998
 41
1.632540731130997
 42
1.945227493391413
  0
ELLIPSE
  5
183
330
1F
100
AcDbEntity
  8
1
100
AcDbEllipse
 10
413.96671
 20
295.205212
 30
0.0
 11
0.9634869193554024
 21
1.034109158203962
 31
0.0
210
0.0
220
0.0
230
1.0
 40
0.01483
 41
0.9819686316656028
 42
1.536779664268206
  0
ELLIPSE
  5
184
330
1F
100
AcDbEntity
  8
1
100
AcDbEllipse
 10
417.864021
 20
299.415171
 30
0.0
 11
2.9750967111536
 21
-1.049364758116642
 31
0.0
210
0.0
220
0.0
230
0.9999999999999998
 40
0.9986239999999998
 41
0.0
 42
6.283185307179585
  0
ELLIPSE
  5
185
330
1F
100
AcDbEntity
  8
1
100
AcDbEllipse
 10
422.013899
 20
295.485933
 30
0.0
 11
1.034593536793557
 21
-0.9639382183508843
 31
0.0
210
0.0
220
0.0
230
1.0
 40
0.033998
 41
1.58561088745699
 42
2.14042192081039
  0
ELLIPSE
  5
186
330
1F
100
AcDbEntity
  8
1
100
AcDbEllipse
 10
413.678737
 20
303.244024
 30
0.0
 11
1.034593536279264
 21
-0.9639382179285876
 31
0.0
210
0.0
220
0.0
230
1.0
 40
0.033998
 41
1.030799854739697
 42
1.585610888338628
  0
ELLIPSE
  5
187
330
1F
100
AcDbEntity
  8
1
100
AcDbEllipse
 10
421.7259259999999
 20
303.524746
 30
0.0
 11
0.9634869194951969
 21
1.034109158329441
 31
0.0
210
0.0
220
0.0
230
1.0
 40
0.01483
 41
1.53677966508801
 42
2.091590697628251
  0
ELLIPSE
  5
188
330
1F
100
AcDbEntity
  8
1
100
AcDbEllipse
 10
417.861143
 20
299.407011
 30
0.0
 11
-3.064934947397671
 21
1.081052157955606
 31
0.0
210
0.0
220
0.0
230
0.9999999999999998
 40
0.9986239999999998
 41
0.0
 42
6.283185307179585
  0
SPLINE
  5
18F
330
1F
100
AcDbEntity
  8
1
100
AcDbSpline
210
0.0
220
0.0
230
1.0
 70
     8
 71
     3
 72
     8
 73
     4
 74
     0
 42
0.000000001
 43
0.0000000001
 40
0.0
 40
0.0
 40
0.0
 40
0.0
 40
1.0
 40
1.0
 40
1.0
 40
1.0
 10
295.5658683075139
 20
273.9291289124365
 30
0.0
 10
295.7858305287675
 20
273.9239954713703
 30
0.0
 10
296.0102746059251
 20
273.9204226467898
 30
0.0
 10
296.2397155210465
 20
273.9178335624454
 30
0.0
  0
SPLINE
  5
190
330
1F
100
AcDbEntity
  8
1
100
AcDbSpline
210
0.0
220
0.0
230
1.0
 70
     8
 71
     3
 72
    14
 73
    10
 74
     0
 42
0.000000001
 43
0.0000000001
 40
0.0
 40
0.0
 40
0.0
 40
0.0
 40
0.25
 40
0.25
 40
0.5
 40
0.5
 40
0.75
 40
0.75
 40
1.0
 40
1.0
 40
1.0
 40
1.0
 10
416.5671576869207
 20
299.2595055725375
 30
0.0
 10
416.574224868514
 20
299.2598770451023
 30
0.0
 10
416.5813120944037
 20
299.2595046344801
 30
0.0
 10
416.5951981095233
 20
299.2573020261257
 30
0.0
 10
416.6019491686767
 20
299.2554911120732
 30
0.0
 10
416.6150656830926
 20
299.2504330117969
 30
0.0
 10
416.6214508946096
 20
299.2471520358384
 30
0.0
 10
416.6332441269024
 20
299.239367524266
 30
0.0
 10
416.6387295556218
 20
299.2348438144048
 30
0.0
 10
416.6437697318253
 20
299.2296317935922
 30
0.0
  0
SPLINE
  5
191
330
1F
100
AcDbEntity
  8
1
100
AcDbSpline
210
0.0
220
0.0
230
1.0
 70
     8
 71
     3
 72
    22
 73
    18
 74
     0
 42
0.000000001
 43
0.0000000001
 40
0.0
 40
0.0
 40
0.0
 40
0.0
 40
0.125
 40
0.125
 40
0.25
 40
0.25
 40
0.375
 40
0.375
 40
0.5
 40
0.5
 40
0.625
 40
0.625
 40
0.75
 40
0.75
 40
0.875
 40
0.875
 40
1.0
 40
1.0
 40
1.0
 40
1.0
 10
416.5671576869207
 20
299.2595055725375
 30
0.0
 10
416.5615082968153
 20
299.2592086234067
 30
0.0
 10
416.5558614569496
 20
299.2593879060716
 30
0.0
 10
416.5447692149339
 20
299.2606638438561
 30
0.0
 10
416.5392963478665
 20
299.2617581403859
 30
0.0
 10
416.5285023904181
 20
299.2648855774738
 30
0.0
 10
416.5231862328408
 20
299.2669286163235
 30
0.0
 10
416.5130796023101
 20
299.2718419895224
 30
0.0
 10
416.5082406379022
 20
299.2747235791096
 30
0.0
 10
416.4990120226367
 20
299.2813731994756
 30
0.0
 10
416.4946471542878
 20
299.2851364308604
 30
0.0
 10
416.4867006333166
 20
299.2933089599073
 30
0.0
 10
416.4830767631602
 20
299.297746060141
 30
0.0
 10
416.4765698539136
 20
299.3073616332496
 30
0.0
 10
416.473742389736
 20
299.3124712429684
 30
0.0
 10
416.4690542249052
 20
299.3230748848471
 30
0.0
 10
416.4671713433536
 20
299.3286001587069
 30
0.0
 10
416.4657798396731
 20
299.3343630249431
 30
0.0
  0
SPLINE
  5
192
330
1F
100
AcDbEntity
  8
1
100
AcDbSpline
210
0.0
220
0.0
230
1.0
 70
     8
 71
     3
 72
    21
 73
    17
 74
     0
 42
0.000000001
 43
0.0000000001
 40
0.0
 40
0.0
 40
0.0
 40
0.0
 40
0.2084828939470623
 40
0.2084828939470623
 40
0.2744426527848082
 40
0.2744426527848082
 40
0.340402411622554
 40
0.340402411622554
 40
0.4723219292981461
 40
0.6042414469737383
 40
0.6042414469737383
 40
0.6702012058114698
 40
0.6702012058114698
 40
0.7361609646492017
 40
0.7361609646492017
 40
1.0
 40
1.0
 40
1.0
 40
1.0
 10
418.3321067610238
 20
298.429615344916
 30
0.0
 10
418.3432520862687
 20
298.4613729379206
 30
0.0
 10
418.3571641290943
 20
298.491964208234
 30
0.0
 10
418.3791938168964
 20
298.5306976958049
 30
0.0
 10
418.3847747029155
 20
298.539888530516
 30
0.0
 10
418.3965281484307
 20
298.558026590468
 30
0.0
 10
418.4027180364567
 20
298.5669937584376
 30
0.0
 10
418.4219122214466
 20
298.5931245434604
 30
0.0
 10
418.4493122331941
 20
298.6261644382493
 30
0.0
 10
418.480245237527
 20
298.6556808163049
 30
0.0
 10
418.5047936370494
 20
298.6764743845111
 30
0.0
 10
418.5132330939852
 20
298.6832039738487
 30
0.0
 10
418.5304095437601
 20
298.6960828197992
 30
0.0
 10
418.539128445727
 20
298.7022220469261
 30
0.0
 10
418.5833585550938
 20
298.7314695852192
 30
0.0
 10
418.6207487183983
 20
298.7502913164987
 30
0.0
 10
418.6601562105892
 20
298.7647036031428
 30
0.0
  0
SPLINE
  5
193
330
1F
100
AcDbEntity
  8
1
100
AcDbSpline
210
0.0
220
0.0
230
1.0
 70
     8
 71
     3
 72
    14
 73
    10
 74
     0
 42
0.000000001
 43
0.0000000001
 40
0.0
 40
0.0
 40
0.0
 40
0.0
 40
0.25
 40
0.25
 40
0.5
 40
0.5
 40
0.75
 40
0.75
 40
1.0
 40
1.0
 40
1.0
 40
1.0
 10
418.6601562105892
 20
298.7647036031428
 30
0.0
 10
418.6669528922756
 20
298.7671893163727
 30
0.0
 10
418.6739872536278
 20
298.7688907071125
 30
0.0
 10
418.6879989572303
 20
298.7707177191818
 30
0.0
 10
418.6949931932481
 20
298.770864311478
 30
0.0
 10
418.70896338453
 20
298.7696717308211
 30
0.0
 10
418.7159286088796
 20
298.7683111075125
 30
0.0
 10
418.7292197563511
 20
298.764232915167
 30
0.0
 10
418.73562920541
 20
298.7615124852262
 30
0.0
 10
418.741795393859
 20
298.7580886147181
 30
0.0
  0
SPLINE
  5
194
330
1F
100
AcDbEntity
  8
1
100
AcDbSpline
210
0.0
220
0.0
230
1.0
 70
     8
 71
     3
 72
    20
 73
    16
 74
     0
 42
0.000000001
 43
0.0000000001
 40
0.0
 40
0.0
 40
0.0
 40
0.0
 40
0.1250000000000667
 40
0.1250000000000667
 40
0.2500000000001334
 40
0.2500000000001334
 40
0.3750000000002002
 40
0.3750000000002002
 40
0.5000000000002669
 40
0.5000000000002669
 40
0.6250000000003336
 40
0.6250000000003336
 40
0.7500000000004004
 40
0.7500000000004004
 40
1.0
 40
1.0
 40
1.0
 40
1.0
 10
418.8652649853268
 20
298.781101882534
 30
0.0
 10
418.8614956832399
 20
298.7765224041264
 30
0.0
 10
418.8573847240379
 20
298.7723666266244
 30
0.0
 10
418.8485171998234
 20
298.76485704855
 30
0.0
 10
418.8437086102108
 20
298.7614764902747
 30
0.0
 10
418.8337066056333
 20
298.7557016105077
 30
0.0
 10
418.8285327829293
 20
298.7533036627977
 30
0.0
 10
418.817858366847
 20
298.7494384938216
 30
0.0
 10
418.8123060911649
 20
298.747964030945
 30
0.0
 10
418.8011243591217
 20
298.7460212487696
 30
0.0
 10
418.7955361735383
 20
298.7455493056931
 30
0.0
 10
418.7843667703795
 20
298.7455524274324
 30
0.0
 10
418.7787578162616
 20
298.7460327363053
 30
0.0
 10
418.762126389011
 20
298.7489075590437
 30
0.0
 10
418.7516549506486
 20
298.752613944913
 30
0.0
 10
418.741795393859
 20
298.7580886147181
 30
0.0
  0
SPLINE
  5
195
330
1F
100
AcDbEntity
  8
1
100
AcDbSpline
210
0.0
220
0.0
230
1.0
 70
     8
 71
     3
 72
    14
 73
    10
 74
     0
 42
0.000000001
 43
0.0000000001
 40
0.0
 40
0.0
 40
0.0
 40
0.0
 40
0.5060882368524254
 40
0.5060882368524254
 40
0.6326102960655328
 40
0.6326102960655328
 40
0.7591323552786403
 40
0.7591323552786403
 40
1.0
 40
1.0
 40
1.0
 40
1.0
 10
416.4657798396731
 20
299.3343630249431
 30
0.0
 10
416.4557704439928
 20
299.3758166044207
 30
0.0
 10
416.4506676848168
 20
299.4179029492872
 30
0.0
 10
416.450422229928
 20
299.4712932310704
 30
0.0
 10
416.4506862900646
 20
299.4820334997033
 30
0.0
 10
416.4518321177268
 20
299.5033522660573
 30
0.0
 10
416.4527124612641
 20
299.5139562383245
 30
0.0
 10
416.4561452531935
 20
299.5445895857873
 30
0.0
 10
416.459487288477
 20
299.5644765784739
 30
0.0
 10
416.463913566366
 20
299.5841679946162
 30
0.0
  0
SPLINE
  5
196
330
1F
100
AcDbEntity
  8
1
100
AcDbSpline
210
0.0
220
0.0
230
1.0
 70
     8
 71
     3
 72
     8
 73
     4
 74
     0
 42
0.000000001
 43
0.0000000001
 40
0.0
 40
0.0
 40
0.0
 40
0.0
 40
1.0
 40
1.0
 40
1.0
 40
1.0
 10
418.9327615408557
 20
298.8851713861152
 30
0.0
 10
418.9142687924341
 20
298.8480567709396
 30
0.0
 10
418.8918032825221
 20
298.8133443391413
 30
0.0
 10
418.8652649853268
 20
298.781101882534
 30
0.0
  0
SPLINE
  5
197
330
1F
100
AcDbEntity
  8
1
100
AcDbSpline
210
0.0
220
0.0
230
1.0
 70
     8
 71
     3
 72
    14
 73
    10
 74
     0
 42
0.000000001
 43
0.0000000001
 40
0.0
 40
0.0
 40
0.0
 40
0.0
 40
0.25
 40
0.25
 40
0.5
 40
0.5
 40
0.75
 40
0.75
 40
1.0
 40
1.0
 40
1.0
 40
1.0
 10
417.1085422751415
 20
300.2782661659538
 30
0.0
 10
417.1123160070919
 20
300.2724394590534
 30
0.0
 10
417.1154546396492
 20
300.2662243682504
 30
0.0
 10
417.1203281976184
 20
300.2533103276418
 30
0.0
 10
417.1220562959978
 20
300.2466620460978
 30
0.0
 10
417.1240800295726
 20
300.2329755790713
 30
0.0
 10
417.1243560838266
 20
300.2259032734922
 30
0.0
 10
417.1233723852117
 20
300.2119780640012
 30
0.0
 10
417.1221329804146
 20
300.2050493354812
 30
0.0
 10
417.1200805874612
 20
300.1981546479649
 30
0.0
  0
SPLINE
  5
198
330
1F
100
AcDbEntity
  8
1
100
AcDbSpline
210
0.0
220
0.0
230
1.0
 70
     8
 71
     3
 72
    14
 73
    10
 74
     0
 42
0.000000001
 43
0.0000000001
 40
0.0
 40
0.0
 40
0.0
 40
0.0
 40
0.3234836811347634
 40
0.3234836811347634
 40
0.6469673622695269
 40
0.6469673622695269
 40
0.9704510434042903
 40
0.9704510434042903
 40
1.0
 40
1.0
 40
1.0
 40
1.0
 10
417.108542275141
 20
300.278266165955
 30
0.0
 10
417.1055257219641
 20
300.2829237758335
 30
0.0
 10
417.1029233371659
 20
300.2878167518076
 30
0.0
 10
417.0986115075808
 20
300.2978903388011
 30
0.0
 10
417.0968867111283
 20
300.3030930123064
 30
0.0
 10
417.0943249099265
 20
300.3138386659843
 30
0.0
 10
417.0934990294061
 20
300.3193816367084
 30
0.0
 10
417.0931290712561
 20
300.3254125387995
 30
0.0
 10
417.0931020524014
 20
300.3259175777848
 30
0.0
 10
417.0930789964211
 20
300.3264228673188
 30
0.0
  0
SPLINE
  5
199
330
1F
100
AcDbEntity
  8
1
100
AcDbSpline
210
0.0
220
0.0
230
1.0
 70
     8
 71
     3
 72
    14
 73
    10
 74
     0
 42
0.000000001
 43
0.0000000001
 40
0.0
 40
0.0
 40
0.0
 40
0.0
 40
0.0602057391959377
 40
0.0602057391959377
 40
0.3734704927972918
 40
0.3734704927972918
 40
0.686735246398646
 40
0.686735246398646
 40
1.0
 40
1.0
 40
1.0
 40
1.0
 10
418.6596559815813
 20
299.8608839857671
 30
0.0
 10
418.6601057642308
 20
299.8621623233389
 30
0.0
 10
418.6605808739095
 20
299.863426769675
 30
0.0
 10
418.6636796978824
 20
299.8711740759656
 30
0.0
 10
418.6669308226505
 20
299.8772770428244
 30
0.0
 10
418.6746986872022
 20
299.8887206821977
 30
0.0
 10
418.6792286506948
 20
299.8940413295746
 30
0.0
 10
418.6891443277351
 20
299.9034497975111
 30
0.0
 10
418.6945728179911
 20
299.9076081828503
 30
0.0
 10
418.7004875646754
 20
299.9112034770534
 30
0.0
  0
SPLINE
  5
19A
330
1F
100
AcDbEntity
  8
1
100
AcDbSpline
210
0.0
220
0.0
230
1.0
 70
     8
 71
     3
 72
     8
 73
     4
 74
     0
 42
0.000000001
 43
0.0000000001
 40
0.0
 40
0.0
 40
0.0
 40
0.0
 40
1.0
 40
1.0
 40
1.0
 40
1.0
 10
418.7213537405476
 20
299.9282910862714
 30
0.0
 10
418.7152330985195
 20
299.9216300049504
 30
0.0
 10
418.7082745609677
 20
299.915936823065
 30
0.0
 10
418.7004875646754
 20
299.9112034770534
 30
0.0
  0
SPLINE
  5
1A1
330
1F
100
AcDbEntity
  8
1
100
AcDbSpline
210
0.0
220
0.0
230
1.0
 70
     8
 71
     3
 72
    14
 73
    10
 74
     0
 42
0.000000001
 43
0.0000000001
 40
0.0
 40
0.0
 40
0.0
 40
0.0
 40
0.25
 40
0.25
 40
0.5
 40
0.5
 40
0.75
 40
0.75
 40
1.0
 40
1.0
 40
1.0
 40
1.0
 10
291.2038318185191
 20
274.1338576092186
 30
0.0
 10
290.9472746191156
 20
274.1513176825261
 30
0.0
 10
290.6937722545499
 20
274.1634865254595
 30
0.0
 10
290.1922286414322
 20
274.1783650999616
 30
0.0
 10
289.9441885756175
 20
274.1810727829303
 30
0.0
 10
289.4530780951807
 20
274.1778802958293
 30
0.0
 10
289.2100085379709
 20
274.1719786406494
 30
0.0
 10
288.7284713211567
 20
274.152204457335
 30
0.0
 10
288.4900042923973
 20
274.138330836524
 30
0.0
 10
288.2537052015608
 20
274.1207021652448
 30
0.0
  0
SPLINE
  5
1A2
330
1F
100
AcDbEntity
  8
1
100
AcDbSpline
210
0.0
220
0.0
230
1.0
 70
     8
 71
     3
 72
    55
 73
    51
 74
     0
 42
0.000000001
 43
0.0000000001
 40
0.0
 40
0.0
 40
0.0
 40
0.0
 40
0.0312500000000006
 40
0.0312500000000006
 40
0.0625000000000013
 40
0.0937500000000019
 40
0.0937500000000019
 40
0.1250000000000026
 40
0.1250000000000026
 40
0.1875000000000024
 40
0.1875000000000024
 40
0.2187500000000015
 40
0.2187500000000015
 40
0.2500000000000006
 40
0.2812499999999996
 40
0.2812499999999996
 40
0.3124999999999986
 40
0.3124999999999986
 40
0.3749999999999954
 40
0.3749999999999954
 40
0.4062499999999937
 40
0.4062499999999937
 40
0.4374999999999922
 40
0.4687499999999906
 40
0.4687499999999906
 40
0.4999999999999891
 40
0.4999999999999891
 40
0.5624999999999857
 40
0.5624999999999857
 40
0.5937499999999851
 40
0.5937499999999851
 40
0.6249999999999846
 40
0.6562499999999841
 40
0.6562499999999841
 40
0.6874999999999833
 40
0.6874999999999833
 40
0.7499999999999823
 40
0.7499999999999823
 40
0.7812499999999832
 40
0.7812499999999832
 40
0.8124999999999838
 40
0.8437499999999847
 40
0.8437499999999847
 40
0.8749999999999856
 40
0.8749999999999856
 40
0.9374999999999925
 40
0.9374999999999925
 40
0.9687499999999962
 40
0.9687499999999962
 40
1.0
 40
1.0
 40
1.0
 40
1.0
 10
420.5999452033216
 20
284.1454935137132
 30
0.0
 10
420.6000734926298
 20
284.1153663353825
 30
0.0
 10
420.6003927701843
 20
284.085860466372
 30
0.0
 10
420.6014140396668
 20
284.0282395090407
 30
0.0
 10
420.6028142732888
 20
283.9721842009863
 30
0.0
 10
420.6049651312155
 20
283.9192300159085
 30
0.0
 10
420.6074913803826
 20
283.8678267190628
 30
0.0
 10
420.6089446609623
 20
283.8428662049269
 30
0.0
 10
420.6138544709904
 20
283.770600081811
 30
0.0
 10
420.6178503705705
 20
283.725982052631
 30
0.0
 10
420.6249218054303
 20
283.6643623018767
 30
0.0
 10
420.6274633041944
 20
283.6446824013266
 30
0.0
 10
420.6328817805075
 20
283.6073042225996
 30
0.0
 10
420.6386369160557
 20
283.571880617717
 30
0.0
 10
420.6450613208993
 20
283.5403426518459
 30
0.0
 10
420.6518216403416
 20
283.5107549366122
 30
0.0
 10
420.6553738358701
 20
283.4969265357345
 30
0.0
 10
420.6664693738001
 20
283.4586283848294
 30
0.0
 10
420.6744676989173
 20
283.4372451768692
 30
0.0
 10
420.68736638441
 20
283.4113885156798
 30
0.0
 10
420.6918239261029
 20
283.4038003981366
 30
0.0
 10
420.7009885660208
 20
283.3908017240145
 30
0.0
 10
420.7104092630564
 20
283.3799587555384
 30
0.0
 10
420.7203388317749
 20
283.3733998997917
 30
0.0
 10
420.7305237187909
 20
283.3689905296743
 30
0.0
 10
420.7357516681228
 20
283.3678610136051
 30
0.0
 10
420.7517651246367
 20
283.367737281809
 30
0.0
 10
420.7628491725637
 20
283.3719828012909
 30
0.0
 10
420.7800859339658
 20
283.3848226827479
 30
0.0
 10
420.7859429520597
 20
283.390194927101
 30
0.0
 10
420.7978106267206
 20
283.403069654557
 30
0.0
 10
420.8098276833973
 20
283.4180621830579
 30
0.0
 10
420.8221419339181
 20
283.4372680529765
 30
0.0
 10
420.8346054652749
 20
283.4585902895068
 30
0.0
 10
420.8409218205131
 20
283.4703308214944
 30
0.0
 10
420.8599972718402
 20
283.5085633990683
 30
0.0
 10
420.8728933781963
 20
283.5380621518724
 30
0.0
 10
420.8925066868205
 20
283.5883357027245
 30
0.0
 10
420.8990979484441
 20
283.6061263806607
 30
0.0
 10
420.9122934718303
 20
283.6435230515962
 30
0.0
 10
420.9255163894378
 20
283.6827673770572
 30
0.0
 10
420.9387939301834
 20
283.7256958622771
 30
0.0
 10
420.95209897135
 20
283.7704791648526
 30
0.0
 10
420.9587695940864
 20
283.7938169767899
 30
0.0
 10
420.9786967465521
 20
283.8661822068722
 30
0.0
 10
420.9919092718638
 20
283.9176840631268
 30
0.0
 10
421.0116190384126
 20
283.9998540308227
 30
0.0
 10
421.0181676324126
 20
284.028056175611
 30
0.0
 10
421.0311446732347
 20
284.0857464552689
 30
0.0
 10
421.0375835590681
 20
284.1152773998939
 30
0.0
 10
421.0439728563268
 20
284.1454935136937
 30
0.0
  0
SPLINE
  5
1A3
330
1F
100
AcDbEntity
  8
1
100
AcDbSpline
210
0.0
220
0.0
230
1.0
 70
     8
 71
     3
 72
   116
 73
   112
 74
     0
 42
0.000000001
 43
0.0000000001
 40
0.0
 40
0.0
 40
0.0
 40
0.0
 40
0.0156250000000003
 40
0.0156250000000003
 40
0.0312500000000007
 40
0.046875000000001
 40
0.046875000000001
 40
0.0625000000000014
 40
0.0625000000000014
 40
0.0781250000000017
 40
0.0781250000000017
 40
0.0937500000000021
 40
0.0937500000000021
 40
0.1093750000000024
 40
0.1093750000000024
 40
0.1250000000000028
 40
0.1250000000000028
 40
0.1562500000000035
 40
0.1562500000000035
 40
0.1718750000000038
 40
0.1718750000000038
 40
0.1875000000000041
 40
0.1875000000000041
 40
0.2031250000000044
 40
0.2031250000000044
 40
0.2187500000000047
 40
0.2187500000000047
 40
0.2343750000000051
 40
0.2343750000000051
 40
0.2500000000000054
 40
0.2656250000000057
 40
0.2656250000000057
 40
0.2812500000000061
 40
0.2812500000000061
 40
0.2968750000000064
 40
0.2968750000000064
 40
0.3125000000000067
 40
0.3125000000000067
 40
0.3281250000000071
 40
0.3281250000000071
 40
0.3437500000000074
 40
0.3437500000000074
 40
0.3750000000000072
 40
0.3750000000000072
 40
0.3906250000000064
 40
0.3906250000000064
 40
0.4062500000000057
 40
0.4062500000000057
 40
0.4218750000000052
 40
0.4218750000000052
 40
0.4375000000000043
 40
0.4375000000000043
 40
0.4531250000000037
 40
0.4531250000000037
 40
0.4687500000000029
 40
0.4843750000000023
 40
0.4843750000000023
 40
0.5000000000000015
 40
0.5000000000000015
 40
0.5156250000000008
 40
0.5156250000000008
 40
0.5312500000000001
 40
0.5312500000000001
 40
0.5625000000000006
 40
0.5625000000000006
 40
0.5937500000000011
 40
0.5937500000000011
 40
0.609375000000001
 40
0.609375000000001
 40
0.6250000000000009
 40
0.6250000000000009
 40
0.6406250000000008
 40
0.6406250000000008
 40
0.6562500000000007
 40
0.6562500000000007
 40
0.6718750000000006
 40
0.6718750000000006
 40
0.6875000000000005
 40
0.7031250000000005
 40
0.7031250000000005
 40
0.7187500000000004
 40
0.7187500000000004
 40
0.7343750000000002
 40
0.7343750000000002
 40
0.7500000000000001
 40
0.7500000000000001
 40
0.7812500000000001
 40
0.7812500000000001
 40
0.8125000000000001
 40
0.8125000000000001
 40
0.8281250000000001
 40
0.8281250000000001
 40
0.8437500000000001
 40
0.8437500000000001
 40
0.8515625000000001
 40
0.8515625000000001
 40
0.8593750000000001
 40
0.8593750000000001
 40
0.875
 40
0.875
 40
0.9062499999999996
 40
0.9062499999999996
 40
0.9218749999999998
 40
0.9218749999999998
 40
0.9375
 40
0.9375
 40
0.953125
 40
0.953125
 40
0.9687500000000001
 40
0.9687500000000001
 40
1.0
 40
1.0
 40
1.0
 40
1.0
 10
421.0439728563268
 20
284.1454935136937
 30
0.0
 10
421.0478568639048
 20
284.1825352588774
 30
0.0
 10
421.0515673172218
 20
284.2206612913297
 30
0.0
 10
421.0585989758476
 20
284.2986841983453
 30
0.0
 10
421.0652278801764
 20
284.3783062883005
 30
0.0
 10
421.0710576546216
 20
284.4611014167213
 30
0.0
 10
421.0764851648262
 20
284.5454937822566
 30
0.0
 10
421.0789899594598
 20
284.5883790075101
 30
0.0
 10
421.0835619316894
 20
284.675119425103
 30
0.0
 10
421.0856329961476
 20
284.7190340459233
 30
0.0
 10
421.0893449314313
 20
284.8079529989958
 30
0.0
 10
421.0909872260213
 20
284.8530247305374
 30
0.0
 10
421.0938167199739
 20
284.943604267079
 30
0.0
 10
421.0950072992437
 20
284.9891766417426
 30
0.0
 10
421.0969423055206
 20
285.0808838515753
 30
0.0
 10
421.0976873953439
 20
285.1270836576351
 30
0.0
 10
421.0992422575351
 20
285.2660842982079
 30
0.0
 10
421.0993724339481
 20
285.3588123866651
 30
0.0
 10
421.0982162700164
 20
285.4979954617415
 30
0.0
 10
421.0976048624143
 20
285.5443075636069
 30
0.0
 10
421.0959403179105
 20
285.6362969647479
 30
0.0
 10
421.0948866724691
 20
285.682044955345
 30
0.0
 10
421.0923370063511
 20
285.7730479302149
 30
0.0
 10
421.0908377915088
 20
285.8183712521746
 30
0.0
 10
421.0874167440663
 20
285.9079037189213
 30
0.0
 10
421.0854939762011
 20
285.9521713357619
 30
0.0
 10
421.0812263183403
 20
286.0397148950951
 30
0.0
 10
421.078878378891
 20
286.0830410792815
 30
0.0
 10
421.0737703289656
 20
286.1684671536821
 30
0.0
 10
421.0682660238537
 20
286.2524214904778
 30
0.0
 10
421.061977107242
 20
286.3334616893928
 30
0.0
 10
421.0552941785451
 20
286.4130384818411
 30
0.0
 10
421.05176040331
 20
286.4520280861519
 30
0.0
 10
421.0443494055377
 20
286.527997905241
 30
0.0
 10
421.0404669716024
 20
286.565041569481
 30
0.0
 10
421.0323481899651
 20
286.6372461750498
 30
0.0
 10
421.0281044125052
 20
286.6724596184011
 30
0.0
 10
421.0193165665685
 20
286.7405415606857
 30
0.0
 10
421.0147687958585
 20
286.7734512828108
 30
0.0
 10
421.0053667590036
 20
286.8370170530389
 30
0.0
 10
421.0005075914036
 20
286.8677017614455
 30
0.0
 10
420.9854977642519
 20
286.9561517754828
 30
0.0
 10
420.9749838419893
 20
287.009952073626
 30
0.0
 10
420.9584530049146
 20
287.0829141810125
 30
0.0
 10
420.9528219346966
 20
287.1059053987641
 30
0.0
 10
420.941384968282
 20
287.1489715472605
 30
0.0
 10
420.9355699879951
 20
287.169087652188
 30
0.0
 10
420.9237465611251
 20
287.2064789905159
 30
0.0
 10
420.917727632863
 20
287.223778149225
 30
0.0
 10
420.9055708804174
 20
287.2552989682775
 30
0.0
 10
420.8994282805677
 20
287.2695419978741
 30
0.0
 10
420.887014845313
 20
287.2949982989048
 30
0.0
 10
420.8807389968724
 20
287.3062191514273
 30
0.0
 10
420.8680788827338
 20
287.325560106927
 30
0.0
 10
420.8553589931481
 20
287.3417313530487
 30
0.0
 10
420.8425202640596
 20
287.3516009033499
 30
0.0
 10
420.8296216132997
 20
287.35829299046
 30
0.0
 10
420.8231480788742
 20
287.3600404055833
 30
0.0
 10
420.8102358518131
 20
287.3603214760599
 30
0.0
 10
420.8037857091186
 20
287.3588622680162
 30
0.0
 10
420.7908974115326
 20
287.3527320055542
 30
0.0
 10
420.7844476081345
 20
287.3480466863238
 30
0.0
 10
420.765238174042
 20
287.3292205031456
 30
0.0
 10
420.7525928730612
 20
287.3103351868032
 30
0.0
 10
420.7276746814931
 20
287.2598312076194
 30
0.0
 10
420.7155285311741
 20
287.2284777284091
 30
0.0
 10
420.6977796611648
 20
287.172277001202
 30
0.0
 10
420.6919458735297
 20
287.1520130615642
 30
0.0
 10
420.6805258497468
 20
287.1087179809489
 30
0.0
 10
420.6749282520053
 20
287.0856525442931
 30
0.0
 10
420.6639585041059
 20
287.036678067162
 30
0.0
 10
420.6585763954654
 20
287.0107140282769
 30
0.0
 10
420.6481067803176
 20
286.9562446585098
 30
0.0
 10
420.643016402938
 20
286.927735465577
 30
0.0
 10
420.6331236301235
 20
286.8681758153351
 30
0.0
 10
420.6283197759646
 20
286.8371152559504
 30
0.0
 10
420.6190093647685
 20
286.7724645539475
 30
0.0
 10
420.6100451124958
 20
286.7056264625464
 30
0.0
 10
420.6017669630106
 20
286.6344528655094
 30
0.0
 10
420.593833815178
 20
286.5610991919043
 30
0.0
 10
420.5900415435859
 20
286.5233352648548
 30
0.0
 10
420.5828620298982
 20
286.4462169369898
 30
0.0
 10
420.5794667452913
 20
286.4067912511415
 30
0.0
 10
420.5730649855296
 20
286.3262074372384
 30
0.0
 10
420.570053264187
 20
286.2849656588325
 30
0.0
 10
420.5616586416805
 20
286.1593673520064
 30
0.0
 10
420.5569076472174
 20
286.0731449675608
 30
0.0
 10
420.5491000261976
 20
285.8957094506467
 30
0.0
 10
420.5460889758833
 20
285.805531742878
 30
0.0
 10
420.5428990212746
 20
285.6680990192275
 30
0.0
 10
420.5420586640519
 20
285.6219190781365
 30
0.0
 10
420.540834472193
 20
285.5295448717953
 30
0.0
 10
420.5404482746318
 20
285.4832619888101
 30
0.0
 10
420.5402068328663
 20
285.4136944156276
 30
0.0
 10
420.5401827125081
 20
285.390481328102
 30
0.0
 10
420.5402476430195
 20
285.344007168998
 30
0.0
 10
420.540336932376
 20
285.3207390004204
 30
0.0
 10
420.5407721771519
 20
285.2512636061746
 30
0.0
 10
420.5412852143793
 20
285.205251533954
 30
0.0
 10
420.5434760693306
 20
285.068106801445
 30
0.0
 10
420.5458026410124
 20
284.9778615363939
 30
0.0
 10
420.5505812292991
 20
284.8442564235029
 30
0.0
 10
420.5523896346015
 20
284.8000162147844
 30
0.0
 10
420.5564450966605
 20
284.7121358048024
 30
0.0
 10
420.5586977354601
 20
284.6684178934588
 30
0.0
 10
420.5635976648554
 20
284.5825405653229
 30
0.0
 10
420.5662490258784
 20
284.5402740528949
 30
0.0
 10
420.5719526014603
 20
284.4570788596041
 30
0.0
 10
420.5750087930799
 20
284.4161016009616
 30
0.0
 10
420.5847575504229
 20
284.2955241289475
 30
0.0
 10
420.5919878019191
 20
284.2187253561559
 30
0.0
 10
420.5999452033195
 20
284.1454935137132
 30
0.0
  0
SPLINE
  5
1A4
330
1F
100
AcDbEntity
  8
1
100
AcDbSpline
210
0.0
220
0.0
230
1.0
 70
     8
 71
     3
 72
     8
 73
     4
 74
     0
 42
0.000000001
 43
0.0000000001
 40
0.0
 40
0.0
 40
0.0
 40
0.0
 40
1.0
 40
1.0
 40
1.0
 40
1.0
 10
407.8066087032011
 20
295.274629343459
 30
0.0
 10
407.7771552085759
 20
295.2922235600461
 30
0.0
 10
407.7482394358912
 20
295.3105323807069
 30
0.0
 10
407.7198984654493
 20
295.3296120561334
 30
0.0
  0
SPLINE
  5
1A5
330
1F
100
AcDbEntity
  8
1
100
AcDbSpline
210
0.0
220
0.0
230
1.0
 70
     8
 71
     3
 72
    15
 73
    11
 74
     0
 42
0.000000001
 43
0.0000000001
 40
0.0
 40
0.0
 40
0.0
 40
0.0
 40
0.5000000000000091
 40
0.5000000000000091
 40
0.6250000000000114
 40
0.6875000000000096
 40
0.6875000000000096
 40
0.7500000000000077
 40
0.7500000000000077
 40
1.0
 40
1.0
 40
1.0
 40
1.0
 10
296.2397155210464
 20
273.9178335624454
 30
0.0
 10
296.5076918379669
 20
273.9148096323567
 30
0.0
 10
296.7808907351638
 20
273.9131587653647
 30
0.0
 10
297.1292677642883
 20
273.9118904735095
 30
0.0
 10
297.2342986376418
 20
273.9115730320794
 30
0.0
 10
297.3401220445843
 20
273.9113347599172
 30
0.0
 10
297.4108491526779
 20
273.9111922613911
 30
0.0
 10
297.4462956639559
 20
273.9111292006096
 30
0.0
 10
297.6231878551899
 20
273.9108529619008
 30
0.0
 10
297.7642400243917
 20
273.9107526822423
 30
0.0
 10
297.9048419452959
 20
273.9107526822423
 30
0.0
  0
SPLINE
  5
1A6
330
1F
100
AcDbEntity
  8
1
100
AcDbSpline
210
0.0
220
0.0
230
1.0
 70
     8
 71
     3
 72
     8
 73
     4
 74
     0
 42
0.000000001
 43
0.0000000001
 40
0.0
 40
0.0
 40
0.0
 40
0.0
 40
1.0
 40
1.0
 40
1.0
 40
1.0
 10
414.4946255121382
 20
292.8537541619584
 30
0.0
 10
414.2902195021999
 20
292.8505338413668
 30
0.0
 10
414.0852888914471
 20
292.8505791396917
 30
0.0
 10
413.8798419452958
 20
292.8539981251704
 30
0.0
  0
SPLINE
  5
1A7
330
1F
100
AcDbEntity
  8
1
100
AcDbSpline
210
0.0
220
0.0
230
1.0
 70
     8
 71
     3
 72
    10
 73
     6
 74
     0
 42
0.000000001
 43
0.0000000001
 40
0.0
 40
0.0
 40
0.0
 40
0.0
 40
0.5
 40
0.5
 40
1.0
 40
1.0
 40
1.0
 40
1.0
 10
311.1085459298064
 20
274.0174457288824
 30
0.0
 10
308.9117434494827
 20
273.9725064467216
 30
0.0
 10
306.7134207450442
 20
273.9425608875748
 30
0.0
 10
302.3125685602014
 20
273.9085802167561
 30
0.0
 10
300.1100392072733
 20
273.9045398436607
 30
0.0
 10
297.9048419452959
 20
273.9107526822423
 30
0.0
  0
SPLINE
  5
1A8
330
1F
100
AcDbEntity
  8
1
100
AcDbSpline
210
0.0
220
0.0
230
1.0
 70
     8
 71
     3
 72
     8
 73
     4
 74
     0
 42
0.000000001
 43
0.0000000001
 40
0.0
 40
0.0
 40
0.0
 40
0.0
 40
1.0
 40
1.0
 40
1.0
 40
1.0
 10
413.8798419452958
 20
291.287362578523
 30
0.0
 10
414.1031352977026
 20
291.2854751871704
 30
0.0
 10
414.3257271492322
 20
291.2914655870401
 30
0.0
 10
414.5476049419073
 20
291.3052849280857
 30
0.0
  0
SPLINE
  5
1A9
330
1F
100
AcDbEntity
  8
1
100
AcDbSpline
210
0.0
220
0.0
230
1.0
 70
    24
 71
     3
 72
    22
 73
    18
 74
     0
 42
0.000000001
 43
0.0000000001
 40
0.0
 40
0.0
 40
0.0
 40
0.0
 40
0.1255692282749565
 40
0.1255692282749565
 40
0.251138456549913
 40
0.251138456549913
 40
0.3767076848248694
 40
0.3767076848248694
 40
0.502276913099826
 40
0.502276913099826
 40
0.6278461413747824
 40
0.6278461413747824
 40
0.7534153696497389
 40
0.7534153696497389
 40
0.8789845979246953
 40
0.8789845979246953
 40
1.0
 40
1.0
 40
1.0
 40
1.0
 10
413.8798419452958
 20
292.8539981251704
 30
0.0
 10
413.8798419452958
 20
292.6615010688618
 30
0.0
 10
413.8798419452958
 20
292.4826165521828
 30
0.0
 10
413.8798419452958
 20
292.1544168870826
 30
0.0
 10
413.8798419452958
 20
292.0051026812044
 30
0.0
 10
413.8798419452958
 20
291.7380022916422
 30
0.0
 10
413.8798419452958
 20
291.6202168750329
 30
0.0
 10
413.8798419452958
 20
291.4177191809194
 30
0.0
 10
413.8798419452958
 20
291.33300748496
 30
0.0
 10
413.8798419452958
 20
291.1977685455191
 30
0.0
 10
413.8798419452958
 20
291.1472416904246
 30
0.0
 10
413.8798419452958
 20
291.081035366016
 30
0.0
 10
413.8798419452958
 20
291.065356086837
 30
0.0
 10
413.8798419452958
 20
291.0690507721325
 30
0.0
 10
413.8798419452957
 20
291.0884247259963
 30
0.0
 10
413.8798419452957
 20
291.1606383474485
 30
0.0
 10
413.8798419452958
 20
291.2122386889487
 30
0.0
 10
413.8798419452958
 20
291.2796816330384
 30
0.0
  0
SPLINE
  5
1AA
330
1F
100
AcDbEntity
  8
1
100
AcDbSpline
210
0.0
220
0.0
230
1.0
 70
     8
 71
     3
 72
    24
 73
    20
 74
     0
 42
0.000000001
 43
0.0000000001
 40
0.0
 40
0.0
 40
0.0
 40
0.0
 40
0.1250000000000013
 40
0.1250000000000013
 40
0.2500000000000027
 40
0.2500000000000027
 40
0.3750000000000039
 40
0.3750000000000039
 40
0.5000000000000054
 40
0.5000000000000054
 40
0.6250000000000067
 40
0.6250000000000067
 40
0.7500000000000081
 40
0.7500000000000081
 40
0.8750000000000095
 40
0.8750000000000095
 40
0.9375000000000047
 40
0.9375000000000047
 40
1.0
 40
1.0
 40
1.0
 40
1.0
 10
408.6107181843174
 20
294.8323357040433
 30
0.0
 10
408.8152333018646
 20
294.7033420522377
 30
0.0
 10
409.0207932685723
 20
294.5802948148137
 30
0.0
 10
409.4343977658991
 20
294.345610444332
 30
0.0
 10
409.6424411134134
 20
294.2339736904084
 30
0.0
 10
410.0615089404395
 20
294.0218577904864
 30
0.0
 10
410.2725317652369
 20
293.9213782149538
 30
0.0
 10
410.6982003359141
 20
293.7315527006624
 30
0.0
 10
410.9128436441621
 20
293.6422053781818
 30
0.0
 10
411.3466002043256
 20
293.4748753399448
 30
0.0
 10
411.565709726024
 20
293.3968898828953
 30
0.0
 10
412.0095412145651
 20
293.2528294518712
 30
0.0
 10
412.2342572926233
 20
293.1867495469132
 30
0.0
 10
412.6908802750929
 20
293.0674722301393
 30
0.0
 10
412.9227776407678
 20
293.0142660624663
 30
0.0
 10
413.2776960533007
 20
292.9453155934063
 30
0.0
 10
413.3968874998783
 20
292.9242087011914
 30
0.0
 10
413.6369520061833
 20
292.8860278161508
 30
0.0
 10
413.757878526553
 20
292.8689429986119
 30
0.0
 10
413.8798419452959
 20
292.8539981251704
 30
0.0
  0
SPLINE
  5
1AB
330
1F
100
AcDbEntity
  8
1
100
AcDbSpline
210
0.0
220
0.0
230
1.0
 70
     8
 71
     3
 72
     8
 73
     4
 74
     0
 42
0.000000001
 43
0.0000000001
 40
0.0
 40
0.0
 40
0.0
 40
0.0
 40
1.0
 40
1.0
 40
1.0
 40
1.0
 10
292.2225072375907
 20
285.4551982492239
 30
0.0
 10
291.8892186369884
 20
285.5671856967005
 30
0.0
 10
291.5499064406883
 20
285.6671318118085
 30
0.0
 10
291.2038318185191
 20
285.7532653423459
 30
0.0
  0
SPLINE
  5
1AC
330
1F
100
AcDbEntity
  8
1
100
AcDbSpline
210
0.0
220
0.0
230
1.0
 70
     8
 71
     3
 72
    42
 73
    38
 74
     0
 42
0.000000001
 43
0.0000000001
 40
0.0
 40
0.0
 40
0.0
 40
0.0
 40
0.1250000000000279
 40
0.1250000000000279
 40
0.2500000000000558
 40
0.2500000000000558
 40
0.3750000000000837
 40
0.3750000000000837
 40
0.5000000000001116
 40
0.5000000000001116
 40
0.5625000000001072
 40
0.5625000000001072
 40
0.6250000000001026
 40
0.6250000000001026
 40
0.6875000000000982
 40
0.6875000000000982
 40
0.7500000000000937
 40
0.7500000000000937
 40
0.7812500000000925
 40
0.7812500000000925
 40
0.8125000000000913
 40
0.8125000000000913
 40
0.8281250000000973
 40
0.8281250000000973
 40
0.8437500000001028
 40
0.8437500000001028
 40
0.8750000000001145
 40
0.8750000000001145
 40
0.8906250000001008
 40
0.8906250000001008
 40
0.9062500000000872
 40
0.9062500000000872
 40
0.9375000000000579
 40
0.9375000000000579
 40
0.9687500000000291
 40
0.9687500000000291
 40
1.0
 40
1.0
 40
1.0
 40
1.0
 10
407.7198984654494
 20
295.3296120561336
 30
0.0
 10
407.6844092150703
 20
295.353504088333
 30
0.0
 10
407.6498578255918
 20
295.3783032842552
 30
0.0
 10
407.5828259414181
 20
295.429918106586
 30
0.0
 10
407.5503423903294
 20
295.4567308492539
 30
0.0
 10
407.4877985981903
 20
295.5127220972708
 30
0.0
 10
407.457730561528
 20
295.5418932842206
 30
0.0
 10
407.4006769403438
 20
295.6032386256044
 30
0.0
 10
407.3736664231857
 20
295.6353894451254
 30
0.0
 10
407.3365024037432
 20
295.6868573632756
 30
0.0
 10
407.3246745242291
 20
295.7045682197614
 30
0.0
 10
407.3025331509497
 20
295.7413915123829
 30
0.0
 10
407.2923667827843
 20
295.7602554112385
 30
0.0
 10
407.2743979461341
 20
295.7991545603683
 30
0.0
 10
407.2665727070503
 20
295.8192141648701
 30
0.0
 10
407.254334252265
 20
295.8608611966424
 30
0.0
 10
407.250013260501
 20
295.8820845119891
 30
0.0
 10
407.2474409920761
 20
295.9147703776117
 30
0.0
 10
407.2472475359556
 20
295.925878292473
 30
0.0
 10
407.2485196487069
 20
295.9481204485903
 30
0.0
 10
407.2499723686242
 20
295.9591716948606
 30
0.0
 10
407.2535735664436
 20
295.9756241969699
 30
0.0
 10
407.2550116353906
 20
295.9810875733142
 30
0.0
 10
407.2584057985561
 20
295.9919685194812
 30
0.0
 10
407.2603748151408
 20
295.9974127443213
 30
0.0
 10
407.2669918703679
 20
296.0133496873703
 30
0.0
 10
407.2723591075619
 20
296.0235152213791
 30
0.0
 10
407.2818444727559
 20
296.0380723332144
 30
0.0
 10
407.2852455600593
 20
296.0428094043783
 30
0.0
 10
407.2925289938549
 20
296.05205131777
 30
0.0
 10
407.2964319690235
 20
296.0565757538567
 30
0.0
 10
407.3086284449154
 20
296.0695549267624
 30
0.0
 10
407.317444387003
 20
296.077481489732
 30
0.0
 10
407.3362515085713
 20
296.0920874478492
 30
0.0
 10
407.3462936179758
 20
296.0987894116544
 30
0.0
 10
407.3669932249734
 20
296.1108728079024
 30
0.0
 10
407.3776838925579
 20
296.1162884948308
 30
0.0
 10
407.3886559536951
 20
296.1211873941428
 30
0.0
  0
SPLINE
  5
1AD
330
1F
100
AcDbEntity
  8
1
100
AcDbSpline
210
0.0
220
0.0
230
1.0
 70
    12
 71
     2
 72
     6
 73
     3
 74
     0
 42
0.000000001
 43
0.0000000001
 40
0.0
 40
0.0
 40
0.0
 40
1.0
 40
1.0
 40
1.0
 10
300.2416071956746
 20
282.9273304450478
 30
0.0
 41
0.5000000070391915
 10
300.2427114773707
 20
282.9308036683234
 30
0.0
 41
0.4999999929608085
 10
300.2438155830777
 20
282.9342776536668
 30
0.0
 41
0.5000000070391915
  0
SPLINE
  5
1AE
330
1F
100
AcDbEntity
  8
1
100
AcDbSpline
210
0.0
220
0.0
230
1.0
 70
     8
 71
     3
 72
    10
 73
     6
 74
     0
 42
0.000000001
 43
0.0000000001
 40
0.0
 40
0.0
 40
0.0
 40
0.0
 40
0.5
 40
0.5
 40
1.0
 40
1.0
 40
1.0
 40
1.0
 10
407.8660225697761
 20
292.6345011452383
 30
0.0
 10
407.6119974051165
 20
292.7618675774464
 30
0.0
 10
407.3565601846976
 20
292.8922388223564
 30
0.0
 10
406.8433001756683
 20
293.158057730411
 30
0.0
 10
406.5854757432746
 20
293.2935088914774
 30
0.0
 10
406.3266182538576
 20
293.4311583671964
 30
0.0
  0
SPLINE
  5
1AF
330
1F
100
AcDbEntity
  8
1
100
AcDbSpline
210
0.0
220
0.0
230
1.0
 70
     8
 71
     3
 72
    30
 73
    26
 74
     0
 42
0.000000001
 43
0.0000000001
 40
0.0
 40
0.0
 40
0.0
 40
0.0
 40
0.0260530825416273
 40
0.0260530825416273
 40
0.1072153256631583
 40
0.1072153256631583
 40
0.1883775687846893
 40
0.1883775687846893
 40
0.2695398119062203
 40
0.2695398119062203
 40
0.3507020550277513
 40
0.3507020550277513
 40
0.4318642981492826
 40
0.4318642981492826
 40
0.5130265412708135
 40
0.5130265412708135
 40
0.5941887843923445
 40
0.5941887843923445
 40
0.6753510275138755
 40
0.6753510275138755
 40
0.7565132706354065
 40
0.7565132706354065
 40
0.8376755137569375
 40
0.8376755137569375
 40
1.0
 40
1.0
 40
1.0
 40
1.0
 10
344.8023434021936
 20
276.7212053668998
 30
0.0
 10
344.5087563435293
 20
276.6847099438698
 30
0.0
 10
344.2151835208809
 20
276.6485592478467
 30
0.0
 10
343.0071091018982
 20
276.5012099883252
 30
0.0
 10
342.092715393391
 20
276.3930419531603
 30
0.0
 10
340.2641284815683
 20
276.1834695040936
 30
0.0
 10
339.3499565712092
 20
276.0820038496059
 30
0.0
 10
337.522054742716
 20
275.8852238537633
 30
0.0
 10
336.6083253441917
 20
275.7899094458072
 30
0.0
 10
334.7814729311131
 20
275.6051843859944
 30
0.0
 10
333.8683503103233
 20
275.5157742617511
 30
0.0
 10
332.0428262862692
 20
275.3428468546832
 30
0.0
 10
331.1304251283155
 20
275.2593306474763
 30
0.0
 10
329.3063996444401
 20
275.0983925177991
 30
0.0
 10
328.3947754075782
 20
275.0209721193311
 30
0.0
 10
326.572295129499
 20
274.8725999771914
 30
0.0
 10
325.6614390275868
 20
274.8016500650126
 30
0.0
 10
323.8404217448145
 20
274.6667152769691
 30
0.0
 10
322.9302603719652
 20
274.6027323764515
 30
0.0
 10
321.1104985068682
 20
274.4822922499511
 30
0.0
 10
320.200897718272
 20
274.4258369775934
 30
0.0
 10
318.3820696520585
 20
274.3210174275519
 30
0.0
 10
317.4728420052121
 20
274.2726549331318
 30
0.0
 10
314.7453734470039
 20
274.1404740277815
 30
0.0
 10
312.9273551093514
 20
274.0696372481538
 30
0.0
 10
311.1085459298063
 20
274.0174457288824
 30
0.0
  0
SPLINE
  5
1B0
330
1F
100
AcDbEntity
  8
1
100
AcDbSpline
210
0.0
220
0.0
230
1.0
 70
     8
 71
     3
 72
    26
 73
    22
 74
     0
 42
0.000000001
 43
0.0000000001
 40
0.0
 40
0.0
 40
0.0
 40
0.0
 40
0.1176816720575885
 40
0.1176816720575885
 40
0.2353633441151769
 40
0.2353633441151769
 40
0.3530450161727654
 40
0.3530450161727654
 40
0.470726688230354
 40
0.470726688230354
 40
0.5295675242591481
 40
0.5295675242591481
 40
0.5884083602879424
 40
0.5884083602879424
 40
0.7060900323455315
 40
0.7060900323455315
 40
0.8237717044031207
 40
0.8237717044031207
 40
0.9414533764607098
 40
0.9414533764607098
 40
1.0
 40
1.0
 40
1.0
 40
1.0
 10
311.1085459298064
 20
274.0174457288823
 30
0.0
 10
312.1289275207535
 20
274.1347567242752
 30
0.0
 10
313.1492402379857
 20
274.2595015074899
 30
0.0
 10
315.1905751466508
 20
274.5215529808077
 30
0.0
 10
316.2115988947178
 20
274.658857999353
 30
0.0
 10
318.2551774546524
 20
274.9430820826389
 30
0.0
 10
319.2777342404765
 20
275.0899962236541
 30
0.0
 10
321.3251196965556
 20
275.3899409258627
 30
0.0
 10
322.3499507525677
 20
275.5429613699583
 30
0.0
 10
323.8893471131508
 20
275.7742071317453
 30
0.0
 10
324.4028691876331
 20
275.8515782360807
 30
0.0
 10
325.4304406306347
 20
276.0063767081044
 30
0.0
 10
325.9445052654498
 20
276.0838056937859
 30
0.0
 10
327.4876034907716
 20
276.3155038993415
 30
0.0
 10
328.5175502437597
 20
276.469149508958
 30
0.0
 10
330.5800438103009
 20
276.7717885700567
 30
0.0
 10
331.6125917770705
 20
276.9207602744107
 30
0.0
 10
333.6801644333158
 20
277.2123809539809
 30
0.0
 10
334.715188056161
 20
277.3550191678083
 30
0.0
 10
336.2666705561608
 20
277.5640690683731
 30
0.0
 10
336.7823574090286
 20
277.6327693707297
 30
0.0
 10
337.2982566804686
 20
277.700855731771
 30
0.0
  0
SPLINE
  5
1B1
330
1F
100
AcDbEntity
  8
1
100
AcDbSpline
210
0.0
220
0.0
230
1.0
 70
     8
 71
     3
 72
     8
 73
     4
 74
     0
 42
0.000000001
 43
0.0000000001
 40
0.0
 40
0.0
 40
0.0
 40
0.0
 40
1.0
 40
1.0
 40
1.0
 40
1.0
 10
408.6107181843174
 20
294.8323357040432
 30
0.0
 10
408.3384909958706
 20
294.9696402846967
 30
0.0
 10
408.0705934943651
 20
295.1169364906903
 30
0.0
 10
407.8066087032012
 20
295.2746293434593
 30
0.0
  0
SPLINE
  5
1B2
330
1F
100
AcDbEntity
  8
1
100
AcDbSpline
210
0.0
220
0.0
230
1.0
 70
     8
 71
     3
 72
    45
 73
    41
 74
     0
 42
0.000000001
 43
0.0000000001
 40
0.0
 40
0.0
 40
0.0
 40
0.0
 40
0.1250000000000009
 40
0.1250000000000009
 40
0.2500000000000016
 40
0.2500000000000016
 40
0.312500000000002
 40
0.312500000000002
 40
0.3437500000000021
 40
0.3437500000000021
 40
0.3593750000000023
 40
0.3593750000000023
 40
0.3750000000000025
 40
0.4375000000000024
 40
0.4375000000000024
 40
0.5000000000000023
 40
0.5000000000000023
 40
0.5625000000000023
 40
0.5625000000000023
 40
0.6250000000000022
 40
0.6250000000000022
 40
0.6406250000000022
 40
0.6406250000000022
 40
0.6562500000000022
 40
0.6562500000000022
 40
0.6875000000000019
 40
0.6875000000000019
 40
0.7500000000000019
 40
0.7500000000000019
 40
0.8125000000000019
 40
0.8125000000000019
 40
0.8750000000000019
 40
0.8750000000000019
 40
0.8906250000000021
 40
0.8906250000000021
 40
0.9062500000000019
 40
0.9062500000000019
 40
0.9375000000000014
 40
0.9375000000000014
 40
1.0
 40
1.0
 40
1.0
 40
1.0
 10
281.3043368819074
 20
282.3741148055664
 30
0.0
 10
281.6027023025755
 20
282.6963650912256
 30
0.0
 10
281.9161390077005
 20
283.0005482816767
 30
0.0
 10
282.5747669653906
 20
283.5733693006234
 30
0.0
 10
282.9199403480964
 20
283.8420177305979
 30
0.0
 10
283.4638075378054
 20
284.2173795242372
 30
0.0
 10
283.6494607323984
 20
284.3378829650841
 30
0.0
 10
283.9349237653213
 20
284.5114252864295
 30
0.0
 10
284.0312431740201
 20
284.5680692794072
 30
0.0
 10
284.1775367106608
 20
284.6511809532397
 30
0.0
 10
284.2266371205224
 20
284.6785935777296
 30
0.0
 10
284.3251886778895
 20
284.7326465674969
 30
0.0
 10
284.5725454664951
 20
284.8659066789444
 30
0.0
 10
284.8248221047287
 20
284.9897968413142
 30
0.0
 10
285.2350157056006
 20
285.1757481657788
 30
0.0
 10
285.4433874594946
 20
285.2625886256042
 30
0.0
 10
285.8670282257594
 20
285.4234937012355
 30
0.0
 10
286.0822964649419
 20
285.4975602918367
 30
0.0
 10
286.5201890101817
 20
285.6321426093111
 30
0.0
 10
286.7428122032647
 20
285.692661342021
 30
0.0
 10
287.0260632209821
 20
285.7591402171235
 30
0.0
 10
287.0829624196762
 20
285.7719765320027
 30
0.0
 10
287.1972698691072
 20
285.7967084585777
 30
0.0
 10
287.2547315501613
 20
285.8086144963605
 30
0.0
 10
287.4275024524724
 20
285.8428086708495
 30
0.0
 10
287.5429844814064
 20
285.8635357104068
 30
0.0
 10
287.8903394949713
 20
285.9194173232534
 30
0.0
 10
288.123121308553
 20
285.9482826306166
 30
0.0
 10
288.5911372723853
 20
285.9885060116559
 30
0.0
 10
288.8263716235717
 20
285.9998653899545
 30
0.0
 10
289.2993224783435
 20
286.0040065560753
 30
0.0
 10
289.5370392627061
 20
285.9967902086374
 30
0.0
 10
289.8357512825657
 20
285.9752459092157
 30
0.0
 10
289.8955719602599
 20
285.9703098185647
 30
0.0
 10
290.0153700861308
 20
285.9591560036106
 30
0.0
 10
290.0754017231212
 20
285.9529315093456
 30
0.0
 10
290.2551677828249
 20
285.9323600421876
 30
0.0
 10
290.3746503185777
 20
285.9161135974948
 30
0.0
 10
290.7319788730937
 20
285.8596729932807
 30
0.0
 10
290.9687077097897
 20
285.8117847144754
 30
0.0
 10
291.2038318185191
 20
285.7532653423459
 30
0.0
  0
SPLINE
  5
1B3
330
1F
100
AcDbEntity
  8
1
100
AcDbSpline
210
0.0
220
0.0
230
1.0
 70
     8
 71
     3
 72
    24
 73
    20
 74
     0
 42
0.000000001
 43
0.0000000001
 40
0.0
 40
0.0
 40
0.0
 40
0.0
 40
0.1250000000000558
 40
0.1250000000000558
 40
0.2500000000001117
 40
0.2500000000001117
 40
0.3125000000001123
 40
0.3125000000001123
 40
0.3750000000001129
 40
0.3750000000001129
 40
0.5000000000001142
 40
0.5000000000001142
 40
0.7500000000000576
 40
0.7500000000000576
 40
0.8125000000000584
 40
0.8125000000000584
 40
0.8750000000000596
 40
0.8750000000000596
 40
1.0
 40
1.0
 40
1.0
 40
1.0
 10
415.7078704001802
 20
294.2146518121638
 30
0.0
 10
415.6626509820735
 20
294.1808680401081
 30
0.0
 10
415.6164498256989
 20
294.1492161839128
 30
0.0
 10
415.5220423652843
 20
294.0899462283862
 30
0.0
 10
415.4738368294903
 20
294.0623295141415
 30
0.0
 10
415.3999643201997
 20
294.0238727414186
 30
0.0
 10
415.3750790663194
 20
294.0115495799968
 30
0.0
 10
415.3247706173738
 20
293.9878970904418
 30
0.0
 10
415.2993024444564
 20
293.9765493127567
 30
0.0
 10
415.2224274567855
 20
293.9441637614746
 30
0.0
 10
415.1706177425091
 20
293.9247952340357
 30
0.0
 10
415.0132440880717
 20
293.8732017224875
 30
0.0
 10
414.9057649200807
 20
293.8474000177862
 30
0.0
 10
414.7668936081821
 20
293.8266653303984
 30
0.0
 10
414.7389859524732
 20
293.8231178345198
 30
0.0
 10
414.683185265351
 20
293.8172637948384
 30
0.0
 10
414.6552491811856
 20
293.8149506843986
 30
0.0
 10
414.5713333384821
 20
293.8098577702366
 30
0.0
 10
414.5152460435578
 20
293.8089229314493
 30
0.0
 10
414.4590135899504
 20
293.8104804324384
 30
0.0
  0
SPLINE
  5
1B4
330
1F
100
AcDbEntity
  8
1
100
AcDbSpline
210
0.0
220
0.0
230
1.0
 70
     8
 71
     3
 72
    23
 73
    19
 74
     0
 42
0.000000001
 43
0.0000000001
 40
0.0
 40
0.0
 40
0.0
 40
0.0
 40
0.2500000000000165
 40
0.2500000000000165
 40
0.3750000000000248
 40
0.3750000000000248
 40
0.4375000000000357
 40
0.4687500000000413
 40
0.4687500000000413
 40
0.5000000000000467
 40
0.5000000000000467
 40
0.7500000000000232
 40
0.7500000000000232
 40
0.8125000000000174
 40
0.8125000000000174
 40
0.8750000000000115
 40
0.8750000000000115
 40
1.0
 40
1.0
 40
1.0
 40
1.0
 10
414.4569126926937
 20
293.64361098227
 30
0.0
 10
413.9526750802711
 20
293.6258977818464
 30
0.0
 10
413.4509128082346
 20
293.6381252482993
 30
0.0
 10
412.7019048863281
 20
293.7003831175112
 30
0.0
 10
412.4528431846974
 20
293.7284752127273
 30
0.0
 10
412.0801673548657
 20
293.7816750162344
 30
0.0
 10
411.8940587756235
 20
293.811042151526
 30
0.0
 10
411.7082966284646
 20
293.8445867102251
 30
0.0
 10
411.5845325539151
 20
293.8678822067915
 30
0.0
 10
411.5226970728922
 20
293.8799952567279
 30
0.0
 10
410.9676660941429
 20
293.9929838568166
 30
0.0
 10
410.4828441315389
 20
294.1219306528944
 30
0.0
 10
409.8874198403523
 20
294.3183388633094
 30
0.0
 10
409.7688669676356
 20
294.359387482355
 30
0.0
 10
409.5328307775335
 20
294.4450311272594
 30
0.0
 10
409.4155623168113
 20
294.4895496003389
 30
0.0
 10
409.0663701552251
 20
294.6280102213113
 30
0.0
 10
408.8368945270536
 20
294.7269124279521
 30
0.0
 10
408.6107181843174
 20
294.8323357040432
 30
0.0
  0
SPLINE
  5
1B5
330
1F
100
AcDbEntity
  8
1
100
AcDbSpline
210
0.0
220
0.0
230
1.0
 70
     8
 71
     3
 72
    28
 73
    24
 74
     0
 42
0.000000001
 43
0.0000000001
 40
0.0
 40
0.0
 40
0.0
 40
0.0
 40
0.1250000000000113
 40
0.1250000000000113
 40
0.2500000000000225
 40
0.2500000000000225
 40
0.2812500000000254
 40
0.2812500000000254
 40
0.3125000000000282
 40
0.3750000000000339
 40
0.3750000000000339
 40
0.5000000000000453
 40
0.5000000000000453
 40
0.5312500000000425
 40
0.5312500000000425
 40
0.5625000000000397
 40
0.5625000000000397
 40
0.6250000000000339
 40
0.6250000000000339
 40
0.7500000000000227
 40
0.8750000000000113
 40
0.8750000000000113
 40
1.0
 40
1.0
 40
1.0
 40
1.0
 10
407.8723963719895
 20
292.4482092834227
 30
0.0
 10
408.1199511063034
 20
292.2921361010266
 30
0.0
 10
408.3729994990547
 20
292.1455257149712
 30
0.0
 10
408.8899659805576
 20
291.8713989349214
 30
0.0
 10
409.1538835648099
 20
291.7438812265408
 30
0.0
 10
409.4905948177432
 20
291.5966603675807
 30
0.0
 10
409.5583145519022
 20
291.5678109146952
 30
0.0
 10
409.6941862175859
 20
291.5114424947404
 30
0.0
 10
409.8986799089018
 20
291.4288666233001
 30
0.0
 10
410.1052209503564
 20
291.3522046104906
 30
0.0
 10
410.5210136335157
 20
291.2067491457419
 30
0.0
 10
410.8018189373661
 20
291.1202599525944
 30
0.0
 10
411.1573326921867
 20
291.0253448130888
 30
0.0
 10
411.2286611089166
 20
291.0070224084388
 30
0.0
 10
411.37177039454
 20
290.9717045187941
 30
0.0
 10
411.4434925891813
 20
290.9547244233418
 30
0.0
 10
411.6587502044358
 20
290.905906432459
 30
0.0
 10
411.8025387870968
 20
290.8761496207644
 30
0.0
 10
412.2347428365237
 20
290.7951432885617
 30
0.0
 10
412.8132477291623
 20
290.7091487477578
 30
0.0
 10
413.3961533189713
 20
290.666685404983
 30
0.0
 10
413.981269350407
 20
290.6461235261539
 30
0.0
 10
414.2749324662201
 20
290.6467921638187
 30
0.0
 10
414.5697279348247
 20
290.6586797448398
 30
0.0
  0
SPLINE
  5
1B6
330
1F
100
AcDbEntity
  8
1
100
AcDbSpline
210
0.0
220
0.0
230
1.0
 70
     8
 71
     3
 72
     8
 73
     4
 74
     0
 42
0.000000001
 43
0.0000000001
 40
0.0
 40
0.0
 40
0.0
 40
0.0
 40
1.0
 40
1.0
 40
1.0
 40
1.0
 10
414.4569126926936
 20
293.64361098227
 30
0.0
 10
414.4604704653298
 20
293.6437359621172
 30
0.0
 10
414.4640290712253
 20
293.643860536827
 30
0.0
 10
414.4675885115413
 20
293.6439847058347
 30
0.0
  0
SPLINE
  5
1B7
330
1F
100
AcDbEntity
  8
1
100
AcDbSpline
210
0.0
220
0.0
230
1.0
 70
     8
 71
     3
 72
    26
 73
    22
 74
     0
 42
0.000000001
 43
0.0000000001
 40
0.0
 40
0.0
 40
0.0
 40
0.0
 40
0.1250000000000027
 40
0.1250000000000027
 40
0.2500000000000054
 40
0.2500000000000054
 40
0.3125000000000069
 40
0.3125000000000069
 40
0.3750000000000083
 40
0.3750000000000083
 40
0.5000000000000235
 40
0.5000000000000235
 40
0.562500000000025
 40
0.562500000000025
 40
0.6250000000000267
 40
0.6250000000000267
 40
0.7500000000000178
 40
0.7500000000000178
 40
0.8750000000000088
 40
0.8750000000000088
 40
1.0
 40
1.0
 40
1.0
 40
1.0
 10
413.879841945296
 20
291.287362578523
 30
0.0
 10
413.6089754588648
 20
291.2912107166988
 30
0.0
 10
413.3402796543585
 20
291.3007440946026
 30
0.0
 10
412.8065305307514
 20
291.3320524370125
 30
0.0
 10
412.5414770497331
 20
291.3538300205987
 30
0.0
 10
412.1462168387458
 20
291.396400989965
 30
0.0
 10
412.0147203349114
 20
291.4122631783691
 30
0.0
 10
411.7536686340433
 20
291.4472392681761
 30
0.0
 10
411.6239890524147
 20
291.4663629613676
 30
0.0
 10
411.2372860804873
 20
291.5287361923257
 30
0.0
 10
410.9825896293122
 20
291.576984169934
 30
0.0
 10
410.6045819510661
 20
291.6597958194414
 30
0.0
 10
410.4792546077642
 20
291.6891405286112
 30
0.0
 10
410.2298713882072
 20
291.7513972781342
 30
0.0
 10
410.1061696456743
 20
291.7842168754307
 30
0.0
 10
409.7379036883085
 20
291.8878434400414
 30
0.0
 10
409.4961193558306
 20
291.9638394880528
 30
0.0
 10
409.0192995589638
 20
292.1301479503024
 30
0.0
 10
408.7842665617343
 20
292.2204592779987
 30
0.0
 10
408.3204927573328
 20
292.4160467658072
 30
0.0
 10
408.0917534627884
 20
292.5213212619751
 30
0.0
 10
407.8660225697896
 20
292.6345011452316
 30
0.0
  0
SPLINE
  5
1B8
330
1F
100
AcDbEntity
  8
1
100
AcDbSpline
210
0.0
220
0.0
230
1.0
 70
     8
 71
     3
 72
    14
 73
    10
 74
     0
 42
0.000000001
 43
0.0000000001
 40
0.0
 40
0.0
 40
0.0
 40
0.0
 40
0.25
 40
0.25
 40
0.5
 40
0.5
 40
0.75
 40
0.75
 40
1.0
 40
1.0
 40
1.0
 40
1.0
 10
281.3043368819074
 20
282.3741148055664
 30
0.0
 10
281.1347941501495
 20
282.1909997729392
 30
0.0
 10
280.9678973275912
 20
282.003293938919
 30
0.0
 10
280.6395983054129
 20
281.6180667393397
 30
0.0
 10
280.4781951042564
 20
281.420547728884
 30
0.0
 10
280.1611603356482
 20
281.0148755426522
 30
0.0
 10
280.0055271279061
 20
280.8067262240333
 30
0.0
 10
279.7004231939237
 20
280.3786969057256
 30
0.0
 10
279.5509496169879
 20
280.158823614153
 30
0.0
 10
279.4048419452959
 20
279.9323217480726
 30
0.0
  0
SPLINE
  5
1B9
330
1F
100
AcDbEntity
  8
1
100
AcDbSpline
210
0.0
220
0.0
230
1.0
 70
     8
 71
     3
 72
    19
 73
    15
 74
     0
 42
0.000000001
 43
0.0000000001
 40
0.0
 40
0.0
 40
0.0
 40
0.0
 40
0.2500000000000315
 40
0.2500000000000315
 40
0.5000000000000631
 40
0.5000000000000631
 40
0.5625000000000552
 40
0.5625000000000552
 40
0.6250000000000473
 40
0.7500000000000316
 40
0.7500000000000316
 40
0.8750000000000158
 40
0.8750000000000158
 40
1.0
 40
1.0
 40
1.0
 40
1.0
 10
414.4590135899508
 20
293.8104804324381
 30
0.0
 10
414.3591129840871
 20
293.8132474340973
 30
0.0
 10
414.2614883672006
 20
293.8236894405102
 30
0.0
 10
414.069599646334
 20
293.8586491216508
 30
0.0
 10
413.9753265060488
 20
293.8831680588477
 30
0.0
 10
413.8589805713818
 20
293.9227357210437
 30
0.0
 10
413.8357844660585
 20
293.9311021453087
 30
0.0
 10
413.7898897974558
 20
293.9486053285121
 30
0.0
 10
413.7216585802809
 20
293.9760610049944
 30
0.0
 10
413.6551925076843
 20
294.0070696832295
 30
0.0
 10
413.5680526643652
 20
294.0515505071807
 30
0.0
 10
413.5252239334211
 20
294.0753587667371
 30
0.0
 10
413.4409866223223
 20
294.1261595843844
 30
0.0
 10
413.3995785583262
 20
294.1531516008027
 30
0.0
 10
413.3588558492036
 20
294.1817994595601
 30
0.0
  0
SPLINE
  5
1BA
330
1F
100
AcDbEntity
  8
1
100
AcDbSpline
210
0.0
220
0.0
230
1.0
 70
     8
 71
     3
 72
    10
 73
     6
 74
     0
 42
0.000000001
 43
0.0000000001
 40
0.0
 40
0.0
 40
0.0
 40
0.0
 40
0.5
 40
0.5
 40
1.0
 40
1.0
 40
1.0
 40
1.0
 10
410.6239929407589
 20
299.4589425584451
 30
0.0
 10
410.5761765951335
 20
300.1854614534689
 30
0.0
 10
410.5337991769959
 20
300.9122953125713
 30
0.0
 10
410.4568954691006
 20
302.3664176835407
 30
0.0
 10
410.4223882360523
 20
303.0936661424848
 30
0.0
 10
410.3908172629789
 20
303.8210502551631
 30
0.0
  0
SPLINE
  5
1BB
330
1F
100
AcDbEntity
  8
1
100
AcDbSpline
210
0.0
220
0.0
230
1.0
 70
     8
 71
     3
 72
    44
 73
    40
 74
     0
 42
0.000000001
 43
0.0000000001
 40
0.0
 40
0.0
 40
0.0
 40
0.0
 40
0.0588650813345471
 40
0.0588650813345471
 40
0.1177301626690942
 40
0.1177301626690942
 40
0.1765952440036412
 40
0.1765952440036412
 40
0.2060277846709148
 40
0.2060277846709148
 40
0.2354603253381883
 40
0.2354603253381883
 40
0.2943254066727347
 40
0.2943254066727347
 40
0.3531904880072811
 40
0.3531904880072811
 40
0.4120555693418276
 40
0.4120555693418276
 40
0.4414881100091007
 40
0.4414881100091007
 40
0.4709206506763738
 40
0.4709206506763738
 40
0.5297857320109195
 40
0.5297857320109195
 40
0.5886508133454652
 40
0.5886508133454652
 40
0.7063809760145566
 40
0.7063809760145566
 40
0.7652460573491019
 40
0.7652460573491019
 40
0.8241111386836474
 40
0.8241111386836474
 40
0.8829762200181928
 40
0.8829762200181928
 40
0.9124087606854656
 40
0.9124087606854656
 40
0.9418413013527388
 40
0.9418413013527388
 40
1.0
 40
1.0
 40
1.0
 40
1.0
 10
410.390817262979
 20
303.8210502551446
 30
0.0
 10
409.271518456937
 20
303.8559986014549
 30
0.0
 10
408.148376594315
 20
303.8787559967982
 30
0.0
 10
405.8942446642825
 20
303.9056783581645
 30
0.0
 10
404.7632578536687
 20
303.9098559669596
 30
0.0
 10
402.4937722189451
 20
303.9046890226517
 30
0.0
 10
401.3552760013058
 20
303.8953510892493
 30
0.0
 10
399.6424520028227
 20
303.8742246220262
 30
0.0
 10
399.0706669682923
 20
303.8659871883145
 30
0.0
 10
397.9255333720698
 20
303.8475156107316
 30
0.0
 10
397.3521714905226
 20
303.8372808981679
 30
0.0
 10
395.6311200324089
 20
303.8040849511554
 30
0.0
 10
394.4820467921346
 20
303.7786640590533
 30
0.0
 10
392.1813018701779
 20
303.722901460861
 30
0.0
 10
391.0296312121231
 20
303.6925583287984
 30
0.0
 10
388.7246751214233
 20
303.627403794392
 30
0.0
 10
387.5713906106679
 20
303.5925918422419
 30
0.0
 10
385.8410952391787
 20
303.5364844000506
 30
0.0
 10
385.2642745302911
 20
303.5171175047002
 30
0.0
 10
384.1106394839184
 20
303.4769040261464
 30
0.0
 10
383.5338149963572
 20
303.4560703017515
 30
0.0
 10
381.8033416415098
 20
303.3913524742504
 30
0.0
 10
380.6496855639235
 20
303.3452543617471
 30
0.0
 10
378.3426889204593
 20
303.2468824080097
 30
0.0
 10
377.1893239502214
 20
303.1946062179991
 30
0.0
 10
373.7297720349827
 20
303.0279685797109
 30
0.0
 10
371.4241387596273
 20
302.9038115872784
 30
0.0
 10
367.9671524793979
 20
302.6954557665042
 30
0.0
 10
366.8150644894445
 20
302.6223147065018
 30
0.0
 10
364.5114178511979
 20
302.4681476210516
 30
0.0
 10
363.3599915018361
 20
302.3871343953674
 30
0.0
 10
361.0582488756549
 20
302.2166065282133
 30
0.0
 10
359.9078977690431
 20
302.1270963739598
 30
0.0
 10
358.1832889990268
 20
301.9857290150873
 30
0.0
 10
357.608573148417
 20
301.9374197642081
 30
0.0
 10
356.4594832487008
 20
301.8382569424253
 30
0.0
 10
355.8851141996687
 20
301.7873887110333
 30
0.0
 10
354.1763016864228
 20
301.6320885544528
 30
0.0
 10
353.0423500131129
 20
301.5238467904171
 30
0.0
 10
351.9089635111019
 20
301.4104636673761
 30
0.0
  0
SPLINE
  5
1BC
330
1F
100
AcDbEntity
  8
1
100
AcDbSpline
210
0.0
220
0.0
230
1.0
 70
    28
 71
     4
 72
    13
 73
     8
 74
     0
 42
0.000000001
 43
0.0000000001
 40
0.0
 40
0.0
 40
0.0
 40
0.0
 40
0.0
 40
0.221601951481036
 40
0.221601951481036
 40
0.221601951481036
 40
1.0
 40
1.0
 40
1.0
 40
1.0
 40
1.0
 10
297.9048419452959
 20
283.6395446822427
 30
0.0
 41
0.9999048536155511
 10
297.9048419452959
 20
283.1412987584263
 30
0.0
 41
0.9970687389522442
 10
297.9048419452959
 20
282.6042225656495
 30
0.0
 41
0.9937552806193256
 10
297.9048419452959
 20
282.0365049298443
 30
0.0
 41
0.9907338279193027
 10
297.9048419452959
 20
279.3612112167678
 30
0.0
 41
0.9800619505678142
 10
297.9048419452959
 20
277.0654949983035
 30
0.0
 41
0.9798556355516856
 10
297.9048419452959
 20
275.1635495898794
 30
0.0
 41
1.003548899203982
 10
297.9048419452959
 20
273.9107526822427
 30
0.0
 41
1.005314518343475
  0
SPLINE
  5
1BD
330
1F
100
AcDbEntity
  8
1
100
AcDbSpline
210
0.0
220
0.0
230
1.0
 70
     8
 71
     3
 72
    54
 73
    50
 74
     0
 42
0.000000001
 43
0.0000000001
 40
0.0
 40
0.0
 40
0.0
 40
0.0
 40
0.0624999999999999
 40
0.0624999999999999
 40
0.1249999999999996
 40
0.1249999999999996
 40
0.1562499999999994
 40
0.1562499999999994
 40
0.1874999999999993
 40
0.1874999999999993
 40
0.249999999999999
 40
0.249999999999999
 40
0.3124999999999988
 40
0.3124999999999988
 40
0.3437499999999988
 40
0.3437499999999988
 40
0.3749999999999988
 40
0.3749999999999988
 40
0.4062499999999988
 40
0.4062499999999988
 40
0.4218749999999988
 40
0.4218749999999988
 40
0.4374999999999988
 40
0.4374999999999988
 40
0.4687499999999988
 40
0.4687499999999988
 40
0.4999999999999988
 40
0.4999999999999988
 40
0.5312499999999986
 40
0.5312499999999986
 40
0.5624999999999986
 40
0.5624999999999986
 40
0.5937499999999984
 40
0.5937499999999984
 40
0.6249999999999984
 40
0.6249999999999984
 40
0.6562499999999984
 40
0.6562499999999984
 40
0.6874999999999984
 40
0.6874999999999984
 40
0.7499999999999986
 40
0.7499999999999986
 40
0.8124999999999989
 40
0.8124999999999989
 40
0.8749999999999992
 40
0.8749999999999992
 40
0.9374999999999996
 40
0.9374999999999996
 40
1.0
 40
1.0
 40
1.0
 40
1.0
 10
300.2416071956746
 20
282.9273304450479
 30
0.0
 10
302.3438576815032
 20
282.6169821655296
 30
0.0
 10
304.4457382165969
 20
282.3099304362788
 30
0.0
 10
308.6484877516338
 20
281.7013363701575
 30
0.0
 10
310.7493546258978
 20
281.3997778213275
 30
0.0
 10
313.8996108485302
 20
280.9506269753168
 30
0.0
 10
314.9495216081539
 20
280.801441536729
 30
0.0
 10
317.0489433939284
 20
280.504011248549
 30
0.0
 10
318.0982532131998
 20
280.3557941265532
 30
0.0
 10
321.2448029590273
 20
279.9125390007982
 30
0.0
 10
323.3406861739061
 20
279.6188428086072
 30
0.0
 10
327.5282742183595
 20
279.0354493922974
 30
0.0
 10
329.6199717214059
 20
278.7457284656674
 30
0.0
 10
332.7541503173809
 20
278.3158272340093
 30
0.0
 10
333.798317861429
 20
278.173324102467
 30
0.0
 10
335.8855404255406
 20
277.8904270817918
 30
0.0
 10
336.9285951841417
 20
277.7500329803481
 30
0.0
 10
339.0136345906333
 20
277.4720360802594
 30
0.0
 10
340.0556189943208
 20
277.3344334187735
 30
0.0
 10
341.6178591822904
 20
277.1307618044461
 30
0.0
 10
342.1384787942642
 20
277.0633129072877
 30
0.0
 10
343.1795132257674
 20
276.9295260803375
 30
0.0
 10
343.6999378007803
 20
276.8632203643605
 30
0.0
 10
345.2611334939301
 20
276.6667598751841
 30
0.0
 10
346.3018333182489
 20
276.5390998092607
 30
0.0
 10
348.3839510349725
 20
276.2931690834331
 30
0.0
 10
349.4253688308843
 20
276.17489243631
 30
0.0
 10
351.5096214306317
 20
275.9493392440912
 30
0.0
 10
352.5521668325536
 20
275.8420849873085
 30
0.0
 10
354.638324664215
 20
275.639343353574
 30
0.0
 10
355.6819849685015
 20
275.5438471715245
 30
0.0
 10
357.7708822359892
 20
275.3646543137306
 30
0.0
 10
358.8160825927042
 20
275.2808397941024
 30
0.0
 10
360.9077368576325
 20
275.1231965583765
 30
0.0
 10
361.9541922361772
 20
275.0493763574596
 30
0.0
 10
364.0482222661017
 20
274.9106625791235
 30
0.0
 10
365.0957982631153
 20
274.8457748502838
 30
0.0
 10
367.1920051003762
 20
274.7241484518177
 30
0.0
 10
368.2406370353998
 20
274.6674133610937
 30
0.0
 10
371.3880677027947
 20
274.5084781662204
 30
0.0
 10
373.4884106819679
 20
274.4175381813547
 30
0.0
 10
377.6929303827134
 20
274.2612225596514
 30
0.0
 10
379.7971095924078
 20
274.195838532619
 30
0.0
 10
384.0087242300597
 20
274.0867108917821
 30
0.0
 10
386.1155091555674
 20
274.042973216636
 30
0.0
 10
390.3302642990647
 20
273.9742192109893
 30
0.0
 10
392.4382828876273
 20
273.9492053651366
 30
0.0
 10
396.6550957140592
 20
273.9160958516571
 30
0.0
 10
398.7638917890831
 20
273.9079935137005
 30
0.0
 10
400.8727485531018
 20
273.9079935137005
 30
0.0
  0
SPLINE
  5
1BE
330
1F
100
AcDbEntity
  8
1
100
AcDbSpline
210
0.0
220
0.0
230
1.0
 70
     8
 71
     3
 72
    69
 73
    65
 74
     0
 42
0.000000001
 43
0.0000000001
 40
0.0
 40
0.0
 40
0.0
 40
0.0
 40
0.0189506049448187
 40
0.0189506049448187
 40
0.0843538979484973
 40
0.0843538979484973
 40
0.1170555444503367
 40
0.1170555444503367
 40
0.1497571909521761
 40
0.1497571909521761
 40
0.1824588374540156
 40
0.1824588374540156
 40
0.2151604839558549
 40
0.2151604839558549
 40
0.2478621304576944
 40
0.2478621304576944
 40
0.2805637769595337
 40
0.2805637769595337
 40
0.3132654234613732
 40
0.3132654234613732
 40
0.3459670699632126
 40
0.3459670699632126
 40
0.3786687164650521
 40
0.3786687164650521
 40
0.4113703629668917
 40
0.4113703629668917
 40
0.4440720094687311
 40
0.4440720094687311
 40
0.4767736559705705
 40
0.4767736559705705
 40
0.5094753024724099
 40
0.5094753024724099
 40
0.5421769489742492
 40
0.5421769489742492
 40
0.5748785954760886
 40
0.5748785954760886
 40
0.607580241977928
 40
0.607580241977928
 40
0.6402818884797674
 40
0.6402818884797674
 40
0.6729835349816068
 40
0.6729835349816068
 40
0.7056851814834461
 40
0.7056851814834461
 40
0.7383868279852855
 40
0.7383868279852855
 40
0.771088474487125
 40
0.771088474487125
 40
0.8037901209889643
 40
0.8037901209889643
 40
0.8364917674908035
 40
0.8364917674908035
 40
0.8691934139926429
 40
0.8691934139926429
 40
0.9018950604944823
 40
0.9018950604944823
 40
0.9182458837454019
 40
0.9182458837454019
 40
0.9345967069963217
 40
0.9345967069963217
 40
0.9509475302472415
 40
0.9672983534981611
 40
0.9672983534981611
 40
1.0
 40
1.0
 40
1.0
 40
1.0
 10
302.7465552315058
 20
303.9079923045197
 30
0.0
 10
303.4042753798863
 20
303.9080151548884
 30
0.0
 10
304.061733746034
 20
303.9070478512608
 30
0.0
 10
306.9871705944939
 20
303.8979001199608
 30
0.0
 10
309.2525047235584
 20
303.8777638940183
 30
0.0
 10
312.6476187828121
 20
303.8232368280633
 30
0.0
 10
313.7787746081232
 20
303.8010280142209
 30
0.0
 10
316.0398075594443
 20
303.7480467436257
 30
0.0
 10
317.1697506558059
 20
303.7172729378683
 30
0.0
 10
319.4287771841636
 20
303.6468679046728
 30
0.0
 10
320.5578610366664
 20
303.6072369105382
 30
0.0
 10
322.8154612530904
 20
303.5190423186481
 30
0.0
 10
323.943978112995
 20
303.4704796527505
 30
0.0
 10
326.200727038379
 20
303.3645459580474
 30
0.0
 10
327.3289595988528
 20
303.3071765180734
 30
0.0
 10
329.5853979598686
 20
303.1839148154867
 30
0.0
 10
330.7136041785
 20
303.1180246213755
 30
0.0
 10
332.9702092587453
 20
302.9781126036908
 30
0.0
 10
334.0986084180664
 20
302.9040930975304
 30
0.0
 10
336.355769285706
 20
302.7483526199313
 30
0.0
 10
337.4845311691187
 20
302.6666340263837
 30
0.0
 10
339.7425308243437
 20
302.4958934150837
 30
0.0
 10
340.8718318581906
 20
302.4068683681074
 30
0.0
 10
343.1305470933048
 20
302.2218446512819
 30
0.0
 10
344.2599787606726
 20
302.1258652851238
 30
0.0
 10
346.5185487939077
 20
301.925855976583
 30
0.0
 10
347.647686052247
 20
301.8218144944885
 30
0.0
 10
349.9054952648403
 20
301.6049830904825
 30
0.0
 10
351.0341684670093
 20
301.4921884265798
 30
0.0
 10
353.2911431108408
 20
301.2578327768338
 30
0.0
 10
354.4194831766255
 20
301.1362678489945
 30
0.0
 10
356.6759239820775
 20
300.8851183303425
 30
0.0
 10
357.8039701132452
 20
300.7555516143234
 30
0.0
 10
360.0601457114067
 20
300.4898272434551
 30
0.0
 10
361.1882773429406
 20
300.3536813355475
 30
0.0
 10
363.4449066383909
 20
300.0759106546036
 30
0.0
 10
364.5734031121363
 20
299.9342856397581
 30
0.0
 10
366.8308995814233
 20
299.6462617936235
 30
0.0
 10
367.9598985161604
 20
299.4998619392767
 30
0.0
 10
370.2184328203673
 20
299.2026278907951
 30
0.0
 10
371.3478483761934
 20
299.0518078770932
 30
0.0
 10
373.6068846875892
 20
298.7457874819079
 30
0.0
 10
374.7365146080514
 20
298.5905848130267
 30
0.0
 10
376.9959114899355
 20
298.2755252248184
 30
0.0
 10
378.1256783268659
 20
298.1156687656532
 30
0.0
 10
380.3852181901309
 20
297.7907562786139
 30
0.0
 10
381.5149916004235
 20
297.6257031326673
 30
0.0
 10
383.7743669267929
 20
297.2895315172073
 30
0.0
 10
384.9039436204218
 20
297.1184318906202
 30
0.0
 10
387.1622768063127
 20
296.7688711356812
 30
0.0
 10
388.2910567027736
 20
296.5903095762456
 30
0.0
 10
390.5475736844914
 20
296.2241409725802
 30
0.0
 10
391.6753072327009
 20
296.0365125376011
 30
0.0
 10
393.9297623556564
 20
295.6520082509373
 30
0.0
 10
395.0564795104693
 20
295.4551038418329
 30
0.0
 10
396.7461397581687
 20
295.1542105594522
 30
0.0
 10
397.3092943815957
 20
295.0530090367416
 30
0.0
 10
398.4355815734027
 20
294.8493041857733
 30
0.0
 10
398.9987228370567
 20
294.7467985125035
 30
0.0
 10
400.125022179365
 20
294.5412193564969
 30
0.0
 10
401.25135926141
 20
294.3350677218926
 30
0.0
 10
402.3781095597388
 20
294.1296635217008
 30
0.0
 10
404.0688529133563
 20
293.8238830588077
 30
0.0
 10
405.1968264257956
 20
293.6230417460621
 30
0.0
 10
406.3266182538576
 20
293.4311583671964
 30
0.0
  0
SPLINE
  5
1BF
330
1F
100
AcDbEntity
  8
1
100
AcDbSpline
210
0.0
220
0.0
230
1.0
 70
     8
 71
     3
 72
    42
 73
    38
 74
     0
 42
0.000000001
 43
0.0000000001
 40
0.0
 40
0.0
 40
0.0
 40
0.0
 40
0.1250000000000063
 40
0.1250000000000063
 40
0.2500000000000125
 40
0.2500000000000125
 40
0.2812500000000106
 40
0.2812500000000106
 40
0.3125000000000087
 40
0.3750000000000054
 40
0.3750000000000054
 40
0.5000000000000128
 40
0.5000000000000128
 40
0.5625000000000168
 40
0.5625000000000168
 40
0.6250000000000208
 40
0.6250000000000208
 40
0.6875000000000249
 40
0.6875000000000249
 40
0.703125000000023
 40
0.703125000000023
 40
0.7187500000000209
 40
0.7500000000000171
 40
0.7500000000000171
 40
0.8125000000000179
 40
0.8125000000000179
 40
0.843750000000015
 40
0.843750000000015
 40
0.875000000000012
 40
0.875000000000012
 40
0.9375000000000072
 40
0.9375000000000072
 40
0.9687500000000039
 40
0.9687500000000039
 40
0.9843750000000019
 40
0.9843750000000019
 40
1.0
 40
1.0
 40
1.0
 40
1.0
 10
407.3886559536951
 20
296.1211873941428
 30
0.0
 10
407.5753889029599
 20
296.2045615118445
 30
0.0
 10
407.7600280214274
 20
296.2920826523726
 30
0.0
 10
408.1243100647579
 20
296.4770203504552
 30
0.0
 10
408.3039596941319
 20
296.5744236291148
 30
0.0
 10
408.524669959034
 20
296.703806512755
 30
0.0
 10
408.5686460443053
 20
296.7300840494802
 30
0.0
 10
408.6560455257878
 20
296.7833679978671
 30
0.0
 10
408.7862495009854
 20
296.8643464734799
 30
0.0
 10
408.9136363231243
 20
296.9486371108846
 30
0.0
 10
409.1642210986256
 20
297.1221432906684
 30
0.0
 10
409.3257470029118
 20
297.2443164871552
 30
0.0
 10
409.5572549704536
 20
297.4402515066643
 30
0.0
 10
409.6326160795172
 20
297.5076891188149
 30
0.0
 10
409.7790992782639
 20
297.6475482107775
 30
0.0
 10
409.8502249468897
 20
297.7199654827825
 30
0.0
 10
409.9873852709391
 20
297.8707855941573
 30
0.0
 10
410.0534266617169
 20
297.9491805146876
 30
0.0
 10
410.1320263400864
 20
298.0518206514306
 30
0.0
 10
410.1475551607332
 20
298.0725947618875
 30
0.0
 10
410.1780186011863
 20
298.1143986192343
 30
0.0
 10
410.2228860074649
 20
298.1775696864193
 30
0.0
 10
410.2651794244145
 20
298.2421875943004
 30
0.0
 10
410.3460518414171
 20
298.3735112856676
 30
0.0
 10
410.3950367339717
 20
298.4638315980175
 30
0.0
 10
410.4596547218161
 20
298.6042919121865
 30
0.0
 10
410.4797124548841
 20
298.6519448228859
 30
0.0
 10
410.5165418632179
 20
298.7490977390276
 30
0.0
 10
410.5331141653006
 20
298.7980811772048
 30
0.0
 10
410.5770100520423
 20
298.9461700028758
 30
0.0
 10
410.5985495213722
 20
299.0464691819188
 30
0.0
 10
410.6180645021304
 20
299.1995238418212
 30
0.0
 10
410.62243367438
 20
299.2509770798601
 30
0.0
 10
410.6255962024694
 20
299.3288476531475
 30
0.0
 10
410.6260820974918
 20
299.3549047910855
 30
0.0
 10
410.6259004900231
 20
299.4069311798978
 30
0.0
 10
410.6252349707558
 20
299.4329393760865
 30
0.0
 10
410.6239929407589
 20
299.4589425584452
 30
0.0
  0
SPLINE
  5
1C0
330
1F
100
AcDbEntity
  8
1
100
AcDbSpline
210
0.0
220
0.0
230
1.0
 70
    12
 71
     3
 72
     9
 73
     5
 74
     0
 42
0.000000001
 43
0.0000000001
 40
0.0
 40
0.0
 40
0.0
 40
0.0
 40
0.3617108178686536
 40
1.0
 40
1.0
 40
1.0
 40
1.0
 10
370.8816613982794
 20
299.1147361801672
 30
0.0
 41
1.001056875974696
 10
375.6687241795299
 20
299.0972835739614
 30
0.0
 41
1.001408627484736
 10
388.8480225375133
 20
298.770227806375
 30
0.0
 41
1.003096971338017
 10
402.3023016454088
 20
298.4867663100548
 30
0.0
 41
1.000221689536131
 10
410.6239929407589
 20
299.4589425584451
 30
0.0
 41
1.001032004117189
  0
SPLINE
  5
1C1
330
1F
100
AcDbEntity
  8
1
100
AcDbSpline
210
0.0
220
0.0
230
1.0
 70
     8
 71
     3
 72
    14
 73
    10
 74
     0
 42
0.000000001
 43
0.0000000001
 40
0.0
 40
0.0
 40
0.0
 40
0.0
 40
0.25
 40
0.25
 40
0.5
 40
0.5
 40
0.75
 40
0.75
 40
1.0
 40
1.0
 40
1.0
 40
1.0
 10
279.4048419452957
 20
272.0937046842716
 30
0.0
 10
279.5528734780859
 20
272.0994387532796
 30
0.0
 10
279.7040821376286
 20
272.1151917311849
 30
0.0
 10
280.0118542522918
 20
272.16335303796
 30
0.0
 10
280.1684208151663
 20
272.1957730509844
 30
0.0
 10
280.4860722557956
 20
272.274668215001
 30
0.0
 10
280.6471587706523
 20
272.3211497315253
 30
0.0
 10
280.9730979374675
 20
272.4260517013458
 30
0.0
 10
281.1379513476286
 20
272.4844755714747
 30
0.0
 10
281.304336881917
 20
272.5479833299186
 30
0.0
  0
SPLINE
  5
1C2
330
1F
100
AcDbEntity
  8
1
100
AcDbSpline
210
0.0
220
0.0
230
1.0
 70
     8
 71
     3
 72
    28
 73
    24
 74
     0
 42
0.000000001
 43
0.0000000001
 40
0.0
 40
0.0
 40
0.0
 40
0.0
 40
0.1249999999999981
 40
0.1249999999999981
 40
0.2499999999999961
 40
0.2499999999999961
 40
0.281249999999996
 40
0.281249999999996
 40
0.3124999999999959
 40
0.3749999999999963
 40
0.3749999999999963
 40
0.499999999999997
 40
0.499999999999997
 40
0.6249999999999977
 40
0.6249999999999977
 40
0.7499999999999984
 40
0.7499999999999984
 40
0.8749999999999991
 40
0.8749999999999991
 40
0.9062499999999992
 40
0.9062499999999992
 40
0.9374999999999994
 40
1.0
 40
1.0
 40
1.0
 40
1.0
 10
288.2537052015608
 20
274.1207021652448
 30
0.0
 10
287.9163353808627
 20
274.0955332928315
 30
0.0
 10
287.5835545400155
 20
274.0631002611439
 30
0.0
 10
286.9270209013682
 20
273.9852633471282
 30
0.0
 10
286.6032703573757
 20
273.9398557042883
 30
0.0
 10
286.2043071276314
 20
273.8758155402885
 30
0.0
 10
286.1249099199435
 20
273.8626602638219
 30
0.0
 10
285.9670524722833
 20
273.835706836743
 30
0.0
 10
285.7315993097955
 20
273.7943005586353
 30
0.0
 10
285.5001194582564
 20
273.7500851037002
 30
0.0
 10
285.0424147954512
 20
273.658208819721
 30
0.0
 10
284.7442784046677
 20
273.5923675165981
 30
0.0
 10
284.1619648561427
 20
273.4529919910464
 30
0.0
 10
283.8777892266498
 20
273.3794550868307
 30
0.0
 10
283.323556609388
 20
273.2260934911962
 30
0.0
 10
283.0535002939785
 20
273.1462660527422
 30
0.0
 10
282.5278288486252
 20
272.9817312288113
 30
0.0
 10
282.2722137824885
 20
272.897020415089
 30
0.0
 10
281.9620178575206
 20
272.7890198219446
 30
0.0
 10
281.9004252692922
 20
272.7673073459
 30
0.0
 10
281.7782798920775
 20
272.7237322879743
 30
0.0
 10
281.5966831252366
 20
272.6581673259781
 30
0.0
 10
281.4199644301175
 20
272.592117253171
 30
0.0
 10
281.3043368819171
 20
272.5479833299189
 30
0.0
  0
SPLINE
  5
1C3
330
1F
100
AcDbEntity
  8
1
100
AcDbSpline
210
0.0
220
0.0
230
1.0
 70
     8
 71
     3
 72
    49
 73
    45
 74
     0
 42
0.000000001
 43
0.0000000001
 40
0.0
 40
0.0
 40
0.0
 40
0.0
 40
0.0624999999999997
 40
0.0624999999999997
 40
0.1249999999999994
 40
0.1249999999999994
 40
0.1874999999999992
 40
0.1874999999999992
 40
0.2187499999999991
 40
0.2187499999999991
 40
0.234374999999999
 40
0.234374999999999
 40
0.2499999999999989
 40
0.2499999999999989
 40
0.3124999999999989
 40
0.3749999999999988
 40
0.3749999999999988
 40
0.4374999999999988
 40
0.4374999999999988
 40
0.4687499999999986
 40
0.4687499999999986
 40
0.4999999999999984
 40
0.4999999999999984
 40
0.5624999999999978
 40
0.5624999999999978
 40
0.6249999999999973
 40
0.6874999999999967
 40
0.6874999999999967
 40
0.7031249999999969
 40
0.7031249999999969
 40
0.7187499999999972
 40
0.7499999999999977
 40
0.7499999999999977
 40
0.8124999999999989
 40
0.8124999999999989
 40
0.8750000000000005
 40
0.8750000000000005
 40
0.9062500000000007
 40
0.9062500000000007
 40
0.9218750000000007
 40
0.9218750000000007
 40
0.9375000000000007
 40
0.9375000000000007
 40
1.0
 40
1.0
 40
1.0
 40
1.0
 10
279.4048419452959
 20
279.9323217480726
 30
0.0
 10
279.2543869816419
 20
279.7705939813336
 30
0.0
 10
279.1123970876211
 20
279.6053298926376
 30
0.0
 10
278.8450155941943
 20
279.2682804858319
 30
0.0
 10
278.7196243308151
 20
279.0964944180425
 30
0.0
 10
278.485498592289
 20
278.7467612468935
 30
0.0
 10
278.376762908727
 20
278.5688140933129
 30
0.0
 10
278.2264954381064
 20
278.2974104217339
 30
0.0
 10
278.1785488597342
 20
278.2061939981032
 30
0.0
 10
278.109917721214
 20
278.0682508859182
 30
0.0
 10
278.0875811006136
 20
278.0220664328475
 30
0.0
 10
278.0440530014979
 20
277.929394403244
 30
0.0
 10
278.0229320986329
 20
277.8830580872618
 30
0.0
 10
277.92051703198
 20
277.6513884996944
 30
0.0
 10
277.7770268009597
 20
277.2808007547787
 30
0.0
 10
277.6735657210434
 20
276.9109612591569
 30
0.0
 10
277.5902375366662
 20
276.5417141286146
 30
0.0
 10
277.5586384149168
 20
276.3573865754958
 30
0.0
 10
277.5267971924649
 20
276.0814551494411
 30
0.0
 10
277.5187787258013
 20
275.9895428719956
 30
0.0
 10
277.5080706824018
 20
275.8060309091915
 30
0.0
 10
277.505422620227
 20
275.7151695680413
 30
0.0
 10
277.5054266773779
 20
275.4452185499117
 30
0.0
 10
277.5160112735402
 20
275.2687597660579
 30
0.0
 10
277.5578465025968
 20
274.9226441268496
 30
0.0
 10
277.6203506856045
 20
274.5833309564852
 30
0.0
 10
277.7241819358975
 20
274.2573204380215
 30
0.0
 10
277.8022925622
 20
274.0576607380216
 30
0.0
 10
277.8185583266566
 20
274.0179855306826
 30
0.0
 10
277.8522432551433
 20
273.9394358045847
 30
0.0
 10
277.904552415542
 20
273.8226798392789
 30
0.0
 10
277.9621374787657
 20
273.7090627232014
 30
0.0
 10
278.0842006803738
 20
273.485855500796
 30
0.0
 10
278.174753901049
 20
273.3424144827591
 30
0.0
 10
278.3738003022234
 20
273.0655690549413
 30
0.0
 10
278.4822945265696
 20
272.9321658295831
 30
0.0
 10
278.6584856360387
 20
272.73919546965
 30
0.0
 10
278.7194606992229
 20
272.6760622669992
 30
0.0
 10
278.8143172592135
 20
272.5831083682873
 30
0.0
 10
278.846481582233
 20
272.5524360973125
 30
0.0
 10
278.9117424747958
 20
272.491849824772
 30
0.0
 10
278.9448607837239
 20
272.461914339776
 30
0.0
 10
279.1128761960381
 20
272.3139887199052
 30
0.0
 10
279.2550314182869
 20
272.201245422535
 30
0.0
 10
279.4048419452957
 20
272.0937046842716
 30
0.0
  0
SPLINE
  5
1C4
330
1F
100
AcDbEntity
  8
1
100
AcDbSpline
210
0.0
220
0.0
230
1.0
 70
     9
 71
     3
 72
   123
 73
   119
 74
     0
 42
0.000000001
 43
0.0000000001
 40
0.0
 40
0.0
 40
0.0
 40
0.0
 40
0.0312500000000285
 40
0.0312500000000285
 40
0.0468750000000478
 40
0.0468750000000478
 40
0.0546875000000526
 40
0.0546875000000526
 40
0.0625000000000574
 40
0.0625000000000574
 40
0.0937500000000572
 40
0.0937500000000572
 40
0.101562500000055
 40
0.101562500000055
 40
0.1093750000000528
 40
0.1093750000000528
 40
0.1250000000000484
 40
0.1250000000000484
 40
0.1562500000000464
 40
0.1562500000000464
 40
0.1718750000000453
 40
0.1718750000000453
 40
0.1875000000000442
 40
0.2031250000000431
 40
0.2031250000000431
 40
0.2109375000000427
 40
0.2109375000000427
 40
0.2187500000000422
 40
0.2187500000000422
 40
0.2500000000000387
 40
0.2500000000000387
 40
0.2578125000000377
 40
0.2578125000000377
 40
0.2656250000000367
 40
0.2656250000000367
 40
0.2812500000000333
 40
0.2812500000000333
 40
0.3125000000000288
 40
0.3125000000000288
 40
0.3281250000000266
 40
0.3281250000000266
 40
0.3437500000000245
 40
0.3437500000000245
 40
0.3750000000000145
 40
0.3750000000000145
 40
0.3828125000000176
 40
0.3828125000000176
 40
0.3906250000000207
 40
0.4062500000000351
 40
0.4218750000000496
 40
0.4218750000000496
 40
0.4296875000000522
 40
0.4296875000000522
 40
0.4375000000000548
 40
0.4375000000000548
 40
0.4687500000000843
 40
0.4687500000000843
 40
0.4843750000000991
 40
0.4843750000000991
 40
0.4921875000001014
 40
0.4921875000001014
 40
0.5000000000001035
 40
0.5000000000001035
 40
0.5312500000001125
 40
0.5312500000001125
 40
0.5390625000001198
 40
0.5390625000001198
 40
0.546875000000127
 40
0.546875000000127
 40
0.5625000000001315
 40
0.5781250000001361
 40
0.5781250000001361
 40
0.5937500000001407
 40
0.5937500000001407
 40
0.6250000000001497
 40
0.6250000000001497
 40
0.6328125000001502
 40
0.6328125000001502
 40
0.6406250000001507
 40
0.6406250000001507
 40
0.6562500000001511
 40
0.6562500000001511
 40
0.6875000000001468
 40
0.6875000000001468
 40
0.6953125000001457
 40
0.6953125000001457
 40
0.7031250000001446
 40
0.7187500000001397
 40
0.7343750000001351
 40
0.7343750000001351
 40
0.7421875000001329
 40
0.7421875000001329
 40
0.7500000000001307
 40
0.7500000000001307
 40
0.7812500000001219
 40
0.7812500000001219
 40
0.7968750000001164
 40
0.7968750000001164
 40
0.8125000000001108
 40
0.8125000000001108
 40
0.8437500000001037
 40
0.8437500000001037
 40
0.8593750000000973
 40
0.8593750000000973
 40
0.8750000000000909
 40
0.8750000000000909
 40
0.9062500000000708
 40
0.9062500000000708
 40
0.9218750000000603
 40
0.9218750000000603
 40
0.9375000000000504
 40
0.9531250000000401
 40
0.9531250000000401
 40
0.96093750000003
 40
0.96093750000003
 40
0.9687500000000198
 40
0.9687500000000198
 40
1.0
 40
1.0
 40
1.0
 40
1.0
 10
418.4246469271758
 20
286.4733679557893
 30
0.0
 10
418.5085897443827
 20
286.4719027284647
 30
0.0
 10
418.5909353744194
 20
286.4620916851398
 30
0.0
 10
418.7121573609014
 20
286.4353873057813
 30
0.0
 10
418.7521789711138
 20
286.4244725292128
 30
0.0
 10
418.8116186474938
 20
286.4050098399973
 30
0.0
 10
418.8313888532323
 20
286.3979837939362
 30
0.0
 10
418.8704030682626
 20
286.3830036272817
 30
0.0
 10
418.8896414965396
 20
286.3750558382633
 30
0.0
 10
418.9845172497048
 20
286.3330764080845
 30
0.0
 10
419.0562436479695
 20
286.2923877363341
 30
0.0
 10
419.1407176745305
 20
286.2327419738572
 30
0.0
 10
419.1573509059276
 20
286.2203695772186
 30
0.0
 10
419.1900853636491
 20
286.1947244048951
 30
0.0
 10
419.206194147741
 20
286.1814404700097
 30
0.0
 10
419.2531814974402
 20
286.1406865521774
 30
0.0
 10
419.2829113276332
 20
286.1121763701681
 30
0.0
 10
419.3674600407276
 20
286.0227593380933
 30
0.0
 10
419.4176813997471
 20
285.9580021322578
 30
0.0
 10
419.4835680208673
 20
285.8530148012708
 30
0.0
 10
419.5036355987556
 20
285.8171842959488
 30
0.0
 10
419.5399724273675
 20
285.7442040155741
 30
0.0
 10
419.5725670238306
 20
285.669813533072
 30
0.0
 10
419.5977880068658
 20
285.5926606354283
 30
0.0
 10
419.6139030333069
 20
285.5337517985443
 30
0.0
 10
419.6188139464088
 20
285.5139098705576
 30
0.0
 10
419.6276542766506
 20
285.4740109021573
 30
0.0
 10
419.6315652984349
 20
285.4540447613891
 30
0.0
 10
419.648634342984
 20
285.3541343061941
 30
0.0
 10
419.6544027650701
 20
285.2739543370135
 30
0.0
 10
419.651987894019
 20
285.1734333613687
 30
0.0
 10
419.6510194177946
 20
285.1533141440632
 30
0.0
 10
419.6481002180643
 20
285.1130452379356
 30
0.0
 10
419.6461444368254
 20
285.0928556237528
 30
0.0
 10
419.6388113074879
 20
285.0325202456117
 30
0.0
 10
419.6320117983304
 20
284.9928638071698
 30
0.0
 10
419.6060751703816
 20
284.8755325366334
 30
0.0
 10
419.5814516098251
 20
284.799481716632
 30
0.0
 10
419.5333263843405
 20
284.6886725854323
 30
0.0
 10
419.5153178871206
 20
284.652158521075
 30
0.0
 10
419.4762045427308
 20
284.5816907270877
 30
0.0
 10
419.4550436579123
 20
284.5475721654566
 30
0.0
 10
419.3868108478517
 20
284.4484995769714
 30
0.0
 10
419.3350386439984
 20
284.386795227264
 30
0.0
 10
419.2619632746682
 20
284.3153677563343
 30
0.0
 10
419.24695921352
 20
284.3014065016337
 30
0.0
 10
419.2164348044245
 20
284.2743652479465
 30
0.0
 10
419.169762363476
 20
284.2350216386339
 30
0.0
 10
419.0876023113905
 20
284.1754468355333
 30
0.0
 10
419.0171915722049
 20
284.1341785464526
 30
0.0
 10
418.962567049765
 20
284.1056953286237
 30
0.0
 10
418.9440555675116
 20
284.0966130283342
 30
0.0
 10
418.9064084995072
 20
284.0792946297893
 30
0.0
 10
418.8872626620358
 20
284.0710586723069
 30
0.0
 10
418.7911283464726
 20
284.0325120782961
 30
0.0
 10
418.7120279493941
 20
284.0095844538062
 30
0.0
 10
418.5900947824064
 20
283.9869738457837
 30
0.0
 10
418.5488994780038
 20
283.9814145770515
 30
0.0
 10
418.4862438884779
 20
283.9761684180891
 30
0.0
 10
418.465294148149
 20
283.9749456797767
 30
0.0
 10
418.4235963007309
 20
283.9735567450061
 30
0.0
 10
418.402798368897
 20
283.9733861140636
 30
0.0
 10
418.2990596709244
 20
283.9751109701002
 30
0.0
 10
418.2168645944376
 20
283.9846642581587
 30
0.0
 10
418.1151249652479
 20
284.0069405317071
 30
0.0
 10
418.0947682763363
 20
284.0119346608585
 30
0.0
 10
418.0545260755131
 20
284.0228842679292
 30
0.0
 10
418.0346342904717
 20
284.028837063639
 30
0.0
 10
417.9756300493727
 20
284.0480962258098
 30
0.0
 10
417.8987440203538
 20
284.0775034073505
 30
0.0
 10
417.8253360689978
 20
284.1141935619473
 30
0.0
 10
417.7536714044416
 20
284.15454834693
 30
0.0
 10
417.7185682950205
 20
284.1766760035597
 30
0.0
 10
417.6179408090401
 20
284.2472585359515
 30
0.0
 10
417.5564774135349
 20
284.300114156671
 30
0.0
 10
417.4863988300648
 20
284.3732280623364
 30
0.0
 10
417.4727238510279
 20
284.3882063826834
 30
0.0
 10
417.4460611923989
 20
284.4188821853385
 30
0.0
 10
417.4330417671718
 20
284.4346216119949
 30
0.0
 10
417.3953357442121
 20
284.4825421666706
 30
0.0
 10
417.3719663308041
 20
284.5154407401271
 30
0.0
 10
417.3069641752814
 20
284.6169048704479
 30
0.0
 10
417.2703895737982
 20
284.6882133925241
 30
0.0
 10
417.2332272216205
 20
284.7820456614035
 30
0.0
 10
417.2262122808924
 20
284.8010949812338
 30
0.0
 10
417.213177758547
 20
284.8393264546344
 30
0.0
 10
417.1950873894702
 20
284.8969462193245
 30
0.0
 10
417.1720848284507
 20
284.9943194499257
 30
0.0
 10
417.1612041375903
 20
285.0736387213962
 30
0.0
 10
417.1559056756121
 20
285.1336709656856
 30
0.0
 10
417.1546173594585
 20
285.1537723176639
 30
0.0
 10
417.1530137744103
 20
285.1941596603037
 30
0.0
 10
417.1526994158602
 20
285.2144967849371
 30
0.0
 10
417.153612058246
 20
285.3159985094522
 30
0.0
 10
417.1621717149359
 20
285.3960732070162
 30
0.0
 10
417.1864973400777
 20
285.5145151698077
 30
0.0
 10
417.1965334628437
 20
285.5537153162468
 30
0.0
 10
417.2205807479946
 20
285.6315310577313
 30
0.0
 10
417.234675396686
 20
285.6703017812131
 30
0.0
 10
417.2821580771094
 20
285.7832583028212
 30
0.0
 10
417.3208430145918
 20
285.854814209628
 30
0.0
 10
417.3894166696063
 20
285.9564712010843
 30
0.0
 10
417.4140439993029
 20
285.9894043200065
 30
0.0
 10
417.4669916805343
 20
286.0532719110367
 30
0.0
 10
417.4949268935376
 20
286.0837328056371
 30
0.0
 10
417.5826653554537
 20
286.1704430211678
 30
0.0
 10
417.6465022971393
 20
286.2222315384571
 30
0.0
 10
417.7504578309236
 20
286.2906240225022
 30
0.0
 10
417.7866517133046
 20
286.3119276530588
 30
0.0
 10
417.8602606751946
 20
286.3504310830643
 30
0.0
 10
417.9353942324239
 20
286.3850709346913
 30
0.0
 10
418.0135213900319
 20
286.4121111695445
 30
0.0
 10
418.0732520862944
 20
286.4295050591692
 30
0.0
 10
418.0933518857112
 20
286.4348211055672
 30
0.0
 10
418.1339371081732
 20
286.4444723084386
 30
0.0
 10
418.1544698574439
 20
286.4488157281472
 30
0.0
 10
418.2574942893347
 20
286.4679069065644
 30
0.0
 10
418.3407041099689
 20
286.4748331831139
 30
0.0
 10
418.4246469271758
 20
286.4733679557893
 30
0.0
  0
SPLINE
  5
1C5
330
1F
100
AcDbEntity
  8
1
100
AcDbSpline
210
0.0
220
0.0
230
1.0
 70
    12
 71
     2
 72
     6
 73
     3
 74
     0
 42
0.000000001
 43
0.0000000001
 40
0.0
 40
0.0
 40
0.0
 40
1.0
 40
1.0
 40
1.0
 10
412.7449515054665
 20
303.846698673305
 30
0.0
 41
0.4999988825599448
 10
412.8571347623902
 20
303.8465217899489
 30
0.0
 41
0.5000011174400552
 10
412.9693168146271
 20
303.8463443971981
 30
0.0
 41
0.4999988825599448
  0
SPLINE
  5
1C6
330
1F
100
AcDbEntity
  8
1
100
AcDbSpline
210
0.0
220
0.0
230
1.0
 70
     8
 71
     3
 72
     8
 73
     4
 74
     0
 42
0.000000001
 43
0.0000000001
 40
0.0
 40
0.0
 40
0.0
 40
0.0
 40
1.0
 40
1.0
 40
1.0
 40
1.0
 10
417.1200805874612
 20
300.1981546479649
 30
0.0
 10
417.1175821442901
 20
300.189761525725
 30
0.0
 10
417.1148866794056
 20
300.1814420462845
 30
0.0
 10
417.1119929981958
 20
300.1731958234184
 30
0.0
  0
SPLINE
  5
1C7
330
1F
100
AcDbEntity
  8
1
100
AcDbSpline
210
0.0
220
0.0
230
1.0
 70
     8
 71
     3
 72
    22
 73
    18
 74
     0
 42
0.000000001
 43
0.0000000001
 40
0.0
 40
0.0
 40
0.0
 40
0.0
 40
0.125
 40
0.125
 40
0.25
 40
0.25
 40
0.375
 40
0.375
 40
0.5
 40
0.5
 40
0.625
 40
0.625
 40
0.75
 40
0.75
 40
0.875
 40
0.875
 40
1.0
 40
1.0
 40
1.0
 40
1.0
 10
417.1800895340373
 20
298.2810126374253
 30
0.0
 10
417.1774209398408
 20
298.2759569569613
 30
0.0
 10
417.1743412799356
 20
298.2711423028179
 30
0.0
 10
417.1674913653471
 20
298.2621471046808
 30
0.0
 10
417.1637089676277
 20
298.2579416186242
 30
0.0
 10
417.1554090902056
 20
298.2501325811618
 30
0.0
 10
417.1508858487986
 20
298.2465384921818
 30
0.0
 10
417.1413943343234
 20
298.2402210365155
 30
0.0
 10
417.1363911946781
 20
298.2374612097574
 30
0.0
 10
417.1258486777977
 20
298.2327756138248
 30
0.0
 10
417.1203266693018
 20
298.2308691059031
 30
0.0
 10
417.1091271825881
 20
298.2280596092825
 30
0.0
 10
417.1034038094975
 20
298.2271339187827
 30
0.0
 10
417.091696719487
 20
298.2262970747599
 30
0.0
 10
417.0858020540264
 20
298.2263997033883
 30
0.0
 10
417.0741781488523
 20
298.2276368710957
 30
0.0
 10
417.0684105508581
 20
298.2287678113645
 30
0.0
 10
417.0626905080142
 20
298.2304444235784
 30
0.0
  0
SPLINE
  5
1C8
330
1F
100
AcDbEntity
  8
1
100
AcDbSpline
210
0.0
220
0.0
230
1.0
 70
     8
 71
     3
 72
    20
 73
    16
 74
     0
 42
0.000000001
 43
0.0000000001
 40
0.0
 40
0.0
 40
0.0
 40
0.0
 40
0.1249999999999755
 40
0.1249999999999755
 40
0.249999999999951
 40
0.249999999999951
 40
0.3749999999999265
 40
0.3749999999999265
 40
0.4999999999999021
 40
0.4999999999999021
 40
0.6249999999998775
 40
0.6249999999998775
 40
0.7499999999998531
 40
0.7499999999998531
 40
1.0
 40
1.0
 40
1.0
 40
1.0
 10
417.8458103813587
 20
298.049876606122
 30
0.0
 10
417.8399337502955
 20
298.0508734922194
 30
0.0
 10
417.8342478967667
 20
298.0523838793636
 30
0.0
 10
417.8232376543702
 20
298.0563757526048
 30
0.0
 10
417.8178636432145
 20
298.0588892737429
 30
0.0
 10
417.807766771166
 20
298.0647533834753
 30
0.0
 10
417.803052343776
 20
298.0680841523426
 30
0.0
 10
417.7942590366918
 20
298.0755021759297
 30
0.0
 10
417.7901477422248
 20
298.0796307315033
 30
0.0
 10
417.7827505402275
 20
298.088466541075
 30
0.0
 10
417.7794840104586
 20
298.0931342966642
 30
0.0
 10
417.7737706627622
 20
298.1029419739606
 30
0.0
 10
417.7713144890423
 20
298.1081079879297
 30
0.0
 10
417.7652786835213
 20
298.1241653823368
 30
0.0
 10
417.7631125935724
 20
298.1352336844496
 30
0.0
 10
417.7627819514421
 20
298.1466583685073
 30
0.0
  0
SPLINE
  5
1C9
330
1F
100
AcDbEntity
  8
1
100
AcDbSpline
210
0.0
220
0.0
230
1.0
 70
     8
 71
     3
 72
    14
 73
    10
 74
     0
 42
0.000000001
 43
0.0000000001
 40
0.0
 40
0.0
 40
0.0
 40
0.0
 40
0.25
 40
0.25
 40
0.5
 40
0.5
 40
0.75
 40
0.75
 40
1.0
 40
1.0
 40
1.0
 40
1.0
 10
417.1800895340378
 20
298.2810126374263
 30
0.0
 10
417.1834279712741
 20
298.2873373427481
 30
0.0
 10
417.1874208818086
 20
298.2933062631025
 30
0.0
 10
417.1965208363446
 20
298.3042644099131
 30
0.0
 10
417.2015859281152
 20
298.3092210569687
 30
0.0
 10
417.212759497942
 20
298.3180796347077
 30
0.0
 10
417.2189080819747
 20
298.3219822379685
 30
0.0
 10
417.2317567925171
 20
298.3283258889965
 30
0.0
 10
417.2385143029336
 20
298.3308240127597
 30
0.0
 10
417.2456359320361
 20
298.3325904494103
 30
0.0
  0
SPLINE
  5
1CA
330
1F
100
AcDbEntity
  8
1
100
AcDbSpline
210
0.0
220
0.0
230
1.0
 70
     8
 71
     3
 72
    14
 73
    10
 74
     0
 42
0.000000001
 43
0.0000000001
 40
0.0
 40
0.0
 40
0.0
 40
0.0
 40
0.25
 40
0.25
 40
0.5
 40
0.5
 40
0.75
 40
0.75
 40
1.0
 40
1.0
 40
1.0
 40
1.0
 10
417.7267103874294
 20
298.2216667359391
 30
0.0
 10
417.7323267033415
 20
298.2169604404607
 30
0.0
 10
417.7373898932422
 20
298.2116478198864
 30
0.0
 10
417.7461316560923
 20
298.2002731966493
 30
0.0
 10
417.7498362090406
 20
298.1942078391059
 30
0.0
 10
417.7559566603086
 20
298.1813418999729
 30
0.0
 10
417.7583492471638
 20
298.1745382175363
 30
0.0
 10
417.7616382975251
 20
298.1608063075813
 30
0.0
 10
417.7625751705674
 20
298.1538032721558
 30
0.0
 10
417.7627819514421
 20
298.1466583685073
 30
0.0
  0
SPLINE
  5
1CB
330
1F
100
AcDbEntity
  8
1
100
AcDbSpline
210
0.0
220
0.0
230
1.0
 70
     8
 71
     3
 72
    21
 73
    17
 74
     0
 42
0.000000001
 43
0.0000000001
 40
0.0
 40
0.0
 40
0.0
 40
0.0
 40
0.2499999999999782
 40
0.2499999999999782
 40
0.3124999999999765
 40
0.3124999999999765
 40
0.3749999999999749
 40
0.3749999999999749
 40
0.4999999999999715
 40
0.6249999999999681
 40
0.6249999999999681
 40
0.6874999999999626
 40
0.6874999999999626
 40
0.7499999999999571
 40
0.7499999999999571
 40
1.0
 40
1.0
 40
1.0
 40
1.0
 10
417.0626905080142
 20
298.2304444235784
 30
0.0
 10
417.0215460636428
 20
298.242504346878
 30
0.0
 10
416.9823562623931
 20
298.2591357640193
 30
0.0
 10
416.9358157561405
 20
298.2856339784461
 30
0.0
 10
416.9266131754423
 20
298.2912362985448
 30
0.0
 10
416.9086634593581
 20
298.3028956482126
 30
0.0
 10
416.8998935028234
 20
298.3089641542477
 30
0.0
 10
416.8741871675292
 20
298.327873099596
 30
0.0
 10
416.8415175929516
 20
298.3549562919374
 30
0.0
 10
416.8120373944327
 20
298.385756524352
 30
0.0
 10
416.7911632115536
 20
298.4102972247435
 30
0.0
 10
416.7844271335081
 20
298.4187036679249
 30
0.0
 10
416.7715426680085
 20
298.4357761599802
 30
0.0
 10
416.7653720510307
 20
298.4444677784878
 30
0.0
 10
416.7358526515419
 20
298.4886886973736
 30
0.0
 10
416.7164524156778
 20
298.5264765470782
 30
0.0
 10
416.7013814255405
 20
298.5667388717197
 30
0.0
  0
SPLINE
  5
1CC
330
1F
100
AcDbEntity
  8
1
100
AcDbSpline
210
0.0
220
0.0
230
1.0
 70
     8
 71
     3
 72
    21
 73
    17
 74
     0
 42
0.000000001
 43
0.0000000001
 40
0.0
 40
0.0
 40
0.0
 40
0.0
 40
0.2500000000004361
 40
0.2500000000004361
 40
0.3125000000004647
 40
0.3125000000004647
 40
0.3750000000004935
 40
0.3750000000004935
 40
0.5000000000003928
 40
0.6250000000002921
 40
0.6250000000002921
 40
0.6875000000002434
 40
0.6875000000002434
 40
0.7500000000001947
 40
0.7500000000001947
 40
1.0
 40
1.0
 40
1.0
 40
1.0
 10
417.2456359320361
 20
298.3325904494103
 30
0.0
 10
417.2869571628621
 20
298.3428396965318
 30
0.0
 10
417.3289335053786
 20
298.3482656507133
 30
0.0
 10
417.382311412891
 20
298.3488727787682
 30
0.0
 10
417.3930328840772
 20
298.3486814048891
 30
0.0
 10
417.4145719661266
 20
298.3476523025666
 30
0.0
 10
417.4254154283306
 20
298.3468095657959
 30
0.0
 10
417.4576087589657
 20
298.3433347271529
 30
0.0
 10
417.4999252402253
 20
298.3361823410954
 30
0.0
 10
417.5410521888742
 20
298.3241025198071
 30
0.0
 10
417.5714438280881
 20
298.3131631387725
 30
0.0
 10
417.5815342952615
 20
298.3091868182691
 30
0.0
 10
417.6013720627642
 20
298.3006740031044
 30
0.0
 10
417.6111016764708
 20
298.2961482173056
 30
0.0
 10
417.6588381927116
 20
298.2722159045374
 30
0.0
 10
417.6941470368821
 20
298.2489537959705
 30
0.0
 10
417.7267103874294
 20
298.2216667359391
 30
0.0
  0
SPLINE
  5
1CD
330
1F
100
AcDbEntity
  8
1
100
AcDbSpline
210
0.0
220
0.0
230
1.0
 70
     8
 71
     3
 72
    10
 73
     6
 74
     0
 42
0.000000001
 43
0.0000000001
 40
0.0
 40
0.0
 40
0.0
 40
0.0
 40
0.6016747911506068
 40
0.6016747911506068
 40
1.0
 40
1.0
 40
1.0
 40
1.0
 10
416.7013814255405
 20
298.5667388717197
 30
0.0
 10
416.6992837150423
 20
298.5723429296025
 30
0.0
 10
416.6977211370501
 20
298.5780449259694
 30
0.0
 10
416.6959653659601
 20
298.5876754011449
 30
0.0
 10
416.6954889675869
 20
298.5915780708598
 30
0.0
 10
416.6952392139577
 20
298.5954832850477
 30
0.0
  0
SPLINE
  5
1CE
330
1F
100
AcDbEntity
  8
1
100
AcDbSpline
210
0.0
220
0.0
230
1.0
 70
     8
 71
     3
 72
    21
 73
    17
 74
     0
 42
0.000000001
 43
0.0000000001
 40
0.0
 40
0.0
 40
0.0
 40
0.0
 40
0.2499999999997747
 40
0.2499999999997747
 40
0.3124999999997171
 40
0.3124999999997171
 40
0.3749999999996595
 40
0.3749999999996595
 40
0.4999999999996937
 40
0.6249999999997278
 40
0.6249999999997278
 40
0.6874999999997458
 40
0.6874999999997458
 40
0.7499999999997638
 40
0.7499999999997638
 40
1.0
 40
1.0
 40
1.0
 40
1.0
 10
418.3177466978498
 20
298.194045546767
 30
0.0
 10
418.2865409929536
 20
298.1644515837789
 30
0.0
 10
418.2524013548691
 20
298.1388478433453
 30
0.0
 10
418.2060620971304
 20
298.1118303708847
 30
0.0
 10
418.1965876536593
 20
298.1066702938426
 30
0.0
 10
418.17747875053
 20
298.0969730913571
 30
0.0
 10
418.1678229129634
 20
298.0924219769081
 30
0.0
 10
418.1385567523664
 20
298.0796448373736
 30
0.0
 10
418.0987407284725
 20
298.064939544861
 30
0.0
 10
418.0573464290537
 20
298.0548643384243
 30
0.0
 10
418.0256891190429
 20
298.0491022490554
 30
0.0
 10
418.0150546344946
 20
298.0474874670504
 30
0.0
 10
417.9938604032438
 20
298.0448975064947
 30
0.0
 10
417.9832674000264
 20
298.0439159013528
 30
0.0
 10
417.9303227840452
 20
298.040546583181
 30
0.0
 10
417.8880313058025
 20
298.0427144323962
 30
0.0
 10
417.8458103813587
 20
298.049876606122
 30
0.0
  0
SPLINE
  5
1CF
330
1F
100
AcDbEntity
  8
1
100
AcDbSpline
210
0.0
220
0.0
230
1.0
 70
     8
 71
     3
 72
     8
 73
     4
 74
     0
 42
0.000000001
 43
0.0000000001
 40
0.0
 40
0.0
 40
0.0
 40
0.0
 40
1.0
 40
1.0
 40
1.0
 40
1.0
 10
416.7885009645123
 20
298.7580764365793
 30
0.0
 10
416.7875235602773
 20
298.7521992605224
 30
0.0
 10
416.7860275403723
 20
298.7464306076931
 30
0.0
 10
416.7840805058496
 20
298.7408972559239
 30
0.0
  0
SPLINE
  5
1D0
330
1F
100
AcDbEntity
  8
1
100
AcDbSpline
210
0.0
220
0.0
230
1.0
 70
     8
 71
     3
 72
    21
 73
    17
 74
     0
 42
0.000000001
 43
0.0000000001
 40
0.0
 40
0.0
 40
0.0
 40
0.0
 40
0.2499999999998813
 40
0.2499999999998813
 40
0.3124999999998698
 40
0.3124999999998698
 40
0.3749999999998582
 40
0.3749999999998582
 40
0.4999999999998906
 40
0.6249999999999229
 40
0.6249999999999229
 40
0.6874999999999392
 40
0.6874999999999392
 40
0.7499999999999555
 40
0.7499999999999555
 40
1.0
 40
1.0
 40
1.0
 40
1.0
 10
416.6437697318253
 20
299.2296317935922
 30
0.0
 10
416.6730121828648
 20
299.1993923223357
 30
0.0
 10
416.698467990751
 20
299.1660998232106
 30
0.0
 10
416.7254909705297
 20
299.1204967385893
 30
0.0
 10
416.7306525370143
 20
299.1111742324764
 30
0.0
 10
416.7404744690355
 20
299.0921105428899
 30
0.0
 10
416.7451434958315
 20
299.0823443657917
 30
0.0
 10
416.7581796988846
 20
299.0528430020751
 30
0.0
 10
416.7731207820303
 20
299.0127200151725
 30
0.0
 10
416.7832901414962
 20
298.9710546937479
 30
0.0
 10
416.7890965042296
 20
298.939217966931
 30
0.0
 10
416.790732043636
 20
298.9284686568893
 30
0.0
 10
416.7933570245711
 20
298.906973405678
 30
0.0
 10
416.7943467217543
 20
298.8962486037028
 30
0.0
 10
416.7977347137166
 20
298.8427323019448
 30
0.0
 10
416.7955163760177
 20
298.8002604245809
 30
0.0
 10
416.7885009645123
 20
298.7580764365793
 30
0.0
  0
SPLINE
  5
1D1
330
1F
100
AcDbEntity
  8
1
100
AcDbSpline
210
0.0
220
0.0
230
1.0
 70
     8
 71
     3
 72
    36
 73
    32
 74
     0
 42
0.000000001
 43
0.0000000001
 40
0.0
 40
0.0
 40
0.0
 40
0.0
 40
0.1250000000000189
 40
0.1250000000000189
 40
0.1875000000000283
 40
0.1875000000000283
 40
0.2187500000000198
 40
0.2187500000000198
 40
0.2500000000000112
 40
0.2500000000000112
 40
0.3749999999999809
 40
0.3749999999999809
 40
0.4062500000000046
 40
0.4062500000000046
 40
0.4375000000000281
 40
0.4375000000000281
 40
0.5000000000000786
 40
0.5000000000000786
 40
0.6250000000001317
 40
0.6250000000001317
 40
0.6562500000001317
 40
0.6562500000001317
 40
0.6875000000001316
 40
0.7500000000001315
 40
0.8125000000001312
 40
0.8125000000001312
 40
0.843750000000098
 40
0.843750000000098
 40
0.8750000000000648
 40
0.8750000000000648
 40
1.0
 40
1.0
 40
1.0
 40
1.0
 10
422.4798350269057
 20
303.5626491464836
 30
0.0
 10
422.4780127583296
 20
303.6135180742305
 30
0.0
 10
422.4710422842401
 20
303.6633236895231
 30
0.0
 10
422.4533439396961
 20
303.7365362160211
 30
0.0
 10
422.4462273304813
 20
303.760688998587
 30
0.0
 10
422.4337005397044
 20
303.7965356850188
 30
0.0
 10
422.4292024692544
 20
303.8084522544269
 30
0.0
 10
422.4196477610589
 20
303.8319832839899
 30
0.0
 10
422.4145976484837
 20
303.8435872687612
 30
0.0
 10
422.3880141431575
 20
303.9008178121751
 30
0.0
 10
422.362521463942
 20
303.9440996459572
 30
0.0
 10
422.3254522534663
 20
303.9951204609853
 30
0.0
 10
422.3177757958777
 20
304.0051691007465
 30
0.0
 10
422.301889679879
 20
304.0249506139729
 30
0.0
 10
422.2936647859641
 20
304.0346985206955
 30
0.0
 10
422.2684415009322
 20
304.063166431628
 30
0.0
 10
422.2508259326706
 20
304.0812064550458
 30
0.0
 10
422.1956452997933
 20
304.1325884449212
 30
0.0
 10
422.1557695790395
 20
304.1632196328186
 30
0.0
 10
422.1019309760093
 20
304.1968230569478
 30
0.0
 10
422.0909478216082
 20
304.2033129586687
 30
0.0
 10
422.0688140274013
 20
304.2156766818945
 30
0.0
 10
422.0352783096734
 20
304.2333521951066
 30
0.0
 10
421.9777388339343
 20
304.2585350907817
 30
0.0
 10
421.9299617704576
 20
304.2741483464852
 30
0.0
 10
421.8934585304846
 20
304.2841171333905
 30
0.0
 10
421.8811788291371
 20
304.2871493133497
 30
0.0
 10
421.8563901423464
 20
304.2926182169828
 30
0.0
 10
421.8438649153136
 20
304.2950562014803
 30
0.0
 10
421.7812459449988
 20
304.3056232509583
 30
0.0
 10
421.7307466975478
 20
304.3090429934689
 30
0.0
 10
421.6798303725917
 20
304.3072668070501
 30
0.0
  0
SPLINE
  5
1D2
330
1F
100
AcDbEntity
  8
1
100
AcDbSpline
210
0.0
220
0.0
230
1.0
 70
     8
 71
     3
 72
    36
 73
    32
 74
     0
 42
0.000000001
 43
0.0000000001
 40
0.0
 40
0.0
 40
0.0
 40
0.0
 40
0.1250000000000364
 40
0.1250000000000364
 40
0.1875000000000887
 40
0.1875000000000887
 40
0.2187500000000825
 40
0.2187500000000825
 40
0.2500000000000764
 40
0.2500000000000764
 40
0.3750000000000552
 40
0.3750000000000552
 40
0.4062500000000481
 40
0.4062500000000481
 40
0.437500000000041
 40
0.437500000000041
 40
0.5000000000000265
 40
0.5000000000000265
 40
0.6250000000000448
 40
0.6250000000000448
 40
0.6562500000000384
 40
0.6562500000000384
 40
0.6875000000000321
 40
0.7500000000000157
 40
0.8124999999999992
 40
0.8124999999999992
 40
0.8437500000000001
 40
0.8437500000000001
 40
0.8750000000000008
 40
0.8750000000000008
 40
1.0
 40
1.0
 40
1.0
 40
1.0
 10
413.7071017242026
 20
304.0291427995037
 30
0.0
 10
413.6561797898281
 20
304.0273664174037
 30
0.0
 10
413.6063267552279
 20
304.0204464255022
 30
0.0
 10
413.5330509601608
 20
304.002830269612
 30
0.0
 10
413.5088784090501
 20
303.9957421431534
 30
0.0
 10
413.4730040796337
 20
303.9832597296488
 30
0.0
 10
413.4610786090974
 20
303.9787767690943
 30
0.0
 10
413.4375305838561
 20
303.9692526180267
 30
0.0
 10
413.4259185101387
 20
303.9642179366474
 30
0.0
 10
413.368649520212
 20
303.9377123331973
 30
0.0
 10
413.3253432642414
 20
303.9122843402252
 30
0.0
 10
413.2742997218517
 20
303.8752988992844
 30
0.0
 10
413.2642469303059
 20
303.8676393425587
 30
0.0
 10
413.2444579128331
 20
303.8517873266581
 30
0.0
 10
413.2347066506772
 20
303.8435796612805
 30
0.0
 10
413.2062299796801
 20
303.8184079793976
 30
0.0
 10
413.1881858142715
 20
303.8008268594976
 30
0.0
 10
413.1367963520613
 20
303.7457497066637
 30
0.0
 10
413.1061667380633
 20
303.7059431512047
 30
0.0
 10
413.0725737582575
 20
303.6521912357415
 30
0.0
 10
413.06608637909
 20
303.6412254502744
 30
0.0
 10
413.0537285066568
 20
303.6191260412249
 30
0.0
 10
413.0360629925457
 20
303.5856415086016
 30
0.0
 10
413.0109028759397
 20
303.5281853718156
 30
0.0
 10
412.9953140286512
 20
303.4804730055768
 30
0.0
 10
412.9853660728842
 20
303.4440174729472
 30
0.0
 10
412.9823412452942
 20
303.4317535428433
 30
0.0
 10
412.9768878833318
 20
303.4069961298322
 30
0.0
 10
412.9744581008101
 20
303.3944864238203
 30
0.0
 10
412.963933796307
 20
303.3319436492857
 30
0.0
 10
412.960553999953
 20
303.2815014435481
 30
0.0
 10
412.962376067793
 20
303.2306381193804
 30
0.0
  0
SPLINE
  5
1D3
330
1F
100
AcDbEntity
  8
1
100
AcDbSpline
210
0.0
220
0.0
230
1.0
 70
     8
 71
     3
 72
    36
 73
    32
 74
     0
 42
0.000000001
 43
0.0000000001
 40
0.0
 40
0.0
 40
0.0
 40
0.0
 40
0.1250000000000117
 40
0.1250000000000117
 40
0.1875000000000165
 40
0.1875000000000165
 40
0.2187500000000292
 40
0.2187500000000292
 40
0.2500000000000419
 40
0.2500000000000419
 40
0.3750000000000925
 40
0.3750000000000925
 40
0.4062500000000938
 40
0.4062500000000938
 40
0.437500000000095
 40
0.437500000000095
 40
0.500000000000096
 40
0.500000000000096
 40
0.6250000000000472
 40
0.6250000000000472
 40
0.6562500000000209
 40
0.6562500000000209
 40
0.6874999999999945
 40
0.7499999999999428
 40
0.8124999999998909
 40
0.8124999999998909
 40
0.8437499999998978
 40
0.8437499999998978
 40
0.8749999999999047
 40
0.8749999999999047
 40
1.0
 40
1.0
 40
1.0
 40
1.0
 10
413.2476844139727
 20
295.266208595225
 30
0.0
 10
413.2495066825488
 20
295.2153396674781
 30
0.0
 10
413.2564771566384
 20
295.1655340521853
 30
0.0
 10
413.2741755011823
 20
295.0923215256875
 30
0.0
 10
413.2812921103971
 20
295.0681687431217
 30
0.0
 10
413.2938189011738
 20
295.0323220566898
 30
0.0
 10
413.2983169716242
 20
295.0204054872817
 30
0.0
 10
413.3078716798196
 20
294.9968744577187
 30
0.0
 10
413.3129217923947
 20
294.9852704729474
 30
0.0
 10
413.3395052977211
 20
294.9280399295334
 30
0.0
 10
413.3649979769363
 20
294.8847580957514
 30
0.0
 10
413.4020671874121
 20
294.8337372807233
 30
0.0
 10
413.4097436450008
 20
294.8236886409621
 30
0.0
 10
413.4256297609995
 20
294.8039071277356
 30
0.0
 10
413.4338546549144
 20
294.7941592210131
 30
0.0
 10
413.4590779399462
 20
294.7656913100806
 30
0.0
 10
413.4766935082078
 20
294.7476512866627
 30
0.0
 10
413.5318741410852
 20
294.6962692967873
 30
0.0
 10
413.5717498618389
 20
294.6656381088899
 30
0.0
 10
413.6255884648693
 20
294.6320346847606
 30
0.0
 10
413.6365716192703
 20
294.6255447830399
 30
0.0
 10
413.6587054134771
 20
294.613181059814
 30
0.0
 10
413.6922411312049
 20
294.5955055466019
 30
0.0
 10
413.7497806069441
 20
294.5703226509269
 30
0.0
 10
413.7975576704207
 20
294.5547093952234
 30
0.0
 10
413.834060910394
 20
294.5447406083181
 30
0.0
 10
413.8463406117414
 20
294.5417084283588
 30
0.0
 10
413.871129298532
 20
294.5362395247258
 30
0.0
 10
413.8836545255649
 20
294.5338015402282
 30
0.0
 10
413.9462734958796
 20
294.5232344907503
 30
0.0
 10
413.9967727433305
 20
294.5198147482397
 30
0.0
 10
414.0476890682868
 20
294.5215909346585
 30
0.0
  0
SPLINE
  5
1D4
330
1F
100
AcDbEntity
  8
1
100
AcDbSpline
210
0.0
220
0.0
230
1.0
 70
     8
 71
     3
 72
    36
 73
    32
 74
     0
 42
0.000000001
 43
0.0000000001
 40
0.0
 40
0.0
 40
0.0
 40
0.0
 40
0.1250000000000228
 40
0.1250000000000228
 40
0.1875000000000677
 40
0.1875000000000677
 40
0.2187500000001228
 40
0.2187500000001228
 40
0.2500000000001779
 40
0.2500000000001779
 40
0.3750000000002107
 40
0.3750000000002107
 40
0.4062500000002189
 40
0.4062500000002189
 40
0.4375000000002271
 40
0.4375000000002271
 40
0.500000000000245
 40
0.500000000000245
 40
0.6250000000002319
 40
0.6250000000002319
 40
0.6562500000002184
 40
0.6562500000002184
 40
0.6875000000002048
 40
0.7500000000001755
 40
0.812500000000146
 40
0.812500000000146
 40
0.8437500000001225
 40
0.8437500000001225
 40
0.8750000000000989
 40
0.8750000000000989
 40
1.0
 40
1.0
 40
1.0
 40
1.0
 10
422.0204177166758
 20
294.7997149422048
 30
0.0
 10
422.0713396510503
 20
294.801491324305
 30
0.0
 10
422.1211926856504
 20
294.8084113162063
 30
0.0
 10
422.1944684807178
 20
294.8260274720965
 30
0.0
 10
422.2186410318284
 20
294.8331155985551
 30
0.0
 10
422.2545153612448
 20
294.8455980120598
 30
0.0
 10
422.2664408317811
 20
294.8500809726143
 30
0.0
 10
422.2899888570224
 20
294.8596051236819
 30
0.0
 10
422.3016009307396
 20
294.8646398050611
 30
0.0
 10
422.3588699206665
 20
294.8911454085112
 30
0.0
 10
422.4021761766371
 20
294.9165734014833
 30
0.0
 10
422.4532197190267
 20
294.9535588424241
 30
0.0
 10
422.4632725105726
 20
294.9612183991499
 30
0.0
 10
422.4830615280454
 20
294.9770704150504
 30
0.0
 10
422.4928127902011
 20
294.9852780804281
 30
0.0
 10
422.5212894611981
 20
295.0104497623109
 30
0.0
 10
422.5393336266068
 20
295.028030882211
 30
0.0
 10
422.5907230888171
 20
295.0831080350448
 30
0.0
 10
422.6213527028151
 20
295.1229145905039
 30
0.0
 10
422.6549456826208
 20
295.1766665059671
 30
0.0
 10
422.6614330617883
 20
295.1876322914342
 30
0.0
 10
422.6737909342216
 20
295.2097317004837
 30
0.0
 10
422.6914564483328
 20
295.2432162331069
 30
0.0
 10
422.7166166683799
 20
295.3006723300716
 30
0.0
 10
422.7322054122271
 20
295.3483847361317
 30
0.0
 10
422.7421533679941
 20
295.3848402687614
 30
0.0
 10
422.745178195584
 20
295.3971041988652
 30
0.0
 10
422.7506315575467
 20
295.4218616118764
 30
0.0
 10
422.7530613400682
 20
295.4343713178883
 30
0.0
 10
422.7635856445713
 20
295.4969140924228
 30
0.0
 10
422.7669654409252
 20
295.5473562981605
 30
0.0
 10
422.7651433730853
 20
295.5982196223281
 30
0.0
  0
LINE
  5
1ED
330
1F
100
AcDbEntity
  8
SK4
100
AcDbLine
 10
210.904842
 20
288.907994
 30
0.0
 11
277.404842
 21
288.907994
 31
0.0
  0
LINE
  5
1EE
330
1F
100
AcDbEntity
  8
4
100
AcDbLine
 10
268.203832
 20
288.907994
 30
0.0
 11
427.3086469999999
 21
288.907994
 31
0.0
  0
MTEXT
  5
1F4
330
1F
100
AcDbEntity
  8
SK6
100
AcDbMText
 10
278.633586
 20
248.640145
 30
0.0
 40
3.5
 41
0.0
 71
     7
 72
     5
  1
\W0.7240;804D-31-124-S32
  7
cesky
 73
     2
 44
0.8433729999999998
  0
MTEXT
  5
305
330
1F
100
AcDbEntity
  8
2
100
AcDbMText
 10
345.827842
 20
322.75644
 30
0.0
 40
3.5
 41
0.0
 71
     7
 72
     5
  1
\W0.7969;149
  7
cesky
 73
     2
 44
0.8433729999999998
  0
LINE
  5
306
330
1F
100
AcDbEntity
  8
2
100
AcDbLine
 10
423.4048419999999
 20
304.407994
 30
0.0
 11
423.4048419999999
 21
323.882273
 31
0.0
  0
LINE
  5
307
330
1F
100
AcDbEntity
  8
2
100
AcDbLine
 10
274.404842
 20
289.907567
 30
0.0
 11
274.404842
 21
323.882273
 31
0.0
  0
LINE
  5
308
330
1F
100
AcDbEntity
  8
2
100
AcDbLine
 10
423.4048419999999
 20
322.882273
 30
0.0
 11
274.404842
 21
322.882273
 31
0.0
  0
SOLID
  5
309
330
1F
100
AcDbEntity
  8
2
100
AcDbTrace
 10
423.4048419999999
 20
322.882273
 30
0.0
 11
419.904844
 21
322.265129
 31
0.0
 12
419.90484
 22
323.499418
 32
0.0
 13
419.90484
 23
323.499418
 33
0.0
  0
SOLID
  5
30A
330
1F
100
AcDbEntity
  8
2
100
AcDbTrace
 10
274.404842
 20
322.882273
 30
0.0
 11
277.90484
 21
323.499418
 31
0.0
 12
277.904844
 22
322.265129
 32
0.0
 13
277.904844
 23
322.265129
 33
0.0
  0
MTEXT
  5
30B
330
1F
100
AcDbEntity
  8
2
100
AcDbMText
 10
315.827842
 20
337.029667
 30
0.0
 40
3.5
 41
0.0
 71
     7
 72
     5
  1
\W0.7367;209
  7
cesky
 73
     2
 44
0.8433729999999998
  0
LINE
  5
30C
330
1F
100
AcDbEntity
  8
2
100
AcDbLine
 10
423.4048419999999
 20
306.407994
 30
0.0
 11
423.4048419999999
 21
338.155501
 31
0.0
  0
LINE
  5
30D
330
1F
100
AcDbEntity
  8
2
100
AcDbLine
 10
214.404842
 20
302.907994
 30
0.0
 11
214.404842
 21
338.155501
 31
0.0
  0
LINE
  5
30E
330
1F
100
AcDbEntity
  8
2
100
AcDbLine
 10
423.4048419999999
 20
337.155501
 30
0.0
 11
214.404842
 21
337.155501
 31
0.0
  0
SOLID
  5
30F
330
1F
100
AcDbEntity
  8
2
100
AcDbTrace
 10
423.4048419999999
 20
337.155501
 30
0.0
 11
419.904844
 21
336.538356
 31
0.0
 12
419.90484
 22
337.772645
 32
0.0
 13
419.90484
 23
337.772645
 33
0.0
  0
SOLID
  5
310
330
1F
100
AcDbEntity
  8
2
100
AcDbTrace
 10
214.404842
 20
337.155501
 30
0.0
 11
217.90484
 21
337.772645
 31
0.0
 12
217.904844
 22
336.538356
 32
0.0
 13
217.904844
 23
336.538356
 33
0.0
  0
MTEXT
  5
311
330
1F
100
AcDbEntity
  8
2
100
AcDbMText
 10
242.590342
 20
322.75644
 30
0.0
 40
3.5
 41
0.0
 71
     7
 72
     5
  1
\W0.7045;60
  7
cesky
 73
     2
 44
0.8433729999999998
  0
LINE
  5
312
330
1F
100
AcDbEntity
  8
2
100
AcDbLine
 10
274.404842
 20
288.907994
 30
0.0
 11
274.404842
 21
323.882273
 31
0.0
  0
LINE
  5
313
330
1F
100
AcDbEntity
  8
2
100
AcDbLine
 10
214.404842
 20
302.907994
 30
0.0
 11
214.404842
 21
323.882273
 31
0.0
  0
LINE
  5
314
330
1F
100
AcDbEntity
  8
2
100
AcDbLine
 10
274.404842
 20
322.882273
 30
0.0
 11
214.404842
 21
322.882273
 31
0.0
  0
SOLID
  5
315
330
1F
100
AcDbEntity
  8
2
100
AcDbTrace
 10
274.404842
 20
322.882273
 30
0.0
 11
270.904844
 21
322.265129
 31
0.0
 12
270.90484
 22
323.499418
 32
0.0
 13
270.90484
 23
323.499418
 33
0.0
  0
SOLID
  5
316
330
1F
100
AcDbEntity
  8
2
100
AcDbTrace
 10
214.404842
 20
322.882273
 30
0.0
 11
217.90484
 21
323.499418
 31
0.0
 12
217.904844
 22
322.265129
 32
0.0
 13
217.904844
 23
322.265129
 33
0.0
  0
MTEXT
  5
317
330
1F
100
AcDbEntity
  8
2
100
AcDbMText
 10
354.325077
 20
311.867121
 30
0.0
 40
3.5
 41
0.0
 71
     7
 72
     5
  1
\W0.7809;132
  7
cesky
 73
     2
 44
0.8433729999999998
  0
LINE
  5
318
330
1F
100
AcDbEntity
  8
2
100
AcDbLine
 10
423.4048419999999
 20
306.407994
 30
0.0
 11
423.4048419999999
 21
312.992954
 31
0.0
  0
LINE
  5
319
330
1F
100
AcDbEntity
  8
2
100
AcDbLine
 10
291.399312
 20
304.207581
 30
0.0
 11
291.399312
 21
312.992954
 31
0.0
  0
LINE
  5
31A
330
1F
100
AcDbEntity
  8
2
100
AcDbLine
 10
423.4048419999999
 20
311.992954
 30
0.0
 11
291.399312
 21
311.992954
 31
0.0
  0
SOLID
  5
31B
330
1F
100
AcDbEntity
  8
2
100
AcDbTrace
 10
423.4048419999999
 20
311.992954
 30
0.0
 11
419.904844
 21
311.37581
 31
0.0
 12
419.90484
 22
312.610098
 32
0.0
 13
419.90484
 23
312.610098
 33
0.0
  0
SOLID
  5
31C
330
1F
100
AcDbEntity
  8
2
100
AcDbTrace
 10
291.399312
 20
311.992954
 30
0.0
 11
294.89931
 21
312.610098
 31
0.0
 12
294.899314
 22
311.37581
 32
0.0
 13
294.899314
 23
311.37581
 33
0.0
  0
MTEXT
  5
31D
330
1F
100
AcDbEntity
  8
2
100
AcDbMText
 10
440.5844219999999
 20
287.920671
 30
0.0
 40
3.5
 41
0.0
 71
     7
 72
     5
  1
\W0.9581;31
  7
cesky
 11
0.0000000000000001
 21
1.0
 31
0.0
 73
     2
 44
0.8433729999999998
  0
MTEXT
  5
31E
330
1F
100
AcDbEntity
  8
2
100
AcDbMText
 10
440.5844219999999
 20
281.183171
 30
0.0
 40
3.5
 41
0.0
 71
     7
 72
     5
  1
\W3.0115;\H2.63;%%c\H3.50;
  7
cesky
 11
0.0000000000000001
 21
1.0
 31
0.0
 73
     2
 44
0.8433729999999998
  0
LINE
  5
31F
330
1F
100
AcDbEntity
  8
2
100
AcDbLine
 10
425.404842
 20
304.407994
 30
0.0
 11
441.7718389999999
 21
304.407994
 31
0.0
  0
LINE
  5
320
330
1F
100
AcDbEntity
  8
2
100
AcDbLine
 10
440.7718389999999
 20
304.407994
 30
0.0
 11
440.7718389999999
 21
281.025671
 31
0.0
  0
SOLID
  5
321
330
1F
100
AcDbEntity
  8
2
100
AcDbTrace
 10
440.7718389999999
 20
304.407994
 30
0.0
 11
441.388983
 21
300.907996
 31
0.0
 12
440.1546940000001
 22
300.907991
 32
0.0
 13
440.1546940000001
 23
300.907991
 33
0.0
  0
MTEXT
  5
322
330
1F
100
AcDbEntity
  8
SK2
100
AcDbMText
 10
204.480913
 20
290.434244
 30
0.0
 40
3.5
 41
0.0
 71
     7
 72
     5
  1
\W0.7045;32
  7
cesky
 11
0.0000000000000001
 21
1.0
 31
0.0
 73
     2
 44
0.8433729999999998
  0
MTEXT
  5
323
330
1F
100
AcDbEntity
  8
SK2
100
AcDbMText
 10
204.480913
 20
283.696744
 30
0.0
 40
3.5
 41
0.0
 71
     7
 72
     5
  1
\W3.0115;\H2.63;%%c\H3.50;
  7
cesky
 11
0.0000000000000001
 21
1.0
 31
0.0
 73
     2
 44
0.8433729999999998
  0
LINE
  5
324
330
1F
100
AcDbEntity
  8
SK2
100
AcDbLine
 10
216.404842
 20
304.907994
 30
0.0
 11
203.66833
 21
304.907994
 31
0.0
  0
LINE
  5
325
330
1F
100
AcDbEntity
  8
SK2
100
AcDbLine
 10
216.404842
 20
272.907994
 30
0.0
 11
203.66833
 21
272.907994
 31
0.0
  0
LINE
  5
326
330
1F
100
AcDbEntity
  8
SK2
100
AcDbLine
 10
204.66833
 20
304.907994
 30
0.0
 11
204.66833
 21
272.907994
 31
0.0
  0
SOLID
  5
327
330
1F
100
AcDbEntity
  8
SK2
100
AcDbTrace
 10
204.66833
 20
304.907994
 30
0.0
 11
205.285474
 21
301.407996
 31
0.0
 12
204.051185
 22
301.407991
 32
0.0
 13
204.051185
 23
301.407991
 33
0.0
  0
SOLID
  5
328
330
1F
100
AcDbEntity
  8
SK2
100
AcDbTrace
 10
204.66833
 20
272.907994
 30
0.0
 11
204.051185
 21
276.407991
 31
0.0
 12
205.285474
 22
276.407996
 32
0.0
 13
205.285474
 23
276.407996
 33
0.0
  0
MTEXT
  5
329
330
1F
100
AcDbEntity
  8
SK2
100
AcDbMText
 10
191.916868
 20
290.434244
 30
0.0
 40
3.5
 41
0.0
 71
     7
 72
     5
  1
\W0.7045;42
  7
cesky
 11
0.0000000000000001
 21
1.0
 31
0.0
 73
     2
 44
0.8433729999999998
  0
MTEXT
  5
32A
330
1F
100
AcDbEntity
  8
SK2
100
AcDbMText
 10
191.916868
 20
283.696744
 30
0.0
 40
3.5
 41
0.0
 71
     7
 72
     5
  1
\W3.0115;\H2.63;%%c\H3.50;
  7
cesky
 11
0.0000000000000001
 21
1.0
 31
0.0
 73
     2
 44
0.8433729999999998
  0
LINE
  5
32B
330
1F
100
AcDbEntity
  8
SK2
100
AcDbLine
 10
274.904842
 20
309.907994
 30
0.0
 11
191.104285
 21
309.907994
 31
0.0
  0
LINE
  5
32C
330
1F
100
AcDbEntity
  8
SK2
100
AcDbLine
 10
274.904842
 20
267.907994
 30
0.0
 11
191.104285
 21
267.907994
 31
0.0
  0
LINE
  5
32D
330
1F
100
AcDbEntity
  8
SK2
100
AcDbLine
 10
192.104285
 20
309.907994
 30
0.0
 11
192.104285
 21
267.907994
 31
0.0
  0
SOLID
  5
32E
330
1F
100
AcDbEntity
  8
SK2
100
AcDbTrace
 10
192.104285
 20
309.907994
 30
0.0
 11
192.721429
 21
306.407996
 31
0.0
 12
191.48714
 22
306.407991
 32
0.0
 13
191.48714
 23
306.407991
 33
0.0
  0
SOLID
  5
32F
330
1F
100
AcDbEntity
  8
SK2
100
AcDbTrace
 10
192.104285
 20
267.907994
 30
0.0
 11
191.48714
 21
271.4079910000001
 31
0.0
 12
192.721429
 22
271.407996
 32
0.0
 13
192.721429
 23
271.407996
 33
0.0
  0
LINE
  5
330
330
1F
100
AcDbEntity
  8
CUT
100
AcDbLine
 10
423.2974360653503
 20
295.9531808399667
 30
0.0
 11
423.4048419452957
 21
289.8047852295759
 31
0.0
  0
LINE
  5
332
330
1F
100
AcDbEntity
  8
CUT
100
AcDbLine
 10
422.7224435672882
 20
296.9100441811399
 30
0.0
 11
423.2974360653503
 21
295.9531808399667
 31
0.0
  0
LINE
  5
333
330
1F
100
AcDbEntity
  8
CUT
100
AcDbLine
 10
422.4798350269057
 20
303.66218217725
 30
0.0
 11
422.7224435672882
 21
296.9100441811398
 31
0.0
  0
LINE
  5
335
330
1F
100
AcDbEntity
  8
CUT
100
AcDbLine
 10
413.7071017242026
 20
304.1115452616213
 30
0.0
 11
421.6798303725917
 21
304.4045624945571
 31
0.0
  0
LINE
  5
336
330
1F
100
AcDbEntity
  8
CUT
100
AcDbLine
 10
423.4048419999999
 20
289.804785
 30
0.0
 11
423.4048419999999
 21
288.907994
 31
0.0
  0
LINE
  5
337
330
1F
100
AcDbEntity
  8
CUT
100
AcDbLine
 10
412.9623759999999
 20
288.907994
 30
0.0
 11
412.9623759999999
 21
303.311938
 31
0.0
  0
LINE
  5
338
330
1F
100
AcDbEntity
  8
CUT
100
AcDbLine
 10
423.4048419999999
 20
288.907994
 30
0.0
 11
412.9623759999999
 21
288.907994
 31
0.0
  0
ARC
  5
339
330
1F
100
AcDbEntity
  8
CUT
100
AcDbCircle
 10
413.7446305561199
 20
303.3303313598805
 30
0.0
 40
0.7824707093133388
100
AcDbArc
 50
95.51515483681361
 51
181.3469842234755
  0
ARC
  5
33A
330
1F
100
AcDbEntity
  8
CUT
100
AcDbCircle
 10
413.7336781355207
 20
303.387065691355
 30
0.0
 40
0.7249668636370684
100
AcDbArc
 50
92.10086493697028
 51
95.08450091689153
  0
ARC
  5
33B
330
1F
100
AcDbEntity
  8
CUT
100
AcDbCircle
 10
421.7003515617488
 20
303.623821077558
 30
0.0
 40
0.7810110622918048
100
AcDbArc
 50
6.969160511071237
 51
91.50562894403032
  0
ARC
  5
33C
330
1F
100
AcDbEntity
  8
CUT
100
AcDbCircle
 10
421.7581714399755
 20
303.6362572354716
 30
0.0
 40
0.7221290987815375
100
AcDbArc
 50
2.057400833738179
 51
6.546362859802144
  0
ENDSEC
  0
SECTION
  2
OBJECTS
  0
DICTIONARY
  5
C
330
0
100
AcDbDictionary
281
     1
  3
ACAD_CIP_PREVIOUS_PRODUCT_INFO
350
302
  3
ACAD_COLOR
350
2FD
  3
ACAD_DETAILVIEWSTYLE
350
2F9
  3
ACAD_GROUP
350
D
  3
ACAD_LAYOUT
350
1A
  3
ACAD_MATERIAL
350
43
  3
ACAD_MLEADERSTYLE
350
6B
  3
ACAD_MLINESTYLE
350
17
  3
ACAD_PLOTSETTINGS
350
19
  3
ACAD_PLOTSTYLENAME
350
E
  3
ACAD_SCALELIST
350
47
  3
ACAD_SECTIONVIEWSTYLE
350
2FA
  3
ACAD_TABLESTYLE
350
69
  3
ACAD_VISUALSTYLE
350
2A
  3
ACDB_RECOMPOSE_DATA
350
368
  3
AcDbVariableDictionary
350
2B6
  0
DICTIONARY
  5
34B
330
10
100
AcDbDictionary
280
     1
281
     1
  3
ADSK_XREC_LAYER_RECONCILED
360
34C
  0
DICTIONARY
  5
34D
330
33D
100
AcDbDictionary
280
     1
281
     1
  3
ADSK_XREC_LAYER_RECONCILED
360
34E
  0
DICTIONARY
  5
34F
330
33E
100
AcDbDictionary
280
     1
281
     1
  3
ADSK_XREC_LAYER_RECONCILED
360
350
  0
DICTIONARY
  5
351
330
33F
100
AcDbDictionary
280
     1
281
     1
  3
ADSK_XREC_LAYER_RECONCILED
360
352
  0
DICTIONARY
  5
353
330
341
100
AcDbDictionary
280
     1
281
     1
  3
ADSK_XREC_LAYER_RECONCILED
360
354
  0
DICTIONARY
  5
355
330
342
100
AcDbDictionary
280
     1
281
     1
  3
ADSK_XREC_LAYER_RECONCILED
360
356
  0
DICTIONARY
  5
357
330
344
100
AcDbDictionary
280
     1
281
     1
  3
ADSK_XREC_LAYER_RECONCILED
360
358
  0
DICTIONARY
  5
359
330
345
100
AcDbDictionary
280
     1
281
     1
  3
ADSK_XREC_LAYER_RECONCILED
360
35A
  0
DICTIONARY
  5
35B
330
346
100
AcDbDictionary
280
     1
281
     1
  3
ADSK_XREC_LAYER_RECONCILED
360
35C
  0
DICTIONARY
  5
35D
330
347
100
AcDbDictionary
280
     1
281
     1
  3
ADSK_XREC_LAYER_RECONCILED
360
35E
  0
DICTIONARY
  5
35F
330
348
100
AcDbDictionary
280
     1
281
     1
  3
ADSK_XREC_LAYER_RECONCILED
360
360
  0
DICTIONARY
  5
361
330
349
100
AcDbDictionary
280
     1
281
     1
  3
ADSK_XREC_LAYER_RECONCILED
360
362
  0
DICTIONARY
  5
303
330
1F
100
AcDbDictionary
280
     1
281
     1
  3
ACAD_SORTENTS
360
304
  0
XRECORD
  5
302
102
{ACAD_REACTORS
330
C
102
}
330
C
100
AcDbXrecord
280
     1
300
ACD
300
2019
300
87084ACD_2019_0F
  0
DICTIONARY
  5
2FD
102
{ACAD_REACTORS
330
C
102
}
330
C
100
AcDbDictionary
281
     1
  0
DICTIONARY
  5
2F9
102
{ACAD_REACTORS
330
C
102
}
330
C
100
AcDbDictionary
281
     1
  3
Metric50
350
2FF
  0
DICTIONARY
  5
D
102
{ACAD_REACTORS
330
C
102
}
330
C
100
AcDbDictionary
281
     1
  3
NULOVY_BOD
350
34A
  0
DICTIONARY
  5
1A
102
{ACAD_REACTORS
330
C
102
}
330
C
100
AcDbDictionary
281
     1
  3
Layout1
350
1E
  3
Layout2
350
26
  3
Model
350
22
  0
DICTIONARY
  5
43
102
{ACAD_REACTORS
330
C
102
}
330
C
100
AcDbDictionary
281
     1
  3
ByBlock
350
45
  3
ByLayer
350
44
  3
Global
350
46
  0
DICTIONARY
  5
6B
102
{ACAD_REACTORS
330
C
102
}
330
C
100
AcDbDictionary
281
     1
  3
Standard
350
6C
  0
DICTIONARY
  5
17
102
{ACAD_REACTORS
330
C
102
}
330
C
100
AcDbDictionary
281
     1
  3
Standard
350
18
  0
DICTIONARY
  5
19
102
{ACAD_REACTORS
330
C
102
}
330
C
100
AcDbDictionary
281
     1
  0
ACDBDICTIONARYWDFLT
  5
E
102
{ACAD_REACTORS
330
C
102
}
330
C
100
AcDbDictionary
281
     1
  3
Normal
350
F
100
AcDbDictionaryWithDefault
340
F
  0
DICTIONARY
  5
47
102
{ACAD_REACTORS
330
C
102
}
330
C
100
AcDbDictionary
281
     1
  3
A0
350
48
  3
A1
350
49
  3
A2
350
4A
  3
A3
350
4B
  3
A4
350
4C
  3
A5
350
4D
  3
A6
350
4E
  3
A7
350
4F
  3
A8
350
50
  3
A9
350
51
  3
B0
350
52
  3
B1
350
53
  3
B2
350
54
  3
B3
350
55
  3
B4
350
56
  3
B5
350
57
  3
B6
350
58
  3
B7
350
59
  3
B8
350
5A
  3
B9
350
5B
  3
C0
350
5C
  3
C1
350
5D
  3
C2
350
5E
  3
C3
350
5F
  3
C4
350
60
  3
C5
350
61
  3
C6
350
62
  3
C7
350
63
  3
C8
350
64
  3
C9
350
65
  3
D0
350
66
  3
D1
350
67
  3
D2
350
68
  0
DICTIONARY
  5
2FA
102
{ACAD_REACTORS
330
C
102
}
330
C
100
AcDbDictionary
281
     1
  3
Metric50
350
2FE
  0
DICTIONARY
  5
69
102
{ACAD_REACTORS
330
C
102
}
330
C
100
AcDbDictionary
281
     1
  3
Standard
350
6A
  0
DICTIONARY
  5
2A
102
{ACAD_REACTORS
330
C
102
}
330
C
100
AcDbDictionary
281
     1
  3
2dWireframe
350
2F
  3
Basic
350
32
  3
Brighten
350
36
  3
ColorChange
350
3A
  3
Conceptual
350
34
  3
Dim
350
35
  3
EdgeColorOff
350
3D
  3
Facepattern
350
39
  3
Flat
350
2B
  3
FlatWithEdges
350
2C
  3
Gouraud
350
2D
  3
GouraudWithEdges
350
2E
  3
Hidden
350
31
  3
JitterOff
350
3B
  3
Linepattern
350
38
  3
OverhangOff
350
3C
  3
Realistic
350
33
  3
Shaded
350
42
  3
Shaded with edges
350
41
  3
Shades of Gray
350
3E
  3
Sketchy
350
3F
  3
Thicken
350
37
  3
Wireframe
350
30
  3
X-Ray
350
40
  0
XRECORD
  5
368
102
{ACAD_REACTORS
330
C
102
}
330
C
100
AcDbXrecord
280
     1
 90
        1
330
6A
  0
DICTIONARY
  5
2B6
102
{ACAD_REACTORS
330
C
102
}
330
C
100
AcDbDictionary
281
     1
  3
CANNOSCALE
350
2B7
  3
CMLEADERSTYLE
350
2F8
  3
CTABLESTYLE
350
2F7
  3
CVIEWDETAILSTYLE
350
363
  3
CVIEWSECTIONSTYLE
350
364
  3
MSLTSCALE
350
2B8
  3
XCLIPFRAME
350
365
  0
XRECORD
  5
34C
102
{ACAD_REACTORS
330
34B
102
}
330
34B
100
AcDbXrecord
280
     1
290
     1
  0
XRECORD
  5
34E
102
{ACAD_REACTORS
330
34D
102
}
330
34D
100
AcDbXrecord
280
     1
290
     1
  0
XRECORD
  5
350
102
{ACAD_REACTORS
330
34F
102
}
330
34F
100
AcDbXrecord
280
     1
290
     1
  0
XRECORD
  5
352
102
{ACAD_REACTORS
330
351
102
}
330
351
100
AcDbXrecord
280
     1
290
     1
  0
XRECORD
  5
354
102
{ACAD_REACTORS
330
353
102
}
330
353
100
AcDbXrecord
280
     1
290
     1
  0
XRECORD
  5
356
102
{ACAD_REACTORS
330
355
102
}
330
355
100
AcDbXrecord
280
     1
290
     1
  0
XRECORD
  5
358
102
{ACAD_REACTORS
330
357
102
}
330
357
100
AcDbXrecord
280
     1
290
     1
  0
XRECORD
  5
35A
102
{ACAD_REACTORS
330
359
102
}
330
359
100
AcDbXrecord
280
     1
290
     1
  0
XRECORD
  5
35C
102
{ACAD_REACTORS
330
35B
102
}
330
35B
100
AcDbXrecord
280
     1
290
     1
  0
XRECORD
  5
35E
102
{ACAD_REACTORS
330
35D
102
}
330
35D
100
AcDbXrecord
280
     1
290
     1
  0
XRECORD
  5
360
102
{ACAD_REACTORS
330
35F
102
}
330
35F
100
AcDbXrecord
280
     1
290
     1
  0
XRECORD
  5
362
102
{ACAD_REACTORS
330
361
102
}
330
361
100
AcDbXrecord
280
     1
290
     1
  0
SORTENTSTABLE
  5
304
102
{ACAD_REACTORS
330
303
102
}
330
303
100
AcDbSortentsTable
330
1F
331
305
  5
270
331
306
  5
289
331
307
  5
305
331
308
  5
306
331
309
  5
307
331
30A
  5
308
331
30B
  5
309
331
30C
  5
30A
331
30D
  5
30B
331
30E
  5
30C
331
30F
  5
30D
331
310
  5
30E
331
311
  5
30F
331
312
  5
310
331
313
  5
311
331
314
  5
312
331
315
  5
313
331
316
  5
314
331
317
  5
315
331
318
  5
316
331
319
  5
317
331
31A
  5
318
331
31B
  5
319
331
31C
  5
31A
331
31D
  5
31B
331
31E
  5
31C
331
31F
  5
31D
331
320
  5
31E
331
321
  5
31F
331
332
  5
335
331
333
  5
336
331
335
  5
339
331
336
  5
33A
331
337
  5
33B
331
338
  5
33C
331
339
  5
332
331
33A
  5
333
331
33B
  5
337
331
33C
  5
338
  0
ACDBDETAILVIEWSTYLE
  5
2FF
102
{ACAD_XDICTIONARY
360
39C
102
}
102
{ACAD_REACTORS
330
2F9
102
}
330
2F9
100
AcDbModelDocViewStyle
 70
     0
  3
Metric50
290
     0
100
AcDbDetailViewStyle
 70
     0
 71
     0
 90
        3
 71
     1
340
11
 62
   256
 40
5.0
340
0
 62
   256
 40
5.0
300

 40
0.0
280
     1
 71
     2
340
16
 90
       25
 62
   256
 71
     3
340
11
 62
   256
 40
5.0
 90
        0
 40
15.0
 90
        1
300
%<\AcVar ViewDetailId>% (%<\AcVar ViewScale \f "%sn">%)
 71
     4
340
16
 90
       25
 62
   256
340
16
 90
       25
 62
   256
280
     0
  0
GROUP
  5
34A
102
{ACAD_REACTORS
330
D
102
}
330
D
100
AcDbGroup
300

 70
     0
 71
     1
340
73
  0
LAYOUT
  5
1E
102
{ACAD_REACTORS
330
1A
102
}
330
1A
100
AcDbPlotSettings
  1

  2
none_device
  4

  6

 40
0.0
 41
0.0
 42
0.0
 43
0.0
 44
0.0
 45
0.0
 46
0.0
 47
0.0
 48
0.0
 49
0.0
140
0.0
141
0.0
142
1.0
143
1.0
 70
   688
 72
     0
 73
     0
 74
     5
  7

 75
    16
147
1.0
 76
     0
 77
     2
 78
   300
148
0.0
149
0.0
100
AcDbLayout
  1
Layout1
 70
     1
 71
     1
 10
-0.5
 20
-0.5
 11
5.0
 21
5.0
 12
0.0
 22
0.0
 32
0.0
 14
-0.5
 24
-0.5
 34
-0.5
 15
5.0
 25
5.0
 35
5.0
146
0.0
 13
0.0
 23
0.0
 33
0.0
 16
1.0
 26
0.0
 36
0.0
 17
0.0
 27
1.0
 37
0.0
 76
     0
330
1B
  0
LAYOUT
  5
26
102
{ACAD_REACTORS
330
1A
102
}
330
1A
100
AcDbPlotSettings
  1

  2
none_device
  4

  6

 40
0.0
 41
0.0
 42
0.0
 43
0.0
 44
0.0
 45
0.0
 46
0.0
 47
0.0
 48
0.0
 49
0.0
140
0.0
141
0.0
142
1.0
143
1.0
 70
   688
 72
     0
 73
     0
 74
     5
  7

 75
    16
147
1.0
 76
     0
 77
     2
 78
   300
148
0.0
149
0.0
100
AcDbLayout
  1
Layout2
 70
     1
 71
     2
 10
0.0
 20
0.0
 11
0.0
 21
0.0
 12
0.0
 22
0.0
 32
0.0
 14
0.0
 24
0.0
 34
0.0
 15
0.0
 25
0.0
 35
0.0
146
0.0
 13
0.0
 23
0.0
 33
0.0
 16
1.0
 26
0.0
 36
0.0
 17
0.0
 27
1.0
 37
0.0
 76
     0
330
23
  0
LAYOUT
  5
22
102
{ACAD_REACTORS
330
1A
102
}
330
1A
100
AcDbPlotSettings
  1

  2
none_device
  4
Letter_(8.50_x_11.00_Inches)
  6

 40
6.349999999999999
 41
6.349999999999999
 42
6.350005
 43
6.350005
 44
215.9
 45
279.4
 46
0.0
 47
0.0
 48
0.0
 49
0.0
140
0.0
141
0.0
142
1.0
143
1.0
 70
  1712
 72
     0
 73
     0
 74
     0
  7

 75
     0
147
1.0
 76
     0
 77
     2
 78
   300
148
0.0
149
0.0
100
AcDbLayout
  1
Model
 70
     1
 71
     0
 10
-0.5
 20
-0.5
 11
5.0
 21
5.0
 12
0.0
 22
0.0
 32
0.0
 14
-0.5
 24
-0.5
 34
-0.5
 15
5.0
 25
5.0
 35
5.0
146
0.0
 13
0.0
 23
0.0
 33
0.0
 16
1.0
 26
0.0
 36
0.0
 17
0.0
 27
1.0
 37
0.0
 76
     0
330
1F
331
29
  0
MATERIAL
  5
45
102
{ACAD_XDICTIONARY
360
2EC
102
}
102
{ACAD_REACTORS
330
43
102
}
330
43
100
AcDbMaterial
  1
ByBlock
  0
MATERIAL
  5
44
102
{ACAD_XDICTIONARY
360
2EA
102
}
102
{ACAD_REACTORS
330
43
102
}
330
43
100
AcDbMaterial
  1
ByLayer
  0
MATERIAL
  5
46
102
{ACAD_XDICTIONARY
360
2EE
102
}
102
{ACAD_REACTORS
330
43
102
}
330
43
100
AcDbMaterial
  1
Global
  0
MLEADERSTYLE
  5
6C
102
{ACAD_REACTORS
330
6B
102
}
330
6B
100
AcDbMLeaderStyle
170
     2
171
     1
172
     0
 90
        2
 40
0.0
 41
0.0
173
     1
 91
-1056964608
340
14
 92
       -2
290
     1
 42
0.09
291
     1
 43
0.36
  3
Standard
 44
0.18
300

342
11
174
     1
178
     6
175
     1
176
     0
 93
-1056964608
 45
0.18
292
     0
297
     0
 46
0.18
 94
-1056964608
 47
1.0
 49
1.0
140
1.0
293
     1
141
0.0
294
     1
177
     0
142
1.0
295
     0
296
     0
143
0.125
1001
ACAD_MLEADERVER
1070
     2
  0
MLINESTYLE
  5
18
102
{ACAD_REACTORS
330
17
102
}
330
17
100
AcDbMlineStyle
  2
STANDARD
 70
     0
  3

 62
   256
 51
90.0
 52
90.0
 71
     2
 49
0.5
 62
   256
  6
BYLAYER
 49
-0.5
 62
   256
  6
BYLAYER
  0
ACDBPLACEHOLDER
  5
F
102
{ACAD_REACTORS
330
E
102
}
330
E
  0
SCALE
  5
48
102
{ACAD_REACTORS
330
47
102
}
330
47
100
AcDbScale
 70
     0
300
1:1
140
1.0
141
1.0
290
     1
  0
SCALE
  5
49
102
{ACAD_REACTORS
330
47
102
}
330
47
100
AcDbScale
 70
     0
300
1:2
140
1.0
141
2.0
290
     0
  0
SCALE
  5
4A
102
{ACAD_REACTORS
330
47
102
}
330
47
100
AcDbScale
 70
     0
300
1:4
140
1.0
141
4.0
290
     0
  0
SCALE
  5
4B
102
{ACAD_REACTORS
330
47
102
}
330
47
100
AcDbScale
 70
     0
300
1:5
140
1.0
141
5.0
290
     0
  0
SCALE
  5
4C
102
{ACAD_REACTORS
330
47
102
}
330
47
100
AcDbScale
 70
     0
300
1:8
140
1.0
141
8.0
290
     0
  0
SCALE
  5
4D
102
{ACAD_REACTORS
330
47
102
}
330
47
100
AcDbScale
 70
     0
300
1:10
140
1.0
141
10.0
290
     0
  0
SCALE
  5
4E
102
{ACAD_REACTORS
330
47
102
}
330
47
100
AcDbScale
 70
     0
300
1:16
140
1.0
141
16.0
290
     0
  0
SCALE
  5
4F
102
{ACAD_REACTORS
330
47
102
}
330
47
100
AcDbScale
 70
     0
300
1:20
140
1.0
141
20.0
290
     0
  0
SCALE
  5
50
102
{ACAD_REACTORS
330
47
102
}
330
47
100
AcDbScale
 70
     0
300
1:30
140
1.0
141
30.0
290
     0
  0
SCALE
  5
51
102
{ACAD_REACTORS
330
47
102
}
330
47
100
AcDbScale
 70
     0
300
1:40
140
1.0
141
40.0
290
     0
  0
SCALE
  5
52
102
{ACAD_REACTORS
330
47
102
}
330
47
100
AcDbScale
 70
     0
300
1:50
140
1.0
141
50.0
290
     0
  0
SCALE
  5
53
102
{ACAD_REACTORS
330
47
102
}
330
47
100
AcDbScale
 70
     0
300
1:100
140
1.0
141
100.0
290
     0
  0
SCALE
  5
54
102
{ACAD_REACTORS
330
47
102
}
330
47
100
AcDbScale
 70
     0
300
2:1
140
2.0
141
1.0
290
     0
  0
SCALE
  5
55
102
{ACAD_REACTORS
330
47
102
}
330
47
100
AcDbScale
 70
     0
300
4:1
140
4.0
141
1.0
290
     0
  0
SCALE
  5
56
102
{ACAD_REACTORS
330
47
102
}
330
47
100
AcDbScale
 70
     0
300
8:1
140
8.0
141
1.0
290
     0
  0
SCALE
  5
57
102
{ACAD_REACTORS
330
47
102
}
330
47
100
AcDbScale
 70
     0
300
10:1
140
10.0
141
1.0
290
     0
  0
SCALE
  5
58
102
{ACAD_REACTORS
330
47
102
}
330
47
100
AcDbScale
 70
     0
300
100:1
140
100.0
141
1.0
290
     0
  0
SCALE
  5
59
102
{ACAD_REACTORS
330
47
102
}
330
47
100
AcDbScale
 70
     0
300
1/128" = 1'-0"
140
0.007812
141
12.0
290
     0
  0
SCALE
  5
5A
102
{ACAD_REACTORS
330
47
102
}
330
47
100
AcDbScale
 70
     0
300
1/64" = 1'-0"
140
0.015625
141
12.0
290
     0
  0
SCALE
  5
5B
102
{ACAD_REACTORS
330
47
102
}
330
47
100
AcDbScale
 70
     0
300
1/32" = 1'-0"
140
0.03125
141
12.0
290
     0
  0
SCALE
  5
5C
102
{ACAD_REACTORS
330
47
102
}
330
47
100
AcDbScale
 70
     0
300
1/16" = 1'-0"
140
0.0625
141
12.0
290
     0
  0
SCALE
  5
5D
102
{ACAD_REACTORS
330
47
102
}
330
47
100
AcDbScale
 70
     0
300
3/32" = 1'-0"
140
0.09375
141
12.0
290
     0
  0
SCALE
  5
5E
102
{ACAD_REACTORS
330
47
102
}
330
47
100
AcDbScale
 70
     0
300
1/8" = 1'-0"
140
0.125
141
12.0
290
     0
  0
SCALE
  5
5F
102
{ACAD_REACTORS
330
47
102
}
330
47
100
AcDbScale
 70
     0
300
3/16" = 1'-0"
140
0.1875
141
12.0
290
     0
  0
SCALE
  5
60
102
{ACAD_REACTORS
330
47
102
}
330
47
100
AcDbScale
 70
     0
300
1/4" = 1'-0"
140
0.25
141
12.0
290
     0
  0
SCALE
  5
61
102
{ACAD_REACTORS
330
47
102
}
330
47
100
AcDbScale
 70
     0
300
3/8" = 1'-0"
140
0.375
141
12.0
290
     0
  0
SCALE
  5
62
102
{ACAD_REACTORS
330
47
102
}
330
47
100
AcDbScale
 70
     0
300
1/2" = 1'-0"
140
0.5
141
12.0
290
     0
  0
SCALE
  5
63
102
{ACAD_REACTORS
330
47
102
}
330
47
100
AcDbScale
 70
     0
300
3/4" = 1'-0"
140
0.75
141
12.0
290
     0
  0
SCALE
  5
64
102
{ACAD_REACTORS
330
47
102
}
330
47
100
AcDbScale
 70
     0
300
1" = 1'-0"
140
1.0
141
12.0
290
     0
  0
SCALE
  5
65
102
{ACAD_REACTORS
330
47
102
}
330
47
100
AcDbScale
 70
     0
300
1-1/2" = 1'-0"
140
1.5
141
12.0
290
     0
  0
SCALE
  5
66
102
{ACAD_REACTORS
330
47
102
}
330
47
100
AcDbScale
 70
     0
300
3" = 1'-0"
140
3.0
141
12.0
290
     0
  0
SCALE
  5
67
102
{ACAD_REACTORS
330
47
102
}
330
47
100
AcDbScale
 70
     0
300
6" = 1'-0"
140
6.0
141
12.0
290
     0
  0
SCALE
  5
68
102
{ACAD_REACTORS
330
47
102
}
330
47
100
AcDbScale
 70
     0
300
1'-0" = 1'-0"
140
12.0
141
12.0
290
     0
  0
ACDBSECTIONVIEWSTYLE
  5
2FE
102
{ACAD_XDICTIONARY
360
39A
102
}
102
{ACAD_REACTORS
330
2FA
102
}
330
2FA
100
AcDbModelDocViewStyle
 70
     0
  3
Metric50
290
     0
100
AcDbSectionViewStyle
 70
     0
 71
     0
 90
      102
 71
     1
340
11
 62
   256
 40
5.0
340
0
340
0
 62
   256
 40
5.0
300
I, O, Q, S, X, Z
 40
10.0
 90
        0
 40
2.5
 90
        0
 71
     2
340
16
 90
       25
 62
   256
340
16
 90
       50
 62
   256
 40
5.0
 40
2.5
 40
5.0
 71
     3
340
11
 62
   256
 40
5.0
 90
        0
 40
15.0
 90
        1
300
%<\AcVar ViewSectionStartId>%-%<\AcVar ViewSectionEndId>% (%<\AcVar ViewScale \f "%sn">%)
 71
     4
 62
   256
 62
   257
300
ANSI31
 40
1.0
 90
        0
290
     0
290
     0
 90
        6
 40
0.0
 40
1.570796326794896
 40
0.2617993877991494
 40
1.308996938995747
 40
-0.2617993877991494
 40
1.832595714594046
  0
TABLESTYLE
  5
6A
102
{ACAD_XDICTIONARY
360
2F0
102
}
102
{ACAD_REACTORS
330
69
102
}
330
69
100
AcDbTableStyle
  3
Standard
 70
     0
 71
     0
 40
0.06
 41
0.06
280
     0
281
     0
  7
Standard
140
0.18
170
     2
 62
     0
 63
     7
283
     0
274
    -2
284
     1
 64
     0
275
    -2
285
     1
 65
     0
276
    -2
286
     1
 66
     0
277
    -2
287
     1
 67
     0
278
    -2
288
     1
 68
     0
279
    -2
289
     1
 69
     0
  7
Standard
140
0.25
170
     5
 62
     0
 63
     7
283
     0
274
    -2
284
     1
 64
     0
275
    -2
285
     1
 65
     0
276
    -2
286
     1
 66
     0
277
    -2
287
     1
 67
     0
278
    -2
288
     1
 68
     0
279
    -2
289
     1
 69
     0
  7
Standard
140
0.18
170
     5
 62
     0
 63
     7
283
     0
274
    -2
284
     1
 64
     0
275
    -2
285
     1
 65
     0
276
    -2
286
     1
 66
     0
277
    -2
287
     1
 67
     0
278
    -2
288
     1
 68
     0
279
    -2
289
     1
 69
     0
  0
VISUALSTYLE
  5
2F
102
{ACAD_XDICTIONARY
360
371
102
}
102
{ACAD_REACTORS
330
2A
102
}
330
2A
100
AcDbVisualStyle
  2

 70
     4
 71
     0
 72
     2
 73
     0
 90
        0
 40
-0.6
 41
-30.0
 62
     5
 63
     7
421
 16777215
 74
     1
 91
        4
 64
     7
 65
   257
 75
     1
175
     1
 42
1.0
 92
        0
 66
   257
 43
1.0
 76
     1
 77
     6
 78
     2
 67
     7
 79
     5
170
     0
171
     0
290
     0
174
     0
 93
        1
 44
0.0
173
     0
291
     0
 45
0.0
1001
ACAD
1000
AcDbSavedByObjectVersion
1070
     0
  0
VISUALSTYLE
  5
32
102
{ACAD_XDICTIONARY
360
377
102
}
102
{ACAD_REACTORS
330
2A
102
}
330
2A
100
AcDbVisualStyle
  2

 70
     7
 71
     1
 72
     0
 73
     1
 90
        0
 40
-0.6
 41
-30.0
 62
     5
 63
     7
421
 16777215
 74
     0
 91
        4
 64
     7
 65
   257
 75
     1
175
     1
 42
1.0
 92
        8
 66
     7
 43
1.0
 76
     1
 77
     6
 78
     2
 67
     7
 79
     5
170
     0
171
     0
290
     0
174
     0
 93
        1
 44
0.0
173
     0
291
     1
 45
0.0
1001
ACAD
1000
AcDbSavedByObjectVersion
1070
     0
  0
VISUALSTYLE
  5
36
102
{ACAD_XDICTIONARY
360
37F
102
}
102
{ACAD_REACTORS
330
2A
102
}
330
2A
100
AcDbVisualStyle
  2

 70
    12
 71
     2
 72
     2
 73
     0
 90
        0
 40
-0.6
 41
-30.0
 62
     5
 63
     7
421
 16777215
 74
     1
 91
        4
 64
     7
 65
   257
 75
     1
175
     1
 42
1.0
 92
        8
 66
     7
 43
1.0
 76
     1
 77
     6
 78
     2
 67
     7
 79
     5
170
     0
171
     0
290
     0
174
     0
 93
        1
 44
50.0
173
     0
291
     1
 45
0.0
1001
ACAD
1000
AcDbSavedByObjectVersion
1070
     0
  0
VISUALSTYLE
  5
3A
102
{ACAD_XDICTIONARY
360
387
102
}
102
{ACAD_REACTORS
330
2A
102
}
330
2A
100
AcDbVisualStyle
  2

 70
    16
 71
     2
 72
     2
 73
     3
 90
        0
 40
-0.6
 41
-30.0
 62
     5
 63
     8
421
  8421504
 74
     1
 91
        4
 64
     7
 65
   257
 75
     1
175
     1
 42
1.0
 92
        8
 66
     8
424
  8421504
 43
1.0
 76
     1
 77
     6
 78
     2
 67
     7
 79
     5
170
     0
171
     0
290
     0
174
     0
 93
        1
 44
0.0
173
     0
291
     1
 45
0.0
1001
ACAD
1000
AcDbSavedByObjectVersion
1070
     0
  0
VISUALSTYLE
  5
34
102
{ACAD_XDICTIONARY
360
37B
102
}
102
{ACAD_REACTORS
330
2A
102
}
330
2A
100
AcDbVisualStyle
  2

 70
     9
 71
     3
 72
     2
 73
     0
 90
        0
 40
-0.6
 41
-30.0
 62
     5
 63
     7
421
 16777215
 74
     2
 91
        2
 64
     7
 65
   257
 75
     1
175
     1
 42
179.0
 92
        8
 66
     7
 43
1.0
 76
     1
 77
     6
 78
     2
 67
     7
 79
     3
170
     0
171
     0
290
     0
174
     0
 93
        1
 44
0.0
173
     0
291
     0
 45
0.0
1001
ACAD
1000
AcDbSavedByObjectVersion
1070
     0
  0
VISUALSTYLE
  5
35
102
{ACAD_XDICTIONARY
360
37D
102
}
102
{ACAD_REACTORS
330
2A
102
}
330
2A
100
AcDbVisualStyle
  2

 70
    11
 71
     2
 72
     2
 73
     0
 90
        0
 40
-0.6
 41
-30.0
 62
     5
 63
     7
421
 16777215
 74
     1
 91
        4
 64
     7
 65
   257
 75
     1
175
     1
 42
1.0
 92
        8
 66
     7
 43
1.0
 76
     1
 77
     6
 78
     2
 67
     7
 79
     5
170
     0
171
     0
290
     0
174
     0
 93
        1
 44
-50.0
173
     0
291
     1
 45
0.0
1001
ACAD
1000
AcDbSavedByObjectVersion
1070
     0
  0
VISUALSTYLE
  5
3D
102
{ACAD_XDICTIONARY
360
38D
102
}
102
{ACAD_REACTORS
330
2A
102
}
330
2A
100
AcDbVisualStyle
  2

 70
    22
 71
     2
 72
     2
 73
     0
 90
        0
 40
-0.6
 41
-30.0
 62
     5
 63
     7
421
 16777215
 74
     1
 91
        4
 64
     7
 65
   257
 75
     1
175
     1
 42
1.0
 92
        8
 66
     7
 43
1.0
 76
     1
 77
     6
 78
     2
 67
     7
 79
     5
170
     0
171
     0
290
     0
174
     0
 93
        1
 44
0.0
173
     0
291
     1
 45
0.0
1001
ACAD
1000
AcDbSavedByObjectVersion
1070
     0
  0
VISUALSTYLE
  5
39
102
{ACAD_XDICTIONARY
360
385
102
}
102
{ACAD_REACTORS
330
2A
102
}
330
2A
100
AcDbVisualStyle
  2

 70
    15
 71
     2
 72
     2
 73
     0
 90
        0
 40
-0.6
 41
-30.0
 62
     5
 63
     7
421
 16777215
 74
     1
 91
        4
 64
     7
 65
   257
 75
     1
175
     1
 42
1.0
 92
        8
 66
     7
 43
1.0
 76
     1
 77
     6
 78
     2
 67
     7
 79
     5
170
     0
171
     0
290
     0
174
     0
 93
        1
 44
0.0
173
     0
291
     1
 45
0.0
1001
ACAD
1000
AcDbSavedByObjectVersion
1070
     0
  0
VISUALSTYLE
  5
2B
102
{ACAD_XDICTIONARY
360
369
102
}
102
{ACAD_REACTORS
330
2A
102
}
330
2A
100
AcDbVisualStyle
  2

 70
     0
 71
     2
 72
     1
 73
     1
 90
        2
 40
-0.6
 41
30.0
 62
     5
 63
     7
421
 16777215
 74
     0
 91
        0
 64
     7
 65
   257
 75
     1
175
     1
 42
1.0
 92
        8
 66
     7
 43
1.0
 76
     1
 77
     6
 78
     2
 67
     7
 79
     5
170
     0
171
     0
290
     0
174
     0
 93
       13
 44
0.0
173
     0
291
     1
 45
0.0
1001
ACAD
1000
AcDbSavedByObjectVersion
1070
     0
  0
VISUALSTYLE
  5
2C
102
{ACAD_XDICTIONARY
360
36B
102
}
102
{ACAD_REACTORS
330
2A
102
}
330
2A
100
AcDbVisualStyle
  2

 70
     1
 71
     2
 72
     1
 73
     1
 90
        2
 40
-0.6
 41
30.0
 62
     5
 63
     7
421
 16777215
 74
     1
 91
        0
 64
     7
 65
   257
 75
     1
175
     1
 42
1.0
 92
        0
 66
   257
 43
1.0
 76
     1
 77
     6
 78
     2
 67
     7
 79
     5
170
     0
171
     0
290
     0
174
     0
 93
       13
 44
0.0
173
     0
291
     1
 45
0.0
1001
ACAD
1000
AcDbSavedByObjectVersion
1070
     0
  0
VISUALSTYLE
  5
2D
102
{ACAD_XDICTIONARY
360
36D
102
}
102
{ACAD_REACTORS
330
2A
102
}
330
2A
100
AcDbVisualStyle
  2

 70
     2
 71
     2
 72
     2
 73
     1
 90
        2
 40
-0.6
 41
30.0
 62
     5
 63
     7
421
 16777215
 74
     0
 91
        0
 64
     7
 65
   257
 75
     1
175
     1
 42
1.0
 92
        0
 66
     7
 43
1.0
 76
     1
 77
     6
 78
     2
 67
     7
 79
     5
170
     0
171
     0
290
     0
174
     0
 93
       13
 44
0.0
173
     0
291
     1
 45
0.0
1001
ACAD
1000
AcDbSavedByObjectVersion
1070
     0
  0
VISUALSTYLE
  5
2E
102
{ACAD_XDICTIONARY
360
36F
102
}
102
{ACAD_REACTORS
330
2A
102
}
330
2A
100
AcDbVisualStyle
  2

 70
     3
 71
     2
 72
     2
 73
     1
 90
        2
 40
-0.6
 41
30.0
 62
     5
 63
     7
421
 16777215
 74
     1
 91
        0
 64
     7
 65
   257
 75
     1
175
     1
 42
1.0
 92
        0
 66
   257
 43
1.0
 76
     1
 77
     6
 78
     2
 67
     7
 79
     5
170
     0
171
     0
290
     0
174
     0
 93
       13
 44
0.0
173
     0
291
     1
 45
0.0
1001
ACAD
1000
AcDbSavedByObjectVersion
1070
     0
  0
VISUALSTYLE
  5
31
102
{ACAD_XDICTIONARY
360
375
102
}
102
{ACAD_REACTORS
330
2A
102
}
330
2A
100
AcDbVisualStyle
  2

 70
     6
 71
     1
 72
     2
 73
     2
 90
        0
 40
-0.6
 41
-30.0
 62
     5
 63
     7
421
 16777215
 74
     2
 91
        2
 64
     7
 65
   257
 75
     2
175
     1
 42
40.0
 92
        0
 66
   257
 43
1.0
 76
     1
 77
     6
 78
     2
 67
     7
 79
     3
170
     0
171
     0
290
     0
174
     0
 93
        1
 44
0.0
173
     0
291
     0
 45
0.0
1001
ACAD
1000
AcDbSavedByObjectVersion
1070
     0
  0
VISUALSTYLE
  5
3B
102
{ACAD_XDICTIONARY
360
389
102
}
102
{ACAD_REACTORS
330
2A
102
}
330
2A
100
AcDbVisualStyle
  2

 70
    20
 71
     2
 72
     2
 73
     0
 90
        0
 40
-0.6
 41
-30.0
 62
     5
 63
     7
421
 16777215
 74
     1
 91
        4
 64
     7
 65
   257
 75
     1
175
     1
 42
1.0
 92
       10
 66
     7
 43
1.0
 76
     1
 77
     6
 78
     2
 67
     7
 79
     5
170
     0
171
     0
290
     0
174
     0
 93
        1
 44
0.0
173
     0
291
     1
 45
0.0
1001
ACAD
1000
AcDbSavedByObjectVersion
1070
     0
  0
VISUALSTYLE
  5
38
102
{ACAD_XDICTIONARY
360
383
102
}
102
{ACAD_REACTORS
330
2A
102
}
330
2A
100
AcDbVisualStyle
  2

 70
    14
 71
     2
 72
     2
 73
     0
 90
        0
 40
-0.6
 41
-30.0
 62
     5
 63
     7
421
 16777215
 74
     1
 91
        4
 64
     7
 65
   257
 75
     7
175
     7
 42
1.0
 92
        8
 66
     7
 43
1.0
 76
     1
 77
     6
 78
     2
 67
     7
 79
     5
170
     0
171
     0
290
     0
174
     0
 93
        1
 44
0.0
173
     0
291
     1
 45
0.0
1001
ACAD
1000
AcDbSavedByObjectVersion
1070
     0
  0
VISUALSTYLE
  5
3C
102
{ACAD_XDICTIONARY
360
38B
102
}
102
{ACAD_REACTORS
330
2A
102
}
330
2A
100
AcDbVisualStyle
  2

 70
    21
 71
     2
 72
     2
 73
     0
 90
        0
 40
-0.6
 41
-30.0
 62
     5
 63
     7
421
 16777215
 74
     1
 91
        4
 64
     7
 65
   257
 75
     1
175
     1
 42
1.0
 92
        9
 66
     7
 43
1.0
 76
     1
 77
     6
 78
     2
 67
     7
 79
     5
170
     0
171
     0
290
     0
174
     0
 93
        1
 44
0.0
173
     0
291
     1
 45
0.0
1001
ACAD
1000
AcDbSavedByObjectVersion
1070
     0
  0
VISUALSTYLE
  5
33
102
{ACAD_XDICTIONARY
360
379
102
}
102
{ACAD_REACTORS
330
2A
102
}
330
2A
100
AcDbVisualStyle
  2

 70
     8
 71
     2
 72
     3
 73
     0
 90
        2
 40
-0.6
 41
30.0
 62
     5
 63
     7
421
 16777215
 74
     0
 91
        0
 64
     7
 65
   257
 75
     1
175
     1
 42
1.0
 92
        8
 66
   257
 43
1.0
 76
     1
 77
     6
 78
     2
 67
     7
 79
     3
170
     0
171
     0
290
     0
174
     0
 93
       13
 44
0.0
173
     0
291
     0
 45
0.0
1001
ACAD
1000
AcDbSavedByObjectVersion
1070
     0
  0
VISUALSTYLE
  5
42
102
{ACAD_XDICTIONARY
360
397
102
}
102
{ACAD_REACTORS
330
2A
102
}
330
2A
100
AcDbVisualStyle
  2

 70
    27
 71
     2
 72
     2
 73
     1
 90
        2
 40
-0.6
 41
30.0
 62
     5
 63
     7
421
 16777215
 74
     0
 91
        4
 64
     7
 65
   257
 75
     1
175
     1
 42
1.0
 92
        8
 66
   257
 43
1.0
 76
     1
 77
     6
 78
     2
 67
     8
425
  7895160
 79
     3
170
     0
171
     0
290
     0
174
     0
 93
        5
 44
0.0
173
     0
291
     0
 45
0.0
1001
ACAD
1000
AcDbSavedByObjectVersion
1070
     0
  0
VISUALSTYLE
  5
41
102
{ACAD_XDICTIONARY
360
395
102
}
102
{ACAD_REACTORS
330
2A
102
}
330
2A
100
AcDbVisualStyle
  2

 70
    26
 71
     2
 72
     2
 73
     1
 90
        2
 40
-0.6
 41
30.0
 62
     5
 63
     7
421
 16777215
 74
     1
 91
       10
 64
     7
 65
   257
 75
     2
175
     1
 42
1.0
 92
        8
 66
   257
 43
1.0
 76
     1
 77
     6
 78
     2
 67
     7
 79
     3
170
     0
171
     0
290
     0
174
     0
 93
        5
 44
0.0
173
     0
291
     0
 45
0.0
1001
ACAD
1000
AcDbSavedByObjectVersion
1070
     0
  0
VISUALSTYLE
  5
3E
102
{ACAD_XDICTIONARY
360
38F
102
}
102
{ACAD_REACTORS
330
2A
102
}
330
2A
100
AcDbVisualStyle
  2

 70
    23
 71
     2
 72
     2
 73
     3
 90
        0
 40
-0.6
 41
-30.0
 62
     5
 63
     7
421
 16777215
 74
     2
 91
        2
 64
     7
 65
     7
 75
     1
175
     1
 42
40.0
 92
        8
 66
     7
 43
1.0
 76
     1
 77
     6
 78
     2
 67
     7
 79
     3
170
     0
171
     0
290
     0
174
     0
 93
        1
 44
0.0
173
     0
291
     0
 45
0.0
1001
ACAD
1000
AcDbSavedByObjectVersion
1070
     0
  0
VISUALSTYLE
  5
3F
102
{ACAD_XDICTIONARY
360
391
102
}
102
{ACAD_REACTORS
330
2A
102
}
330
2A
100
AcDbVisualStyle
  2

 70
    24
 71
     1
 72
     2
 73
     2
 90
        0
 40
-0.6
 41
-30.0
 62
     5
 63
     7
421
 16777215
 74
     2
 91
        2
 64
     7
 65
     7
 75
     1
175
     1
 42
40.0
 92
       11
 66
     7
 43
1.0
 76
     1
 77
     6
 78
     2
 67
     7
 79
     6
170
     0
171
     0
290
     0
174
     0
 93
        1
 44
0.0
173
     0
291
     0
 45
0.0
1001
ACAD
1000
AcDbSavedByObjectVersion
1070
     0
  0
VISUALSTYLE
  5
37
102
{ACAD_XDICTIONARY
360
381
102
}
102
{ACAD_REACTORS
330
2A
102
}
330
2A
100
AcDbVisualStyle
  2

 70
    13
 71
     2
 72
     2
 73
     0
 90
        0
 40
-0.6
 41
-30.0
 62
     5
 63
     7
421
 16777215
 74
     1
 91
        4
 64
     7
 65
   257
 75
     1
175
     1
 42
1.0
 92
       12
 66
     7
 43
1.0
 76
     1
 77
     6
 78
     2
 67
     7
 79
     5
170
     0
171
     0
290
     0
174
     0
 93
        1
 44
0.0
173
     0
291
     1
 45
0.0
1001
ACAD
1000
AcDbSavedByObjectVersion
1070
     0
  0
VISUALSTYLE
  5
30
102
{ACAD_XDICTIONARY
360
373
102
}
102
{ACAD_REACTORS
330
2A
102
}
330
2A
100
AcDbVisualStyle
  2

 70
     5
 71
     0
 72
     2
 73
     0
 90
        0
 40
-0.6
 41
-30.0
 62
     5
 63
     7
421
 16777215
 74
     1
 91
        4
 64
     7
 65
   257
 75
     1
175
     1
 42
1.0
 92
        0
 66
   257
 43
1.0
 76
     1
 77
     6
 78
     2
 67
     7
 79
     3
170
     0
171
     0
290
     0
174
     0
 93
        1
 44
0.0
173
     0
291
     0
 45
0.0
1001
ACAD
1000
AcDbSavedByObjectVersion
1070
     0
  0
VISUALSTYLE
  5
40
102
{ACAD_XDICTIONARY
360
393
102
}
102
{ACAD_REACTORS
330
2A
102
}
330
2A
100
AcDbVisualStyle
  2

 70
    25
 71
     2
 72
     2
 73
     1
 90
        1
 40
0.5
 41
-30.0
 62
     5
 63
     7
421
 16777215
 74
     1
 91
        0
 64
     7
 65
   257
 75
     1
175
     1
 42
1.0
 92
        8
 66
     7
 43
1.0
 76
     1
 77
     6
 78
     2
 67
     7
 79
     3
170
     0
171
     0
290
     0
174
     0
 93
       13
 44
0.0
173
     0
291
     0
 45
0.0
1001
ACAD
1000
AcDbSavedByObjectVersion
1070
     0
  0
DICTIONARYVAR
  5
2B7
102
{ACAD_REACTORS
330
2B6
102
}
330
2B6
100
DictionaryVariables
280
     0
  1
1:1
  0
DICTIONARYVAR
  5
2F8
102
{ACAD_REACTORS
330
2B6
102
}
330
2B6
100
DictionaryVariables
280
     0
  1
STANDARD
  0
DICTIONARYVAR
  5
2F7
102
{ACAD_REACTORS
330
2B6
102
}
330
2B6
100
DictionaryVariables
280
     0
  1
STANDARD
  0
DICTIONARYVAR
  5
363
102
{ACAD_REACTORS
330
2B6
102
}
330
2B6
100
DictionaryVariables
280
     0
  1
Metric50
  0
DICTIONARYVAR
  5
364
102
{ACAD_REACTORS
330
2B6
102
}
330
2B6
100
DictionaryVariables
280
     0
  1
Metric50
  0
DICTIONARYVAR
  5
2B8
102
{ACAD_REACTORS
330
2B6
102
}
330
2B6
100
DictionaryVariables
280
     0
  1
1
  0
DICTIONARYVAR
  5
365
102
{ACAD_REACTORS
330
2B6
102
}
330
2B6
100
DictionaryVariables
280
     0
  1
2
  0
DICTIONARY
  5
39C
330
2FF
100
AcDbDictionary
280
     1
281
     1
  3
ACAD_XREC_ROUNDTRIP
360
39D
  0
DICTIONARY
  5
2EC
330
45
100
AcDbDictionary
280
     1
281
     1
  3
ACAD_XREC_ROUNDTRIP
360
2ED
  0
DICTIONARY
  5
2EA
330
44
100
AcDbDictionary
280
     1
281
     1
  3
ACAD_XREC_ROUNDTRIP
360
2EB
  0
DICTIONARY
  5
2EE
330
46
100
AcDbDictionary
280
     1
281
     1
  3
ACAD_XREC_ROUNDTRIP
360
2EF
  0
DICTIONARY
  5
39A
330
2FE
100
AcDbDictionary
280
     1
281
     1
  3
ACAD_XREC_ROUNDTRIP
360
39B
  0
DICTIONARY
  5
2F0
330
6A
100
AcDbDictionary
280
     1
281
     1
  3
ACAD_ROUNDTRIP_2008_TABLESTYLE_CELLSTYLEMAP
360
367
  3
ACAD_XREC_ROUNDTRIP
360
399
  0
DICTIONARY
  5
371
330
2F
100
AcDbDictionary
280
     1
281
     1
  3
ACAD_XREC_ROUNDTRIP
360
372
  0
DICTIONARY
  5
377
330
32
100
AcDbDictionary
280
     1
281
     1
  3
ACAD_XREC_ROUNDTRIP
360
378
  0
DICTIONARY
  5
37F
330
36
100
AcDbDictionary
280
     1
281
     1
  3
ACAD_XREC_ROUNDTRIP
360
380
  0
DICTIONARY
  5
387
330
3A
100
AcDbDictionary
280
     1
281
     1
  3
ACAD_XREC_ROUNDTRIP
360
388
  0
DICTIONARY
  5
37B
330
34
100
AcDbDictionary
280
     1
281
     1
  3
ACAD_XREC_ROUNDTRIP
360
37C
  0
DICTIONARY
  5
37D
330
35
100
AcDbDictionary
280
     1
281
     1
  3
ACAD_XREC_ROUNDTRIP
360
37E
  0
DICTIONARY
  5
38D
330
3D
100
AcDbDictionary
280
     1
281
     1
  3
ACAD_XREC_ROUNDTRIP
360
38E
  0
DICTIONARY
  5
385
330
39
100
AcDbDictionary
280
     1
281
     1
  3
ACAD_XREC_ROUNDTRIP
360
386
  0
DICTIONARY
  5
369
330
2B
100
AcDbDictionary
280
     1
281
     1
  3
ACAD_XREC_ROUNDTRIP
360
36A
  0
DICTIONARY
  5
36B
330
2C
100
AcDbDictionary
280
     1
281
     1
  3
ACAD_XREC_ROUNDTRIP
360
36C
  0
DICTIONARY
  5
36D
330
2D
100
AcDbDictionary
280
     1
281
     1
  3
ACAD_XREC_ROUNDTRIP
360
36E
  0
DICTIONARY
  5
36F
330
2E
100
AcDbDictionary
280
     1
281
     1
  3
ACAD_XREC_ROUNDTRIP
360
370
  0
DICTIONARY
  5
375
330
31
100
AcDbDictionary
280
     1
281
     1
  3
ACAD_XREC_ROUNDTRIP
360
376
  0
DICTIONARY
  5
389
330
3B
100
AcDbDictionary
280
     1
281
     1
  3
ACAD_XREC_ROUNDTRIP
360
38A
  0
DICTIONARY
  5
383
330
38
100
AcDbDictionary
280
     1
281
     1
  3
ACAD_XREC_ROUNDTRIP
360
384
  0
DICTIONARY
  5
38B
330
3C
100
AcDbDictionary
280
     1
281
     1
  3
ACAD_XREC_ROUNDTRIP
360
38C
  0
DICTIONARY
  5
379
330
33
100
AcDbDictionary
280
     1
281
     1
  3
ACAD_XREC_ROUNDTRIP
360
37A
  0
DICTIONARY
  5
397
330
42
100
AcDbDictionary
280
     1
281
     1
  3
ACAD_XREC_ROUNDTRIP
360
398
  0
DICTIONARY
  5
395
330
41
100
AcDbDictionary
280
     1
281
     1
  3
ACAD_XREC_ROUNDTRIP
360
396
  0
DICTIONARY
  5
38F
330
3E
100
AcDbDictionary
280
     1
281
     1
  3
ACAD_XREC_ROUNDTRIP
360
390
  0
DICTIONARY
  5
391
330
3F
100
AcDbDictionary
280
     1
281
     1
  3
ACAD_XREC_ROUNDTRIP
360
392
  0
DICTIONARY
  5
381
330
37
100
AcDbDictionary
280
     1
281
     1
  3
ACAD_XREC_ROUNDTRIP
360
382
  0
DICTIONARY
  5
373
330
30
100
AcDbDictionary
280
     1
281
     1
  3
ACAD_XREC_ROUNDTRIP
360
374
  0
DICTIONARY
  5
393
330
40
100
AcDbDictionary
280
     1
281
     1
  3
ACAD_XREC_ROUNDTRIP
360
394
  0
XRECORD
  5
39D
102
{ACAD_REACTORS
330
39C
102
}
330
39C
100
AcDbXrecord
280
     1
102
DISPLAYNAME
  1
Metric50
102
FLAGS
 90
        0
  0
XRECORD
  5
2ED
102
{ACAD_REACTORS
330
2EC
102
}
330
2EC
100
AcDbXrecord
280
     1
102
MATERIAL
148
0.0
149
0.0
149
0.0
 93
        0
 94
      127
282
     0
 72
     1
 77
     1
171
     1
175
     1
179
     1
273
     0
  0
XRECORD
  5
2EB
102
{ACAD_REACTORS
330
2EA
102
}
330
2EA
100
AcDbXrecord
280
     1
102
MATERIAL
148
0.0
149
0.0
149
0.0
 93
        0
 94
      127
282
     0
 72
     1
 77
     1
171
     1
175
     1
179
     1
273
     0
  0
XRECORD
  5
2EF
102
{ACAD_REACTORS
330
2EE
102
}
330
2EE
100
AcDbXrecord
280
     1
102
MATERIAL
148
0.0
149
0.0
149
0.0
 93
        0
 94
      127
282
     0
 72
     1
 77
     1
171
     1
175
     1
179
     1
273
     0
  0
XRECORD
  5
39B
102
{ACAD_REACTORS
330
39A
102
}
330
39A
100
AcDbXrecord
280
     1
102
DISPLAYNAME
  1
Metric50
102
FLAGS
 90
        0
  0
CELLSTYLEMAP
  5
367
102
{ACAD_REACTORS
330
2F0
102
}
330
2F0
100
AcDbCellStyleMap
 90
        3
300
CELLSTYLE
  1
TABLEFORMAT_BEGIN
 90
        5
170
     1
 91
        0
 92
    32768
 62
   257
 93
        1
300
CONTENTFORMAT
  1
CONTENTFORMAT_BEGIN
 90
        0
 91
        0
 92
        4
 93
        0
300

 40
0.0
140
1.0
 94
        5
 62
     0
340
11
144
0.25
309
CONTENTFORMAT_END
171
     1
301
MARGIN
  1
CELLMARGIN_BEGIN
 40
0.06
 40
0.06
 40
0.06
 40
0.06
 40
0.18
 40
0.18
309
CELLMARGIN_END
 94
        6
 95
        1
302
GRIDFORMAT
  1
GRIDFORMAT_BEGIN
 90
        0
 91
        1
 62
     0
 92
       -2
340
14
 93
        0
 40
0.045
309
GRIDFORMAT_END
 95
        2
302
GRIDFORMAT
  1
GRIDFORMAT_BEGIN
 90
        0
 91
        1
 62
     0
 92
       -2
340
14
 93
        0
 40
0.045
309
GRIDFORMAT_END
 95
        4
302
GRIDFORMAT
  1
GRIDFORMAT_BEGIN
 90
        0
 91
        1
 62
     0
 92
       -2
340
14
 93
        0
 40
0.045
309
GRIDFORMAT_END
 95
        8
302
GRIDFORMAT
  1
GRIDFORMAT_BEGIN
 90
        0
 91
        1
 62
     0
 92
       -2
340
14
 93
        0
 40
0.045
309
GRIDFORMAT_END
 95
       16
302
GRIDFORMAT
  1
GRIDFORMAT_BEGIN
 90
        0
 91
        1
 62
     0
 92
       -2
340
14
 93
        0
 40
0.045
309
GRIDFORMAT_END
 95
       32
302
GRIDFORMAT
  1
GRIDFORMAT_BEGIN
 90
        0
 91
        1
 62
     0
 92
       -2
340
14
 93
        0
 40
0.045
309
GRIDFORMAT_END
309
TABLEFORMAT_END
  1
CELLSTYLE_BEGIN
 90
        1
 91
        1
300
_TITLE
309
CELLSTYLE_END
300
CELLSTYLE
  1
TABLEFORMAT_BEGIN
 90
        5
170
     1
 91
        0
 92
        0
 62
   257
 93
        1
300
CONTENTFORMAT
  1
CONTENTFORMAT_BEGIN
 90
        0
 91
        0
 92
        4
 93
        0
300

 40
0.0
140
1.0
 94
        5
 62
     0
340
11
144
0.18
309
CONTENTFORMAT_END
171
     1
301
MARGIN
  1
CELLMARGIN_BEGIN
 40
0.06
 40
0.06
 40
0.06
 40
0.06
 40
0.18
 40
0.18
309
CELLMARGIN_END
 94
        6
 95
        1
302
GRIDFORMAT
  1
GRIDFORMAT_BEGIN
 90
        0
 91
        1
 62
     0
 92
       -2
340
14
 93
        0
 40
0.045
309
GRIDFORMAT_END
 95
        2
302
GRIDFORMAT
  1
GRIDFORMAT_BEGIN
 90
        0
 91
        1
 62
     0
 92
       -2
340
14
 93
        0
 40
0.045
309
GRIDFORMAT_END
 95
        4
302
GRIDFORMAT
  1
GRIDFORMAT_BEGIN
 90
        0
 91
        1
 62
     0
 92
       -2
340
14
 93
        0
 40
0.045
309
GRIDFORMAT_END
 95
        8
302
GRIDFORMAT
  1
GRIDFORMAT_BEGIN
 90
        0
 91
        1
 62
     0
 92
       -2
340
14
 93
        0
 40
0.045
309
GRIDFORMAT_END
 95
       16
302
GRIDFORMAT
  1
GRIDFORMAT_BEGIN
 90
        0
 91
        1
 62
     0
 92
       -2
340
14
 93
        0
 40
0.045
309
GRIDFORMAT_END
 95
       32
302
GRIDFORMAT
  1
GRIDFORMAT_BEGIN
 90
        0
 91
        1
 62
     0
 92
       -2
340
14
 93
        0
 40
0.045
309
GRIDFORMAT_END
309
TABLEFORMAT_END
  1
CELLSTYLE_BEGIN
 90
        2
 91
        1
300
_HEADER
309
CELLSTYLE_END
300
CELLSTYLE
  1
TABLEFORMAT_BEGIN
 90
        5
170
     1
 91
        0
 92
        0
 62
   257
 93
        1
300
CONTENTFORMAT
  1
CONTENTFORMAT_BEGIN
 90
        0
 91
        0
 92
        4
 93
        0
300

 40
0.0
140
1.0
 94
        2
 62
     0
340
11
144
0.18
309
CONTENTFORMAT_END
171
     1
301
MARGIN
  1
CELLMARGIN_BEGIN
 40
0.06
 40
0.06
 40
0.06
 40
0.06
 40
0.18
 40
0.18
309
CELLMARGIN_END
 94
        6
 95
        1
302
GRIDFORMAT
  1
GRIDFORMAT_BEGIN
 90
        0
 91
        1
 62
     0
 92
       -2
340
14
 93
        0
 40
0.045
309
GRIDFORMAT_END
 95
        2
302
GRIDFORMAT
  1
GRIDFORMAT_BEGIN
 90
        0
 91
        1
 62
     0
 92
       -2
340
14
 93
        0
 40
0.045
309
GRIDFORMAT_END
 95
        4
302
GRIDFORMAT
  1
GRIDFORMAT_BEGIN
 90
        0
 91
        1
 62
     0
 92
       -2
340
14
 93
        0
 40
0.045
309
GRIDFORMAT_END
 95
        8
302
GRIDFORMAT
  1
GRIDFORMAT_BEGIN
 90
        0
 91
        1
 62
     0
 92
       -2
340
14
 93
        0
 40
0.045
309
GRIDFORMAT_END
 95
       16
302
GRIDFORMAT
  1
GRIDFORMAT_BEGIN
 90
        0
 91
        1
 62
     0
 92
       -2
340
14
 93
        0
 40
0.045
309
GRIDFORMAT_END
 95
       32
302
GRIDFORMAT
  1
GRIDFORMAT_BEGIN
 90
        0
 91
        1
 62
     0
 92
       -2
340
14
 93
        0
 40
0.045
309
GRIDFORMAT_END
309
TABLEFORMAT_END
  1
CELLSTYLE_BEGIN
 90
        3
 91
        2
300
_DATA
309
CELLSTYLE_END
  0
XRECORD
  5
399
102
{ACAD_REACTORS
330
2F0
102
}
330
2F0
100
AcDbXrecord
280
     1
102
ACAD_ROUNDTRIP_PRE2007_TABLESTYLE
 90
        4
 91
        0
  1

 92
        4
 93
        0
  2

 94
        4
 95
        0
  3

  0
XRECORD
  5
372
102
{ACAD_REACTORS
330
371
102
}
330
371
100
AcDbXrecord
280
     1
102
RTVSPost2010Prop28
280
     1
102
RTVSPost2010PropOp28
 70
     1
102
RTVSPost2010Prop29
280
     1
102
RTVSPost2010PropOp29
 70
     1
102
RTVSPost2010Prop30
280
     0
102
RTVSPost2010PropOp30
 70
     1
102
RTVSPost2010Prop31
280
     0
102
RTVSPost2010PropOp31
 70
     1
102
RTVSPost2010Prop32
280
     0
102
RTVSPost2010PropOp32
 70
     1
102
RTVSPost2010Prop33
280
     0
102
RTVSPost2010PropOp33
 70
     1
102
RTVSPost2010Prop34
280
     0
102
RTVSPost2010PropOp34
 70
     1
102
RTVSPost2010Prop35
280
     0
102
RTVSPost2010PropOp35
 70
     1
102
RTVSPost2010Prop36
280
     0
102
RTVSPost2010PropOp36
 70
     1
102
RTVSPost2010Prop37
 90
       50
102
RTVSPost2010PropOp37
 70
     1
102
RTVSPost2010Prop38
140
0.0
102
RTVSPost2010PropOp38
 70
     1
102
RTVSPost2010Prop39
140
1.0
102
RTVSPost2010PropOp39
 70
     1
102
RTVSPost2010Prop40
 90
        0
102
RTVSPost2010PropOp40
 70
     1
102
RTVSPost2010Prop41ColorIndex
 90
       18
102
RTVSPost2010Prop41ColorRGB
 90
        0
102
RTVSPost2010PropOp41
 70
     1
102
RTVSPost2010Prop42
 90
       50
102
RTVSPost2010PropOp42
 70
     1
102
RTVSPost2010Prop43
 90
        3
102
RTVSPost2010PropOp43
 70
     1
102
RTVSPost2010Prop44ColorIndex
 90
        5
102
RTVSPost2010Prop44ColorRGB
 90
      255
102
RTVSPost2010PropOp44
 70
     1
102
RTVSPost2010Prop45
280
     0
102
RTVSPost2010PropOp45
 70
     1
102
RTVSPost2010Prop46
 90
       50
102
RTVSPost2010PropOp46
 70
     1
102
RTVSPost2010Prop47
 90
       50
102
RTVSPost2010PropOp47
 70
     1
102
RTVSPost2010Prop48
 90
       50
102
RTVSPost2010PropOp48
 70
     1
102
RTVSPost2010Prop49
280
     0
102
RTVSPost2010PropOp49
 70
     1
102
RTVSPost2010Prop50
 90
       50
102
RTVSPost2010PropOp50
 70
     1
102
RTVSPost2010Prop51ColorIndex
 90
      256
102
RTVSPost2010Prop51ColorRGB
 90
-16777216
102
RTVSPost2010PropOp51
 70
     0
102
RTVSPost2010Prop52
140
1.0
102
RTVSPost2010PropOp52
 70
     0
102
RTVSPost2010Prop53
 90
        2
102
RTVSPost2010PropOp53
 70
     1
102
RTVSPost2010Prop54
  1
strokes_ogs.tif
102
RTVSPost2010PropOp54
 70
     1
102
RTVSPost2010Prop55
280
     0
102
RTVSPost2010PropOp55
 70
     1
102
RTVSPost2010Prop56
140
1.0
102
RTVSPost2010PropOp56
 70
     1
102
RTVSPost2010Prop57
140
1.0
102
RTVSPost2010PropOp57
 70
     1
102
RTVSPropertyOp0
 70
     1
102
RTVSPropertyOp1
 70
     1
102
RTVSPropertyOp2
 70
     1
102
RTVSPropertyOp3
 70
     1
102
RTVSPropertyOp4
 70
     1
102
RTVSPropertyOp5
 70
     1
102
RTVSPropertyOp6
 70
     1
102
RTVSPropertyOp7
 70
     1
102
RTVSPropertyOp8
 70
     1
102
RTVSPropertyOp9
 70
     1
102
RTVSPropertyOp10
 70
     1
102
RTVSPropertyOp11
 70
     1
102
RTVSPropertyOp12
 70
     1
102
RTVSPropertyOp13
 70
     1
102
RTVSPropertyOp14
 70
     1
102
RTVSPropertyOp15
 70
     1
102
RTVSPropertyOp16
 70
     1
102
RTVSPropertyOp17
 70
     1
102
RTVSPropertyOp18
 70
     1
102
RTVSPropertyOp19
 70
     1
102
RTVSPropertyOp20
 70
     1
102
RTVSPropertyOp21
 70
     1
102
RTVSPropertyOp22
 70
     1
102
RTVSPropertyOp23
 70
     1
102
RTVSPropertyOp24
 70
     1
102
RTVSPropertyOp25
 70
     1
102
RTVSPropertyOp26
 70
     1
102
RTVSPropertyOp27
 70
     1
102
RTVSPropertyOp28
 70
     1
102
RTVSPropertyOp29
 70
     1
102
RTVSPropertyOp30
 70
     1
102
RTVSPropertyOp31
 70
     1
102
RTVSPropertyOp32
 70
     1
102
RTVSPropertyOp33
 70
     1
102
RTVSPropertyOp34
 70
     1
102
RTVSPropertyOp35
 70
     1
102
RTVSPropertyOp36
 70
     1
102
RTVSPropertyOp37
 70
     1
102
RTVSPropertyOp38
 70
     1
102
RTVSPropertyOp39
 70
     1
102
RTVSPropertyOp40
 70
     1
102
RTVSPropertyOp41
 70
     1
102
RTVSPropertyOp42
 70
     1
102
RTVSPropertyOp43
 70
     1
102
RTVSPropertyOp44
 70
     1
102
RTVSPropertyOp45
 70
     1
102
RTVSPropertyOp46
 70
     1
102
RTVSPropertyOp47
 70
     1
102
RTVSPropertyOp48
 70
     1
102
RTVSPropertyOp49
 70
     1
102
RTVSPropertyOp50
 70
     1
102
RTVSPropertyOp51
 70
     0
102
RTVSPropertyOp52
 70
     0
102
RTVSPropertyOp53
 70
     1
102
RTVSPropertyOp54
 70
     1
102
RTVSPropertyOp55
 70
     1
102
RTVSPropertyOp56
 70
     1
102
RTVSPropertyOp57
 70
     1
102
RTVSPropertyOp58
 70
     1
102
RTVSPropertyOp59
 70
     1
102
RTVSPropertyOp60
 70
     1
102
RTVSPropertyOp61
 70
     1
102
RTVSPropertyOp62
 70
     1
  0
XRECORD
  5
378
102
{ACAD_REACTORS
330
377
102
}
330
377
100
AcDbXrecord
280
     1
102
RTVSPost2010Prop28
280
     0
102
RTVSPost2010PropOp28
 70
     1
102
RTVSPost2010Prop29
280
     1
102
RTVSPost2010PropOp29
 70
     1
102
RTVSPost2010Prop30
280
     1
102
RTVSPost2010PropOp30
 70
     1
102
RTVSPost2010Prop31
280
     0
102
RTVSPost2010PropOp31
 70
     1
102
RTVSPost2010Prop32
280
     0
102
RTVSPost2010PropOp32
 70
     1
102
RTVSPost2010Prop33
280
     0
102
RTVSPost2010PropOp33
 70
     1
102
RTVSPost2010Prop34
280
     0
102
RTVSPost2010PropOp34
 70
     1
102
RTVSPost2010Prop35
280
     0
102
RTVSPost2010PropOp35
 70
     1
102
RTVSPost2010Prop36
280
     0
102
RTVSPost2010PropOp36
 70
     1
102
RTVSPost2010Prop37
 90
       50
102
RTVSPost2010PropOp37
 70
     1
102
RTVSPost2010Prop38
140
0.0
102
RTVSPost2010PropOp38
 70
     1
102
RTVSPost2010Prop39
140
1.0
102
RTVSPost2010PropOp39
 70
     1
102
RTVSPost2010Prop40
 90
        0
102
RTVSPost2010PropOp40
 70
     1
102
RTVSPost2010Prop41ColorIndex
 90
       18
102
RTVSPost2010Prop41ColorRGB
 90
        0
102
RTVSPost2010PropOp41
 70
     1
102
RTVSPost2010Prop42
 90
       50
102
RTVSPost2010PropOp42
 70
     1
102
RTVSPost2010Prop43
 90
        3
102
RTVSPost2010PropOp43
 70
     1
102
RTVSPost2010Prop44ColorIndex
 90
        5
102
RTVSPost2010Prop44ColorRGB
 90
      255
102
RTVSPost2010PropOp44
 70
     1
102
RTVSPost2010Prop45
280
     0
102
RTVSPost2010PropOp45
 70
     1
102
RTVSPost2010Prop46
 90
       50
102
RTVSPost2010PropOp46
 70
     1
102
RTVSPost2010Prop47
 90
       50
102
RTVSPost2010PropOp47
 70
     1
102
RTVSPost2010Prop48
 90
       50
102
RTVSPost2010PropOp48
 70
     1
102
RTVSPost2010Prop49
280
     0
102
RTVSPost2010PropOp49
 70
     1
102
RTVSPost2010Prop50
 90
       50
102
RTVSPost2010PropOp50
 70
     1
102
RTVSPost2010Prop51ColorIndex
 90
      256
102
RTVSPost2010Prop51ColorRGB
 90
-16777216
102
RTVSPost2010PropOp51
 70
     0
102
RTVSPost2010Prop52
140
1.0
102
RTVSPost2010PropOp52
 70
     0
102
RTVSPost2010Prop53
 90
        2
102
RTVSPost2010PropOp53
 70
     1
102
RTVSPost2010Prop54
  1
strokes_ogs.tif
102
RTVSPost2010PropOp54
 70
     1
102
RTVSPost2010Prop55
280
     0
102
RTVSPost2010PropOp55
 70
     1
102
RTVSPost2010Prop56
140
1.0
102
RTVSPost2010PropOp56
 70
     1
102
RTVSPost2010Prop57
140
1.0
102
RTVSPost2010PropOp57
 70
     1
102
RTVSPropertyOp0
 70
     1
102
RTVSPropertyOp1
 70
     1
102
RTVSPropertyOp2
 70
     1
102
RTVSPropertyOp3
 70
     1
102
RTVSPropertyOp4
 70
     1
102
RTVSPropertyOp5
 70
     1
102
RTVSPropertyOp6
 70
     1
102
RTVSPropertyOp7
 70
     1
102
RTVSPropertyOp8
 70
     1
102
RTVSPropertyOp9
 70
     1
102
RTVSPropertyOp10
 70
     1
102
RTVSPropertyOp11
 70
     1
102
RTVSPropertyOp12
 70
     1
102
RTVSPropertyOp13
 70
     1
102
RTVSPropertyOp14
 70
     1
102
RTVSPropertyOp15
 70
     1
102
RTVSPropertyOp16
 70
     1
102
RTVSPropertyOp17
 70
     1
102
RTVSPropertyOp18
 70
     1
102
RTVSPropertyOp19
 70
     1
102
RTVSPropertyOp20
 70
     1
102
RTVSPropertyOp21
 70
     1
102
RTVSPropertyOp22
 70
     1
102
RTVSPropertyOp23
 70
     1
102
RTVSPropertyOp24
 70
     1
102
RTVSPropertyOp25
 70
     1
102
RTVSPropertyOp26
 70
     1
102
RTVSPropertyOp27
 70
     1
102
RTVSPropertyOp28
 70
     1
102
RTVSPropertyOp29
 70
     1
102
RTVSPropertyOp30
 70
     1
102
RTVSPropertyOp31
 70
     1
102
RTVSPropertyOp32
 70
     1
102
RTVSPropertyOp33
 70
     1
102
RTVSPropertyOp34
 70
     1
102
RTVSPropertyOp35
 70
     1
102
RTVSPropertyOp36
 70
     1
102
RTVSPropertyOp37
 70
     1
102
RTVSPropertyOp38
 70
     1
102
RTVSPropertyOp39
 70
     1
102
RTVSPropertyOp40
 70
     1
102
RTVSPropertyOp41
 70
     1
102
RTVSPropertyOp42
 70
     1
102
RTVSPropertyOp43
 70
     1
102
RTVSPropertyOp44
 70
     1
102
RTVSPropertyOp45
 70
     1
102
RTVSPropertyOp46
 70
     1
102
RTVSPropertyOp47
 70
     1
102
RTVSPropertyOp48
 70
     1
102
RTVSPropertyOp49
 70
     1
102
RTVSPropertyOp50
 70
     1
102
RTVSPropertyOp51
 70
     0
102
RTVSPropertyOp52
 70
     0
102
RTVSPropertyOp53
 70
     1
102
RTVSPropertyOp54
 70
     1
102
RTVSPropertyOp55
 70
     1
102
RTVSPropertyOp56
 70
     1
102
RTVSPropertyOp57
 70
     1
102
RTVSPropertyOp58
 70
     1
102
RTVSPropertyOp59
 70
     1
102
RTVSPropertyOp60
 70
     1
102
RTVSPropertyOp61
 70
     1
102
RTVSPropertyOp62
 70
     1
  0
XRECORD
  5
380
102
{ACAD_REACTORS
330
37F
102
}
330
37F
100
AcDbXrecord
280
     1
102
RTVSPost2010Prop28
280
     0
102
RTVSPost2010PropOp28
 70
     1
102
RTVSPost2010Prop29
280
     1
102
RTVSPost2010PropOp29
 70
     1
102
RTVSPost2010Prop30
280
     1
102
RTVSPost2010PropOp30
 70
     1
102
RTVSPost2010Prop31
280
     0
102
RTVSPost2010PropOp31
 70
     1
102
RTVSPost2010Prop32
280
     0
102
RTVSPost2010PropOp32
 70
     1
102
RTVSPost2010Prop33
280
     0
102
RTVSPost2010PropOp33
 70
     1
102
RTVSPost2010Prop34
280
     0
102
RTVSPost2010PropOp34
 70
     1
102
RTVSPost2010Prop35
280
     0
102
RTVSPost2010PropOp35
 70
     1
102
RTVSPost2010Prop36
280
     0
102
RTVSPost2010PropOp36
 70
     1
102
RTVSPost2010Prop37
 90
       50
102
RTVSPost2010PropOp37
 70
     1
102
RTVSPost2010Prop38
140
0.0
102
RTVSPost2010PropOp38
 70
     1
102
RTVSPost2010Prop39
140
1.0
102
RTVSPost2010PropOp39
 70
     1
102
RTVSPost2010Prop40
 90
        0
102
RTVSPost2010PropOp40
 70
     1
102
RTVSPost2010Prop41ColorIndex
 90
       18
102
RTVSPost2010Prop41ColorRGB
 90
        0
102
RTVSPost2010PropOp41
 70
     1
102
RTVSPost2010Prop42
 90
       50
102
RTVSPost2010PropOp42
 70
     1
102
RTVSPost2010Prop43
 90
        3
102
RTVSPost2010PropOp43
 70
     1
102
RTVSPost2010Prop44ColorIndex
 90
        5
102
RTVSPost2010Prop44ColorRGB
 90
      255
102
RTVSPost2010PropOp44
 70
     1
102
RTVSPost2010Prop45
280
     0
102
RTVSPost2010PropOp45
 70
     1
102
RTVSPost2010Prop46
 90
       50
102
RTVSPost2010PropOp46
 70
     1
102
RTVSPost2010Prop47
 90
       50
102
RTVSPost2010PropOp47
 70
     1
102
RTVSPost2010Prop48
 90
       50
102
RTVSPost2010PropOp48
 70
     1
102
RTVSPost2010Prop49
280
     0
102
RTVSPost2010PropOp49
 70
     1
102
RTVSPost2010Prop50
 90
       50
102
RTVSPost2010PropOp50
 70
     1
102
RTVSPost2010Prop51ColorIndex
 90
      256
102
RTVSPost2010Prop51ColorRGB
 90
-16777216
102
RTVSPost2010PropOp51
 70
     0
102
RTVSPost2010Prop52
140
1.0
102
RTVSPost2010PropOp52
 70
     0
102
RTVSPost2010Prop53
 90
        2
102
RTVSPost2010PropOp53
 70
     1
102
RTVSPost2010Prop54
  1
strokes_ogs.tif
102
RTVSPost2010PropOp54
 70
     1
102
RTVSPost2010Prop55
280
     0
102
RTVSPost2010PropOp55
 70
     1
102
RTVSPost2010Prop56
140
1.0
102
RTVSPost2010PropOp56
 70
     1
102
RTVSPost2010Prop57
140
1.0
102
RTVSPost2010PropOp57
 70
     1
102
RTVSPropertyOp0
 70
     1
102
RTVSPropertyOp1
 70
     1
102
RTVSPropertyOp2
 70
     1
102
RTVSPropertyOp3
 70
     1
102
RTVSPropertyOp4
 70
     1
102
RTVSPropertyOp5
 70
     1
102
RTVSPropertyOp6
 70
     1
102
RTVSPropertyOp7
 70
     1
102
RTVSPropertyOp8
 70
     1
102
RTVSPropertyOp9
 70
     1
102
RTVSPropertyOp10
 70
     1
102
RTVSPropertyOp11
 70
     1
102
RTVSPropertyOp12
 70
     1
102
RTVSPropertyOp13
 70
     1
102
RTVSPropertyOp14
 70
     1
102
RTVSPropertyOp15
 70
     1
102
RTVSPropertyOp16
 70
     1
102
RTVSPropertyOp17
 70
     1
102
RTVSPropertyOp18
 70
     1
102
RTVSPropertyOp19
 70
     1
102
RTVSPropertyOp20
 70
     1
102
RTVSPropertyOp21
 70
     1
102
RTVSPropertyOp22
 70
     1
102
RTVSPropertyOp23
 70
     1
102
RTVSPropertyOp24
 70
     1
102
RTVSPropertyOp25
 70
     1
102
RTVSPropertyOp26
 70
     1
102
RTVSPropertyOp27
 70
     1
102
RTVSPropertyOp28
 70
     1
102
RTVSPropertyOp29
 70
     1
102
RTVSPropertyOp30
 70
     1
102
RTVSPropertyOp31
 70
     1
102
RTVSPropertyOp32
 70
     1
102
RTVSPropertyOp33
 70
     1
102
RTVSPropertyOp34
 70
     1
102
RTVSPropertyOp35
 70
     1
102
RTVSPropertyOp36
 70
     1
102
RTVSPropertyOp37
 70
     1
102
RTVSPropertyOp38
 70
     1
102
RTVSPropertyOp39
 70
     1
102
RTVSPropertyOp40
 70
     1
102
RTVSPropertyOp41
 70
     1
102
RTVSPropertyOp42
 70
     1
102
RTVSPropertyOp43
 70
     1
102
RTVSPropertyOp44
 70
     1
102
RTVSPropertyOp45
 70
     1
102
RTVSPropertyOp46
 70
     1
102
RTVSPropertyOp47
 70
     1
102
RTVSPropertyOp48
 70
     1
102
RTVSPropertyOp49
 70
     1
102
RTVSPropertyOp50
 70
     1
102
RTVSPropertyOp51
 70
     0
102
RTVSPropertyOp52
 70
     0
102
RTVSPropertyOp53
 70
     1
102
RTVSPropertyOp54
 70
     1
102
RTVSPropertyOp55
 70
     1
102
RTVSPropertyOp56
 70
     1
102
RTVSPropertyOp57
 70
     1
102
RTVSPropertyOp58
 70
     1
102
RTVSPropertyOp59
 70
     1
102
RTVSPropertyOp60
 70
     1
102
RTVSPropertyOp61
 70
     1
102
RTVSPropertyOp62
 70
     1
  0
XRECORD
  5
388
102
{ACAD_REACTORS
330
387
102
}
330
387
100
AcDbXrecord
280
     1
102
RTVSPost2010Prop28
280
     0
102
RTVSPost2010PropOp28
 70
     1
102
RTVSPost2010Prop29
280
     1
102
RTVSPost2010PropOp29
 70
     1
102
RTVSPost2010Prop30
280
     1
102
RTVSPost2010PropOp30
 70
     1
102
RTVSPost2010Prop31
280
     0
102
RTVSPost2010PropOp31
 70
     1
102
RTVSPost2010Prop32
280
     0
102
RTVSPost2010PropOp32
 70
     1
102
RTVSPost2010Prop33
280
     0
102
RTVSPost2010PropOp33
 70
     1
102
RTVSPost2010Prop34
280
     0
102
RTVSPost2010PropOp34
 70
     1
102
RTVSPost2010Prop35
280
     0
102
RTVSPost2010PropOp35
 70
     1
102
RTVSPost2010Prop36
280
     0
102
RTVSPost2010PropOp36
 70
     1
102
RTVSPost2010Prop37
 90
       50
102
RTVSPost2010PropOp37
 70
     1
102
RTVSPost2010Prop38
140
0.0
102
RTVSPost2010PropOp38
 70
     1
102
RTVSPost2010Prop39
140
1.0
102
RTVSPost2010PropOp39
 70
     1
102
RTVSPost2010Prop40
 90
        0
102
RTVSPost2010PropOp40
 70
     1
102
RTVSPost2010Prop41ColorIndex
 90
       18
102
RTVSPost2010Prop41ColorRGB
 90
        0
102
RTVSPost2010PropOp41
 70
     1
102
RTVSPost2010Prop42
 90
       50
102
RTVSPost2010PropOp42
 70
     1
102
RTVSPost2010Prop43
 90
        3
102
RTVSPost2010PropOp43
 70
     1
102
RTVSPost2010Prop44ColorIndex
 90
        5
102
RTVSPost2010Prop44ColorRGB
 90
      255
102
RTVSPost2010PropOp44
 70
     1
102
RTVSPost2010Prop45
280
     0
102
RTVSPost2010PropOp45
 70
     1
102
RTVSPost2010Prop46
 90
       50
102
RTVSPost2010PropOp46
 70
     1
102
RTVSPost2010Prop47
 90
       50
102
RTVSPost2010PropOp47
 70
     1
102
RTVSPost2010Prop48
 90
       50
102
RTVSPost2010PropOp48
 70
     1
102
RTVSPost2010Prop49
280
     0
102
RTVSPost2010PropOp49
 70
     1
102
RTVSPost2010Prop50
 90
       50
102
RTVSPost2010PropOp50
 70
     1
102
RTVSPost2010Prop51ColorIndex
 90
      256
102
RTVSPost2010Prop51ColorRGB
 90
-16777216
102
RTVSPost2010PropOp51
 70
     0
102
RTVSPost2010Prop52
140
1.0
102
RTVSPost2010PropOp52
 70
     0
102
RTVSPost2010Prop53
 90
        2
102
RTVSPost2010PropOp53
 70
     1
102
RTVSPost2010Prop54
  1
strokes_ogs.tif
102
RTVSPost2010PropOp54
 70
     1
102
RTVSPost2010Prop55
280
     0
102
RTVSPost2010PropOp55
 70
     1
102
RTVSPost2010Prop56
140
1.0
102
RTVSPost2010PropOp56
 70
     1
102
RTVSPost2010Prop57
140
1.0
102
RTVSPost2010PropOp57
 70
     1
102
RTVSPropertyOp0
 70
     1
102
RTVSPropertyOp1
 70
     1
102
RTVSPropertyOp2
 70
     1
102
RTVSPropertyOp3
 70
     1
102
RTVSPropertyOp4
 70
     1
102
RTVSPropertyOp5
 70
     1
102
RTVSPropertyOp6
 70
     1
102
RTVSPropertyOp7
 70
     1
102
RTVSPropertyOp8
 70
     1
102
RTVSPropertyOp9
 70
     1
102
RTVSPropertyOp10
 70
     1
102
RTVSPropertyOp11
 70
     1
102
RTVSPropertyOp12
 70
     1
102
RTVSPropertyOp13
 70
     1
102
RTVSPropertyOp14
 70
     1
102
RTVSPropertyOp15
 70
     1
102
RTVSPropertyOp16
 70
     1
102
RTVSPropertyOp17
 70
     1
102
RTVSPropertyOp18
 70
     1
102
RTVSPropertyOp19
 70
     1
102
RTVSPropertyOp20
 70
     1
102
RTVSPropertyOp21
 70
     1
102
RTVSPropertyOp22
 70
     1
102
RTVSPropertyOp23
 70
     1
102
RTVSPropertyOp24
 70
     1
102
RTVSPropertyOp25
 70
     1
102
RTVSPropertyOp26
 70
     1
102
RTVSPropertyOp27
 70
     1
102
RTVSPropertyOp28
 70
     1
102
RTVSPropertyOp29
 70
     1
102
RTVSPropertyOp30
 70
     1
102
RTVSPropertyOp31
 70
     1
102
RTVSPropertyOp32
 70
     1
102
RTVSPropertyOp33
 70
     1
102
RTVSPropertyOp34
 70
     1
102
RTVSPropertyOp35
 70
     1
102
RTVSPropertyOp36
 70
     1
102
RTVSPropertyOp37
 70
     1
102
RTVSPropertyOp38
 70
     1
102
RTVSPropertyOp39
 70
     1
102
RTVSPropertyOp40
 70
     1
102
RTVSPropertyOp41
 70
     1
102
RTVSPropertyOp42
 70
     1
102
RTVSPropertyOp43
 70
     1
102
RTVSPropertyOp44
 70
     1
102
RTVSPropertyOp45
 70
     1
102
RTVSPropertyOp46
 70
     1
102
RTVSPropertyOp47
 70
     1
102
RTVSPropertyOp48
 70
     1
102
RTVSPropertyOp49
 70
     1
102
RTVSPropertyOp50
 70
     1
102
RTVSPropertyOp51
 70
     0
102
RTVSPropertyOp52
 70
     0
102
RTVSPropertyOp53
 70
     1
102
RTVSPropertyOp54
 70
     1
102
RTVSPropertyOp55
 70
     1
102
RTVSPropertyOp56
 70
     1
102
RTVSPropertyOp57
 70
     1
102
RTVSPropertyOp58
 70
     1
102
RTVSPropertyOp59
 70
     1
102
RTVSPropertyOp60
 70
     1
102
RTVSPropertyOp61
 70
     1
102
RTVSPropertyOp62
 70
     1
  0
XRECORD
  5
37C
102
{ACAD_REACTORS
330
37B
102
}
330
37B
100
AcDbXrecord
280
     1
102
RTVSPost2010Prop28
280
     0
102
RTVSPost2010PropOp28
 70
     1
102
RTVSPost2010Prop29
280
     1
102
RTVSPost2010PropOp29
 70
     1
102
RTVSPost2010Prop30
280
     1
102
RTVSPost2010PropOp30
 70
     1
102
RTVSPost2010Prop31
280
     0
102
RTVSPost2010PropOp31
 70
     1
102
RTVSPost2010Prop32
280
     0
102
RTVSPost2010PropOp32
 70
     1
102
RTVSPost2010Prop33
280
     0
102
RTVSPost2010PropOp33
 70
     1
102
RTVSPost2010Prop34
280
     0
102
RTVSPost2010PropOp34
 70
     1
102
RTVSPost2010Prop35
280
     0
102
RTVSPost2010PropOp35
 70
     1
102
RTVSPost2010Prop36
280
     0
102
RTVSPost2010PropOp36
 70
     1
102
RTVSPost2010Prop37
 90
       50
102
RTVSPost2010PropOp37
 70
     1
102
RTVSPost2010Prop38
140
0.0
102
RTVSPost2010PropOp38
 70
     1
102
RTVSPost2010Prop39
140
1.0
102
RTVSPost2010PropOp39
 70
     1
102
RTVSPost2010Prop40
 90
        0
102
RTVSPost2010PropOp40
 70
     1
102
RTVSPost2010Prop41ColorIndex
 90
       18
102
RTVSPost2010Prop41ColorRGB
 90
        0
102
RTVSPost2010PropOp41
 70
     1
102
RTVSPost2010Prop42
 90
       50
102
RTVSPost2010PropOp42
 70
     1
102
RTVSPost2010Prop43
 90
        3
102
RTVSPost2010PropOp43
 70
     1
102
RTVSPost2010Prop44ColorIndex
 90
        5
102
RTVSPost2010Prop44ColorRGB
 90
      255
102
RTVSPost2010PropOp44
 70
     1
102
RTVSPost2010Prop45
280
     0
102
RTVSPost2010PropOp45
 70
     1
102
RTVSPost2010Prop46
 90
       50
102
RTVSPost2010PropOp46
 70
     1
102
RTVSPost2010Prop47
 90
       50
102
RTVSPost2010PropOp47
 70
     1
102
RTVSPost2010Prop48
 90
       50
102
RTVSPost2010PropOp48
 70
     1
102
RTVSPost2010Prop49
280
     0
102
RTVSPost2010PropOp49
 70
     1
102
RTVSPost2010Prop50
 90
       50
102
RTVSPost2010PropOp50
 70
     1
102
RTVSPost2010Prop51ColorIndex
 90
      256
102
RTVSPost2010Prop51ColorRGB
 90
-16777216
102
RTVSPost2010PropOp51
 70
     0
102
RTVSPost2010Prop52
140
1.0
102
RTVSPost2010PropOp52
 70
     0
102
RTVSPost2010Prop53
 90
        2
102
RTVSPost2010PropOp53
 70
     1
102
RTVSPost2010Prop54
  1
strokes_ogs.tif
102
RTVSPost2010PropOp54
 70
     1
102
RTVSPost2010Prop55
280
     0
102
RTVSPost2010PropOp55
 70
     1
102
RTVSPost2010Prop56
140
1.0
102
RTVSPost2010PropOp56
 70
     1
102
RTVSPost2010Prop57
140
1.0
102
RTVSPost2010PropOp57
 70
     1
102
RTVSPropertyOp0
 70
     1
102
RTVSPropertyOp1
 70
     1
102
RTVSPropertyOp2
 70
     1
102
RTVSPropertyOp3
 70
     1
102
RTVSPropertyOp4
 70
     1
102
RTVSPropertyOp5
 70
     1
102
RTVSPropertyOp6
 70
     1
102
RTVSPropertyOp7
 70
     1
102
RTVSPropertyOp8
 70
     1
102
RTVSPropertyOp9
 70
     1
102
RTVSPropertyOp10
 70
     1
102
RTVSPropertyOp11
 70
     1
102
RTVSPropertyOp12
 70
     1
102
RTVSPropertyOp13
 70
     1
102
RTVSPropertyOp14
 70
     1
102
RTVSPropertyOp15
 70
     1
102
RTVSPropertyOp16
 70
     1
102
RTVSPropertyOp17
 70
     1
102
RTVSPropertyOp18
 70
     1
102
RTVSPropertyOp19
 70
     1
102
RTVSPropertyOp20
 70
     1
102
RTVSPropertyOp21
 70
     1
102
RTVSPropertyOp22
 70
     1
102
RTVSPropertyOp23
 70
     1
102
RTVSPropertyOp24
 70
     1
102
RTVSPropertyOp25
 70
     1
102
RTVSPropertyOp26
 70
     1
102
RTVSPropertyOp27
 70
     1
102
RTVSPropertyOp28
 70
     1
102
RTVSPropertyOp29
 70
     1
102
RTVSPropertyOp30
 70
     1
102
RTVSPropertyOp31
 70
     1
102
RTVSPropertyOp32
 70
     1
102
RTVSPropertyOp33
 70
     1
102
RTVSPropertyOp34
 70
     1
102
RTVSPropertyOp35
 70
     1
102
RTVSPropertyOp36
 70
     1
102
RTVSPropertyOp37
 70
     1
102
RTVSPropertyOp38
 70
     1
102
RTVSPropertyOp39
 70
     1
102
RTVSPropertyOp40
 70
     1
102
RTVSPropertyOp41
 70
     1
102
RTVSPropertyOp42
 70
     1
102
RTVSPropertyOp43
 70
     1
102
RTVSPropertyOp44
 70
     1
102
RTVSPropertyOp45
 70
     1
102
RTVSPropertyOp46
 70
     1
102
RTVSPropertyOp47
 70
     1
102
RTVSPropertyOp48
 70
     1
102
RTVSPropertyOp49
 70
     1
102
RTVSPropertyOp50
 70
     1
102
RTVSPropertyOp51
 70
     0
102
RTVSPropertyOp52
 70
     0
102
RTVSPropertyOp53
 70
     1
102
RTVSPropertyOp54
 70
     1
102
RTVSPropertyOp55
 70
     1
102
RTVSPropertyOp56
 70
     1
102
RTVSPropertyOp57
 70
     1
102
RTVSPropertyOp58
 70
     1
102
RTVSPropertyOp59
 70
     1
102
RTVSPropertyOp60
 70
     1
102
RTVSPropertyOp61
 70
     1
102
RTVSPropertyOp62
 70
     1
  0
XRECORD
  5
37E
102
{ACAD_REACTORS
330
37D
102
}
330
37D
100
AcDbXrecord
280
     1
102
RTVSPost2010Prop28
280
     0
102
RTVSPost2010PropOp28
 70
     1
102
RTVSPost2010Prop29
280
     1
102
RTVSPost2010PropOp29
 70
     1
102
RTVSPost2010Prop30
280
     1
102
RTVSPost2010PropOp30
 70
     1
102
RTVSPost2010Prop31
280
     0
102
RTVSPost2010PropOp31
 70
     1
102
RTVSPost2010Prop32
280
     0
102
RTVSPost2010PropOp32
 70
     1
102
RTVSPost2010Prop33
280
     0
102
RTVSPost2010PropOp33
 70
     1
102
RTVSPost2010Prop34
280
     0
102
RTVSPost2010PropOp34
 70
     1
102
RTVSPost2010Prop35
280
     0
102
RTVSPost2010PropOp35
 70
     1
102
RTVSPost2010Prop36
280
     0
102
RTVSPost2010PropOp36
 70
     1
102
RTVSPost2010Prop37
 90
       50
102
RTVSPost2010PropOp37
 70
     1
102
RTVSPost2010Prop38
140
0.0
102
RTVSPost2010PropOp38
 70
     1
102
RTVSPost2010Prop39
140
1.0
102
RTVSPost2010PropOp39
 70
     1
102
RTVSPost2010Prop40
 90
        0
102
RTVSPost2010PropOp40
 70
     1
102
RTVSPost2010Prop41ColorIndex
 90
       18
102
RTVSPost2010Prop41ColorRGB
 90
        0
102
RTVSPost2010PropOp41
 70
     1
102
RTVSPost2010Prop42
 90
       50
102
RTVSPost2010PropOp42
 70
     1
102
RTVSPost2010Prop43
 90
        3
102
RTVSPost2010PropOp43
 70
     1
102
RTVSPost2010Prop44ColorIndex
 90
        5
102
RTVSPost2010Prop44ColorRGB
 90
      255
102
RTVSPost2010PropOp44
 70
     1
102
RTVSPost2010Prop45
280
     0
102
RTVSPost2010PropOp45
 70
     1
102
RTVSPost2010Prop46
 90
       50
102
RTVSPost2010PropOp46
 70
     1
102
RTVSPost2010Prop47
 90
       50
102
RTVSPost2010PropOp47
 70
     1
102
RTVSPost2010Prop48
 90
       50
102
RTVSPost2010PropOp48
 70
     1
102
RTVSPost2010Prop49
280
     0
102
RTVSPost2010PropOp49
 70
     1
102
RTVSPost2010Prop50
 90
       50
102
RTVSPost2010PropOp50
 70
     1
102
RTVSPost2010Prop51ColorIndex
 90
      256
102
RTVSPost2010Prop51ColorRGB
 90
-16777216
102
RTVSPost2010PropOp51
 70
     0
102
RTVSPost2010Prop52
140
1.0
102
RTVSPost2010PropOp52
 70
     0
102
RTVSPost2010Prop53
 90
        2
102
RTVSPost2010PropOp53
 70
     1
102
RTVSPost2010Prop54
  1
strokes_ogs.tif
102
RTVSPost2010PropOp54
 70
     1
102
RTVSPost2010Prop55
280
     0
102
RTVSPost2010PropOp55
 70
     1
102
RTVSPost2010Prop56
140
1.0
102
RTVSPost2010PropOp56
 70
     1
102
RTVSPost2010Prop57
140
1.0
102
RTVSPost2010PropOp57
 70
     1
102
RTVSPropertyOp0
 70
     1
102
RTVSPropertyOp1
 70
     1
102
RTVSPropertyOp2
 70
     1
102
RTVSPropertyOp3
 70
     1
102
RTVSPropertyOp4
 70
     1
102
RTVSPropertyOp5
 70
     1
102
RTVSPropertyOp6
 70
     1
102
RTVSPropertyOp7
 70
     1
102
RTVSPropertyOp8
 70
     1
102
RTVSPropertyOp9
 70
     1
102
RTVSPropertyOp10
 70
     1
102
RTVSPropertyOp11
 70
     1
102
RTVSPropertyOp12
 70
     1
102
RTVSPropertyOp13
 70
     1
102
RTVSPropertyOp14
 70
     1
102
RTVSPropertyOp15
 70
     1
102
RTVSPropertyOp16
 70
     1
102
RTVSPropertyOp17
 70
     1
102
RTVSPropertyOp18
 70
     1
102
RTVSPropertyOp19
 70
     1
102
RTVSPropertyOp20
 70
     1
102
RTVSPropertyOp21
 70
     1
102
RTVSPropertyOp22
 70
     1
102
RTVSPropertyOp23
 70
     1
102
RTVSPropertyOp24
 70
     1
102
RTVSPropertyOp25
 70
     1
102
RTVSPropertyOp26
 70
     1
102
RTVSPropertyOp27
 70
     1
102
RTVSPropertyOp28
 70
     1
102
RTVSPropertyOp29
 70
     1
102
RTVSPropertyOp30
 70
     1
102
RTVSPropertyOp31
 70
     1
102
RTVSPropertyOp32
 70
     1
102
RTVSPropertyOp33
 70
     1
102
RTVSPropertyOp34
 70
     1
102
RTVSPropertyOp35
 70
     1
102
RTVSPropertyOp36
 70
     1
102
RTVSPropertyOp37
 70
     1
102
RTVSPropertyOp38
 70
     1
102
RTVSPropertyOp39
 70
     1
102
RTVSPropertyOp40
 70
     1
102
RTVSPropertyOp41
 70
     1
102
RTVSPropertyOp42
 70
     1
102
RTVSPropertyOp43
 70
     1
102
RTVSPropertyOp44
 70
     1
102
RTVSPropertyOp45
 70
     1
102
RTVSPropertyOp46
 70
     1
102
RTVSPropertyOp47
 70
     1
102
RTVSPropertyOp48
 70
     1
102
RTVSPropertyOp49
 70
     1
102
RTVSPropertyOp50
 70
     1
102
RTVSPropertyOp51
 70
     0
102
RTVSPropertyOp52
 70
     0
102
RTVSPropertyOp53
 70
     1
102
RTVSPropertyOp54
 70
     1
102
RTVSPropertyOp55
 70
     1
102
RTVSPropertyOp56
 70
     1
102
RTVSPropertyOp57
 70
     1
102
RTVSPropertyOp58
 70
     1
102
RTVSPropertyOp59
 70
     1
102
RTVSPropertyOp60
 70
     1
102
RTVSPropertyOp61
 70
     1
102
RTVSPropertyOp62
 70
     1
  0
XRECORD
  5
38E
102
{ACAD_REACTORS
330
38D
102
}
330
38D
100
AcDbXrecord
280
     1
102
RTVSPost2010Prop28
280
     0
102
RTVSPost2010PropOp28
 70
     0
102
RTVSPost2010Prop29
280
     1
102
RTVSPost2010PropOp29
 70
     0
102
RTVSPost2010Prop30
280
     1
102
RTVSPost2010PropOp30
 70
     0
102
RTVSPost2010Prop31
280
     0
102
RTVSPost2010PropOp31
 70
     0
102
RTVSPost2010Prop32
280
     0
102
RTVSPost2010PropOp32
 70
     0
102
RTVSPost2010Prop33
280
     0
102
RTVSPost2010PropOp33
 70
     0
102
RTVSPost2010Prop34
280
     0
102
RTVSPost2010PropOp34
 70
     0
102
RTVSPost2010Prop35
280
     0
102
RTVSPost2010PropOp35
 70
     0
102
RTVSPost2010Prop36
280
     0
102
RTVSPost2010PropOp36
 70
     0
102
RTVSPost2010Prop37
 90
       50
102
RTVSPost2010PropOp37
 70
     0
102
RTVSPost2010Prop38
140
0.0
102
RTVSPost2010PropOp38
 70
     0
102
RTVSPost2010Prop39
140
1.0
102
RTVSPost2010PropOp39
 70
     0
102
RTVSPost2010Prop40
 90
        0
102
RTVSPost2010PropOp40
 70
     0
102
RTVSPost2010Prop41ColorIndex
 90
       18
102
RTVSPost2010Prop41ColorRGB
 90
        0
102
RTVSPost2010PropOp41
 70
     0
102
RTVSPost2010Prop42
 90
       50
102
RTVSPost2010PropOp42
 70
     0
102
RTVSPost2010Prop43
 90
        3
102
RTVSPost2010PropOp43
 70
     0
102
RTVSPost2010Prop44ColorIndex
 90
        5
102
RTVSPost2010Prop44ColorRGB
 90
      255
102
RTVSPost2010PropOp44
 70
     0
102
RTVSPost2010Prop45
280
     0
102
RTVSPost2010PropOp45
 70
     0
102
RTVSPost2010Prop46
 90
       50
102
RTVSPost2010PropOp46
 70
     0
102
RTVSPost2010Prop47
 90
       50
102
RTVSPost2010PropOp47
 70
     0
102
RTVSPost2010Prop48
 90
       50
102
RTVSPost2010PropOp48
 70
     0
102
RTVSPost2010Prop49
280
     0
102
RTVSPost2010PropOp49
 70
     0
102
RTVSPost2010Prop50
 90
       50
102
RTVSPost2010PropOp50
 70
     0
102
RTVSPost2010Prop51ColorIndex
 90
      256
102
RTVSPost2010Prop51ColorRGB
 90
-16777216
102
RTVSPost2010PropOp51
 70
     0
102
RTVSPost2010Prop52
140
1.0
102
RTVSPost2010PropOp52
 70
     0
102
RTVSPost2010Prop53
 90
        2
102
RTVSPost2010PropOp53
 70
     0
102
RTVSPost2010Prop54
  1
strokes_ogs.tif
102
RTVSPost2010PropOp54
 70
     0
102
RTVSPost2010Prop55
280
     0
102
RTVSPost2010PropOp55
 70
     0
102
RTVSPost2010Prop56
140
1.0
102
RTVSPost2010PropOp56
 70
     0
102
RTVSPost2010Prop57
140
1.0
102
RTVSPost2010PropOp57
 70
     0
102
RTVSPropertyOp0
 70
     0
102
RTVSPropertyOp1
 70
     0
102
RTVSPropertyOp2
 70
     0
102
RTVSPropertyOp3
 70
     0
102
RTVSPropertyOp4
 70
     0
102
RTVSPropertyOp5
 70
     0
102
RTVSPropertyOp6
 70
     0
102
RTVSPropertyOp7
 70
     0
102
RTVSPropertyOp8
 70
     0
102
RTVSPropertyOp9
 70
     0
102
RTVSPropertyOp10
 70
     0
102
RTVSPropertyOp11
 70
     0
102
RTVSPropertyOp12
 70
     0
102
RTVSPropertyOp13
 70
     0
102
RTVSPropertyOp14
 70
     2
102
RTVSPropertyOp15
 70
     0
102
RTVSPropertyOp16
 70
     0
102
RTVSPropertyOp17
 70
     0
102
RTVSPropertyOp18
 70
     0
102
RTVSPropertyOp19
 70
     0
102
RTVSPropertyOp20
 70
     0
102
RTVSPropertyOp21
 70
     0
102
RTVSPropertyOp22
 70
     0
102
RTVSPropertyOp23
 70
     0
102
RTVSPropertyOp24
 70
     0
102
RTVSPropertyOp25
 70
     0
102
RTVSPropertyOp26
 70
     0
102
RTVSPropertyOp27
 70
     0
102
RTVSPropertyOp28
 70
     0
102
RTVSPropertyOp29
 70
     0
102
RTVSPropertyOp30
 70
     0
102
RTVSPropertyOp31
 70
     0
102
RTVSPropertyOp32
 70
     0
102
RTVSPropertyOp33
 70
     0
102
RTVSPropertyOp34
 70
     0
102
RTVSPropertyOp35
 70
     0
102
RTVSPropertyOp36
 70
     0
102
RTVSPropertyOp37
 70
     0
102
RTVSPropertyOp38
 70
     0
102
RTVSPropertyOp39
 70
     0
102
RTVSPropertyOp40
 70
     0
102
RTVSPropertyOp41
 70
     0
102
RTVSPropertyOp42
 70
     0
102
RTVSPropertyOp43
 70
     0
102
RTVSPropertyOp44
 70
     0
102
RTVSPropertyOp45
 70
     0
102
RTVSPropertyOp46
 70
     0
102
RTVSPropertyOp47
 70
     0
102
RTVSPropertyOp48
 70
     0
102
RTVSPropertyOp49
 70
     0
102
RTVSPropertyOp50
 70
     0
102
RTVSPropertyOp51
 70
     0
102
RTVSPropertyOp52
 70
     0
102
RTVSPropertyOp53
 70
     0
102
RTVSPropertyOp54
 70
     0
102
RTVSPropertyOp55
 70
     0
102
RTVSPropertyOp56
 70
     0
102
RTVSPropertyOp57
 70
     0
102
RTVSPropertyOp58
 70
     1
102
RTVSPropertyOp59
 70
     1
102
RTVSPropertyOp60
 70
     1
102
RTVSPropertyOp61
 70
     1
102
RTVSPropertyOp62
 70
     1
  0
XRECORD
  5
386
102
{ACAD_REACTORS
330
385
102
}
330
385
100
AcDbXrecord
280
     1
102
RTVSPost2010Prop28
280
     0
102
RTVSPost2010PropOp28
 70
     1
102
RTVSPost2010Prop29
280
     1
102
RTVSPost2010PropOp29
 70
     1
102
RTVSPost2010Prop30
280
     1
102
RTVSPost2010PropOp30
 70
     1
102
RTVSPost2010Prop31
280
     0
102
RTVSPost2010PropOp31
 70
     1
102
RTVSPost2010Prop32
280
     0
102
RTVSPost2010PropOp32
 70
     1
102
RTVSPost2010Prop33
280
     0
102
RTVSPost2010PropOp33
 70
     1
102
RTVSPost2010Prop34
280
     0
102
RTVSPost2010PropOp34
 70
     1
102
RTVSPost2010Prop35
280
     0
102
RTVSPost2010PropOp35
 70
     1
102
RTVSPost2010Prop36
280
     0
102
RTVSPost2010PropOp36
 70
     1
102
RTVSPost2010Prop37
 90
       50
102
RTVSPost2010PropOp37
 70
     1
102
RTVSPost2010Prop38
140
0.0
102
RTVSPost2010PropOp38
 70
     1
102
RTVSPost2010Prop39
140
1.0
102
RTVSPost2010PropOp39
 70
     1
102
RTVSPost2010Prop40
 90
        0
102
RTVSPost2010PropOp40
 70
     1
102
RTVSPost2010Prop41ColorIndex
 90
       18
102
RTVSPost2010Prop41ColorRGB
 90
        0
102
RTVSPost2010PropOp41
 70
     1
102
RTVSPost2010Prop42
 90
       50
102
RTVSPost2010PropOp42
 70
     1
102
RTVSPost2010Prop43
 90
        3
102
RTVSPost2010PropOp43
 70
     1
102
RTVSPost2010Prop44ColorIndex
 90
        5
102
RTVSPost2010Prop44ColorRGB
 90
      255
102
RTVSPost2010PropOp44
 70
     1
102
RTVSPost2010Prop45
280
     0
102
RTVSPost2010PropOp45
 70
     1
102
RTVSPost2010Prop46
 90
       50
102
RTVSPost2010PropOp46
 70
     1
102
RTVSPost2010Prop47
 90
       50
102
RTVSPost2010PropOp47
 70
     1
102
RTVSPost2010Prop48
 90
       50
102
RTVSPost2010PropOp48
 70
     1
102
RTVSPost2010Prop49
280
     0
102
RTVSPost2010PropOp49
 70
     1
102
RTVSPost2010Prop50
 90
       50
102
RTVSPost2010PropOp50
 70
     1
102
RTVSPost2010Prop51ColorIndex
 90
      256
102
RTVSPost2010Prop51ColorRGB
 90
-16777216
102
RTVSPost2010PropOp51
 70
     0
102
RTVSPost2010Prop52
140
1.0
102
RTVSPost2010PropOp52
 70
     0
102
RTVSPost2010Prop53
 90
        2
102
RTVSPost2010PropOp53
 70
     1
102
RTVSPost2010Prop54
  1
strokes_ogs.tif
102
RTVSPost2010PropOp54
 70
     1
102
RTVSPost2010Prop55
280
     0
102
RTVSPost2010PropOp55
 70
     1
102
RTVSPost2010Prop56
140
1.0
102
RTVSPost2010PropOp56
 70
     1
102
RTVSPost2010Prop57
140
1.0
102
RTVSPost2010PropOp57
 70
     1
102
RTVSPropertyOp0
 70
     1
102
RTVSPropertyOp1
 70
     1
102
RTVSPropertyOp2
 70
     1
102
RTVSPropertyOp3
 70
     1
102
RTVSPropertyOp4
 70
     1
102
RTVSPropertyOp5
 70
     1
102
RTVSPropertyOp6
 70
     1
102
RTVSPropertyOp7
 70
     1
102
RTVSPropertyOp8
 70
     1
102
RTVSPropertyOp9
 70
     1
102
RTVSPropertyOp10
 70
     1
102
RTVSPropertyOp11
 70
     1
102
RTVSPropertyOp12
 70
     1
102
RTVSPropertyOp13
 70
     1
102
RTVSPropertyOp14
 70
     1
102
RTVSPropertyOp15
 70
     1
102
RTVSPropertyOp16
 70
     1
102
RTVSPropertyOp17
 70
     1
102
RTVSPropertyOp18
 70
     1
102
RTVSPropertyOp19
 70
     1
102
RTVSPropertyOp20
 70
     1
102
RTVSPropertyOp21
 70
     1
102
RTVSPropertyOp22
 70
     1
102
RTVSPropertyOp23
 70
     1
102
RTVSPropertyOp24
 70
     1
102
RTVSPropertyOp25
 70
     1
102
RTVSPropertyOp26
 70
     1
102
RTVSPropertyOp27
 70
     1
102
RTVSPropertyOp28
 70
     1
102
RTVSPropertyOp29
 70
     1
102
RTVSPropertyOp30
 70
     1
102
RTVSPropertyOp31
 70
     1
102
RTVSPropertyOp32
 70
     1
102
RTVSPropertyOp33
 70
     1
102
RTVSPropertyOp34
 70
     1
102
RTVSPropertyOp35
 70
     1
102
RTVSPropertyOp36
 70
     1
102
RTVSPropertyOp37
 70
     1
102
RTVSPropertyOp38
 70
     1
102
RTVSPropertyOp39
 70
     1
102
RTVSPropertyOp40
 70
     1
102
RTVSPropertyOp41
 70
     1
102
RTVSPropertyOp42
 70
     1
102
RTVSPropertyOp43
 70
     1
102
RTVSPropertyOp44
 70
     1
102
RTVSPropertyOp45
 70
     1
102
RTVSPropertyOp46
 70
     1
102
RTVSPropertyOp47
 70
     1
102
RTVSPropertyOp48
 70
     1
102
RTVSPropertyOp49
 70
     1
102
RTVSPropertyOp50
 70
     1
102
RTVSPropertyOp51
 70
     0
102
RTVSPropertyOp52
 70
     0
102
RTVSPropertyOp53
 70
     1
102
RTVSPropertyOp54
 70
     1
102
RTVSPropertyOp55
 70
     1
102
RTVSPropertyOp56
 70
     1
102
RTVSPropertyOp57
 70
     1
102
RTVSPropertyOp58
 70
     1
102
RTVSPropertyOp59
 70
     1
102
RTVSPropertyOp60
 70
     1
102
RTVSPropertyOp61
 70
     1
102
RTVSPropertyOp62
 70
     1
  0
XRECORD
  5
36A
102
{ACAD_REACTORS
330
369
102
}
330
369
100
AcDbXrecord
280
     1
102
RTVSPost2010Prop28
280
     0
102
RTVSPost2010PropOp28
 70
     1
102
RTVSPost2010Prop29
280
     1
102
RTVSPost2010PropOp29
 70
     1
102
RTVSPost2010Prop30
280
     1
102
RTVSPost2010PropOp30
 70
     1
102
RTVSPost2010Prop31
280
     0
102
RTVSPost2010PropOp31
 70
     1
102
RTVSPost2010Prop32
280
     0
102
RTVSPost2010PropOp32
 70
     1
102
RTVSPost2010Prop33
280
     0
102
RTVSPost2010PropOp33
 70
     1
102
RTVSPost2010Prop34
280
     0
102
RTVSPost2010PropOp34
 70
     1
102
RTVSPost2010Prop35
280
     0
102
RTVSPost2010PropOp35
 70
     1
102
RTVSPost2010Prop36
280
     0
102
RTVSPost2010PropOp36
 70
     1
102
RTVSPost2010Prop37
 90
       50
102
RTVSPost2010PropOp37
 70
     1
102
RTVSPost2010Prop38
140
0.0
102
RTVSPost2010PropOp38
 70
     1
102
RTVSPost2010Prop39
140
1.0
102
RTVSPost2010PropOp39
 70
     1
102
RTVSPost2010Prop40
 90
        0
102
RTVSPost2010PropOp40
 70
     1
102
RTVSPost2010Prop41ColorIndex
 90
       18
102
RTVSPost2010Prop41ColorRGB
 90
        0
102
RTVSPost2010PropOp41
 70
     1
102
RTVSPost2010Prop42
 90
       50
102
RTVSPost2010PropOp42
 70
     1
102
RTVSPost2010Prop43
 90
        3
102
RTVSPost2010PropOp43
 70
     1
102
RTVSPost2010Prop44ColorIndex
 90
        5
102
RTVSPost2010Prop44ColorRGB
 90
      255
102
RTVSPost2010PropOp44
 70
     1
102
RTVSPost2010Prop45
280
     0
102
RTVSPost2010PropOp45
 70
     1
102
RTVSPost2010Prop46
 90
       50
102
RTVSPost2010PropOp46
 70
     1
102
RTVSPost2010Prop47
 90
       50
102
RTVSPost2010PropOp47
 70
     1
102
RTVSPost2010Prop48
 90
       50
102
RTVSPost2010PropOp48
 70
     1
102
RTVSPost2010Prop49
280
     0
102
RTVSPost2010PropOp49
 70
     1
102
RTVSPost2010Prop50
 90
       50
102
RTVSPost2010PropOp50
 70
     1
102
RTVSPost2010Prop51ColorIndex
 90
      256
102
RTVSPost2010Prop51ColorRGB
 90
-16777216
102
RTVSPost2010PropOp51
 70
     0
102
RTVSPost2010Prop52
140
1.0
102
RTVSPost2010PropOp52
 70
     0
102
RTVSPost2010Prop53
 90
        2
102
RTVSPost2010PropOp53
 70
     1
102
RTVSPost2010Prop54
  1
strokes_ogs.tif
102
RTVSPost2010PropOp54
 70
     1
102
RTVSPost2010Prop55
280
     0
102
RTVSPost2010PropOp55
 70
     1
102
RTVSPost2010Prop56
140
1.0
102
RTVSPost2010PropOp56
 70
     1
102
RTVSPost2010Prop57
140
1.0
102
RTVSPost2010PropOp57
 70
     1
102
RTVSPropertyOp0
 70
     1
102
RTVSPropertyOp1
 70
     1
102
RTVSPropertyOp2
 70
     1
102
RTVSPropertyOp3
 70
     1
102
RTVSPropertyOp4
 70
     1
102
RTVSPropertyOp5
 70
     1
102
RTVSPropertyOp6
 70
     1
102
RTVSPropertyOp7
 70
     1
102
RTVSPropertyOp8
 70
     1
102
RTVSPropertyOp9
 70
     1
102
RTVSPropertyOp10
 70
     1
102
RTVSPropertyOp11
 70
     1
102
RTVSPropertyOp12
 70
     1
102
RTVSPropertyOp13
 70
     1
102
RTVSPropertyOp14
 70
     1
102
RTVSPropertyOp15
 70
     1
102
RTVSPropertyOp16
 70
     1
102
RTVSPropertyOp17
 70
     1
102
RTVSPropertyOp18
 70
     1
102
RTVSPropertyOp19
 70
     1
102
RTVSPropertyOp20
 70
     1
102
RTVSPropertyOp21
 70
     1
102
RTVSPropertyOp22
 70
     1
102
RTVSPropertyOp23
 70
     1
102
RTVSPropertyOp24
 70
     1
102
RTVSPropertyOp25
 70
     1
102
RTVSPropertyOp26
 70
     1
102
RTVSPropertyOp27
 70
     1
102
RTVSPropertyOp28
 70
     1
102
RTVSPropertyOp29
 70
     1
102
RTVSPropertyOp30
 70
     1
102
RTVSPropertyOp31
 70
     1
102
RTVSPropertyOp32
 70
     1
102
RTVSPropertyOp33
 70
     1
102
RTVSPropertyOp34
 70
     1
102
RTVSPropertyOp35
 70
     1
102
RTVSPropertyOp36
 70
     1
102
RTVSPropertyOp37
 70
     1
102
RTVSPropertyOp38
 70
     1
102
RTVSPropertyOp39
 70
     1
102
RTVSPropertyOp40
 70
     1
102
RTVSPropertyOp41
 70
     1
102
RTVSPropertyOp42
 70
     1
102
RTVSPropertyOp43
 70
     1
102
RTVSPropertyOp44
 70
     1
102
RTVSPropertyOp45
 70
     1
102
RTVSPropertyOp46
 70
     1
102
RTVSPropertyOp47
 70
     1
102
RTVSPropertyOp48
 70
     1
102
RTVSPropertyOp49
 70
     1
102
RTVSPropertyOp50
 70
     1
102
RTVSPropertyOp51
 70
     0
102
RTVSPropertyOp52
 70
     0
102
RTVSPropertyOp53
 70
     1
102
RTVSPropertyOp54
 70
     1
102
RTVSPropertyOp55
 70
     1
102
RTVSPropertyOp56
 70
     1
102
RTVSPropertyOp57
 70
     1
102
RTVSPropertyOp58
 70
     1
102
RTVSPropertyOp59
 70
     1
102
RTVSPropertyOp60
 70
     1
102
RTVSPropertyOp61
 70
     1
102
RTVSPropertyOp62
 70
     1
  0
XRECORD
  5
36C
102
{ACAD_REACTORS
330
36B
102
}
330
36B
100
AcDbXrecord
280
     1
102
RTVSPost2010Prop28
280
     0
102
RTVSPost2010PropOp28
 70
     1
102
RTVSPost2010Prop29
280
     1
102
RTVSPost2010PropOp29
 70
     1
102
RTVSPost2010Prop30
280
     1
102
RTVSPost2010PropOp30
 70
     1
102
RTVSPost2010Prop31
280
     0
102
RTVSPost2010PropOp31
 70
     1
102
RTVSPost2010Prop32
280
     0
102
RTVSPost2010PropOp32
 70
     1
102
RTVSPost2010Prop33
280
     0
102
RTVSPost2010PropOp33
 70
     1
102
RTVSPost2010Prop34
280
     0
102
RTVSPost2010PropOp34
 70
     1
102
RTVSPost2010Prop35
280
     0
102
RTVSPost2010PropOp35
 70
     1
102
RTVSPost2010Prop36
280
     0
102
RTVSPost2010PropOp36
 70
     1
102
RTVSPost2010Prop37
 90
       50
102
RTVSPost2010PropOp37
 70
     1
102
RTVSPost2010Prop38
140
0.0
102
RTVSPost2010PropOp38
 70
     1
102
RTVSPost2010Prop39
140
1.0
102
RTVSPost2010PropOp39
 70
     1
102
RTVSPost2010Prop40
 90
        0
102
RTVSPost2010PropOp40
 70
     1
102
RTVSPost2010Prop41ColorIndex
 90
       18
102
RTVSPost2010Prop41ColorRGB
 90
        0
102
RTVSPost2010PropOp41
 70
     1
102
RTVSPost2010Prop42
 90
       50
102
RTVSPost2010PropOp42
 70
     1
102
RTVSPost2010Prop43
 90
        3
102
RTVSPost2010PropOp43
 70
     1
102
RTVSPost2010Prop44ColorIndex
 90
        5
102
RTVSPost2010Prop44ColorRGB
 90
      255
102
RTVSPost2010PropOp44
 70
     1
102
RTVSPost2010Prop45
280
     0
102
RTVSPost2010PropOp45
 70
     1
102
RTVSPost2010Prop46
 90
       50
102
RTVSPost2010PropOp46
 70
     1
102
RTVSPost2010Prop47
 90
       50
102
RTVSPost2010PropOp47
 70
     1
102
RTVSPost2010Prop48
 90
       50
102
RTVSPost2010PropOp48
 70
     1
102
RTVSPost2010Prop49
280
     0
102
RTVSPost2010PropOp49
 70
     1
102
RTVSPost2010Prop50
 90
       50
102
RTVSPost2010PropOp50
 70
     1
102
RTVSPost2010Prop51ColorIndex
 90
      256
102
RTVSPost2010Prop51ColorRGB
 90
-16777216
102
RTVSPost2010PropOp51
 70
     0
102
RTVSPost2010Prop52
140
1.0
102
RTVSPost2010PropOp52
 70
     0
102
RTVSPost2010Prop53
 90
        2
102
RTVSPost2010PropOp53
 70
     1
102
RTVSPost2010Prop54
  1
strokes_ogs.tif
102
RTVSPost2010PropOp54
 70
     1
102
RTVSPost2010Prop55
280
     0
102
RTVSPost2010PropOp55
 70
     1
102
RTVSPost2010Prop56
140
1.0
102
RTVSPost2010PropOp56
 70
     1
102
RTVSPost2010Prop57
140
1.0
102
RTVSPost2010PropOp57
 70
     1
102
RTVSPropertyOp0
 70
     1
102
RTVSPropertyOp1
 70
     1
102
RTVSPropertyOp2
 70
     1
102
RTVSPropertyOp3
 70
     1
102
RTVSPropertyOp4
 70
     1
102
RTVSPropertyOp5
 70
     1
102
RTVSPropertyOp6
 70
     1
102
RTVSPropertyOp7
 70
     1
102
RTVSPropertyOp8
 70
     1
102
RTVSPropertyOp9
 70
     1
102
RTVSPropertyOp10
 70
     1
102
RTVSPropertyOp11
 70
     1
102
RTVSPropertyOp12
 70
     1
102
RTVSPropertyOp13
 70
     1
102
RTVSPropertyOp14
 70
     1
102
RTVSPropertyOp15
 70
     1
102
RTVSPropertyOp16
 70
     1
102
RTVSPropertyOp17
 70
     1
102
RTVSPropertyOp18
 70
     1
102
RTVSPropertyOp19
 70
     1
102
RTVSPropertyOp20
 70
     1
102
RTVSPropertyOp21
 70
     1
102
RTVSPropertyOp22
 70
     1
102
RTVSPropertyOp23
 70
     1
102
RTVSPropertyOp24
 70
     1
102
RTVSPropertyOp25
 70
     1
102
RTVSPropertyOp26
 70
     1
102
RTVSPropertyOp27
 70
     1
102
RTVSPropertyOp28
 70
     1
102
RTVSPropertyOp29
 70
     1
102
RTVSPropertyOp30
 70
     1
102
RTVSPropertyOp31
 70
     1
102
RTVSPropertyOp32
 70
     1
102
RTVSPropertyOp33
 70
     1
102
RTVSPropertyOp34
 70
     1
102
RTVSPropertyOp35
 70
     1
102
RTVSPropertyOp36
 70
     1
102
RTVSPropertyOp37
 70
     1
102
RTVSPropertyOp38
 70
     1
102
RTVSPropertyOp39
 70
     1
102
RTVSPropertyOp40
 70
     1
102
RTVSPropertyOp41
 70
     1
102
RTVSPropertyOp42
 70
     1
102
RTVSPropertyOp43
 70
     1
102
RTVSPropertyOp44
 70
     1
102
RTVSPropertyOp45
 70
     1
102
RTVSPropertyOp46
 70
     1
102
RTVSPropertyOp47
 70
     1
102
RTVSPropertyOp48
 70
     1
102
RTVSPropertyOp49
 70
     1
102
RTVSPropertyOp50
 70
     1
102
RTVSPropertyOp51
 70
     0
102
RTVSPropertyOp52
 70
     0
102
RTVSPropertyOp53
 70
     1
102
RTVSPropertyOp54
 70
     1
102
RTVSPropertyOp55
 70
     1
102
RTVSPropertyOp56
 70
     1
102
RTVSPropertyOp57
 70
     1
102
RTVSPropertyOp58
 70
     1
102
RTVSPropertyOp59
 70
     1
102
RTVSPropertyOp60
 70
     1
102
RTVSPropertyOp61
 70
     1
102
RTVSPropertyOp62
 70
     1
  0
XRECORD
  5
36E
102
{ACAD_REACTORS
330
36D
102
}
330
36D
100
AcDbXrecord
280
     1
102
RTVSPost2010Prop28
280
     0
102
RTVSPost2010PropOp28
 70
     1
102
RTVSPost2010Prop29
280
     1
102
RTVSPost2010PropOp29
 70
     1
102
RTVSPost2010Prop30
280
     1
102
RTVSPost2010PropOp30
 70
     1
102
RTVSPost2010Prop31
280
     0
102
RTVSPost2010PropOp31
 70
     1
102
RTVSPost2010Prop32
280
     0
102
RTVSPost2010PropOp32
 70
     1
102
RTVSPost2010Prop33
280
     0
102
RTVSPost2010PropOp33
 70
     1
102
RTVSPost2010Prop34
280
     0
102
RTVSPost2010PropOp34
 70
     1
102
RTVSPost2010Prop35
280
     0
102
RTVSPost2010PropOp35
 70
     1
102
RTVSPost2010Prop36
280
     0
102
RTVSPost2010PropOp36
 70
     1
102
RTVSPost2010Prop37
 90
       50
102
RTVSPost2010PropOp37
 70
     1
102
RTVSPost2010Prop38
140
0.0
102
RTVSPost2010PropOp38
 70
     1
102
RTVSPost2010Prop39
140
1.0
102
RTVSPost2010PropOp39
 70
     1
102
RTVSPost2010Prop40
 90
        0
102
RTVSPost2010PropOp40
 70
     1
102
RTVSPost2010Prop41ColorIndex
 90
       18
102
RTVSPost2010Prop41ColorRGB
 90
        0
102
RTVSPost2010PropOp41
 70
     1
102
RTVSPost2010Prop42
 90
       50
102
RTVSPost2010PropOp42
 70
     1
102
RTVSPost2010Prop43
 90
        3
102
RTVSPost2010PropOp43
 70
     1
102
RTVSPost2010Prop44ColorIndex
 90
        5
102
RTVSPost2010Prop44ColorRGB
 90
      255
102
RTVSPost2010PropOp44
 70
     1
102
RTVSPost2010Prop45
280
     0
102
RTVSPost2010PropOp45
 70
     1
102
RTVSPost2010Prop46
 90
       50
102
RTVSPost2010PropOp46
 70
     1
102
RTVSPost2010Prop47
 90
       50
102
RTVSPost2010PropOp47
 70
     1
102
RTVSPost2010Prop48
 90
       50
102
RTVSPost2010PropOp48
 70
     1
102
RTVSPost2010Prop49
280
     0
102
RTVSPost2010PropOp49
 70
     1
102
RTVSPost2010Prop50
 90
       50
102
RTVSPost2010PropOp50
 70
     1
102
RTVSPost2010Prop51ColorIndex
 90
      256
102
RTVSPost2010Prop51ColorRGB
 90
-16777216
102
RTVSPost2010PropOp51
 70
     0
102
RTVSPost2010Prop52
140
1.0
102
RTVSPost2010PropOp52
 70
     0
102
RTVSPost2010Prop53
 90
        2
102
RTVSPost2010PropOp53
 70
     1
102
RTVSPost2010Prop54
  1
strokes_ogs.tif
102
RTVSPost2010PropOp54
 70
     1
102
RTVSPost2010Prop55
280
     0
102
RTVSPost2010PropOp55
 70
     1
102
RTVSPost2010Prop56
140
1.0
102
RTVSPost2010PropOp56
 70
     1
102
RTVSPost2010Prop57
140
1.0
102
RTVSPost2010PropOp57
 70
     1
102
RTVSPropertyOp0
 70
     1
102
RTVSPropertyOp1
 70
     1
102
RTVSPropertyOp2
 70
     1
102
RTVSPropertyOp3
 70
     1
102
RTVSPropertyOp4
 70
     1
102
RTVSPropertyOp5
 70
     1
102
RTVSPropertyOp6
 70
     1
102
RTVSPropertyOp7
 70
     1
102
RTVSPropertyOp8
 70
     1
102
RTVSPropertyOp9
 70
     1
102
RTVSPropertyOp10
 70
     1
102
RTVSPropertyOp11
 70
     1
102
RTVSPropertyOp12
 70
     1
102
RTVSPropertyOp13
 70
     1
102
RTVSPropertyOp14
 70
     1
102
RTVSPropertyOp15
 70
     1
102
RTVSPropertyOp16
 70
     1
102
RTVSPropertyOp17
 70
     1
102
RTVSPropertyOp18
 70
     1
102
RTVSPropertyOp19
 70
     1
102
RTVSPropertyOp20
 70
     1
102
RTVSPropertyOp21
 70
     1
102
RTVSPropertyOp22
 70
     1
102
RTVSPropertyOp23
 70
     1
102
RTVSPropertyOp24
 70
     1
102
RTVSPropertyOp25
 70
     1
102
RTVSPropertyOp26
 70
     1
102
RTVSPropertyOp27
 70
     1
102
RTVSPropertyOp28
 70
     1
102
RTVSPropertyOp29
 70
     1
102
RTVSPropertyOp30
 70
     1
102
RTVSPropertyOp31
 70
     1
102
RTVSPropertyOp32
 70
     1
102
RTVSPropertyOp33
 70
     1
102
RTVSPropertyOp34
 70
     1
102
RTVSPropertyOp35
 70
     1
102
RTVSPropertyOp36
 70
     1
102
RTVSPropertyOp37
 70
     1
102
RTVSPropertyOp38
 70
     1
102
RTVSPropertyOp39
 70
     1
102
RTVSPropertyOp40
 70
     1
102
RTVSPropertyOp41
 70
     1
102
RTVSPropertyOp42
 70
     1
102
RTVSPropertyOp43
 70
     1
102
RTVSPropertyOp44
 70
     1
102
RTVSPropertyOp45
 70
     1
102
RTVSPropertyOp46
 70
     1
102
RTVSPropertyOp47
 70
     1
102
RTVSPropertyOp48
 70
     1
102
RTVSPropertyOp49
 70
     1
102
RTVSPropertyOp50
 70
     1
102
RTVSPropertyOp51
 70
     0
102
RTVSPropertyOp52
 70
     0
102
RTVSPropertyOp53
 70
     1
102
RTVSPropertyOp54
 70
     1
102
RTVSPropertyOp55
 70
     1
102
RTVSPropertyOp56
 70
     1
102
RTVSPropertyOp57
 70
     1
102
RTVSPropertyOp58
 70
     1
102
RTVSPropertyOp59
 70
     1
102
RTVSPropertyOp60
 70
     1
102
RTVSPropertyOp61
 70
     1
102
RTVSPropertyOp62
 70
     1
  0
XRECORD
  5
370
102
{ACAD_REACTORS
330
36F
102
}
330
36F
100
AcDbXrecord
280
     1
102
RTVSPost2010Prop28
280
     0
102
RTVSPost2010PropOp28
 70
     1
102
RTVSPost2010Prop29
280
     1
102
RTVSPost2010PropOp29
 70
     1
102
RTVSPost2010Prop30
280
     1
102
RTVSPost2010PropOp30
 70
     1
102
RTVSPost2010Prop31
280
     0
102
RTVSPost2010PropOp31
 70
     1
102
RTVSPost2010Prop32
280
     0
102
RTVSPost2010PropOp32
 70
     1
102
RTVSPost2010Prop33
280
     0
102
RTVSPost2010PropOp33
 70
     1
102
RTVSPost2010Prop34
280
     0
102
RTVSPost2010PropOp34
 70
     1
102
RTVSPost2010Prop35
280
     0
102
RTVSPost2010PropOp35
 70
     1
102
RTVSPost2010Prop36
280
     0
102
RTVSPost2010PropOp36
 70
     1
102
RTVSPost2010Prop37
 90
       50
102
RTVSPost2010PropOp37
 70
     1
102
RTVSPost2010Prop38
140
0.0
102
RTVSPost2010PropOp38
 70
     1
102
RTVSPost2010Prop39
140
1.0
102
RTVSPost2010PropOp39
 70
     1
102
RTVSPost2010Prop40
 90
        0
102
RTVSPost2010PropOp40
 70
     1
102
RTVSPost2010Prop41ColorIndex
 90
       18
102
RTVSPost2010Prop41ColorRGB
 90
        0
102
RTVSPost2010PropOp41
 70
     1
102
RTVSPost2010Prop42
 90
       50
102
RTVSPost2010PropOp42
 70
     1
102
RTVSPost2010Prop43
 90
        3
102
RTVSPost2010PropOp43
 70
     1
102
RTVSPost2010Prop44ColorIndex
 90
        5
102
RTVSPost2010Prop44ColorRGB
 90
      255
102
RTVSPost2010PropOp44
 70
     1
102
RTVSPost2010Prop45
280
     0
102
RTVSPost2010PropOp45
 70
     1
102
RTVSPost2010Prop46
 90
       50
102
RTVSPost2010PropOp46
 70
     1
102
RTVSPost2010Prop47
 90
       50
102
RTVSPost2010PropOp47
 70
     1
102
RTVSPost2010Prop48
 90
       50
102
RTVSPost2010PropOp48
 70
     1
102
RTVSPost2010Prop49
280
     0
102
RTVSPost2010PropOp49
 70
     1
102
RTVSPost2010Prop50
 90
       50
102
RTVSPost2010PropOp50
 70
     1
102
RTVSPost2010Prop51ColorIndex
 90
      256
102
RTVSPost2010Prop51ColorRGB
 90
-16777216
102
RTVSPost2010PropOp51
 70
     0
102
RTVSPost2010Prop52
140
1.0
102
RTVSPost2010PropOp52
 70
     0
102
RTVSPost2010Prop53
 90
        2
102
RTVSPost2010PropOp53
 70
     1
102
RTVSPost2010Prop54
  1
strokes_ogs.tif
102
RTVSPost2010PropOp54
 70
     1
102
RTVSPost2010Prop55
280
     0
102
RTVSPost2010PropOp55
 70
     1
102
RTVSPost2010Prop56
140
1.0
102
RTVSPost2010PropOp56
 70
     1
102
RTVSPost2010Prop57
140
1.0
102
RTVSPost2010PropOp57
 70
     1
102
RTVSPropertyOp0
 70
     1
102
RTVSPropertyOp1
 70
     1
102
RTVSPropertyOp2
 70
     1
102
RTVSPropertyOp3
 70
     1
102
RTVSPropertyOp4
 70
     1
102
RTVSPropertyOp5
 70
     1
102
RTVSPropertyOp6
 70
     1
102
RTVSPropertyOp7
 70
     1
102
RTVSPropertyOp8
 70
     1
102
RTVSPropertyOp9
 70
     1
102
RTVSPropertyOp10
 70
     1
102
RTVSPropertyOp11
 70
     1
102
RTVSPropertyOp12
 70
     1
102
RTVSPropertyOp13
 70
     1
102
RTVSPropertyOp14
 70
     1
102
RTVSPropertyOp15
 70
     1
102
RTVSPropertyOp16
 70
     1
102
RTVSPropertyOp17
 70
     1
102
RTVSPropertyOp18
 70
     1
102
RTVSPropertyOp19
 70
     1
102
RTVSPropertyOp20
 70
     1
102
RTVSPropertyOp21
 70
     1
102
RTVSPropertyOp22
 70
     1
102
RTVSPropertyOp23
 70
     1
102
RTVSPropertyOp24
 70
     1
102
RTVSPropertyOp25
 70
     1
102
RTVSPropertyOp26
 70
     1
102
RTVSPropertyOp27
 70
     1
102
RTVSPropertyOp28
 70
     1
102
RTVSPropertyOp29
 70
     1
102
RTVSPropertyOp30
 70
     1
102
RTVSPropertyOp31
 70
     1
102
RTVSPropertyOp32
 70
     1
102
RTVSPropertyOp33
 70
     1
102
RTVSPropertyOp34
 70
     1
102
RTVSPropertyOp35
 70
     1
102
RTVSPropertyOp36
 70
     1
102
RTVSPropertyOp37
 70
     1
102
RTVSPropertyOp38
 70
     1
102
RTVSPropertyOp39
 70
     1
102
RTVSPropertyOp40
 70
     1
102
RTVSPropertyOp41
 70
     1
102
RTVSPropertyOp42
 70
     1
102
RTVSPropertyOp43
 70
     1
102
RTVSPropertyOp44
 70
     1
102
RTVSPropertyOp45
 70
     1
102
RTVSPropertyOp46
 70
     1
102
RTVSPropertyOp47
 70
     1
102
RTVSPropertyOp48
 70
     1
102
RTVSPropertyOp49
 70
     1
102
RTVSPropertyOp50
 70
     1
102
RTVSPropertyOp51
 70
     0
102
RTVSPropertyOp52
 70
     0
102
RTVSPropertyOp53
 70
     1
102
RTVSPropertyOp54
 70
     1
102
RTVSPropertyOp55
 70
     1
102
RTVSPropertyOp56
 70
     1
102
RTVSPropertyOp57
 70
     1
102
RTVSPropertyOp58
 70
     1
102
RTVSPropertyOp59
 70
     1
102
RTVSPropertyOp60
 70
     1
102
RTVSPropertyOp61
 70
     1
102
RTVSPropertyOp62
 70
     1
  0
XRECORD
  5
376
102
{ACAD_REACTORS
330
375
102
}
330
375
100
AcDbXrecord
280
     1
102
RTVSPost2010Prop28
280
     0
102
RTVSPost2010PropOp28
 70
     1
102
RTVSPost2010Prop29
280
     1
102
RTVSPost2010PropOp29
 70
     1
102
RTVSPost2010Prop30
280
     1
102
RTVSPost2010PropOp30
 70
     1
102
RTVSPost2010Prop31
280
     0
102
RTVSPost2010PropOp31
 70
     1
102
RTVSPost2010Prop32
280
     0
102
RTVSPost2010PropOp32
 70
     1
102
RTVSPost2010Prop33
280
     0
102
RTVSPost2010PropOp33
 70
     1
102
RTVSPost2010Prop34
280
     0
102
RTVSPost2010PropOp34
 70
     1
102
RTVSPost2010Prop35
280
     0
102
RTVSPost2010PropOp35
 70
     1
102
RTVSPost2010Prop36
280
     0
102
RTVSPost2010PropOp36
 70
     1
102
RTVSPost2010Prop37
 90
       50
102
RTVSPost2010PropOp37
 70
     1
102
RTVSPost2010Prop38
140
0.0
102
RTVSPost2010PropOp38
 70
     1
102
RTVSPost2010Prop39
140
1.0
102
RTVSPost2010PropOp39
 70
     1
102
RTVSPost2010Prop40
 90
        0
102
RTVSPost2010PropOp40
 70
     1
102
RTVSPost2010Prop41ColorIndex
 90
       18
102
RTVSPost2010Prop41ColorRGB
 90
        0
102
RTVSPost2010PropOp41
 70
     1
102
RTVSPost2010Prop42
 90
       50
102
RTVSPost2010PropOp42
 70
     1
102
RTVSPost2010Prop43
 90
        3
102
RTVSPost2010PropOp43
 70
     1
102
RTVSPost2010Prop44ColorIndex
 90
        5
102
RTVSPost2010Prop44ColorRGB
 90
      255
102
RTVSPost2010PropOp44
 70
     1
102
RTVSPost2010Prop45
280
     0
102
RTVSPost2010PropOp45
 70
     1
102
RTVSPost2010Prop46
 90
       50
102
RTVSPost2010PropOp46
 70
     1
102
RTVSPost2010Prop47
 90
       50
102
RTVSPost2010PropOp47
 70
     1
102
RTVSPost2010Prop48
 90
       50
102
RTVSPost2010PropOp48
 70
     1
102
RTVSPost2010Prop49
280
     0
102
RTVSPost2010PropOp49
 70
     1
102
RTVSPost2010Prop50
 90
       50
102
RTVSPost2010PropOp50
 70
     1
102
RTVSPost2010Prop51ColorIndex
 90
      256
102
RTVSPost2010Prop51ColorRGB
 90
-16777216
102
RTVSPost2010PropOp51
 70
     0
102
RTVSPost2010Prop52
140
1.0
102
RTVSPost2010PropOp52
 70
     0
102
RTVSPost2010Prop53
 90
        2
102
RTVSPost2010PropOp53
 70
     1
102
RTVSPost2010Prop54
  1
strokes_ogs.tif
102
RTVSPost2010PropOp54
 70
     1
102
RTVSPost2010Prop55
280
     0
102
RTVSPost2010PropOp55
 70
     1
102
RTVSPost2010Prop56
140
1.0
102
RTVSPost2010PropOp56
 70
     1
102
RTVSPost2010Prop57
140
1.0
102
RTVSPost2010PropOp57
 70
     1
102
RTVSPropertyOp0
 70
     1
102
RTVSPropertyOp1
 70
     1
102
RTVSPropertyOp2
 70
     1
102
RTVSPropertyOp3
 70
     1
102
RTVSPropertyOp4
 70
     1
102
RTVSPropertyOp5
 70
     1
102
RTVSPropertyOp6
 70
     1
102
RTVSPropertyOp7
 70
     1
102
RTVSPropertyOp8
 70
     1
102
RTVSPropertyOp9
 70
     1
102
RTVSPropertyOp10
 70
     1
102
RTVSPropertyOp11
 70
     1
102
RTVSPropertyOp12
 70
     1
102
RTVSPropertyOp13
 70
     1
102
RTVSPropertyOp14
 70
     1
102
RTVSPropertyOp15
 70
     1
102
RTVSPropertyOp16
 70
     1
102
RTVSPropertyOp17
 70
     1
102
RTVSPropertyOp18
 70
     1
102
RTVSPropertyOp19
 70
     1
102
RTVSPropertyOp20
 70
     1
102
RTVSPropertyOp21
 70
     1
102
RTVSPropertyOp22
 70
     1
102
RTVSPropertyOp23
 70
     1
102
RTVSPropertyOp24
 70
     1
102
RTVSPropertyOp25
 70
     1
102
RTVSPropertyOp26
 70
     1
102
RTVSPropertyOp27
 70
     1
102
RTVSPropertyOp28
 70
     1
102
RTVSPropertyOp29
 70
     1
102
RTVSPropertyOp30
 70
     1
102
RTVSPropertyOp31
 70
     1
102
RTVSPropertyOp32
 70
     1
102
RTVSPropertyOp33
 70
     1
102
RTVSPropertyOp34
 70
     1
102
RTVSPropertyOp35
 70
     1
102
RTVSPropertyOp36
 70
     1
102
RTVSPropertyOp37
 70
     1
102
RTVSPropertyOp38
 70
     1
102
RTVSPropertyOp39
 70
     1
102
RTVSPropertyOp40
 70
     1
102
RTVSPropertyOp41
 70
     1
102
RTVSPropertyOp42
 70
     1
102
RTVSPropertyOp43
 70
     1
102
RTVSPropertyOp44
 70
     1
102
RTVSPropertyOp45
 70
     1
102
RTVSPropertyOp46
 70
     1
102
RTVSPropertyOp47
 70
     1
102
RTVSPropertyOp48
 70
     1
102
RTVSPropertyOp49
 70
     1
102
RTVSPropertyOp50
 70
     1
102
RTVSPropertyOp51
 70
     0
102
RTVSPropertyOp52
 70
     0
102
RTVSPropertyOp53
 70
     1
102
RTVSPropertyOp54
 70
     1
102
RTVSPropertyOp55
 70
     1
102
RTVSPropertyOp56
 70
     1
102
RTVSPropertyOp57
 70
     1
102
RTVSPropertyOp58
 70
     1
102
RTVSPropertyOp59
 70
     1
102
RTVSPropertyOp60
 70
     1
102
RTVSPropertyOp61
 70
     1
102
RTVSPropertyOp62
 70
     1
  0
XRECORD
  5
38A
102
{ACAD_REACTORS
330
389
102
}
330
389
100
AcDbXrecord
280
     1
102
RTVSPost2010Prop28
280
     0
102
RTVSPost2010PropOp28
 70
     0
102
RTVSPost2010Prop29
280
     1
102
RTVSPost2010PropOp29
 70
     0
102
RTVSPost2010Prop30
280
     1
102
RTVSPost2010PropOp30
 70
     0
102
RTVSPost2010Prop31
280
     0
102
RTVSPost2010PropOp31
 70
     0
102
RTVSPost2010Prop32
280
     0
102
RTVSPost2010PropOp32
 70
     0
102
RTVSPost2010Prop33
280
     0
102
RTVSPost2010PropOp33
 70
     0
102
RTVSPost2010Prop34
280
     0
102
RTVSPost2010PropOp34
 70
     0
102
RTVSPost2010Prop35
280
     0
102
RTVSPost2010PropOp35
 70
     0
102
RTVSPost2010Prop36
280
     0
102
RTVSPost2010PropOp36
 70
     0
102
RTVSPost2010Prop37
 90
       50
102
RTVSPost2010PropOp37
 70
     0
102
RTVSPost2010Prop38
140
0.0
102
RTVSPost2010PropOp38
 70
     0
102
RTVSPost2010Prop39
140
1.0
102
RTVSPost2010PropOp39
 70
     0
102
RTVSPost2010Prop40
 90
        0
102
RTVSPost2010PropOp40
 70
     0
102
RTVSPost2010Prop41ColorIndex
 90
       18
102
RTVSPost2010Prop41ColorRGB
 90
        0
102
RTVSPost2010PropOp41
 70
     0
102
RTVSPost2010Prop42
 90
       50
102
RTVSPost2010PropOp42
 70
     0
102
RTVSPost2010Prop43
 90
        3
102
RTVSPost2010PropOp43
 70
     0
102
RTVSPost2010Prop44ColorIndex
 90
        5
102
RTVSPost2010Prop44ColorRGB
 90
      255
102
RTVSPost2010PropOp44
 70
     0
102
RTVSPost2010Prop45
280
     0
102
RTVSPost2010PropOp45
 70
     0
102
RTVSPost2010Prop46
 90
       50
102
RTVSPost2010PropOp46
 70
     0
102
RTVSPost2010Prop47
 90
       50
102
RTVSPost2010PropOp47
 70
     0
102
RTVSPost2010Prop48
 90
       50
102
RTVSPost2010PropOp48
 70
     0
102
RTVSPost2010Prop49
280
     0
102
RTVSPost2010PropOp49
 70
     0
102
RTVSPost2010Prop50
 90
       50
102
RTVSPost2010PropOp50
 70
     0
102
RTVSPost2010Prop51ColorIndex
 90
      256
102
RTVSPost2010Prop51ColorRGB
 90
-16777216
102
RTVSPost2010PropOp51
 70
     0
102
RTVSPost2010Prop52
140
1.0
102
RTVSPost2010PropOp52
 70
     0
102
RTVSPost2010Prop53
 90
        2
102
RTVSPost2010PropOp53
 70
     0
102
RTVSPost2010Prop54
  1
strokes_ogs.tif
102
RTVSPost2010PropOp54
 70
     0
102
RTVSPost2010Prop55
280
     0
102
RTVSPost2010PropOp55
 70
     0
102
RTVSPost2010Prop56
140
1.0
102
RTVSPost2010PropOp56
 70
     0
102
RTVSPost2010Prop57
140
1.0
102
RTVSPost2010PropOp57
 70
     0
102
RTVSPropertyOp0
 70
     0
102
RTVSPropertyOp1
 70
     0
102
RTVSPropertyOp2
 70
     0
102
RTVSPropertyOp3
 70
     0
102
RTVSPropertyOp4
 70
     0
102
RTVSPropertyOp5
 70
     0
102
RTVSPropertyOp6
 70
     0
102
RTVSPropertyOp7
 70
     0
102
RTVSPropertyOp8
 70
     0
102
RTVSPropertyOp9
 70
     0
102
RTVSPropertyOp10
 70
     0
102
RTVSPropertyOp11
 70
     0
102
RTVSPropertyOp12
 70
     0
102
RTVSPropertyOp13
 70
     0
102
RTVSPropertyOp14
 70
     2
102
RTVSPropertyOp15
 70
     0
102
RTVSPropertyOp16
 70
     0
102
RTVSPropertyOp17
 70
     0
102
RTVSPropertyOp18
 70
     0
102
RTVSPropertyOp19
 70
     0
102
RTVSPropertyOp20
 70
     0
102
RTVSPropertyOp21
 70
     0
102
RTVSPropertyOp22
 70
     0
102
RTVSPropertyOp23
 70
     0
102
RTVSPropertyOp24
 70
     0
102
RTVSPropertyOp25
 70
     0
102
RTVSPropertyOp26
 70
     0
102
RTVSPropertyOp27
 70
     0
102
RTVSPropertyOp28
 70
     0
102
RTVSPropertyOp29
 70
     0
102
RTVSPropertyOp30
 70
     0
102
RTVSPropertyOp31
 70
     0
102
RTVSPropertyOp32
 70
     0
102
RTVSPropertyOp33
 70
     0
102
RTVSPropertyOp34
 70
     0
102
RTVSPropertyOp35
 70
     0
102
RTVSPropertyOp36
 70
     0
102
RTVSPropertyOp37
 70
     0
102
RTVSPropertyOp38
 70
     0
102
RTVSPropertyOp39
 70
     0
102
RTVSPropertyOp40
 70
     0
102
RTVSPropertyOp41
 70
     0
102
RTVSPropertyOp42
 70
     0
102
RTVSPropertyOp43
 70
     0
102
RTVSPropertyOp44
 70
     0
102
RTVSPropertyOp45
 70
     0
102
RTVSPropertyOp46
 70
     0
102
RTVSPropertyOp47
 70
     0
102
RTVSPropertyOp48
 70
     0
102
RTVSPropertyOp49
 70
     0
102
RTVSPropertyOp50
 70
     0
102
RTVSPropertyOp51
 70
     0
102
RTVSPropertyOp52
 70
     0
102
RTVSPropertyOp53
 70
     0
102
RTVSPropertyOp54
 70
     0
102
RTVSPropertyOp55
 70
     0
102
RTVSPropertyOp56
 70
     0
102
RTVSPropertyOp57
 70
     0
102
RTVSPropertyOp58
 70
     1
102
RTVSPropertyOp59
 70
     1
102
RTVSPropertyOp60
 70
     1
102
RTVSPropertyOp61
 70
     1
102
RTVSPropertyOp62
 70
     1
  0
XRECORD
  5
384
102
{ACAD_REACTORS
330
383
102
}
330
383
100
AcDbXrecord
280
     1
102
RTVSPost2010Prop28
280
     0
102
RTVSPost2010PropOp28
 70
     1
102
RTVSPost2010Prop29
280
     1
102
RTVSPost2010PropOp29
 70
     1
102
RTVSPost2010Prop30
280
     1
102
RTVSPost2010PropOp30
 70
     1
102
RTVSPost2010Prop31
280
     0
102
RTVSPost2010PropOp31
 70
     1
102
RTVSPost2010Prop32
280
     0
102
RTVSPost2010PropOp32
 70
     1
102
RTVSPost2010Prop33
280
     0
102
RTVSPost2010PropOp33
 70
     1
102
RTVSPost2010Prop34
280
     0
102
RTVSPost2010PropOp34
 70
     1
102
RTVSPost2010Prop35
280
     0
102
RTVSPost2010PropOp35
 70
     1
102
RTVSPost2010Prop36
280
     0
102
RTVSPost2010PropOp36
 70
     1
102
RTVSPost2010Prop37
 90
       50
102
RTVSPost2010PropOp37
 70
     1
102
RTVSPost2010Prop38
140
0.0
102
RTVSPost2010PropOp38
 70
     1
102
RTVSPost2010Prop39
140
1.0
102
RTVSPost2010PropOp39
 70
     1
102
RTVSPost2010Prop40
 90
        0
102
RTVSPost2010PropOp40
 70
     1
102
RTVSPost2010Prop41ColorIndex
 90
       18
102
RTVSPost2010Prop41ColorRGB
 90
        0
102
RTVSPost2010PropOp41
 70
     1
102
RTVSPost2010Prop42
 90
       50
102
RTVSPost2010PropOp42
 70
     1
102
RTVSPost2010Prop43
 90
        3
102
RTVSPost2010PropOp43
 70
     1
102
RTVSPost2010Prop44ColorIndex
 90
        5
102
RTVSPost2010Prop44ColorRGB
 90
      255
102
RTVSPost2010PropOp44
 70
     1
102
RTVSPost2010Prop45
280
     0
102
RTVSPost2010PropOp45
 70
     1
102
RTVSPost2010Prop46
 90
       50
102
RTVSPost2010PropOp46
 70
     1
102
RTVSPost2010Prop47
 90
       50
102
RTVSPost2010PropOp47
 70
     1
102
RTVSPost2010Prop48
 90
       50
102
RTVSPost2010PropOp48
 70
     1
102
RTVSPost2010Prop49
280
     0
102
RTVSPost2010PropOp49
 70
     1
102
RTVSPost2010Prop50
 90
       50
102
RTVSPost2010PropOp50
 70
     1
102
RTVSPost2010Prop51ColorIndex
 90
      256
102
RTVSPost2010Prop51ColorRGB
 90
-16777216
102
RTVSPost2010PropOp51
 70
     0
102
RTVSPost2010Prop52
140
1.0
102
RTVSPost2010PropOp52
 70
     0
102
RTVSPost2010Prop53
 90
        2
102
RTVSPost2010PropOp53
 70
     1
102
RTVSPost2010Prop54
  1
strokes_ogs.tif
102
RTVSPost2010PropOp54
 70
     1
102
RTVSPost2010Prop55
280
     0
102
RTVSPost2010PropOp55
 70
     1
102
RTVSPost2010Prop56
140
1.0
102
RTVSPost2010PropOp56
 70
     1
102
RTVSPost2010Prop57
140
1.0
102
RTVSPost2010PropOp57
 70
     1
102
RTVSPropertyOp0
 70
     1
102
RTVSPropertyOp1
 70
     1
102
RTVSPropertyOp2
 70
     1
102
RTVSPropertyOp3
 70
     1
102
RTVSPropertyOp4
 70
     1
102
RTVSPropertyOp5
 70
     1
102
RTVSPropertyOp6
 70
     1
102
RTVSPropertyOp7
 70
     1
102
RTVSPropertyOp8
 70
     1
102
RTVSPropertyOp9
 70
     1
102
RTVSPropertyOp10
 70
     1
102
RTVSPropertyOp11
 70
     1
102
RTVSPropertyOp12
 70
     1
102
RTVSPropertyOp13
 70
     1
102
RTVSPropertyOp14
 70
     1
102
RTVSPropertyOp15
 70
     1
102
RTVSPropertyOp16
 70
     1
102
RTVSPropertyOp17
 70
     1
102
RTVSPropertyOp18
 70
     1
102
RTVSPropertyOp19
 70
     1
102
RTVSPropertyOp20
 70
     1
102
RTVSPropertyOp21
 70
     1
102
RTVSPropertyOp22
 70
     1
102
RTVSPropertyOp23
 70
     1
102
RTVSPropertyOp24
 70
     1
102
RTVSPropertyOp25
 70
     1
102
RTVSPropertyOp26
 70
     1
102
RTVSPropertyOp27
 70
     1
102
RTVSPropertyOp28
 70
     1
102
RTVSPropertyOp29
 70
     1
102
RTVSPropertyOp30
 70
     1
102
RTVSPropertyOp31
 70
     1
102
RTVSPropertyOp32
 70
     1
102
RTVSPropertyOp33
 70
     1
102
RTVSPropertyOp34
 70
     1
102
RTVSPropertyOp35
 70
     1
102
RTVSPropertyOp36
 70
     1
102
RTVSPropertyOp37
 70
     1
102
RTVSPropertyOp38
 70
     1
102
RTVSPropertyOp39
 70
     1
102
RTVSPropertyOp40
 70
     1
102
RTVSPropertyOp41
 70
     1
102
RTVSPropertyOp42
 70
     1
102
RTVSPropertyOp43
 70
     1
102
RTVSPropertyOp44
 70
     1
102
RTVSPropertyOp45
 70
     1
102
RTVSPropertyOp46
 70
     1
102
RTVSPropertyOp47
 70
     1
102
RTVSPropertyOp48
 70
     1
102
RTVSPropertyOp49
 70
     1
102
RTVSPropertyOp50
 70
     1
102
RTVSPropertyOp51
 70
     0
102
RTVSPropertyOp52
 70
     0
102
RTVSPropertyOp53
 70
     1
102
RTVSPropertyOp54
 70
     1
102
RTVSPropertyOp55
 70
     1
102
RTVSPropertyOp56
 70
     1
102
RTVSPropertyOp57
 70
     1
102
RTVSPropertyOp58
 70
     1
102
RTVSPropertyOp59
 70
     1
102
RTVSPropertyOp60
 70
     1
102
RTVSPropertyOp61
 70
     1
102
RTVSPropertyOp62
 70
     1
  0
XRECORD
  5
38C
102
{ACAD_REACTORS
330
38B
102
}
330
38B
100
AcDbXrecord
280
     1
102
RTVSPost2010Prop28
280
     0
102
RTVSPost2010PropOp28
 70
     0
102
RTVSPost2010Prop29
280
     1
102
RTVSPost2010PropOp29
 70
     0
102
RTVSPost2010Prop30
280
     1
102
RTVSPost2010PropOp30
 70
     0
102
RTVSPost2010Prop31
280
     0
102
RTVSPost2010PropOp31
 70
     0
102
RTVSPost2010Prop32
280
     0
102
RTVSPost2010PropOp32
 70
     0
102
RTVSPost2010Prop33
280
     0
102
RTVSPost2010PropOp33
 70
     0
102
RTVSPost2010Prop34
280
     0
102
RTVSPost2010PropOp34
 70
     0
102
RTVSPost2010Prop35
280
     0
102
RTVSPost2010PropOp35
 70
     0
102
RTVSPost2010Prop36
280
     0
102
RTVSPost2010PropOp36
 70
     0
102
RTVSPost2010Prop37
 90
       50
102
RTVSPost2010PropOp37
 70
     0
102
RTVSPost2010Prop38
140
0.0
102
RTVSPost2010PropOp38
 70
     0
102
RTVSPost2010Prop39
140
1.0
102
RTVSPost2010PropOp39
 70
     0
102
RTVSPost2010Prop40
 90
        0
102
RTVSPost2010PropOp40
 70
     0
102
RTVSPost2010Prop41ColorIndex
 90
       18
102
RTVSPost2010Prop41ColorRGB
 90
        0
102
RTVSPost2010PropOp41
 70
     0
102
RTVSPost2010Prop42
 90
       50
102
RTVSPost2010PropOp42
 70
     0
102
RTVSPost2010Prop43
 90
        3
102
RTVSPost2010PropOp43
 70
     0
102
RTVSPost2010Prop44ColorIndex
 90
        5
102
RTVSPost2010Prop44ColorRGB
 90
      255
102
RTVSPost2010PropOp44
 70
     0
102
RTVSPost2010Prop45
280
     0
102
RTVSPost2010PropOp45
 70
     0
102
RTVSPost2010Prop46
 90
       50
102
RTVSPost2010PropOp46
 70
     0
102
RTVSPost2010Prop47
 90
       50
102
RTVSPost2010PropOp47
 70
     0
102
RTVSPost2010Prop48
 90
       50
102
RTVSPost2010PropOp48
 70
     0
102
RTVSPost2010Prop49
280
     0
102
RTVSPost2010PropOp49
 70
     0
102
RTVSPost2010Prop50
 90
       50
102
RTVSPost2010PropOp50
 70
     0
102
RTVSPost2010Prop51ColorIndex
 90
      256
102
RTVSPost2010Prop51ColorRGB
 90
-16777216
102
RTVSPost2010PropOp51
 70
     0
102
RTVSPost2010Prop52
140
1.0
102
RTVSPost2010PropOp52
 70
     0
102
RTVSPost2010Prop53
 90
        2
102
RTVSPost2010PropOp53
 70
     0
102
RTVSPost2010Prop54
  1
strokes_ogs.tif
102
RTVSPost2010PropOp54
 70
     0
102
RTVSPost2010Prop55
280
     0
102
RTVSPost2010PropOp55
 70
     0
102
RTVSPost2010Prop56
140
1.0
102
RTVSPost2010PropOp56
 70
     0
102
RTVSPost2010Prop57
140
1.0
102
RTVSPost2010PropOp57
 70
     0
102
RTVSPropertyOp0
 70
     0
102
RTVSPropertyOp1
 70
     0
102
RTVSPropertyOp2
 70
     0
102
RTVSPropertyOp3
 70
     0
102
RTVSPropertyOp4
 70
     0
102
RTVSPropertyOp5
 70
     0
102
RTVSPropertyOp6
 70
     0
102
RTVSPropertyOp7
 70
     0
102
RTVSPropertyOp8
 70
     0
102
RTVSPropertyOp9
 70
     0
102
RTVSPropertyOp10
 70
     0
102
RTVSPropertyOp11
 70
     0
102
RTVSPropertyOp12
 70
     0
102
RTVSPropertyOp13
 70
     0
102
RTVSPropertyOp14
 70
     2
102
RTVSPropertyOp15
 70
     0
102
RTVSPropertyOp16
 70
     0
102
RTVSPropertyOp17
 70
     0
102
RTVSPropertyOp18
 70
     0
102
RTVSPropertyOp19
 70
     0
102
RTVSPropertyOp20
 70
     0
102
RTVSPropertyOp21
 70
     0
102
RTVSPropertyOp22
 70
     0
102
RTVSPropertyOp23
 70
     0
102
RTVSPropertyOp24
 70
     0
102
RTVSPropertyOp25
 70
     0
102
RTVSPropertyOp26
 70
     0
102
RTVSPropertyOp27
 70
     0
102
RTVSPropertyOp28
 70
     0
102
RTVSPropertyOp29
 70
     0
102
RTVSPropertyOp30
 70
     0
102
RTVSPropertyOp31
 70
     0
102
RTVSPropertyOp32
 70
     0
102
RTVSPropertyOp33
 70
     0
102
RTVSPropertyOp34
 70
     0
102
RTVSPropertyOp35
 70
     0
102
RTVSPropertyOp36
 70
     0
102
RTVSPropertyOp37
 70
     0
102
RTVSPropertyOp38
 70
     0
102
RTVSPropertyOp39
 70
     0
102
RTVSPropertyOp40
 70
     0
102
RTVSPropertyOp41
 70
     0
102
RTVSPropertyOp42
 70
     0
102
RTVSPropertyOp43
 70
     0
102
RTVSPropertyOp44
 70
     0
102
RTVSPropertyOp45
 70
     0
102
RTVSPropertyOp46
 70
     0
102
RTVSPropertyOp47
 70
     0
102
RTVSPropertyOp48
 70
     0
102
RTVSPropertyOp49
 70
     0
102
RTVSPropertyOp50
 70
     0
102
RTVSPropertyOp51
 70
     0
102
RTVSPropertyOp52
 70
     0
102
RTVSPropertyOp53
 70
     0
102
RTVSPropertyOp54
 70
     0
102
RTVSPropertyOp55
 70
     0
102
RTVSPropertyOp56
 70
     0
102
RTVSPropertyOp57
 70
     0
102
RTVSPropertyOp58
 70
     1
102
RTVSPropertyOp59
 70
     1
102
RTVSPropertyOp60
 70
     1
102
RTVSPropertyOp61
 70
     1
102
RTVSPropertyOp62
 70
     1
  0
XRECORD
  5
37A
102
{ACAD_REACTORS
330
379
102
}
330
379
100
AcDbXrecord
280
     1
102
RTVSPost2010Prop28
280
     0
102
RTVSPost2010PropOp28
 70
     1
102
RTVSPost2010Prop29
280
     1
102
RTVSPost2010PropOp29
 70
     1
102
RTVSPost2010Prop30
280
     1
102
RTVSPost2010PropOp30
 70
     1
102
RTVSPost2010Prop31
280
     0
102
RTVSPost2010PropOp31
 70
     1
102
RTVSPost2010Prop32
280
     0
102
RTVSPost2010PropOp32
 70
     1
102
RTVSPost2010Prop33
280
     0
102
RTVSPost2010PropOp33
 70
     1
102
RTVSPost2010Prop34
280
     0
102
RTVSPost2010PropOp34
 70
     1
102
RTVSPost2010Prop35
280
     0
102
RTVSPost2010PropOp35
 70
     1
102
RTVSPost2010Prop36
280
     0
102
RTVSPost2010PropOp36
 70
     1
102
RTVSPost2010Prop37
 90
       50
102
RTVSPost2010PropOp37
 70
     1
102
RTVSPost2010Prop38
140
0.0
102
RTVSPost2010PropOp38
 70
     1
102
RTVSPost2010Prop39
140
1.0
102
RTVSPost2010PropOp39
 70
     1
102
RTVSPost2010Prop40
 90
        0
102
RTVSPost2010PropOp40
 70
     1
102
RTVSPost2010Prop41ColorIndex
 90
       18
102
RTVSPost2010Prop41ColorRGB
 90
        0
102
RTVSPost2010PropOp41
 70
     1
102
RTVSPost2010Prop42
 90
       50
102
RTVSPost2010PropOp42
 70
     1
102
RTVSPost2010Prop43
 90
        3
102
RTVSPost2010PropOp43
 70
     1
102
RTVSPost2010Prop44ColorIndex
 90
        5
102
RTVSPost2010Prop44ColorRGB
 90
      255
102
RTVSPost2010PropOp44
 70
     1
102
RTVSPost2010Prop45
280
     0
102
RTVSPost2010PropOp45
 70
     1
102
RTVSPost2010Prop46
 90
       50
102
RTVSPost2010PropOp46
 70
     1
102
RTVSPost2010Prop47
 90
       50
102
RTVSPost2010PropOp47
 70
     1
102
RTVSPost2010Prop48
 90
       50
102
RTVSPost2010PropOp48
 70
     1
102
RTVSPost2010Prop49
280
     0
102
RTVSPost2010PropOp49
 70
     1
102
RTVSPost2010Prop50
 90
       50
102
RTVSPost2010PropOp50
 70
     1
102
RTVSPost2010Prop51ColorIndex
 90
      256
102
RTVSPost2010Prop51ColorRGB
 90
-16777216
102
RTVSPost2010PropOp51
 70
     0
102
RTVSPost2010Prop52
140
1.0
102
RTVSPost2010PropOp52
 70
     0
102
RTVSPost2010Prop53
 90
        2
102
RTVSPost2010PropOp53
 70
     1
102
RTVSPost2010Prop54
  1
strokes_ogs.tif
102
RTVSPost2010PropOp54
 70
     1
102
RTVSPost2010Prop55
280
     0
102
RTVSPost2010PropOp55
 70
     1
102
RTVSPost2010Prop56
140
1.0
102
RTVSPost2010PropOp56
 70
     1
102
RTVSPost2010Prop57
140
1.0
102
RTVSPost2010PropOp57
 70
     1
102
RTVSPropertyOp0
 70
     1
102
RTVSPropertyOp1
 70
     1
102
RTVSPropertyOp2
 70
     1
102
RTVSPropertyOp3
 70
     1
102
RTVSPropertyOp4
 70
     1
102
RTVSPropertyOp5
 70
     1
102
RTVSPropertyOp6
 70
     1
102
RTVSPropertyOp7
 70
     1
102
RTVSPropertyOp8
 70
     1
102
RTVSPropertyOp9
 70
     1
102
RTVSPropertyOp10
 70
     1
102
RTVSPropertyOp11
 70
     1
102
RTVSPropertyOp12
 70
     1
102
RTVSPropertyOp13
 70
     1
102
RTVSPropertyOp14
 70
     1
102
RTVSPropertyOp15
 70
     1
102
RTVSPropertyOp16
 70
     1
102
RTVSPropertyOp17
 70
     1
102
RTVSPropertyOp18
 70
     1
102
RTVSPropertyOp19
 70
     1
102
RTVSPropertyOp20
 70
     1
102
RTVSPropertyOp21
 70
     1
102
RTVSPropertyOp22
 70
     1
102
RTVSPropertyOp23
 70
     1
102
RTVSPropertyOp24
 70
     1
102
RTVSPropertyOp25
 70
     1
102
RTVSPropertyOp26
 70
     1
102
RTVSPropertyOp27
 70
     1
102
RTVSPropertyOp28
 70
     1
102
RTVSPropertyOp29
 70
     1
102
RTVSPropertyOp30
 70
     1
102
RTVSPropertyOp31
 70
     1
102
RTVSPropertyOp32
 70
     1
102
RTVSPropertyOp33
 70
     1
102
RTVSPropertyOp34
 70
     1
102
RTVSPropertyOp35
 70
     1
102
RTVSPropertyOp36
 70
     1
102
RTVSPropertyOp37
 70
     1
102
RTVSPropertyOp38
 70
     1
102
RTVSPropertyOp39
 70
     1
102
RTVSPropertyOp40
 70
     1
102
RTVSPropertyOp41
 70
     1
102
RTVSPropertyOp42
 70
     1
102
RTVSPropertyOp43
 70
     1
102
RTVSPropertyOp44
 70
     1
102
RTVSPropertyOp45
 70
     1
102
RTVSPropertyOp46
 70
     1
102
RTVSPropertyOp47
 70
     1
102
RTVSPropertyOp48
 70
     1
102
RTVSPropertyOp49
 70
     1
102
RTVSPropertyOp50
 70
     1
102
RTVSPropertyOp51
 70
     0
102
RTVSPropertyOp52
 70
     0
102
RTVSPropertyOp53
 70
     1
102
RTVSPropertyOp54
 70
     1
102
RTVSPropertyOp55
 70
     1
102
RTVSPropertyOp56
 70
     1
102
RTVSPropertyOp57
 70
     1
102
RTVSPropertyOp58
 70
     1
102
RTVSPropertyOp59
 70
     1
102
RTVSPropertyOp60
 70
     1
102
RTVSPropertyOp61
 70
     1
102
RTVSPropertyOp62
 70
     1
  0
XRECORD
  5
398
102
{ACAD_REACTORS
330
397
102
}
330
397
100
AcDbXrecord
280
     1
102
RTVSPost2010Prop28
280
     0
102
RTVSPost2010PropOp28
 70
     1
102
RTVSPost2010Prop29
280
     1
102
RTVSPost2010PropOp29
 70
     1
102
RTVSPost2010Prop30
280
     1
102
RTVSPost2010PropOp30
 70
     1
102
RTVSPost2010Prop31
280
     0
102
RTVSPost2010PropOp31
 70
     1
102
RTVSPost2010Prop32
280
     0
102
RTVSPost2010PropOp32
 70
     1
102
RTVSPost2010Prop33
280
     0
102
RTVSPost2010PropOp33
 70
     1
102
RTVSPost2010Prop34
280
     0
102
RTVSPost2010PropOp34
 70
     1
102
RTVSPost2010Prop35
280
     0
102
RTVSPost2010PropOp35
 70
     1
102
RTVSPost2010Prop36
280
     0
102
RTVSPost2010PropOp36
 70
     1
102
RTVSPost2010Prop37
 90
       50
102
RTVSPost2010PropOp37
 70
     1
102
RTVSPost2010Prop38
140
0.0
102
RTVSPost2010PropOp38
 70
     1
102
RTVSPost2010Prop39
140
1.0
102
RTVSPost2010PropOp39
 70
     1
102
RTVSPost2010Prop40
 90
        0
102
RTVSPost2010PropOp40
 70
     1
102
RTVSPost2010Prop41ColorIndex
 90
       18
102
RTVSPost2010Prop41ColorRGB
 90
        0
102
RTVSPost2010PropOp41
 70
     1
102
RTVSPost2010Prop42
 90
       50
102
RTVSPost2010PropOp42
 70
     1
102
RTVSPost2010Prop43
 90
        3
102
RTVSPost2010PropOp43
 70
     1
102
RTVSPost2010Prop44ColorIndex
 90
        5
102
RTVSPost2010Prop44ColorRGB
 90
      255
102
RTVSPost2010PropOp44
 70
     1
102
RTVSPost2010Prop45
280
     0
102
RTVSPost2010PropOp45
 70
     1
102
RTVSPost2010Prop46
 90
       50
102
RTVSPost2010PropOp46
 70
     1
102
RTVSPost2010Prop47
 90
       50
102
RTVSPost2010PropOp47
 70
     1
102
RTVSPost2010Prop48
 90
       50
102
RTVSPost2010PropOp48
 70
     1
102
RTVSPost2010Prop49
280
     0
102
RTVSPost2010PropOp49
 70
     1
102
RTVSPost2010Prop50
 90
       50
102
RTVSPost2010PropOp50
 70
     1
102
RTVSPost2010Prop51ColorIndex
 90
      256
102
RTVSPost2010Prop51ColorRGB
 90
-16777216
102
RTVSPost2010PropOp51
 70
     0
102
RTVSPost2010Prop52
140
1.0
102
RTVSPost2010PropOp52
 70
     0
102
RTVSPost2010Prop53
 90
        2
102
RTVSPost2010PropOp53
 70
     1
102
RTVSPost2010Prop54
  1
strokes_ogs.tif
102
RTVSPost2010PropOp54
 70
     1
102
RTVSPost2010Prop55
280
     0
102
RTVSPost2010PropOp55
 70
     1
102
RTVSPost2010Prop56
140
1.0
102
RTVSPost2010PropOp56
 70
     1
102
RTVSPost2010Prop57
140
1.0
102
RTVSPost2010PropOp57
 70
     1
102
RTVSPropertyOp0
 70
     1
102
RTVSPropertyOp1
 70
     1
102
RTVSPropertyOp2
 70
     1
102
RTVSPropertyOp3
 70
     1
102
RTVSPropertyOp4
 70
     1
102
RTVSPropertyOp5
 70
     1
102
RTVSPropertyOp6
 70
     1
102
RTVSPropertyOp7
 70
     1
102
RTVSPropertyOp8
 70
     1
102
RTVSPropertyOp9
 70
     1
102
RTVSPropertyOp10
 70
     1
102
RTVSPropertyOp11
 70
     1
102
RTVSPropertyOp12
 70
     1
102
RTVSPropertyOp13
 70
     1
102
RTVSPropertyOp14
 70
     1
102
RTVSPropertyOp15
 70
     1
102
RTVSPropertyOp16
 70
     1
102
RTVSPropertyOp17
 70
     1
102
RTVSPropertyOp18
 70
     1
102
RTVSPropertyOp19
 70
     1
102
RTVSPropertyOp20
 70
     1
102
RTVSPropertyOp21
 70
     1
102
RTVSPropertyOp22
 70
     1
102
RTVSPropertyOp23
 70
     1
102
RTVSPropertyOp24
 70
     1
102
RTVSPropertyOp25
 70
     1
102
RTVSPropertyOp26
 70
     1
102
RTVSPropertyOp27
 70
     1
102
RTVSPropertyOp28
 70
     1
102
RTVSPropertyOp29
 70
     1
102
RTVSPropertyOp30
 70
     1
102
RTVSPropertyOp31
 70
     1
102
RTVSPropertyOp32
 70
     1
102
RTVSPropertyOp33
 70
     1
102
RTVSPropertyOp34
 70
     1
102
RTVSPropertyOp35
 70
     1
102
RTVSPropertyOp36
 70
     1
102
RTVSPropertyOp37
 70
     1
102
RTVSPropertyOp38
 70
     1
102
RTVSPropertyOp39
 70
     1
102
RTVSPropertyOp40
 70
     1
102
RTVSPropertyOp41
 70
     1
102
RTVSPropertyOp42
 70
     1
102
RTVSPropertyOp43
 70
     1
102
RTVSPropertyOp44
 70
     1
102
RTVSPropertyOp45
 70
     1
102
RTVSPropertyOp46
 70
     1
102
RTVSPropertyOp47
 70
     1
102
RTVSPropertyOp48
 70
     1
102
RTVSPropertyOp49
 70
     1
102
RTVSPropertyOp50
 70
     1
102
RTVSPropertyOp51
 70
     0
102
RTVSPropertyOp52
 70
     0
102
RTVSPropertyOp53
 70
     1
102
RTVSPropertyOp54
 70
     1
102
RTVSPropertyOp55
 70
     1
102
RTVSPropertyOp56
 70
     1
102
RTVSPropertyOp57
 70
     1
102
RTVSPropertyOp58
 70
     1
102
RTVSPropertyOp59
 70
     1
102
RTVSPropertyOp60
 70
     1
102
RTVSPropertyOp61
 70
     1
102
RTVSPropertyOp62
 70
     1
  0
XRECORD
  5
396
102
{ACAD_REACTORS
330
395
102
}
330
395
100
AcDbXrecord
280
     1
102
RTVSPost2010Prop28
280
     0
102
RTVSPost2010PropOp28
 70
     1
102
RTVSPost2010Prop29
280
     1
102
RTVSPost2010PropOp29
 70
     1
102
RTVSPost2010Prop30
280
     1
102
RTVSPost2010PropOp30
 70
     1
102
RTVSPost2010Prop31
280
     0
102
RTVSPost2010PropOp31
 70
     1
102
RTVSPost2010Prop32
280
     0
102
RTVSPost2010PropOp32
 70
     1
102
RTVSPost2010Prop33
280
     0
102
RTVSPost2010PropOp33
 70
     1
102
RTVSPost2010Prop34
280
     0
102
RTVSPost2010PropOp34
 70
     1
102
RTVSPost2010Prop35
280
     0
102
RTVSPost2010PropOp35
 70
     1
102
RTVSPost2010Prop36
280
     0
102
RTVSPost2010PropOp36
 70
     1
102
RTVSPost2010Prop37
 90
       50
102
RTVSPost2010PropOp37
 70
     1
102
RTVSPost2010Prop38
140
0.0
102
RTVSPost2010PropOp38
 70
     1
102
RTVSPost2010Prop39
140
1.0
102
RTVSPost2010PropOp39
 70
     1
102
RTVSPost2010Prop40
 90
        0
102
RTVSPost2010PropOp40
 70
     1
102
RTVSPost2010Prop41ColorIndex
 90
       18
102
RTVSPost2010Prop41ColorRGB
 90
        0
102
RTVSPost2010PropOp41
 70
     1
102
RTVSPost2010Prop42
 90
       50
102
RTVSPost2010PropOp42
 70
     1
102
RTVSPost2010Prop43
 90
        3
102
RTVSPost2010PropOp43
 70
     1
102
RTVSPost2010Prop44ColorIndex
 90
        5
102
RTVSPost2010Prop44ColorRGB
 90
      255
102
RTVSPost2010PropOp44
 70
     1
102
RTVSPost2010Prop45
280
     0
102
RTVSPost2010PropOp45
 70
     1
102
RTVSPost2010Prop46
 90
       50
102
RTVSPost2010PropOp46
 70
     1
102
RTVSPost2010Prop47
 90
       50
102
RTVSPost2010PropOp47
 70
     1
102
RTVSPost2010Prop48
 90
       50
102
RTVSPost2010PropOp48
 70
     1
102
RTVSPost2010Prop49
280
     0
102
RTVSPost2010PropOp49
 70
     1
102
RTVSPost2010Prop50
 90
       50
102
RTVSPost2010PropOp50
 70
     1
102
RTVSPost2010Prop51ColorIndex
 90
      256
102
RTVSPost2010Prop51ColorRGB
 90
-16777216
102
RTVSPost2010PropOp51
 70
     0
102
RTVSPost2010Prop52
140
1.0
102
RTVSPost2010PropOp52
 70
     0
102
RTVSPost2010Prop53
 90
        2
102
RTVSPost2010PropOp53
 70
     1
102
RTVSPost2010Prop54
  1
strokes_ogs.tif
102
RTVSPost2010PropOp54
 70
     1
102
RTVSPost2010Prop55
280
     0
102
RTVSPost2010PropOp55
 70
     1
102
RTVSPost2010Prop56
140
1.0
102
RTVSPost2010PropOp56
 70
     1
102
RTVSPost2010Prop57
140
1.0
102
RTVSPost2010PropOp57
 70
     1
102
RTVSPropertyOp0
 70
     1
102
RTVSPropertyOp1
 70
     1
102
RTVSPropertyOp2
 70
     1
102
RTVSPropertyOp3
 70
     1
102
RTVSPropertyOp4
 70
     1
102
RTVSPropertyOp5
 70
     1
102
RTVSPropertyOp6
 70
     1
102
RTVSPropertyOp7
 70
     1
102
RTVSPropertyOp8
 70
     1
102
RTVSPropertyOp9
 70
     1
102
RTVSPropertyOp10
 70
     1
102
RTVSPropertyOp11
 70
     1
102
RTVSPropertyOp12
 70
     1
102
RTVSPropertyOp13
 70
     1
102
RTVSPropertyOp14
 70
     1
102
RTVSPropertyOp15
 70
     1
102
RTVSPropertyOp16
 70
     1
102
RTVSPropertyOp17
 70
     1
102
RTVSPropertyOp18
 70
     1
102
RTVSPropertyOp19
 70
     1
102
RTVSPropertyOp20
 70
     1
102
RTVSPropertyOp21
 70
     1
102
RTVSPropertyOp22
 70
     1
102
RTVSPropertyOp23
 70
     1
102
RTVSPropertyOp24
 70
     1
102
RTVSPropertyOp25
 70
     1
102
RTVSPropertyOp26
 70
     1
102
RTVSPropertyOp27
 70
     1
102
RTVSPropertyOp28
 70
     1
102
RTVSPropertyOp29
 70
     1
102
RTVSPropertyOp30
 70
     1
102
RTVSPropertyOp31
 70
     1
102
RTVSPropertyOp32
 70
     1
102
RTVSPropertyOp33
 70
     1
102
RTVSPropertyOp34
 70
     1
102
RTVSPropertyOp35
 70
     1
102
RTVSPropertyOp36
 70
     1
102
RTVSPropertyOp37
 70
     1
102
RTVSPropertyOp38
 70
     1
102
RTVSPropertyOp39
 70
     1
102
RTVSPropertyOp40
 70
     1
102
RTVSPropertyOp41
 70
     1
102
RTVSPropertyOp42
 70
     1
102
RTVSPropertyOp43
 70
     1
102
RTVSPropertyOp44
 70
     1
102
RTVSPropertyOp45
 70
     1
102
RTVSPropertyOp46
 70
     1
102
RTVSPropertyOp47
 70
     1
102
RTVSPropertyOp48
 70
     1
102
RTVSPropertyOp49
 70
     1
102
RTVSPropertyOp50
 70
     1
102
RTVSPropertyOp51
 70
     0
102
RTVSPropertyOp52
 70
     0
102
RTVSPropertyOp53
 70
     1
102
RTVSPropertyOp54
 70
     1
102
RTVSPropertyOp55
 70
     1
102
RTVSPropertyOp56
 70
     1
102
RTVSPropertyOp57
 70
     1
102
RTVSPropertyOp58
 70
     1
102
RTVSPropertyOp59
 70
     1
102
RTVSPropertyOp60
 70
     1
102
RTVSPropertyOp61
 70
     1
102
RTVSPropertyOp62
 70
     1
  0
XRECORD
  5
390
102
{ACAD_REACTORS
330
38F
102
}
330
38F
100
AcDbXrecord
280
     1
102
RTVSPost2010Prop28
280
     0
102
RTVSPost2010PropOp28
 70
     1
102
RTVSPost2010Prop29
280
     1
102
RTVSPost2010PropOp29
 70
     1
102
RTVSPost2010Prop30
280
     1
102
RTVSPost2010PropOp30
 70
     1
102
RTVSPost2010Prop31
280
     0
102
RTVSPost2010PropOp31
 70
     1
102
RTVSPost2010Prop32
280
     0
102
RTVSPost2010PropOp32
 70
     1
102
RTVSPost2010Prop33
280
     0
102
RTVSPost2010PropOp33
 70
     1
102
RTVSPost2010Prop34
280
     0
102
RTVSPost2010PropOp34
 70
     1
102
RTVSPost2010Prop35
280
     0
102
RTVSPost2010PropOp35
 70
     1
102
RTVSPost2010Prop36
280
     0
102
RTVSPost2010PropOp36
 70
     1
102
RTVSPost2010Prop37
 90
       50
102
RTVSPost2010PropOp37
 70
     1
102
RTVSPost2010Prop38
140
0.0
102
RTVSPost2010PropOp38
 70
     1
102
RTVSPost2010Prop39
140
1.0
102
RTVSPost2010PropOp39
 70
     1
102
RTVSPost2010Prop40
 90
        0
102
RTVSPost2010PropOp40
 70
     1
102
RTVSPost2010Prop41ColorIndex
 90
       18
102
RTVSPost2010Prop41ColorRGB
 90
        0
102
RTVSPost2010PropOp41
 70
     1
102
RTVSPost2010Prop42
 90
       50
102
RTVSPost2010PropOp42
 70
     1
102
RTVSPost2010Prop43
 90
        3
102
RTVSPost2010PropOp43
 70
     1
102
RTVSPost2010Prop44ColorIndex
 90
        5
102
RTVSPost2010Prop44ColorRGB
 90
      255
102
RTVSPost2010PropOp44
 70
     1
102
RTVSPost2010Prop45
280
     0
102
RTVSPost2010PropOp45
 70
     1
102
RTVSPost2010Prop46
 90
       50
102
RTVSPost2010PropOp46
 70
     1
102
RTVSPost2010Prop47
 90
       50
102
RTVSPost2010PropOp47
 70
     1
102
RTVSPost2010Prop48
 90
       50
102
RTVSPost2010PropOp48
 70
     1
102
RTVSPost2010Prop49
280
     0
102
RTVSPost2010PropOp49
 70
     1
102
RTVSPost2010Prop50
 90
       50
102
RTVSPost2010PropOp50
 70
     1
102
RTVSPost2010Prop51ColorIndex
 90
      256
102
RTVSPost2010Prop51ColorRGB
 90
-16777216
102
RTVSPost2010PropOp51
 70
     0
102
RTVSPost2010Prop52
140
1.0
102
RTVSPost2010PropOp52
 70
     0
102
RTVSPost2010Prop53
 90
        2
102
RTVSPost2010PropOp53
 70
     1
102
RTVSPost2010Prop54
  1
strokes_ogs.tif
102
RTVSPost2010PropOp54
 70
     1
102
RTVSPost2010Prop55
280
     0
102
RTVSPost2010PropOp55
 70
     1
102
RTVSPost2010Prop56
140
1.0
102
RTVSPost2010PropOp56
 70
     1
102
RTVSPost2010Prop57
140
1.0
102
RTVSPost2010PropOp57
 70
     1
102
RTVSPropertyOp0
 70
     1
102
RTVSPropertyOp1
 70
     1
102
RTVSPropertyOp2
 70
     1
102
RTVSPropertyOp3
 70
     1
102
RTVSPropertyOp4
 70
     1
102
RTVSPropertyOp5
 70
     1
102
RTVSPropertyOp6
 70
     1
102
RTVSPropertyOp7
 70
     1
102
RTVSPropertyOp8
 70
     1
102
RTVSPropertyOp9
 70
     1
102
RTVSPropertyOp10
 70
     1
102
RTVSPropertyOp11
 70
     1
102
RTVSPropertyOp12
 70
     1
102
RTVSPropertyOp13
 70
     1
102
RTVSPropertyOp14
 70
     1
102
RTVSPropertyOp15
 70
     1
102
RTVSPropertyOp16
 70
     1
102
RTVSPropertyOp17
 70
     1
102
RTVSPropertyOp18
 70
     1
102
RTVSPropertyOp19
 70
     1
102
RTVSPropertyOp20
 70
     1
102
RTVSPropertyOp21
 70
     1
102
RTVSPropertyOp22
 70
     1
102
RTVSPropertyOp23
 70
     1
102
RTVSPropertyOp24
 70
     1
102
RTVSPropertyOp25
 70
     1
102
RTVSPropertyOp26
 70
     1
102
RTVSPropertyOp27
 70
     1
102
RTVSPropertyOp28
 70
     1
102
RTVSPropertyOp29
 70
     1
102
RTVSPropertyOp30
 70
     1
102
RTVSPropertyOp31
 70
     1
102
RTVSPropertyOp32
 70
     1
102
RTVSPropertyOp33
 70
     1
102
RTVSPropertyOp34
 70
     1
102
RTVSPropertyOp35
 70
     1
102
RTVSPropertyOp36
 70
     1
102
RTVSPropertyOp37
 70
     1
102
RTVSPropertyOp38
 70
     1
102
RTVSPropertyOp39
 70
     1
102
RTVSPropertyOp40
 70
     1
102
RTVSPropertyOp41
 70
     1
102
RTVSPropertyOp42
 70
     1
102
RTVSPropertyOp43
 70
     1
102
RTVSPropertyOp44
 70
     1
102
RTVSPropertyOp45
 70
     1
102
RTVSPropertyOp46
 70
     1
102
RTVSPropertyOp47
 70
     1
102
RTVSPropertyOp48
 70
     1
102
RTVSPropertyOp49
 70
     1
102
RTVSPropertyOp50
 70
     1
102
RTVSPropertyOp51
 70
     0
102
RTVSPropertyOp52
 70
     0
102
RTVSPropertyOp53
 70
     1
102
RTVSPropertyOp54
 70
     1
102
RTVSPropertyOp55
 70
     1
102
RTVSPropertyOp56
 70
     1
102
RTVSPropertyOp57
 70
     1
102
RTVSPropertyOp58
 70
     1
102
RTVSPropertyOp59
 70
     1
102
RTVSPropertyOp60
 70
     1
102
RTVSPropertyOp61
 70
     1
102
RTVSPropertyOp62
 70
     1
  0
XRECORD
  5
392
102
{ACAD_REACTORS
330
391
102
}
330
391
100
AcDbXrecord
280
     1
102
RTVSPost2010Prop28
280
     0
102
RTVSPost2010PropOp28
 70
     1
102
RTVSPost2010Prop29
280
     1
102
RTVSPost2010PropOp29
 70
     1
102
RTVSPost2010Prop30
280
     1
102
RTVSPost2010PropOp30
 70
     1
102
RTVSPost2010Prop31
280
     0
102
RTVSPost2010PropOp31
 70
     1
102
RTVSPost2010Prop32
280
     0
102
RTVSPost2010PropOp32
 70
     1
102
RTVSPost2010Prop33
280
     0
102
RTVSPost2010PropOp33
 70
     1
102
RTVSPost2010Prop34
280
     0
102
RTVSPost2010PropOp34
 70
     1
102
RTVSPost2010Prop35
280
     0
102
RTVSPost2010PropOp35
 70
     1
102
RTVSPost2010Prop36
280
     0
102
RTVSPost2010PropOp36
 70
     1
102
RTVSPost2010Prop37
 90
       50
102
RTVSPost2010PropOp37
 70
     1
102
RTVSPost2010Prop38
140
0.0
102
RTVSPost2010PropOp38
 70
     1
102
RTVSPost2010Prop39
140
1.0
102
RTVSPost2010PropOp39
 70
     1
102
RTVSPost2010Prop40
 90
        0
102
RTVSPost2010PropOp40
 70
     1
102
RTVSPost2010Prop41ColorIndex
 90
       18
102
RTVSPost2010Prop41ColorRGB
 90
        0
102
RTVSPost2010PropOp41
 70
     1
102
RTVSPost2010Prop42
 90
       50
102
RTVSPost2010PropOp42
 70
     1
102
RTVSPost2010Prop43
 90
        3
102
RTVSPost2010PropOp43
 70
     1
102
RTVSPost2010Prop44ColorIndex
 90
        5
102
RTVSPost2010Prop44ColorRGB
 90
      255
102
RTVSPost2010PropOp44
 70
     1
102
RTVSPost2010Prop45
280
     0
102
RTVSPost2010PropOp45
 70
     1
102
RTVSPost2010Prop46
 90
       50
102
RTVSPost2010PropOp46
 70
     1
102
RTVSPost2010Prop47
 90
       50
102
RTVSPost2010PropOp47
 70
     1
102
RTVSPost2010Prop48
 90
       50
102
RTVSPost2010PropOp48
 70
     1
102
RTVSPost2010Prop49
280
     0
102
RTVSPost2010PropOp49
 70
     1
102
RTVSPost2010Prop50
 90
       50
102
RTVSPost2010PropOp50
 70
     1
102
RTVSPost2010Prop51ColorIndex
 90
      256
102
RTVSPost2010Prop51ColorRGB
 90
-16777216
102
RTVSPost2010PropOp51
 70
     0
102
RTVSPost2010Prop52
140
1.0
102
RTVSPost2010PropOp52
 70
     0
102
RTVSPost2010Prop53
 90
        2
102
RTVSPost2010PropOp53
 70
     1
102
RTVSPost2010Prop54
  1
strokes_ogs.tif
102
RTVSPost2010PropOp54
 70
     1
102
RTVSPost2010Prop55
280
     0
102
RTVSPost2010PropOp55
 70
     1
102
RTVSPost2010Prop56
140
1.0
102
RTVSPost2010PropOp56
 70
     1
102
RTVSPost2010Prop57
140
1.0
102
RTVSPost2010PropOp57
 70
     1
102
RTVSPropertyOp0
 70
     1
102
RTVSPropertyOp1
 70
     1
102
RTVSPropertyOp2
 70
     1
102
RTVSPropertyOp3
 70
     1
102
RTVSPropertyOp4
 70
     1
102
RTVSPropertyOp5
 70
     1
102
RTVSPropertyOp6
 70
     1
102
RTVSPropertyOp7
 70
     1
102
RTVSPropertyOp8
 70
     1
102
RTVSPropertyOp9
 70
     1
102
RTVSPropertyOp10
 70
     1
102
RTVSPropertyOp11
 70
     1
102
RTVSPropertyOp12
 70
     1
102
RTVSPropertyOp13
 70
     1
102
RTVSPropertyOp14
 70
     1
102
RTVSPropertyOp15
 70
     1
102
RTVSPropertyOp16
 70
     1
102
RTVSPropertyOp17
 70
     1
102
RTVSPropertyOp18
 70
     1
102
RTVSPropertyOp19
 70
     1
102
RTVSPropertyOp20
 70
     1
102
RTVSPropertyOp21
 70
     1
102
RTVSPropertyOp22
 70
     1
102
RTVSPropertyOp23
 70
     1
102
RTVSPropertyOp24
 70
     1
102
RTVSPropertyOp25
 70
     1
102
RTVSPropertyOp26
 70
     1
102
RTVSPropertyOp27
 70
     1
102
RTVSPropertyOp28
 70
     1
102
RTVSPropertyOp29
 70
     1
102
RTVSPropertyOp30
 70
     1
102
RTVSPropertyOp31
 70
     1
102
RTVSPropertyOp32
 70
     1
102
RTVSPropertyOp33
 70
     1
102
RTVSPropertyOp34
 70
     1
102
RTVSPropertyOp35
 70
     1
102
RTVSPropertyOp36
 70
     1
102
RTVSPropertyOp37
 70
     1
102
RTVSPropertyOp38
 70
     1
102
RTVSPropertyOp39
 70
     1
102
RTVSPropertyOp40
 70
     1
102
RTVSPropertyOp41
 70
     1
102
RTVSPropertyOp42
 70
     1
102
RTVSPropertyOp43
 70
     1
102
RTVSPropertyOp44
 70
     1
102
RTVSPropertyOp45
 70
     1
102
RTVSPropertyOp46
 70
     1
102
RTVSPropertyOp47
 70
     1
102
RTVSPropertyOp48
 70
     1
102
RTVSPropertyOp49
 70
     1
102
RTVSPropertyOp50
 70
     1
102
RTVSPropertyOp51
 70
     0
102
RTVSPropertyOp52
 70
     0
102
RTVSPropertyOp53
 70
     1
102
RTVSPropertyOp54
 70
     1
102
RTVSPropertyOp55
 70
     1
102
RTVSPropertyOp56
 70
     1
102
RTVSPropertyOp57
 70
     1
102
RTVSPropertyOp58
 70
     1
102
RTVSPropertyOp59
 70
     1
102
RTVSPropertyOp60
 70
     1
102
RTVSPropertyOp61
 70
     1
102
RTVSPropertyOp62
 70
     1
  0
XRECORD
  5
382
102
{ACAD_REACTORS
330
381
102
}
330
381
100
AcDbXrecord
280
     1
102
RTVSPost2010Prop28
280
     0
102
RTVSPost2010PropOp28
 70
     1
102
RTVSPost2010Prop29
280
     1
102
RTVSPost2010PropOp29
 70
     1
102
RTVSPost2010Prop30
280
     1
102
RTVSPost2010PropOp30
 70
     1
102
RTVSPost2010Prop31
280
     0
102
RTVSPost2010PropOp31
 70
     1
102
RTVSPost2010Prop32
280
     0
102
RTVSPost2010PropOp32
 70
     1
102
RTVSPost2010Prop33
280
     0
102
RTVSPost2010PropOp33
 70
     1
102
RTVSPost2010Prop34
280
     0
102
RTVSPost2010PropOp34
 70
     1
102
RTVSPost2010Prop35
280
     0
102
RTVSPost2010PropOp35
 70
     1
102
RTVSPost2010Prop36
280
     0
102
RTVSPost2010PropOp36
 70
     1
102
RTVSPost2010Prop37
 90
       50
102
RTVSPost2010PropOp37
 70
     1
102
RTVSPost2010Prop38
140
0.0
102
RTVSPost2010PropOp38
 70
     1
102
RTVSPost2010Prop39
140
1.0
102
RTVSPost2010PropOp39
 70
     1
102
RTVSPost2010Prop40
 90
        0
102
RTVSPost2010PropOp40
 70
     1
102
RTVSPost2010Prop41ColorIndex
 90
       18
102
RTVSPost2010Prop41ColorRGB
 90
        0
102
RTVSPost2010PropOp41
 70
     1
102
RTVSPost2010Prop42
 90
       50
102
RTVSPost2010PropOp42
 70
     1
102
RTVSPost2010Prop43
 90
        3
102
RTVSPost2010PropOp43
 70
     1
102
RTVSPost2010Prop44ColorIndex
 90
        5
102
RTVSPost2010Prop44ColorRGB
 90
      255
102
RTVSPost2010PropOp44
 70
     1
102
RTVSPost2010Prop45
280
     0
102
RTVSPost2010PropOp45
 70
     1
102
RTVSPost2010Prop46
 90
       50
102
RTVSPost2010PropOp46
 70
     1
102
RTVSPost2010Prop47
 90
       50
102
RTVSPost2010PropOp47
 70
     1
102
RTVSPost2010Prop48
 90
       50
102
RTVSPost2010PropOp48
 70
     1
102
RTVSPost2010Prop49
280
     0
102
RTVSPost2010PropOp49
 70
     1
102
RTVSPost2010Prop50
 90
       50
102
RTVSPost2010PropOp50
 70
     1
102
RTVSPost2010Prop51ColorIndex
 90
      256
102
RTVSPost2010Prop51ColorRGB
 90
-16777216
102
RTVSPost2010PropOp51
 70
     0
102
RTVSPost2010Prop52
140
1.0
102
RTVSPost2010PropOp52
 70
     0
102
RTVSPost2010Prop53
 90
        2
102
RTVSPost2010PropOp53
 70
     1
102
RTVSPost2010Prop54
  1
strokes_ogs.tif
102
RTVSPost2010PropOp54
 70
     1
102
RTVSPost2010Prop55
280
     0
102
RTVSPost2010PropOp55
 70
     1
102
RTVSPost2010Prop56
140
1.0
102
RTVSPost2010PropOp56
 70
     1
102
RTVSPost2010Prop57
140
1.0
102
RTVSPost2010PropOp57
 70
     1
102
RTVSPropertyOp0
 70
     1
102
RTVSPropertyOp1
 70
     1
102
RTVSPropertyOp2
 70
     1
102
RTVSPropertyOp3
 70
     1
102
RTVSPropertyOp4
 70
     1
102
RTVSPropertyOp5
 70
     1
102
RTVSPropertyOp6
 70
     1
102
RTVSPropertyOp7
 70
     1
102
RTVSPropertyOp8
 70
     1
102
RTVSPropertyOp9
 70
     1
102
RTVSPropertyOp10
 70
     1
102
RTVSPropertyOp11
 70
     1
102
RTVSPropertyOp12
 70
     1
102
RTVSPropertyOp13
 70
     1
102
RTVSPropertyOp14
 70
     1
102
RTVSPropertyOp15
 70
     1
102
RTVSPropertyOp16
 70
     1
102
RTVSPropertyOp17
 70
     1
102
RTVSPropertyOp18
 70
     1
102
RTVSPropertyOp19
 70
     1
102
RTVSPropertyOp20
 70
     1
102
RTVSPropertyOp21
 70
     1
102
RTVSPropertyOp22
 70
     1
102
RTVSPropertyOp23
 70
     1
102
RTVSPropertyOp24
 70
     1
102
RTVSPropertyOp25
 70
     1
102
RTVSPropertyOp26
 70
     1
102
RTVSPropertyOp27
 70
     1
102
RTVSPropertyOp28
 70
     1
102
RTVSPropertyOp29
 70
     1
102
RTVSPropertyOp30
 70
     1
102
RTVSPropertyOp31
 70
     1
102
RTVSPropertyOp32
 70
     1
102
RTVSPropertyOp33
 70
     1
102
RTVSPropertyOp34
 70
     1
102
RTVSPropertyOp35
 70
     1
102
RTVSPropertyOp36
 70
     1
102
RTVSPropertyOp37
 70
     1
102
RTVSPropertyOp38
 70
     1
102
RTVSPropertyOp39
 70
     1
102
RTVSPropertyOp40
 70
     1
102
RTVSPropertyOp41
 70
     1
102
RTVSPropertyOp42
 70
     1
102
RTVSPropertyOp43
 70
     1
102
RTVSPropertyOp44
 70
     1
102
RTVSPropertyOp45
 70
     1
102
RTVSPropertyOp46
 70
     1
102
RTVSPropertyOp47
 70
     1
102
RTVSPropertyOp48
 70
     1
102
RTVSPropertyOp49
 70
     1
102
RTVSPropertyOp50
 70
     1
102
RTVSPropertyOp51
 70
     0
102
RTVSPropertyOp52
 70
     0
102
RTVSPropertyOp53
 70
     1
102
RTVSPropertyOp54
 70
     1
102
RTVSPropertyOp55
 70
     1
102
RTVSPropertyOp56
 70
     1
102
RTVSPropertyOp57
 70
     1
102
RTVSPropertyOp58
 70
     1
102
RTVSPropertyOp59
 70
     1
102
RTVSPropertyOp60
 70
     1
102
RTVSPropertyOp61
 70
     1
102
RTVSPropertyOp62
 70
     1
  0
XRECORD
  5
374
102
{ACAD_REACTORS
330
373
102
}
330
373
100
AcDbXrecord
280
     1
102
RTVSPost2010Prop28
280
     0
102
RTVSPost2010PropOp28
 70
     1
102
RTVSPost2010Prop29
280
     1
102
RTVSPost2010PropOp29
 70
     1
102
RTVSPost2010Prop30
280
     1
102
RTVSPost2010PropOp30
 70
     1
102
RTVSPost2010Prop31
280
     0
102
RTVSPost2010PropOp31
 70
     1
102
RTVSPost2010Prop32
280
     0
102
RTVSPost2010PropOp32
 70
     1
102
RTVSPost2010Prop33
280
     0
102
RTVSPost2010PropOp33
 70
     1
102
RTVSPost2010Prop34
280
     0
102
RTVSPost2010PropOp34
 70
     1
102
RTVSPost2010Prop35
280
     0
102
RTVSPost2010PropOp35
 70
     1
102
RTVSPost2010Prop36
280
     0
102
RTVSPost2010PropOp36
 70
     1
102
RTVSPost2010Prop37
 90
       50
102
RTVSPost2010PropOp37
 70
     1
102
RTVSPost2010Prop38
140
0.0
102
RTVSPost2010PropOp38
 70
     1
102
RTVSPost2010Prop39
140
1.0
102
RTVSPost2010PropOp39
 70
     1
102
RTVSPost2010Prop40
 90
        0
102
RTVSPost2010PropOp40
 70
     1
102
RTVSPost2010Prop41ColorIndex
 90
       18
102
RTVSPost2010Prop41ColorRGB
 90
        0
102
RTVSPost2010PropOp41
 70
     1
102
RTVSPost2010Prop42
 90
       50
102
RTVSPost2010PropOp42
 70
     1
102
RTVSPost2010Prop43
 90
        3
102
RTVSPost2010PropOp43
 70
     1
102
RTVSPost2010Prop44ColorIndex
 90
        5
102
RTVSPost2010Prop44ColorRGB
 90
      255
102
RTVSPost2010PropOp44
 70
     1
102
RTVSPost2010Prop45
280
     0
102
RTVSPost2010PropOp45
 70
     1
102
RTVSPost2010Prop46
 90
       50
102
RTVSPost2010PropOp46
 70
     1
102
RTVSPost2010Prop47
 90
       50
102
RTVSPost2010PropOp47
 70
     1
102
RTVSPost2010Prop48
 90
       50
102
RTVSPost2010PropOp48
 70
     1
102
RTVSPost2010Prop49
280
     0
102
RTVSPost2010PropOp49
 70
     1
102
RTVSPost2010Prop50
 90
       50
102
RTVSPost2010PropOp50
 70
     1
102
RTVSPost2010Prop51ColorIndex
 90
      256
102
RTVSPost2010Prop51ColorRGB
 90
-16777216
102
RTVSPost2010PropOp51
 70
     0
102
RTVSPost2010Prop52
140
1.0
102
RTVSPost2010PropOp52
 70
     0
102
RTVSPost2010Prop53
 90
        2
102
RTVSPost2010PropOp53
 70
     1
102
RTVSPost2010Prop54
  1
strokes_ogs.tif
102
RTVSPost2010PropOp54
 70
     1
102
RTVSPost2010Prop55
280
     0
102
RTVSPost2010PropOp55
 70
     1
102
RTVSPost2010Prop56
140
1.0
102
RTVSPost2010PropOp56
 70
     1
102
RTVSPost2010Prop57
140
1.0
102
RTVSPost2010PropOp57
 70
     1
102
RTVSPropertyOp0
 70
     1
102
RTVSPropertyOp1
 70
     1
102
RTVSPropertyOp2
 70
     1
102
RTVSPropertyOp3
 70
     1
102
RTVSPropertyOp4
 70
     1
102
RTVSPropertyOp5
 70
     1
102
RTVSPropertyOp6
 70
     1
102
RTVSPropertyOp7
 70
     1
102
RTVSPropertyOp8
 70
     1
102
RTVSPropertyOp9
 70
     1
102
RTVSPropertyOp10
 70
     1
102
RTVSPropertyOp11
 70
     1
102
RTVSPropertyOp12
 70
     1
102
RTVSPropertyOp13
 70
     1
102
RTVSPropertyOp14
 70
     1
102
RTVSPropertyOp15
 70
     1
102
RTVSPropertyOp16
 70
     1
102
RTVSPropertyOp17
 70
     1
102
RTVSPropertyOp18
 70
     1
102
RTVSPropertyOp19
 70
     1
102
RTVSPropertyOp20
 70
     1
102
RTVSPropertyOp21
 70
     1
102
RTVSPropertyOp22
 70
     1
102
RTVSPropertyOp23
 70
     1
102
RTVSPropertyOp24
 70
     1
102
RTVSPropertyOp25
 70
     1
102
RTVSPropertyOp26
 70
     1
102
RTVSPropertyOp27
 70
     1
102
RTVSPropertyOp28
 70
     1
102
RTVSPropertyOp29
 70
     1
102
RTVSPropertyOp30
 70
     1
102
RTVSPropertyOp31
 70
     1
102
RTVSPropertyOp32
 70
     1
102
RTVSPropertyOp33
 70
     1
102
RTVSPropertyOp34
 70
     1
102
RTVSPropertyOp35
 70
     1
102
RTVSPropertyOp36
 70
     1
102
RTVSPropertyOp37
 70
     1
102
RTVSPropertyOp38
 70
     1
102
RTVSPropertyOp39
 70
     1
102
RTVSPropertyOp40
 70
     1
102
RTVSPropertyOp41
 70
     1
102
RTVSPropertyOp42
 70
     1
102
RTVSPropertyOp43
 70
     1
102
RTVSPropertyOp44
 70
     1
102
RTVSPropertyOp45
 70
     1
102
RTVSPropertyOp46
 70
     1
102
RTVSPropertyOp47
 70
     1
102
RTVSPropertyOp48
 70
     1
102
RTVSPropertyOp49
 70
     1
102
RTVSPropertyOp50
 70
     1
102
RTVSPropertyOp51
 70
     0
102
RTVSPropertyOp52
 70
     0
102
RTVSPropertyOp53
 70
     1
102
RTVSPropertyOp54
 70
     1
102
RTVSPropertyOp55
 70
     1
102
RTVSPropertyOp56
 70
     1
102
RTVSPropertyOp57
 70
     1
102
RTVSPropertyOp58
 70
     1
102
RTVSPropertyOp59
 70
     1
102
RTVSPropertyOp60
 70
     1
102
RTVSPropertyOp61
 70
     1
102
RTVSPropertyOp62
 70
     1
  0
XRECORD
  5
394
102
{ACAD_REACTORS
330
393
102
}
330
393
100
AcDbXrecord
280
     1
102
RTVSPost2010Prop28
280
     0
102
RTVSPost2010PropOp28
 70
     1
102
RTVSPost2010Prop29
280
     1
102
RTVSPost2010PropOp29
 70
     1
102
RTVSPost2010Prop30
280
     1
102
RTVSPost2010PropOp30
 70
     1
102
RTVSPost2010Prop31
280
     0
102
RTVSPost2010PropOp31
 70
     1
102
RTVSPost2010Prop32
280
     0
102
RTVSPost2010PropOp32
 70
     1
102
RTVSPost2010Prop33
280
     0
102
RTVSPost2010PropOp33
 70
     1
102
RTVSPost2010Prop34
280
     0
102
RTVSPost2010PropOp34
 70
     1
102
RTVSPost2010Prop35
280
     0
102
RTVSPost2010PropOp35
 70
     1
102
RTVSPost2010Prop36
280
     0
102
RTVSPost2010PropOp36
 70
     1
102
RTVSPost2010Prop37
 90
       50
102
RTVSPost2010PropOp37
 70
     1
102
RTVSPost2010Prop38
140
0.0
102
RTVSPost2010PropOp38
 70
     1
102
RTVSPost2010Prop39
140
1.0
102
RTVSPost2010PropOp39
 70
     1
102
RTVSPost2010Prop40
 90
        0
102
RTVSPost2010PropOp40
 70
     1
102
RTVSPost2010Prop41ColorIndex
 90
       18
102
RTVSPost2010Prop41ColorRGB
 90
        0
102
RTVSPost2010PropOp41
 70
     1
102
RTVSPost2010Prop42
 90
       50
102
RTVSPost2010PropOp42
 70
     1
102
RTVSPost2010Prop43
 90
        3
102
RTVSPost2010PropOp43
 70
     1
102
RTVSPost2010Prop44ColorIndex
 90
        5
102
RTVSPost2010Prop44ColorRGB
 90
      255
102
RTVSPost2010PropOp44
 70
     1
102
RTVSPost2010Prop45
280
     0
102
RTVSPost2010PropOp45
 70
     1
102
RTVSPost2010Prop46
 90
       50
102
RTVSPost2010PropOp46
 70
     1
102
RTVSPost2010Prop47
 90
       50
102
RTVSPost2010PropOp47
 70
     1
102
RTVSPost2010Prop48
 90
       50
102
RTVSPost2010PropOp48
 70
     1
102
RTVSPost2010Prop49
280
     0
102
RTVSPost2010PropOp49
 70
     1
102
RTVSPost2010Prop50
 90
       50
102
RTVSPost2010PropOp50
 70
     1
102
RTVSPost2010Prop51ColorIndex
 90
      256
102
RTVSPost2010Prop51ColorRGB
 90
-16777216
102
RTVSPost2010PropOp51
 70
     0
102
RTVSPost2010Prop52
140
1.0
102
RTVSPost2010PropOp52
 70
     0
102
RTVSPost2010Prop53
 90
        2
102
RTVSPost2010PropOp53
 70
     1
102
RTVSPost2010Prop54
  1
strokes_ogs.tif
102
RTVSPost2010PropOp54
 70
     1
102
RTVSPost2010Prop55
280
     0
102
RTVSPost2010PropOp55
 70
     1
102
RTVSPost2010Prop56
140
1.0
102
RTVSPost2010PropOp56
 70
     1
102
RTVSPost2010Prop57
140
1.0
102
RTVSPost2010PropOp57
 70
     1
102
RTVSPropertyOp0
 70
     1
102
RTVSPropertyOp1
 70
     1
102
RTVSPropertyOp2
 70
     1
102
RTVSPropertyOp3
 70
     1
102
RTVSPropertyOp4
 70
     1
102
RTVSPropertyOp5
 70
     1
102
RTVSPropertyOp6
 70
     1
102
RTVSPropertyOp7
 70
     1
102
RTVSPropertyOp8
 70
     1
102
RTVSPropertyOp9
 70
     1
102
RTVSPropertyOp10
 70
     1
102
RTVSPropertyOp11
 70
     1
102
RTVSPropertyOp12
 70
     1
102
RTVSPropertyOp13
 70
     1
102
RTVSPropertyOp14
 70
     1
102
RTVSPropertyOp15
 70
     1
102
RTVSPropertyOp16
 70
     1
102
RTVSPropertyOp17
 70
     1
102
RTVSPropertyOp18
 70
     1
102
RTVSPropertyOp19
 70
     1
102
RTVSPropertyOp20
 70
     1
102
RTVSPropertyOp21
 70
     1
102
RTVSPropertyOp22
 70
     1
102
RTVSPropertyOp23
 70
     1
102
RTVSPropertyOp24
 70
     1
102
RTVSPropertyOp25
 70
     1
102
RTVSPropertyOp26
 70
     1
102
RTVSPropertyOp27
 70
     1
102
RTVSPropertyOp28
 70
     1
102
RTVSPropertyOp29
 70
     1
102
RTVSPropertyOp30
 70
     1
102
RTVSPropertyOp31
 70
     1
102
RTVSPropertyOp32
 70
     1
102
RTVSPropertyOp33
 70
     1
102
RTVSPropertyOp34
 70
     1
102
RTVSPropertyOp35
 70
     1
102
RTVSPropertyOp36
 70
     1
102
RTVSPropertyOp37
 70
     1
102
RTVSPropertyOp38
 70
     1
102
RTVSPropertyOp39
 70
     1
102
RTVSPropertyOp40
 70
     1
102
RTVSPropertyOp41
 70
     1
102
RTVSPropertyOp42
 70
     1
102
RTVSPropertyOp43
 70
     1
102
RTVSPropertyOp44
 70
     1
102
RTVSPropertyOp45
 70
     1
102
RTVSPropertyOp46
 70
     1
102
RTVSPropertyOp47
 70
     1
102
RTVSPropertyOp48
 70
     1
102
RTVSPropertyOp49
 70
     1
102
RTVSPropertyOp50
 70
     1
102
RTVSPropertyOp51
 70
     0
102
RTVSPropertyOp52
 70
     0
102
RTVSPropertyOp53
 70
     1
102
RTVSPropertyOp54
 70
     1
102
RTVSPropertyOp55
 70
     1
102
RTVSPropertyOp56
 70
     1
102
RTVSPropertyOp57
 70
     1
102
RTVSPropertyOp58
 70
     1
102
RTVSPropertyOp59
 70
     1
102
RTVSPropertyOp60
 70
     1
102
RTVSPropertyOp61
 70
     1
102
RTVSPropertyOp62
 70
     1
  0
ENDSEC
  0
EOF
