  0
SECTION
  2
HEADER
  9
$ACADVER
  1
AC1018
  9
$ACADMAINTVER
 70
   104
  9
$DWGCODEPAGE
  3
ANSI_1250
  9
$LASTSAVEDBY
  1
wq7085
  9
$INSBASE
 10
0.0
 20
0.0
 30
0.0
  9
$EXTMIN
 10
187.2502013333333
 20
118.534924
 30
0.0
  9
$EXTMAX
 10
436.574637
 20
341.6963336666668
 30
0.0
  9
$LIMMIN
 10
-0.5
 20
-0.5
  9
$LIMMAX
 10
5.0
 20
5.0
  9
$ORTHOMODE
 70
     0
  9
$REGENMODE
 70
     1
  9
$FILLMODE
 70
     1
  9
$QTEXTMODE
 70
     0
  9
$MIRRTEXT
 70
     1
  9
$LTSCALE
 40
1.0
  9
$ATTMODE
 70
     1
  9
$TEXTSIZE
 40
0.2
  9
$TRACEWID
 40
0.05
  9
$TEXTSTYLE
  7
Standard
  9
$CLAYER
  8
0
  9
$CELTYPE
  6
ByLayer
  9
$CECOLOR
 62
   256
  9
$CELTSCALE
 40
1.0
  9
$DISPSILH
 70
     0
  9
$DIMSCALE
 40
1.0
  9
$DIMASZ
 40
0.18
  9
$DIMEXO
 40
0.0625
  9
$DIMDLI
 40
0.38
  9
$DIMRND
 40
0.0
  9
$DIMDLE
 40
0.0
  9
$DIMEXE
 40
0.18
  9
$DIMTP
 40
0.0
  9
$DIMTM
 40
0.0
  9
$DIMTXT
 40
0.18
  9
$DIMCEN
 40
0.09
  9
$DIMTSZ
 40
0.0
  9
$DIMTOL
 70
     0
  9
$DIMLIM
 70
     0
  9
$DIMTIH
 70
     1
  9
$DIMTOH
 70
     1
  9
$DIMSE1
 70
     0
  9
$DIMSE2
 70
     0
  9
$DIMTAD
 70
     0
  9
$DIMZIN
 70
     0
  9
$DIMBLK
  1

  9
$DIMASO
 70
     1
  9
$DIMSHO
 70
     1
  9
$DIMPOST
  1

  9
$DIMAPOST
  1

  9
$DIMALT
 70
     0
  9
$DIMALTD
 70
     2
  9
$DIMALTF
 40
25.4
  9
$DIMLFAC
 40
1.0
  9
$DIMTOFL
 70
     0
  9
$DIMTVP
 40
0.0
  9
$DIMTIX
 70
     0
  9
$DIMSOXD
 70
     0
  9
$DIMSAH
 70
     0
  9
$DIMBLK1
  1

  9
$DIMBLK2
  1

  9
$DIMSTYLE
  2
Standard
  9
$DIMCLRD
 70
     0
  9
$DIMCLRE
 70
     0
  9
$DIMCLRT
 70
     0
  9
$DIMTFAC
 40
1.0
  9
$DIMGAP
 40
0.09
  9
$DIMJUST
 70
     0
  9
$DIMSD1
 70
     0
  9
$DIMSD2
 70
     0
  9
$DIMTOLJ
 70
     1
  9
$DIMTZIN
 70
     0
  9
$DIMALTZ
 70
     0
  9
$DIMALTTZ
 70
     0
  9
$DIMUPT
 70
     0
  9
$DIMDEC
 70
     4
  9
$DIMTDEC
 70
     4
  9
$DIMALTU
 70
     2
  9
$DIMALTTD
 70
     2
  9
$DIMTXSTY
  7
Standard
  9
$DIMAUNIT
 70
     0
  9
$DIMADEC
 70
     0
  9
$DIMALTRND
 40
0.0
  9
$DIMAZIN
 70
     0
  9
$DIMDSEP
 70
    46
  9
$DIMATFIT
 70
     3
  9
$DIMFRAC
 70
     0
  9
$DIMLDRBLK
  1

  9
$DIMLUNIT
 70
     2
  9
$DIMLWD
 70
    -2
  9
$DIMLWE
 70
    -2
  9
$DIMTMOVE
 70
     0
  9
$LUNITS
 70
     2
  9
$LUPREC
 70
     4
  9
$SKETCHINC
 40
0.1
  9
$FILLETRAD
 40
0.5
  9
$AUNITS
 70
     0
  9
$AUPREC
 70
     0
  9
$MENU
  1
.
  9
$ELEVATION
 40
0.0
  9
$PELEVATION
 40
0.0
  9
$THICKNESS
 40
0.0
  9
$LIMCHECK
 70
     0
  9
$CHAMFERA
 40
0.0
  9
$CHAMFERB
 40
0.0
  9
$CHAMFERC
 40
0.0
  9
$CHAMFERD
 40
0.0
  9
$SKPOLY
 70
     0
  9
$TDCREATE
 40
2459089.304988427
  9
$TDUCREATE
 40
2459089.221655451
  9
$TDUPDATE
 40
2459089.306041667
  9
$TDUUPDATE
 40
2459089.222708333
  9
$TDINDWG
 40
0.0002314931
  9
$TDUSRTIMER
 40
0.0002314931
  9
$USRTIMER
 70
     1
  9
$ANGBASE
 50
0.0
  9
$ANGDIR
 70
     0
  9
$PDMODE
 70
     0
  9
$PDSIZE
 40
0.0
  9
$PLINEWID
 40
0.0
  9
$SPLFRAME
 70
     0
  9
$SPLINETYPE
 70
     6
  9
$SPLINESEGS
 70
     8
  9
$HANDSEED
  5
3AB
  9
$SURFTAB1
 70
     6
  9
$SURFTAB2
 70
     6
  9
$SURFTYPE
 70
     6
  9
$SURFU
 70
     6
  9
$SURFV
 70
     6
  9
$UCSBASE
  2

  9
$UCSNAME
  2

  9
$UCSORG
 10
274.404842
 20
288.907994
 30
0.0
  9
$UCSXDIR
 10
1.0
 20
0.0
 30
0.0
  9
$UCSYDIR
 10
0.0
 20
1.0
 30
0.0
  9
$UCSORTHOREF
  2

  9
$UCSORTHOVIEW
 70
     0
  9
$UCSORGTOP
 10
0.0
 20
0.0
 30
0.0
  9
$UCSORGBOTTOM
 10
0.0
 20
0.0
 30
0.0
  9
$UCSORGLEFT
 10
0.0
 20
0.0
 30
0.0
  9
$UCSORGRIGHT
 10
0.0
 20
0.0
 30
0.0
  9
$UCSORGFRONT
 10
0.0
 20
0.0
 30
0.0
  9
$UCSORGBACK
 10
0.0
 20
0.0
 30
0.0
  9
$PUCSBASE
  2

  9
$PUCSNAME
  2

  9
$PUCSORG
 10
0.0
 20
0.0
 30
0.0
  9
$PUCSXDIR
 10
1.0
 20
0.0
 30
0.0
  9
$PUCSYDIR
 10
0.0
 20
1.0
 30
0.0
  9
$PUCSORTHOREF
  2

  9
$PUCSORTHOVIEW
 70
     0
  9
$PUCSORGTOP
 10
0.0
 20
0.0
 30
0.0
  9
$PUCSORGBOTTOM
 10
0.0
 20
0.0
 30
0.0
  9
$PUCSORGLEFT
 10
0.0
 20
0.0
 30
0.0
  9
$PUCSORGRIGHT
 10
0.0
 20
0.0
 30
0.0
  9
$PUCSORGFRONT
 10
0.0
 20
0.0
 30
0.0
  9
$PUCSORGBACK
 10
0.0
 20
0.0
 30
0.0
  9
$USERI1
 70
     0
  9
$USERI2
 70
     0
  9
$USERI3
 70
     0
  9
$USERI4
 70
     0
  9
$USERI5
 70
     0
  9
$USERR1
 40
0.0
  9
$USERR2
 40
0.0
  9
$USERR3
 40
0.0
  9
$USERR4
 40
0.0
  9
$USERR5
 40
0.0
  9
$WORLDVIEW
 70
     1
  9
$SHADEDGE
 70
     3
  9
$SHADEDIF
 70
    70
  9
$TILEMODE
 70
     1
  9
$MAXACTVP
 70
    64
  9
$PINSBASE
 10
0.0
 20
0.0
 30
0.0
  9
$PLIMCHECK
 70
     0
  9
$PEXTMIN
 10
-0.5
 20
-0.5
 30
-0.5
  9
$PEXTMAX
 10
5.0
 20
5.0
 30
5.0
  9
$PLIMMIN
 10
-0.5
 20
-0.5
  9
$PLIMMAX
 10
5.0
 20
5.0
  9
$UNITMODE
 70
     0
  9
$VISRETAIN
 70
     1
  9
$PLINEGEN
 70
     0
  9
$PSLTSCALE
 70
     1
  9
$TREEDEPTH
 70
  3020
  9
$CMLSTYLE
  2
Standard
  9
$CMLJUST
 70
     0
  9
$CMLSCALE
 40
1.0
  9
$PROXYGRAPHICS
 70
     1
  9
$MEASUREMENT
 70
     1
  9
$CELWEIGHT
370
    13
  9
$ENDCAPS
280
     0
  9
$JOINSTYLE
280
     0
  9
$LWDISPLAY
290
     0
  9
$INSUNITS
 70
     4
  9
$HYPERLINKBASE
  1

  9
$STYLESHEET
  1

  9
$XEDIT
290
     1
  9
$CEPSNTYPE
380
     0
  9
$PSTYLEMODE
290
     1
  9
$FINGERPRINTGUID
  2
{4907B92B-A67F-4222-8A4F-49AE38F5A332}
  9
$VERSIONGUID
  2
{3DDCA50B-5D55-8B42-8823-BC9D3E48CD17}
  9
$EXTNAMES
290
     1
  9
$PSVPSCALE
 40
0.0
  9
$OLESTARTUP
290
     0
  9
$SORTENTS
280
   127
  9
$INDEXCTL
280
     0
  9
$HIDETEXT
280
     1
  9
$XCLIPFRAME
290
     0
  9
$HALOGAP
280
     0
  9
$OBSCOLOR
 70
   257
  9
$OBSLTYPE
280
     0
  9
$INTERSECTIONDISPLAY
280
     0
  9
$INTERSECTIONCOLOR
 70
   257
  9
$DIMASSOC
280
     2
  9
$PROJECTNAME
  1

  0
ENDSEC
  0
SECTION
  2
CLASSES
  0
CLASS
  1
ACDBDICTIONARYWDFLT
  2
AcDbDictionaryWithDefault
  3
ObjectDBX Classes
 90
        0
 91
        1
280
     0
281
     0
  0
CLASS
  1
VISUALSTYLE
  2
AcDbVisualStyle
  3
ObjectDBX Classes
 90
     4095
 91
       24
280
     0
281
     0
  0
CLASS
  1
MATERIAL
  2
AcDbMaterial
  3
ObjectDBX Classes
 90
     1153
 91
        3
280
     0
281
     0
  0
CLASS
  1
SCALE
  2
AcDbScale
  3
ObjectDBX Classes
 90
     1153
 91
       33
280
     0
281
     0
  0
CLASS
  1
TABLESTYLE
  2
AcDbTableStyle
  3
ObjectDBX Classes
 90
     4095
 91
        1
280
     0
281
     0
  0
CLASS
  1
MLEADERSTYLE
  2
AcDbMLeaderStyle
  3
ACDB_MLEADERSTYLE_CLASS
 90
     4095
 91
        1
280
     0
281
     0
  0
CLASS
  1
SUN
  2
AcDbSun
  3
SCENEOE
 90
     1153
 91
        0
280
     0
281
     0
  0
CLASS
  1
DIMASSOC
  2
AcDbDimAssoc
  3
"AcDbDimAssoc|Product Desc:     AcDim ARX App For Dimension|Company:          Autodesk, Inc.|WEB Address:      www.autodesk.com"
 90
        0
 91
        7
280
     0
281
     0
  0
CLASS
  1
DICTIONARYVAR
  2
AcDbDictionaryVar
  3
ObjectDBX Classes
 90
        0
 91
        8
280
     0
281
     0
  0
CLASS
  1
CELLSTYLEMAP
  2
AcDbCellStyleMap
  3
ObjectDBX Classes
 90
     1152
 91
        2
280
     0
281
     0
  0
CLASS
  1
ACDBSECTIONVIEWSTYLE
  2
AcDbSectionViewStyle
  3
ObjectDBX Classes
 90
     1025
 91
        1
280
     0
281
     0
  0
CLASS
  1
ACDBDETAILVIEWSTYLE
  2
AcDbDetailViewStyle
  3
ObjectDBX Classes
 90
     1025
 91
        1
280
     0
281
     0
  0
CLASS
  1
SORTENTSTABLE
  2
AcDbSortentsTable
  3
ObjectDBX Classes
 90
        0
 91
        1
280
     0
281
     0
  0
ENDSEC
  0
SECTION
  2
TABLES
  0
TABLE
  2
VPORT
  5
8
330
0
100
AcDbSymbolTable
 70
    16
  0
VPORT
  5
29
330
8
100
AcDbSymbolTableRecord
100
AcDbViewportTableRecord
  2
*Active
 70
     0
 10
0.0
 20
0.0
 11
1.0
 21
1.0
 12
309.3305705853583
 22
289.8900059669239
 13
0.0
 23
0.0
 14
0.5
 24
0.5
 15
0.5
 25
0.5
 16
0.0
 26
0.0
 36
1.0
 17
0.0
 27
0.0
 37
0.0
 40
207.4880351406101
 41
2.292712066905615
 42
50.0
 43
450.743529
 44
-450.743529
 50
0.0
 51
0.0
 71
     0
 72
   100
 73
     1
 74
     3
 75
     0
 76
     0
 77
     0
 78
     0
281
     0
 65
     1
110
274.404842
120
288.907994
130
0.0
111
1.0
121
0.0
131
0.0
112
0.0
122
1.0
132
0.0
 79
     0
146
0.0
1001
ACAD_NAV_VCDISPLAY
1070
     3
  0
VPORT
  5
2AF
330
8
100
AcDbSymbolTableRecord
100
AcDbViewportTableRecord
  2
L1
 70
     0
 10
0.0
 20
0.0
 11
1.0
 21
1.0
 12
311.408218
 22
230.089719
 13
0.0
 23
0.0
 14
0.5
 24
0.5
 15
0.5
 25
0.5
 16
0.0
 26
0.0
 36
1.0
 17
0.0
 27
0.0
 37
0.0
 40
207.433333
 41
0.085602
 42
50.0
 43
450.743529
 44
-450.743529
 50
0.0
 51
0.0
 71
     0
 72
   100
 73
     1
 74
     3
 75
     0
 76
     0
 77
     0
 78
     0
281
     0
 65
     1
110
0.0
120
0.0
130
0.0
111
1.0
121
0.0
131
0.0
112
0.0
122
1.0
132
0.0
 79
     0
146
0.0
  0
VPORT
  5
2B0
330
8
100
AcDbSymbolTableRecord
100
AcDbViewportTableRecord
  2
L2
 70
     0
 10
0.0
 20
0.0
 11
0.5
 21
1.0
 12
0.0
 22
0.0
 13
0.0
 23
0.0
 14
0.5
 24
0.5
 15
0.5
 25
0.5
 16
0.0
 26
-1.0
 36
0.0
 17
0.0
 27
0.0
 37
0.0
 40
1316.18997
 41
0.013491
 42
50.0
 43
678.00864
 44
-678.00864
 50
0.0
 51
0.0
 71
     0
 72
   100
 73
     1
 74
     3
 75
     0
 76
     0
 77
     0
 78
     0
281
     0
 65
     1
110
0.0
120
0.0
130
0.0
111
1.0
121
0.0
131
0.0
112
0.0
122
1.0
132
0.0
 79
     0
146
0.0
  0
VPORT
  5
2B1
330
8
100
AcDbSymbolTableRecord
100
AcDbViewportTableRecord
  2
L2
 70
     0
 10
0.5
 20
0.0
 11
1.0
 21
1.0
 12
0.0
 22
0.0
 13
0.0
 23
0.0
 14
0.5
 24
0.5
 15
0.5
 25
0.5
 16
1.0
 26
0.0
 36
0.0
 17
0.0
 27
0.0
 37
0.0
 40
1316.18997
 41
0.013491
 42
50.0
 43
666.2177989999999
 44
-666.2177989999999
 50
0.0
 51
0.0
 71
     0
 72
   100
 73
     1
 74
     3
 75
     0
 76
     0
 77
     0
 78
     0
281
     0
 65
     1
110
0.0
120
0.0
130
0.0
111
1.0
121
0.0
131
0.0
112
0.0
122
1.0
132
0.0
 79
     0
146
0.0
  0
VPORT
  5
2B2
330
8
100
AcDbSymbolTableRecord
100
AcDbViewportTableRecord
  2
L3
 70
     0
 10
0.0
 20
0.5
 11
1.0
 21
1.0
 12
311.408218
 22
230.089719
 13
0.0
 23
0.0
 14
0.5
 24
0.5
 15
0.5
 25
0.5
 16
0.0
 26
0.0
 36
1.0
 17
0.0
 27
0.0
 37
0.0
 40
207.433333
 41
0.085602
 42
50.0
 43
450.743529
 44
-450.743529
 50
0.0
 51
0.0
 71
     0
 72
   100
 73
     1
 74
     3
 75
     0
 76
     0
 77
     0
 78
     0
281
     0
 65
     1
110
0.0
120
0.0
130
0.0
111
1.0
121
0.0
131
0.0
112
0.0
122
1.0
132
0.0
 79
     0
146
0.0
  0
VPORT
  5
2B3
330
8
100
AcDbSymbolTableRecord
100
AcDbViewportTableRecord
  2
L3
 70
     0
 10
0.0
 20
0.0
 11
1.0
 21
0.5
 12
0.0
 22
0.0
 13
0.0
 23
0.0
 14
0.5
 24
0.5
 15
0.5
 25
0.5
 16
0.0
 26
-1.0
 36
0.0
 17
0.0
 27
0.0
 37
0.0
 40
1316.18997
 41
0.013491
 42
50.0
 43
678.00864
 44
-678.00864
 50
0.0
 51
0.0
 71
     0
 72
   100
 73
     1
 74
     3
 75
     0
 76
     0
 77
     0
 78
     0
281
     0
 65
     1
110
0.0
120
0.0
130
0.0
111
1.0
121
0.0
131
0.0
112
0.0
122
1.0
132
0.0
 79
     0
146
0.0
  0
VPORT
  5
2B4
330
8
100
AcDbSymbolTableRecord
100
AcDbViewportTableRecord
  2
L4
 70
     0
 10
0.0
 20
0.5
 11
0.5
 21
1.0
 12
311.408218
 22
230.089719
 13
0.0
 23
0.0
 14
0.5
 24
0.5
 15
0.5
 25
0.5
 16
0.0
 26
0.0
 36
1.0
 17
0.0
 27
0.0
 37
0.0
 40
207.433333
 41
0.085602
 42
50.0
 43
450.743529
 44
-450.743529
 50
0.0
 51
0.0
 71
     0
 72
   100
 73
     1
 74
     3
 75
     0
 76
     0
 77
     0
 78
     0
281
     0
 65
     1
110
0.0
120
0.0
130
0.0
111
1.0
121
0.0
131
0.0
112
0.0
122
1.0
132
0.0
 79
     0
146
0.0
  0
VPORT
  5
2B5
330
8
100
AcDbSymbolTableRecord
100
AcDbViewportTableRecord
  2
L4
 70
     0
 10
0.0
 20
0.0
 11
0.5
 21
0.5
 12
0.0
 22
0.0
 13
0.0
 23
0.0
 14
0.5
 24
0.5
 15
0.5
 25
0.5
 16
0.0
 26
-1.0
 36
0.0
 17
0.0
 27
0.0
 37
0.0
 40
1316.18997
 41
0.013491
 42
50.0
 43
678.00864
 44
-678.00864
 50
0.0
 51
0.0
 71
     0
 72
   100
 73
     1
 74
     3
 75
     0
 76
     0
 77
     0
 78
     0
281
     0
 65
     1
110
0.0
120
0.0
130
0.0
111
1.0
121
0.0
131
0.0
112
0.0
122
1.0
132
0.0
 79
     0
146
0.0
  0
VPORT
  5
2B6
330
8
100
AcDbSymbolTableRecord
100
AcDbViewportTableRecord
  2
L4
 70
     0
 10
0.5
 20
0.0
 11
1.0
 21
0.5
 12
0.0
 22
0.0
 13
0.0
 23
0.0
 14
0.5
 24
0.5
 15
0.5
 25
0.5
 16
1.0
 26
0.0
 36
0.0
 17
0.0
 27
0.0
 37
0.0
 40
1316.18997
 41
0.013491
 42
50.0
 43
666.2177989999999
 44
-666.2177989999999
 50
0.0
 51
0.0
 71
     0
 72
   100
 73
     1
 74
     3
 75
     0
 76
     0
 77
     0
 78
     0
281
     0
 65
     1
110
0.0
120
0.0
130
0.0
111
1.0
121
0.0
131
0.0
112
0.0
122
1.0
132
0.0
 79
     0
146
0.0
  0
VPORT
  5
2B7
330
8
100
AcDbSymbolTableRecord
100
AcDbViewportTableRecord
  2
L4
 70
     0
 10
0.5
 20
0.5
 11
1.0
 21
1.0
 12
0.0
 22
0.0
 13
0.0
 23
0.0
 14
0.5
 24
0.5
 15
0.5
 25
0.5
 16
0.5773502691896259
 26
-0.5773502691896259
 36
0.5773502691896259
 17
0.0
 27
0.0
 37
0.0
 40
1292.532264
 41
0.013738
 42
50.0
 43
673.245608
 44
-673.245608
 50
0.0
 51
0.0
 71
     0
 72
   100
 73
     1
 74
     3
 75
     0
 76
     0
 77
     0
 78
     0
281
     0
 65
     1
110
0.0
120
0.0
130
0.0
111
1.0
121
0.0
131
0.0
112
0.0
122
1.0
132
0.0
 79
     0
146
0.0
  0
VPORT
  5
2B8
330
8
100
AcDbSymbolTableRecord
100
AcDbViewportTableRecord
  2
L6
 70
     0
 10
0.0
 20
0.5
 11
0.333333
 21
1.0
 12
0.0
 22
0.0
 13
0.0
 23
0.0
 14
0.5
 24
0.5
 15
0.5
 25
0.5
 16
0.7188730927569434
 26
-0.5850486126764433
 36
0.3754192287502549
 17
0.0
 27
0.0
 37
0.0
 40
1364.064247
 41
0.013018
 42
50.0
 43
706.2613849999999
 44
-706.2613849999999
 50
0.0
 51
0.0
 71
     0
 72
   100
 73
     1
 74
     3
 75
     0
 76
     0
 77
     0
 78
     0
281
     0
 65
     1
110
0.0
120
0.0
130
0.0
111
1.0
121
0.0
131
0.0
112
0.0
122
1.0
132
0.0
 79
     0
146
0.0
  0
VPORT
  5
2B9
330
8
100
AcDbSymbolTableRecord
100
AcDbViewportTableRecord
  2
L6
 70
     0
 10
0.0
 20
0.0
 11
0.333333
 21
0.5
 12
0.0
 22
0.0
 13
0.0
 23
0.0
 14
0.5
 24
0.5
 15
0.5
 25
0.5
 16
-1.0
 26
0.0
 36
0.0
 17
0.0
 27
0.0
 37
0.0
 40
1316.18997
 41
0.013491
 42
50.0
 43
666.2177989999999
 44
-666.2177989999999
 50
0.0
 51
0.0
 71
     0
 72
   100
 73
     1
 74
     3
 75
     0
 76
     0
 77
     0
 78
     0
281
     0
 65
     1
110
0.0
120
0.0
130
0.0
111
1.0
121
0.0
131
0.0
112
0.0
122
1.0
132
0.0
 79
     0
146
0.0
  0
VPORT
  5
2BA
330
8
100
AcDbSymbolTableRecord
100
AcDbViewportTableRecord
  2
L6
 70
     0
 10
0.333333
 20
0.5
 11
0.666667
 21
1.0
 12
311.408218
 22
230.089719
 13
0.0
 23
0.0
 14
0.5
 24
0.5
 15
0.5
 25
0.5
 16
0.0
 26
0.0
 36
1.0
 17
0.0
 27
0.0
 37
0.0
 40
207.433333
 41
0.085602
 42
50.0
 43
450.743529
 44
-450.743529
 50
0.0
 51
0.0
 71
     0
 72
   100
 73
     1
 74
     3
 75
     0
 76
     0
 77
     0
 78
     0
281
     0
 65
     1
110
0.0
120
0.0
130
0.0
111
1.0
121
0.0
131
0.0
112
0.0
122
1.0
132
0.0
 79
     0
146
0.0
  0
VPORT
  5
2BB
330
8
100
AcDbSymbolTableRecord
100
AcDbViewportTableRecord
  2
L6
 70
     0
 10
0.333333
 20
0.0
 11
0.666667
 21
0.5
 12
0.0
 22
0.0
 13
0.0
 23
0.0
 14
0.5
 24
0.5
 15
0.5
 25
0.5
 16
0.0
 26
-1.0
 36
0.0
 17
0.0
 27
0.0
 37
0.0
 40
1316.18997
 41
0.013491
 42
50.0
 43
678.00864
 44
-678.00864
 50
0.0
 51
0.0
 71
     0
 72
   100
 73
     1
 74
     3
 75
     0
 76
     0
 77
     0
 78
     0
281
     0
 65
     1
110
0.0
120
0.0
130
0.0
111
1.0
121
0.0
131
0.0
112
0.0
122
1.0
132
0.0
 79
     0
146
0.0
  0
VPORT
  5
2BC
330
8
100
AcDbSymbolTableRecord
100
AcDbViewportTableRecord
  2
L6
 70
     0
 10
0.666667
 20
0.5
 11
1.0
 21
1.0
 12
0.0
 22
0.0
 13
0.0
 23
0.0
 14
0.5
 24
0.5
 15
0.5
 25
0.5
 16
0.5773502691896259
 26
-0.5773502691896259
 36
0.5773502691896259
 17
0.0
 27
0.0
 37
0.0
 40
1292.532264
 41
0.013738
 42
50.0
 43
673.245608
 44
-673.245608
 50
0.0
 51
0.0
 71
     0
 72
   100
 73
     1
 74
     3
 75
     0
 76
     0
 77
     0
 78
     0
281
     0
 65
     1
110
0.0
120
0.0
130
0.0
111
1.0
121
0.0
131
0.0
112
0.0
122
1.0
132
0.0
 79
     0
146
0.0
  0
VPORT
  5
2BD
330
8
100
AcDbSymbolTableRecord
100
AcDbViewportTableRecord
  2
L6
 70
     0
 10
0.666667
 20
0.0
 11
1.0
 21
0.5
 12
0.0
 22
0.0
 13
0.0
 23
0.0
 14
0.5
 24
0.5
 15
0.5
 25
0.5
 16
1.0
 26
0.0
 36
0.0
 17
0.0
 27
0.0
 37
0.0
 40
1316.18997
 41
0.013491
 42
50.0
 43
666.2177989999999
 44
-666.2177989999999
 50
0.0
 51
0.0
 71
     0
 72
   100
 73
     1
 74
     3
 75
     0
 76
     0
 77
     0
 78
     0
281
     0
 65
     1
110
0.0
120
0.0
130
0.0
111
1.0
121
0.0
131
0.0
112
0.0
122
1.0
132
0.0
 79
     0
146
0.0
  0
ENDTAB
  0
TABLE
  2
LTYPE
  5
5
330
0
100
AcDbSymbolTable
 70
     7
  0
LTYPE
  5
14
330
5
100
AcDbSymbolTableRecord
100
AcDbLinetypeTableRecord
  2
ByBlock
 70
     0
  3

 72
    65
 73
     0
 40
0.0
  0
LTYPE
  5
15
330
5
100
AcDbSymbolTableRecord
100
AcDbLinetypeTableRecord
  2
ByLayer
 70
     0
  3

 72
    65
 73
     0
 40
0.0
  0
LTYPE
  5
16
330
5
100
AcDbSymbolTableRecord
100
AcDbLinetypeTableRecord
  2
Continuous
 70
     0
  3
Solid line
 72
    65
 73
     0
 40
0.0
  0
LTYPE
  5
6E
330
5
100
AcDbSymbolTableRecord
100
AcDbLinetypeTableRecord
  2
CENTER
 70
     0
  3
____ _ ____ _ ____ _ ____
 72
    65
 73
     4
 40
47.4
 49
22.0
 74
     4
 75
     0
340
0
 46
0.0
 50
0.0
 44
0.0
 45
0.0
 49
-8.5
 74
     4
 75
     0
340
0
 46
0.0
 50
0.0
 44
0.0
 45
0.0
 49
8.5
 74
     4
 75
     0
340
0
 46
0.0
 50
0.0
 44
0.0
 45
0.0
 49
-8.5
 74
     4
 75
     0
340
0
 46
0.0
 50
0.0
 44
0.0
 45
0.0
  0
LTYPE
  5
6F
330
5
100
AcDbSymbolTableRecord
100
AcDbLinetypeTableRecord
  2
DASHDOT
 70
     0
  3
_._._._._._._._._._._._._._._._.
 72
    65
 73
     4
 40
70.0
 49
31.0
 74
     4
 75
     0
340
0
 46
0.0
 50
0.0
 44
0.0
 45
0.0
 49
-13.0
 74
     4
 75
     0
340
0
 46
0.0
 50
0.0
 44
0.0
 45
0.0
 49
13.0
 74
     4
 75
     0
340
0
 46
0.0
 50
0.0
 44
0.0
 45
0.0
 49
-13.0
 74
     4
 75
     0
340
0
 46
0.0
 50
0.0
 44
0.0
 45
0.0
  0
LTYPE
  5
70
330
5
100
AcDbSymbolTableRecord
100
AcDbLinetypeTableRecord
  2
DASHED
 70
     0
  3
__ __ __ __ __ __ __ __ __
 72
    65
 73
     2
 40
25.72
 49
12.86
 74
     4
 75
     0
340
0
 46
0.0
 50
0.0
 44
0.0
 45
0.0
 49
-12.86
 74
     4
 75
     0
340
0
 46
0.0
 50
0.0
 44
0.0
 45
0.0
  0
LTYPE
  5
71
330
5
100
AcDbSymbolTableRecord
100
AcDbLinetypeTableRecord
  2
DOT
 70
     0
  3
.........................
 72
    65
 73
     2
 40
10.0
 49
0.0
 74
     4
 75
     0
340
0
 46
0.0
 50
0.0
 44
0.0
 45
0.0
 49
-10.0
 74
     4
 75
     0
340
0
 46
0.0
 50
0.0
 44
0.0
 45
0.0
  0
LTYPE
  5
72
330
5
100
AcDbSymbolTableRecord
100
AcDbLinetypeTableRecord
  2
PHANTOM
 70
     0
  3
____ _ _ ____ _ _ _____ _ _ ____
 72
    65
 73
     6
 40
50.5
 49
18.0
 74
     4
 75
     0
340
0
 46
0.0
 50
0.0
 44
0.0
 45
0.0
 49
-6.5
 74
     4
 75
     0
340
0
 46
0.0
 50
0.0
 44
0.0
 45
0.0
 49
6.5
 74
     4
 75
     0
340
0
 46
0.0
 50
0.0
 44
0.0
 45
0.0
 49
-6.5
 74
     4
 75
     0
340
0
 46
0.0
 50
0.0
 44
0.0
 45
0.0
 49
6.5
 74
     4
 75
     0
340
0
 46
0.0
 50
0.0
 44
0.0
 45
0.0
 49
-6.5
 74
     4
 75
     0
340
0
 46
0.0
 50
0.0
 44
0.0
 45
0.0
  0
LTYPE
  5
34D
330
5
100
AcDbSymbolTableRecord
100
AcDbLinetypeTableRecord
  2
CENTER2
 70
     0
  3
Center (.5x) ___ _ ___ _ ___ _ ___ _ ___ _ ___
 72
    65
 73
     4
 40
1.125
 49
0.75
 74
     0
 49
-0.125
 74
     0
 49
0.125
 74
     0
 49
-0.125
 74
     0
  0
ENDTAB
  0
TABLE
  2
LAYER
  5
2
330
0
100
AcDbSymbolTable
 70
    22
  0
LAYER
  5
10
102
{ACAD_XDICTIONARY
360
358
102
}
330
2
100
AcDbSymbolTableRecord
100
AcDbLayerTableRecord
  2
0
 70
     0
 62
     7
  6
Continuous
370
    -3
390
F
  0
LAYER
  5
209
330
2
100
AcDbSymbolTableRecord
100
AcDbLayerTableRecord
  2
Defpoints
 70
     0
 62
     7
  6
Continuous
290
     0
370
    -3
390
F
  0
LAYER
  5
34A
102
{ACAD_XDICTIONARY
360
35A
102
}
330
2
100
AcDbSymbolTableRecord
100
AcDbLayerTableRecord
  2
1
 70
     0
 62
     4
  6
Continuous
370
    -3
390
F
  0
LAYER
  5
34B
102
{ACAD_XDICTIONARY
360
35C
102
}
330
2
100
AcDbSymbolTableRecord
100
AcDbLayerTableRecord
  2
2
 70
     0
 62
     7
  6
Continuous
370
    -3
390
F
  0
LAYER
  5
34C
102
{ACAD_XDICTIONARY
360
35E
102
}
330
2
100
AcDbSymbolTableRecord
100
AcDbLayerTableRecord
  2
4
 70
     0
 62
     2
  6
CENTER2
370
    -3
390
F
  0
LAYER
  5
34E
102
{ACAD_XDICTIONARY
360
360
102
}
330
2
100
AcDbSymbolTableRecord
100
AcDbLayerTableRecord
  2
SK1
 70
     0
 62
     4
  6
Continuous
370
    -3
390
F
  0
LAYER
  5
34F
102
{ACAD_XDICTIONARY
360
362
102
}
330
2
100
AcDbSymbolTableRecord
100
AcDbLayerTableRecord
  2
SK2
 70
     0
 62
     7
  6
Continuous
370
    -3
390
F
  0
LAYER
  5
351
102
{ACAD_XDICTIONARY
360
364
102
}
330
2
100
AcDbSymbolTableRecord
100
AcDbLayerTableRecord
  2
SK4
 70
     0
 62
     2
  6
CENTER2
370
    -3
390
F
  0
LAYER
  5
352
102
{ACAD_XDICTIONARY
360
366
102
}
330
2
100
AcDbSymbolTableRecord
100
AcDbLayerTableRecord
  2
SK6
 70
     0
 62
     5
  6
Continuous
370
    -3
390
F
  0
LAYER
  5
353
102
{ACAD_XDICTIONARY
360
368
102
}
330
2
100
AcDbSymbolTableRecord
100
AcDbLayerTableRecord
  2
CUT
 70
     0
 62
     1
  6
Continuous
370
    -3
390
F
  0
LAYER
  5
354
102
{ACAD_XDICTIONARY
360
36A
102
}
330
2
100
AcDbSymbolTableRecord
100
AcDbLayerTableRecord
  2
NOCUT
 70
     0
 62
     7
  6
Continuous
370
    -3
390
F
  0
LAYER
  5
355
102
{ACAD_XDICTIONARY
360
36C
102
}
330
2
100
AcDbSymbolTableRecord
100
AcDbLayerTableRecord
  2
80
 70
     0
 62
     6
  6
Continuous
370
    -3
390
F
  0
LAYER
  5
356
102
{ACAD_XDICTIONARY
360
36E
102
}
330
2
100
AcDbSymbolTableRecord
100
AcDbLayerTableRecord
  2
81
 70
     0
 62
     3
  6
Continuous
370
    -3
390
F
  0
ENDTAB
  0
TABLE
  2
STYLE
  5
3
330
0
100
AcDbSymbolTable
 70
     3
  0
STYLE
  5
11
330
3
100
AcDbSymbolTableRecord
100
AcDbTextStyleTableRecord
  2
Standard
 70
     0
 40
0.0
 41
1.0
 50
0.0
 71
     0
 42
0.2
  3
txt
  4

  0
STYLE
  5
202
330
3
100
AcDbSymbolTableRecord
100
AcDbTextStyleTableRecord
  2
cesky
 70
     0
 40
0.0
 41
1.0
 50
0.0
 71
     0
 42
0.2
  3
simplex.shx
  4

  0
STYLE
  5
203
330
3
100
AcDbSymbolTableRecord
100
AcDbTextStyleTableRecord
  2
DWGDirectTextStyle
 70
     0
 40
0.0
 41
1.0
 50
0.0
 71
     0
 42
0.2
  3
simplex
  4

  0
ENDTAB
  0
TABLE
  2
VIEW
  5
6
330
0
100
AcDbSymbolTable
 70
     0
  0
ENDTAB
  0
TABLE
  2
UCS
  5
7
330
0
100
AcDbSymbolTable
 70
     0
  0
ENDTAB
  0
TABLE
  2
APPID
  5
9
330
0
100
AcDbSymbolTable
 70
     7
  0
APPID
  5
12
330
9
100
AcDbSymbolTableRecord
100
AcDbRegAppTableRecord
  2
ACAD
 70
     0
  0
APPID
  5
205
330
9
100
AcDbSymbolTableRecord
100
AcDbRegAppTableRecord
  2
ACAD_DSTYLE_DIMBREAK
 70
     0
  0
APPID
  5
2BE
330
9
100
AcDbSymbolTableRecord
100
AcDbRegAppTableRecord
  2
ACAD_DSTYLE_DIM_LINETYPE
 70
     0
  0
APPID
  5
2BF
330
9
100
AcDbSymbolTableRecord
100
AcDbRegAppTableRecord
  2
ACAD_DSTYLE_DIM_EXT1_LINETYPE
 70
     0
  0
APPID
  5
2C0
330
9
100
AcDbSymbolTableRecord
100
AcDbRegAppTableRecord
  2
ACAD_DSTYLE_DIM_EXT2_LINETYPE
 70
     0
  0
APPID
  5
300
330
9
100
AcDbSymbolTableRecord
100
AcDbRegAppTableRecord
  2
ACAD_MLEADERVER
 70
     0
  0
APPID
  5
373
330
9
100
AcDbSymbolTableRecord
100
AcDbRegAppTableRecord
  2
ACAD_NAV_VCDISPLAY
 70
     0
  0
ENDTAB
  0
TABLE
  2
DIMSTYLE
  5
A
330
0
100
AcDbSymbolTable
 70
     1
100
AcDbDimStyleTable
 71
     0
  0
DIMSTYLE
105
27
330
A
100
AcDbSymbolTableRecord
100
AcDbDimStyleTableRecord
  2
Standard
 70
     0
340
11
1001
ACAD_DSTYLE_DIMBREAK
1070
   391
1040
6.349999999999999
  0
ENDTAB
  0
TABLE
  2
BLOCK_RECORD
  5
1
330
0
100
AcDbSymbolTable
 70
    16
  0
BLOCK_RECORD
  5
1F
102
{ACAD_XDICTIONARY
360
310
102
}
330
1
100
AcDbSymbolTableRecord
100
AcDbBlockTableRecord
  2
*Model_Space
340
22
  0
BLOCK_RECORD
  5
1B
330
1
100
AcDbSymbolTableRecord
100
AcDbBlockTableRecord
  2
*Paper_Space
340
1E
  0
BLOCK_RECORD
  5
23
330
1
100
AcDbSymbolTableRecord
100
AcDbBlockTableRecord
  2
*Paper_Space0
340
26
  0
BLOCK_RECORD
  5
1FC
330
1
100
AcDbSymbolTableRecord
100
AcDbBlockTableRecord
  2
ASSORTED_DRAFT1
340
0
  0
BLOCK_RECORD
  5
20A
330
1
100
AcDbSymbolTableRecord
100
AcDbBlockTableRecord
  2
*D2
340
0
  0
BLOCK_RECORD
  5
216
330
1
100
AcDbSymbolTableRecord
100
AcDbBlockTableRecord
  2
_U0
340
0
  0
BLOCK_RECORD
  5
222
330
1
100
AcDbSymbolTableRecord
100
AcDbBlockTableRecord
  2
*D4
340
0
  0
BLOCK_RECORD
  5
22E
330
1
100
AcDbSymbolTableRecord
100
AcDbBlockTableRecord
  2
_U1
340
0
  0
BLOCK_RECORD
  5
23A
330
1
100
AcDbSymbolTableRecord
100
AcDbBlockTableRecord
  2
*D6
340
0
  0
BLOCK_RECORD
  5
246
330
1
100
AcDbSymbolTableRecord
100
AcDbBlockTableRecord
  2
_U2
340
0
  0
BLOCK_RECORD
  5
252
330
1
100
AcDbSymbolTableRecord
100
AcDbBlockTableRecord
  2
*D8
340
0
  0
BLOCK_RECORD
  5
25E
330
1
100
AcDbSymbolTableRecord
100
AcDbBlockTableRecord
  2
_U3
340
0
  0
BLOCK_RECORD
  5
26A
330
1
100
AcDbSymbolTableRecord
100
AcDbBlockTableRecord
  2
*D10
340
0
  0
BLOCK_RECORD
  5
276
330
1
100
AcDbSymbolTableRecord
100
AcDbBlockTableRecord
  2
_U4
340
0
  0
BLOCK_RECORD
  5
283
330
1
100
AcDbSymbolTableRecord
100
AcDbBlockTableRecord
  2
*D12
340
0
  0
BLOCK_RECORD
  5
28E
330
1
100
AcDbSymbolTableRecord
100
AcDbBlockTableRecord
  2
_U5
340
0
  0
BLOCK_RECORD
  5
299
330
1
100
AcDbSymbolTableRecord
100
AcDbBlockTableRecord
  2
*D14
340
0
  0
BLOCK_RECORD
  5
2A5
330
1
100
AcDbSymbolTableRecord
100
AcDbBlockTableRecord
  2
_U6
340
0
  0
ENDTAB
  0
ENDSEC
  0
SECTION
  2
BLOCKS
  0
BLOCK
  5
20
330
1F
100
AcDbEntity
  8
0
100
AcDbBlockBegin
  2
*Model_Space
 70
     0
 10
0.0
 20
0.0
 30
0.0
  3
*Model_Space
  1

  0
ENDBLK
  5
21
330
1F
100
AcDbEntity
  8
0
100
AcDbBlockEnd
  0
BLOCK
  5
1C
330
1B
100
AcDbEntity
 67
     1
  8
0
100
AcDbBlockBegin
  2
*Paper_Space
 70
     0
 10
0.0
 20
0.0
 30
0.0
  3
*Paper_Space
  1

  0
ENDBLK
  5
1D
330
1B
100
AcDbEntity
 67
     1
  8
0
100
AcDbBlockEnd
  0
BLOCK
  5
24
330
23
100
AcDbEntity
 67
     1
  8
0
100
AcDbBlockBegin
  2
*Paper_Space0
 70
     0
 10
0.0
 20
0.0
 30
0.0
  3
*Paper_Space0
  1

  0
ENDBLK
  5
25
330
23
100
AcDbEntity
 67
     1
  8
0
100
AcDbBlockEnd
  0
BLOCK
  5
1FF
330
1FC
100
AcDbEntity
  8
0
100
AcDbBlockBegin
  2
ASSORTED_DRAFT1
 70
     0
 10
0.0
 20
0.0
 30
0.0
  3
ASSORTED_DRAFT1
  1

  0
SOLID
  5
1FD
330
1FC
100
AcDbEntity
  8
0
 62
   254
370
    13
100
AcDbTrace
 10
270.185042
 20
164.534924
 30
0.0
 11
265.185046
 21
163.42645
 31
0.0
 12
265.1850379999999
 22
165.643397
 32
0.0
 13
270.185042
 23
164.534924
 33
0.0
  0
ENDBLK
  5
200
330
1FC
100
AcDbEntity
  8
0
100
AcDbBlockEnd
  0
BLOCK
  5
20B
330
20A
100
AcDbEntity
  8
0
100
AcDbBlockBegin
  2
*D2
 70
     1
 10
0.0
 20
0.0
 30
0.0
  3
*D2
  1

  0
LINE
  5
20D
330
20A
100
AcDbEntity
  8
0
 62
   254
370
    -2
100
AcDbLine
 10
419.4048419999999
 20
303.907994
 30
0.0
 11
419.4048419999999
 21
323.882273
 31
0.0
  0
LINE
  5
20E
330
20A
100
AcDbEntity
  8
0
 62
   254
370
    -2
100
AcDbLine
 10
274.404842
 20
288.907994
 30
0.0
 11
274.404842
 21
323.882273
 31
0.0
  0
LINE
  5
20F
330
20A
100
AcDbEntity
  8
0
 62
   254
370
    -2
100
AcDbLine
 10
415.9048419999999
 20
322.882273
 30
0.0
 11
277.904842
 21
322.882273
 31
0.0
  0
SOLID
  5
210
330
20A
100
AcDbEntity
  8
0
 62
   254
100
AcDbTrace
 10
415.9048419999999
 20
322.29894
 30
0.0
 11
415.9048419999999
 21
323.465606
 31
0.0
 12
419.4048419999999
 22
322.882273
 32
0.0
 13
419.4048419999999
 23
322.882273
 33
0.0
  0
SOLID
  5
211
330
20A
100
AcDbEntity
  8
0
 62
   254
100
AcDbTrace
 10
277.904842
 20
323.465606
 30
0.0
 11
277.904842
 21
322.29894
 31
0.0
 12
274.404842
 22
322.882273
 32
0.0
 13
274.404842
 23
322.882273
 33
0.0
  0
MTEXT
  5
212
330
20A
100
AcDbEntity
  8
0
 62
   254
370
    13
100
AcDbMText
 10
346.904842
 20
328.132273
 30
0.0
 40
3.5
 41
0.0
 71
     5
 72
     1
  1
\A1;145
  7
cesky
 73
     1
 44
1.0
  0
POINT
  5
213
330
20A
100
AcDbEntity
  8
Defpoints
 62
     0
100
AcDbPoint
 10
419.4048419999999
 20
303.907994
 30
0.0
  0
POINT
  5
214
330
20A
100
AcDbEntity
  8
Defpoints
 62
     0
100
AcDbPoint
 10
274.404842
 20
288.907994
 30
0.0
  0
POINT
  5
215
330
20A
100
AcDbEntity
  8
Defpoints
 62
     0
100
AcDbPoint
 10
274.404842
 20
322.882273
 30
0.0
  0
ENDBLK
  5
20C
330
20A
100
AcDbEntity
  8
0
100
AcDbBlockEnd
  0
BLOCK
  5
21D
330
216
100
AcDbEntity
  8
0
100
AcDbBlockBegin
  2
_U0
 70
     0
 10
0.0
 20
0.0
 30
0.0
  3
_U0
  1

  0
ENDBLK
  5
21E
330
216
100
AcDbEntity
  8
0
100
AcDbBlockEnd
  0
BLOCK
  5
223
330
222
100
AcDbEntity
  8
0
100
AcDbBlockBegin
  2
*D4
 70
     1
 10
0.0
 20
0.0
 30
0.0
  3
*D4
  1

  0
LINE
  5
225
330
222
100
AcDbEntity
  8
0
 62
   254
370
    -2
100
AcDbLine
 10
274.404842
 20
288.907994
 30
0.0
 11
274.404842
 21
323.882273
 31
0.0
  0
LINE
  5
226
330
222
100
AcDbEntity
  8
0
 62
   254
370
    -2
100
AcDbLine
 10
214.404842
 20
295.907994
 30
0.0
 11
214.404842
 21
323.882273
 31
0.0
  0
LINE
  5
227
330
222
100
AcDbEntity
  8
0
 62
   254
370
    -2
100
AcDbLine
 10
270.904842
 20
322.882273
 30
0.0
 11
217.904842
 21
322.882273
 31
0.0
  0
SOLID
  5
228
330
222
100
AcDbEntity
  8
0
 62
   254
100
AcDbTrace
 10
270.904842
 20
322.29894
 30
0.0
 11
270.904842
 21
323.465606
 31
0.0
 12
274.404842
 22
322.882273
 32
0.0
 13
274.404842
 23
322.882273
 33
0.0
  0
SOLID
  5
229
330
222
100
AcDbEntity
  8
0
 62
   254
100
AcDbTrace
 10
217.904842
 20
323.465606
 30
0.0
 11
217.904842
 21
322.29894
 31
0.0
 12
214.404842
 22
322.882273
 32
0.0
 13
214.404842
 23
322.882273
 33
0.0
  0
MTEXT
  5
22A
330
222
100
AcDbEntity
  8
0
 62
   254
370
    13
100
AcDbMText
 10
244.404842
 20
328.132273
 30
0.0
 40
3.5
 41
0.0
 71
     5
 72
     1
  1
\A1;60
  7
cesky
 73
     1
 44
1.0
  0
POINT
  5
22B
330
222
100
AcDbEntity
  8
Defpoints
 62
     0
100
AcDbPoint
 10
274.404842
 20
288.907994
 30
0.0
  0
POINT
  5
22C
330
222
100
AcDbEntity
  8
Defpoints
 62
     0
100
AcDbPoint
 10
214.404842
 20
295.907994
 30
0.0
  0
POINT
  5
22D
330
222
100
AcDbEntity
  8
Defpoints
 62
     0
100
AcDbPoint
 10
214.404842
 20
322.882273
 30
0.0
  0
ENDBLK
  5
224
330
222
100
AcDbEntity
  8
0
100
AcDbBlockEnd
  0
BLOCK
  5
235
330
22E
100
AcDbEntity
  8
0
100
AcDbBlockBegin
  2
_U1
 70
     0
 10
0.0
 20
0.0
 30
0.0
  3
_U1
  1

  0
ENDBLK
  5
236
330
22E
100
AcDbEntity
  8
0
100
AcDbBlockEnd
  0
BLOCK
  5
23B
330
23A
100
AcDbEntity
  8
0
100
AcDbBlockBegin
  2
*D6
 70
     1
 10
0.0
 20
0.0
 30
0.0
  3
*D6
  1

  0
LINE
  5
23D
330
23A
100
AcDbEntity
  8
0
 62
   254
370
    -2
100
AcDbLine
 10
419.4048419999999
 20
303.907994
 30
0.0
 11
419.4048419999999
 21
312.553778
 31
0.0
  0
LINE
  5
23E
330
23A
100
AcDbEntity
  8
0
 62
   254
370
    -2
100
AcDbLine
 10
291.945103
 20
303.723931
 30
0.0
 11
291.945103
 21
312.553778
 31
0.0
  0
LINE
  5
23F
330
23A
100
AcDbEntity
  8
0
 62
   254
370
    -2
100
AcDbLine
 10
415.9048419999999
 20
311.553778
 30
0.0
 11
295.4451029999999
 21
311.553778
 31
0.0
  0
SOLID
  5
240
330
23A
100
AcDbEntity
  8
0
 62
   254
100
AcDbTrace
 10
415.9048419999999
 20
310.9704450000001
 30
0.0
 11
415.9048419999999
 21
312.137112
 31
0.0
 12
419.4048419999999
 22
311.553778
 32
0.0
 13
419.4048419999999
 23
311.553778
 33
0.0
  0
SOLID
  5
241
330
23A
100
AcDbEntity
  8
0
 62
   254
100
AcDbTrace
 10
295.4451029999999
 20
312.137112
 30
0.0
 11
295.4451029999999
 21
310.9704450000001
 31
0.0
 12
291.945103
 22
311.553778
 32
0.0
 13
291.945103
 23
311.553778
 33
0.0
  0
MTEXT
  5
242
330
23A
100
AcDbEntity
  8
0
 62
   254
370
    13
100
AcDbMText
 10
355.674972
 20
316.803778
 30
0.0
 40
3.5
 41
0.0
 71
     5
 72
     1
  1
\A1;127.5
  7
cesky
 73
     1
 44
1.0
  0
POINT
  5
243
330
23A
100
AcDbEntity
  8
Defpoints
 62
     0
100
AcDbPoint
 10
419.4048419999999
 20
303.907994
 30
0.0
  0
POINT
  5
244
330
23A
100
AcDbEntity
  8
Defpoints
 62
     0
100
AcDbPoint
 10
291.945103
 20
303.723931
 30
0.0
  0
POINT
  5
245
330
23A
100
AcDbEntity
  8
Defpoints
 62
     0
100
AcDbPoint
 10
291.945103
 20
311.553778
 30
0.0
  0
ENDBLK
  5
23C
330
23A
100
AcDbEntity
  8
0
100
AcDbBlockEnd
  0
BLOCK
  5
24D
330
246
100
AcDbEntity
  8
0
100
AcDbBlockBegin
  2
_U2
 70
     0
 10
0.0
 20
0.0
 30
0.0
  3
_U2
  1

  0
ENDBLK
  5
24E
330
246
100
AcDbEntity
  8
0
100
AcDbBlockEnd
  0
BLOCK
  5
253
330
252
100
AcDbEntity
  8
0
100
AcDbBlockBegin
  2
*D8
 70
     1
 10
0.0
 20
0.0
 30
0.0
  3
*D8
  1

  0
LINE
  5
255
330
252
100
AcDbEntity
  8
0
 62
   254
370
    -2
100
AcDbLine
 10
419.4048419999999
 20
305.907994
 30
0.0
 11
419.4048419999999
 21
338.155501
 31
0.0
  0
LINE
  5
256
330
252
100
AcDbEntity
  8
0
 62
   254
370
    -2
100
AcDbLine
 10
214.404842
 20
302.907994
 30
0.0
 11
214.404842
 21
338.155501
 31
0.0
  0
LINE
  5
257
330
252
100
AcDbEntity
  8
0
 62
   254
370
    -2
100
AcDbLine
 10
415.9048419999999
 20
337.155501
 30
0.0
 11
217.904842
 21
337.155501
 31
0.0
  0
SOLID
  5
258
330
252
100
AcDbEntity
  8
0
 62
   254
100
AcDbTrace
 10
415.9048419999999
 20
336.572167
 30
0.0
 11
415.9048419999999
 21
337.738834
 31
0.0
 12
419.4048419999999
 22
337.155501
 32
0.0
 13
419.4048419999999
 23
337.155501
 33
0.0
  0
SOLID
  5
259
330
252
100
AcDbEntity
  8
0
 62
   254
100
AcDbTrace
 10
217.904842
 20
337.738834
 30
0.0
 11
217.904842
 21
336.572167
 31
0.0
 12
214.404842
 22
337.155501
 32
0.0
 13
214.404842
 23
337.155501
 33
0.0
  0
MTEXT
  5
25A
330
252
100
AcDbEntity
  8
0
 62
   254
370
    13
100
AcDbMText
 10
316.904842
 20
342.405501
 30
0.0
 40
3.5
 41
0.0
 71
     5
 72
     1
  1
\A1;205
  7
cesky
 73
     1
 44
1.0
  0
POINT
  5
25B
330
252
100
AcDbEntity
  8
Defpoints
 62
     0
100
AcDbPoint
 10
419.4048419999999
 20
305.907994
 30
0.0
  0
POINT
  5
25C
330
252
100
AcDbEntity
  8
Defpoints
 62
     0
100
AcDbPoint
 10
214.404842
 20
302.907994
 30
0.0
  0
POINT
  5
25D
330
252
100
AcDbEntity
  8
Defpoints
 62
     0
100
AcDbPoint
 10
214.404842
 20
337.155501
 30
0.0
  0
ENDBLK
  5
254
330
252
100
AcDbEntity
  8
0
100
AcDbBlockEnd
  0
BLOCK
  5
265
330
25E
100
AcDbEntity
  8
0
100
AcDbBlockBegin
  2
_U3
 70
     0
 10
0.0
 20
0.0
 30
0.0
  3
_U3
  1

  0
ENDBLK
  5
266
330
25E
100
AcDbEntity
  8
0
100
AcDbBlockEnd
  0
BLOCK
  5
26B
330
26A
100
AcDbEntity
  8
0
100
AcDbBlockBegin
  2
*D10
 70
     1
 10
0.0
 20
0.0
 30
0.0
  3
*D10
  1

  0
LINE
  5
26D
330
26A
100
AcDbEntity
  8
0
 62
    95
370
    -2
100
AcDbLine
 10
277.154842
 20
309.907994
 30
0.0
 11
191.104285
 21
309.907994
 31
0.0
  0
LINE
  5
26E
330
26A
100
AcDbEntity
  8
0
 62
    95
370
    -2
100
AcDbLine
 10
277.154842
 20
267.907994
 30
0.0
 11
191.104285
 21
267.907994
 31
0.0
  0
LINE
  5
26F
330
26A
100
AcDbEntity
  8
0
 62
    95
370
    -2
100
AcDbLine
 10
192.104285
 20
306.407994
 30
0.0
 11
192.104285
 21
271.407994
 31
0.0
  0
SOLID
  5
270
330
26A
100
AcDbEntity
  8
0
 62
    95
100
AcDbTrace
 10
192.687618
 20
306.407994
 30
0.0
 11
191.520952
 21
306.407994
 31
0.0
 12
192.104285
 22
309.907994
 32
0.0
 13
192.104285
 23
309.907994
 33
0.0
  0
SOLID
  5
271
330
26A
100
AcDbEntity
  8
0
 62
    95
100
AcDbTrace
 10
191.520952
 20
271.407994
 30
0.0
 11
192.687618
 21
271.407994
 31
0.0
 12
192.104285
 22
267.907994
 32
0.0
 13
192.104285
 23
267.907994
 33
0.0
  0
MTEXT
  5
272
330
26A
100
AcDbEntity
  8
0
 62
    95
370
    13
100
AcDbMText
 10
186.854285
 20
288.907994
 30
0.0
 40
3.5
 41
0.0
 71
     5
 72
     1
  1
\A1;42
  7
cesky
 11
0.0
 21
1.0
 31
0.0
 73
     1
 44
1.0
  0
POINT
  5
273
330
26A
100
AcDbEntity
  8
Defpoints
 62
     0
100
AcDbPoint
 10
277.154842
 20
309.907994
 30
0.0
  0
POINT
  5
274
330
26A
100
AcDbEntity
  8
Defpoints
 62
     0
100
AcDbPoint
 10
277.154842
 20
267.907994
 30
0.0
  0
POINT
  5
275
330
26A
100
AcDbEntity
  8
Defpoints
 62
     0
100
AcDbPoint
 10
192.104285
 20
267.907994
 30
0.0
  0
ENDBLK
  5
26C
330
26A
100
AcDbEntity
  8
0
100
AcDbBlockEnd
  0
BLOCK
  5
27E
330
276
100
AcDbEntity
  8
0
100
AcDbBlockBegin
  2
_U4
 70
     0
 10
0.0
 20
0.0
 30
0.0
  3
_U4
  1

  0
ENDBLK
  5
27F
330
276
100
AcDbEntity
  8
0
100
AcDbBlockEnd
  0
BLOCK
  5
284
330
283
100
AcDbEntity
  8
0
100
AcDbBlockBegin
  2
*D12
 70
     1
 10
0.0
 20
0.0
 30
0.0
  3
*D12
  1

  0
LINE
  5
286
330
283
100
AcDbEntity
  8
0
 62
   254
370
    -2
100
AcDbLine
 10
291.7038319999999
 20
288.907994
 30
0.0
 11
436.574637
 21
288.907994
 31
0.0
  0
LINE
  5
287
330
283
100
AcDbEntity
  8
0
 62
   254
370
    -2
100
AcDbLine
 10
330.83929
 20
303.907994
 30
0.0
 11
436.574637
 21
303.907994
 31
0.0
  0
LINE
  5
288
330
283
100
AcDbEntity
  8
0
 62
   254
370
    -2
100
AcDbLine
 10
435.574637
 20
288.907994
 30
0.0
 11
435.574637
 21
303.907994
 31
0.0
  0
SOLID
  5
289
330
283
100
AcDbEntity
  8
0
 62
   254
100
AcDbTrace
 10
436.1579709999999
 20
300.407994
 30
0.0
 11
434.991304
 21
300.407994
 31
0.0
 12
435.574637
 22
303.907994
 32
0.0
 13
435.574637
 23
303.907994
 33
0.0
  0
MTEXT
  5
28A
330
283
100
AcDbEntity
  8
0
 62
   254
370
    13
100
AcDbMText
 10
430.324637
 20
279.07466
 30
0.0
 40
3.5
 41
0.0
 71
     5
 72
     1
  1
\A1;30
  7
cesky
 11
0.0
 21
1.0
 31
0.0
 73
     1
 44
1.0
  0
POINT
  5
28B
330
283
100
AcDbEntity
  8
Defpoints
 62
     0
100
AcDbPoint
 10
291.7038319999999
 20
288.907994
 30
0.0
  0
POINT
  5
28C
330
283
100
AcDbEntity
  8
Defpoints
 62
     0
100
AcDbPoint
 10
330.83929
 20
303.907994
 30
0.0
  0
POINT
  5
28D
330
283
100
AcDbEntity
  8
Defpoints
 62
     0
100
AcDbPoint
 10
435.574637
 20
303.907994
 30
0.0
  0
ENDBLK
  5
285
330
283
100
AcDbEntity
  8
0
100
AcDbBlockEnd
  0
BLOCK
  5
294
330
28E
100
AcDbEntity
  8
0
100
AcDbBlockBegin
  2
_U5
 70
     0
 10
0.0
 20
0.0
 30
0.0
  3
_U5
  1

  0
ENDBLK
  5
295
330
28E
100
AcDbEntity
  8
0
100
AcDbBlockEnd
  0
BLOCK
  5
29A
330
299
100
AcDbEntity
  8
0
100
AcDbBlockBegin
  2
*D14
 70
     1
 10
0.0
 20
0.0
 30
0.0
  3
*D14
  1

  0
LINE
  5
29C
330
299
100
AcDbEntity
  8
0
 62
    95
370
    -2
100
AcDbLine
 10
216.404842
 20
304.907994
 30
0.0
 11
203.66833
 21
304.907994
 31
0.0
  0
LINE
  5
29D
330
299
100
AcDbEntity
  8
0
 62
    95
370
    -2
100
AcDbLine
 10
216.404842
 20
272.907994
 30
0.0
 11
203.66833
 21
272.907994
 31
0.0
  0
LINE
  5
29E
330
299
100
AcDbEntity
  8
0
 62
    95
370
    -2
100
AcDbLine
 10
204.66833
 20
301.407994
 30
0.0
 11
204.66833
 21
276.407994
 31
0.0
  0
SOLID
  5
29F
330
299
100
AcDbEntity
  8
0
 62
    95
100
AcDbTrace
 10
205.251663
 20
301.407994
 30
0.0
 11
204.084996
 21
301.407994
 31
0.0
 12
204.66833
 22
304.907994
 32
0.0
 13
204.66833
 23
304.907994
 33
0.0
  0
SOLID
  5
2A0
330
299
100
AcDbEntity
  8
0
 62
    95
100
AcDbTrace
 10
204.084996
 20
276.407994
 30
0.0
 11
205.251663
 21
276.407994
 31
0.0
 12
204.66833
 22
272.907994
 32
0.0
 13
204.66833
 23
272.907994
 33
0.0
  0
MTEXT
  5
2A1
330
299
100
AcDbEntity
  8
0
 62
    95
370
    13
100
AcDbMText
 10
199.41833
 20
288.907994
 30
0.0
 40
3.5
 41
0.0
 71
     5
 72
     1
  1
\A1;32
  7
cesky
 11
0.0
 21
1.0
 31
0.0
 73
     1
 44
1.0
  0
POINT
  5
2A2
330
299
100
AcDbEntity
  8
Defpoints
 62
     0
100
AcDbPoint
 10
216.404842
 20
304.907994
 30
0.0
  0
POINT
  5
2A3
330
299
100
AcDbEntity
  8
Defpoints
 62
     0
100
AcDbPoint
 10
216.404842
 20
272.907994
 30
0.0
  0
POINT
  5
2A4
330
299
100
AcDbEntity
  8
Defpoints
 62
     0
100
AcDbPoint
 10
204.66833
 20
272.907994
 30
0.0
  0
ENDBLK
  5
29B
330
299
100
AcDbEntity
  8
0
100
AcDbBlockEnd
  0
BLOCK
  5
2AD
330
2A5
100
AcDbEntity
  8
0
100
AcDbBlockBegin
  2
_U6
 70
     0
 10
0.0
 20
0.0
 30
0.0
  3
_U6
  1

  0
ENDBLK
  5
2AE
330
2A5
100
AcDbEntity
  8
0
100
AcDbBlockEnd
  0
ENDSEC
  0
SECTION
  2
ENTITIES
  0
POINT
  5
73
102
{ACAD_REACTORS
330
357
102
}
330
1F
100
AcDbEntity
  8
80
100
AcDbPoint
 10
274.404842
 20
288.907994
 30
0.0
  0
POINT
  5
76
330
1F
100
AcDbEntity
  8
4
 60
     1
100
AcDbPoint
 10
291.7038319999999
 20
288.907994
 30
0.0
  0
POINT
  5
78
330
1F
100
AcDbEntity
  8
4
 60
     1
100
AcDbPoint
 10
418.609496
 20
288.907994
 30
0.0
  0
POINT
  5
79
330
1F
100
AcDbEntity
  8
SK4
 60
     1
100
AcDbPoint
 10
216.404842
 20
288.907994
 30
0.0
  0
POINT
  5
7A
330
1F
100
AcDbEntity
  8
SK4
 60
     1
100
AcDbPoint
 10
274.404842
 20
288.907994
 30
0.0
  0
POINT
  5
7B
330
1F
100
AcDbEntity
  8
SK6
 60
     1
100
AcDbPoint
 10
274.404842
 20
288.907994
 30
0.0
  0
POINT
  5
7C
330
1F
100
AcDbEntity
  8
SK6
 60
     1
100
AcDbPoint
 10
291.945103
 20
303.723931
 30
0.0
  0
LINE
  5
7D
330
1F
100
AcDbEntity
  8
1
100
AcDbLine
 10
417.7472999999999
 20
281.634016
 30
0.0
 11
417.838952
 21
281.684819
 31
0.0
  0
LINE
  5
7F
330
1F
100
AcDbEntity
  8
1
100
AcDbLine
 10
291.7038319999999
 20
274.407994
 30
0.0
 11
296.448811
 21
274.407994
 31
0.0
  0
LINE
  5
81
330
1F
100
AcDbEntity
  8
1
100
AcDbLine
 10
409.285668
 20
303.407994
 30
0.0
 11
399.428607
 21
303.407994
 31
0.0
  0
LINE
  5
82
330
1F
100
AcDbEntity
  8
1
100
AcDbLine
 10
308.569062
 20
303.407994
 30
0.0
 11
291.7038319999999
 21
303.407994
 31
0.0
  0
LINE
  5
83
330
1F
100
AcDbEntity
  8
1
100
AcDbLine
 10
412.888545
 20
298.167628
 30
0.0
 11
412.9142049999999
 21
298.240377
 31
0.0
  0
LINE
  5
85
330
1F
100
AcDbEntity
  8
1
100
AcDbLine
 10
414.4535099999999
 20
297.699357
 30
0.0
 11
414.447889
 21
297.69358
 31
0.0
  0
LINE
  5
86
330
1F
100
AcDbEntity
  8
1
100
AcDbLine
 10
414.462463
 20
297.929741
 30
0.0
 11
414.4366459999999
 21
297.856546
 31
0.0
  0
LINE
  5
87
330
1F
100
AcDbEntity
  8
1
100
AcDbLine
 10
413.216051
 20
299.598792
 30
0.0
 11
413.2418679999999
 21
299.671987
 31
0.0
  0
LINE
  5
88
330
1F
100
AcDbEntity
  8
1
100
AcDbLine
 10
414.7898119999999
 20
299.360458
 30
0.0
 11
414.764152
 21
299.28771
 31
0.0
  0
LINE
  5
89
330
1F
100
AcDbEntity
  8
1
100
AcDbLine
 10
413.867792
 20
297.571791
 30
0.0
 11
413.8930419999999
 21
297.64338
 31
0.0
  0
LINE
  5
8A
330
1F
100
AcDbEntity
  8
1
100
AcDbLine
 10
274.404842
 20
309.407994
 30
0.0
 11
274.404842
 21
288.907994
 31
0.0
  0
LINE
  5
8B
330
1F
100
AcDbEntity
  8
1
100
AcDbLine
 10
274.404842
 20
288.907994
 30
0.0
 11
274.404842
 21
268.407994
 31
0.0
  0
LINE
  5
8C
330
1F
100
AcDbEntity
  8
1
100
AcDbLine
 10
413.2286419999999
 20
299.653436
 30
0.0
 11
413.2542339999999
 21
299.725991
 31
0.0
  0
LINE
  5
8D
330
1F
100
AcDbEntity
  8
1
100
AcDbLine
 10
412.6458609999999
 20
298.770136
 30
0.0
 11
412.6209149999999
 21
298.69941
 31
0.0
  0
LINE
  5
8E
330
1F
100
AcDbEntity
  8
1
100
AcDbLine
 10
412.728695
 20
298.755725
 30
0.0
 11
412.703236
 21
298.683545
 31
0.0
  0
LINE
  5
8F
330
1F
100
AcDbEntity
  8
1
100
AcDbLine
 10
414.9080289999999
 20
298.175355
 30
0.0
 11
414.93292
 21
298.245926
 31
0.0
  0
LINE
  5
90
330
1F
100
AcDbEntity
  8
1
100
AcDbLine
 10
414.8141569999999
 20
298.196623
 30
0.0
 11
414.83964
 21
298.268869
 31
0.0
  0
LINE
  5
91
330
1F
100
AcDbEntity
  8
1
100
AcDbLine
 10
413.865848
 20
297.590221
 30
0.0
 11
413.891219
 21
297.662149
 31
0.0
  0
LINE
  5
92
330
1F
100
AcDbEntity
  8
1
100
AcDbLine
 10
403.239014
 20
295.703104
 30
0.0
 11
403.242717
 21
295.704704
 31
0.0
  0
LINE
  5
93
330
1F
100
AcDbEntity
  8
1
100
AcDbLine
 10
406.940256
 20
291.435988
 30
0.0
 11
406.966388
 21
290.672204
 31
0.0
  0
LINE
  5
94
330
1F
100
AcDbEntity
  8
1
100
AcDbLine
 10
416.740566
 20
293.390041
 30
0.0
 11
410.459756
 21
293.170938
 31
0.0
  0
LINE
  5
95
330
1F
100
AcDbEntity
  8
1
100
AcDbLine
 10
285.904842
 20
303.165393
 30
0.0
 11
285.904842
 21
287.113095
 31
0.0
  0
LINE
  5
96
330
1F
100
AcDbEntity
  8
1
100
AcDbLine
 10
417.441331
 20
274.407994
 30
0.0
 11
418.0202279999999
 21
279.862222
 31
0.0
  0
LINE
  5
97
330
1F
100
AcDbEntity
  8
1
100
AcDbLine
 10
418.0202279999999
 20
279.862222
 30
0.0
 11
417.9781369999999
 21
279.862896
 31
0.0
  0
LINE
  5
98
330
1F
100
AcDbEntity
  8
1
100
AcDbLine
 10
418.0034189999999
 20
280.101096
 30
0.0
 11
417.9781369999999
 21
279.862896
 31
0.0
  0
LINE
  5
99
330
1F
100
AcDbEntity
  8
1
100
AcDbLine
 10
418.0034189999999
 20
280.101096
 30
0.0
 11
417.7978689999999
 21
280.4351759999999
 31
0.0
  0
LINE
  5
9A
330
1F
100
AcDbEntity
  8
1
100
AcDbLine
 10
417.2472339999999
 20
284.145494
 30
0.0
 11
418.0138679999999
 21
284.145494
 31
0.0
  0
LINE
  5
9B
330
1F
100
AcDbEntity
  8
SK1
100
AcDbLine
 10
216.404842
 20
304.907994
 30
0.0
 11
216.404842
 21
272.907994
 31
0.0
  0
LINE
  5
9C
330
1F
100
AcDbEntity
  8
SK1
100
AcDbLine
 10
214.404842
 20
302.907994
 30
0.0
 11
214.404842
 21
274.907994
 31
0.0
  0
LINE
  5
9D
330
1F
100
AcDbEntity
  8
1
100
AcDbLine
 10
409.106692
 20
296.607024
 30
0.0
 11
409.1014589999999
 21
296.592189
 31
0.0
  0
LINE
  5
9E
330
1F
100
AcDbEntity
  8
1
100
AcDbLine
 10
409.106692
 20
296.607024
 30
0.0
 11
408.875079
 21
303.346668
 31
0.0
  0
LINE
  5
9F
330
1F
100
AcDbEntity
  8
1
100
AcDbLine
 10
408.8703919999999
 20
303.315974
 30
0.0
 11
409.1014589999999
 21
296.592189
 31
0.0
  0
LINE
  5
A0
330
1F
100
AcDbEntity
  8
1
100
AcDbLine
 10
417.441331
 20
274.407994
 30
0.0
 11
398.142838
 21
274.407994
 31
0.0
  0
LINE
  5
A1
330
1F
100
AcDbEntity
  8
1
100
AcDbLine
 10
274.904842
 20
267.907994
 30
0.0
 11
274.904842
 21
288.907994
 31
0.0
  0
LINE
  5
A2
330
1F
100
AcDbEntity
  8
1
100
AcDbLine
 10
274.904842
 20
288.907994
 30
0.0
 11
274.904842
 21
309.907994
 31
0.0
  0
LINE
  5
A3
330
1F
100
AcDbEntity
  8
1
100
AcDbLine
 10
411.2591049999999
 20
299.71658
 30
0.0
 11
411.238653
 21
299.658596
 31
0.0
  0
LINE
  5
A4
330
1F
100
AcDbEntity
  8
1
100
AcDbLine
 10
416.425466
 20
297.829123
 30
0.0
 11
416.4459179999999
 21
297.887107
 31
0.0
  0
LINE
  5
A5
330
1F
100
AcDbEntity
  8
1
100
AcDbLine
 10
279.404842
 20
267.907994
 30
0.0
 11
281.804337
 21
270.307488
 31
0.0
  0
LINE
  5
A6
330
1F
100
AcDbEntity
  8
1
100
AcDbLine
 10
281.804337
 20
307.5084990000001
 30
0.0
 11
279.404842
 21
309.907994
 31
0.0
  0
LINE
  5
A7
330
1F
100
AcDbEntity
  8
SK1
100
AcDbLine
 10
214.404842
 20
274.907994
 30
0.0
 11
216.404842
 21
272.907994
 31
0.0
  0
LINE
  5
A8
330
1F
100
AcDbEntity
  8
SK1
100
AcDbLine
 10
216.404842
 20
304.907994
 30
0.0
 11
214.404842
 21
302.907994
 31
0.0
  0
LINE
  5
A9
330
1F
100
AcDbEntity
  8
SK1
100
AcDbLine
 10
274.404842
 20
304.907994
 30
0.0
 11
216.404842
 21
304.907994
 31
0.0
  0
LINE
  5
AA
330
1F
100
AcDbEntity
  8
1
100
AcDbLine
 10
274.904842
 20
267.907994
 30
0.0
 11
274.404842
 21
268.407994
 31
0.0
  0
LINE
  5
AB
330
1F
100
AcDbEntity
  8
1
100
AcDbLine
 10
274.404842
 20
309.407994
 30
0.0
 11
274.904842
 21
309.907994
 31
0.0
  0
LINE
  5
AC
330
1F
100
AcDbEntity
  8
1
100
AcDbLine
 10
416.5500549999999
 20
284.145494
 30
0.0
 11
416.797881
 21
284.145494
 31
0.0
  0
LINE
  5
AD
330
1F
100
AcDbEntity
  8
1
100
AcDbLine
 10
409.34262
 20
303.314906
 30
0.0
 11
409.339595
 21
303.40295
 31
0.0
  0
LINE
  5
AE
330
1F
100
AcDbEntity
  8
1
100
AcDbLine
 10
412.033742
 20
293.8811
 30
0.0
 11
418.2866509999999
 21
294.099229
 31
0.0
  0
LINE
  5
AF
330
1F
100
AcDbEntity
  8
1
100
AcDbLine
 10
418.6099779999999
 20
303.062183
 30
0.0
 11
418.8952859999999
 21
295.097754
 31
0.0
  0
LINE
  5
B0
330
1F
100
AcDbEntity
  8
1
100
AcDbLine
 10
409.837244
 20
303.528677
 30
0.0
 11
417.809973
 21
303.8068009999999
 31
0.0
  0
LINE
  5
B1
330
1F
100
AcDbEntity
  8
1
100
AcDbLine
 10
409.377827
 20
294.765743
 30
0.0
 11
409.092519
 21
302.730172
 31
0.0
  0
LINE
  5
B2
330
1F
100
AcDbEntity
  8
1
100
AcDbLine
 10
418.1505599999999
 20
294.299249
 30
0.0
 11
410.1778319999999
 21
294.021125
 31
0.0
  0
LINE
  5
B3
330
1F
100
AcDbEntity
  8
1
100
AcDbLine
 10
410.3689069999999
 20
302.278135
 30
0.0
 11
417.363365
 21
302.522133
 31
0.0
  0
LINE
  5
B4
330
1F
100
AcDbEntity
  8
1
100
AcDbLine
 10
410.6192069999999
 20
295.290958
 30
0.0
 11
410.3689069999999
 21
302.278135
 31
0.0
  0
LINE
  5
B5
330
1F
100
AcDbEntity
  8
1
100
AcDbLine
 10
417.613665
 20
295.534956
 30
0.0
 11
410.6192069999999
 21
295.290958
 31
0.0
  0
LINE
  5
B6
330
1F
100
AcDbEntity
  8
1
100
AcDbLine
 10
417.363365
 20
302.522133
 30
0.0
 11
417.613665
 21
295.534956
 31
0.0
  0
LINE
  5
B7
330
1F
100
AcDbEntity
  8
1
100
AcDbLine
 10
419.297436
 20
281.863516
 30
0.0
 11
418.6718359999999
 21
280.822342
 31
0.0
  0
LINE
  5
B8
330
1F
100
AcDbEntity
  8
1
100
AcDbLine
 10
418.3014
 20
281.205939
 30
0.0
 11
418.6718359999999
 21
280.822342
 31
0.0
  0
LINE
  5
B9
330
1F
100
AcDbEntity
  8
1
100
AcDbLine
 10
418.6718359999999
 20
280.822342
 30
0.0
 11
417.842518
 21
280.362644
 31
0.0
  0
LINE
  5
BA
330
1F
100
AcDbEntity
  8
1
100
AcDbLine
 10
418.250653
 20
289.441149
 30
0.0
 11
418.797416
 21
289.11262
 31
0.0
  0
LINE
  5
BB
330
1F
100
AcDbEntity
  8
1
100
AcDbLine
 10
418.4138179999999
 20
288.742185
 30
0.0
 11
418.797416
 21
289.11262
 31
0.0
  0
LINE
  5
BC
330
1F
100
AcDbEntity
  8
1
100
AcDbLine
 10
418.797416
 20
289.11262
 30
0.0
 11
419.4048419999999
 21
288.016795
 31
0.0
  0
LINE
  5
BD
330
1F
100
AcDbEntity
  8
1
100
AcDbLine
 10
418.8874189999999
 20
287.887787
 30
0.0
 11
419.4048419999999
 21
288.016795
 31
0.0
  0
LINE
  5
BE
330
1F
100
AcDbEntity
  8
1
100
AcDbLine
 10
418.7848309999999
 20
282.010503
 30
0.0
 11
419.297436
 21
281.863516
 31
0.0
  0
LINE
  5
BF
330
1F
100
AcDbEntity
  8
1
100
AcDbLine
 10
419.4048419999999
 20
288.016795
 30
0.0
 11
419.297436
 21
281.863516
 31
0.0
  0
LINE
  5
C0
330
1F
100
AcDbEntity
  8
1
100
AcDbLine
 10
418.3014
 20
281.205939
 30
0.0
 11
417.6654609999999
 21
280.853432
 31
0.0
  0
LINE
  5
C1
330
1F
100
AcDbEntity
  8
1
100
AcDbLine
 10
418.2414729999999
 20
287.7267339999999
 30
0.0
 11
418.013872
 21
288.137338
 31
0.0
  0
LINE
  5
C2
330
1F
100
AcDbEntity
  8
1
100
AcDbLine
 10
418.4138179999999
 20
288.742185
 30
0.0
 11
418.8874189999999
 21
287.887787
 31
0.0
  0
LINE
  5
C3
330
1F
100
AcDbEntity
  8
1
100
AcDbLine
 10
418.8874189999999
 20
287.887787
 30
0.0
 11
418.2414729999999
 21
287.7267339999999
 31
0.0
  0
LINE
  5
C4
330
1F
100
AcDbEntity
  8
1
100
AcDbLine
 10
418.1448989999999
 20
282.194001
 30
0.0
 11
418.2414729999999
 21
287.7267339999999
 31
0.0
  0
LINE
  5
C5
330
1F
100
AcDbEntity
  8
1
100
AcDbLine
 10
418.8874189999999
 20
287.887787
 30
0.0
 11
418.7848309999999
 21
282.010503
 31
0.0
  0
LINE
  5
C6
330
1F
100
AcDbEntity
  8
1
100
AcDbLine
 10
418.7848309999999
 20
282.010503
 30
0.0
 11
418.1448989999999
 21
282.194001
 31
0.0
  0
LINE
  5
C7
330
1F
100
AcDbEntity
  8
1
100
AcDbLine
 10
417.838952
 20
281.684819
 30
0.0
 11
418.1448989999999
 21
282.194001
 31
0.0
  0
LINE
  5
C8
330
1F
100
AcDbEntity
  8
1
100
AcDbLine
 10
418.3014
 20
281.205939
 30
0.0
 11
417.838952
 21
281.684819
 31
0.0
  0
LINE
  5
C9
330
1F
100
AcDbEntity
  8
1
100
AcDbLine
 10
418.7848309999999
 20
282.010503
 30
0.0
 11
418.3014
 21
281.205939
 31
0.0
  0
LINE
  5
CA
330
1F
100
AcDbEntity
  8
1
100
AcDbLine
 10
418.4138179999999
 20
288.742185
 30
0.0
 11
418.013872
 21
288.355961
 31
0.0
  0
LINE
  5
CB
330
1F
100
AcDbEntity
  8
1
100
AcDbLine
 10
418.0158109999999
 20
288.981332
 30
0.0
 11
418.4138179999999
 21
288.742185
 31
0.0
  0
LINE
  5
CC
330
1F
100
AcDbEntity
  8
1
100
AcDbLine
 10
418.474842
 20
289.925708
 30
0.0
 11
418.474842
 21
290.025723
 31
0.0
  0
LINE
  5
CD
330
1F
100
AcDbEntity
  8
1
100
AcDbLine
 10
418.287731
 20
293.943721
 30
0.0
 11
418.2866509999999
 21
294.099229
 31
0.0
  0
LINE
  5
CE
330
1F
100
AcDbEntity
  8
1
100
AcDbLine
 10
409.114009
 20
302.922516
 30
0.0
 11
409.099445
 21
303.346308
 31
0.0
  0
LINE
  5
CF
330
1F
100
AcDbEntity
  8
1
100
AcDbLine
 10
418.211811
 20
293.413672
 30
0.0
 11
410.467589
 21
293.143519
 31
0.0
  0
LINE
  5
D0
330
1F
100
AcDbEntity
  8
1
100
AcDbLine
 10
418.211811
 20
293.413672
 30
0.0
 11
416.449218
 21
290.49346
 31
0.0
  0
LINE
  5
D1
330
1F
100
AcDbEntity
  8
1
100
AcDbLine
 10
417.7978689999999
 20
280.4351759999999
 30
0.0
 11
417.690518
 21
280.436893
 31
0.0
  0
LINE
  5
D2
330
1F
100
AcDbEntity
  8
1
100
AcDbLine
 10
417.6733519999999
 20
280.937232
 30
0.0
 11
418.0138679999999
 21
284.145494
 31
0.0
  0
LINE
  5
D3
330
1F
100
AcDbEntity
  8
1
100
AcDbLine
 10
418.0138679999999
 20
284.145494
 30
0.0
 11
418.0138679999999
 21
288.864269
 31
0.0
  0
LINE
  5
D4
330
1F
100
AcDbEntity
  8
1
100
AcDbLine
 10
418.084138
 20
289.363119
 30
0.0
 11
418.191672
 21
289.361242
 31
0.0
  0
LINE
  5
D5
330
1F
100
AcDbEntity
  8
1
100
AcDbLine
 10
279.404842
 20
267.907994
 30
0.0
 11
279.404842
 21
271.859392
 31
0.0
  0
LINE
  5
D6
330
1F
100
AcDbEntity
  8
1
100
AcDbLine
 10
279.404842
 20
309.907994
 30
0.0
 11
279.404842
 21
280.322335
 31
0.0
  0
LINE
  5
D7
330
1F
100
AcDbEntity
  8
1
100
AcDbLine
 10
418.211811
 20
293.413672
 30
0.0
 11
418.221191
 21
293.417271
 31
0.0
  0
LINE
  5
D8
330
1F
100
AcDbEntity
  8
1
100
AcDbLine
 10
418.3286559999999
 20
294.1153470000001
 30
0.0
 11
412.038975
 21
293.895935
 31
0.0
  0
LINE
  5
D9
330
1F
100
AcDbEntity
  8
1
100
AcDbLine
 10
412.033742
 20
293.8811
 30
0.0
 11
412.038975
 21
293.895935
 31
0.0
  0
LINE
  5
DA
330
1F
100
AcDbEntity
  8
1
100
AcDbLine
 10
418.191672
 20
289.361242
 30
0.0
 11
418.43268
 21
289.687833
 31
0.0
  0
LINE
  5
DB
330
1F
100
AcDbEntity
  8
1
100
AcDbLine
 10
418.43268
 20
289.926444
 30
0.0
 11
418.43268
 21
289.687833
 31
0.0
  0
LINE
  5
DC
330
1F
100
AcDbEntity
  8
1
100
AcDbLine
 10
418.43268
 20
289.926444
 30
0.0
 11
418.474842
 21
289.925708
 31
0.0
  0
LINE
  5
DD
330
1F
100
AcDbEntity
  8
1
100
AcDbLine
 10
418.474842
 20
294.395626
 30
0.0
 11
418.474842
 21
290.025723
 31
0.0
  0
LINE
  5
DE
330
1F
100
AcDbEntity
  8
1
100
AcDbLine
 10
418.3286559999999
 20
294.1153470000001
 30
0.0
 11
418.3271009999999
 21
294.339424
 31
0.0
  0
LINE
  5
DF
330
1F
100
AcDbEntity
  8
1
100
AcDbLine
 10
418.3286559999999
 20
294.1153470000001
 30
0.0
 11
418.2866509999999
 21
294.099229
 31
0.0
  0
LINE
  5
E0
330
1F
100
AcDbEntity
  8
1
100
AcDbLine
 10
279.404842
 20
309.907994
 30
0.0
 11
274.904842
 21
309.907994
 31
0.0
  0
LINE
  5
E5
330
1F
100
AcDbEntity
  8
80
100
AcDbLine
 10
275.404416
 20
288.907994
 30
0.0
 11
273.405268
 21
288.907994
 31
0.0
  0
LINE
  5
E6
330
1F
100
AcDbEntity
  8
80
100
AcDbLine
 10
274.404842
 20
287.90842
 30
0.0
 11
274.404842
 21
289.907567
 31
0.0
  0
LINE
  5
E7
330
1F
100
AcDbEntity
  8
81
100
AcDbLine
 10
419.4048419999999
 20
305.907994
 30
0.0
 11
419.4048419999999
 21
301.907994
 31
0.0
  0
LINE
  5
E8
330
1F
100
AcDbEntity
  8
81
100
AcDbLine
 10
417.404842
 20
303.907994
 30
0.0
 11
421.404842
 21
303.907994
 31
0.0
  0
LINE
  5
E9
330
1F
100
AcDbEntity
  8
SK1
100
AcDbLine
 10
216.404842
 20
272.907994
 30
0.0
 11
274.404842
 21
272.907994
 31
0.0
  0
LINE
  5
EA
330
1F
100
AcDbEntity
  8
1
100
AcDbLine
 10
274.904842
 20
267.907994
 30
0.0
 11
279.404842
 21
267.907994
 31
0.0
  0
LINE
  5
12A
330
1F
100
AcDbEntity
  8
NOCUT
100
AcDbLine
 10
279.404842
 20
309.907994
 30
0.0
 11
281.804337
 21
307.5084990000001
 31
0.0
  0
LINE
  5
12B
330
1F
100
AcDbEntity
  8
NOCUT
100
AcDbLine
 10
291.7038319999999
 20
303.407994
 30
0.0
 11
418.1647899999999
 21
303.407994
 31
0.0
  0
LINE
  5
12C
330
1F
100
AcDbEntity
  8
NOCUT
100
AcDbLine
 10
418.1647899999999
 20
303.407994
 30
0.0
 11
418.474842
 21
294.605526
 31
0.0
  0
LINE
  5
12D
330
1F
100
AcDbEntity
  8
NOCUT
100
AcDbLine
 10
418.474842
 20
294.605526
 30
0.0
 11
418.474842
 21
288.907994
 31
0.0
  0
LINE
  5
12E
330
1F
100
AcDbEntity
  8
NOCUT
100
AcDbLine
 10
418.474842
 20
288.907994
 30
0.0
 11
214.404842
 21
288.907994
 31
0.0
  0
LINE
  5
12F
330
1F
100
AcDbEntity
  8
NOCUT
100
AcDbLine
 10
214.404842
 20
302.907994
 30
0.0
 11
216.404842
 21
304.907994
 31
0.0
  0
LINE
  5
130
330
1F
100
AcDbEntity
  8
NOCUT
100
AcDbLine
 10
274.404842
 20
304.907994
 30
0.0
 11
274.404842
 21
309.407994
 31
0.0
  0
LINE
  5
131
330
1F
100
AcDbEntity
  8
NOCUT
100
AcDbLine
 10
274.404842
 20
309.407994
 30
0.0
 11
274.904842
 21
309.907994
 31
0.0
  0
LINE
  5
132
330
1F
100
AcDbEntity
  8
NOCUT
100
AcDbLine
 10
274.404842
 20
304.907994
 30
0.0
 11
216.404842
 21
304.907994
 31
0.0
  0
LINE
  5
133
330
1F
100
AcDbEntity
  8
NOCUT
100
AcDbLine
 10
279.404842
 20
309.907994
 30
0.0
 11
274.904842
 21
309.907994
 31
0.0
  0
LINE
  5
134
330
1F
100
AcDbEntity
  8
NOCUT
100
AcDbLine
 10
214.404842
 20
302.907994
 30
0.0
 11
214.404842
 21
288.907994
 31
0.0
  0
ARC
  5
13D
330
1F
100
AcDbEntity
  8
1
100
AcDbCircle
 10
414.402831
 20
285.223558
 30
0.0
 40
1.5
100
AcDbArc
 50
75.0
 51
345.0
  0
ARC
  5
13E
330
1F
100
AcDbEntity
  8
1
100
AcDbCircle
 10
291.7038319999999
 20
260.407994
 30
0.0
 40
14.0
100
AcDbArc
 50
90.0
 51
135.0
  0
ARC
  5
13F
330
1F
100
AcDbEntity
  8
1
100
AcDbCircle
 10
291.7038319999999
 20
317.407994
 30
0.0
 40
14.0
100
AcDbArc
 50
225.0
 51
270.0
  0
CIRCLE
  5
140
330
1F
100
AcDbEntity
  8
1
100
AcDbCircle
 10
414.4224789999999
 20
285.203212
 30
0.0
 40
1.099999999999998
  0
ARC
  5
14F
330
1F
100
AcDbEntity
  8
NOCUT
100
AcDbCircle
 10
291.7038319999999
 20
317.407994
 30
0.0
 40
14.0
100
AcDbArc
 50
225.0
 51
270.0
  0
ELLIPSE
  5
150
330
1F
100
AcDbEntity
  8
1
100
AcDbEllipse
 10
259.2501529999999
 20
288.907993
 30
0.0
 11
48.90631894286093
 21
-11.34043037976946
 31
0.0
210
0.0
220
0.0
230
1.0
 40
0.184756
 41
5.479997236276409
 42
5.533545461180855
  0
ELLIPSE
  5
151
330
1F
100
AcDbEntity
  8
1
100
AcDbEllipse
 10
410.0162619999999
 20
305.7481029999999
 30
0.0
 11
-11.88251702683405
 21
4.191156058535549
 31
0.0
210
0.0
220
0.0
230
0.9999999999999998
 40
0.9986239999999998
 41
1.386999937657825
 42
1.944667797788621
  0
ELLIPSE
  5
152
330
1F
100
AcDbEntity
  8
1
100
AcDbEllipse
 10
413.8525109999999
 20
298.801844
 30
0.0
 11
-2.593406493951873
 21
0.9147364413470436
 31
0.0
210
0.0
220
0.0
230
1.0
 40
0.9986239999999998
 41
3.141683399138619
 42
6.28317802443342
  0
ELLIPSE
  5
153
330
1F
100
AcDbEntity
  8
1
100
AcDbEllipse
 10
413.373203
 20
297.662063
 30
0.0
 11
-0.0942167666043796
 21
0.0332317783578877
 31
0.0
210
0.0
220
0.0
230
1.0
 40
0.9986239999999998
 41
5.285082567639591
 42
6.134017720050548
  0
ELLIPSE
  5
154
330
1F
100
AcDbEntity
  8
1
100
AcDbEllipse
 10
413.1967259999999
 20
297.755754
 30
0.0
 11
-0.0942167666043797
 21
0.0332317783578877
 31
0.0
210
0.0
220
0.0
230
1.0
 40
0.9986239999999998
 41
1.619891138451448
 42
2.99242506646064
  0
ELLIPSE
  5
155
330
1F
100
AcDbEntity
  8
1
100
AcDbEllipse
 10
418.2177229999999
 20
293.916858
 30
0.0
 11
0.0003016037633136
 21
0.5003084758558947
 31
0.0
210
0.0
220
0.0
230
0.9999999999999998
 40
0.140101
 41
3.195395734394718
 42
4.766192061192973
  0
ELLIPSE
  5
156
330
1F
100
AcDbEntity
  8
1
100
AcDbEllipse
 10
418.98032
 20
288.907994
 30
0.0
 11
1.569462156592208
 21
14.498360125549
 31
0.0
210
0.0
220
0.0
230
1.0
 40
0.138944
 41
1.92049630653193
 42
3.156632395651107
  0
ELLIPSE
  5
157
330
1F
100
AcDbEntity
  8
1
100
AcDbEllipse
 10
418.474842
 20
288.907994
 30
0.0
 11
0.0
 21
14.49999999995075
 31
0.0
210
0.0
220
0.0
230
1.0
 40
0.140541
 41
1.461234770622851
 42
1.905456564472458
  0
ELLIPSE
  5
158
330
1F
100
AcDbEntity
  8
1
100
AcDbEllipse
 10
410.712185
 20
295.52041
 30
0.0
 11
-1.88611381378318
 21
0.6652628664342136
 31
0.0
210
0.0
220
0.0
230
1.0
 40
0.9986239999999998
 41
0.0546757932376134
 42
1.9452273312192
  0
ELLIPSE
  5
159
330
1F
100
AcDbEntity
  8
1
100
AcDbEllipse
 10
410.712185
 20
295.52041
 30
0.0
 11
-1.88611381378318
 21
0.6652628664342136
 31
0.0
210
0.0
220
0.0
230
1.0
 40
0.9986239999999998
 41
1.9452273312192
 42
2.681832479841102
  0
ELLIPSE
  5
15A
330
1F
100
AcDbEntity
  8
1
100
AcDbEllipse
 10
410.644686
 20
295.329038
 30
0.0
 11
-1.88611381378318
 21
0.6652628664342136
 31
0.0
210
0.0
220
0.0
230
1.0
 40
0.9986239999999998
 41
5.785523578469408
 42
5.928503423216215
  0
ELLIPSE
  5
15B
330
1F
100
AcDbEntity
  8
1
100
AcDbEllipse
 10
410.639453
 20
295.314203
 30
0.0
 11
1.88611381378318
 21
-0.6652628664342132
 31
0.0
210
0.0
220
0.0
230
1.0
 40
0.9986239999999998
 41
2.786910769626418
 42
4.444101854996002
  0
ELLIPSE
  5
15C
330
1F
100
AcDbEntity
  8
1
100
AcDbEllipse
 10
409.383237
 20
288.908137
 30
0.0
 11
0.4849117691306203
 21
-14.49985404310775
 31
0.0
210
0.0
220
0.0
230
0.9999999999999998
 40
0.0191
 41
3.232957647317249
 42
3.253674245686578
  0
ELLIPSE
  5
15D
330
1F
100
AcDbEntity
  8
1
100
AcDbEllipse
 10
356.34058
 20
288.90871
 30
0.0
 11
831.1889874382995
 21
-0.7173789315283646
 31
0.0
210
0.0
220
0.0
230
0.9999999999999998
 40
0.017423
 41
1.5075708219931
 42
1.511205601294428
  0
ELLIPSE
  5
15E
330
1F
100
AcDbEntity
  8
1
100
AcDbEllipse
 10
410.007541
 20
305.723378
 30
0.0
 11
-11.88251702683405
 21
4.191156058535549
 31
0.0
210
0.0
220
0.0
230
0.9999999999999998
 40
0.9986239999999998
 41
1.387500524436307
 42
1.945227515264153
  0
ELLIPSE
  5
15F
330
1F
100
AcDbEntity
  8
1
100
AcDbEllipse
 10
410.1285719999999
 20
291.748389
 30
0.0
 11
-2.586270133898163
 21
-0.1015048480393898
 31
0.0
210
0.0
220
0.0
230
1.0
 40
0.22151
 41
1.719582424915889
 42
4.561375922874598
  0
ELLIPSE
  5
160
330
1F
100
AcDbEntity
  8
1
100
AcDbEllipse
 10
414.395193
 20
288.907994
 30
0.0
 11
24.86895430254507
 21
-14.30521490751897
 31
0.0
210
0.0
220
0.0
230
1.0
 40
0.095248
 41
4.140070881418735
 42
4.330790287345006
  0
ELLIPSE
  5
161
330
1F
100
AcDbEntity
  8
1
100
AcDbEllipse
 10
409.8168529999999
 20
288.907994
 30
0.0
 11
0.4849168150340968
 21
-14.49999669038844
 31
0.0
210
0.0
220
0.0
230
0.9999999999999998
 40
0.0191
 41
3.050023178602426
 42
3.114577233722358
  0
ELLIPSE
  5
162
330
1F
100
AcDbEntity
  8
1
100
AcDbEllipse
 10
410.639453
 20
295.314203
 30
0.0
 11
1.88611381378318
 21
-0.6652628664342132
 31
0.0
210
0.0
220
0.0
230
1.0
 40
0.9986239999999998
 41
5.697736097639767
 42
5.822604891428738
  0
ELLIPSE
  5
163
330
1F
100
AcDbEntity
  8
1
100
AcDbEllipse
 10
409.684206
 20
288.907993
 30
0.0
 11
0.4065714690452912
 21
-14.49988742748102
 31
0.0
210
0.0
220
0.0
230
0.9999999999999998
 40
0.140543
 41
3.111275237690718
 42
3.229925373336937
  0
ELLIPSE
  5
164
330
1F
100
AcDbEntity
  8
1
100
AcDbEllipse
 10
413.326929
 20
298.192184
 30
0.0
 11
-0.5243116980215662
 21
0.1849332211989801
 31
0.0
210
0.0
220
0.0
230
1.0
 40
0.9986239999999998
 41
0.6997675652817213
 42
1.619891138451541
  0
ELLIPSE
  5
165
330
1F
100
AcDbEntity
  8
1
100
AcDbEllipse
 10
412.900342
 20
298.031617
 30
0.0
 11
-0.0942167666043796
 21
0.0332317783578877
 31
0.0
210
0.0
220
0.0
230
1.0
 40
0.9986239999999998
 41
5.610418944452218
 42
6.982952872461233
  0
ELLIPSE
  5
166
330
1F
100
AcDbEntity
  8
1
100
AcDbEllipse
 10
412.794328
 20
298.20086
 30
0.0
 11
-0.0942167666043796
 21
0.0332317783578877
 31
0.0
210
0.0
220
0.0
230
1.0
 40
0.9986239999999998
 41
2.468826290862383
 42
3.317761443273211
  0
ELLIPSE
  5
167
330
1F
100
AcDbEntity
  8
1
100
AcDbEllipse
 10
412.34434
 20
298.274939
 30
0.0
 11
-0.5243116980215661
 21
0.18493322119898
 31
0.0
210
0.0
220
0.0
230
1.0
 40
0.9986239999999998
 41
3.317761443273196
 42
4.237885016443053
  0
ELLIPSE
  5
168
330
1F
100
AcDbEntity
  8
1
100
AcDbEllipse
 10
412.675605
 20
298.587679
 30
0.0
 11
-0.0942167666043796
 21
0.0332317783578877
 31
0.0
210
0.0
220
0.0
230
1.0
 40
0.9986239999999998
 41
4.237885016442778
 42
5.086820168854159
  0
ELLIPSE
  5
169
330
1F
100
AcDbEntity
  8
1
100
AcDbEllipse
 10
412.6684599999999
 20
298.787124
 30
0.0
 11
-0.0942167666043797
 21
0.0332317783578877
 31
0.0
210
0.0
220
0.0
230
1.0
 40
0.9986239999999998
 41
0.5726935872548467
 42
1.945227515263864
  0
ELLIPSE
  5
16A
330
1F
100
AcDbEntity
  8
1
100
AcDbEllipse
 10
413.112024
 20
298.892374
 30
0.0
 11
-0.5243116980215662
 21
0.1849332211989801
 31
0.0
210
0.0
220
0.0
230
1.0
 40
0.9986239999999998
 41
5.935755321264666
 42
6.855878894434512
  0
ELLIPSE
  5
16B
330
1F
100
AcDbEntity
  8
1
100
AcDbEllipse
 10
412.759208
 20
299.18125
 30
0.0
 11
-0.0942167666043796
 21
0.0332317783578877
 31
0.0
210
0.0
220
0.0
230
1.0
 40
0.9986239999999998
 41
4.563221393255662
 42
5.935755321264772
  0
ELLIPSE
  5
16C
330
1F
100
AcDbEntity
  8
1
100
AcDbEllipse
 10
412.852847
 20
299.357457
 30
0.0
 11
-0.0942167666043796
 21
0.0332317783578877
 31
0.0
210
0.0
220
0.0
230
1.0
 40
0.9986239999999998
 41
1.42162873966576
 42
2.270563892076639
  0
ELLIPSE
  5
16D
330
1F
100
AcDbEntity
  8
1
100
AcDbEllipse
 10
412.691739
 20
299.783725
 30
0.0
 11
-0.5243116980215661
 21
0.18493322119898
 31
0.0
210
0.0
220
0.0
230
1.0
 40
0.9986239999999998
 41
2.270563892076573
 42
3.190687465246393
  0
ELLIPSE
  5
16E
330
1F
100
AcDbEntity
  8
1
100
AcDbEllipse
 10
413.1287509999999
 20
299.653285
 30
0.0
 11
-0.0942167666043796
 21
0.0332317783578877
 31
0.0
210
0.0
220
0.0
230
1.0
 40
0.9986239999999998
 41
3.190687465246446
 42
4.039622617657406
  0
ELLIPSE
  5
16F
330
1F
100
AcDbEntity
  8
1
100
AcDbEllipse
 10
413.298083
 20
299.759039
 30
0.0
 11
-0.0942167666043797
 21
0.0332317783578877
 31
0.0
210
0.0
220
0.0
230
1.0
 40
0.9986239999999998
 41
5.808681343238027
 42
7.181215271247244
  0
ELLIPSE
  5
170
330
1F
100
AcDbEntity
  8
1
100
AcDbEllipse
 10
413.611444
 20
299.427859
 30
0.0
 11
-0.5243116980215662
 21
0.1849332211989801
 31
0.0
210
0.0
220
0.0
230
1.0
 40
0.9986239999999998
 41
4.888557770068065
 42
5.808681343237902
  0
ELLIPSE
  5
171
330
1F
100
AcDbEntity
  8
1
100
AcDbEllipse
 10
413.685214
 20
299.877301
 30
0.0
 11
-0.0942167666043796
 21
0.0332317783578877
 31
0.0
210
0.0
220
0.0
230
1.0
 40
0.9986239999999998
 41
3.516023842059158
 42
4.88855777006854
  0
ELLIPSE
  5
172
330
1F
100
AcDbEntity
  8
1
100
AcDbEllipse
 10
413.884868
 20
299.884266
 30
0.0
 11
-0.0942167666043796
 21
0.0332317783578877
 31
0.0
210
0.0
220
0.0
230
1.0
 40
0.9986239999999998
 41
0.3744311884691581
 42
1.223366340879749
  0
ELLIPSE
  5
173
330
1F
100
AcDbEntity
  8
1
100
AcDbEllipse
 10
414.1737479999999
 20
300.236455
 30
0.0
 11
-0.5243116980215661
 21
0.18493322119898
 31
0.0
210
0.0
220
0.0
230
1.0
 40
0.9986239999999998
 41
1.223366340879982
 42
2.143489914049879
  0
ELLIPSE
  5
174
330
1F
100
AcDbEntity
  8
1
100
AcDbEllipse
 10
414.2794949999999
 20
299.793275
 30
0.0
 11
-0.0942167666043796
 21
0.0332317783578877
 31
0.0
210
0.0
220
0.0
230
1.0
 40
0.9986239999999998
 41
2.143489914049721
 42
2.992425066460753
  0
ELLIPSE
  5
175
330
1F
100
AcDbEntity
  8
1
100
AcDbEllipse
 10
414.455972
 20
299.699584
 30
0.0
 11
-0.0942167666043797
 21
0.0332317783578877
 31
0.0
210
0.0
220
0.0
230
1.0
 40
0.9986239999999998
 41
4.761483792041387
 42
6.134017720050644
  0
ELLIPSE
  5
176
330
1F
100
AcDbEntity
  8
1
100
AcDbEllipse
 10
414.3257689999999
 20
299.263153
 30
0.0
 11
-0.5243116980215662
 21
0.1849332211989801
 31
0.0
210
0.0
220
0.0
230
1.0
 40
0.9986239999999998
 41
3.841360218871477
 42
4.761483792041309
  0
ELLIPSE
  5
177
330
1F
100
AcDbEntity
  8
1
100
AcDbEllipse
 10
414.7523549999999
 20
299.42372
 30
0.0
 11
-0.0942167666043796
 21
0.0332317783578877
 31
0.0
210
0.0
220
0.0
230
1.0
 40
0.9986239999999998
 41
2.468826290862295
 42
3.841360218871531
  0
ELLIPSE
  5
178
330
1F
100
AcDbEntity
  8
1
100
AcDbEllipse
 10
414.8583689999999
 20
299.254478
 30
0.0
 11
-0.0942167666043796
 21
0.0332317783578877
 31
0.0
210
0.0
220
0.0
230
1.0
 40
0.9986239999999998
 41
5.610418944452097
 42
6.459354096863078
  0
ELLIPSE
  5
179
330
1F
100
AcDbEntity
  8
1
100
AcDbEllipse
 10
415.3083579999999
 20
299.180399
 30
0.0
 11
-0.5243116980215661
 21
0.18493322119898
 31
0.0
210
0.0
220
0.0
230
1.0
 40
0.9986239999999998
 41
0.1761687896833657
 42
1.096292362853242
  0
ELLIPSE
  5
17A
330
1F
100
AcDbEntity
  8
1
100
AcDbEllipse
 10
414.977093
 20
298.867659
 30
0.0
 11
-0.0942167666043796
 21
0.0332317783578877
 31
0.0
210
0.0
220
0.0
230
1.0
 40
0.9986239999999998
 41
1.096292362853082
 42
1.945227515264023
  0
ELLIPSE
  5
17B
330
1F
100
AcDbEntity
  8
1
100
AcDbEllipse
 10
414.9842379999999
 20
298.668214
 30
0.0
 11
-0.0942167666043797
 21
0.0332317783578877
 31
0.0
210
0.0
220
0.0
230
1.0
 40
0.9986239999999998
 41
3.714286240844776
 42
5.086820168853816
  0
ELLIPSE
  5
17C
330
1F
100
AcDbEntity
  8
1
100
AcDbEllipse
 10
414.5406729999999
 20
298.562964
 30
0.0
 11
-0.5243116980215662
 21
0.1849332211989801
 31
0.0
210
0.0
220
0.0
230
1.0
 40
0.9986239999999998
 41
2.794162667674884
 42
3.71428624084472
  0
ELLIPSE
  5
17D
330
1F
100
AcDbEntity
  8
1
100
AcDbEllipse
 10
414.8934899999999
 20
298.274088
 30
0.0
 11
-0.0942167666043796
 21
0.0332317783578877
 31
0.0
210
0.0
220
0.0
230
1.0
 40
0.9986239999999998
 41
1.421628739665749
 42
2.794162667675009
  0
ELLIPSE
  5
17E
330
1F
100
AcDbEntity
  8
1
100
AcDbEllipse
 10
414.7998499999999
 20
298.097881
 30
0.0
 11
-0.0942167666043796
 21
0.0332317783578877
 31
0.0
210
0.0
220
0.0
230
1.0
 40
0.9986239999999998
 41
4.563221393256072
 42
5.412156545666478
  0
ELLIPSE
  5
17F
330
1F
100
AcDbEntity
  8
1
100
AcDbEllipse
 10
414.9609579999999
 20
297.671612
 30
0.0
 11
-0.5243116980215661
 21
0.18493322119898
 31
0.0
210
0.0
220
0.0
230
1.0
 40
0.9986239999999998
 41
5.412156545666431
 42
6.332280118836218
  0
ELLIPSE
  5
180
330
1F
100
AcDbEntity
  8
1
100
AcDbEllipse
 10
414.5239469999999
 20
297.802053
 30
0.0
 11
-0.0942167666043796
 21
0.0332317783578877
 31
0.0
210
0.0
220
0.0
230
1.0
 40
0.9986239999999998
 41
0.049094811656789
 42
0.8980299640674351
  0
ELLIPSE
  5
181
330
1F
100
AcDbEntity
  8
1
100
AcDbEllipse
 10
414.354614
 20
297.696299
 30
0.0
 11
-0.0942167666043797
 21
0.0332317783578877
 31
0.0
210
0.0
220
0.0
230
1.0
 40
0.9986239999999998
 41
2.667088689648236
 42
4.039622617657049
  0
ELLIPSE
  5
182
330
1F
100
AcDbEntity
  8
1
100
AcDbEllipse
 10
414.0412529999999
 20
298.027479
 30
0.0
 11
-0.5243116980215662
 21
0.1849332211989801
 31
0.0
210
0.0
220
0.0
230
1.0
 40
0.9986239999999998
 41
1.746965116478293
 42
2.667088689648156
  0
ELLIPSE
  5
183
330
1F
100
AcDbEntity
  8
1
100
AcDbEllipse
 10
413.967483
 20
297.578036
 30
0.0
 11
-0.0942167666043796
 21
0.0332317783578877
 31
0.0
210
0.0
220
0.0
230
1.0
 40
0.9986239999999998
 41
0.3744311884689215
 42
1.746965116478035
  0
ELLIPSE
  5
184
330
1F
100
AcDbEntity
  8
1
100
AcDbEllipse
 10
413.76783
 20
297.571072
 30
0.0
 11
-0.0942167666043796
 21
0.0332317783578877
 31
0.0
210
0.0
220
0.0
230
1.0
 40
0.9986239999999998
 41
3.516023842059093
 42
4.364958994469785
  0
ELLIPSE
  5
185
330
1F
100
AcDbEntity
  8
1
100
AcDbEllipse
 10
413.478949
 20
297.218883
 30
0.0
 11
-0.5243116980215661
 21
0.18493322119898
 31
0.0
210
0.0
220
0.0
230
1.0
 40
0.9986239999999998
 41
4.364958994469776
 42
5.285082567639673
  0
ELLIPSE
  5
186
330
1F
100
AcDbEntity
  8
1
100
AcDbEllipse
 10
413.826349
 20
298.727669
 30
0.0
 11
1.697502432404862
 21
-0.598736579790792
 31
0.0
210
0.0
220
0.0
230
0.9999999999999998
 40
0.9986239999999998
 41
0.0
 42
6.283185307179585
  0
ELLIPSE
  5
187
330
1F
100
AcDbEntity
  8
1
100
AcDbEllipse
 10
413.8320589999999
 20
298.74386
 30
0.0
 11
2.593406493951873
 21
-0.9147364413470432
 31
0.0
210
0.0
220
0.0
230
1.0
 40
0.9986239999999998
 41
0.0
 42
6.283185307179585
  0
ELLIPSE
  5
188
330
1F
100
AcDbEntity
  8
1
100
AcDbEllipse
 10
414.01396
 20
298.97083
 30
0.0
 11
2.919001017965134
 21
-1.02957889929282
 31
0.0
210
0.0
220
0.0
230
0.9999999999999998
 40
0.9986239999999998
 41
0.0
 42
6.283185307179585
  0
ELLIPSE
  5
189
330
1F
100
AcDbEntity
  8
1
100
AcDbEllipse
 10
410.096852
 20
294.704746
 30
0.0
 11
0.9634869193554024
 21
1.034109158203962
 31
0.0
210
0.0
220
0.0
230
1.0
 40
0.01483
 41
0.9819686316656028
 42
1.536779664268206
  0
ELLIPSE
  5
18A
330
1F
100
AcDbEntity
  8
1
100
AcDbEllipse
 10
413.9941639999999
 20
298.914705
 30
0.0
 11
2.9750967111536
 21
-1.049364758116642
 31
0.0
210
0.0
220
0.0
230
0.9999999999999998
 40
0.9986239999999998
 41
0.0
 42
6.283185307179585
  0
ELLIPSE
  5
18B
330
1F
100
AcDbEntity
  8
1
100
AcDbEllipse
 10
418.144042
 20
294.985467
 30
0.0
 11
1.03459353823049
 21
-0.9639382197361074
 31
0.0
210
0.0
220
0.0
230
1.0
 40
0.033998
 41
1.585610888157088
 42
2.140421920762558
  0
ELLIPSE
  5
18C
330
1F
100
AcDbEntity
  8
1
100
AcDbEllipse
 10
409.808879
 20
302.743559
 30
0.0
 11
1.034593537755297
 21
-0.963938219259456
 31
0.0
210
0.0
220
0.0
230
1.0
 40
0.033998
 41
1.030799854784484
 42
1.585610887633548
  0
ELLIPSE
  5
18D
330
1F
100
AcDbEntity
  8
1
100
AcDbEllipse
 10
417.856069
 20
303.02428
 30
0.0
 11
0.9634869176909578
 21
1.034109156422206
 31
0.0
210
0.0
220
0.0
230
0.9999999999999998
 40
0.01483
 41
1.536779664059778
 42
2.091590697582077
  0
ELLIPSE
  5
18E
330
1F
100
AcDbEntity
  8
1
100
AcDbEllipse
 10
413.9912859999999
 20
298.906546
 30
0.0
 11
-3.064934947397673
 21
1.081052157955599
 31
0.0
210
0.0
220
0.0
230
0.9999999999999998
 40
0.9986239999999998
 41
0.0
 42
6.283185307179585
  0
ELLIPSE
  5
18F
330
1F
100
AcDbEntity
  8
1
100
AcDbEllipse
 10
292.570218
 20
288.907996
 30
0.0
 11
378.8750850201355
 21
14.14026013457845
 31
0.0
210
0.0
220
0.0
230
1.0
 40
0.008472
 41
5.028778774003736
 42
5.045163347982983
  0
ELLIPSE
  5
190
330
1F
100
AcDbEntity
  8
1
100
AcDbEllipse
 10
417.743504
 20
280.93611
 30
0.0
 11
0.0538770024353608
 21
0.4991611425091308
 31
0.0
210
0.0
220
0.0
230
1.0
 40
0.139171
 41
1.583568179248167
 42
3.154364506042631
  0
ELLIPSE
  5
191
330
1F
100
AcDbEntity
  8
1
100
AcDbEllipse
 10
418.084138
 20
288.863042
 30
0.0
 11
0.0001758288822693
 21
-0.5000776676664238
 31
0.0
210
0.0
220
0.0
230
0.9999999999999998
 40
0.140519
 41
3.139090475969521
 42
4.709886802763086
  0
ELLIPSE
  5
192
330
1F
100
AcDbEntity
  8
1
100
AcDbEllipse
 10
315.5851370000001
 20
288.907994
 30
0.0
 11
48.90631927384291
 21
-11.34043050277023
 31
0.0
210
0.0
220
0.0
230
1.0
 40
0.184756
 41
4.264231806549271
 42
4.434993952460148
  0
ELLIPSE
  5
193
330
1F
100
AcDbEntity
  8
1
100
AcDbEllipse
 10
410.644686
 20
295.329038
 30
0.0
 11
-1.88611381378318
 21
0.6652628664342136
 31
0.0
210
0.0
220
0.0
230
1.0
 40
0.9986239999999998
 41
2.681012237838976
 42
2.813440321327925
  0
SPLINE
  5
19A
330
1F
100
AcDbEntity
  8
1
100
AcDbSpline
210
0.0
220
0.0
230
1.0
 70
     8
 71
     3
 72
     8
 73
     4
 74
     0
 42
0.000000001
 43
0.0000000001
 40
0.0
 40
0.0
 40
0.0
 40
0.0
 40
1.0
 40
1.0
 40
1.0
 40
1.0
 10
291.7038318185191
 20
274.5311335322007
 30
0.0
 10
291.4474913933997
 20
274.5443239166763
 30
0.0
 10
291.1943828360401
 20
274.5521248464761
 30
0.0
 10
290.9441330787483
 20
274.5551584483598
 30
0.0
  0
SPLINE
  5
19B
330
1F
100
AcDbEntity
  8
1
100
AcDbSpline
210
0.0
220
0.0
230
1.0
 70
     8
 71
     3
 72
    56
 73
    52
 74
     0
 42
0.000000001
 43
0.0000000001
 40
0.0
 40
0.0
 40
0.0
 40
0.0
 40
0.0312499999999985
 40
0.0312499999999985
 40
0.0624999999999971
 40
0.0624999999999971
 40
0.0937499999999956
 40
0.0937499999999956
 40
0.1249999999999941
 40
0.1249999999999941
 40
0.1874999999999912
 40
0.1874999999999912
 40
0.2187499999999898
 40
0.2187499999999898
 40
0.2499999999999883
 40
0.2812499999999868
 40
0.2812499999999868
 40
0.3124999999999853
 40
0.3124999999999853
 40
0.3749999999999822
 40
0.3749999999999822
 40
0.40624999999998
 40
0.40624999999998
 40
0.4374999999999777
 40
0.4687499999999755
 40
0.4687499999999755
 40
0.4999999999999732
 40
0.4999999999999732
 40
0.562499999999972
 40
0.562499999999972
 40
0.5937499999999718
 40
0.5937499999999718
 40
0.6249999999999718
 40
0.6562499999999718
 40
0.6562499999999718
 40
0.6874999999999718
 40
0.6874999999999718
 40
0.7499999999999744
 40
0.7499999999999744
 40
0.781249999999977
 40
0.781249999999977
 40
0.8124999999999797
 40
0.8437499999999824
 40
0.8437499999999824
 40
0.8749999999999849
 40
0.8749999999999849
 40
0.9374999999999912
 40
0.9374999999999912
 40
0.9687499999999955
 40
0.9687499999999955
 40
1.0
 40
1.0
 40
1.0
 40
1.0
 10
416.7978812802656
 20
284.1454935137087
 30
0.0
 10
416.7979139326377
 20
284.1145395293091
 30
0.0
 10
416.798143644231
 20
284.0842486150185
 30
0.0
 10
416.7989997290211
 20
284.0250014839525
 30
0.0
 10
416.7996252197323
 20
283.9961325986419
 30
0.0
 10
416.8012641734557
 20
283.940048629961
 30
0.0
 10
416.8022779889096
 20
283.9128078998551
 30
0.0
 10
416.8046936183706
 20
283.859926150129
 30
0.0
 10
416.8060966175396
 20
283.8342669531181
 30
0.0
 10
416.8108848927817
 20
283.7598267926925
 30
0.0
 10
416.8148261409483
 20
283.7138827293541
 30
0.0
 10
416.8218512739443
 20
283.6504398824478
 30
0.0
 10
416.8243833148562
 20
283.6301778610051
 30
0.0
 10
416.8297999057331
 20
283.59166285545
 30
0.0
 10
416.8355650338863
 20
283.5551678087338
 30
0.0
 10
416.8420221627037
 20
283.5226832738151
 30
0.0
 10
416.8488262804841
 20
283.4922097244356
 30
0.0
 10
416.8524071147936
 20
283.4779635327826
 30
0.0
 10
416.8636066520896
 20
283.4385062221297
 30
0.0
 10
416.8716946646354
 20
283.4164848664759
 30
0.0
 10
416.884757059701
 20
283.389863603733
 30
0.0
 10
416.8892746523266
 20
283.3820516624644
 30
0.0
 10
416.8985696127118
 20
283.3686717324337
 30
0.0
 10
416.9081288781968
 20
283.3575161690998
 30
0.0
 10
416.9182131070459
 20
283.3507786477413
 30
0.0
 10
416.928560657787
 20
283.3462572184977
 30
0.0
 10
416.9338741871069
 20
283.3451050094036
 30
0.0
 10
416.9501548237313
 20
283.3450143365543
 30
0.0
 10
416.9614294500441
 20
283.3494153707327
 30
0.0
 10
416.978970680383
 20
283.3626878178693
 30
0.0
 10
416.9849327036055
 20
283.3682384959649
 30
0.0
 10
416.9970103538632
 20
283.3815296895211
 30
0.0
 10
417.0092417939959
 20
283.3970022358987
 30
0.0
 10
417.0217793003423
 20
283.4168160199496
 30
0.0
 10
417.0344706420767
 20
283.4388118023813
 30
0.0
 10
417.0409021657993
 20
283.4509207836531
 30
0.0
 10
417.0603161677646
 20
283.4903265331378
 30
0.0
 10
417.073443084907
 20
283.5207252108856
 30
0.0
 10
417.0934108447103
 20
283.5725381317436
 30
0.0
 10
417.1001171643153
 20
283.5908623504869
 30
0.0
 10
417.1135372898194
 20
283.6293618392156
 30
0.0
 10
417.1269855294477
 20
283.6697630882221
 30
0.0
 10
417.1404899037171
 20
283.7139615258517
 30
0.0
 10
417.1540225870416
 20
283.7600749097367
 30
0.0
 10
417.1607971560763
 20
283.7840722314863
 30
0.0
 10
417.1810336713893
 20
283.8584817802695
 30
0.0
 10
417.1944501332596
 20
283.9114421693367
 30
0.0
 10
417.2144618643356
 20
283.995965042791
 30
0.0
 10
417.2210920472356
 20
284.0248991952973
 30
0.0
 10
417.2342396664885
 20
284.0841363540061
 30
0.0
 10
417.2407623018997
 20
284.114461253428
 30
0.0
 10
417.2472336876898
 20
284.1454935136939
 30
0.0
  0
SPLINE
  5
19C
330
1F
100
AcDbEntity
  8
1
100
AcDbSpline
210
0.0
220
0.0
230
1.0
 70
     8
 71
     3
 72
   118
 73
   114
 74
     0
 42
0.000000001
 43
0.0000000001
 40
0.0
 40
0.0
 40
0.0
 40
0.0
 40
0.0156249999999991
 40
0.0156249999999991
 40
0.0312499999999981
 40
0.0312499999999981
 40
0.0468749999999972
 40
0.0468749999999972
 40
0.0624999999999963
 40
0.0781249999999953
 40
0.0781249999999953
 40
0.0937499999999944
 40
0.0937499999999944
 40
0.1093749999999935
 40
0.1093749999999935
 40
0.1249999999999927
 40
0.1249999999999927
 40
0.1562499999999911
 40
0.1562499999999911
 40
0.1874999999999896
 40
0.1874999999999896
 40
0.2031249999999888
 40
0.2031249999999888
 40
0.2187499999999881
 40
0.2187499999999881
 40
0.2343749999999873
 40
0.2343749999999873
 40
0.2499999999999866
 40
0.2656249999999858
 40
0.2656249999999858
 40
0.281249999999985
 40
0.281249999999985
 40
0.2968749999999843
 40
0.2968749999999843
 40
0.3124999999999835
 40
0.3124999999999835
 40
0.3281249999999827
 40
0.3281249999999827
 40
0.343749999999982
 40
0.343749999999982
 40
0.3749999999999811
 40
0.3749999999999811
 40
0.390624999999981
 40
0.390624999999981
 40
0.4062499999999809
 40
0.4062499999999809
 40
0.4218749999999807
 40
0.4218749999999807
 40
0.4374999999999806
 40
0.4374999999999806
 40
0.4531249999999803
 40
0.4531249999999803
 40
0.4687499999999802
 40
0.48437499999998
 40
0.48437499999998
 40
0.4999999999999798
 40
0.4999999999999798
 40
0.5156249999999797
 40
0.5156249999999797
 40
0.5312499999999795
 40
0.5312499999999795
 40
0.5624999999999798
 40
0.5624999999999798
 40
0.5937499999999803
 40
0.5937499999999803
 40
0.6093749999999807
 40
0.6093749999999807
 40
0.6249999999999813
 40
0.6249999999999813
 40
0.6406249999999817
 40
0.6406249999999817
 40
0.6562499999999823
 40
0.6718749999999828
 40
0.6718749999999828
 40
0.6874999999999833
 40
0.6874999999999833
 40
0.7031249999999839
 40
0.7031249999999839
 40
0.7187499999999842
 40
0.7187499999999842
 40
0.7343749999999849
 40
0.7343749999999849
 40
0.7499999999999853
 40
0.7499999999999853
 40
0.7812499999999866
 40
0.7812499999999866
 40
0.7968749999999871
 40
0.7968749999999871
 40
0.8124999999999875
 40
0.8124999999999875
 40
0.8281249999999879
 40
0.8281249999999879
 40
0.8437499999999886
 40
0.8437499999999886
 40
0.8515624999999889
 40
0.8515624999999889
 40
0.8593749999999891
 40
0.8593749999999891
 40
0.8749999999999898
 40
0.8749999999999898
 40
0.9062499999999912
 40
0.9062499999999912
 40
0.9218749999999921
 40
0.9218749999999921
 40
0.9296874999999925
 40
0.9296874999999925
 40
0.9374999999999932
 40
0.9374999999999932
 40
0.9687499999999966
 40
0.9687499999999966
 40
0.9843749999999982
 40
0.9843749999999982
 40
1.0
 40
1.0
 40
1.0
 40
1.0
 10
417.2472336876898
 20
284.1454935136939
 30
0.0
 10
417.2510247411991
 20
284.1827106710919
 30
0.0
 10
417.2546449575423
 20
284.2210153493601
 30
0.0
 10
417.2614831336266
 20
284.299172907663
 30
0.0
 10
417.2647037555854
 20
284.3390393531398
 30
0.0
 10
417.2707500471329
 20
284.4203397193849
 30
0.0
 10
417.2735762582005
 20
284.4617823179152
 30
0.0
 10
417.2788277731628
 20
284.5462147157967
 30
0.0
 10
417.2836499353251
 20
284.6317335546816
 30
0.0
 10
417.2876228616118
 20
284.7194013132367
 30
0.0
 10
417.2911697313438
 20
284.8081471719243
 30
0.0
 10
417.2927291382556
 20
284.8530647571161
 30
0.0
 10
417.2953978182214
 20
284.9432843772504
 30
0.0
 10
417.2965108327161
 20
284.9886723438128
 30
0.0
 10
417.2982953339198
 20
285.0800031783292
 30
0.0
 10
417.2989674420604
 20
285.1260341602056
 30
0.0
 10
417.3003077306333
 20
285.2642216333649
 30
0.0
 10
417.3003067736367
 20
285.3564018507057
 30
0.0
 10
417.2985194430081
 20
285.5408725367153
 30
0.0
 10
417.2967410211184
 20
285.6322300235962
 30
0.0
 10
417.2927653167857
 20
285.7677142644258
 30
0.0
 10
417.2912189399012
 20
285.8126635609985
 30
0.0
 10
417.2877109672496
 20
285.9014117891738
 30
0.0
 10
417.2857474247926
 20
285.9452914891294
 30
0.0
 10
417.2814029590885
 20
286.0320661459087
 30
0.0
 10
417.2790175975395
 20
286.0750314524178
 30
0.0
 10
417.2738475806501
 20
286.1596113909741
 30
0.0
 10
417.2682866604116
 20
286.2427342543645
 30
0.0
 10
417.2619507754456
 20
286.3229684705706
 30
0.0
 10
417.2552253139895
 20
286.4017505574214
 30
0.0
 10
417.2516772980916
 20
286.4402969645669
 30
0.0
 10
417.2442396517493
 20
286.5154372665813
 30
0.0
 10
417.2403462606984
 20
286.5520756592998
 30
0.0
 10
417.2322100040816
 20
286.6234871200446
 30
0.0
 10
417.2279610838093
 20
286.6582999716153
 30
0.0
 10
417.2191709611143
 20
286.7255799692669
 30
0.0
 10
417.2146242795098
 20
286.758101405615
 30
0.0
 10
417.2052286563888
 20
286.8209143876462
 30
0.0
 10
417.2003731259338
 20
286.8512438352505
 30
0.0
 10
417.1853939152098
 20
286.9385875016039
 30
0.0
 10
417.1749082956502
 20
286.9917130305402
 30
0.0
 10
417.158431099512
 20
287.0637505675741
 30
0.0
 10
417.1528227818436
 20
287.0864364837071
 30
0.0
 10
417.1414327570694
 20
287.1289368643001
 30
0.0
 10
417.1356428313262
 20
287.148787995986
 30
0.0
 10
417.1238726512974
 20
287.1856847449777
 30
0.0
 10
417.1178824901503
 20
287.2027523017769
 30
0.0
 10
417.1057875080716
 20
287.2338459943302
 30
0.0
 10
417.0996769528347
 20
287.2478957560413
 30
0.0
 10
417.087329910491
 20
287.2730057756598
 30
0.0
 10
417.0810881138287
 20
287.284073981583
 30
0.0
 10
417.0684998700801
 20
287.3031489321939
 30
0.0
 10
417.0558531537159
 20
287.3190980873956
 30
0.0
 10
417.0430901882906
 20
287.3288328672439
 30
0.0
 10
417.0302686187405
 20
287.3354348215629
 30
0.0
 10
417.0238335191696
 20
287.3371599463969
 30
0.0
 10
417.0109982064769
 20
287.3374416689554
 30
0.0
 10
417.0045866091443
 20
287.3360053678941
 30
0.0
 10
416.991775575954
 20
287.3299671319366
 30
0.0
 10
416.9853644136483
 20
287.3253513445759
 30
0.0
 10
416.9662650845736
 20
287.3067974081849
 30
0.0
 10
416.9536964566541
 20
287.288192654595
 30
0.0
 10
416.9289060627394
 20
287.2383963630886
 30
0.0
 10
416.9168197619864
 20
287.2074795144992
 30
0.0
 10
416.899154091109
 20
287.1520676931543
 30
0.0
 10
416.8933430920962
 20
287.1320764556923
 30
0.0
 10
416.8819658165028
 20
287.0893632941811
 30
0.0
 10
416.8763880846231
 20
287.0666077515068
 30
0.0
 10
416.8654548849653
 20
287.0182930374416
 30
0.0
 10
416.8600894640654
 20
286.9926805970489
 30
0.0
 10
416.8496410738729
 20
286.9389046911864
 30
0.0
 10
416.839477859935
 20
286.8826112961031
 30
0.0
 10
416.8298827949211
 20
286.8213023754588
 30
0.0
 10
416.820574830649
 20
286.7574589765389
 30
0.0
 10
416.8160860474923
 20
286.7244157176079
 30
0.0
 10
416.8074528075554
 20
286.6562259433826
 30
0.0
 10
416.8033055501045
 20
286.6210602713044
 30
0.0
 10
416.7953512938638
 20
286.5485776609471
 30
0.0
 10
416.7915419972661
 20
286.511224801882
 30
0.0
 10
416.784323385139
 20
286.4349354527973
 30
0.0
 10
416.7809063307945
 20
286.3959336640254
 30
0.0
 10
416.7744560907419
 20
286.3162186881541
 30
0.0
 10
416.7714180157976
 20
286.2754317126352
 30
0.0
 10
416.7629241799832
 20
286.15102806032
 30
0.0
 10
416.7580985630957
 20
286.065625998677
 30
0.0
 10
416.7521141822462
 20
285.9338274913914
 30
0.0
 10
416.7503359267213
 20
285.8894119932926
 30
0.0
 10
416.7472224364538
 20
285.7999723957913
 30
0.0
 10
416.7458847328154
 20
285.7548947856014
 30
0.0
 10
416.7436477161526
 20
285.6640234398291
 30
0.0
 10
416.7427481510431
 20
285.6181659887506
 30
0.0
 10
416.7414012611479
 20
285.5263997099188
 30
0.0
 10
416.7409516246001
 20
285.4804220710294
 30
0.0
 10
416.7406111986184
 20
285.4113145744252
 30
0.0
 10
416.7405534449382
 20
285.3882552146603
 30
0.0
 10
416.7405497020121
 20
285.3420893044077
 30
0.0
 10
416.7406039176533
 20
285.3189495564085
 30
0.0
 10
416.7409336550743
 20
285.2497454793318
 30
0.0
 10
416.7413751330705
 20
285.2039136450794
 30
0.0
 10
416.7433462386338
 20
285.0673056941634
 30
0.0
 10
416.7455196116738
 20
284.9774131132891
 30
0.0
 10
416.7500521285807
 20
284.8443206800559
 30
0.0
 10
416.751775786024
 20
284.8002486273898
 30
0.0
 10
416.7546852068806
 20
284.7345851463036
 30
0.0
 10
416.7557090505988
 20
284.7127714843272
 30
0.0
 10
416.7578661933177
 20
284.6692943869211
 30
0.0
 10
416.7589995273806
 20
284.6476346129338
 30
0.0
 10
416.7649084765322
 20
284.5403258950424
 30
0.0
 10
416.7704311958288
 20
284.4571399157135
 30
0.0
 10
416.7799071326048
 20
284.3363474817507
 30
0.0
 10
416.7832522077036
 20
284.29691926674
 30
0.0
 10
416.7902972494166
 20
284.2198822964677
 30
0.0
 10
416.7939993574603
 20
284.1822461677949
 30
0.0
 10
416.797881280264
 20
284.1454935137087
 30
0.0
  0
SPLINE
  5
19D
330
1F
100
AcDbEntity
  8
1
100
AcDbSpline
210
0.0
220
0.0
230
1.0
 70
     8
 71
     3
 72
     8
 73
     4
 74
     0
 42
0.000000001
 43
0.0000000001
 40
0.0
 40
0.0
 40
0.0
 40
0.0
 40
1.0
 40
1.0
 40
1.0
 40
1.0
 10
403.7264229832714
 20
294.8199133571032
 30
0.0
 10
403.7236138854972
 20
294.8216148343263
 30
0.0
 10
403.7208091327752
 20
294.8233224501592
 30
0.0
 10
403.7180087845736
 20
294.8250362168957
 30
0.0
  0
SPLINE
  5
19E
330
1F
100
AcDbEntity
  8
1
100
AcDbSpline
210
0.0
220
0.0
230
1.0
 70
     8
 71
     3
 72
     8
 73
     4
 74
     0
 42
0.000000001
 43
0.0000000001
 40
0.0
 40
0.0
 40
0.0
 40
0.0
 40
1.0
 40
1.0
 40
1.0
 40
1.0
 10
413.2502232427651
 20
299.6976887730174
 30
0.0
 10
413.2477247995939
 20
299.6892956507776
 30
0.0
 10
413.2450293347097
 20
299.680976171337
 30
0.0
 10
413.2421356534996
 20
299.672729948471
 30
0.0
  0
SPLINE
  5
19F
330
1F
100
AcDbEntity
  8
1
100
AcDbSpline
210
0.0
220
0.0
230
1.0
 70
     8
 71
     3
 72
    22
 73
    18
 74
     0
 42
0.000000001
 43
0.0000000001
 40
0.0
 40
0.0
 40
0.0
 40
0.0
 40
0.125
 40
0.125
 40
0.2499999999999999
 40
0.2499999999999999
 40
0.3749999999999999
 40
0.3749999999999999
 40
0.4999999999999999
 40
0.4999999999999999
 40
0.6249999999999999
 40
0.6249999999999999
 40
0.75
 40
0.75
 40
0.875
 40
0.875
 40
1.0
 40
1.0
 40
1.0
 40
1.0
 10
413.3102321893412
 20
297.7805467624778
 30
0.0
 10
413.3075635951448
 20
297.775491082014
 30
0.0
 10
413.3044839352394
 20
297.7706764278703
 30
0.0
 10
413.2976340206511
 20
297.7616812297333
 30
0.0
 10
413.2938516229317
 20
297.7574757436768
 30
0.0
 10
413.2855517455096
 20
297.7496667062143
 30
0.0
 10
413.2810285041026
 20
297.7460726172343
 30
0.0
 10
413.2715369896273
 20
297.739755161568
 30
0.0
 10
413.2665338499821
 20
297.7369953348098
 30
0.0
 10
413.2559913331016
 20
297.7323097388774
 30
0.0
 10
413.2504693246058
 20
297.7304032309557
 30
0.0
 10
413.2392698378921
 20
297.727593734335
 30
0.0
 10
413.2335464648016
 20
297.7266680438353
 30
0.0
 10
413.2218393747908
 20
297.7258311998125
 30
0.0
 10
413.2159447093303
 20
297.7259338284408
 30
0.0
 10
413.2043208041562
 20
297.7271709961481
 30
0.0
 10
413.198553206162
 20
297.728301936417
 30
0.0
 10
413.1928331633181
 20
297.7299785486309
 30
0.0
  0
SPLINE
  5
1A0
330
1F
100
AcDbEntity
  8
1
100
AcDbSpline
210
0.0
220
0.0
230
1.0
 70
     8
 71
     3
 72
    20
 73
    16
 74
     0
 42
0.000000001
 43
0.0000000001
 40
0.0
 40
0.0
 40
0.0
 40
0.0
 40
0.1250000000000244
 40
0.1250000000000244
 40
0.2500000000000488
 40
0.2500000000000488
 40
0.3750000000000733
 40
0.3750000000000733
 40
0.5000000000000977
 40
0.5000000000000977
 40
0.6250000000001223
 40
0.6250000000001223
 40
0.7500000000001468
 40
0.7500000000001468
 40
1.0
 40
1.0
 40
1.0
 40
1.0
 10
413.9759530366625
 20
297.5494107311746
 30
0.0
 10
413.9700764055993
 20
297.5504076172719
 30
0.0
 10
413.9643905520706
 20
297.5519180044161
 30
0.0
 10
413.9533803096742
 20
297.5559098776573
 30
0.0
 10
413.9480062985184
 20
297.5584233987953
 30
0.0
 10
413.9379094264699
 20
297.5642875085279
 30
0.0
 10
413.9331949990801
 20
297.5676182773952
 30
0.0
 10
413.9244016919958
 20
297.5750363009822
 30
0.0
 10
413.9202903975288
 20
297.5791648565559
 30
0.0
 10
413.9128931955315
 20
297.5880006661275
 30
0.0
 10
413.9096266657626
 20
297.5926684217167
 30
0.0
 10
413.9039133180663
 20
297.6024760990132
 30
0.0
 10
413.9014571443462
 20
297.6076421129822
 30
0.0
 10
413.8954213388253
 20
297.6236995073893
 30
0.0
 10
413.8932552488764
 20
297.6347678095022
 30
0.0
 10
413.8929246067461
 20
297.6461924935598
 30
0.0
  0
SPLINE
  5
1A1
330
1F
100
AcDbEntity
  8
1
100
AcDbSpline
210
0.0
220
0.0
230
1.0
 70
     8
 71
     3
 72
    14
 73
    10
 74
     0
 42
0.000000001
 43
0.0000000001
 40
0.0
 40
0.0
 40
0.0
 40
0.0
 40
0.25
 40
0.25
 40
0.5
 40
0.5
 40
0.75
 40
0.75
 40
1.0
 40
1.0
 40
1.0
 40
1.0
 10
413.3102321893418
 20
297.7805467624788
 30
0.0
 10
413.313570626578
 20
297.7868714678006
 30
0.0
 10
413.3175635371126
 20
297.7928403881551
 30
0.0
 10
413.3266634916487
 20
297.8037985349656
 30
0.0
 10
413.3317285834191
 20
297.8087551820213
 30
0.0
 10
413.3429021532458
 20
297.8176137597603
 30
0.0
 10
413.3490507372788
 20
297.821516363021
 30
0.0
 10
413.3618994478211
 20
297.8278600140491
 30
0.0
 10
413.3686569582376
 20
297.8303581378123
 30
0.0
 10
413.3757785873401
 20
297.8321245744629
 30
0.0
  0
SPLINE
  5
1A2
330
1F
100
AcDbEntity
  8
1
100
AcDbSpline
210
0.0
220
0.0
230
1.0
 70
     8
 71
     3
 72
    14
 73
    10
 74
     0
 42
0.000000001
 43
0.0000000001
 40
0.0
 40
0.0
 40
0.0
 40
0.0
 40
0.25
 40
0.25
 40
0.5
 40
0.5
 40
0.75
 40
0.75
 40
1.0
 40
1.0
 40
1.0
 40
1.0
 10
413.8568530427335
 20
297.7212008609916
 30
0.0
 10
413.8624693586454
 20
297.7164945655132
 30
0.0
 10
413.8675325485463
 20
297.7111819449389
 30
0.0
 10
413.8762743113963
 20
297.6998073217018
 30
0.0
 10
413.8799788643446
 20
297.6937419641584
 30
0.0
 10
413.8860993156127
 20
297.6808760250255
 30
0.0
 10
413.8884919024678
 20
297.6740723425889
 30
0.0
 10
413.8917809528292
 20
297.6603404326338
 30
0.0
 10
413.8927178258712
 20
297.6533373972083
 30
0.0
 10
413.8929246067461
 20
297.6461924935598
 30
0.0
  0
SPLINE
  5
1A3
330
1F
100
AcDbEntity
  8
1
100
AcDbSpline
210
0.0
220
0.0
230
1.0
 70
     8
 71
     3
 72
    21
 73
    17
 74
     0
 42
0.000000001
 43
0.0000000001
 40
0.0
 40
0.0
 40
0.0
 40
0.0
 40
0.2499999999999731
 40
0.2499999999999731
 40
0.3124999999999651
 40
0.3124999999999651
 40
0.3749999999999573
 40
0.3749999999999573
 40
0.4999999999999414
 40
0.6249999999999254
 40
0.6249999999999254
 40
0.6874999999999214
 40
0.6874999999999214
 40
0.7499999999999173
 40
0.7499999999999173
 40
1.0
 40
1.0
 40
1.0
 40
1.0
 10
413.192833163318
 20
297.7299785486309
 30
0.0
 10
413.1516887189468
 20
297.7420384719307
 30
0.0
 10
413.1124989176972
 20
297.7586698890719
 30
0.0
 10
413.0659584114444
 20
297.7851681034986
 30
0.0
 10
413.0567558307464
 20
297.7907704235974
 30
0.0
 10
413.0388061146621
 20
297.8024297732651
 30
0.0
 10
413.0300361581273
 20
297.8084982793001
 30
0.0
 10
413.004329822833
 20
297.8274072246485
 30
0.0
 10
412.9716602482557
 20
297.8544904169898
 30
0.0
 10
412.9421800497366
 20
297.8852906494045
 30
0.0
 10
412.9213058668575
 20
297.9098313497961
 30
0.0
 10
412.914569788812
 20
297.9182377929774
 30
0.0
 10
412.9016853233123
 20
297.9353102850328
 30
0.0
 10
412.8955147063348
 20
297.9440019035403
 30
0.0
 10
412.8659953068458
 20
297.9882228224261
 30
0.0
 10
412.8465950709818
 20
298.0260106721307
 30
0.0
 10
412.8315240808444
 20
298.0662729967722
 30
0.0
  0
SPLINE
  5
1A4
330
1F
100
AcDbEntity
  8
1
100
AcDbSpline
210
0.0
220
0.0
230
1.0
 70
     8
 71
     3
 72
    21
 73
    17
 74
     0
 42
0.000000001
 43
0.0000000001
 40
0.0
 40
0.0
 40
0.0
 40
0.0
 40
0.2499999999995637
 40
0.2499999999995637
 40
0.312499999999535
 40
0.312499999999535
 40
0.3749999999995063
 40
0.3749999999995063
 40
0.4999999999996071
 40
0.6249999999997079
 40
0.6249999999997079
 40
0.6874999999997567
 40
0.6874999999997567
 40
0.7499999999998054
 40
0.7499999999998054
 40
1.0
 40
1.0
 40
1.0
 40
1.0
 10
413.3757785873401
 20
297.8321245744629
 30
0.0
 10
413.417099818166
 20
297.8423738215843
 30
0.0
 10
413.4590761606826
 20
297.847799775766
 30
0.0
 10
413.512454068195
 20
297.8484069038207
 30
0.0
 10
413.5231755393811
 20
297.8482155299417
 30
0.0
 10
413.5447146214306
 20
297.8471864276191
 30
0.0
 10
413.5555580836343
 20
297.8463436908484
 30
0.0
 10
413.5877514142697
 20
297.8428688522055
 30
0.0
 10
413.6300678858471
 20
297.8357164255175
 30
0.0
 10
413.6711948441782
 20
297.8236366448596
 30
0.0
 10
413.7015864833919
 20
297.812697263825
 30
0.0
 10
413.7116769505653
 20
297.8087209433216
 30
0.0
 10
413.7315147180681
 20
297.800208128157
 30
0.0
 10
413.7412443317749
 20
297.7956823423582
 30
0.0
 10
413.7889808480156
 20
297.77175002959
 30
0.0
 10
413.8242896921862
 20
297.748487921023
 30
0.0
 10
413.8568530427335
 20
297.7212008609916
 30
0.0
  0
SPLINE
  5
1A5
330
1F
100
AcDbEntity
  8
1
100
AcDbSpline
210
0.0
220
0.0
230
1.0
 70
     8
 71
     3
 72
    10
 73
     6
 74
     0
 42
0.000000001
 43
0.0000000001
 40
0.0
 40
0.0
 40
0.0
 40
0.0
 40
0.6016747911507221
 40
0.6016747911507221
 40
1.0
 40
1.0
 40
1.0
 40
1.0
 10
412.8315240808444
 20
298.0662729967722
 30
0.0
 10
412.8294263703462
 20
298.071877054655
 30
0.0
 10
412.8278637923541
 20
298.0775790510218
 30
0.0
 10
412.8261080212641
 20
298.0872095261976
 30
0.0
 10
412.8256316228908
 20
298.0911121959124
 30
0.0
 10
412.8253818692615
 20
298.0950174101
 30
0.0
  0
SPLINE
  5
1A6
330
1F
100
AcDbEntity
  8
1
100
AcDbSpline
210
0.0
220
0.0
230
1.0
 70
     8
 71
     3
 72
    21
 73
    17
 74
     0
 42
0.000000001
 43
0.0000000001
 40
0.0
 40
0.0
 40
0.0
 40
0.0
 40
0.2500000000001514
 40
0.2500000000001514
 40
0.3125000000001879
 40
0.3125000000001879
 40
0.3750000000002245
 40
0.3750000000002245
 40
0.5000000000001484
 40
0.6250000000000722
 40
0.6250000000000722
 40
0.6875000000000331
 40
0.6875000000000331
 40
0.7499999999999943
 40
0.7499999999999943
 40
1.0
 40
1.0
 40
1.0
 40
1.0
 10
414.4478893531537
 20
297.6935796718196
 30
0.0
 10
414.4166836482574
 20
297.6639857088314
 30
0.0
 10
414.3825440101732
 20
297.6383819683979
 30
0.0
 10
414.3362047524344
 20
297.6113644959373
 30
0.0
 10
414.3267303089633
 20
297.6062044188951
 30
0.0
 10
414.3076214058339
 20
297.5965072164097
 30
0.0
 10
414.2979655682673
 20
297.5919561019606
 30
0.0
 10
414.2686994076703
 20
297.5791789624261
 30
0.0
 10
414.2288833143902
 20
297.5644738740365
 30
0.0
 10
414.1874890843578
 20
297.5543984634768
 30
0.0
 10
414.155831774347
 20
297.548636374108
 30
0.0
 10
414.1451972897987
 20
297.547021592103
 30
0.0
 10
414.1240030585477
 20
297.5444316315472
 30
0.0
 10
414.1134100553305
 20
297.5434500264053
 30
0.0
 10
414.0604654393491
 20
297.5400807082337
 30
0.0
 10
414.0181739611064
 20
297.5422485574488
 30
0.0
 10
413.9759530366625
 20
297.5494107311746
 30
0.0
  0
SPLINE
  5
1A7
330
1F
100
AcDbEntity
  8
1
100
AcDbSpline
210
0.0
220
0.0
230
1.0
 70
     8
 71
     3
 72
     8
 73
     4
 74
     0
 42
0.000000001
 43
0.0000000001
 40
0.0
 40
0.0
 40
0.0
 40
0.0
 40
1.0
 40
1.0
 40
1.0
 40
1.0
 10
412.9186436198163
 20
298.2576105616319
 30
0.0
 10
412.9176662155812
 20
298.2517333855749
 30
0.0
 10
412.9161701956763
 20
298.2459647327456
 30
0.0
 10
412.9142231611536
 20
298.2404313809765
 30
0.0
  0
SPLINE
  5
1A8
330
1F
100
AcDbEntity
  8
1
100
AcDbSpline
210
0.0
220
0.0
230
1.0
 70
     8
 71
     3
 72
    21
 73
    17
 74
     0
 42
0.000000001
 43
0.0000000001
 40
0.0
 40
0.0
 40
0.0
 40
0.0
 40
0.2499999999999941
 40
0.2499999999999941
 40
0.3125000000000194
 40
0.3125000000000194
 40
0.3750000000000446
 40
0.3750000000000446
 40
0.5000000000000398
 40
0.6250000000000349
 40
0.6250000000000349
 40
0.6875000000000325
 40
0.6875000000000325
 40
0.7500000000000301
 40
0.7500000000000301
 40
1.0
 40
1.0
 40
1.0
 40
1.0
 10
412.7739123871291
 20
298.7291659186448
 30
0.0
 10
412.8031548381687
 20
298.6989264473882
 30
0.0
 10
412.8286106460549
 20
298.6656339482631
 30
0.0
 10
412.8556336258336
 20
298.6200308636418
 30
0.0
 10
412.8607951923183
 20
298.6107083575289
 30
0.0
 10
412.8706171243393
 20
298.5916446679424
 30
0.0
 10
412.8752861511354
 20
298.5818784908442
 30
0.0
 10
412.8883223541886
 20
298.5523771271276
 30
0.0
 10
412.9032634373343
 20
298.512254140225
 30
0.0
 10
412.9134327968001
 20
298.4705888188003
 30
0.0
 10
412.9192391595336
 20
298.4387520919836
 30
0.0
 10
412.9208746989401
 20
298.4280027819418
 30
0.0
 10
412.9234996798752
 20
298.4065075307305
 30
0.0
 10
412.9244893770581
 20
298.3957827287554
 30
0.0
 10
412.9278773690204
 20
298.3422664269974
 30
0.0
 10
412.9256590313216
 20
298.2997945496334
 30
0.0
 10
412.9186436198163
 20
298.2576105616319
 30
0.0
  0
SPLINE
  5
1A9
330
1F
100
AcDbEntity
  8
1
100
AcDbSpline
210
0.0
220
0.0
230
1.0
 70
     8
 71
     3
 72
    14
 73
    10
 74
     0
 42
0.000000001
 43
0.0000000001
 40
0.0
 40
0.0
 40
0.0
 40
0.0
 40
0.2500000000000001
 40
0.2500000000000001
 40
0.5000000000000002
 40
0.5000000000000002
 40
0.7500000000000001
 40
0.7500000000000001
 40
1.0
 40
1.0
 40
1.0
 40
1.0
 10
412.6973003422246
 20
298.75903969759
 30
0.0
 10
412.7043675238181
 20
298.7594111701548
 30
0.0
 10
412.7114547497077
 20
298.7590387595328
 30
0.0
 10
412.7253407648273
 20
298.7568361511782
 30
0.0
 10
412.7320918239807
 20
298.7550252371258
 30
0.0
 10
412.7452083383967
 20
298.7499671368496
 30
0.0
 10
412.7515935499136
 20
298.7466861608909
 30
0.0
 10
412.7633867822063
 20
298.7389016493185
 30
0.0
 10
412.7688722109259
 20
298.7343779394573
 30
0.0
 10
412.7739123871292
 20
298.7291659186448
 30
0.0
  0
SPLINE
  5
1AA
330
1F
100
AcDbEntity
  8
1
100
AcDbSpline
210
0.0
220
0.0
230
1.0
 70
     8
 71
     3
 72
    22
 73
    18
 74
     0
 42
0.000000001
 43
0.0000000001
 40
0.0
 40
0.0
 40
0.0
 40
0.0
 40
0.125
 40
0.125
 40
0.25
 40
0.25
 40
0.375
 40
0.375
 40
0.5
 40
0.5
 40
0.625
 40
0.625
 40
0.75
 40
0.75
 40
0.875
 40
0.875
 40
1.0
 40
1.0
 40
1.0
 40
1.0
 10
412.6973003422246
 20
298.75903969759
 30
0.0
 10
412.6916509521192
 20
298.7587427484592
 30
0.0
 10
412.6860041122537
 20
298.758922031124
 30
0.0
 10
412.6749118702377
 20
298.7601979689086
 30
0.0
 10
412.6694390031704
 20
298.7612922654383
 30
0.0
 10
412.6586450457221
 20
298.7644197025263
 30
0.0
 10
412.6533288881447
 20
298.7664627413762
 30
0.0
 10
412.643222257614
 20
298.771376114575
 30
0.0
 10
412.6383832932063
 20
298.7742577041622
 30
0.0
 10
412.6291546779406
 20
298.7809073245281
 30
0.0
 10
412.6247898095918
 20
298.784670555913
 30
0.0
 10
412.6168432886205
 20
298.7928430849599
 30
0.0
 10
412.6132194184641
 20
298.7972801851935
 30
0.0
 10
412.6067125092176
 20
298.8068957583021
 30
0.0
 10
412.60388504504
 20
298.812005368021
 30
0.0
 10
412.5991968802093
 20
298.8226090098996
 30
0.0
 10
412.5973139986576
 20
298.8281342837593
 30
0.0
 10
412.5959224949771
 20
298.8338971499956
 30
0.0
  0
SPLINE
  5
1AB
330
1F
100
AcDbEntity
  8
1
100
AcDbSpline
210
0.0
220
0.0
230
1.0
 70
     8
 71
     3
 72
    21
 73
    17
 74
     0
 42
0.000000001
 43
0.0000000001
 40
0.0
 40
0.0
 40
0.0
 40
0.0
 40
0.20848289394174
 40
0.20848289394174
 40
0.2744426527799039
 40
0.2744426527799039
 40
0.3404024116180679
 40
0.3404024116180679
 40
0.4723219292942956
 40
0.6042414469705231
 40
0.6042414469705231
 40
0.6702012058087011
 40
0.6702012058087011
 40
0.7361609646468792
 40
0.7361609646468792
 40
1.0
 40
1.0
 40
1.0
 40
1.0
 10
414.4622494163286
 20
297.9291494699714
 30
0.0
 10
414.4733947415737
 20
297.960907062975
 30
0.0
 10
414.4873067843987
 20
297.9914983332874
 30
0.0
 10
414.5093364722004
 20
298.0302318208575
 30
0.0
 10
414.5149173582193
 20
298.0394226555684
 30
0.0
 10
414.5266708037348
 20
298.0575607155206
 30
0.0
 10
414.5328606917606
 20
298.0665278834901
 30
0.0
 10
414.5520548767505
 20
298.0926586685129
 30
0.0
 10
414.5794548884983
 20
298.1256985633019
 30
0.0
 10
414.6103878928308
 20
298.1552149413574
 30
0.0
 10
414.6349362923535
 20
298.1760085095636
 30
0.0
 10
414.6433757492894
 20
298.1827380989011
 30
0.0
 10
414.6605521990641
 20
298.1956169448517
 30
0.0
 10
414.669271101031
 20
298.2017561719786
 30
0.0
 10
414.7135012103978
 20
298.2310037102718
 30
0.0
 10
414.7508913737023
 20
298.2498254415512
 30
0.0
 10
414.790298865893
 20
298.2642377281953
 30
0.0
  0
SPLINE
  5
1AC
330
1F
100
AcDbEntity
  8
1
100
AcDbSpline
210
0.0
220
0.0
230
1.0
 70
     8
 71
     3
 72
    14
 73
    10
 74
     0
 42
0.000000001
 43
0.0000000001
 40
0.0
 40
0.0
 40
0.0
 40
0.0
 40
0.25
 40
0.25
 40
0.5
 40
0.5
 40
0.75
 40
0.75
 40
1.0
 40
1.0
 40
1.0
 40
1.0
 10
414.790298865893
 20
298.2642377281953
 30
0.0
 10
414.7970955475797
 20
298.2667234414251
 30
0.0
 10
414.8041299089318
 20
298.268424832165
 30
0.0
 10
414.8181416125343
 20
298.2702518442345
 30
0.0
 10
414.825135848552
 20
298.2703984365306
 30
0.0
 10
414.8391060398339
 20
298.2692058558737
 30
0.0
 10
414.8460712641834
 20
298.2678452325651
 30
0.0
 10
414.8593624116551
 20
298.2637670402194
 30
0.0
 10
414.8657718607139
 20
298.2610466102786
 30
0.0
 10
414.871938049163
 20
298.2576227397706
 30
0.0
  0
SPLINE
  5
1AD
330
1F
100
AcDbEntity
  8
1
100
AcDbSpline
210
0.0
220
0.0
230
1.0
 70
     8
 71
     3
 72
    20
 73
    16
 74
     0
 42
0.000000001
 43
0.0000000001
 40
0.0
 40
0.0
 40
0.0
 40
0.0
 40
0.1249999999999333
 40
0.1249999999999333
 40
0.2499999999998666
 40
0.2499999999998666
 40
0.3749999999997998
 40
0.3749999999997998
 40
0.4999999999997331
 40
0.4999999999997331
 40
0.6249999999996664
 40
0.6249999999996664
 40
0.7499999999995996
 40
0.7499999999995996
 40
1.0
 40
1.0
 40
1.0
 40
1.0
 10
414.9954076406308
 20
298.2806360075866
 30
0.0
 10
414.9916383385438
 20
298.276056529179
 30
0.0
 10
414.9875273793418
 20
298.2719007516769
 30
0.0
 10
414.9786598551273
 20
298.2643911736025
 30
0.0
 10
414.9738512655148
 20
298.2610106153272
 30
0.0
 10
414.9638492609374
 20
298.2552357355603
 30
0.0
 10
414.9586754382333
 20
298.2528377878503
 30
0.0
 10
414.9480010221508
 20
298.2489726188742
 30
0.0
 10
414.9424487464689
 20
298.2474981559975
 30
0.0
 10
414.9312670144256
 20
298.2455553738221
 30
0.0
 10
414.9256788288424
 20
298.2450834307456
 30
0.0
 10
414.9145094256835
 20
298.245086552485
 30
0.0
 10
414.9089004715657
 20
298.2455668613578
 30
0.0
 10
414.892269044315
 20
298.2484416840962
 30
0.0
 10
414.8817976059525
 20
298.2521480699655
 30
0.0
 10
414.871938049163
 20
298.2576227397706
 30
0.0
  0
SPLINE
  5
1AE
330
1F
100
AcDbEntity
  8
1
100
AcDbSpline
210
0.0
220
0.0
230
1.0
 70
     8
 71
     3
 72
    14
 73
    10
 74
     0
 42
0.000000001
 43
0.0000000001
 40
0.0
 40
0.0
 40
0.0
 40
0.0
 40
0.5060882384902082
 40
0.5060882384902082
 40
0.6326102981127599
 40
0.6326102981127599
 40
0.7591323577353117
 40
0.7591323577353117
 40
1.0
 40
1.0
 40
1.0
 40
1.0
 10
412.5959224949771
 20
298.8338971499956
 30
0.0
 10
412.585913099297
 20
298.8753507294733
 30
0.0
 10
412.5808103401208
 20
298.9174370743398
 30
0.0
 10
412.580564885232
 20
298.970827356123
 30
0.0
 10
412.5808289453686
 20
298.9815676247559
 30
0.0
 10
412.5819747730307
 20
299.0028863911099
 30
0.0
 10
412.5828551165682
 20
299.0134903633771
 30
0.0
 10
412.5862879084671
 20
299.04412371057
 30
0.0
 10
412.5896298480259
 20
299.0640107200483
 30
0.0
 10
412.5940561166193
 20
299.0837021375727
 30
0.0
  0
SPLINE
  5
1AF
330
1F
100
AcDbEntity
  8
1
100
AcDbSpline
210
0.0
220
0.0
230
1.0
 70
     8
 71
     3
 72
     8
 73
     4
 74
     0
 42
0.000000001
 43
0.0000000001
 40
0.0
 40
0.0
 40
0.0
 40
0.0
 40
1.0
 40
1.0
 40
1.0
 40
1.0
 10
415.0629041961586
 20
298.3847055111657
 30
0.0
 10
415.0444114477371
 20
298.3475908959912
 30
0.0
 10
415.0219459378256
 20
298.3128784641932
 30
0.0
 10
414.9954076406308
 20
298.2806360075866
 30
0.0
  0
SPLINE
  5
1B0
330
1F
100
AcDbEntity
  8
1
100
AcDbSpline
210
0.0
220
0.0
230
1.0
 70
     8
 71
     3
 72
    14
 73
    10
 74
     0
 42
0.000000001
 43
0.0000000001
 40
0.0
 40
0.0
 40
0.0
 40
0.0
 40
0.25
 40
0.25
 40
0.5
 40
0.5
 40
0.75
 40
0.75
 40
1.0
 40
1.0
 40
1.0
 40
1.0
 10
413.2386849304454
 20
299.7778002910063
 30
0.0
 10
413.242458662396
 20
299.7719735841059
 30
0.0
 10
413.2455972949533
 20
299.7657584933029
 30
0.0
 10
413.2504708529224
 20
299.7528444526943
 30
0.0
 10
413.2521989513016
 20
299.7461961711503
 30
0.0
 10
413.2542226848767
 20
299.7325097041237
 30
0.0
 10
413.2544987391305
 20
299.7254373985448
 30
0.0
 10
413.2535150405156
 20
299.7115121890538
 30
0.0
 10
413.2522756357186
 20
299.7045834605339
 30
0.0
 10
413.2502232427651
 20
299.6976887730174
 30
0.0
  0
SPLINE
  5
1B1
330
1F
100
AcDbEntity
  8
1
100
AcDbSpline
210
0.0
220
0.0
230
1.0
 70
     8
 71
     3
 72
    14
 73
    10
 74
     0
 42
0.000000001
 43
0.0000000001
 40
0.0
 40
0.0
 40
0.0
 40
0.0
 40
0.2927174621491624
 40
0.2927174621491624
 40
0.5854349242983249
 40
0.5854349242983249
 40
0.8781523864474872
 40
0.8781523864474872
 40
1.0
 40
1.0
 40
1.0
 40
1.0
 10
413.2386849304449
 20
299.7778002910075
 30
0.0
 10
413.2356683772681
 20
299.782457900886
 30
0.0
 10
413.2330659924697
 20
299.78735087686
 30
0.0
 10
413.2287541628849
 20
299.7974244638536
 30
0.0
 10
413.2270293664322
 20
299.802627137359
 30
0.0
 10
413.2244675652306
 20
299.8133727910369
 30
0.0
 10
413.2236416847099
 20
299.8189157617609
 30
0.0
 10
413.2231615819532
 20
299.8267421948868
 30
0.0
 10
413.2231024312429
 20
299.8290477133362
 30
0.0
 10
413.2231267637225
 20
299.8313584495747
 30
0.0
  0
SPLINE
  5
1B2
330
1F
100
AcDbEntity
  8
1
100
AcDbSpline
210
0.0
220
0.0
230
1.0
 70
     8
 71
     3
 72
    14
 73
    10
 74
     0
 42
0.000000001
 43
0.0000000001
 40
0.0
 40
0.0
 40
0.0
 40
0.0
 40
0.0602057391949838
 40
0.0602057391949838
 40
0.3734704927966559
 40
0.3734704927966559
 40
0.686735246398328
 40
0.686735246398328
 40
1.0
 40
1.0
 40
1.0
 40
1.0
 10
414.7897986368852
 20
299.3604181108198
 30
0.0
 10
414.7902484195347
 20
299.3616964483914
 30
0.0
 10
414.7907235292134
 20
299.3629608947275
 30
0.0
 10
414.7938223531863
 20
299.3707082010181
 30
0.0
 10
414.7970734779544
 20
299.3768111678769
 30
0.0
 10
414.8048413425061
 20
299.3882548072502
 30
0.0
 10
414.8093713059989
 20
299.3935754546271
 30
0.0
 10
414.819286983039
 20
299.4029839225636
 30
0.0
 10
414.8247154732952
 20
299.407142307903
 30
0.0
 10
414.8306302199793
 20
299.4107376021059
 30
0.0
  0
SPLINE
  5
1B3
330
1F
100
AcDbEntity
  8
1
100
AcDbSpline
210
0.0
220
0.0
230
1.0
 70
     8
 71
     3
 72
     8
 73
     4
 74
     0
 42
0.000000001
 43
0.0000000001
 40
0.0
 40
0.0
 40
0.0
 40
0.0
 40
1.0
 40
1.0
 40
1.0
 40
1.0
 10
414.8514963958523
 20
299.4278252113249
 30
0.0
 10
414.845375753824
 20
299.4211641300035
 30
0.0
 10
414.8384172162719
 20
299.4154709481179
 30
0.0
 10
414.8306302199793
 20
299.4107376021059
 30
0.0
  0
SPLINE
  5
1B4
330
1F
100
AcDbEntity
  8
1
100
AcDbSpline
210
0.0
220
0.0
230
1.0
 70
     9
 71
     3
 72
   125
 73
   121
 74
     0
 42
0.000000001
 43
0.0000000001
 40
0.0
 40
0.0
 40
0.0
 40
0.0
 40
0.0312499999999952
 40
0.0312499999999952
 40
0.0468749999999979
 40
0.0468749999999979
 40
0.0546874999999992
 40
0.0546874999999992
 40
0.0625000000000005
 40
0.0625000000000005
 40
0.093750000000025
 40
0.093750000000025
 40
0.1015625000000353
 40
0.1015625000000353
 40
0.1093750000000456
 40
0.1093750000000456
 40
0.1250000000000586
 40
0.1250000000000586
 40
0.1562500000000774
 40
0.1562500000000774
 40
0.1718750000000842
 40
0.1718750000000842
 40
0.187500000000091
 40
0.2031250000000978
 40
0.2031250000000978
 40
0.2109375000001013
 40
0.2109375000001013
 40
0.2187500000001047
 40
0.2187500000001047
 40
0.2500000000001167
 40
0.2500000000001167
 40
0.2578125000001197
 40
0.2578125000001197
 40
0.2656250000001228
 40
0.2656250000001228
 40
0.2812500000001302
 40
0.2812500000001302
 40
0.3125000000001449
 40
0.3125000000001449
 40
0.3281250000001502
 40
0.3281250000001502
 40
0.3437500000001555
 40
0.3437500000001555
 40
0.3750000000001663
 40
0.3750000000001663
 40
0.3828125000001635
 40
0.3828125000001635
 40
0.3906250000001608
 40
0.4062500000001554
 40
0.42187500000015
 40
0.42187500000015
 40
0.4296875000001471
 40
0.4296875000001471
 40
0.4375000000001445
 40
0.4375000000001445
 40
0.4687500000001336
 40
0.4687500000001336
 40
0.4843750000001282
 40
0.4843750000001282
 40
0.4921875000001203
 40
0.4921875000001203
 40
0.5000000000001125
 40
0.5000000000001125
 40
0.5312500000001125
 40
0.5312500000001125
 40
0.539062500000115
 40
0.539062500000115
 40
0.5468750000001174
 40
0.5468750000001174
 40
0.5625000000001127
 40
0.5781250000001077
 40
0.5781250000001077
 40
0.5937500000001029
 40
0.5937500000001029
 40
0.6250000000000849
 40
0.6250000000000849
 40
0.6328125000000805
 40
0.6328125000000805
 40
0.6406250000000761
 40
0.6406250000000761
 40
0.6562500000000672
 40
0.6562500000000672
 40
0.6875000000000493
 40
0.6875000000000493
 40
0.6953125000000449
 40
0.6953125000000449
 40
0.7031250000000405
 40
0.7187500000000317
 40
0.734375000000023
 40
0.734375000000023
 40
0.7421875000000187
 40
0.7421875000000187
 40
0.7500000000000143
 40
0.7500000000000143
 40
0.7812499999999974
 40
0.7812499999999974
 40
0.7968749999999899
 40
0.7968749999999899
 40
0.8124999999999824
 40
0.8124999999999824
 40
0.8437499999999714
 40
0.8437499999999714
 40
0.8593749999999689
 40
0.8593749999999689
 40
0.8671874999999678
 40
0.8671874999999678
 40
0.8749999999999666
 40
0.8749999999999666
 40
0.9062499999999687
 40
0.9062499999999687
 40
0.9218749999999655
 40
0.9218749999999655
 40
0.9374999999999623
 40
0.9531249999999593
 40
0.9531249999999593
 40
0.9609374999999625
 40
0.9609374999999625
 40
0.968749999999966
 40
0.968749999999966
 40
1.0
 40
1.0
 40
1.0
 40
1.0
 10
414.4246469271758
 20
286.4733679557893
 30
0.0
 10
414.5086918634764
 20
286.4719009459693
 30
0.0
 10
414.5911339292301
 20
286.4620680358424
 30
0.0
 10
414.7124924900316
 20
286.4353033795914
 30
0.0
 10
414.7525582583119
 20
286.4243638593387
 30
0.0
 10
414.8120619983951
 20
286.4048567852549
 30
0.0
 10
414.8318535103417
 20
286.3978144925264
 30
0.0
 10
414.8708992956662
 20
286.3828037538547
 30
0.0
 10
414.8901527409407
 20
286.3748399268492
 30
0.0
 10
414.9850997928677
 20
286.3327767390462
 30
0.0
 10
415.0568712808156
 20
286.2920097940449
 30
0.0
 10
415.1413858395166
 20
286.2322534886081
 30
0.0
 10
415.1580263755347
 20
286.2198583394136
 30
0.0
 10
415.1907737743312
 20
286.1941663741997
 30
0.0
 10
415.2068813231208
 20
286.1808639393473
 30
0.0
 10
415.2538614829197
 20
286.1400565033993
 30
0.0
 10
415.2835838896382
 20
286.1115106353249
 30
0.0
 10
415.3681023297668
 20
286.021987334199
 30
0.0
 10
415.4182928611778
 20
285.9571602775247
 30
0.0
 10
415.4841162970777
 20
285.8520736108301
 30
0.0
 10
415.504136100375
 20
285.816254589398
 30
0.0
 10
415.5404034229302
 20
285.7432609050337
 30
0.0
 10
415.5729288517743
 20
285.6688612031373
 30
0.0
 10
415.5980812917102
 20
285.5917085067789
 30
0.0
 10
415.6141453400523
 20
285.5328038483061
 30
0.0
 10
415.6190409908721
 20
285.5129559008424
 30
0.0
 10
415.6278417402963
 20
285.4730906703829
 30
0.0
 10
415.6317340416259
 20
285.4531415933542
 30
0.0
 10
415.648714475837
 20
285.3533175176394
 30
0.0
 10
415.6544276541628
 20
285.2732101069568
 30
0.0
 10
415.6519614007994
 20
285.1727849086884
 30
0.0
 10
415.6509835509093
 20
285.1526850970881
 30
0.0
 10
415.6480474330542
 20
285.112455506793
 30
0.0
 10
415.6460833440276
 20
285.0922806420735
 30
0.0
 10
415.6387352914244
 20
285.0320424208523
 30
0.0
 10
415.6319317065825
 20
284.9924473395964
 30
0.0
 10
415.6059975770013
 20
284.875290573167
 30
0.0
 10
415.5813952262049
 20
284.7993435009027
 30
0.0
 10
415.5333235254661
 20
284.6886702026466
 30
0.0
 10
415.5153402402214
 20
284.6522059965709
 30
0.0
 10
415.476287439703
 20
284.5818328927188
 30
0.0
 10
415.4551591744986
 20
284.5477548059706
 30
0.0
 10
415.3870274965403
 20
284.4487844669622
 30
0.0
 10
415.3353273258225
 20
284.3871228212091
 30
0.0
 10
415.2623339885455
 20
284.3157189265377
 30
0.0
 10
415.2473437982381
 20
284.3017589286619
 30
0.0
 10
415.2168468035379
 20
284.2747187750847
 30
0.0
 10
415.1702134841587
 20
284.2353730257282
 30
0.0
 10
415.0881067492161
 20
284.1757775015328
 30
0.0
 10
415.017721689789
 20
284.1344775952321
 30
0.0
 10
414.9631080501968
 20
284.105966361499
 30
0.0
 10
414.9445987947457
 20
284.0968740071149
 30
0.0
 10
414.9069529699379
 20
284.0795343291633
 30
0.0
 10
414.8877973688804
 20
284.0712832865705
 30
0.0
 10
414.7916067858288
 20
284.0326637417371
 30
0.0
 10
414.7124503937838
 20
284.0096870693893
 30
0.0
 10
414.5904142589517
 20
283.987021026829
 30
0.0
 10
414.5491814484296
 20
283.9814463532081
 30
0.0
 10
414.4864642664278
 20
283.9761828221752
 30
0.0
 10
414.4654800105191
 20
283.9749545072553
 30
0.0
 10
414.42372443678
 20
283.973558396412
 30
0.0
 10
414.4028985214633
 20
283.9733856650975
 30
0.0
 10
414.2990241737178
 20
283.9751067059246
 30
0.0
 10
414.2167341144171
 20
283.9846779823438
 30
0.0
 10
414.1148918700016
 20
284.0069953042507
 30
0.0
 10
414.0945152854033
 20
284.0119986947872
 30
0.0
 10
414.0542398090178
 20
284.0229670267237
 30
0.0
 10
414.0343329916191
 20
284.0289296833002
 30
0.0
 10
413.9752880615348
 20
284.0482194405435
 30
0.0
 10
413.8983595002069
 20
284.0776700742615
 30
0.0
 10
413.8249290154578
 20
284.1144049329558
 30
0.0
 10
413.7532505027189
 20
284.1548034095751
 30
0.0
 10
413.7181557198181
 20
284.1769463440325
 30
0.0
 10
413.617590221788
 20
284.2475428815916
 30
0.0
 10
413.5561714710655
 20
284.3003979124505
 30
0.0
 10
413.4861472123693
 20
284.3734995418897
 30
0.0
 10
413.4724830328237
 20
284.3884748315259
 30
0.0
 10
413.445841729579
 20
284.419143447095
 30
0.0
 10
413.4328353045473
 20
284.434876194098
 30
0.0
 10
413.3951928274777
 20
284.4827395958723
 30
0.0
 10
413.3718595370328
 20
284.5155990485638
 30
0.0
 10
413.306949173175
 20
284.6169451115168
 30
0.0
 10
413.270413730147
 20
284.6881739817387
 30
0.0
 10
413.2332778322286
 20
284.7819124982536
 30
0.0
 10
413.2262697099633
 20
284.8009367346123
 30
0.0
 10
413.2132515212124
 20
284.8390999933278
 30
0.0
 10
413.1951791782524
 20
284.896620827021
 30
0.0
 10
413.1721779855574
 20
284.9938468895813
 30
0.0
 10
413.1612744153958
 20
285.0730688943496
 30
0.0
 10
413.1559519055237
 20
285.1330365438514
 30
0.0
 10
413.1546544227252
 20
285.1531177577919
 30
0.0
 10
413.1530305367706
 20
285.193467740561
 30
0.0
 10
413.1527051708211
 20
285.2137899324478
 30
0.0
 10
413.1535571454533
 20
285.3151592323688
 30
0.0
 10
413.1620489354333
 20
285.3951612220681
 30
0.0
 10
413.1862650911632
 20
285.5135385950956
 30
0.0
 10
413.1962633607916
 20
285.5527246687548
 30
0.0
 10
413.2202352604854
 20
285.6305267373676
 30
0.0
 10
413.2342916410527
 20
285.6692959435833
 30
0.0
 10
413.281662208718
 20
285.7822608602505
 30
0.0
 10
413.3202786972499
 20
285.8538472419206
 30
0.0
 10
413.3887705426952
 20
285.9555772326134
 30
0.0
 10
413.413374059782
 20
285.9885392789829
 30
0.0
 10
413.4530558027019
 20
286.0364892720351
 30
0.0
 10
413.4666710279218
 20
286.0521294772967
 30
0.0
 10
413.4945500648084
 20
286.0825993104011
 30
0.0
 10
413.5088319132308
 20
286.0974508191672
 30
0.0
 10
413.5819319354948
 20
286.1698114917068
 30
0.0
 10
413.6457736725773
 20
286.2216847752247
 30
0.0
 10
413.7497653964624
 20
286.2902016580578
 30
0.0
 10
413.7859806492789
 20
286.311549139185
 30
0.0
 10
413.8596452643025
 20
286.3501361521802
 30
0.0
 10
413.9348410053783
 20
286.3848529174319
 30
0.0
 10
414.0130431504399
 20
286.4119560520307
 30
0.0
 10
414.0728349781018
 20
286.4293913911579
 30
0.0
 10
414.0929559721333
 20
286.4347202967245
 30
0.0
 10
414.1335852658654
 20
286.4443951787952
 30
0.0
 10
414.1541408758847
 20
286.4487494388884
 30
0.0
 10
414.2572874771028
 20
286.4678896939151
 30
0.0
 10
414.3406019908749
 20
286.4748349656093
 30
0.0
 10
414.4246469271756
 20
286.4733679557893
 30
0.0
  0
SPLINE
  5
1B5
330
1F
100
AcDbEntity
  8
1
100
AcDbSpline
210
0.0
220
0.0
230
1.0
 70
    12
 71
     2
 72
     6
 73
     3
 74
     0
 42
0.000000001
 43
0.0000000001
 40
0.0
 40
0.0
 40
0.0
 40
1.0
 40
1.0
 40
1.0
 10
408.8750791910967
 20
303.3466683975811
 30
0.0
 41
0.4999995109625204
 10
408.987262598167
 20
303.3464884403405
 30
0.0
 41
0.5000004890374797
 10
409.0994447121337
 20
303.3463079561437
 30
0.0
 41
0.4999995109625204
  0
SPLINE
  5
1B6
330
1F
100
AcDbEntity
  8
1
100
AcDbSpline
210
0.0
220
0.0
230
1.0
 70
     8
 71
     3
 72
    17
 73
    13
 74
     0
 42
0.000000001
 43
0.0000000001
 40
0.0
 40
0.0
 40
0.0
 40
0.0
 40
0.25
 40
0.5
 40
0.5
 40
0.75
 40
0.75
 40
0.8125
 40
0.8125
 40
0.875
 40
0.875
 40
1.0
 40
1.0
 40
1.0
 40
1.0
 10
295.6362629338587
 20
274.4104856677142
 30
0.0
 10
295.8170208213544
 20
274.409093891038
 30
0.0
 10
296.1827551489826
 20
274.4077945275668
 30
0.0
 10
296.5569452540201
 20
274.4079820120455
 30
0.0
 10
296.9354525180287
 20
274.4083693415266
 30
0.0
 10
297.1268643009098
 20
274.4086627147389
 30
0.0
 10
297.3689376120658
 20
274.4089358808671
 30
0.0
 10
297.417492938827
 20
274.4089863260757
 30
0.0
 10
297.5148886779587
 20
274.4090753898067
 30
0.0
 10
297.5638010700239
 20
274.4091140462796
 30
0.0
 10
297.7103262879668
 20
274.4092080043572
 30
0.0
 10
297.8077241307716
 20
274.4092409167927
 30
0.0
 10
297.9048419452957
 20
274.4092409167927
 30
0.0
  0
SPLINE
  5
1B7
330
1F
100
AcDbEntity
  8
1
100
AcDbSpline
210
0.0
220
0.0
230
1.0
 70
     8
 71
     3
 72
     8
 73
     4
 74
     0
 42
0.000000001
 43
0.0000000001
 40
0.0
 40
0.0
 40
0.0
 40
0.0
 40
1.0
 40
1.0
 40
1.0
 40
1.0
 10
410.4954214532031
 20
292.3300247249819
 30
0.0
 10
410.2912975809635
 20
292.3288953705869
 30
0.0
 10
410.0860936169969
 20
292.3300526802744
 30
0.0
 10
409.8798419469991
 20
292.3337444446397
 30
0.0
  0
SPLINE
  5
1B8
330
1F
100
AcDbEntity
  8
1
100
AcDbSpline
210
0.0
220
0.0
230
1.0
 70
     8
 71
     3
 72
    10
 73
     6
 74
     0
 42
0.000000001
 43
0.0000000001
 40
0.0
 40
0.0
 40
0.0
 40
0.0
 40
0.5
 40
0.5
 40
1.0
 40
1.0
 40
1.0
 40
1.0
 10
313.0760763746828
 20
274.6448451202008
 30
0.0
 10
310.5525882776243
 20
274.5663397690678
 30
0.0
 10
308.0272397020749
 20
274.5095135017771
 30
0.0
 10
302.970818974165
 20
274.4333899734217
 30
0.0
 10
300.439743670303
 20
274.4140806865477
 30
0.0
 10
297.9048419452957
 20
274.4092409167927
 30
0.0
  0
SPLINE
  5
1B9
330
1F
100
AcDbEntity
  8
1
100
AcDbSpline
210
0.0
220
0.0
230
1.0
 70
     8
 71
     3
 72
     8
 73
     4
 74
     0
 42
0.000000001
 43
0.0000000001
 40
0.0
 40
0.0
 40
0.0
 40
0.0
 40
1.0
 40
1.0
 40
1.0
 40
1.0
 10
409.8798419471708
 20
291.1753521634893
 30
0.0
 10
410.0992976350585
 20
291.1739519761089
 30
0.0
 10
410.3174283625036
 20
291.1811544938549
 30
0.0
 10
410.5341909573063
 20
291.1968795669782
 30
0.0
  0
SPLINE
  5
1BA
330
1F
100
AcDbEntity
  8
1
100
AcDbSpline
210
0.0
220
0.0
230
1.0
 70
    24
 71
     3
 72
    14
 73
    10
 74
     0
 42
0.000000001
 43
0.0000000001
 40
0.0
 40
0.0
 40
0.0
 40
0.0
 40
0.2525084998748816
 40
0.2525084998748816
 40
0.5050169997497632
 40
0.5050169997497632
 40
0.7575254996246447
 40
0.7575254996246447
 40
1.0
 40
1.0
 40
1.0
 40
1.0
 10
409.8798419469991
 20
292.3337444446397
 30
0.0
 10
409.8798419470588
 20
292.0789593995885
 30
0.0
 10
409.8798419471081
 20
291.8594845350962
 30
0.0
 10
409.8798419471838
 20
291.4991688404322
 30
0.0
 10
409.8798419472102
 20
291.3583360907267
 30
0.0
 10
409.8798419472395
 20
291.1604630047218
 30
0.0
 10
409.8798419472423
 20
291.103427105939
 30
0.0
 10
409.8798419472246
 20
291.0757992016896
 30
0.0
 10
409.8798419472049
 20
291.1018627970257
 30
0.0
 10
409.8798419471746
 20
291.1670575623178
 30
0.0
  0
SPLINE
  5
1BB
330
1F
100
AcDbEntity
  8
1
100
AcDbSpline
210
0.0
220
0.0
230
1.0
 70
     8
 71
     3
 72
    24
 73
    20
 74
     0
 42
0.000000001
 43
0.0000000001
 40
0.0
 40
0.0
 40
0.0
 40
0.0
 40
0.1250000000000014
 40
0.1250000000000014
 40
0.2500000000000027
 40
0.2500000000000027
 40
0.3750000000000042
 40
0.3750000000000042
 40
0.5000000000000055
 40
0.5000000000000055
 40
0.625000000000007
 40
0.625000000000007
 40
0.7500000000000082
 40
0.7500000000000082
 40
0.8125000000000088
 40
0.8125000000000088
 40
0.8750000000000095
 40
0.8750000000000095
 40
1.0
 40
1.0
 40
1.0
 40
1.0
 10
404.5725206632775
 20
294.3497509142328
 30
0.0
 10
404.7808931446556
 20
294.2182896756809
 30
0.0
 10
404.9900595531746
 20
294.093045062716
 30
0.0
 10
405.4103272721276
 20
293.8543653304007
 30
0.0
 10
405.6214269524165
 20
293.7409309690248
 30
0.0
 10
406.0459976373913
 20
293.5254908740652
 30
0.0
 10
406.2594662115187
 20
293.4234848391259
 30
0.0
 10
406.6893620874731
 20
293.230752773864
 30
0.0
 10
406.9057854909584
 20
293.1400251169315
 30
0.0
 10
407.3424213384251
 20
292.9699609185777
 30
0.0
 10
407.5626272297212
 20
292.8906206662677
 30
0.0
 10
408.0080526575434
 20
292.743778539619
 30
0.0
 10
408.2332608598364
 20
292.6762692044754
 30
0.0
 10
408.5762416033806
 20
292.5845913543282
 30
0.0
 10
408.6914360501988
 20
292.5556342934437
 30
0.0
 10
408.9238936803447
 20
292.5011151539202
 30
0.0
 10
409.0412544729057
 20
292.4755361298123
 30
0.0
 10
409.3956105338693
 20
292.404548174203
 30
0.0
 10
409.6351885244596
 20
292.3647469533245
 30
0.0
 10
409.8798419452958
 20
292.3337444446701
 30
0.0
  0
SPLINE
  5
1BC
330
1F
100
AcDbEntity
  8
1
100
AcDbSpline
210
0.0
220
0.0
230
1.0
 70
     8
 71
     3
 72
    10
 73
     6
 74
     0
 42
0.000000001
 43
0.0000000001
 40
0.0
 40
0.0
 40
0.0
 40
0.0
 40
0.5
 40
0.5
 40
1.0
 40
1.0
 40
1.0
 40
1.0
 10
293.6187390602769
 20
274.4508127004343
 30
0.0
 10
293.955395277412
 20
274.4400581419423
 30
0.0
 10
294.2915030350523
 20
274.4312351937524
 30
0.0
 10
294.9636046588059
 20
274.4177417994336
 30
0.0
 10
295.2996065442666
 20
274.4130778119212
 30
0.0
 10
295.6362629338586
 20
274.4104856677142
 30
0.0
  0
SPLINE
  5
1BD
330
1F
100
AcDbEntity
  8
1
100
AcDbSpline
210
0.0
220
0.0
230
1.0
 70
     8
 71
     3
 72
     8
 73
     4
 74
     0
 42
0.000000001
 43
0.0000000001
 40
0.0
 40
0.0
 40
0.0
 40
0.0
 40
1.0
 40
1.0
 40
1.0
 40
1.0
 10
292.5054575333491
 20
285.6784268680956
 30
0.0
 10
292.2414091671965
 20
285.7648903554793
 30
0.0
 10
291.9743103086826
 20
285.8445717440184
 30
0.0
 10
291.7038318185193
 20
285.9166122152208
 30
0.0
  0
SPLINE
  5
1BE
330
1F
100
AcDbEntity
  8
1
100
AcDbSpline
210
0.0
220
0.0
230
1.0
 70
     8
 71
     3
 72
    45
 73
    41
 74
     0
 42
0.000000001
 43
0.0000000001
 40
0.0
 40
0.0
 40
0.0
 40
0.0
 40
0.1250000000000029
 40
0.1250000000000029
 40
0.2500000000000058
 40
0.2500000000000058
 40
0.3750000000000088
 40
0.3750000000000088
 40
0.4375000000000109
 40
0.4375000000000109
 40
0.5000000000000132
 40
0.5000000000000132
 40
0.5625000000000153
 40
0.5625000000000153
 40
0.6250000000000176
 40
0.6250000000000176
 40
0.6875000000000198
 40
0.6875000000000198
 40
0.7500000000000222
 40
0.7500000000000222
 40
0.7656250000000142
 40
0.7656250000000142
 40
0.7812500000000063
 40
0.7812500000000063
 40
0.8124999999999907
 40
0.8124999999999907
 40
0.8437499999999751
 40
0.8437499999999751
 40
0.8749999999999594
 40
0.8749999999999594
 40
0.8906249999999527
 40
0.8906249999999527
 40
0.9062499999999458
 40
0.921874999999939
 40
0.921874999999939
 40
0.9374999999999321
 40
0.9374999999999321
 40
0.9687499999999658
 40
0.9687499999999658
 40
1.0
 40
1.0
 40
1.0
 40
1.0
 10
403.7180087845736
 20
294.8250362168956
 30
0.0
 10
403.6758592829125
 20
294.85083101408
 30
0.0
 10
403.6346477213234
 20
294.8777027869599
 30
0.0
 10
403.5542489002376
 20
294.9337992936163
 30
0.0
 10
403.5150590511896
 20
294.963021090992
 30
0.0
 10
403.4389945326445
 20
295.0241755434753
 30
0.0
 10
403.4021132105684
 20
295.0561007222989
 30
0.0
 10
403.3489481132026
 20
295.1065169614046
 30
0.0
 10
403.3315884468001
 20
295.1237466503981
 30
0.0
 10
403.2977162396208
 20
295.1591965376252
 30
0.0
 10
403.2811906686125
 20
295.1774340609521
 30
0.0
 10
403.2494083320263
 20
295.2148145995027
 30
0.0
 10
403.2341209027195
 20
295.2339842181017
 30
0.0
 10
403.2050461478051
 20
295.2735066673741
 30
0.0
 10
403.1912152628015
 20
295.293928426747
 30
0.0
 10
403.1658412599533
 20
295.3358016148586
 30
0.0
 10
403.154265092972
 20
295.3572709223507
 30
0.0
 10
403.1341540231983
 20
295.4016490988538
 30
0.0
 10
403.1255891263971
 20
295.4245444336626
 30
0.0
 10
403.117817016563
 20
295.454532591243
 30
0.0
 10
403.1164130541398
 20
295.4606003696088
 30
0.0
 10
403.1139530939404
 20
295.4728975274652
 30
0.0
 10
403.1128946123413
 20
295.4791495063324
 30
0.0
 10
403.1103610994534
 20
295.4979530854823
 30
0.0
 10
403.1095101673511
 20
295.5105785049083
 30
0.0
 10
403.1099350484825
 20
295.5360508939952
 30
0.0
 10
403.1112462248036
 20
295.5490126726108
 30
0.0
 10
403.1164546215771
 20
295.5742512873734
 30
0.0
 10
403.1203332618368
 20
295.586601545448
 30
0.0
 10
403.1283834346486
 20
295.6046506268732
 30
0.0
 10
403.1314679703593
 20
295.6106285880844
 30
0.0
 10
403.1382626123332
 20
295.6221086795311
 30
0.0
 10
403.1456883655746
 20
295.6331553701015
 30
0.0
 10
403.1543258763236
 20
295.6433688681603
 30
0.0
 10
403.1635480806476
 20
295.6531798615791
 30
0.0
 10
403.1684814036778
 20
295.6579091202758
 30
0.0
 10
403.1839034903091
 20
295.6713178090924
 30
0.0
 10
403.1949158060891
 20
295.6791708981308
 30
0.0
 10
403.2180812922251
 20
295.6931812340664
 30
0.0
 10
403.2302817947181
 20
295.6993532956283
 30
0.0
 10
403.2428322751989
 20
295.7047807685531
 30
0.0
  0
SPLINE
  5
1BF
330
1F
100
AcDbEntity
  8
1
100
AcDbSpline
210
0.0
220
0.0
230
1.0
 70
    12
 71
     2
 72
     6
 73
     3
 74
     0
 42
0.000000001
 43
0.0000000001
 40
0.0
 40
0.0
 40
0.0
 40
1.0
 40
1.0
 40
1.0
 10
300.1729599154061
 20
283.3101192014217
 30
0.0
 41
0.5000000298727127
 10
300.1749626347338
 20
283.3166879747947
 30
0.0
 41
0.4999999701272875
 10
300.1769647029271
 20
283.3232594450917
 30
0.0
 41
0.5000000298727127
  0
SPLINE
  5
1C0
330
1F
100
AcDbEntity
  8
1
100
AcDbSpline
210
0.0
220
0.0
230
1.0
 70
     8
 71
     3
 72
    16
 73
    12
 74
     0
 42
0.000000001
 43
0.0000000001
 40
0.0
 40
0.0
 40
0.0
 40
0.0
 40
0.1250000000000057
 40
0.1250000000000057
 40
0.2500000000000114
 40
0.2500000000000114
 40
0.5000000000000077
 40
0.5000000000000077
 40
0.7500000000000039
 40
0.7500000000000039
 40
1.0
 40
1.0
 40
1.0
 40
1.0
 10
403.8545481291231
 20
292.4694072894046
 30
0.0
 10
403.6880265940538
 20
292.5527284363507
 30
0.0
 10
403.5209777986294
 20
292.6373881165766
 30
0.0
 10
403.185955505521
 20
292.8090549790492
 30
0.0
 10
403.017981678715
 20
292.8960629968231
 30
0.0
 10
402.5128234515083
 20
293.1602267262464
 30
0.0
 10
402.1744094120195
 20
293.3405040699816
 30
0.0
 10
401.4948727221836
 20
293.7079349918239
 30
0.0
 10
401.1537468035268
 20
293.8950968670495
 30
0.0
 10
400.4691593154886
 20
294.2753500339552
 30
0.0
 10
400.1256960625683
 20
294.4684455995631
 30
0.0
 10
399.7811911637925
 20
294.6641855468903
 30
0.0
  0
SPLINE
  5
1C1
330
1F
100
AcDbEntity
  8
1
100
AcDbSpline
210
0.0
220
0.0
230
1.0
 70
     8
 71
     3
 72
    26
 73
    22
 74
     0
 42
0.000000001
 43
0.0000000001
 40
0.0
 40
0.0
 40
0.0
 40
0.0
 40
0.0644667473145969
 40
0.0644667473145969
 40
0.1495152248314516
 40
0.1495152248314516
 40
0.2345637023483063
 40
0.2345637023483063
 40
0.3196121798651611
 40
0.3196121798651611
 40
0.4046606573820162
 40
0.4046606573820162
 40
0.489709134898871
 40
0.489709134898871
 40
0.5747576124157257
 40
0.5747576124157257
 40
0.6598060899325807
 40
0.6598060899325807
 40
0.8299030449662902
 40
0.8299030449662902
 40
1.0
 40
1.0
 40
1.0
 40
1.0
 10
343.0035230862734
 20
277.2794964037794
 30
0.0
 10
342.3586110033759
 20
277.1966630219114
 30
0.0
 10
341.7137871163047
 20
277.1155107038114
 30
0.0
 10
340.2184152363948
 20
276.9313371942251
 30
0.0
 10
339.3678914859106
 20
276.8296579539023
 30
0.0
 10
337.6671197840117
 20
276.6321325418162
 30
0.0
 10
336.816879700855
 20
276.5362655590004
 30
0.0
 10
335.1168237857848
 20
276.3500313671875
 30
0.0
 10
334.267008267675
 20
276.259664348048
 30
0.0
 10
332.5679030193782
 20
276.0843198452405
 30
0.0
 10
331.7186135240627
 20
275.9993429138049
 30
0.0
 10
330.0206216304734
 20
275.834838978861
 30
0.0
 10
329.1719193740381
 20
275.7553128651086
 30
0.0
 10
327.4751173399452
 20
275.6019198302074
 30
0.0
 10
326.6270176039802
 20
275.5280540796919
 30
0.0
 10
324.9313872917468
 20
275.3863087506043
 30
0.0
 10
324.0838566578216
 20
275.3184305391475
 30
0.0
 10
321.5419958412608
 20
275.1243845739014
 30
0.0
 10
319.8484161323518
 20
275.0078136329995
 30
0.0
 10
316.4620699684563
 20
274.8037637322246
 30
0.0
 10
314.7692946698001
 20
274.7163266993339
 30
0.0
 10
313.0760763746831
 20
274.6448451202007
 30
0.0
  0
SPLINE
  5
1C2
330
1F
100
AcDbEntity
  8
1
100
AcDbSpline
210
0.0
220
0.0
230
1.0
 70
     8
 71
     3
 72
    22
 73
    18
 74
     0
 42
0.000000001
 43
0.0000000001
 40
0.0
 40
0.0
 40
0.0
 40
0.0
 40
0.1491535541950313
 40
0.1491535541950313
 40
0.2983071083900627
 40
0.2983071083900627
 40
0.447460662585094
 40
0.447460662585094
 40
0.5220374396826096
 40
0.5220374396826096
 40
0.5966142167801254
 40
0.5966142167801254
 40
0.7457677709751568
 40
0.7457677709751568
 40
0.8949213251701882
 40
0.8949213251701882
 40
1.0
 40
1.0
 40
1.0
 40
1.0
 10
313.0760763746831
 20
274.6448451201998
 30
0.0
 10
314.2580725576398
 20
274.7943654768233
 30
0.0
 10
315.4403094084363
 20
274.95222720244
 30
0.0
 10
317.8064940490357
 20
275.2802373046215
 30
0.0
 10
318.9904461960107
 20
275.450371009257
 30
0.0
 10
321.3611282794865
 20
275.7977277259288
 30
0.0
 10
322.5478629541992
 20
275.9749246651718
 30
0.0
 10
324.3306170263045
 20
276.2419985663853
 30
0.0
 10
324.9253075132783
 20
276.3312373627066
 30
0.0
 10
326.1156204382721
 20
276.5095344009117
 30
0.0
 10
326.711216985833
 20
276.5985874634159
 30
0.0
 10
328.4990203978198
 20
276.8646232348555
 30
0.0
 10
329.6923916800125
 20
277.0404226566017
 30
0.0
 10
332.0820667109398
 20
277.3863024970567
 30
0.0
 10
333.2783685237413
 20
277.5563654849205
 30
0.0
 10
335.3195032729213
 20
277.8414747507954
 30
0.0
 10
336.1637309875069
 20
277.9579350216191
 30
0.0
 10
337.0083950938657
 20
278.0735401567597
 30
0.0
  0
SPLINE
  5
1C3
330
1F
100
AcDbEntity
  8
1
100
AcDbSpline
210
0.0
220
0.0
230
1.0
 70
     8
 71
     3
 72
    36
 73
    32
 74
     0
 42
0.000000001
 43
0.0000000001
 40
0.0
 40
0.0
 40
0.0
 40
0.0
 40
0.1250000000000066
 40
0.1250000000000066
 40
0.1875000000000098
 40
0.1875000000000098
 40
0.2187499999999982
 40
0.2187499999999982
 40
0.2499999999999865
 40
0.2499999999999865
 40
0.3749999999999399
 40
0.3749999999999399
 40
0.4062499999999594
 40
0.4062499999999594
 40
0.4374999999999791
 40
0.4374999999999791
 40
0.5000000000000148
 40
0.5000000000000148
 40
0.625000000000033
 40
0.625000000000033
 40
0.6562500000000248
 40
0.6562500000000248
 40
0.6875000000000165
 40
0.75
 40
0.8124999999999834
 40
0.8124999999999834
 40
0.8437499999999753
 40
0.8437499999999753
 40
0.8749999999999669
 40
0.8749999999999669
 40
1.0
 40
1.0
 40
1.0
 40
1.0
 10
418.6099776822096
 20
303.0621832715362
 30
0.0
 10
418.6081554136336
 20
303.113052199283
 30
0.0
 10
418.6011849395441
 20
303.1628578145757
 30
0.0
 10
418.583486595
 20
303.2360703410736
 30
0.0
 10
418.5763699857853
 20
303.2602231236395
 30
0.0
 10
418.5638431950084
 20
303.2960698100713
 30
0.0
 10
418.5593451245583
 20
303.3079863794794
 30
0.0
 10
418.5497904163628
 20
303.3315174090424
 30
0.0
 10
418.5447403037875
 20
303.3431213938137
 30
0.0
 10
418.5181567984614
 20
303.4003519372277
 30
0.0
 10
418.4926641192459
 20
303.4436337710097
 30
0.0
 10
418.4555949087703
 20
303.4946545860378
 30
0.0
 10
418.4479184511816
 20
303.5047032257989
 30
0.0
 10
418.432032335183
 20
303.5244847390255
 30
0.0
 10
418.423807441268
 20
303.534232645748
 30
0.0
 10
418.3985841562361
 20
303.5627005566805
 30
0.0
 10
418.3809685879744
 20
303.5807405800984
 30
0.0
 10
418.3257879550972
 20
303.6321225699738
 30
0.0
 10
418.2859122343434
 20
303.6627537578711
 30
0.0
 10
418.2320736313131
 20
303.6963571820004
 30
0.0
 10
418.2210904769121
 20
303.7028470837212
 30
0.0
 10
418.1989566827054
 20
303.7152108069471
 30
0.0
 10
418.1654209649773
 20
303.7328863201592
 30
0.0
 10
418.1078814494632
 20
303.758069112538
 30
0.0
 10
418.0601044257617
 20
303.7736824715377
 30
0.0
 10
418.0236011857885
 20
303.783651258443
 30
0.0
 10
418.0113214844412
 20
303.7866834384023
 30
0.0
 10
417.9865327976505
 20
303.7921523420353
 30
0.0
 10
417.9740075706176
 20
303.7945903265328
 30
0.0
 10
417.9113886003028
 20
303.8051573760108
 30
0.0
 10
417.8608893528518
 20
303.8085771185214
 30
0.0
 10
417.8099730278956
 20
303.8068009321025
 30
0.0
  0
SPLINE
  5
1C4
330
1F
100
AcDbEntity
  8
1
100
AcDbSpline
210
0.0
220
0.0
230
1.0
 70
     8
 71
     3
 72
    36
 73
    32
 74
     0
 42
0.000000001
 43
0.0000000001
 40
0.0
 40
0.0
 40
0.0
 40
0.0
 40
0.1250000000000938
 40
0.1250000000000938
 40
0.1875000000001067
 40
0.1875000000001067
 40
0.2187500000001447
 40
0.2187500000001447
 40
0.2500000000001827
 40
0.2500000000001827
 40
0.3750000000001516
 40
0.3750000000001516
 40
0.406250000000142
 40
0.406250000000142
 40
0.4375000000001323
 40
0.4375000000001323
 40
0.5000000000001102
 40
0.5000000000001102
 40
0.6250000000001129
 40
0.6250000000001129
 40
0.6562500000001056
 40
0.6562500000001056
 40
0.6875000000000981
 40
0.7500000000000794
 40
0.8125000000000605
 40
0.8125000000000605
 40
0.8437500000000513
 40
0.8437500000000513
 40
0.8750000000000419
 40
0.8750000000000419
 40
1.0
 40
1.0
 40
1.0
 40
1.0
 10
409.8372443795066
 20
303.5286769245562
 30
0.0
 10
409.7863224451321
 20
303.5269005424561
 30
0.0
 10
409.7364694105319
 20
303.5199805505547
 30
0.0
 10
409.6631936154647
 20
303.5023643946645
 30
0.0
 10
409.6390210643541
 20
303.4952762682059
 30
0.0
 10
409.6031467349377
 20
303.4827938547014
 30
0.0
 10
409.5912212644013
 20
303.4783108941468
 30
0.0
 10
409.5676732391601
 20
303.4687867430792
 30
0.0
 10
409.5560611654426
 20
303.4637520616999
 30
0.0
 10
409.4987921755159
 20
303.4372464582499
 30
0.0
 10
409.4554859195453
 20
303.4118184652777
 30
0.0
 10
409.4044423771556
 20
303.374833024337
 30
0.0
 10
409.3943895856098
 20
303.3671734676112
 30
0.0
 10
409.3746005681371
 20
303.3513214517107
 30
0.0
 10
409.3648493059813
 20
303.343113786333
 30
0.0
 10
409.3363726349842
 20
303.3179421044501
 30
0.0
 10
409.3183284695756
 20
303.3003609845501
 30
0.0
 10
409.2669390073651
 20
303.2452838317163
 30
0.0
 10
409.2363093933673
 20
303.2054772762572
 30
0.0
 10
409.2027164135616
 20
303.151725360794
 30
0.0
 10
409.1962290343939
 20
303.140759575327
 30
0.0
 10
409.1838711619608
 20
303.1186601662774
 30
0.0
 10
409.1662056478496
 20
303.0851756336542
 30
0.0
 10
409.1410455312436
 20
303.0277194968681
 30
0.0
 10
409.1254566839553
 20
302.9800071306294
 30
0.0
 10
409.1155087281883
 20
302.9435515979998
 30
0.0
 10
409.1124839005983
 20
302.9312876678958
 30
0.0
 10
409.1070305386358
 20
302.9065302548847
 30
0.0
 10
409.1046007561143
 20
302.8940205488728
 30
0.0
 10
409.094076451611
 20
302.8314777743383
 30
0.0
 10
409.090696655257
 20
302.7810355686006
 30
0.0
 10
409.0925187230971
 20
302.730172244433
 30
0.0
  0
SPLINE
  5
1C5
330
1F
100
AcDbEntity
  8
1
100
AcDbSpline
210
0.0
220
0.0
230
1.0
 70
     8
 71
     3
 72
    36
 73
    32
 74
     0
 42
0.000000001
 43
0.0000000001
 40
0.0
 40
0.0
 40
0.0
 40
0.0
 40
0.1249999999999428
 40
0.1249999999999428
 40
0.1874999999999142
 40
0.1874999999999142
 40
0.2187499999998876
 40
0.2187499999998876
 40
0.2499999999998611
 40
0.2499999999998611
 40
0.3749999999998356
 40
0.3749999999998356
 40
0.4062499999998583
 40
0.4062499999998583
 40
0.4374999999998808
 40
0.4374999999998808
 40
0.4999999999999277
 40
0.4999999999999277
 40
0.6250000000000199
 40
0.6250000000000199
 40
0.6562500000000286
 40
0.6562500000000286
 40
0.6875000000000374
 40
0.7500000000000561
 40
0.8125000000000746
 40
0.8125000000000746
 40
0.8437500000000508
 40
0.8437500000000508
 40
0.875000000000027
 40
0.875000000000027
 40
1.0
 40
1.0
 40
1.0
 40
1.0
 10
409.3778270692768
 20
294.7657427202775
 30
0.0
 10
409.3796493378528
 20
294.7148737925306
 30
0.0
 10
409.3866198119423
 20
294.665068177238
 30
0.0
 10
409.4043181564862
 20
294.5918556507401
 30
0.0
 10
409.411434765701
 20
294.5677028681741
 30
0.0
 10
409.4239615564778
 20
294.5318561817424
 30
0.0
 10
409.4284596269281
 20
294.5199396123343
 30
0.0
 10
409.4380143351235
 20
294.4964085827712
 30
0.0
 10
409.4430644476988
 20
294.4848045979999
 30
0.0
 10
409.4696479530249
 20
294.4275740545858
 30
0.0
 10
409.4951406322403
 20
294.3842922208038
 30
0.0
 10
409.532209842716
 20
294.3332714057758
 30
0.0
 10
409.5398863003048
 20
294.3232227660146
 30
0.0
 10
409.5557724163036
 20
294.3034412527882
 30
0.0
 10
409.5639973102183
 20
294.2936933460657
 30
0.0
 10
409.5892205952503
 20
294.2652254351332
 30
0.0
 10
409.6068361635118
 20
294.2471854117152
 30
0.0
 10
409.6620167963891
 20
294.1958034218398
 30
0.0
 10
409.7018925171428
 20
294.1651722339424
 30
0.0
 10
409.7557311201732
 20
294.1315688098131
 30
0.0
 10
409.7667142745742
 20
294.1250789080925
 30
0.0
 10
409.7888480687811
 20
294.1127151848665
 30
0.0
 10
409.822383786509
 20
294.0950396716545
 30
0.0
 10
409.8799232622481
 20
294.0698567759795
 30
0.0
 10
409.9277003257247
 20
294.0542435202758
 30
0.0
 10
409.964203565698
 20
294.0442747333706
 30
0.0
 10
409.9764832670452
 20
294.0412425534113
 30
0.0
 10
410.001271953836
 20
294.0357736497783
 30
0.0
 10
410.0137971808688
 20
294.0333356652808
 30
0.0
 10
410.0764161511834
 20
294.0227686158028
 30
0.0
 10
410.1269153986344
 20
294.0193488732922
 30
0.0
 10
410.1778317235908
 20
294.0211250597111
 30
0.0
  0
SPLINE
  5
1C6
330
1F
100
AcDbEntity
  8
1
100
AcDbSpline
210
0.0
220
0.0
230
1.0
 70
     8
 71
     3
 72
    36
 73
    32
 74
     0
 42
0.000000001
 43
0.0000000001
 40
0.0
 40
0.0
 40
0.0
 40
0.0
 40
0.1250000000002159
 40
0.1250000000002159
 40
0.1875000000003571
 40
0.1875000000003571
 40
0.2187500000003954
 40
0.2187500000003954
 40
0.2500000000004337
 40
0.2500000000004337
 40
0.3750000000004019
 40
0.3750000000004019
 40
0.406250000000394
 40
0.406250000000394
 40
0.437500000000386
 40
0.437500000000386
 40
0.5000000000003702
 40
0.5000000000003702
 40
0.6250000000002914
 40
0.6250000000002914
 40
0.6562500000002637
 40
0.6562500000002637
 40
0.6875000000002358
 40
0.7500000000001781
 40
0.8125000000001204
 40
0.8125000000001204
 40
0.8437500000001007
 40
0.8437500000001007
 40
0.875000000000081
 40
0.875000000000081
 40
1.0
 40
1.0
 40
1.0
 40
1.0
 10
418.1505603719797
 20
294.2992490672574
 30
0.0
 10
418.2014823063544
 20
294.3010254493577
 30
0.0
 10
418.2513353409543
 20
294.3079454412589
 30
0.0
 10
418.3246111360216
 20
294.3255615971491
 30
0.0
 10
418.3487836871322
 20
294.3326497236077
 30
0.0
 10
418.3846580165488
 20
294.3451321371123
 30
0.0
 10
418.396583487085
 20
294.3496150976669
 30
0.0
 10
418.4201315123263
 20
294.3591392487344
 30
0.0
 10
418.4317435860436
 20
294.3641739301137
 30
0.0
 10
418.4890125759704
 20
294.3906795335638
 30
0.0
 10
418.5323188319411
 20
294.4161075265359
 30
0.0
 10
418.5833623743308
 20
294.4530929674767
 30
0.0
 10
418.5934151658765
 20
294.4607525242024
 30
0.0
 10
418.6132041833493
 20
294.476604540103
 30
0.0
 10
418.6229554455051
 20
294.4848122054807
 30
0.0
 10
418.6514321165021
 20
294.5099838873635
 30
0.0
 10
418.6694762819108
 20
294.5275650072635
 30
0.0
 10
418.7208657441211
 20
294.5826421600974
 30
0.0
 10
418.7514953581191
 20
294.6224487155563
 30
0.0
 10
418.7850883379248
 20
294.6762006310196
 30
0.0
 10
418.7915757170923
 20
294.6871664164867
 30
0.0
 10
418.8039335895256
 20
294.7092658255362
 30
0.0
 10
418.8215991036368
 20
294.7427503581595
 30
0.0
 10
418.8467592202428
 20
294.8002064949454
 30
0.0
 10
418.862348067531
 20
294.8479188611843
 30
0.0
 10
418.8722960232982
 20
294.8843743938139
 30
0.0
 10
418.8753208508881
 20
294.8966383239178
 30
0.0
 10
418.8807742128507
 20
294.9213957369289
 30
0.0
 10
418.8832039953721
 20
294.9339054429408
 30
0.0
 10
418.8937282998754
 20
294.9964482174753
 30
0.0
 10
418.8971080962293
 20
295.046890423213
 30
0.0
 10
418.8952860283893
 20
295.0977537473806
 30
0.0
  0
SPLINE
  5
1C7
330
1F
100
AcDbEntity
  8
1
100
AcDbSpline
210
0.0
220
0.0
230
1.0
 70
     8
 71
     3
 72
     8
 73
     4
 74
     0
 42
0.000000001
 43
0.0000000001
 40
0.0
 40
0.0
 40
0.0
 40
0.0
 40
1.0
 40
1.0
 40
1.0
 40
1.0
 10
404.5725206632774
 20
294.3497509142328
 30
0.0
 10
404.2860814192996
 20
294.4951225959487
 30
0.0
 10
404.0042095552268
 20
294.6516573677952
 30
0.0
 10
403.7264229832714
 20
294.8199133571032
 30
0.0
  0
SPLINE
  5
1C8
330
1F
100
AcDbEntity
  8
1
100
AcDbSpline
210
0.0
220
0.0
230
1.0
 70
     8
 71
     3
 72
    43
 73
    39
 74
     0
 42
0.000000001
 43
0.0000000001
 40
0.0
 40
0.0
 40
0.0
 40
0.0
 40
0.1250000000000015
 40
0.1250000000000015
 40
0.2500000000000031
 40
0.2500000000000031
 40
0.3125000000000039
 40
0.3125000000000039
 40
0.3437500000000047
 40
0.3437500000000047
 40
0.3593750000000048
 40
0.3593750000000048
 40
0.3750000000000049
 40
0.4375000000000052
 40
0.4375000000000052
 40
0.5000000000000055
 40
0.5000000000000055
 40
0.5625000000000061
 40
0.5625000000000061
 40
0.6250000000000064
 40
0.6250000000000064
 40
0.6562500000000063
 40
0.6562500000000063
 40
0.6718750000000061
 40
0.6718750000000061
 40
0.6875000000000057
 40
0.7500000000000041
 40
0.7500000000000041
 40
0.8125000000000026
 40
0.8125000000000026
 40
0.8750000000000012
 40
0.8750000000000012
 40
0.906250000000001
 40
0.906250000000001
 40
0.9218750000000007
 40
0.9218750000000007
 40
0.9375000000000007
 40
1.0
 40
1.0
 40
1.0
 40
1.0
 10
281.8043368819074
 20
283.0900478411879
 30
0.0
 10
282.1094530047864
 20
283.3794124148232
 30
0.0
 10
282.4291903170661
 20
283.6520609282837
 30
0.0
 10
283.0992469058043
 20
284.1638376772855
 30
0.0
 10
283.4495511677979
 20
284.4029805728456
 30
0.0
 10
283.9999819867596
 20
284.7352900597196
 30
0.0
 10
284.1876335033296
 20
284.8416452858027
 30
0.0
 10
284.4757657622292
 20
284.9942422542237
 30
0.0
 10
284.5729200960552
 20
285.0439507097807
 30
0.0
 10
284.7203770958691
 20
285.1167258996767
 30
0.0
 10
284.7698484178964
 20
285.1407011089898
 30
0.0
 10
284.8692261574759
 20
285.1879740114329
 30
0.0
 10
285.1185694174742
 20
285.3043735967699
 30
0.0
 10
285.3724292862127
 20
285.4118437929906
 30
0.0
 10
285.7845810987129
 20
285.572070055173
 30
0.0
 10
285.9936446887093
 20
285.6463212537523
 30
0.0
 10
286.4180180422748
 20
285.7826001499093
 30
0.0
 10
286.6333273369696
 20
285.8446294825895
 30
0.0
 10
287.0705496688026
 20
285.9557250519605
 30
0.0
 10
287.2924620521732
 20
286.0047936788725
 30
0.0
 10
287.630629661857
 20
286.0678934120853
 30
0.0
 10
287.7442362450598
 20
286.0871735436711
 30
0.0
 10
287.9160242700907
 20
286.1133397110259
 30
0.0
 10
287.9735213130863
 20
286.1216018249741
 30
0.0
 10
288.0884964265542
 20
286.1371239266193
 30
0.0
 10
288.3761859071341
 20
286.1734687561442
 30
0.0
 10
288.6651289621544
 20
286.1974543464898
 30
0.0
 10
289.1290056484447
 20
286.2194161830441
 30
0.0
 10
289.3617281386564
 20
286.2221900635718
 30
0.0
 10
289.8286899229776
 20
286.2104600461527
 30
0.0
 10
290.0629295305104
 20
286.1959568507229
 30
0.0
 10
290.4153711030064
 20
286.1603824774991
 30
0.0
 10
290.5330317789022
 20
286.1462187893125
 30
0.0
 10
290.7097837893887
 20
286.1213856693818
 30
0.0
 10
290.768789085139
 20
286.1125025612907
 30
0.0
 10
290.8866579473734
 20
286.0935539162629
 30
0.0
 10
291.1808143497877
 20
286.0432559370699
 30
0.0
 10
291.4723629089532
 20
285.9782626973114
 30
0.0
 10
291.7038318185191
 20
285.9166122152204
 30
0.0
  0
SPLINE
  5
1C9
330
1F
100
AcDbEntity
  8
1
100
AcDbSpline
210
0.0
220
0.0
230
1.0
 70
     8
 71
     3
 72
    26
 73
    22
 74
     0
 42
0.000000001
 43
0.0000000001
 40
0.0
 40
0.0
 40
0.0
 40
0.0
 40
0.1250000000000025
 40
0.1250000000000025
 40
0.250000000000005
 40
0.250000000000005
 40
0.3125000000000062
 40
0.3125000000000062
 40
0.3750000000000075
 40
0.3750000000000075
 40
0.5000000000000617
 40
0.6250000000001159
 40
0.6250000000001159
 40
0.7500000000001699
 40
0.7500000000001699
 40
0.7812500000001556
 40
0.7812500000001556
 40
0.8125000000001413
 40
0.8750000000001129
 40
0.8750000000001129
 40
1.0
 40
1.0
 40
1.0
 40
1.0
 10
411.8443597692545
 20
293.7189472895699
 30
0.0
 10
411.7945492288282
 20
293.6814241791153
 30
0.0
 10
411.7435344293208
 20
293.646498942871
 30
0.0
 10
411.6390379343275
 20
293.5815406685415
 30
0.0
 10
411.5855574995446
 20
293.5515097216538
 30
0.0
 10
411.50339717789
 20
293.5100740105472
 30
0.0
 10
411.4756865199579
 20
293.4968654158401
 30
0.0
 10
411.4195933004812
 20
293.4716625625524
 30
0.0
 10
411.3913014348926
 20
293.4597113770975
 30
0.0
 10
411.3060627116238
 20
293.4259403150565
 30
0.0
 10
411.1911156757193
 20
293.3862999608797
 30
0.0
 10
411.0731075844736
 20
293.3572469807927
 30
0.0
 10
410.9532546324951
 20
293.333639896064
 30
0.0
 10
410.8924031119005
 20
293.3245590772608
 30
0.0
 10
410.8149592015847
 20
293.3168667771752
 30
0.0
 10
410.799381134386
 20
293.315510865749
 30
0.0
 10
410.7682862764171
 20
293.3131882296252
 30
0.0
 10
410.7216758061613
 20
293.3102806971112
 30
0.0
 10
410.6751626894541
 20
293.3090913642245
 30
0.0
 10
410.5822633346427
 20
293.3089802957192
 30
0.0
 10
410.5205015482376
 20
293.3119260945957
 30
0.0
 10
410.4588735814264
 20
293.3178640777791
 30
0.0
  0
SPLINE
  5
1CA
330
1F
100
AcDbEntity
  8
1
100
AcDbSpline
210
0.0
220
0.0
230
1.0
 70
     8
 71
     3
 72
    22
 73
    18
 74
     0
 42
0.000000001
 43
0.0000000001
 40
0.0
 40
0.0
 40
0.0
 40
0.0
 40
0.2500000000000167
 40
0.2500000000000167
 40
0.3750000000000249
 40
0.3750000000000249
 40
0.4375000000000222
 40
0.4375000000000222
 40
0.5000000000000196
 40
0.5000000000000196
 40
0.7500000000000226
 40
0.7500000000000226
 40
0.8125000000000168
 40
0.8125000000000168
 40
0.8750000000000111
 40
0.8750000000000111
 40
1.0
 40
1.0
 40
1.0
 40
1.0
 10
410.4569126926937
 20
293.1431451073225
 30
0.0
 10
409.9491239271332
 20
293.1253071595858
 30
0.0
 10
409.4438453617914
 20
293.1378315648363
 30
0.0
 10
408.6896142213552
 20
293.2011530803454
 30
0.0
 10
408.4388200310363
 20
293.2297033231563
 30
0.0
 10
408.0635586373054
 20
293.2837489693555
 30
0.0
 10
407.9386265943468
 20
293.3036354788123
 30
0.0
 10
407.6890749239696
 20
293.3471756085137
 30
0.0
 10
407.5643328351723
 20
293.3708563374247
 30
0.0
 10
406.9435924094107
 20
293.498297753161
 30
0.0
 10
406.455655770249
 20
293.6291518810979
 30
0.0
 10
405.8564910686761
 20
293.8284476039346
 30
0.0
 10
405.7371887950187
 20
293.8701023519933
 30
0.0
 10
405.4997060754291
 20
293.9569966315868
 30
0.0
 10
405.3818122094509
 20
294.0021309909147
 30
0.0
 10
405.0306554814477
 20
294.1425494148804
 30
0.0
 10
404.799915148342
 20
294.2428447237244
 30
0.0
 10
404.5725206632774
 20
294.3497509142328
 30
0.0
  0
SPLINE
  5
1CB
330
1F
100
AcDbEntity
  8
1
100
AcDbSpline
210
0.0
220
0.0
230
1.0
 70
     8
 71
     3
 72
    28
 73
    24
 74
     0
 42
0.000000001
 43
0.0000000001
 40
0.0
 40
0.0
 40
0.0
 40
0.0
 40
0.1250000000000191
 40
0.1250000000000191
 40
0.2500000000000382
 40
0.2500000000000382
 40
0.2812500000000349
 40
0.2812500000000349
 40
0.3125000000000316
 40
0.3750000000000142
 40
0.3750000000000142
 40
0.4999999999999793
 40
0.4999999999999793
 40
0.5312499999999734
 40
0.5312499999999734
 40
0.5624999999999675
 40
0.5624999999999675
 40
0.6249999999999672
 40
0.6249999999999672
 40
0.7499999999999782
 40
0.8749999999999891
 40
0.8749999999999891
 40
1.0
 40
1.0
 40
1.0
 40
1.0
 10
403.8693430718168
 20
292.0369844856151
 30
0.0
 10
404.1173650065072
 20
291.8814168180897
 30
0.0
 10
404.3707993294274
 20
291.7353713647511
 30
0.0
 10
404.8883630100344
 20
291.4624354261492
 30
0.0
 10
405.1524919222122
 20
291.3355437422263
 30
0.0
 10
405.4893494966217
 20
291.1891104812009
 30
0.0
 10
405.5570936812191
 20
291.1604183208753
 30
0.0
 10
405.6930320538856
 20
291.1043517835322
 30
0.0
 10
405.897610213987
 20
291.0222275400989
 30
0.0
 10
406.1041887758808
 20
290.9460102343851
 30
0.0
 10
406.5199931761208
 20
290.8014264473646
 30
0.0
 10
406.8007219849613
 20
290.7154947029284
 30
0.0
 10
407.1560306551021
 20
290.6212195299458
 30
0.0
 10
407.2273125718537
 20
290.6030222783448
 30
0.0
 10
407.3703177477694
 20
290.5679483330763
 30
0.0
 10
407.4420369877604
 20
290.5510739376087
 30
0.0
 10
407.6572495273529
 20
290.5025701404848
 30
0.0
 10
407.8009992415512
 20
290.4730086444031
 30
0.0
 10
408.2330605762132
 20
290.3925428411644
 30
0.0
 10
408.8113056653208
 20
290.3071478889908
 30
0.0
 10
409.3938134222903
 20
290.265010233624
 30
0.0
 10
409.9784612594098
 20
290.2446197426968
 30
0.0
 10
410.2718551075113
 20
290.2452969884102
 30
0.0
 10
410.566344438321
 20
290.2571058410194
 30
0.0
  0
SPLINE
  5
1CC
330
1F
100
AcDbEntity
  8
1
100
AcDbSpline
210
0.0
220
0.0
230
1.0
 70
     8
 71
     3
 72
     8
 73
     4
 74
     0
 42
0.000000001
 43
0.0000000001
 40
0.0
 40
0.0
 40
0.0
 40
0.0
 40
1.0
 40
1.0
 40
1.0
 40
1.0
 10
410.4569126926937
 20
293.1431451073225
 30
0.0
 10
410.4604704836708
 20
293.1432700878141
 30
0.0
 10
410.4640290895832
 20
293.1433946625199
 30
0.0
 10
410.4675885115413
 20
293.1435188308873
 30
0.0
  0
SPLINE
  5
1CD
330
1F
100
AcDbEntity
  8
1
100
AcDbSpline
210
0.0
220
0.0
230
1.0
 70
     8
 71
     3
 72
    26
 73
    22
 74
     0
 42
0.000000001
 43
0.0000000001
 40
0.0
 40
0.0
 40
0.0
 40
0.0
 40
0.0624999999999856
 40
0.1249999999999711
 40
0.1249999999999711
 40
0.2499999999999549
 40
0.2499999999999549
 40
0.3749999999999386
 40
0.3749999999999386
 40
0.4999999999999223
 40
0.4999999999999223
 40
0.5312499999999242
 40
0.5312499999999242
 40
0.5624999999999261
 40
0.6249999999999416
 40
0.6249999999999416
 40
0.749999999999961
 40
0.749999999999961
 40
0.8749999999999804
 40
0.8749999999999804
 40
1.0
 40
1.0
 40
1.0
 40
1.0
 10
409.8798419452958
 20
291.1753521635014
 30
0.0
 10
409.7423166680373
 20
291.1754546972293
 30
0.0
 10
409.4695795148078
 20
291.1784137357966
 30
0.0
 10
409.2007988142611
 20
291.1871660516841
 30
0.0
 10
408.800177118904
 20
291.2048518728114
 30
0.0
 10
408.5364739124848
 20
291.2227231486006
 30
0.0
 10
408.0141837706151
 20
291.2716739658442
 30
0.0
 10
407.7556048450015
 20
291.3027509800939
 30
0.0
 10
407.2425163654012
 20
291.3790637566798
 30
0.0
 10
406.9880125001323
 20
291.4242959643615
 30
0.0
 10
406.6720000312204
 20
291.4902810259588
 30
0.0
 10
406.6088777880067
 20
291.5039569428702
 30
0.0
 10
406.4831678611445
 20
291.5321929611669
 30
0.0
 10
406.2952931534637
 20
291.5758954618508
 30
0.0
 10
406.1094206466423
 20
291.6236679616567
 30
0.0
 10
405.7401954798924
 20
291.7247149728467
 30
0.0
 10
405.4973980880394
 20
291.7994099870289
 30
0.0
 10
405.0179175476519
 20
291.9639855347406
 30
0.0
 10
404.781238414267
 20
292.0538626172951
 30
0.0
 10
404.3136322359078
 20
292.2494936976802
 30
0.0
 10
404.082706650157
 20
292.3552453003853
 30
0.0
 10
403.8545481291325
 20
292.4694072894
 30
0.0
  0
SPLINE
  5
1CE
330
1F
100
AcDbEntity
  8
1
100
AcDbSpline
210
0.0
220
0.0
230
1.0
 70
     8
 71
     3
 72
    14
 73
    10
 74
     0
 42
0.000000001
 43
0.0000000001
 40
0.0
 40
0.0
 40
0.0
 40
0.0
 40
0.25
 40
0.25
 40
0.5
 40
0.5
 40
0.75
 40
0.75
 40
1.0
 40
1.0
 40
1.0
 40
1.0
 10
281.8043368819074
 20
283.0900478411879
 30
0.0
 10
281.5915577820359
 20
282.8882534131131
 30
0.0
 10
281.3817793855119
 20
282.6800859301382
 30
0.0
 10
280.9684779540073
 20
282.2499420098006
 30
0.0
 10
280.7649536493686
 20
282.0279697980611
 30
0.0
 10
280.3644945118865
 20
281.5688516755085
 30
0.0
 10
280.1675574302571
 20
281.3317131465493
 30
0.0
 10
279.7807392266835
 20
280.840423333269
 30
0.0
 10
279.5908539197222
 20
280.5862857753535
 30
0.0
 10
279.4048419452959
 20
280.3223345829806
 30
0.0
  0
SPLINE
  5
1CF
330
1F
100
AcDbEntity
  8
1
100
AcDbSpline
210
0.0
220
0.0
230
1.0
 70
     8
 71
     3
 72
    18
 73
    14
 74
     0
 42
0.000000001
 43
0.0000000001
 40
0.0
 40
0.0
 40
0.0
 40
0.0
 40
0.2500000000001256
 40
0.2500000000001256
 40
0.5000000000002513
 40
0.5000000000002513
 40
0.6250000000002768
 40
0.6250000000002768
 40
0.6875000000002544
 40
0.6875000000002544
 40
0.7500000000002319
 40
0.7500000000002319
 40
1.0
 40
1.0
 40
1.0
 40
1.0
 10
410.4588735814265
 20
293.3178640777791
 30
0.0
 10
410.3721010887226
 20
293.326224788494
 30
0.0
 10
410.2873998836076
 20
293.3402636752331
 30
0.0
 10
410.121077780318
 20
293.3788833814436
 30
0.0
 10
410.0394598359996
 20
293.4034688676186
 30
0.0
 10
409.9188083775008
 20
293.448344535821
 30
0.0
 10
409.878889526857
 20
293.464642626083
 30
0.0
 10
409.8194056282936
 20
293.4911736713115
 30
0.0
 10
409.7996658410208
 20
293.5003566214969
 30
0.0
 10
409.7605768817272
 20
293.5192977935047
 30
0.0
 10
409.7411964719253
 20
293.529069734057
 30
0.0
 10
409.6450984644521
 20
293.5794284091446
 30
0.0
 10
409.5707858898173
 20
293.6244875266664
 30
0.0
 10
409.4989000333679
 20
293.6744125578238
 30
0.0
  0
SPLINE
  5
1D0
330
1F
100
AcDbEntity
  8
1
100
AcDbSpline
210
0.0
220
0.0
230
1.0
 70
     8
 71
     3
 72
    10
 73
     6
 74
     0
 42
0.000000001
 43
0.0000000001
 40
0.0
 40
0.0
 40
0.0
 40
0.0
 40
0.5
 40
0.5
 40
1.0
 40
1.0
 40
1.0
 40
1.0
 10
405.9575610681649
 20
298.3663097437439
 30
0.0
 10
405.9352357314308
 20
299.1921136715614
 30
0.0
 10
405.9162510963126
 20
300.0180001683401
 30
0.0
 10
405.8826288286513
 20
301.6698515725928
 30
0.0
 10
405.8680121631611
 20
302.4958160790138
 30
0.0
 10
405.8549021766133
 20
303.3218072277027
 30
0.0
  0
SPLINE
  5
1D1
330
1F
100
AcDbEntity
  8
1
100
AcDbSpline
210
0.0
220
0.0
230
1.0
 70
     8
 71
     3
 72
    42
 73
    38
 74
     0
 42
0.000000001
 43
0.0000000001
 40
0.0
 40
0.0
 40
0.0
 40
0.0
 40
0.0609050488359877
 40
0.0609050488359877
 40
0.1218100976719753
 40
0.1218100976719753
 40
0.1827151465079623
 40
0.1827151465079623
 40
0.2131676709259558
 40
0.2131676709259558
 40
0.2436201953439492
 40
0.2436201953439492
 40
0.3045252441799361
 40
0.3045252441799361
 40
0.3654302930159231
 40
0.3654302930159231
 40
0.42633534185191
 40
0.42633534185191
 40
0.4872403906878969
 40
0.4872403906878969
 40
0.6090504883598716
 40
0.6090504883598716
 40
0.6699555371958584
 40
0.6699555371958584
 40
0.7308605860318453
 40
0.7308605860318453
 40
0.7917656348678323
 40
0.7917656348678323
 40
0.8526706837038192
 40
0.8526706837038192
 40
0.913575732539806
 40
0.913575732539806
 40
0.9440282569577995
 40
0.9440282569577995
 40
0.9744807813757931
 40
0.9744807813757931
 40
1.0
 40
1.0
 40
1.0
 40
1.0
 10
405.8549021766131
 20
303.3218072276758
 30
0.0
 10
404.7744308194317
 20
303.3540245708829
 30
0.0
 10
403.6905681850626
 20
303.3757358996989
 30
0.0
 10
401.5158881269979
 20
303.402936356266
 30
0.0
 10
400.4250734911897
 20
303.4084381492025
 30
0.0
 10
398.2367811471552
 20
303.4074933720465
 30
0.0
 10
397.1393059649903
 20
303.4010538064001
 30
0.0
 10
395.4885982889622
 20
303.3850052127927
 30
0.0
 10
394.937797450969
 20
303.3785852901798
 30
0.0
 10
393.8354423588872
 20
303.36394876841
 30
0.0
 10
393.2838393400428
 20
303.3557317204502
 30
0.0
 10
391.6278721212433
 20
303.3287973568267
 30
0.0
 10
390.5223449400402
 20
303.3078292018535
 30
0.0
 10
388.3089524950366
 20
303.261287421988
 30
0.0
 10
387.201088450068
 20
303.235712386288
 30
0.0
 10
384.9839245162696
 20
303.1803556594458
 30
0.0
 10
383.8746257287648
 20
303.1505729837721
 30
0.0
 10
381.6555994051073
 20
303.0862222243825
 30
0.0
 10
380.5459252292871
 20
303.0515618766511
 30
0.0
 10
377.2170058424263
 20
302.9398362380151
 30
0.0
 10
374.9977408822149
 20
302.8551217951198
 30
0.0
 10
371.6696955323967
 20
302.7106862031308
 30
0.0
 10
370.5604873442061
 20
302.6596324308993
 30
0.0
 10
368.3424641346415
 20
302.5512244346611
 30
0.0
 10
367.2335976640837
 20
302.4938678176528
 30
0.0
 10
365.0166946768583
 20
302.3722997001021
 30
0.0
 10
363.9086462442637
 20
302.3080899437713
 30
0.0
 10
361.6934903118836
 20
302.172124821873
 30
0.0
 10
360.5863817571299
 20
302.1003732275174
 30
0.0
 10
358.3732716677245
 20
301.9484259767118
 30
0.0
 10
357.2672688612994
 20
301.8682361770134
 30
0.0
 10
355.6092705640454
 20
301.7406808426671
 30
0.0
 10
355.0567727791899
 20
301.696947299731
 30
0.0
 10
353.9521529396405
 20
301.606843011733
 30
0.0
 10
353.400030722992
 20
301.5604715320251
 30
0.0
 10
352.3855437789022
 20
301.4728074381528
 30
0.0
 10
351.9231286040692
 20
301.4319068931594
 30
0.0
 10
351.4608226908503
 20
301.3900792748518
 30
0.0
  0
SPLINE
  5
1D2
330
1F
100
AcDbEntity
  8
1
100
AcDbSpline
210
0.0
220
0.0
230
1.0
 70
    28
 71
     4
 72
    13
 73
     8
 74
     0
 42
0.000000001
 43
0.0000000001
 40
0.0
 40
0.0
 40
0.0
 40
0.0
 40
0.0
 40
0.2613932978560989
 40
0.2613932978560989
 40
0.2613932978560989
 40
1.0
 40
1.0
 40
1.0
 40
1.0
 40
1.0
 10
297.9048419452959
 20
283.9935519167927
 30
0.0
 41
1.001461917626719
 10
297.9048419452957
 20
283.4435066434795
 30
0.0
 41
0.9985095622425653
 10
297.9048419452956
 20
282.8400800902589
 30
0.0
 41
0.9946343748332964
 10
297.9048419452957
 20
282.194689116387
 30
0.0
 41
0.9910725917621714
 10
297.9048419452957
 20
279.6044120314095
 30
0.0
 41
0.9807292787847543
 10
297.9048419452957
 20
277.5074861709339
 30
0.0
 41
0.9799410609753703
 10
297.9048419452957
 20
275.694877753572
 30
0.0
 41
0.9982933232978645
 10
297.9048419452957
 20
274.4092409167927
 30
0.0
 41
1.003990573518674
  0
SPLINE
  5
1D3
330
1F
100
AcDbEntity
  8
1
100
AcDbSpline
210
0.0
220
0.0
230
1.0
 70
     8
 71
     3
 72
    56
 73
    52
 74
     0
 42
0.000000001
 43
0.0000000001
 40
0.0
 40
0.0
 40
0.0
 40
0.0
 40
0.0624999999999988
 40
0.0624999999999988
 40
0.1249999999999977
 40
0.1249999999999977
 40
0.1562499999999971
 40
0.1562499999999971
 40
0.1874999999999965
 40
0.1874999999999965
 40
0.2499999999999953
 40
0.2499999999999953
 40
0.3124999999999942
 40
0.3124999999999942
 40
0.3437499999999936
 40
0.3437499999999936
 40
0.374999999999993
 40
0.374999999999993
 40
0.4062499999999926
 40
0.4062499999999926
 40
0.4218749999999923
 40
0.4218749999999923
 40
0.4374999999999923
 40
0.4374999999999923
 40
0.4687499999999926
 40
0.4687499999999926
 40
0.4999999999999928
 40
0.4999999999999928
 40
0.531249999999993
 40
0.531249999999993
 40
0.5468749999999931
 40
0.5468749999999931
 40
0.5624999999999933
 40
0.5624999999999933
 40
0.5937499999999939
 40
0.5937499999999939
 40
0.6249999999999946
 40
0.6249999999999946
 40
0.6874999999999955
 40
0.6874999999999955
 40
0.7499999999999965
 40
0.7499999999999965
 40
0.8124999999999973
 40
0.8124999999999973
 40
0.8437499999999978
 40
0.8437499999999978
 40
0.8749999999999982
 40
0.8749999999999982
 40
0.9374999999999992
 40
0.9374999999999992
 40
1.0
 40
1.0
 40
1.0
 40
1.0
 10
300.1729599154061
 20
283.3101192014217
 30
0.0
 10
302.2201334540026
 20
283.0075637246583
 30
0.0
 10
304.2668972108789
 20
282.7078020208531
 30
0.0
 10
308.3593264059831
 20
282.1127694013086
 30
0.0
 10
310.4049896303337
 20
281.8174819803835
 30
0.0
 10
313.4723774912294
 20
281.376997050815
 30
0.0
 10
314.4946550702664
 20
281.230577162791
 30
0.0
 10
316.5387913088094
 20
280.9384408192311
 30
0.0
 10
317.5605484761226
 20
280.7927381044375
 30
0.0
 10
320.6242557801358
 20
280.3567140909724
 30
0.0
 10
322.6648462466394
 20
280.0673940456651
 30
0.0
 10
326.7417445744213
 20
279.492025289821
 30
0.0
 10
328.7780448768181
 20
279.2059532559575
 30
0.0
 10
331.8290880913147
 20
278.7811541947568
 30
0.0
 10
332.8455374822854
 20
278.6402904579349
 30
0.0
 10
334.8773204930623
 20
278.3605831093926
 30
0.0
 10
335.892653854241
 20
278.2217393654089
 30
0.0
 10
337.9222587085486
 20
277.9467884009459
 30
0.0
 10
338.9365299666171
 20
277.8106814237184
 30
0.0
 10
340.4572166217527
 20
277.6092364249934
 30
0.0
 10
340.9639844086398
 20
277.5425162989614
 30
0.0
 10
341.9773513253698
 20
277.4102767053171
 30
0.0
 10
342.4839573948661
 20
277.3447800055101
 30
0.0
 10
344.0037339689893
 20
277.1508141233116
 30
0.0
 10
345.0168698396412
 20
277.0249068510064
 30
0.0
 10
347.0438993988097
 20
276.7824536957931
 30
0.0
 10
348.0577927464055
 20
276.6659008540333
 30
0.0
 10
350.0869725346466
 20
276.4435809919452
 30
0.0
 10
351.1023543031606
 20
276.3377951074125
 30
0.0
 10
352.626092951698
 20
276.1876954543596
 30
0.0
 10
353.1341394328178
 20
276.139083494636
 30
0.0
 10
354.1505488202116
 20
276.044718135267
 30
0.0
 10
354.6589167281982
 20
275.9989775494158
 30
0.0
 10
356.184520287836
 20
275.8659178806237
 30
0.0
 10
357.2022290197934
 20
275.7826805761284
 30
0.0
 10
359.2387231953781
 20
275.6257798629699
 30
0.0
 10
360.2575101883648
 20
275.5521249561718
 30
0.0
 10
363.3153502437706
 20
275.3441840942299
 30
0.0
 10
365.3558732863842
 20
275.2228876051114
 30
0.0
 10
369.4407328928642
 20
275.0101070144064
 30
0.0
 10
371.4850932845088
 20
274.9186743405797
 30
0.0
 10
375.5775876331339
 20
274.7615941400673
 30
0.0
 10
377.6257215058095
 20
274.6959319098583
 30
0.0
 10
380.7004361152849
 20
274.6138790441889
 30
0.0
 10
381.7256662312877
 20
274.5892759031497
 30
0.0
 10
383.776472704672
 20
274.545159208597
 30
0.0
 10
384.8020857533485
 20
274.5256395573513
 30
0.0
 10
387.8794362253352
 20
274.4741430834511
 30
0.0
 10
389.9316904801622
 20
274.4491914348131
 30
0.0
 10
394.0369237126038
 20
274.4161206041404
 30
0.0
 10
396.0899033483934
 20
274.4079935137005
 30
0.0
 10
398.1428380545998
 20
274.4079935137005
 30
0.0
  0
SPLINE
  5
1D4
330
1F
100
AcDbEntity
  8
1
100
AcDbSpline
210
0.0
220
0.0
230
1.0
 70
     8
 71
     3
 72
    62
 73
    58
 74
     0
 42
0.000000001
 43
0.0000000001
 40
0.0
 40
0.0
 40
0.0
 40
0.0
 40
0.0232160595676385
 40
0.0232160595676385
 40
0.0929863410270927
 40
0.0929863410270927
 40
0.1627566224865469
 40
0.1627566224865469
 40
0.232526903946001
 40
0.232526903946001
 40
0.3022971854054551
 40
0.3022971854054551
 40
0.3371823261351824
 40
0.3371823261351824
 40
0.3546248965000462
 40
0.3546248965000462
 40
0.3720674668649099
 40
0.3720674668649099
 40
0.4069526075946372
 40
0.4069526075946372
 40
0.4418377483243643
 40
0.4418377483243643
 40
0.4767228890540915
 40
0.4767228890540915
 40
0.5116080297838188
 40
0.5116080297838188
 40
0.5464931705135462
 40
0.5464931705135462
 40
0.5813783112432733
 40
0.5813783112432733
 40
0.6162634519730004
 40
0.6162634519730004
 40
0.6511485927027277
 40
0.6511485927027277
 40
0.6860337334324548
 40
0.6860337334324548
 40
0.720918874162182
 40
0.720918874162182
 40
0.7558040148919094
 40
0.7558040148919094
 40
0.7906891556216365
 40
0.7906891556216365
 40
0.8081317259864999
 40
0.8081317259864999
 40
0.8255742963513634
 40
0.8255742963513634
 40
0.8604594370810906
 40
0.8604594370810906
 40
0.8953445778108179
 40
0.8953445778108179
 40
0.9302297185405452
 40
0.9302297185405452
 40
0.9651148592702723
 40
0.9651148592702723
 40
0.9825574296351359
 40
0.9825574296351359
 40
1.0
 40
1.0
 40
1.0
 40
1.0
 10
308.5707283207744
 20
303.407987713338
 30
0.0
 10
309.2791983367082
 20
303.4080211277288
 30
0.0
 10
309.9874746938002
 20
303.4066664414656
 30
0.0
 10
312.8235954897839
 20
303.3952933955622
 30
0.0
 10
314.9493327881146
 20
303.3733220275896
 30
0.0
 10
319.1972739252276
 20
303.2985763567463
 30
0.0
 10
321.3195179915373
 20
303.2457794590008
 30
0.0
 10
325.5621614042088
 20
303.1074771555215
 30
0.0
 10
327.6825690613572
 20
303.0219672059039
 30
0.0
 10
331.9233243124365
 20
302.818862281432
 30
0.0
 10
334.0436812964787
 20
302.7012863668101
 30
0.0
 10
337.2254274203375
 20
302.5030680943998
 30
0.0
 10
338.2861314404086
 20
302.433373624255
 30
0.0
 10
339.8773158380196
 20
302.3237999911849
 30
0.0
 10
340.4077425289093
 20
302.2864384293539
 30
0.0
 10
341.4686759534997
 20
302.2101008062666
 30
0.0
 10
341.9991781943113
 20
302.1711161430632
 30
0.0
 10
343.5907262485205
 20
302.0515969058201
 30
0.0
 10
344.6518081589017
 20
301.9684909133385
 30
0.0
 10
346.7738499729894
 20
301.7948905981411
 30
0.0
 10
347.8348104160253
 20
301.704392372918
 30
0.0
 10
349.9565489169864
 20
301.5157067374898
 30
0.0
 10
351.0172908114585
 20
301.4175207072022
 30
0.0
 10
353.1383623203407
 20
301.2135211584865
 30
0.0
 10
354.1987229937758
 20
301.107695027219
 30
0.0
 10
356.3192888110878
 20
300.8888359312097
 30
0.0
 10
357.3795132805549
 20
300.7758573760827
 30
0.0
 10
359.5001357596518
 20
300.5436965744784
 30
0.0
 10
360.5605329102477
 20
300.4245147985559
 30
0.0
 10
362.6816844602569
 20
300.1806513588016
 30
0.0
 10
363.7424155773749
 20
300.0559721525567
 30
0.0
 10
365.8640264182897
 20
299.8016564055358
 30
0.0
 10
366.9249430620157
 20
299.6720155120438
 30
0.0
 10
369.0470449878901
 20
299.4080755388007
 30
0.0
 10
370.1082299531998
 20
299.2737765237856
 30
0.0
 10
372.2308649720329
 20
299.0006302055789
 30
0.0
 10
373.2923148820398
 20
298.8617834078959
 30
0.0
 10
375.4154344035344
 20
298.5794461958912
 30
0.0
 10
376.4770962232572
 20
298.4359578132417
 30
0.0
 10
378.600265138874
 20
298.1440529045849
 30
0.0
 10
379.6618084296006
 20
297.9956337284322
 30
0.0
 10
381.2539621466129
 20
297.7688516487013
 30
0.0
 10
381.7846528232366
 20
297.6925631993365
 30
0.0
 10
382.8459576599572
 20
297.5384887668723
 30
0.0
 10
383.3765702272541
 20
297.4606963612979
 30
0.0
 10
384.9681802119758
 20
297.2245395069098
 30
0.0
 10
386.028942779316
 20
297.0633711495752
 30
0.0
 10
388.1494228024672
 20
296.7312946109774
 30
0.0
 10
389.2091452937743
 20
296.5603656146051
 30
0.0
 10
391.3268772585128
 20
296.207549876348
 30
0.0
 10
392.3849407006981
 20
296.0256292183133
 30
0.0
 10
394.4996638361993
 20
295.6511847365726
 30
0.0
 10
395.5563196239053
 20
295.4586344707648
 30
0.0
 10
397.140790507267
 20
295.1639766823332
 30
0.0
 10
397.6688665126343
 20
295.0648071563433
 30
0.0
 10
398.7250047168044
 20
294.8652168610908
 30
0.0
 10
399.2530770965315
 20
294.7647936984833
 30
0.0
 10
399.7811911638005
 20
294.6641855468858
 30
0.0
  0
SPLINE
  5
1D5
330
1F
100
AcDbEntity
  8
1
100
AcDbSpline
210
0.0
220
0.0
230
1.0
 70
     8
 71
     3
 72
    38
 73
    34
 74
     0
 42
0.000000001
 43
0.0000000001
 40
0.0
 40
0.0
 40
0.0
 40
0.0
 40
0.0624999999999802
 40
0.0624999999999802
 40
0.1249999999999604
 40
0.1249999999999604
 40
0.2499999999999206
 40
0.2499999999999206
 40
0.3749999999998808
 40
0.3749999999998808
 40
0.4999999999998411
 40
0.4999999999998411
 40
0.5312499999998432
 40
0.5312499999998432
 40
0.5624999999998453
 40
0.5624999999998453
 40
0.6249999999998641
 40
0.6249999999998641
 40
0.6874999999998828
 40
0.6874999999998828
 40
0.7187499999998927
 40
0.7187499999998927
 40
0.7499999999999024
 40
0.7499999999999024
 40
0.8124999999999232
 40
0.8124999999999232
 40
0.8749999999999442
 40
0.8749999999999442
 40
0.9062499999999575
 40
0.9062499999999575
 40
0.9374999999999714
 40
0.9374999999999714
 40
1.0
 40
1.0
 40
1.0
 40
1.0
 10
403.2428322751989
 20
295.7047807685531
 30
0.0
 10
403.3194968912906
 20
295.7379344895411
 30
0.0
 10
403.3958987837885
 20
295.77194881118
 30
0.0
 10
403.5476686361008
 20
295.8416521902027
 30
0.0
 10
403.6230515042516
 20
295.8773460136833
 30
0.0
 10
403.8475559859845
 20
295.9871852762084
 30
0.0
 10
403.9950454901656
 20
296.0640683566287
 30
0.0
 10
404.2846957588213
 20
296.2267727530394
 30
0.0
 10
404.4268667521379
 20
296.31257691154
 30
0.0
 10
404.7044234970404
 20
296.4955665480142
 30
0.0
 10
404.8398335790184
 20
296.5927112150666
 30
0.0
 10
405.0033386499899
 20
296.7237995243257
 30
0.0
 10
405.0357848680929
 20
296.7505383670923
 30
0.0
 10
405.0997686651733
 20
296.8048558729978
 30
0.0
 10
405.1313231763238
 20
296.8324462442658
 30
0.0
 10
405.2245714300877
 20
296.9166139704307
 30
0.0
 10
405.2848569822431
 20
296.9745809419631
 30
0.0
 10
405.400975848393
 20
297.0949083988333
 30
0.0
 10
405.4568136718136
 20
297.1572644342233
 30
0.0
 10
405.5365073155375
 20
297.2548079871473
 30
0.0
 10
405.5624345875248
 20
297.2880569687038
 30
0.0
 10
405.6123287332226
 20
297.355438905582
 30
0.0
 10
405.6363433015433
 20
297.38962480344
 30
0.0
 10
405.7053675431143
 20
297.4937850857587
 30
0.0
 10
405.7473743332371
 20
297.5653532589425
 30
0.0
 10
405.8218550057254
 20
297.7135492230957
 30
0.0
 10
405.8543401161402
 20
297.7901710547463
 30
0.0
 10
405.8942986951691
 20
297.9097580197624
 30
0.0
 10
405.9061808244113
 20
297.9505733362795
 30
0.0
 10
405.9263111122005
 20
298.0324201332082
 30
0.0
 10
405.9346148777361
 20
298.0735759844634
 30
0.0
 10
405.9540602257436
 20
298.1977648909137
 30
0.0
 10
405.9597457261578
 20
298.2815179966847
 30
0.0
 10
405.9575610681649
 20
298.3663097437439
 30
0.0
  0
SPLINE
  5
1D6
330
1F
100
AcDbEntity
  8
1
100
AcDbSpline
210
0.0
220
0.0
230
1.0
 70
    12
 71
     3
 72
     9
 73
     5
 74
     0
 42
0.000000001
 43
0.0000000001
 40
0.0
 40
0.0
 40
0.0
 40
0.0
 40
0.1160923975562588
 40
1.0
 40
1.0
 40
1.0
 40
1.0
 10
379.131029831825
 20
298.0703378905125
 30
0.0
 41
1.001514211431949
 10
380.1710385998117
 20
298.0464227102972
 30
0.0
 41
1.001516175093646
 10
389.1310724306014
 20
297.8324906960136
 30
0.0
 41
1.001526676041757
 10
398.1127968368077
 20
297.6278021161913
 30
0.0
 41
1.001455623404296
 10
405.9575610681655
 20
298.3663097437439
 30
0.0
 41
1.001478610697955
  0
SPLINE
  5
1D7
330
1F
100
AcDbEntity
  8
1
100
AcDbSpline
210
0.0
220
0.0
230
1.0
 70
     8
 71
     3
 72
    14
 73
    10
 74
     0
 42
0.000000001
 43
0.0000000001
 40
0.0
 40
0.0
 40
0.0
 40
0.0
 40
0.25
 40
0.25
 40
0.5
 40
0.5
 40
0.75
 40
0.75
 40
1.0
 40
1.0
 40
1.0
 40
1.0
 10
279.4048419452957
 20
271.8593915088719
 30
0.0
 10
279.5938209027757
 20
271.8863903297776
 30
0.0
 10
279.786424900652
 20
271.9261497097692
 30
0.0
 10
280.1774613193797
 20
272.0260808342955
 30
0.0
 10
280.3758982391861
 20
272.0862727731824
 30
0.0
 10
280.7773835941227
 20
272.223231838473
 30
0.0
 10
280.9804338672042
 20
272.3000086183173
 30
0.0
 10
281.3900273532513
 20
272.4670765150372
 30
0.0
 10
281.5965707645728
 20
272.557371699244
 30
0.0
 10
281.804336881918
 20
272.6531869238606
 30
0.0
  0
SPLINE
  5
1D8
330
1F
100
AcDbEntity
  8
1
100
AcDbSpline
210
0.0
220
0.0
230
1.0
 70
     8
 71
     3
 72
    29
 73
    25
 74
     0
 42
0.000000001
 43
0.0000000001
 40
0.0
 40
0.0
 40
0.0
 40
0.0
 40
0.0624999999999995
 40
0.0624999999999995
 40
0.124999999999999
 40
0.124999999999999
 40
0.2499999999999983
 40
0.2499999999999983
 40
0.3749999999999977
 40
0.3749999999999977
 40
0.4062499999999975
 40
0.4218749999999975
 40
0.4218749999999975
 40
0.4374999999999975
 40
0.4374999999999975
 40
0.4999999999999978
 40
0.4999999999999978
 40
0.6249999999999984
 40
0.6249999999999984
 40
0.749999999999999
 40
0.749999999999999
 40
0.8749999999999994
 40
0.8749999999999994
 40
1.0
 40
1.0
 40
1.0
 40
1.0
 10
290.9441330787485
 20
274.5551584483599
 30
0.0
 10
290.719773241271
 20
274.5578782049461
 30
0.0
 10
290.4975897785218
 20
274.5567746903274
 30
0.0
 10
290.0572257289434
 20
274.5476118372567
 30
0.0
 10
289.8390457225152
 20
274.539551407892
 30
0.0
 10
289.1901292914014
 20
274.5057660465148
 30
0.0
 10
288.7649843390452
 20
274.4704757883404
 30
0.0
 10
287.9284951715559
 20
274.3776141432822
 30
0.0
 10
287.5171605927702
 20
274.3200253699708
 30
0.0
 10
287.0114981360604
 20
274.2354695100847
 30
0.0
 10
286.86044014807
 20
274.2091571581363
 30
0.0
 10
286.710347575585
 20
274.181457394431
 30
0.0
 10
286.6105011705905
 20
274.1626857523932
 30
0.0
 10
286.5606763038961
 20
274.1531454231029
 30
0.0
 10
286.3124883200304
 20
274.1047673642039
 30
0.0
 10
286.1166286899677
 20
274.0638460987313
 30
0.0
 10
285.5370201078322
 20
273.93488223619
 30
0.0
 10
285.1612236446574
 20
273.8406516523148
 30
0.0
 10
284.4308384734207
 20
273.6377363799482
 30
0.0
 10
284.0762554635938
 20
273.5290462863954
 30
0.0
 10
283.3888098070769
 20
273.2989260484824
 30
0.0
 10
283.0559491076709
 20
273.1774922988999
 30
0.0
 10
282.4128535799265
 20
272.9234034130019
 30
0.0
 10
282.1026181069262
 20
272.7907448805583
 30
0.0
 10
281.804336881918
 20
272.6531869238607
 30
0.0
  0
SPLINE
  5
1D9
330
1F
100
AcDbEntity
  8
1
100
AcDbSpline
210
0.0
220
0.0
230
1.0
 70
     8
 71
     3
 72
    53
 73
    49
 74
     0
 42
0.000000001
 43
0.0000000001
 40
0.0
 40
0.0
 40
0.0
 40
0.0
 40
0.0625000000000012
 40
0.0625000000000012
 40
0.1250000000000024
 40
0.1250000000000024
 40
0.1875000000000036
 40
0.1875000000000036
 40
0.2031250000000038
 40
0.2109375000000038
 40
0.2109375000000038
 40
0.2187500000000037
 40
0.2187500000000037
 40
0.2500000000000035
 40
0.2500000000000035
 40
0.3125000000000027
 40
0.3125000000000027
 40
0.3750000000000021
 40
0.3750000000000021
 40
0.4062500000000016
 40
0.4062500000000016
 40
0.4218750000000013
 40
0.4218750000000013
 40
0.4375000000000011
 40
0.4375000000000011
 40
0.5000000000000011
 40
0.5000000000000011
 40
0.5625000000000013
 40
0.6250000000000013
 40
0.6250000000000013
 40
0.6406250000000014
 40
0.6406250000000014
 40
0.6562500000000015
 40
0.6875000000000013
 40
0.6875000000000013
 40
0.7500000000000007
 40
0.7500000000000007
 40
0.8125000000000001
 40
0.8125000000000001
 40
0.8281249999999998
 40
0.8281249999999998
 40
0.8437499999999998
 40
0.8437499999999998
 40
0.8749999999999998
 40
0.8749999999999998
 40
0.9375
 40
0.9375
 40
1.0
 40
1.0
 40
1.0
 40
1.0
 10
279.4048419452959
 20
280.3223345829805
 30
0.0
 10
279.226189367239
 20
280.1533700037273
 30
0.0
 10
279.0572372151674
 20
279.9793198464571
 30
0.0
 10
278.7383338965768
 20
279.6217978981124
 30
0.0
 10
278.5883830646666
 20
279.438324987889
 30
0.0
 10
278.3076205222526
 20
279.0624004727147
 30
0.0
 10
278.1768065134991
 20
278.8699491269173
 30
0.0
 10
278.025687870201
 20
278.6238696408386
 30
0.0
 10
277.981284442806
 20
278.5496310471113
 30
0.0
 10
277.938298727893
 20
278.4747696272972
 30
0.0
 10
277.9099591197516
 20
278.4247233789213
 30
0.0
 10
277.8959387278814
 20
278.3996137020124
 30
0.0
 10
277.8268092120746
 20
278.2740335406355
 30
0.0
 10
277.7745395083272
 20
278.1733420217424
 30
0.0
 10
277.6267027021275
 20
277.8706857626679
 30
0.0
 10
277.5400869070946
 20
277.6681437301872
 30
0.0
 10
277.3905691932864
 20
277.2619358515667
 30
0.0
 10
277.3276662481906
 20
277.0582694587653
 30
0.0
 10
277.2514841785784
 20
276.7521384097009
 30
0.0
 10
277.2291243142865
 20
276.6499884813252
 30
0.0
 10
277.2002368614807
 20
276.496621747702
 30
0.0
 10
277.191383486278
 20
276.4454758004595
 30
0.0
 10
277.1752500063814
 20
276.3431386564771
 30
0.0
 10
277.167960461835
 20
276.2918652944279
 30
0.0
 10
277.135661947467
 20
276.0366746935783
 30
0.0
 10
277.122992472111
 20
275.8361243201954
 30
0.0
 10
277.1231239672601
 20
275.4420661710871
 30
0.0
 10
277.1487316418654
 20
275.055051098973
 30
0.0
 10
277.2250574057514
 20
274.6819175440594
 30
0.0
 10
277.2889935903236
 20
274.4530153283334
 30
0.0
 10
277.3026165117168
 20
274.4073830440329
 30
0.0
 10
277.3313775116762
 20
274.316944034863
 30
0.0
 10
277.3767786521993
 20
274.1825346781825
 30
0.0
 10
277.4288569217948
 20
274.0517903531019
 30
0.0
 10
277.5417127975743
 20
273.7949965066477
 30
0.0
 10
277.6285292725495
 20
273.6300530274079
 30
0.0
 10
277.8247576015769
 20
273.311850993713
 30
0.0
 10
277.9341710276985
 20
273.1585941049918
 30
0.0
 10
278.0850990351745
 20
272.9739508935189
 30
0.0
 10
278.1159941742328
 20
272.9373691126883
 30
0.0
 10
278.1792103913406
 20
272.8648916480834
 30
0.0
 10
278.2115250510074
 20
272.8290066590944
 30
0.0
 10
278.3101526825313
 20
272.7228526597105
 30
0.0
 10
278.3782917933134
 20
272.6539162901527
 30
0.0
 10
278.5897137888768
 20
272.4523340601618
 30
0.0
 10
278.7399858712892
 20
272.3249047816168
 30
0.0
 10
279.0587414496789
 20
272.0827969637428
 30
0.0
 10
279.2272260010414
 20
271.9681205818885
 30
0.0
 10
279.4048419452949
 20
271.8593915088713
 30
0.0
  0
LINE
  5
1FA
330
1F
100
AcDbEntity
  8
4
100
AcDbLine
 10
268.703832
 20
288.907994
 30
0.0
 11
423.409496
 21
288.907994
 31
0.0
  0
LINE
  5
1FB
330
1F
100
AcDbEntity
  8
SK4
100
AcDbLine
 10
210.904842
 20
288.907994
 30
0.0
 11
277.404842
 21
288.907994
 31
0.0
  0
MTEXT
  5
201
330
1F
100
AcDbEntity
  8
SK6
100
AcDbMText
 10
278.633586
 20
248.640145
 30
0.0
 40
3.5
 41
0.0
 71
     7
 72
     5
  1
\W0.7147;804D-30-120-S32
  7
cesky
 73
     2
 44
0.8433729999999998
  0
MTEXT
  5
312
330
1F
100
AcDbEntity
  8
2
100
AcDbMText
 10
343.827842
 20
322.75644
 30
0.0
 40
3.5
 41
0.0
 71
     7
 72
     5
  1
\W0.7809;145
  7
cesky
 73
     2
 44
0.8433729999999998
  0
LINE
  5
313
330
1F
100
AcDbEntity
  8
2
100
AcDbLine
 10
419.4048419999999
 20
303.907994
 30
0.0
 11
419.4048419999999
 21
323.882273
 31
0.0
  0
LINE
  5
314
330
1F
100
AcDbEntity
  8
2
100
AcDbLine
 10
274.404842
 20
289.907567
 30
0.0
 11
274.404842
 21
323.882273
 31
0.0
  0
LINE
  5
315
330
1F
100
AcDbEntity
  8
2
100
AcDbLine
 10
419.4048419999999
 20
322.882273
 30
0.0
 11
274.404842
 21
322.882273
 31
0.0
  0
SOLID
  5
316
330
1F
100
AcDbEntity
  8
2
100
AcDbTrace
 10
419.4048419999999
 20
322.882273
 30
0.0
 11
415.9048439999999
 21
322.265129
 31
0.0
 12
415.9048399999999
 22
323.499418
 32
0.0
 13
415.9048399999999
 23
323.499418
 33
0.0
  0
SOLID
  5
317
330
1F
100
AcDbEntity
  8
2
100
AcDbTrace
 10
274.404842
 20
322.882273
 30
0.0
 11
277.90484
 21
323.499418
 31
0.0
 12
277.904844
 22
322.265129
 32
0.0
 13
277.904844
 23
322.265129
 33
0.0
  0
MTEXT
  5
318
330
1F
100
AcDbEntity
  8
2
100
AcDbMText
 10
242.590342
 20
322.75644
 30
0.0
 40
3.5
 41
0.0
 71
     7
 72
     5
  1
\W0.7045;60
  7
cesky
 73
     2
 44
0.8433729999999998
  0
LINE
  5
319
330
1F
100
AcDbEntity
  8
2
100
AcDbLine
 10
274.404842
 20
288.907994
 30
0.0
 11
274.404842
 21
323.882273
 31
0.0
  0
LINE
  5
31A
330
1F
100
AcDbEntity
  8
2
100
AcDbLine
 10
214.404842
 20
302.907994
 30
0.0
 11
214.404842
 21
323.882273
 31
0.0
  0
LINE
  5
31B
330
1F
100
AcDbEntity
  8
2
100
AcDbLine
 10
274.404842
 20
322.882273
 30
0.0
 11
214.404842
 21
322.882273
 31
0.0
  0
SOLID
  5
31C
330
1F
100
AcDbEntity
  8
2
100
AcDbTrace
 10
274.404842
 20
322.882273
 30
0.0
 11
270.904844
 21
322.265129
 31
0.0
 12
270.90484
 22
323.499418
 32
0.0
 13
270.90484
 23
323.499418
 33
0.0
  0
SOLID
  5
31D
330
1F
100
AcDbEntity
  8
2
100
AcDbTrace
 10
214.404842
 20
322.882273
 30
0.0
 11
217.90484
 21
323.499418
 31
0.0
 12
217.904844
 22
322.265129
 32
0.0
 13
217.904844
 23
322.265129
 33
0.0
  0
MTEXT
  5
31E
330
1F
100
AcDbEntity
  8
2
100
AcDbMText
 10
350.072972
 20
311.427945
 30
0.0
 40
3.5
 41
0.0
 71
     7
 72
     5
  1
\W0.8654;127,5
  7
cesky
 73
     2
 44
0.8433729999999998
  0
LINE
  5
31F
330
1F
100
AcDbEntity
  8
2
100
AcDbLine
 10
419.4048419999999
 20
305.907994
 30
0.0
 11
419.4048419999999
 21
312.553778
 31
0.0
  0
LINE
  5
320
330
1F
100
AcDbEntity
  8
2
100
AcDbLine
 10
291.945103
 20
303.723931
 30
0.0
 11
291.945103
 21
312.553778
 31
0.0
  0
LINE
  5
321
330
1F
100
AcDbEntity
  8
2
100
AcDbLine
 10
419.4048419999999
 20
311.553778
 30
0.0
 11
291.945103
 21
311.553778
 31
0.0
  0
SOLID
  5
322
330
1F
100
AcDbEntity
  8
2
100
AcDbTrace
 10
419.4048419999999
 20
311.553778
 30
0.0
 11
415.9048439999999
 21
310.936634
 31
0.0
 12
415.9048399999999
 22
312.170923
 32
0.0
 13
415.9048399999999
 23
312.170923
 33
0.0
  0
SOLID
  5
323
330
1F
100
AcDbEntity
  8
2
100
AcDbTrace
 10
291.945103
 20
311.553778
 30
0.0
 11
295.445101
 21
312.170923
 31
0.0
 12
295.4451049999999
 22
310.936634
 32
0.0
 13
295.4451049999999
 23
310.936634
 33
0.0
  0
MTEXT
  5
324
330
1F
100
AcDbEntity
  8
2
100
AcDbMText
 10
313.827842
 20
337.029667
 30
0.0
 40
3.5
 41
0.0
 71
     7
 72
     5
  1
\W0.7231;205
  7
cesky
 73
     2
 44
0.8433729999999998
  0
LINE
  5
325
330
1F
100
AcDbEntity
  8
2
100
AcDbLine
 10
419.4048419999999
 20
305.907994
 30
0.0
 11
419.4048419999999
 21
338.155501
 31
0.0
  0
LINE
  5
326
330
1F
100
AcDbEntity
  8
2
100
AcDbLine
 10
214.404842
 20
302.907994
 30
0.0
 11
214.404842
 21
338.155501
 31
0.0
  0
LINE
  5
327
330
1F
100
AcDbEntity
  8
2
100
AcDbLine
 10
419.4048419999999
 20
337.155501
 30
0.0
 11
214.404842
 21
337.155501
 31
0.0
  0
SOLID
  5
328
330
1F
100
AcDbEntity
  8
2
100
AcDbTrace
 10
419.4048419999999
 20
337.155501
 30
0.0
 11
415.9048439999999
 21
336.538356
 31
0.0
 12
415.9048399999999
 22
337.772645
 32
0.0
 13
415.9048399999999
 23
337.772645
 33
0.0
  0
SOLID
  5
329
330
1F
100
AcDbEntity
  8
2
100
AcDbTrace
 10
214.404842
 20
337.155501
 30
0.0
 11
217.90484
 21
337.772645
 31
0.0
 12
217.904844
 22
336.538356
 32
0.0
 13
217.904844
 23
336.538356
 33
0.0
  0
MTEXT
  5
32A
330
1F
100
AcDbEntity
  8
2
100
AcDbMText
 10
435.387221
 20
287.955341
 30
0.0
 40
3.5
 41
0.0
 71
     7
 72
     5
  1
\W0.7045;30
  7
cesky
 11
0.0000000000000001
 21
1.0
 31
0.0
 73
     2
 44
0.8433729999999998
  0
MTEXT
  5
32B
330
1F
100
AcDbEntity
  8
2
100
AcDbMText
 10
435.387221
 20
281.217841
 30
0.0
 40
3.5
 41
0.0
 71
     7
 72
     5
  1
\W3.0115;\H2.63;%%c\H3.50;
  7
cesky
 11
0.0000000000000001
 21
1.0
 31
0.0
 73
     2
 44
0.8433729999999998
  0
LINE
  5
32C
330
1F
100
AcDbEntity
  8
2
100
AcDbLine
 10
421.404842
 20
303.907994
 30
0.0
 11
436.574637
 21
303.907994
 31
0.0
  0
LINE
  5
32D
330
1F
100
AcDbEntity
  8
2
100
AcDbLine
 10
435.574637
 20
303.907994
 30
0.0
 11
435.574637
 21
281.060341
 31
0.0
  0
SOLID
  5
32E
330
1F
100
AcDbEntity
  8
2
100
AcDbTrace
 10
435.574637
 20
303.907994
 30
0.0
 11
436.191782
 21
300.407996
 31
0.0
 12
434.9574929999999
 22
300.4079910000001
 32
0.0
 13
434.9574929999999
 23
300.4079910000001
 33
0.0
  0
MTEXT
  5
32F
330
1F
100
AcDbEntity
  8
SK2
100
AcDbMText
 10
191.916868
 20
290.434244
 30
0.0
 40
3.5
 41
0.0
 71
     7
 72
     5
  1
\W0.7045;42
  7
cesky
 11
0.0000000000000001
 21
1.0
 31
0.0
 73
     2
 44
0.8433729999999998
  0
MTEXT
  5
330
330
1F
100
AcDbEntity
  8
SK2
100
AcDbMText
 10
191.916868
 20
283.696744
 30
0.0
 40
3.5
 41
0.0
 71
     7
 72
     5
  1
\W3.0115;\H2.63;%%c\H3.50;
  7
cesky
 11
0.0000000000000001
 21
1.0
 31
0.0
 73
     2
 44
0.8433729999999998
  0
LINE
  5
331
330
1F
100
AcDbEntity
  8
SK2
100
AcDbLine
 10
274.904842
 20
309.907994
 30
0.0
 11
191.104285
 21
309.907994
 31
0.0
  0
LINE
  5
332
330
1F
100
AcDbEntity
  8
SK2
100
AcDbLine
 10
274.904842
 20
267.907994
 30
0.0
 11
191.104285
 21
267.907994
 31
0.0
  0
LINE
  5
333
330
1F
100
AcDbEntity
  8
SK2
100
AcDbLine
 10
192.104285
 20
309.907994
 30
0.0
 11
192.104285
 21
267.907994
 31
0.0
  0
SOLID
  5
334
330
1F
100
AcDbEntity
  8
SK2
100
AcDbTrace
 10
192.104285
 20
309.907994
 30
0.0
 11
192.721429
 21
306.407996
 31
0.0
 12
191.48714
 22
306.407991
 32
0.0
 13
191.48714
 23
306.407991
 33
0.0
  0
SOLID
  5
335
330
1F
100
AcDbEntity
  8
SK2
100
AcDbTrace
 10
192.104285
 20
267.907994
 30
0.0
 11
191.48714
 21
271.4079910000001
 31
0.0
 12
192.721429
 22
271.407996
 32
0.0
 13
192.721429
 23
271.407996
 33
0.0
  0
MTEXT
  5
336
330
1F
100
AcDbEntity
  8
SK2
100
AcDbMText
 10
204.480913
 20
290.434244
 30
0.0
 40
3.5
 41
0.0
 71
     7
 72
     5
  1
\W0.7045;32
  7
cesky
 11
0.0000000000000001
 21
1.0
 31
0.0
 73
     2
 44
0.8433729999999998
  0
MTEXT
  5
337
330
1F
100
AcDbEntity
  8
SK2
100
AcDbMText
 10
204.480913
 20
283.696744
 30
0.0
 40
3.5
 41
0.0
 71
     7
 72
     5
  1
\W3.0115;\H2.63;%%c\H3.50;
  7
cesky
 11
0.0000000000000001
 21
1.0
 31
0.0
 73
     2
 44
0.8433729999999998
  0
LINE
  5
338
330
1F
100
AcDbEntity
  8
SK2
100
AcDbLine
 10
216.404842
 20
304.907994
 30
0.0
 11
203.66833
 21
304.907994
 31
0.0
  0
LINE
  5
339
330
1F
100
AcDbEntity
  8
SK2
100
AcDbLine
 10
216.404842
 20
272.907994
 30
0.0
 11
203.66833
 21
272.907994
 31
0.0
  0
LINE
  5
33A
330
1F
100
AcDbEntity
  8
SK2
100
AcDbLine
 10
204.66833
 20
304.907994
 30
0.0
 11
204.66833
 21
272.907994
 31
0.0
  0
SOLID
  5
33B
330
1F
100
AcDbEntity
  8
SK2
100
AcDbTrace
 10
204.66833
 20
304.907994
 30
0.0
 11
205.285474
 21
301.407996
 31
0.0
 12
204.051185
 22
301.407991
 32
0.0
 13
204.051185
 23
301.407991
 33
0.0
  0
SOLID
  5
33C
330
1F
100
AcDbEntity
  8
SK2
100
AcDbTrace
 10
204.66833
 20
272.907994
 30
0.0
 11
204.051185
 21
276.407991
 31
0.0
 12
205.285474
 22
276.407996
 32
0.0
 13
205.285474
 23
276.407996
 33
0.0
  0
LINE
  5
33D
330
1F
100
AcDbEntity
  8
CUT
100
AcDbLine
 10
419.2974360653503
 20
295.9531808399667
 30
0.0
 11
419.4048419452957
 21
289.8047852295759
 31
0.0
  0
LINE
  5
33F
330
1F
100
AcDbEntity
  8
CUT
100
AcDbLine
 10
418.8418364143165
 20
296.7113570269071
 30
0.0
 11
419.2974360653503
 21
295.9531808399667
 31
0.0
  0
LINE
  5
340
330
1F
100
AcDbEntity
  8
CUT
100
AcDbLine
 10
418.6099776822096
 20
303.1625269898457
 30
0.0
 11
418.8418364143167
 21
296.7113570269072
 31
0.0
  0
LINE
  5
342
330
1F
100
AcDbEntity
  8
CUT
100
AcDbLine
 10
409.8372443795066
 20
303.6114814280407
 30
0.0
 11
417.8099730278956
 21
303.9047581427891
 31
0.0
  0
LINE
  5
343
330
1F
100
AcDbEntity
  8
CUT
100
AcDbLine
 10
419.4048419999999
 20
289.804785
 30
0.0
 11
419.4048419999999
 21
288.907994
 31
0.0
  0
LINE
  5
344
330
1F
100
AcDbEntity
  8
CUT
100
AcDbLine
 10
409.092519
 20
288.907994
 30
0.0
 11
409.092519
 21
302.811942
 31
0.0
  0
LINE
  5
345
330
1F
100
AcDbEntity
  8
CUT
100
AcDbLine
 10
419.4048419999999
 20
288.907994
 30
0.0
 11
409.092519
 21
288.907994
 31
0.0
  0
ARC
  5
346
330
1F
100
AcDbEntity
  8
CUT
100
AcDbCircle
 10
409.8747503161785
 20
302.8302883694581
 30
0.0
 40
0.7824467016960107
100
AcDbArc
 50
95.51350172704415
 51
181.3435353566846
  0
ARC
  5
347
330
1F
100
AcDbEntity
  8
CUT
100
AcDbCircle
 10
409.8638468782593
 20
302.8869074200371
 30
0.0
 40
0.7250621945834425
100
AcDbArc
 50
92.10265145782987
 51
95.08575088950978
  0
ARC
  5
348
330
1F
100
AcDbEntity
  8
CUT
100
AcDbCircle
 10
417.8305743008243
 20
303.124090373823
 30
0.0
 40
0.7809395482037783
100
AcDbArc
 50
6.974982149608917
 51
91.51164445677279
  0
ARC
  5
349
330
1F
100
AcDbEntity
  8
CUT
100
AcDbCircle
 10
417.8885817053398
 20
303.1366074650816
 30
0.0
 40
0.7218614667704247
100
AcDbArc
 50
2.057733710447216
 51
6.547933836964528
  0
ENDSEC
  0
SECTION
  2
OBJECTS
  0
DICTIONARY
  5
C
330
0
100
AcDbDictionary
281
     1
  3
ACAD_CIP_PREVIOUS_PRODUCT_INFO
350
30F
  3
ACAD_COLOR
350
30A
  3
ACAD_DETAILVIEWSTYLE
350
306
  3
ACAD_GROUP
350
D
  3
ACAD_LAYOUT
350
1A
  3
ACAD_MATERIAL
350
43
  3
ACAD_MLEADERSTYLE
350
6B
  3
ACAD_MLINESTYLE
350
17
  3
ACAD_PLOTSETTINGS
350
19
  3
ACAD_PLOTSTYLENAME
350
E
  3
ACAD_SCALELIST
350
47
  3
ACAD_SECTIONVIEWSTYLE
350
307
  3
ACAD_TABLESTYLE
350
69
  3
ACAD_VISUALSTYLE
350
2A
  3
ACDB_RECOMPOSE_DATA
350
375
  3
AcDbVariableDictionary
350
2C3
  0
DICTIONARY
  5
358
330
10
100
AcDbDictionary
280
     1
281
     1
  3
ADSK_XREC_LAYER_RECONCILED
360
359
  0
DICTIONARY
  5
35A
330
34A
100
AcDbDictionary
280
     1
281
     1
  3
ADSK_XREC_LAYER_RECONCILED
360
35B
  0
DICTIONARY
  5
35C
330
34B
100
AcDbDictionary
280
     1
281
     1
  3
ADSK_XREC_LAYER_RECONCILED
360
35D
  0
DICTIONARY
  5
35E
330
34C
100
AcDbDictionary
280
     1
281
     1
  3
ADSK_XREC_LAYER_RECONCILED
360
35F
  0
DICTIONARY
  5
360
330
34E
100
AcDbDictionary
280
     1
281
     1
  3
ADSK_XREC_LAYER_RECONCILED
360
361
  0
DICTIONARY
  5
362
330
34F
100
AcDbDictionary
280
     1
281
     1
  3
ADSK_XREC_LAYER_RECONCILED
360
363
  0
DICTIONARY
  5
364
330
351
100
AcDbDictionary
280
     1
281
     1
  3
ADSK_XREC_LAYER_RECONCILED
360
365
  0
DICTIONARY
  5
366
330
352
100
AcDbDictionary
280
     1
281
     1
  3
ADSK_XREC_LAYER_RECONCILED
360
367
  0
DICTIONARY
  5
368
330
353
100
AcDbDictionary
280
     1
281
     1
  3
ADSK_XREC_LAYER_RECONCILED
360
369
  0
DICTIONARY
  5
36A
330
354
100
AcDbDictionary
280
     1
281
     1
  3
ADSK_XREC_LAYER_RECONCILED
360
36B
  0
DICTIONARY
  5
36C
330
355
100
AcDbDictionary
280
     1
281
     1
  3
ADSK_XREC_LAYER_RECONCILED
360
36D
  0
DICTIONARY
  5
36E
330
356
100
AcDbDictionary
280
     1
281
     1
  3
ADSK_XREC_LAYER_RECONCILED
360
36F
  0
DICTIONARY
  5
310
330
1F
100
AcDbDictionary
280
     1
281
     1
  3
ACAD_SORTENTS
360
311
  0
XRECORD
  5
30F
102
{ACAD_REACTORS
330
C
102
}
330
C
100
AcDbXrecord
280
     1
300
ACD
300
2019
300
87084ACD_2019_0F
  0
DICTIONARY
  5
30A
102
{ACAD_REACTORS
330
C
102
}
330
C
100
AcDbDictionary
281
     1
  0
DICTIONARY
  5
306
102
{ACAD_REACTORS
330
C
102
}
330
C
100
AcDbDictionary
281
     1
  3
Metric50
350
30C
  0
DICTIONARY
  5
D
102
{ACAD_REACTORS
330
C
102
}
330
C
100
AcDbDictionary
281
     1
  3
NULOVY_BOD
350
357
  0
DICTIONARY
  5
1A
102
{ACAD_REACTORS
330
C
102
}
330
C
100
AcDbDictionary
281
     1
  3
Layout1
350
1E
  3
Layout2
350
26
  3
Model
350
22
  0
DICTIONARY
  5
43
102
{ACAD_REACTORS
330
C
102
}
330
C
100
AcDbDictionary
281
     1
  3
ByBlock
350
45
  3
ByLayer
350
44
  3
Global
350
46
  0
DICTIONARY
  5
6B
102
{ACAD_REACTORS
330
C
102
}
330
C
100
AcDbDictionary
281
     1
  3
Standard
350
6C
  0
DICTIONARY
  5
17
102
{ACAD_REACTORS
330
C
102
}
330
C
100
AcDbDictionary
281
     1
  3
Standard
350
18
  0
DICTIONARY
  5
19
102
{ACAD_REACTORS
330
C
102
}
330
C
100
AcDbDictionary
281
     1
  0
ACDBDICTIONARYWDFLT
  5
E
102
{ACAD_REACTORS
330
C
102
}
330
C
100
AcDbDictionary
281
     1
  3
Normal
350
F
100
AcDbDictionaryWithDefault
340
F
  0
DICTIONARY
  5
47
102
{ACAD_REACTORS
330
C
102
}
330
C
100
AcDbDictionary
281
     1
  3
A0
350
48
  3
A1
350
49
  3
A2
350
4A
  3
A3
350
4B
  3
A4
350
4C
  3
A5
350
4D
  3
A6
350
4E
  3
A7
350
4F
  3
A8
350
50
  3
A9
350
51
  3
B0
350
52
  3
B1
350
53
  3
B2
350
54
  3
B3
350
55
  3
B4
350
56
  3
B5
350
57
  3
B6
350
58
  3
B7
350
59
  3
B8
350
5A
  3
B9
350
5B
  3
C0
350
5C
  3
C1
350
5D
  3
C2
350
5E
  3
C3
350
5F
  3
C4
350
60
  3
C5
350
61
  3
C6
350
62
  3
C7
350
63
  3
C8
350
64
  3
C9
350
65
  3
D0
350
66
  3
D1
350
67
  3
D2
350
68
  0
DICTIONARY
  5
307
102
{ACAD_REACTORS
330
C
102
}
330
C
100
AcDbDictionary
281
     1
  3
Metric50
350
30B
  0
DICTIONARY
  5
69
102
{ACAD_REACTORS
330
C
102
}
330
C
100
AcDbDictionary
281
     1
  3
Standard
350
6A
  0
DICTIONARY
  5
2A
102
{ACAD_REACTORS
330
C
102
}
330
C
100
AcDbDictionary
281
     1
  3
2dWireframe
350
2F
  3
Basic
350
32
  3
Brighten
350
36
  3
ColorChange
350
3A
  3
Conceptual
350
34
  3
Dim
350
35
  3
EdgeColorOff
350
3D
  3
Facepattern
350
39
  3
Flat
350
2B
  3
FlatWithEdges
350
2C
  3
Gouraud
350
2D
  3
GouraudWithEdges
350
2E
  3
Hidden
350
31
  3
JitterOff
350
3B
  3
Linepattern
350
38
  3
OverhangOff
350
3C
  3
Realistic
350
33
  3
Shaded
350
42
  3
Shaded with edges
350
41
  3
Shades of Gray
350
3E
  3
Sketchy
350
3F
  3
Thicken
350
37
  3
Wireframe
350
30
  3
X-Ray
350
40
  0
XRECORD
  5
375
102
{ACAD_REACTORS
330
C
102
}
330
C
100
AcDbXrecord
280
     1
 90
        1
330
6A
  0
DICTIONARY
  5
2C3
102
{ACAD_REACTORS
330
C
102
}
330
C
100
AcDbDictionary
281
     1
  3
CANNOSCALE
350
2C4
  3
CMLEADERSTYLE
350
305
  3
CTABLESTYLE
350
304
  3
CVIEWDETAILSTYLE
350
370
  3
CVIEWSECTIONSTYLE
350
371
  3
MSLTSCALE
350
2C5
  3
XCLIPFRAME
350
372
  0
XRECORD
  5
359
102
{ACAD_REACTORS
330
358
102
}
330
358
100
AcDbXrecord
280
     1
290
     1
  0
XRECORD
  5
35B
102
{ACAD_REACTORS
330
35A
102
}
330
35A
100
AcDbXrecord
280
     1
290
     1
  0
XRECORD
  5
35D
102
{ACAD_REACTORS
330
35C
102
}
330
35C
100
AcDbXrecord
280
     1
290
     1
  0
XRECORD
  5
35F
102
{ACAD_REACTORS
330
35E
102
}
330
35E
100
AcDbXrecord
280
     1
290
     1
  0
XRECORD
  5
361
102
{ACAD_REACTORS
330
360
102
}
330
360
100
AcDbXrecord
280
     1
290
     1
  0
XRECORD
  5
363
102
{ACAD_REACTORS
330
362
102
}
330
362
100
AcDbXrecord
280
     1
290
     1
  0
XRECORD
  5
365
102
{ACAD_REACTORS
330
364
102
}
330
364
100
AcDbXrecord
280
     1
290
     1
  0
XRECORD
  5
367
102
{ACAD_REACTORS
330
366
102
}
330
366
100
AcDbXrecord
280
     1
290
     1
  0
XRECORD
  5
369
102
{ACAD_REACTORS
330
368
102
}
330
368
100
AcDbXrecord
280
     1
290
     1
  0
XRECORD
  5
36B
102
{ACAD_REACTORS
330
36A
102
}
330
36A
100
AcDbXrecord
280
     1
290
     1
  0
XRECORD
  5
36D
102
{ACAD_REACTORS
330
36C
102
}
330
36C
100
AcDbXrecord
280
     1
290
     1
  0
XRECORD
  5
36F
102
{ACAD_REACTORS
330
36E
102
}
330
36E
100
AcDbXrecord
280
     1
290
     1
  0
SORTENTSTABLE
  5
311
102
{ACAD_REACTORS
330
310
102
}
330
310
100
AcDbSortentsTable
330
1F
331
312
  5
267
331
313
  5
296
331
314
  5
312
331
315
  5
313
331
316
  5
314
331
317
  5
315
331
318
  5
316
331
319
  5
317
331
31A
  5
318
331
31B
  5
319
331
31C
  5
31A
331
31D
  5
31B
331
31E
  5
31C
331
31F
  5
31D
331
320
  5
31E
331
321
  5
31F
331
322
  5
320
331
323
  5
321
331
324
  5
322
331
325
  5
323
331
326
  5
324
331
327
  5
325
331
328
  5
326
331
329
  5
327
331
32A
  5
331
331
32B
  5
332
331
32C
  5
333
331
32D
  5
334
331
32E
  5
335
331
32F
  5
329
331
330
  5
32A
331
331
  5
32B
331
332
  5
32C
331
333
  5
32D
331
334
  5
32F
331
335
  5
330
331
33F
  5
342
331
340
  5
343
331
342
  5
346
331
343
  5
347
331
344
  5
348
331
345
  5
349
331
346
  5
33F
331
347
  5
340
331
348
  5
344
331
349
  5
345
  0
ACDBDETAILVIEWSTYLE
  5
30C
102
{ACAD_XDICTIONARY
360
3A9
102
}
102
{ACAD_REACTORS
330
306
102
}
330
306
100
AcDbModelDocViewStyle
 70
     0
  3
Metric50
290
     0
100
AcDbDetailViewStyle
 70
     0
 71
     0
 90
        3
 71
     1
340
11
 62
   256
 40
5.0
340
0
 62
   256
 40
5.0
300

 40
0.0
280
     1
 71
     2
340
16
 90
       25
 62
   256
 71
     3
340
11
 62
   256
 40
5.0
 90
        0
 40
15.0
 90
        1
300
%<\AcVar ViewDetailId>% (%<\AcVar ViewScale \f "%sn">%)
 71
     4
340
16
 90
       25
 62
   256
340
16
 90
       25
 62
   256
280
     0
  0
GROUP
  5
357
102
{ACAD_REACTORS
330
D
102
}
330
D
100
AcDbGroup
300

 70
     0
 71
     1
340
73
  0
LAYOUT
  5
1E
102
{ACAD_REACTORS
330
1A
102
}
330
1A
100
AcDbPlotSettings
  1

  2
none_device
  4

  6

 40
0.0
 41
0.0
 42
0.0
 43
0.0
 44
0.0
 45
0.0
 46
0.0
 47
0.0
 48
0.0
 49
0.0
140
0.0
141
0.0
142
1.0
143
1.0
 70
   688
 72
     0
 73
     0
 74
     5
  7

 75
    16
147
1.0
 76
     0
 77
     2
 78
   300
148
0.0
149
0.0
100
AcDbLayout
  1
Layout1
 70
     1
 71
     1
 10
-0.5
 20
-0.5
 11
5.0
 21
5.0
 12
0.0
 22
0.0
 32
0.0
 14
-0.5
 24
-0.5
 34
-0.5
 15
5.0
 25
5.0
 35
5.0
146
0.0
 13
0.0
 23
0.0
 33
0.0
 16
1.0
 26
0.0
 36
0.0
 17
0.0
 27
1.0
 37
0.0
 76
     0
330
1B
  0
LAYOUT
  5
26
102
{ACAD_REACTORS
330
1A
102
}
330
1A
100
AcDbPlotSettings
  1

  2
none_device
  4

  6

 40
0.0
 41
0.0
 42
0.0
 43
0.0
 44
0.0
 45
0.0
 46
0.0
 47
0.0
 48
0.0
 49
0.0
140
0.0
141
0.0
142
1.0
143
1.0
 70
   688
 72
     0
 73
     0
 74
     5
  7

 75
    16
147
1.0
 76
     0
 77
     2
 78
   300
148
0.0
149
0.0
100
AcDbLayout
  1
Layout2
 70
     1
 71
     2
 10
0.0
 20
0.0
 11
0.0
 21
0.0
 12
0.0
 22
0.0
 32
0.0
 14
0.0
 24
0.0
 34
0.0
 15
0.0
 25
0.0
 35
0.0
146
0.0
 13
0.0
 23
0.0
 33
0.0
 16
1.0
 26
0.0
 36
0.0
 17
0.0
 27
1.0
 37
0.0
 76
     0
330
23
  0
LAYOUT
  5
22
102
{ACAD_REACTORS
330
1A
102
}
330
1A
100
AcDbPlotSettings
  1

  2
none_device
  4
Letter_(8.50_x_11.00_Inches)
  6

 40
6.349999999999999
 41
6.349999999999999
 42
6.350005
 43
6.350005
 44
215.9
 45
279.4
 46
0.0
 47
0.0
 48
0.0
 49
0.0
140
0.0
141
0.0
142
1.0
143
1.0
 70
  1712
 72
     0
 73
     0
 74
     0
  7

 75
     0
147
1.0
 76
     0
 77
     2
 78
   300
148
0.0
149
0.0
100
AcDbLayout
  1
Model
 70
     1
 71
     0
 10
-0.5
 20
-0.5
 11
5.0
 21
5.0
 12
0.0
 22
0.0
 32
0.0
 14
-0.5
 24
-0.5
 34
-0.5
 15
5.0
 25
5.0
 35
5.0
146
0.0
 13
0.0
 23
0.0
 33
0.0
 16
1.0
 26
0.0
 36
0.0
 17
0.0
 27
1.0
 37
0.0
 76
     0
330
1F
331
29
  0
MATERIAL
  5
45
102
{ACAD_XDICTIONARY
360
2F9
102
}
102
{ACAD_REACTORS
330
43
102
}
330
43
100
AcDbMaterial
  1
ByBlock
  0
MATERIAL
  5
44
102
{ACAD_XDICTIONARY
360
2F7
102
}
102
{ACAD_REACTORS
330
43
102
}
330
43
100
AcDbMaterial
  1
ByLayer
  0
MATERIAL
  5
46
102
{ACAD_XDICTIONARY
360
2FB
102
}
102
{ACAD_REACTORS
330
43
102
}
330
43
100
AcDbMaterial
  1
Global
  0
MLEADERSTYLE
  5
6C
102
{ACAD_REACTORS
330
6B
102
}
330
6B
100
AcDbMLeaderStyle
170
     2
171
     1
172
     0
 90
        2
 40
0.0
 41
0.0
173
     1
 91
-1056964608
340
14
 92
       -2
290
     1
 42
0.09
291
     1
 43
0.36
  3
Standard
 44
0.18
300

342
11
174
     1
178
     6
175
     1
176
     0
 93
-1056964608
 45
0.18
292
     0
297
     0
 46
0.18
 94
-1056964608
 47
1.0
 49
1.0
140
1.0
293
     1
141
0.0
294
     1
177
     0
142
1.0
295
     0
296
     0
143
0.125
1001
ACAD_MLEADERVER
1070
     2
  0
MLINESTYLE
  5
18
102
{ACAD_REACTORS
330
17
102
}
330
17
100
AcDbMlineStyle
  2
STANDARD
 70
     0
  3

 62
   256
 51
90.0
 52
90.0
 71
     2
 49
0.5
 62
   256
  6
BYLAYER
 49
-0.5
 62
   256
  6
BYLAYER
  0
ACDBPLACEHOLDER
  5
F
102
{ACAD_REACTORS
330
E
102
}
330
E
  0
SCALE
  5
48
102
{ACAD_REACTORS
330
47
102
}
330
47
100
AcDbScale
 70
     0
300
1:1
140
1.0
141
1.0
290
     1
  0
SCALE
  5
49
102
{ACAD_REACTORS
330
47
102
}
330
47
100
AcDbScale
 70
     0
300
1:2
140
1.0
141
2.0
290
     0
  0
SCALE
  5
4A
102
{ACAD_REACTORS
330
47
102
}
330
47
100
AcDbScale
 70
     0
300
1:4
140
1.0
141
4.0
290
     0
  0
SCALE
  5
4B
102
{ACAD_REACTORS
330
47
102
}
330
47
100
AcDbScale
 70
     0
300
1:5
140
1.0
141
5.0
290
     0
  0
SCALE
  5
4C
102
{ACAD_REACTORS
330
47
102
}
330
47
100
AcDbScale
 70
     0
300
1:8
140
1.0
141
8.0
290
     0
  0
SCALE
  5
4D
102
{ACAD_REACTORS
330
47
102
}
330
47
100
AcDbScale
 70
     0
300
1:10
140
1.0
141
10.0
290
     0
  0
SCALE
  5
4E
102
{ACAD_REACTORS
330
47
102
}
330
47
100
AcDbScale
 70
     0
300
1:16
140
1.0
141
16.0
290
     0
  0
SCALE
  5
4F
102
{ACAD_REACTORS
330
47
102
}
330
47
100
AcDbScale
 70
     0
300
1:20
140
1.0
141
20.0
290
     0
  0
SCALE
  5
50
102
{ACAD_REACTORS
330
47
102
}
330
47
100
AcDbScale
 70
     0
300
1:30
140
1.0
141
30.0
290
     0
  0
SCALE
  5
51
102
{ACAD_REACTORS
330
47
102
}
330
47
100
AcDbScale
 70
     0
300
1:40
140
1.0
141
40.0
290
     0
  0
SCALE
  5
52
102
{ACAD_REACTORS
330
47
102
}
330
47
100
AcDbScale
 70
     0
300
1:50
140
1.0
141
50.0
290
     0
  0
SCALE
  5
53
102
{ACAD_REACTORS
330
47
102
}
330
47
100
AcDbScale
 70
     0
300
1:100
140
1.0
141
100.0
290
     0
  0
SCALE
  5
54
102
{ACAD_REACTORS
330
47
102
}
330
47
100
AcDbScale
 70
     0
300
2:1
140
2.0
141
1.0
290
     0
  0
SCALE
  5
55
102
{ACAD_REACTORS
330
47
102
}
330
47
100
AcDbScale
 70
     0
300
4:1
140
4.0
141
1.0
290
     0
  0
SCALE
  5
56
102
{ACAD_REACTORS
330
47
102
}
330
47
100
AcDbScale
 70
     0
300
8:1
140
8.0
141
1.0
290
     0
  0
SCALE
  5
57
102
{ACAD_REACTORS
330
47
102
}
330
47
100
AcDbScale
 70
     0
300
10:1
140
10.0
141
1.0
290
     0
  0
SCALE
  5
58
102
{ACAD_REACTORS
330
47
102
}
330
47
100
AcDbScale
 70
     0
300
100:1
140
100.0
141
1.0
290
     0
  0
SCALE
  5
59
102
{ACAD_REACTORS
330
47
102
}
330
47
100
AcDbScale
 70
     0
300
1/128" = 1'-0"
140
0.007812
141
12.0
290
     0
  0
SCALE
  5
5A
102
{ACAD_REACTORS
330
47
102
}
330
47
100
AcDbScale
 70
     0
300
1/64" = 1'-0"
140
0.015625
141
12.0
290
     0
  0
SCALE
  5
5B
102
{ACAD_REACTORS
330
47
102
}
330
47
100
AcDbScale
 70
     0
300
1/32" = 1'-0"
140
0.03125
141
12.0
290
     0
  0
SCALE
  5
5C
102
{ACAD_REACTORS
330
47
102
}
330
47
100
AcDbScale
 70
     0
300
1/16" = 1'-0"
140
0.0625
141
12.0
290
     0
  0
SCALE
  5
5D
102
{ACAD_REACTORS
330
47
102
}
330
47
100
AcDbScale
 70
     0
300
3/32" = 1'-0"
140
0.09375
141
12.0
290
     0
  0
SCALE
  5
5E
102
{ACAD_REACTORS
330
47
102
}
330
47
100
AcDbScale
 70
     0
300
1/8" = 1'-0"
140
0.125
141
12.0
290
     0
  0
SCALE
  5
5F
102
{ACAD_REACTORS
330
47
102
}
330
47
100
AcDbScale
 70
     0
300
3/16" = 1'-0"
140
0.1875
141
12.0
290
     0
  0
SCALE
  5
60
102
{ACAD_REACTORS
330
47
102
}
330
47
100
AcDbScale
 70
     0
300
1/4" = 1'-0"
140
0.25
141
12.0
290
     0
  0
SCALE
  5
61
102
{ACAD_REACTORS
330
47
102
}
330
47
100
AcDbScale
 70
     0
300
3/8" = 1'-0"
140
0.375
141
12.0
290
     0
  0
SCALE
  5
62
102
{ACAD_REACTORS
330
47
102
}
330
47
100
AcDbScale
 70
     0
300
1/2" = 1'-0"
140
0.5
141
12.0
290
     0
  0
SCALE
  5
63
102
{ACAD_REACTORS
330
47
102
}
330
47
100
AcDbScale
 70
     0
300
3/4" = 1'-0"
140
0.75
141
12.0
290
     0
  0
SCALE
  5
64
102
{ACAD_REACTORS
330
47
102
}
330
47
100
AcDbScale
 70
     0
300
1" = 1'-0"
140
1.0
141
12.0
290
     0
  0
SCALE
  5
65
102
{ACAD_REACTORS
330
47
102
}
330
47
100
AcDbScale
 70
     0
300
1-1/2" = 1'-0"
140
1.5
141
12.0
290
     0
  0
SCALE
  5
66
102
{ACAD_REACTORS
330
47
102
}
330
47
100
AcDbScale
 70
     0
300
3" = 1'-0"
140
3.0
141
12.0
290
     0
  0
SCALE
  5
67
102
{ACAD_REACTORS
330
47
102
}
330
47
100
AcDbScale
 70
     0
300
6" = 1'-0"
140
6.0
141
12.0
290
     0
  0
SCALE
  5
68
102
{ACAD_REACTORS
330
47
102
}
330
47
100
AcDbScale
 70
     0
300
1'-0" = 1'-0"
140
12.0
141
12.0
290
     0
  0
ACDBSECTIONVIEWSTYLE
  5
30B
102
{ACAD_XDICTIONARY
360
3A7
102
}
102
{ACAD_REACTORS
330
307
102
}
330
307
100
AcDbModelDocViewStyle
 70
     0
  3
Metric50
290
     0
100
AcDbSectionViewStyle
 70
     0
 71
     0
 90
      102
 71
     1
340
11
 62
   256
 40
5.0
340
0
340
0
 62
   256
 40
5.0
300
I, O, Q, S, X, Z
 40
10.0
 90
        0
 40
2.5
 90
        0
 71
     2
340
16
 90
       25
 62
   256
340
16
 90
       50
 62
   256
 40
5.0
 40
2.5
 40
5.0
 71
     3
340
11
 62
   256
 40
5.0
 90
        0
 40
15.0
 90
        1
300
%<\AcVar ViewSectionStartId>%-%<\AcVar ViewSectionEndId>% (%<\AcVar ViewScale \f "%sn">%)
 71
     4
 62
   256
 62
   257
300
ANSI31
 40
1.0
 90
        0
290
     0
290
     0
 90
        6
 40
0.0
 40
1.570796326794896
 40
0.2617993877991494
 40
1.308996938995747
 40
-0.2617993877991494
 40
1.832595714594046
  0
TABLESTYLE
  5
6A
102
{ACAD_XDICTIONARY
360
2FD
102
}
102
{ACAD_REACTORS
330
69
102
}
330
69
100
AcDbTableStyle
  3
Standard
 70
     0
 71
     0
 40
0.06
 41
0.06
280
     0
281
     0
  7
Standard
140
0.18
170
     2
 62
     0
 63
     7
283
     0
274
    -2
284
     1
 64
     0
275
    -2
285
     1
 65
     0
276
    -2
286
     1
 66
     0
277
    -2
287
     1
 67
     0
278
    -2
288
     1
 68
     0
279
    -2
289
     1
 69
     0
  7
Standard
140
0.25
170
     5
 62
     0
 63
     7
283
     0
274
    -2
284
     1
 64
     0
275
    -2
285
     1
 65
     0
276
    -2
286
     1
 66
     0
277
    -2
287
     1
 67
     0
278
    -2
288
     1
 68
     0
279
    -2
289
     1
 69
     0
  7
Standard
140
0.18
170
     5
 62
     0
 63
     7
283
     0
274
    -2
284
     1
 64
     0
275
    -2
285
     1
 65
     0
276
    -2
286
     1
 66
     0
277
    -2
287
     1
 67
     0
278
    -2
288
     1
 68
     0
279
    -2
289
     1
 69
     0
  0
VISUALSTYLE
  5
2F
102
{ACAD_XDICTIONARY
360
37E
102
}
102
{ACAD_REACTORS
330
2A
102
}
330
2A
100
AcDbVisualStyle
  2

 70
     4
 71
     0
 72
     2
 73
     0
 90
        0
 40
-0.6
 41
-30.0
 62
     5
 63
     7
421
 16777215
 74
     1
 91
        4
 64
     7
 65
   257
 75
     1
175
     1
 42
1.0
 92
        0
 66
   257
 43
1.0
 76
     1
 77
     6
 78
     2
 67
     7
 79
     5
170
     0
171
     0
290
     0
174
     0
 93
        1
 44
0.0
173
     0
291
     0
 45
0.0
1001
ACAD
1000
AcDbSavedByObjectVersion
1070
     0
  0
VISUALSTYLE
  5
32
102
{ACAD_XDICTIONARY
360
384
102
}
102
{ACAD_REACTORS
330
2A
102
}
330
2A
100
AcDbVisualStyle
  2

 70
     7
 71
     1
 72
     0
 73
     1
 90
        0
 40
-0.6
 41
-30.0
 62
     5
 63
     7
421
 16777215
 74
     0
 91
        4
 64
     7
 65
   257
 75
     1
175
     1
 42
1.0
 92
        8
 66
     7
 43
1.0
 76
     1
 77
     6
 78
     2
 67
     7
 79
     5
170
     0
171
     0
290
     0
174
     0
 93
        1
 44
0.0
173
     0
291
     1
 45
0.0
1001
ACAD
1000
AcDbSavedByObjectVersion
1070
     0
  0
VISUALSTYLE
  5
36
102
{ACAD_XDICTIONARY
360
38C
102
}
102
{ACAD_REACTORS
330
2A
102
}
330
2A
100
AcDbVisualStyle
  2

 70
    12
 71
     2
 72
     2
 73
     0
 90
        0
 40
-0.6
 41
-30.0
 62
     5
 63
     7
421
 16777215
 74
     1
 91
        4
 64
     7
 65
   257
 75
     1
175
     1
 42
1.0
 92
        8
 66
     7
 43
1.0
 76
     1
 77
     6
 78
     2
 67
     7
 79
     5
170
     0
171
     0
290
     0
174
     0
 93
        1
 44
50.0
173
     0
291
     1
 45
0.0
1001
ACAD
1000
AcDbSavedByObjectVersion
1070
     0
  0
VISUALSTYLE
  5
3A
102
{ACAD_XDICTIONARY
360
394
102
}
102
{ACAD_REACTORS
330
2A
102
}
330
2A
100
AcDbVisualStyle
  2

 70
    16
 71
     2
 72
     2
 73
     3
 90
        0
 40
-0.6
 41
-30.0
 62
     5
 63
     8
421
  8421504
 74
     1
 91
        4
 64
     7
 65
   257
 75
     1
175
     1
 42
1.0
 92
        8
 66
     8
424
  8421504
 43
1.0
 76
     1
 77
     6
 78
     2
 67
     7
 79
     5
170
     0
171
     0
290
     0
174
     0
 93
        1
 44
0.0
173
     0
291
     1
 45
0.0
1001
ACAD
1000
AcDbSavedByObjectVersion
1070
     0
  0
VISUALSTYLE
  5
34
102
{ACAD_XDICTIONARY
360
388
102
}
102
{ACAD_REACTORS
330
2A
102
}
330
2A
100
AcDbVisualStyle
  2

 70
     9
 71
     3
 72
     2
 73
     0
 90
        0
 40
-0.6
 41
-30.0
 62
     5
 63
     7
421
 16777215
 74
     2
 91
        2
 64
     7
 65
   257
 75
     1
175
     1
 42
179.0
 92
        8
 66
     7
 43
1.0
 76
     1
 77
     6
 78
     2
 67
     7
 79
     3
170
     0
171
     0
290
     0
174
     0
 93
        1
 44
0.0
173
     0
291
     0
 45
0.0
1001
ACAD
1000
AcDbSavedByObjectVersion
1070
     0
  0
VISUALSTYLE
  5
35
102
{ACAD_XDICTIONARY
360
38A
102
}
102
{ACAD_REACTORS
330
2A
102
}
330
2A
100
AcDbVisualStyle
  2

 70
    11
 71
     2
 72
     2
 73
     0
 90
        0
 40
-0.6
 41
-30.0
 62
     5
 63
     7
421
 16777215
 74
     1
 91
        4
 64
     7
 65
   257
 75
     1
175
     1
 42
1.0
 92
        8
 66
     7
 43
1.0
 76
     1
 77
     6
 78
     2
 67
     7
 79
     5
170
     0
171
     0
290
     0
174
     0
 93
        1
 44
-50.0
173
     0
291
     1
 45
0.0
1001
ACAD
1000
AcDbSavedByObjectVersion
1070
     0
  0
VISUALSTYLE
  5
3D
102
{ACAD_XDICTIONARY
360
39A
102
}
102
{ACAD_REACTORS
330
2A
102
}
330
2A
100
AcDbVisualStyle
  2

 70
    22
 71
     2
 72
     2
 73
     0
 90
        0
 40
-0.6
 41
-30.0
 62
     5
 63
     7
421
 16777215
 74
     1
 91
        4
 64
     7
 65
   257
 75
     1
175
     1
 42
1.0
 92
        8
 66
     7
 43
1.0
 76
     1
 77
     6
 78
     2
 67
     7
 79
     5
170
     0
171
     0
290
     0
174
     0
 93
        1
 44
0.0
173
     0
291
     1
 45
0.0
1001
ACAD
1000
AcDbSavedByObjectVersion
1070
     0
  0
VISUALSTYLE
  5
39
102
{ACAD_XDICTIONARY
360
392
102
}
102
{ACAD_REACTORS
330
2A
102
}
330
2A
100
AcDbVisualStyle
  2

 70
    15
 71
     2
 72
     2
 73
     0
 90
        0
 40
-0.6
 41
-30.0
 62
     5
 63
     7
421
 16777215
 74
     1
 91
        4
 64
     7
 65
   257
 75
     1
175
     1
 42
1.0
 92
        8
 66
     7
 43
1.0
 76
     1
 77
     6
 78
     2
 67
     7
 79
     5
170
     0
171
     0
290
     0
174
     0
 93
        1
 44
0.0
173
     0
291
     1
 45
0.0
1001
ACAD
1000
AcDbSavedByObjectVersion
1070
     0
  0
VISUALSTYLE
  5
2B
102
{ACAD_XDICTIONARY
360
376
102
}
102
{ACAD_REACTORS
330
2A
102
}
330
2A
100
AcDbVisualStyle
  2

 70
     0
 71
     2
 72
     1
 73
     1
 90
        2
 40
-0.6
 41
30.0
 62
     5
 63
     7
421
 16777215
 74
     0
 91
        0
 64
     7
 65
   257
 75
     1
175
     1
 42
1.0
 92
        8
 66
     7
 43
1.0
 76
     1
 77
     6
 78
     2
 67
     7
 79
     5
170
     0
171
     0
290
     0
174
     0
 93
       13
 44
0.0
173
     0
291
     1
 45
0.0
1001
ACAD
1000
AcDbSavedByObjectVersion
1070
     0
  0
VISUALSTYLE
  5
2C
102
{ACAD_XDICTIONARY
360
378
102
}
102
{ACAD_REACTORS
330
2A
102
}
330
2A
100
AcDbVisualStyle
  2

 70
     1
 71
     2
 72
     1
 73
     1
 90
        2
 40
-0.6
 41
30.0
 62
     5
 63
     7
421
 16777215
 74
     1
 91
        0
 64
     7
 65
   257
 75
     1
175
     1
 42
1.0
 92
        0
 66
   257
 43
1.0
 76
     1
 77
     6
 78
     2
 67
     7
 79
     5
170
     0
171
     0
290
     0
174
     0
 93
       13
 44
0.0
173
     0
291
     1
 45
0.0
1001
ACAD
1000
AcDbSavedByObjectVersion
1070
     0
  0
VISUALSTYLE
  5
2D
102
{ACAD_XDICTIONARY
360
37A
102
}
102
{ACAD_REACTORS
330
2A
102
}
330
2A
100
AcDbVisualStyle
  2

 70
     2
 71
     2
 72
     2
 73
     1
 90
        2
 40
-0.6
 41
30.0
 62
     5
 63
     7
421
 16777215
 74
     0
 91
        0
 64
     7
 65
   257
 75
     1
175
     1
 42
1.0
 92
        0
 66
     7
 43
1.0
 76
     1
 77
     6
 78
     2
 67
     7
 79
     5
170
     0
171
     0
290
     0
174
     0
 93
       13
 44
0.0
173
     0
291
     1
 45
0.0
1001
ACAD
1000
AcDbSavedByObjectVersion
1070
     0
  0
VISUALSTYLE
  5
2E
102
{ACAD_XDICTIONARY
360
37C
102
}
102
{ACAD_REACTORS
330
2A
102
}
330
2A
100
AcDbVisualStyle
  2

 70
     3
 71
     2
 72
     2
 73
     1
 90
        2
 40
-0.6
 41
30.0
 62
     5
 63
     7
421
 16777215
 74
     1
 91
        0
 64
     7
 65
   257
 75
     1
175
     1
 42
1.0
 92
        0
 66
   257
 43
1.0
 76
     1
 77
     6
 78
     2
 67
     7
 79
     5
170
     0
171
     0
290
     0
174
     0
 93
       13
 44
0.0
173
     0
291
     1
 45
0.0
1001
ACAD
1000
AcDbSavedByObjectVersion
1070
     0
  0
VISUALSTYLE
  5
31
102
{ACAD_XDICTIONARY
360
382
102
}
102
{ACAD_REACTORS
330
2A
102
}
330
2A
100
AcDbVisualStyle
  2

 70
     6
 71
     1
 72
     2
 73
     2
 90
        0
 40
-0.6
 41
-30.0
 62
     5
 63
     7
421
 16777215
 74
     2
 91
        2
 64
     7
 65
   257
 75
     2
175
     1
 42
40.0
 92
        0
 66
   257
 43
1.0
 76
     1
 77
     6
 78
     2
 67
     7
 79
     3
170
     0
171
     0
290
     0
174
     0
 93
        1
 44
0.0
173
     0
291
     0
 45
0.0
1001
ACAD
1000
AcDbSavedByObjectVersion
1070
     0
  0
VISUALSTYLE
  5
3B
102
{ACAD_XDICTIONARY
360
396
102
}
102
{ACAD_REACTORS
330
2A
102
}
330
2A
100
AcDbVisualStyle
  2

 70
    20
 71
     2
 72
     2
 73
     0
 90
        0
 40
-0.6
 41
-30.0
 62
     5
 63
     7
421
 16777215
 74
     1
 91
        4
 64
     7
 65
   257
 75
     1
175
     1
 42
1.0
 92
       10
 66
     7
 43
1.0
 76
     1
 77
     6
 78
     2
 67
     7
 79
     5
170
     0
171
     0
290
     0
174
     0
 93
        1
 44
0.0
173
     0
291
     1
 45
0.0
1001
ACAD
1000
AcDbSavedByObjectVersion
1070
     0
  0
VISUALSTYLE
  5
38
102
{ACAD_XDICTIONARY
360
390
102
}
102
{ACAD_REACTORS
330
2A
102
}
330
2A
100
AcDbVisualStyle
  2

 70
    14
 71
     2
 72
     2
 73
     0
 90
        0
 40
-0.6
 41
-30.0
 62
     5
 63
     7
421
 16777215
 74
     1
 91
        4
 64
     7
 65
   257
 75
     7
175
     7
 42
1.0
 92
        8
 66
     7
 43
1.0
 76
     1
 77
     6
 78
     2
 67
     7
 79
     5
170
     0
171
     0
290
     0
174
     0
 93
        1
 44
0.0
173
     0
291
     1
 45
0.0
1001
ACAD
1000
AcDbSavedByObjectVersion
1070
     0
  0
VISUALSTYLE
  5
3C
102
{ACAD_XDICTIONARY
360
398
102
}
102
{ACAD_REACTORS
330
2A
102
}
330
2A
100
AcDbVisualStyle
  2

 70
    21
 71
     2
 72
     2
 73
     0
 90
        0
 40
-0.6
 41
-30.0
 62
     5
 63
     7
421
 16777215
 74
     1
 91
        4
 64
     7
 65
   257
 75
     1
175
     1
 42
1.0
 92
        9
 66
     7
 43
1.0
 76
     1
 77
     6
 78
     2
 67
     7
 79
     5
170
     0
171
     0
290
     0
174
     0
 93
        1
 44
0.0
173
     0
291
     1
 45
0.0
1001
ACAD
1000
AcDbSavedByObjectVersion
1070
     0
  0
VISUALSTYLE
  5
33
102
{ACAD_XDICTIONARY
360
386
102
}
102
{ACAD_REACTORS
330
2A
102
}
330
2A
100
AcDbVisualStyle
  2

 70
     8
 71
     2
 72
     3
 73
     0
 90
        2
 40
-0.6
 41
30.0
 62
     5
 63
     7
421
 16777215
 74
     0
 91
        0
 64
     7
 65
   257
 75
     1
175
     1
 42
1.0
 92
        8
 66
   257
 43
1.0
 76
     1
 77
     6
 78
     2
 67
     7
 79
     3
170
     0
171
     0
290
     0
174
     0
 93
       13
 44
0.0
173
     0
291
     0
 45
0.0
1001
ACAD
1000
AcDbSavedByObjectVersion
1070
     0
  0
VISUALSTYLE
  5
42
102
{ACAD_XDICTIONARY
360
3A4
102
}
102
{ACAD_REACTORS
330
2A
102
}
330
2A
100
AcDbVisualStyle
  2

 70
    27
 71
     2
 72
     2
 73
     1
 90
        2
 40
-0.6
 41
30.0
 62
     5
 63
     7
421
 16777215
 74
     0
 91
        4
 64
     7
 65
   257
 75
     1
175
     1
 42
1.0
 92
        8
 66
   257
 43
1.0
 76
     1
 77
     6
 78
     2
 67
     8
425
  7895160
 79
     3
170
     0
171
     0
290
     0
174
     0
 93
        5
 44
0.0
173
     0
291
     0
 45
0.0
1001
ACAD
1000
AcDbSavedByObjectVersion
1070
     0
  0
VISUALSTYLE
  5
41
102
{ACAD_XDICTIONARY
360
3A2
102
}
102
{ACAD_REACTORS
330
2A
102
}
330
2A
100
AcDbVisualStyle
  2

 70
    26
 71
     2
 72
     2
 73
     1
 90
        2
 40
-0.6
 41
30.0
 62
     5
 63
     7
421
 16777215
 74
     1
 91
       10
 64
     7
 65
   257
 75
     2
175
     1
 42
1.0
 92
        8
 66
   257
 43
1.0
 76
     1
 77
     6
 78
     2
 67
     7
 79
     3
170
     0
171
     0
290
     0
174
     0
 93
        5
 44
0.0
173
     0
291
     0
 45
0.0
1001
ACAD
1000
AcDbSavedByObjectVersion
1070
     0
  0
VISUALSTYLE
  5
3E
102
{ACAD_XDICTIONARY
360
39C
102
}
102
{ACAD_REACTORS
330
2A
102
}
330
2A
100
AcDbVisualStyle
  2

 70
    23
 71
     2
 72
     2
 73
     3
 90
        0
 40
-0.6
 41
-30.0
 62
     5
 63
     7
421
 16777215
 74
     2
 91
        2
 64
     7
 65
     7
 75
     1
175
     1
 42
40.0
 92
        8
 66
     7
 43
1.0
 76
     1
 77
     6
 78
     2
 67
     7
 79
     3
170
     0
171
     0
290
     0
174
     0
 93
        1
 44
0.0
173
     0
291
     0
 45
0.0
1001
ACAD
1000
AcDbSavedByObjectVersion
1070
     0
  0
VISUALSTYLE
  5
3F
102
{ACAD_XDICTIONARY
360
39E
102
}
102
{ACAD_REACTORS
330
2A
102
}
330
2A
100
AcDbVisualStyle
  2

 70
    24
 71
     1
 72
     2
 73
     2
 90
        0
 40
-0.6
 41
-30.0
 62
     5
 63
     7
421
 16777215
 74
     2
 91
        2
 64
     7
 65
     7
 75
     1
175
     1
 42
40.0
 92
       11
 66
     7
 43
1.0
 76
     1
 77
     6
 78
     2
 67
     7
 79
     6
170
     0
171
     0
290
     0
174
     0
 93
        1
 44
0.0
173
     0
291
     0
 45
0.0
1001
ACAD
1000
AcDbSavedByObjectVersion
1070
     0
  0
VISUALSTYLE
  5
37
102
{ACAD_XDICTIONARY
360
38E
102
}
102
{ACAD_REACTORS
330
2A
102
}
330
2A
100
AcDbVisualStyle
  2

 70
    13
 71
     2
 72
     2
 73
     0
 90
        0
 40
-0.6
 41
-30.0
 62
     5
 63
     7
421
 16777215
 74
     1
 91
        4
 64
     7
 65
   257
 75
     1
175
     1
 42
1.0
 92
       12
 66
     7
 43
1.0
 76
     1
 77
     6
 78
     2
 67
     7
 79
     5
170
     0
171
     0
290
     0
174
     0
 93
        1
 44
0.0
173
     0
291
     1
 45
0.0
1001
ACAD
1000
AcDbSavedByObjectVersion
1070
     0
  0
VISUALSTYLE
  5
30
102
{ACAD_XDICTIONARY
360
380
102
}
102
{ACAD_REACTORS
330
2A
102
}
330
2A
100
AcDbVisualStyle
  2

 70
     5
 71
     0
 72
     2
 73
     0
 90
        0
 40
-0.6
 41
-30.0
 62
     5
 63
     7
421
 16777215
 74
     1
 91
        4
 64
     7
 65
   257
 75
     1
175
     1
 42
1.0
 92
        0
 66
   257
 43
1.0
 76
     1
 77
     6
 78
     2
 67
     7
 79
     3
170
     0
171
     0
290
     0
174
     0
 93
        1
 44
0.0
173
     0
291
     0
 45
0.0
1001
ACAD
1000
AcDbSavedByObjectVersion
1070
     0
  0
VISUALSTYLE
  5
40
102
{ACAD_XDICTIONARY
360
3A0
102
}
102
{ACAD_REACTORS
330
2A
102
}
330
2A
100
AcDbVisualStyle
  2

 70
    25
 71
     2
 72
     2
 73
     1
 90
        1
 40
0.5
 41
-30.0
 62
     5
 63
     7
421
 16777215
 74
     1
 91
        0
 64
     7
 65
   257
 75
     1
175
     1
 42
1.0
 92
        8
 66
     7
 43
1.0
 76
     1
 77
     6
 78
     2
 67
     7
 79
     3
170
     0
171
     0
290
     0
174
     0
 93
       13
 44
0.0
173
     0
291
     0
 45
0.0
1001
ACAD
1000
AcDbSavedByObjectVersion
1070
     0
  0
DICTIONARYVAR
  5
2C4
102
{ACAD_REACTORS
330
2C3
102
}
330
2C3
100
DictionaryVariables
280
     0
  1
1:1
  0
DICTIONARYVAR
  5
305
102
{ACAD_REACTORS
330
2C3
102
}
330
2C3
100
DictionaryVariables
280
     0
  1
STANDARD
  0
DICTIONARYVAR
  5
304
102
{ACAD_REACTORS
330
2C3
102
}
330
2C3
100
DictionaryVariables
280
     0
  1
STANDARD
  0
DICTIONARYVAR
  5
370
102
{ACAD_REACTORS
330
2C3
102
}
330
2C3
100
DictionaryVariables
280
     0
  1
Metric50
  0
DICTIONARYVAR
  5
371
102
{ACAD_REACTORS
330
2C3
102
}
330
2C3
100
DictionaryVariables
280
     0
  1
Metric50
  0
DICTIONARYVAR
  5
2C5
102
{ACAD_REACTORS
330
2C3
102
}
330
2C3
100
DictionaryVariables
280
     0
  1
1
  0
DICTIONARYVAR
  5
372
102
{ACAD_REACTORS
330
2C3
102
}
330
2C3
100
DictionaryVariables
280
     0
  1
2
  0
DICTIONARY
  5
3A9
330
30C
100
AcDbDictionary
280
     1
281
     1
  3
ACAD_XREC_ROUNDTRIP
360
3AA
  0
DICTIONARY
  5
2F9
330
45
100
AcDbDictionary
280
     1
281
     1
  3
ACAD_XREC_ROUNDTRIP
360
2FA
  0
DICTIONARY
  5
2F7
330
44
100
AcDbDictionary
280
     1
281
     1
  3
ACAD_XREC_ROUNDTRIP
360
2F8
  0
DICTIONARY
  5
2FB
330
46
100
AcDbDictionary
280
     1
281
     1
  3
ACAD_XREC_ROUNDTRIP
360
2FC
  0
DICTIONARY
  5
3A7
330
30B
100
AcDbDictionary
280
     1
281
     1
  3
ACAD_XREC_ROUNDTRIP
360
3A8
  0
DICTIONARY
  5
2FD
330
6A
100
AcDbDictionary
280
     1
281
     1
  3
ACAD_ROUNDTRIP_2008_TABLESTYLE_CELLSTYLEMAP
360
374
  3
ACAD_XREC_ROUNDTRIP
360
3A6
  0
DICTIONARY
  5
37E
330
2F
100
AcDbDictionary
280
     1
281
     1
  3
ACAD_XREC_ROUNDTRIP
360
37F
  0
DICTIONARY
  5
384
330
32
100
AcDbDictionary
280
     1
281
     1
  3
ACAD_XREC_ROUNDTRIP
360
385
  0
DICTIONARY
  5
38C
330
36
100
AcDbDictionary
280
     1
281
     1
  3
ACAD_XREC_ROUNDTRIP
360
38D
  0
DICTIONARY
  5
394
330
3A
100
AcDbDictionary
280
     1
281
     1
  3
ACAD_XREC_ROUNDTRIP
360
395
  0
DICTIONARY
  5
388
330
34
100
AcDbDictionary
280
     1
281
     1
  3
ACAD_XREC_ROUNDTRIP
360
389
  0
DICTIONARY
  5
38A
330
35
100
AcDbDictionary
280
     1
281
     1
  3
ACAD_XREC_ROUNDTRIP
360
38B
  0
DICTIONARY
  5
39A
330
3D
100
AcDbDictionary
280
     1
281
     1
  3
ACAD_XREC_ROUNDTRIP
360
39B
  0
DICTIONARY
  5
392
330
39
100
AcDbDictionary
280
     1
281
     1
  3
ACAD_XREC_ROUNDTRIP
360
393
  0
DICTIONARY
  5
376
330
2B
100
AcDbDictionary
280
     1
281
     1
  3
ACAD_XREC_ROUNDTRIP
360
377
  0
DICTIONARY
  5
378
330
2C
100
AcDbDictionary
280
     1
281
     1
  3
ACAD_XREC_ROUNDTRIP
360
379
  0
DICTIONARY
  5
37A
330
2D
100
AcDbDictionary
280
     1
281
     1
  3
ACAD_XREC_ROUNDTRIP
360
37B
  0
DICTIONARY
  5
37C
330
2E
100
AcDbDictionary
280
     1
281
     1
  3
ACAD_XREC_ROUNDTRIP
360
37D
  0
DICTIONARY
  5
382
330
31
100
AcDbDictionary
280
     1
281
     1
  3
ACAD_XREC_ROUNDTRIP
360
383
  0
DICTIONARY
  5
396
330
3B
100
AcDbDictionary
280
     1
281
     1
  3
ACAD_XREC_ROUNDTRIP
360
397
  0
DICTIONARY
  5
390
330
38
100
AcDbDictionary
280
     1
281
     1
  3
ACAD_XREC_ROUNDTRIP
360
391
  0
DICTIONARY
  5
398
330
3C
100
AcDbDictionary
280
     1
281
     1
  3
ACAD_XREC_ROUNDTRIP
360
399
  0
DICTIONARY
  5
386
330
33
100
AcDbDictionary
280
     1
281
     1
  3
ACAD_XREC_ROUNDTRIP
360
387
  0
DICTIONARY
  5
3A4
330
42
100
AcDbDictionary
280
     1
281
     1
  3
ACAD_XREC_ROUNDTRIP
360
3A5
  0
DICTIONARY
  5
3A2
330
41
100
AcDbDictionary
280
     1
281
     1
  3
ACAD_XREC_ROUNDTRIP
360
3A3
  0
DICTIONARY
  5
39C
330
3E
100
AcDbDictionary
280
     1
281
     1
  3
ACAD_XREC_ROUNDTRIP
360
39D
  0
DICTIONARY
  5
39E
330
3F
100
AcDbDictionary
280
     1
281
     1
  3
ACAD_XREC_ROUNDTRIP
360
39F
  0
DICTIONARY
  5
38E
330
37
100
AcDbDictionary
280
     1
281
     1
  3
ACAD_XREC_ROUNDTRIP
360
38F
  0
DICTIONARY
  5
380
330
30
100
AcDbDictionary
280
     1
281
     1
  3
ACAD_XREC_ROUNDTRIP
360
381
  0
DICTIONARY
  5
3A0
330
40
100
AcDbDictionary
280
     1
281
     1
  3
ACAD_XREC_ROUNDTRIP
360
3A1
  0
XRECORD
  5
3AA
102
{ACAD_REACTORS
330
3A9
102
}
330
3A9
100
AcDbXrecord
280
     1
102
DISPLAYNAME
  1
Metric50
102
FLAGS
 90
        0
  0
XRECORD
  5
2FA
102
{ACAD_REACTORS
330
2F9
102
}
330
2F9
100
AcDbXrecord
280
     1
102
MATERIAL
148
0.0
149
0.0
149
0.0
 93
        0
 94
      127
282
     0
 72
     1
 77
     1
171
     1
175
     1
179
     1
273
     0
  0
XRECORD
  5
2F8
102
{ACAD_REACTORS
330
2F7
102
}
330
2F7
100
AcDbXrecord
280
     1
102
MATERIAL
148
0.0
149
0.0
149
0.0
 93
        0
 94
      127
282
     0
 72
     1
 77
     1
171
     1
175
     1
179
     1
273
     0
  0
XRECORD
  5
2FC
102
{ACAD_REACTORS
330
2FB
102
}
330
2FB
100
AcDbXrecord
280
     1
102
MATERIAL
148
0.0
149
0.0
149
0.0
 93
        0
 94
      127
282
     0
 72
     1
 77
     1
171
     1
175
     1
179
     1
273
     0
  0
XRECORD
  5
3A8
102
{ACAD_REACTORS
330
3A7
102
}
330
3A7
100
AcDbXrecord
280
     1
102
DISPLAYNAME
  1
Metric50
102
FLAGS
 90
        0
  0
CELLSTYLEMAP
  5
374
102
{ACAD_REACTORS
330
2FD
102
}
330
2FD
100
AcDbCellStyleMap
 90
        3
300
CELLSTYLE
  1
TABLEFORMAT_BEGIN
 90
        5
170
     1
 91
        0
 92
    32768
 62
   257
 93
        1
300
CONTENTFORMAT
  1
CONTENTFORMAT_BEGIN
 90
        0
 91
        0
 92
        4
 93
        0
300

 40
0.0
140
1.0
 94
        5
 62
     0
340
11
144
0.25
309
CONTENTFORMAT_END
171
     1
301
MARGIN
  1
CELLMARGIN_BEGIN
 40
0.06
 40
0.06
 40
0.06
 40
0.06
 40
0.18
 40
0.18
309
CELLMARGIN_END
 94
        6
 95
        1
302
GRIDFORMAT
  1
GRIDFORMAT_BEGIN
 90
        0
 91
        1
 62
     0
 92
       -2
340
14
 93
        0
 40
0.045
309
GRIDFORMAT_END
 95
        2
302
GRIDFORMAT
  1
GRIDFORMAT_BEGIN
 90
        0
 91
        1
 62
     0
 92
       -2
340
14
 93
        0
 40
0.045
309
GRIDFORMAT_END
 95
        4
302
GRIDFORMAT
  1
GRIDFORMAT_BEGIN
 90
        0
 91
        1
 62
     0
 92
       -2
340
14
 93
        0
 40
0.045
309
GRIDFORMAT_END
 95
        8
302
GRIDFORMAT
  1
GRIDFORMAT_BEGIN
 90
        0
 91
        1
 62
     0
 92
       -2
340
14
 93
        0
 40
0.045
309
GRIDFORMAT_END
 95
       16
302
GRIDFORMAT
  1
GRIDFORMAT_BEGIN
 90
        0
 91
        1
 62
     0
 92
       -2
340
14
 93
        0
 40
0.045
309
GRIDFORMAT_END
 95
       32
302
GRIDFORMAT
  1
GRIDFORMAT_BEGIN
 90
        0
 91
        1
 62
     0
 92
       -2
340
14
 93
        0
 40
0.045
309
GRIDFORMAT_END
309
TABLEFORMAT_END
  1
CELLSTYLE_BEGIN
 90
        1
 91
        1
300
_TITLE
309
CELLSTYLE_END
300
CELLSTYLE
  1
TABLEFORMAT_BEGIN
 90
        5
170
     1
 91
        0
 92
        0
 62
   257
 93
        1
300
CONTENTFORMAT
  1
CONTENTFORMAT_BEGIN
 90
        0
 91
        0
 92
        4
 93
        0
300

 40
0.0
140
1.0
 94
        5
 62
     0
340
11
144
0.18
309
CONTENTFORMAT_END
171
     1
301
MARGIN
  1
CELLMARGIN_BEGIN
 40
0.06
 40
0.06
 40
0.06
 40
0.06
 40
0.18
 40
0.18
309
CELLMARGIN_END
 94
        6
 95
        1
302
GRIDFORMAT
  1
GRIDFORMAT_BEGIN
 90
        0
 91
        1
 62
     0
 92
       -2
340
14
 93
        0
 40
0.045
309
GRIDFORMAT_END
 95
        2
302
GRIDFORMAT
  1
GRIDFORMAT_BEGIN
 90
        0
 91
        1
 62
     0
 92
       -2
340
14
 93
        0
 40
0.045
309
GRIDFORMAT_END
 95
        4
302
GRIDFORMAT
  1
GRIDFORMAT_BEGIN
 90
        0
 91
        1
 62
     0
 92
       -2
340
14
 93
        0
 40
0.045
309
GRIDFORMAT_END
 95
        8
302
GRIDFORMAT
  1
GRIDFORMAT_BEGIN
 90
        0
 91
        1
 62
     0
 92
       -2
340
14
 93
        0
 40
0.045
309
GRIDFORMAT_END
 95
       16
302
GRIDFORMAT
  1
GRIDFORMAT_BEGIN
 90
        0
 91
        1
 62
     0
 92
       -2
340
14
 93
        0
 40
0.045
309
GRIDFORMAT_END
 95
       32
302
GRIDFORMAT
  1
GRIDFORMAT_BEGIN
 90
        0
 91
        1
 62
     0
 92
       -2
340
14
 93
        0
 40
0.045
309
GRIDFORMAT_END
309
TABLEFORMAT_END
  1
CELLSTYLE_BEGIN
 90
        2
 91
        1
300
_HEADER
309
CELLSTYLE_END
300
CELLSTYLE
  1
TABLEFORMAT_BEGIN
 90
        5
170
     1
 91
        0
 92
        0
 62
   257
 93
        1
300
CONTENTFORMAT
  1
CONTENTFORMAT_BEGIN
 90
        0
 91
        0
 92
        4
 93
        0
300

 40
0.0
140
1.0
 94
        2
 62
     0
340
11
144
0.18
309
CONTENTFORMAT_END
171
     1
301
MARGIN
  1
CELLMARGIN_BEGIN
 40
0.06
 40
0.06
 40
0.06
 40
0.06
 40
0.18
 40
0.18
309
CELLMARGIN_END
 94
        6
 95
        1
302
GRIDFORMAT
  1
GRIDFORMAT_BEGIN
 90
        0
 91
        1
 62
     0
 92
       -2
340
14
 93
        0
 40
0.045
309
GRIDFORMAT_END
 95
        2
302
GRIDFORMAT
  1
GRIDFORMAT_BEGIN
 90
        0
 91
        1
 62
     0
 92
       -2
340
14
 93
        0
 40
0.045
309
GRIDFORMAT_END
 95
        4
302
GRIDFORMAT
  1
GRIDFORMAT_BEGIN
 90
        0
 91
        1
 62
     0
 92
       -2
340
14
 93
        0
 40
0.045
309
GRIDFORMAT_END
 95
        8
302
GRIDFORMAT
  1
GRIDFORMAT_BEGIN
 90
        0
 91
        1
 62
     0
 92
       -2
340
14
 93
        0
 40
0.045
309
GRIDFORMAT_END
 95
       16
302
GRIDFORMAT
  1
GRIDFORMAT_BEGIN
 90
        0
 91
        1
 62
     0
 92
       -2
340
14
 93
        0
 40
0.045
309
GRIDFORMAT_END
 95
       32
302
GRIDFORMAT
  1
GRIDFORMAT_BEGIN
 90
        0
 91
        1
 62
     0
 92
       -2
340
14
 93
        0
 40
0.045
309
GRIDFORMAT_END
309
TABLEFORMAT_END
  1
CELLSTYLE_BEGIN
 90
        3
 91
        2
300
_DATA
309
CELLSTYLE_END
  0
XRECORD
  5
3A6
102
{ACAD_REACTORS
330
2FD
102
}
330
2FD
100
AcDbXrecord
280
     1
102
ACAD_ROUNDTRIP_PRE2007_TABLESTYLE
 90
        4
 91
        0
  1

 92
        4
 93
        0
  2

 94
        4
 95
        0
  3

  0
XRECORD
  5
37F
102
{ACAD_REACTORS
330
37E
102
}
330
37E
100
AcDbXrecord
280
     1
102
RTVSPost2010Prop28
280
     1
102
RTVSPost2010PropOp28
 70
     1
102
RTVSPost2010Prop29
280
     1
102
RTVSPost2010PropOp29
 70
     1
102
RTVSPost2010Prop30
280
     0
102
RTVSPost2010PropOp30
 70
     1
102
RTVSPost2010Prop31
280
     0
102
RTVSPost2010PropOp31
 70
     1
102
RTVSPost2010Prop32
280
     0
102
RTVSPost2010PropOp32
 70
     1
102
RTVSPost2010Prop33
280
     0
102
RTVSPost2010PropOp33
 70
     1
102
RTVSPost2010Prop34
280
     0
102
RTVSPost2010PropOp34
 70
     1
102
RTVSPost2010Prop35
280
     0
102
RTVSPost2010PropOp35
 70
     1
102
RTVSPost2010Prop36
280
     0
102
RTVSPost2010PropOp36
 70
     1
102
RTVSPost2010Prop37
 90
       50
102
RTVSPost2010PropOp37
 70
     1
102
RTVSPost2010Prop38
140
0.0
102
RTVSPost2010PropOp38
 70
     1
102
RTVSPost2010Prop39
140
1.0
102
RTVSPost2010PropOp39
 70
     1
102
RTVSPost2010Prop40
 90
        0
102
RTVSPost2010PropOp40
 70
     1
102
RTVSPost2010Prop41ColorIndex
 90
       18
102
RTVSPost2010Prop41ColorRGB
 90
        0
102
RTVSPost2010PropOp41
 70
     1
102
RTVSPost2010Prop42
 90
       50
102
RTVSPost2010PropOp42
 70
     1
102
RTVSPost2010Prop43
 90
        3
102
RTVSPost2010PropOp43
 70
     1
102
RTVSPost2010Prop44ColorIndex
 90
        5
102
RTVSPost2010Prop44ColorRGB
 90
      255
102
RTVSPost2010PropOp44
 70
     1
102
RTVSPost2010Prop45
280
     0
102
RTVSPost2010PropOp45
 70
     1
102
RTVSPost2010Prop46
 90
       50
102
RTVSPost2010PropOp46
 70
     1
102
RTVSPost2010Prop47
 90
       50
102
RTVSPost2010PropOp47
 70
     1
102
RTVSPost2010Prop48
 90
       50
102
RTVSPost2010PropOp48
 70
     1
102
RTVSPost2010Prop49
280
     0
102
RTVSPost2010PropOp49
 70
     1
102
RTVSPost2010Prop50
 90
       50
102
RTVSPost2010PropOp50
 70
     1
102
RTVSPost2010Prop51ColorIndex
 90
      256
102
RTVSPost2010Prop51ColorRGB
 90
-16777216
102
RTVSPost2010PropOp51
 70
     0
102
RTVSPost2010Prop52
140
1.0
102
RTVSPost2010PropOp52
 70
     0
102
RTVSPost2010Prop53
 90
        2
102
RTVSPost2010PropOp53
 70
     1
102
RTVSPost2010Prop54
  1
strokes_ogs.tif
102
RTVSPost2010PropOp54
 70
     1
102
RTVSPost2010Prop55
280
     0
102
RTVSPost2010PropOp55
 70
     1
102
RTVSPost2010Prop56
140
1.0
102
RTVSPost2010PropOp56
 70
     1
102
RTVSPost2010Prop57
140
1.0
102
RTVSPost2010PropOp57
 70
     1
102
RTVSPropertyOp0
 70
     1
102
RTVSPropertyOp1
 70
     1
102
RTVSPropertyOp2
 70
     1
102
RTVSPropertyOp3
 70
     1
102
RTVSPropertyOp4
 70
     1
102
RTVSPropertyOp5
 70
     1
102
RTVSPropertyOp6
 70
     1
102
RTVSPropertyOp7
 70
     1
102
RTVSPropertyOp8
 70
     1
102
RTVSPropertyOp9
 70
     1
102
RTVSPropertyOp10
 70
     1
102
RTVSPropertyOp11
 70
     1
102
RTVSPropertyOp12
 70
     1
102
RTVSPropertyOp13
 70
     1
102
RTVSPropertyOp14
 70
     1
102
RTVSPropertyOp15
 70
     1
102
RTVSPropertyOp16
 70
     1
102
RTVSPropertyOp17
 70
     1
102
RTVSPropertyOp18
 70
     1
102
RTVSPropertyOp19
 70
     1
102
RTVSPropertyOp20
 70
     1
102
RTVSPropertyOp21
 70
     1
102
RTVSPropertyOp22
 70
     1
102
RTVSPropertyOp23
 70
     1
102
RTVSPropertyOp24
 70
     1
102
RTVSPropertyOp25
 70
     1
102
RTVSPropertyOp26
 70
     1
102
RTVSPropertyOp27
 70
     1
102
RTVSPropertyOp28
 70
     1
102
RTVSPropertyOp29
 70
     1
102
RTVSPropertyOp30
 70
     1
102
RTVSPropertyOp31
 70
     1
102
RTVSPropertyOp32
 70
     1
102
RTVSPropertyOp33
 70
     1
102
RTVSPropertyOp34
 70
     1
102
RTVSPropertyOp35
 70
     1
102
RTVSPropertyOp36
 70
     1
102
RTVSPropertyOp37
 70
     1
102
RTVSPropertyOp38
 70
     1
102
RTVSPropertyOp39
 70
     1
102
RTVSPropertyOp40
 70
     1
102
RTVSPropertyOp41
 70
     1
102
RTVSPropertyOp42
 70
     1
102
RTVSPropertyOp43
 70
     1
102
RTVSPropertyOp44
 70
     1
102
RTVSPropertyOp45
 70
     1
102
RTVSPropertyOp46
 70
     1
102
RTVSPropertyOp47
 70
     1
102
RTVSPropertyOp48
 70
     1
102
RTVSPropertyOp49
 70
     1
102
RTVSPropertyOp50
 70
     1
102
RTVSPropertyOp51
 70
     0
102
RTVSPropertyOp52
 70
     0
102
RTVSPropertyOp53
 70
     1
102
RTVSPropertyOp54
 70
     1
102
RTVSPropertyOp55
 70
     1
102
RTVSPropertyOp56
 70
     1
102
RTVSPropertyOp57
 70
     1
102
RTVSPropertyOp58
 70
     1
102
RTVSPropertyOp59
 70
     1
102
RTVSPropertyOp60
 70
     1
102
RTVSPropertyOp61
 70
     1
102
RTVSPropertyOp62
 70
     1
  0
XRECORD
  5
385
102
{ACAD_REACTORS
330
384
102
}
330
384
100
AcDbXrecord
280
     1
102
RTVSPost2010Prop28
280
     0
102
RTVSPost2010PropOp28
 70
     1
102
RTVSPost2010Prop29
280
     1
102
RTVSPost2010PropOp29
 70
     1
102
RTVSPost2010Prop30
280
     1
102
RTVSPost2010PropOp30
 70
     1
102
RTVSPost2010Prop31
280
     0
102
RTVSPost2010PropOp31
 70
     1
102
RTVSPost2010Prop32
280
     0
102
RTVSPost2010PropOp32
 70
     1
102
RTVSPost2010Prop33
280
     0
102
RTVSPost2010PropOp33
 70
     1
102
RTVSPost2010Prop34
280
     0
102
RTVSPost2010PropOp34
 70
     1
102
RTVSPost2010Prop35
280
     0
102
RTVSPost2010PropOp35
 70
     1
102
RTVSPost2010Prop36
280
     0
102
RTVSPost2010PropOp36
 70
     1
102
RTVSPost2010Prop37
 90
       50
102
RTVSPost2010PropOp37
 70
     1
102
RTVSPost2010Prop38
140
0.0
102
RTVSPost2010PropOp38
 70
     1
102
RTVSPost2010Prop39
140
1.0
102
RTVSPost2010PropOp39
 70
     1
102
RTVSPost2010Prop40
 90
        0
102
RTVSPost2010PropOp40
 70
     1
102
RTVSPost2010Prop41ColorIndex
 90
       18
102
RTVSPost2010Prop41ColorRGB
 90
        0
102
RTVSPost2010PropOp41
 70
     1
102
RTVSPost2010Prop42
 90
       50
102
RTVSPost2010PropOp42
 70
     1
102
RTVSPost2010Prop43
 90
        3
102
RTVSPost2010PropOp43
 70
     1
102
RTVSPost2010Prop44ColorIndex
 90
        5
102
RTVSPost2010Prop44ColorRGB
 90
      255
102
RTVSPost2010PropOp44
 70
     1
102
RTVSPost2010Prop45
280
     0
102
RTVSPost2010PropOp45
 70
     1
102
RTVSPost2010Prop46
 90
       50
102
RTVSPost2010PropOp46
 70
     1
102
RTVSPost2010Prop47
 90
       50
102
RTVSPost2010PropOp47
 70
     1
102
RTVSPost2010Prop48
 90
       50
102
RTVSPost2010PropOp48
 70
     1
102
RTVSPost2010Prop49
280
     0
102
RTVSPost2010PropOp49
 70
     1
102
RTVSPost2010Prop50
 90
       50
102
RTVSPost2010PropOp50
 70
     1
102
RTVSPost2010Prop51ColorIndex
 90
      256
102
RTVSPost2010Prop51ColorRGB
 90
-16777216
102
RTVSPost2010PropOp51
 70
     0
102
RTVSPost2010Prop52
140
1.0
102
RTVSPost2010PropOp52
 70
     0
102
RTVSPost2010Prop53
 90
        2
102
RTVSPost2010PropOp53
 70
     1
102
RTVSPost2010Prop54
  1
strokes_ogs.tif
102
RTVSPost2010PropOp54
 70
     1
102
RTVSPost2010Prop55
280
     0
102
RTVSPost2010PropOp55
 70
     1
102
RTVSPost2010Prop56
140
1.0
102
RTVSPost2010PropOp56
 70
     1
102
RTVSPost2010Prop57
140
1.0
102
RTVSPost2010PropOp57
 70
     1
102
RTVSPropertyOp0
 70
     1
102
RTVSPropertyOp1
 70
     1
102
RTVSPropertyOp2
 70
     1
102
RTVSPropertyOp3
 70
     1
102
RTVSPropertyOp4
 70
     1
102
RTVSPropertyOp5
 70
     1
102
RTVSPropertyOp6
 70
     1
102
RTVSPropertyOp7
 70
     1
102
RTVSPropertyOp8
 70
     1
102
RTVSPropertyOp9
 70
     1
102
RTVSPropertyOp10
 70
     1
102
RTVSPropertyOp11
 70
     1
102
RTVSPropertyOp12
 70
     1
102
RTVSPropertyOp13
 70
     1
102
RTVSPropertyOp14
 70
     1
102
RTVSPropertyOp15
 70
     1
102
RTVSPropertyOp16
 70
     1
102
RTVSPropertyOp17
 70
     1
102
RTVSPropertyOp18
 70
     1
102
RTVSPropertyOp19
 70
     1
102
RTVSPropertyOp20
 70
     1
102
RTVSPropertyOp21
 70
     1
102
RTVSPropertyOp22
 70
     1
102
RTVSPropertyOp23
 70
     1
102
RTVSPropertyOp24
 70
     1
102
RTVSPropertyOp25
 70
     1
102
RTVSPropertyOp26
 70
     1
102
RTVSPropertyOp27
 70
     1
102
RTVSPropertyOp28
 70
     1
102
RTVSPropertyOp29
 70
     1
102
RTVSPropertyOp30
 70
     1
102
RTVSPropertyOp31
 70
     1
102
RTVSPropertyOp32
 70
     1
102
RTVSPropertyOp33
 70
     1
102
RTVSPropertyOp34
 70
     1
102
RTVSPropertyOp35
 70
     1
102
RTVSPropertyOp36
 70
     1
102
RTVSPropertyOp37
 70
     1
102
RTVSPropertyOp38
 70
     1
102
RTVSPropertyOp39
 70
     1
102
RTVSPropertyOp40
 70
     1
102
RTVSPropertyOp41
 70
     1
102
RTVSPropertyOp42
 70
     1
102
RTVSPropertyOp43
 70
     1
102
RTVSPropertyOp44
 70
     1
102
RTVSPropertyOp45
 70
     1
102
RTVSPropertyOp46
 70
     1
102
RTVSPropertyOp47
 70
     1
102
RTVSPropertyOp48
 70
     1
102
RTVSPropertyOp49
 70
     1
102
RTVSPropertyOp50
 70
     1
102
RTVSPropertyOp51
 70
     0
102
RTVSPropertyOp52
 70
     0
102
RTVSPropertyOp53
 70
     1
102
RTVSPropertyOp54
 70
     1
102
RTVSPropertyOp55
 70
     1
102
RTVSPropertyOp56
 70
     1
102
RTVSPropertyOp57
 70
     1
102
RTVSPropertyOp58
 70
     1
102
RTVSPropertyOp59
 70
     1
102
RTVSPropertyOp60
 70
     1
102
RTVSPropertyOp61
 70
     1
102
RTVSPropertyOp62
 70
     1
  0
XRECORD
  5
38D
102
{ACAD_REACTORS
330
38C
102
}
330
38C
100
AcDbXrecord
280
     1
102
RTVSPost2010Prop28
280
     0
102
RTVSPost2010PropOp28
 70
     1
102
RTVSPost2010Prop29
280
     1
102
RTVSPost2010PropOp29
 70
     1
102
RTVSPost2010Prop30
280
     1
102
RTVSPost2010PropOp30
 70
     1
102
RTVSPost2010Prop31
280
     0
102
RTVSPost2010PropOp31
 70
     1
102
RTVSPost2010Prop32
280
     0
102
RTVSPost2010PropOp32
 70
     1
102
RTVSPost2010Prop33
280
     0
102
RTVSPost2010PropOp33
 70
     1
102
RTVSPost2010Prop34
280
     0
102
RTVSPost2010PropOp34
 70
     1
102
RTVSPost2010Prop35
280
     0
102
RTVSPost2010PropOp35
 70
     1
102
RTVSPost2010Prop36
280
     0
102
RTVSPost2010PropOp36
 70
     1
102
RTVSPost2010Prop37
 90
       50
102
RTVSPost2010PropOp37
 70
     1
102
RTVSPost2010Prop38
140
0.0
102
RTVSPost2010PropOp38
 70
     1
102
RTVSPost2010Prop39
140
1.0
102
RTVSPost2010PropOp39
 70
     1
102
RTVSPost2010Prop40
 90
        0
102
RTVSPost2010PropOp40
 70
     1
102
RTVSPost2010Prop41ColorIndex
 90
       18
102
RTVSPost2010Prop41ColorRGB
 90
        0
102
RTVSPost2010PropOp41
 70
     1
102
RTVSPost2010Prop42
 90
       50
102
RTVSPost2010PropOp42
 70
     1
102
RTVSPost2010Prop43
 90
        3
102
RTVSPost2010PropOp43
 70
     1
102
RTVSPost2010Prop44ColorIndex
 90
        5
102
RTVSPost2010Prop44ColorRGB
 90
      255
102
RTVSPost2010PropOp44
 70
     1
102
RTVSPost2010Prop45
280
     0
102
RTVSPost2010PropOp45
 70
     1
102
RTVSPost2010Prop46
 90
       50
102
RTVSPost2010PropOp46
 70
     1
102
RTVSPost2010Prop47
 90
       50
102
RTVSPost2010PropOp47
 70
     1
102
RTVSPost2010Prop48
 90
       50
102
RTVSPost2010PropOp48
 70
     1
102
RTVSPost2010Prop49
280
     0
102
RTVSPost2010PropOp49
 70
     1
102
RTVSPost2010Prop50
 90
       50
102
RTVSPost2010PropOp50
 70
     1
102
RTVSPost2010Prop51ColorIndex
 90
      256
102
RTVSPost2010Prop51ColorRGB
 90
-16777216
102
RTVSPost2010PropOp51
 70
     0
102
RTVSPost2010Prop52
140
1.0
102
RTVSPost2010PropOp52
 70
     0
102
RTVSPost2010Prop53
 90
        2
102
RTVSPost2010PropOp53
 70
     1
102
RTVSPost2010Prop54
  1
strokes_ogs.tif
102
RTVSPost2010PropOp54
 70
     1
102
RTVSPost2010Prop55
280
     0
102
RTVSPost2010PropOp55
 70
     1
102
RTVSPost2010Prop56
140
1.0
102
RTVSPost2010PropOp56
 70
     1
102
RTVSPost2010Prop57
140
1.0
102
RTVSPost2010PropOp57
 70
     1
102
RTVSPropertyOp0
 70
     1
102
RTVSPropertyOp1
 70
     1
102
RTVSPropertyOp2
 70
     1
102
RTVSPropertyOp3
 70
     1
102
RTVSPropertyOp4
 70
     1
102
RTVSPropertyOp5
 70
     1
102
RTVSPropertyOp6
 70
     1
102
RTVSPropertyOp7
 70
     1
102
RTVSPropertyOp8
 70
     1
102
RTVSPropertyOp9
 70
     1
102
RTVSPropertyOp10
 70
     1
102
RTVSPropertyOp11
 70
     1
102
RTVSPropertyOp12
 70
     1
102
RTVSPropertyOp13
 70
     1
102
RTVSPropertyOp14
 70
     1
102
RTVSPropertyOp15
 70
     1
102
RTVSPropertyOp16
 70
     1
102
RTVSPropertyOp17
 70
     1
102
RTVSPropertyOp18
 70
     1
102
RTVSPropertyOp19
 70
     1
102
RTVSPropertyOp20
 70
     1
102
RTVSPropertyOp21
 70
     1
102
RTVSPropertyOp22
 70
     1
102
RTVSPropertyOp23
 70
     1
102
RTVSPropertyOp24
 70
     1
102
RTVSPropertyOp25
 70
     1
102
RTVSPropertyOp26
 70
     1
102
RTVSPropertyOp27
 70
     1
102
RTVSPropertyOp28
 70
     1
102
RTVSPropertyOp29
 70
     1
102
RTVSPropertyOp30
 70
     1
102
RTVSPropertyOp31
 70
     1
102
RTVSPropertyOp32
 70
     1
102
RTVSPropertyOp33
 70
     1
102
RTVSPropertyOp34
 70
     1
102
RTVSPropertyOp35
 70
     1
102
RTVSPropertyOp36
 70
     1
102
RTVSPropertyOp37
 70
     1
102
RTVSPropertyOp38
 70
     1
102
RTVSPropertyOp39
 70
     1
102
RTVSPropertyOp40
 70
     1
102
RTVSPropertyOp41
 70
     1
102
RTVSPropertyOp42
 70
     1
102
RTVSPropertyOp43
 70
     1
102
RTVSPropertyOp44
 70
     1
102
RTVSPropertyOp45
 70
     1
102
RTVSPropertyOp46
 70
     1
102
RTVSPropertyOp47
 70
     1
102
RTVSPropertyOp48
 70
     1
102
RTVSPropertyOp49
 70
     1
102
RTVSPropertyOp50
 70
     1
102
RTVSPropertyOp51
 70
     0
102
RTVSPropertyOp52
 70
     0
102
RTVSPropertyOp53
 70
     1
102
RTVSPropertyOp54
 70
     1
102
RTVSPropertyOp55
 70
     1
102
RTVSPropertyOp56
 70
     1
102
RTVSPropertyOp57
 70
     1
102
RTVSPropertyOp58
 70
     1
102
RTVSPropertyOp59
 70
     1
102
RTVSPropertyOp60
 70
     1
102
RTVSPropertyOp61
 70
     1
102
RTVSPropertyOp62
 70
     1
  0
XRECORD
  5
395
102
{ACAD_REACTORS
330
394
102
}
330
394
100
AcDbXrecord
280
     1
102
RTVSPost2010Prop28
280
     0
102
RTVSPost2010PropOp28
 70
     1
102
RTVSPost2010Prop29
280
     1
102
RTVSPost2010PropOp29
 70
     1
102
RTVSPost2010Prop30
280
     1
102
RTVSPost2010PropOp30
 70
     1
102
RTVSPost2010Prop31
280
     0
102
RTVSPost2010PropOp31
 70
     1
102
RTVSPost2010Prop32
280
     0
102
RTVSPost2010PropOp32
 70
     1
102
RTVSPost2010Prop33
280
     0
102
RTVSPost2010PropOp33
 70
     1
102
RTVSPost2010Prop34
280
     0
102
RTVSPost2010PropOp34
 70
     1
102
RTVSPost2010Prop35
280
     0
102
RTVSPost2010PropOp35
 70
     1
102
RTVSPost2010Prop36
280
     0
102
RTVSPost2010PropOp36
 70
     1
102
RTVSPost2010Prop37
 90
       50
102
RTVSPost2010PropOp37
 70
     1
102
RTVSPost2010Prop38
140
0.0
102
RTVSPost2010PropOp38
 70
     1
102
RTVSPost2010Prop39
140
1.0
102
RTVSPost2010PropOp39
 70
     1
102
RTVSPost2010Prop40
 90
        0
102
RTVSPost2010PropOp40
 70
     1
102
RTVSPost2010Prop41ColorIndex
 90
       18
102
RTVSPost2010Prop41ColorRGB
 90
        0
102
RTVSPost2010PropOp41
 70
     1
102
RTVSPost2010Prop42
 90
       50
102
RTVSPost2010PropOp42
 70
     1
102
RTVSPost2010Prop43
 90
        3
102
RTVSPost2010PropOp43
 70
     1
102
RTVSPost2010Prop44ColorIndex
 90
        5
102
RTVSPost2010Prop44ColorRGB
 90
      255
102
RTVSPost2010PropOp44
 70
     1
102
RTVSPost2010Prop45
280
     0
102
RTVSPost2010PropOp45
 70
     1
102
RTVSPost2010Prop46
 90
       50
102
RTVSPost2010PropOp46
 70
     1
102
RTVSPost2010Prop47
 90
       50
102
RTVSPost2010PropOp47
 70
     1
102
RTVSPost2010Prop48
 90
       50
102
RTVSPost2010PropOp48
 70
     1
102
RTVSPost2010Prop49
280
     0
102
RTVSPost2010PropOp49
 70
     1
102
RTVSPost2010Prop50
 90
       50
102
RTVSPost2010PropOp50
 70
     1
102
RTVSPost2010Prop51ColorIndex
 90
      256
102
RTVSPost2010Prop51ColorRGB
 90
-16777216
102
RTVSPost2010PropOp51
 70
     0
102
RTVSPost2010Prop52
140
1.0
102
RTVSPost2010PropOp52
 70
     0
102
RTVSPost2010Prop53
 90
        2
102
RTVSPost2010PropOp53
 70
     1
102
RTVSPost2010Prop54
  1
strokes_ogs.tif
102
RTVSPost2010PropOp54
 70
     1
102
RTVSPost2010Prop55
280
     0
102
RTVSPost2010PropOp55
 70
     1
102
RTVSPost2010Prop56
140
1.0
102
RTVSPost2010PropOp56
 70
     1
102
RTVSPost2010Prop57
140
1.0
102
RTVSPost2010PropOp57
 70
     1
102
RTVSPropertyOp0
 70
     1
102
RTVSPropertyOp1
 70
     1
102
RTVSPropertyOp2
 70
     1
102
RTVSPropertyOp3
 70
     1
102
RTVSPropertyOp4
 70
     1
102
RTVSPropertyOp5
 70
     1
102
RTVSPropertyOp6
 70
     1
102
RTVSPropertyOp7
 70
     1
102
RTVSPropertyOp8
 70
     1
102
RTVSPropertyOp9
 70
     1
102
RTVSPropertyOp10
 70
     1
102
RTVSPropertyOp11
 70
     1
102
RTVSPropertyOp12
 70
     1
102
RTVSPropertyOp13
 70
     1
102
RTVSPropertyOp14
 70
     1
102
RTVSPropertyOp15
 70
     1
102
RTVSPropertyOp16
 70
     1
102
RTVSPropertyOp17
 70
     1
102
RTVSPropertyOp18
 70
     1
102
RTVSPropertyOp19
 70
     1
102
RTVSPropertyOp20
 70
     1
102
RTVSPropertyOp21
 70
     1
102
RTVSPropertyOp22
 70
     1
102
RTVSPropertyOp23
 70
     1
102
RTVSPropertyOp24
 70
     1
102
RTVSPropertyOp25
 70
     1
102
RTVSPropertyOp26
 70
     1
102
RTVSPropertyOp27
 70
     1
102
RTVSPropertyOp28
 70
     1
102
RTVSPropertyOp29
 70
     1
102
RTVSPropertyOp30
 70
     1
102
RTVSPropertyOp31
 70
     1
102
RTVSPropertyOp32
 70
     1
102
RTVSPropertyOp33
 70
     1
102
RTVSPropertyOp34
 70
     1
102
RTVSPropertyOp35
 70
     1
102
RTVSPropertyOp36
 70
     1
102
RTVSPropertyOp37
 70
     1
102
RTVSPropertyOp38
 70
     1
102
RTVSPropertyOp39
 70
     1
102
RTVSPropertyOp40
 70
     1
102
RTVSPropertyOp41
 70
     1
102
RTVSPropertyOp42
 70
     1
102
RTVSPropertyOp43
 70
     1
102
RTVSPropertyOp44
 70
     1
102
RTVSPropertyOp45
 70
     1
102
RTVSPropertyOp46
 70
     1
102
RTVSPropertyOp47
 70
     1
102
RTVSPropertyOp48
 70
     1
102
RTVSPropertyOp49
 70
     1
102
RTVSPropertyOp50
 70
     1
102
RTVSPropertyOp51
 70
     0
102
RTVSPropertyOp52
 70
     0
102
RTVSPropertyOp53
 70
     1
102
RTVSPropertyOp54
 70
     1
102
RTVSPropertyOp55
 70
     1
102
RTVSPropertyOp56
 70
     1
102
RTVSPropertyOp57
 70
     1
102
RTVSPropertyOp58
 70
     1
102
RTVSPropertyOp59
 70
     1
102
RTVSPropertyOp60
 70
     1
102
RTVSPropertyOp61
 70
     1
102
RTVSPropertyOp62
 70
     1
  0
XRECORD
  5
389
102
{ACAD_REACTORS
330
388
102
}
330
388
100
AcDbXrecord
280
     1
102
RTVSPost2010Prop28
280
     0
102
RTVSPost2010PropOp28
 70
     1
102
RTVSPost2010Prop29
280
     1
102
RTVSPost2010PropOp29
 70
     1
102
RTVSPost2010Prop30
280
     1
102
RTVSPost2010PropOp30
 70
     1
102
RTVSPost2010Prop31
280
     0
102
RTVSPost2010PropOp31
 70
     1
102
RTVSPost2010Prop32
280
     0
102
RTVSPost2010PropOp32
 70
     1
102
RTVSPost2010Prop33
280
     0
102
RTVSPost2010PropOp33
 70
     1
102
RTVSPost2010Prop34
280
     0
102
RTVSPost2010PropOp34
 70
     1
102
RTVSPost2010Prop35
280
     0
102
RTVSPost2010PropOp35
 70
     1
102
RTVSPost2010Prop36
280
     0
102
RTVSPost2010PropOp36
 70
     1
102
RTVSPost2010Prop37
 90
       50
102
RTVSPost2010PropOp37
 70
     1
102
RTVSPost2010Prop38
140
0.0
102
RTVSPost2010PropOp38
 70
     1
102
RTVSPost2010Prop39
140
1.0
102
RTVSPost2010PropOp39
 70
     1
102
RTVSPost2010Prop40
 90
        0
102
RTVSPost2010PropOp40
 70
     1
102
RTVSPost2010Prop41ColorIndex
 90
       18
102
RTVSPost2010Prop41ColorRGB
 90
        0
102
RTVSPost2010PropOp41
 70
     1
102
RTVSPost2010Prop42
 90
       50
102
RTVSPost2010PropOp42
 70
     1
102
RTVSPost2010Prop43
 90
        3
102
RTVSPost2010PropOp43
 70
     1
102
RTVSPost2010Prop44ColorIndex
 90
        5
102
RTVSPost2010Prop44ColorRGB
 90
      255
102
RTVSPost2010PropOp44
 70
     1
102
RTVSPost2010Prop45
280
     0
102
RTVSPost2010PropOp45
 70
     1
102
RTVSPost2010Prop46
 90
       50
102
RTVSPost2010PropOp46
 70
     1
102
RTVSPost2010Prop47
 90
       50
102
RTVSPost2010PropOp47
 70
     1
102
RTVSPost2010Prop48
 90
       50
102
RTVSPost2010PropOp48
 70
     1
102
RTVSPost2010Prop49
280
     0
102
RTVSPost2010PropOp49
 70
     1
102
RTVSPost2010Prop50
 90
       50
102
RTVSPost2010PropOp50
 70
     1
102
RTVSPost2010Prop51ColorIndex
 90
      256
102
RTVSPost2010Prop51ColorRGB
 90
-16777216
102
RTVSPost2010PropOp51
 70
     0
102
RTVSPost2010Prop52
140
1.0
102
RTVSPost2010PropOp52
 70
     0
102
RTVSPost2010Prop53
 90
        2
102
RTVSPost2010PropOp53
 70
     1
102
RTVSPost2010Prop54
  1
strokes_ogs.tif
102
RTVSPost2010PropOp54
 70
     1
102
RTVSPost2010Prop55
280
     0
102
RTVSPost2010PropOp55
 70
     1
102
RTVSPost2010Prop56
140
1.0
102
RTVSPost2010PropOp56
 70
     1
102
RTVSPost2010Prop57
140
1.0
102
RTVSPost2010PropOp57
 70
     1
102
RTVSPropertyOp0
 70
     1
102
RTVSPropertyOp1
 70
     1
102
RTVSPropertyOp2
 70
     1
102
RTVSPropertyOp3
 70
     1
102
RTVSPropertyOp4
 70
     1
102
RTVSPropertyOp5
 70
     1
102
RTVSPropertyOp6
 70
     1
102
RTVSPropertyOp7
 70
     1
102
RTVSPropertyOp8
 70
     1
102
RTVSPropertyOp9
 70
     1
102
RTVSPropertyOp10
 70
     1
102
RTVSPropertyOp11
 70
     1
102
RTVSPropertyOp12
 70
     1
102
RTVSPropertyOp13
 70
     1
102
RTVSPropertyOp14
 70
     1
102
RTVSPropertyOp15
 70
     1
102
RTVSPropertyOp16
 70
     1
102
RTVSPropertyOp17
 70
     1
102
RTVSPropertyOp18
 70
     1
102
RTVSPropertyOp19
 70
     1
102
RTVSPropertyOp20
 70
     1
102
RTVSPropertyOp21
 70
     1
102
RTVSPropertyOp22
 70
     1
102
RTVSPropertyOp23
 70
     1
102
RTVSPropertyOp24
 70
     1
102
RTVSPropertyOp25
 70
     1
102
RTVSPropertyOp26
 70
     1
102
RTVSPropertyOp27
 70
     1
102
RTVSPropertyOp28
 70
     1
102
RTVSPropertyOp29
 70
     1
102
RTVSPropertyOp30
 70
     1
102
RTVSPropertyOp31
 70
     1
102
RTVSPropertyOp32
 70
     1
102
RTVSPropertyOp33
 70
     1
102
RTVSPropertyOp34
 70
     1
102
RTVSPropertyOp35
 70
     1
102
RTVSPropertyOp36
 70
     1
102
RTVSPropertyOp37
 70
     1
102
RTVSPropertyOp38
 70
     1
102
RTVSPropertyOp39
 70
     1
102
RTVSPropertyOp40
 70
     1
102
RTVSPropertyOp41
 70
     1
102
RTVSPropertyOp42
 70
     1
102
RTVSPropertyOp43
 70
     1
102
RTVSPropertyOp44
 70
     1
102
RTVSPropertyOp45
 70
     1
102
RTVSPropertyOp46
 70
     1
102
RTVSPropertyOp47
 70
     1
102
RTVSPropertyOp48
 70
     1
102
RTVSPropertyOp49
 70
     1
102
RTVSPropertyOp50
 70
     1
102
RTVSPropertyOp51
 70
     0
102
RTVSPropertyOp52
 70
     0
102
RTVSPropertyOp53
 70
     1
102
RTVSPropertyOp54
 70
     1
102
RTVSPropertyOp55
 70
     1
102
RTVSPropertyOp56
 70
     1
102
RTVSPropertyOp57
 70
     1
102
RTVSPropertyOp58
 70
     1
102
RTVSPropertyOp59
 70
     1
102
RTVSPropertyOp60
 70
     1
102
RTVSPropertyOp61
 70
     1
102
RTVSPropertyOp62
 70
     1
  0
XRECORD
  5
38B
102
{ACAD_REACTORS
330
38A
102
}
330
38A
100
AcDbXrecord
280
     1
102
RTVSPost2010Prop28
280
     0
102
RTVSPost2010PropOp28
 70
     1
102
RTVSPost2010Prop29
280
     1
102
RTVSPost2010PropOp29
 70
     1
102
RTVSPost2010Prop30
280
     1
102
RTVSPost2010PropOp30
 70
     1
102
RTVSPost2010Prop31
280
     0
102
RTVSPost2010PropOp31
 70
     1
102
RTVSPost2010Prop32
280
     0
102
RTVSPost2010PropOp32
 70
     1
102
RTVSPost2010Prop33
280
     0
102
RTVSPost2010PropOp33
 70
     1
102
RTVSPost2010Prop34
280
     0
102
RTVSPost2010PropOp34
 70
     1
102
RTVSPost2010Prop35
280
     0
102
RTVSPost2010PropOp35
 70
     1
102
RTVSPost2010Prop36
280
     0
102
RTVSPost2010PropOp36
 70
     1
102
RTVSPost2010Prop37
 90
       50
102
RTVSPost2010PropOp37
 70
     1
102
RTVSPost2010Prop38
140
0.0
102
RTVSPost2010PropOp38
 70
     1
102
RTVSPost2010Prop39
140
1.0
102
RTVSPost2010PropOp39
 70
     1
102
RTVSPost2010Prop40
 90
        0
102
RTVSPost2010PropOp40
 70
     1
102
RTVSPost2010Prop41ColorIndex
 90
       18
102
RTVSPost2010Prop41ColorRGB
 90
        0
102
RTVSPost2010PropOp41
 70
     1
102
RTVSPost2010Prop42
 90
       50
102
RTVSPost2010PropOp42
 70
     1
102
RTVSPost2010Prop43
 90
        3
102
RTVSPost2010PropOp43
 70
     1
102
RTVSPost2010Prop44ColorIndex
 90
        5
102
RTVSPost2010Prop44ColorRGB
 90
      255
102
RTVSPost2010PropOp44
 70
     1
102
RTVSPost2010Prop45
280
     0
102
RTVSPost2010PropOp45
 70
     1
102
RTVSPost2010Prop46
 90
       50
102
RTVSPost2010PropOp46
 70
     1
102
RTVSPost2010Prop47
 90
       50
102
RTVSPost2010PropOp47
 70
     1
102
RTVSPost2010Prop48
 90
       50
102
RTVSPost2010PropOp48
 70
     1
102
RTVSPost2010Prop49
280
     0
102
RTVSPost2010PropOp49
 70
     1
102
RTVSPost2010Prop50
 90
       50
102
RTVSPost2010PropOp50
 70
     1
102
RTVSPost2010Prop51ColorIndex
 90
      256
102
RTVSPost2010Prop51ColorRGB
 90
-16777216
102
RTVSPost2010PropOp51
 70
     0
102
RTVSPost2010Prop52
140
1.0
102
RTVSPost2010PropOp52
 70
     0
102
RTVSPost2010Prop53
 90
        2
102
RTVSPost2010PropOp53
 70
     1
102
RTVSPost2010Prop54
  1
strokes_ogs.tif
102
RTVSPost2010PropOp54
 70
     1
102
RTVSPost2010Prop55
280
     0
102
RTVSPost2010PropOp55
 70
     1
102
RTVSPost2010Prop56
140
1.0
102
RTVSPost2010PropOp56
 70
     1
102
RTVSPost2010Prop57
140
1.0
102
RTVSPost2010PropOp57
 70
     1
102
RTVSPropertyOp0
 70
     1
102
RTVSPropertyOp1
 70
     1
102
RTVSPropertyOp2
 70
     1
102
RTVSPropertyOp3
 70
     1
102
RTVSPropertyOp4
 70
     1
102
RTVSPropertyOp5
 70
     1
102
RTVSPropertyOp6
 70
     1
102
RTVSPropertyOp7
 70
     1
102
RTVSPropertyOp8
 70
     1
102
RTVSPropertyOp9
 70
     1
102
RTVSPropertyOp10
 70
     1
102
RTVSPropertyOp11
 70
     1
102
RTVSPropertyOp12
 70
     1
102
RTVSPropertyOp13
 70
     1
102
RTVSPropertyOp14
 70
     1
102
RTVSPropertyOp15
 70
     1
102
RTVSPropertyOp16
 70
     1
102
RTVSPropertyOp17
 70
     1
102
RTVSPropertyOp18
 70
     1
102
RTVSPropertyOp19
 70
     1
102
RTVSPropertyOp20
 70
     1
102
RTVSPropertyOp21
 70
     1
102
RTVSPropertyOp22
 70
     1
102
RTVSPropertyOp23
 70
     1
102
RTVSPropertyOp24
 70
     1
102
RTVSPropertyOp25
 70
     1
102
RTVSPropertyOp26
 70
     1
102
RTVSPropertyOp27
 70
     1
102
RTVSPropertyOp28
 70
     1
102
RTVSPropertyOp29
 70
     1
102
RTVSPropertyOp30
 70
     1
102
RTVSPropertyOp31
 70
     1
102
RTVSPropertyOp32
 70
     1
102
RTVSPropertyOp33
 70
     1
102
RTVSPropertyOp34
 70
     1
102
RTVSPropertyOp35
 70
     1
102
RTVSPropertyOp36
 70
     1
102
RTVSPropertyOp37
 70
     1
102
RTVSPropertyOp38
 70
     1
102
RTVSPropertyOp39
 70
     1
102
RTVSPropertyOp40
 70
     1
102
RTVSPropertyOp41
 70
     1
102
RTVSPropertyOp42
 70
     1
102
RTVSPropertyOp43
 70
     1
102
RTVSPropertyOp44
 70
     1
102
RTVSPropertyOp45
 70
     1
102
RTVSPropertyOp46
 70
     1
102
RTVSPropertyOp47
 70
     1
102
RTVSPropertyOp48
 70
     1
102
RTVSPropertyOp49
 70
     1
102
RTVSPropertyOp50
 70
     1
102
RTVSPropertyOp51
 70
     0
102
RTVSPropertyOp52
 70
     0
102
RTVSPropertyOp53
 70
     1
102
RTVSPropertyOp54
 70
     1
102
RTVSPropertyOp55
 70
     1
102
RTVSPropertyOp56
 70
     1
102
RTVSPropertyOp57
 70
     1
102
RTVSPropertyOp58
 70
     1
102
RTVSPropertyOp59
 70
     1
102
RTVSPropertyOp60
 70
     1
102
RTVSPropertyOp61
 70
     1
102
RTVSPropertyOp62
 70
     1
  0
XRECORD
  5
39B
102
{ACAD_REACTORS
330
39A
102
}
330
39A
100
AcDbXrecord
280
     1
102
RTVSPost2010Prop28
280
     0
102
RTVSPost2010PropOp28
 70
     0
102
RTVSPost2010Prop29
280
     1
102
RTVSPost2010PropOp29
 70
     0
102
RTVSPost2010Prop30
280
     1
102
RTVSPost2010PropOp30
 70
     0
102
RTVSPost2010Prop31
280
     0
102
RTVSPost2010PropOp31
 70
     0
102
RTVSPost2010Prop32
280
     0
102
RTVSPost2010PropOp32
 70
     0
102
RTVSPost2010Prop33
280
     0
102
RTVSPost2010PropOp33
 70
     0
102
RTVSPost2010Prop34
280
     0
102
RTVSPost2010PropOp34
 70
     0
102
RTVSPost2010Prop35
280
     0
102
RTVSPost2010PropOp35
 70
     0
102
RTVSPost2010Prop36
280
     0
102
RTVSPost2010PropOp36
 70
     0
102
RTVSPost2010Prop37
 90
       50
102
RTVSPost2010PropOp37
 70
     0
102
RTVSPost2010Prop38
140
0.0
102
RTVSPost2010PropOp38
 70
     0
102
RTVSPost2010Prop39
140
1.0
102
RTVSPost2010PropOp39
 70
     0
102
RTVSPost2010Prop40
 90
        0
102
RTVSPost2010PropOp40
 70
     0
102
RTVSPost2010Prop41ColorIndex
 90
       18
102
RTVSPost2010Prop41ColorRGB
 90
        0
102
RTVSPost2010PropOp41
 70
     0
102
RTVSPost2010Prop42
 90
       50
102
RTVSPost2010PropOp42
 70
     0
102
RTVSPost2010Prop43
 90
        3
102
RTVSPost2010PropOp43
 70
     0
102
RTVSPost2010Prop44ColorIndex
 90
        5
102
RTVSPost2010Prop44ColorRGB
 90
      255
102
RTVSPost2010PropOp44
 70
     0
102
RTVSPost2010Prop45
280
     0
102
RTVSPost2010PropOp45
 70
     0
102
RTVSPost2010Prop46
 90
       50
102
RTVSPost2010PropOp46
 70
     0
102
RTVSPost2010Prop47
 90
       50
102
RTVSPost2010PropOp47
 70
     0
102
RTVSPost2010Prop48
 90
       50
102
RTVSPost2010PropOp48
 70
     0
102
RTVSPost2010Prop49
280
     0
102
RTVSPost2010PropOp49
 70
     0
102
RTVSPost2010Prop50
 90
       50
102
RTVSPost2010PropOp50
 70
     0
102
RTVSPost2010Prop51ColorIndex
 90
      256
102
RTVSPost2010Prop51ColorRGB
 90
-16777216
102
RTVSPost2010PropOp51
 70
     0
102
RTVSPost2010Prop52
140
1.0
102
RTVSPost2010PropOp52
 70
     0
102
RTVSPost2010Prop53
 90
        2
102
RTVSPost2010PropOp53
 70
     0
102
RTVSPost2010Prop54
  1
strokes_ogs.tif
102
RTVSPost2010PropOp54
 70
     0
102
RTVSPost2010Prop55
280
     0
102
RTVSPost2010PropOp55
 70
     0
102
RTVSPost2010Prop56
140
1.0
102
RTVSPost2010PropOp56
 70
     0
102
RTVSPost2010Prop57
140
1.0
102
RTVSPost2010PropOp57
 70
     0
102
RTVSPropertyOp0
 70
     0
102
RTVSPropertyOp1
 70
     0
102
RTVSPropertyOp2
 70
     0
102
RTVSPropertyOp3
 70
     0
102
RTVSPropertyOp4
 70
     0
102
RTVSPropertyOp5
 70
     0
102
RTVSPropertyOp6
 70
     0
102
RTVSPropertyOp7
 70
     0
102
RTVSPropertyOp8
 70
     0
102
RTVSPropertyOp9
 70
     0
102
RTVSPropertyOp10
 70
     0
102
RTVSPropertyOp11
 70
     0
102
RTVSPropertyOp12
 70
     0
102
RTVSPropertyOp13
 70
     0
102
RTVSPropertyOp14
 70
     2
102
RTVSPropertyOp15
 70
     0
102
RTVSPropertyOp16
 70
     0
102
RTVSPropertyOp17
 70
     0
102
RTVSPropertyOp18
 70
     0
102
RTVSPropertyOp19
 70
     0
102
RTVSPropertyOp20
 70
     0
102
RTVSPropertyOp21
 70
     0
102
RTVSPropertyOp22
 70
     0
102
RTVSPropertyOp23
 70
     0
102
RTVSPropertyOp24
 70
     0
102
RTVSPropertyOp25
 70
     0
102
RTVSPropertyOp26
 70
     0
102
RTVSPropertyOp27
 70
     0
102
RTVSPropertyOp28
 70
     0
102
RTVSPropertyOp29
 70
     0
102
RTVSPropertyOp30
 70
     0
102
RTVSPropertyOp31
 70
     0
102
RTVSPropertyOp32
 70
     0
102
RTVSPropertyOp33
 70
     0
102
RTVSPropertyOp34
 70
     0
102
RTVSPropertyOp35
 70
     0
102
RTVSPropertyOp36
 70
     0
102
RTVSPropertyOp37
 70
     0
102
RTVSPropertyOp38
 70
     0
102
RTVSPropertyOp39
 70
     0
102
RTVSPropertyOp40
 70
     0
102
RTVSPropertyOp41
 70
     0
102
RTVSPropertyOp42
 70
     0
102
RTVSPropertyOp43
 70
     0
102
RTVSPropertyOp44
 70
     0
102
RTVSPropertyOp45
 70
     0
102
RTVSPropertyOp46
 70
     0
102
RTVSPropertyOp47
 70
     0
102
RTVSPropertyOp48
 70
     0
102
RTVSPropertyOp49
 70
     0
102
RTVSPropertyOp50
 70
     0
102
RTVSPropertyOp51
 70
     0
102
RTVSPropertyOp52
 70
     0
102
RTVSPropertyOp53
 70
     0
102
RTVSPropertyOp54
 70
     0
102
RTVSPropertyOp55
 70
     0
102
RTVSPropertyOp56
 70
     0
102
RTVSPropertyOp57
 70
     0
102
RTVSPropertyOp58
 70
     1
102
RTVSPropertyOp59
 70
     1
102
RTVSPropertyOp60
 70
     1
102
RTVSPropertyOp61
 70
     1
102
RTVSPropertyOp62
 70
     1
  0
XRECORD
  5
393
102
{ACAD_REACTORS
330
392
102
}
330
392
100
AcDbXrecord
280
     1
102
RTVSPost2010Prop28
280
     0
102
RTVSPost2010PropOp28
 70
     1
102
RTVSPost2010Prop29
280
     1
102
RTVSPost2010PropOp29
 70
     1
102
RTVSPost2010Prop30
280
     1
102
RTVSPost2010PropOp30
 70
     1
102
RTVSPost2010Prop31
280
     0
102
RTVSPost2010PropOp31
 70
     1
102
RTVSPost2010Prop32
280
     0
102
RTVSPost2010PropOp32
 70
     1
102
RTVSPost2010Prop33
280
     0
102
RTVSPost2010PropOp33
 70
     1
102
RTVSPost2010Prop34
280
     0
102
RTVSPost2010PropOp34
 70
     1
102
RTVSPost2010Prop35
280
     0
102
RTVSPost2010PropOp35
 70
     1
102
RTVSPost2010Prop36
280
     0
102
RTVSPost2010PropOp36
 70
     1
102
RTVSPost2010Prop37
 90
       50
102
RTVSPost2010PropOp37
 70
     1
102
RTVSPost2010Prop38
140
0.0
102
RTVSPost2010PropOp38
 70
     1
102
RTVSPost2010Prop39
140
1.0
102
RTVSPost2010PropOp39
 70
     1
102
RTVSPost2010Prop40
 90
        0
102
RTVSPost2010PropOp40
 70
     1
102
RTVSPost2010Prop41ColorIndex
 90
       18
102
RTVSPost2010Prop41ColorRGB
 90
        0
102
RTVSPost2010PropOp41
 70
     1
102
RTVSPost2010Prop42
 90
       50
102
RTVSPost2010PropOp42
 70
     1
102
RTVSPost2010Prop43
 90
        3
102
RTVSPost2010PropOp43
 70
     1
102
RTVSPost2010Prop44ColorIndex
 90
        5
102
RTVSPost2010Prop44ColorRGB
 90
      255
102
RTVSPost2010PropOp44
 70
     1
102
RTVSPost2010Prop45
280
     0
102
RTVSPost2010PropOp45
 70
     1
102
RTVSPost2010Prop46
 90
       50
102
RTVSPost2010PropOp46
 70
     1
102
RTVSPost2010Prop47
 90
       50
102
RTVSPost2010PropOp47
 70
     1
102
RTVSPost2010Prop48
 90
       50
102
RTVSPost2010PropOp48
 70
     1
102
RTVSPost2010Prop49
280
     0
102
RTVSPost2010PropOp49
 70
     1
102
RTVSPost2010Prop50
 90
       50
102
RTVSPost2010PropOp50
 70
     1
102
RTVSPost2010Prop51ColorIndex
 90
      256
102
RTVSPost2010Prop51ColorRGB
 90
-16777216
102
RTVSPost2010PropOp51
 70
     0
102
RTVSPost2010Prop52
140
1.0
102
RTVSPost2010PropOp52
 70
     0
102
RTVSPost2010Prop53
 90
        2
102
RTVSPost2010PropOp53
 70
     1
102
RTVSPost2010Prop54
  1
strokes_ogs.tif
102
RTVSPost2010PropOp54
 70
     1
102
RTVSPost2010Prop55
280
     0
102
RTVSPost2010PropOp55
 70
     1
102
RTVSPost2010Prop56
140
1.0
102
RTVSPost2010PropOp56
 70
     1
102
RTVSPost2010Prop57
140
1.0
102
RTVSPost2010PropOp57
 70
     1
102
RTVSPropertyOp0
 70
     1
102
RTVSPropertyOp1
 70
     1
102
RTVSPropertyOp2
 70
     1
102
RTVSPropertyOp3
 70
     1
102
RTVSPropertyOp4
 70
     1
102
RTVSPropertyOp5
 70
     1
102
RTVSPropertyOp6
 70
     1
102
RTVSPropertyOp7
 70
     1
102
RTVSPropertyOp8
 70
     1
102
RTVSPropertyOp9
 70
     1
102
RTVSPropertyOp10
 70
     1
102
RTVSPropertyOp11
 70
     1
102
RTVSPropertyOp12
 70
     1
102
RTVSPropertyOp13
 70
     1
102
RTVSPropertyOp14
 70
     1
102
RTVSPropertyOp15
 70
     1
102
RTVSPropertyOp16
 70
     1
102
RTVSPropertyOp17
 70
     1
102
RTVSPropertyOp18
 70
     1
102
RTVSPropertyOp19
 70
     1
102
RTVSPropertyOp20
 70
     1
102
RTVSPropertyOp21
 70
     1
102
RTVSPropertyOp22
 70
     1
102
RTVSPropertyOp23
 70
     1
102
RTVSPropertyOp24
 70
     1
102
RTVSPropertyOp25
 70
     1
102
RTVSPropertyOp26
 70
     1
102
RTVSPropertyOp27
 70
     1
102
RTVSPropertyOp28
 70
     1
102
RTVSPropertyOp29
 70
     1
102
RTVSPropertyOp30
 70
     1
102
RTVSPropertyOp31
 70
     1
102
RTVSPropertyOp32
 70
     1
102
RTVSPropertyOp33
 70
     1
102
RTVSPropertyOp34
 70
     1
102
RTVSPropertyOp35
 70
     1
102
RTVSPropertyOp36
 70
     1
102
RTVSPropertyOp37
 70
     1
102
RTVSPropertyOp38
 70
     1
102
RTVSPropertyOp39
 70
     1
102
RTVSPropertyOp40
 70
     1
102
RTVSPropertyOp41
 70
     1
102
RTVSPropertyOp42
 70
     1
102
RTVSPropertyOp43
 70
     1
102
RTVSPropertyOp44
 70
     1
102
RTVSPropertyOp45
 70
     1
102
RTVSPropertyOp46
 70
     1
102
RTVSPropertyOp47
 70
     1
102
RTVSPropertyOp48
 70
     1
102
RTVSPropertyOp49
 70
     1
102
RTVSPropertyOp50
 70
     1
102
RTVSPropertyOp51
 70
     0
102
RTVSPropertyOp52
 70
     0
102
RTVSPropertyOp53
 70
     1
102
RTVSPropertyOp54
 70
     1
102
RTVSPropertyOp55
 70
     1
102
RTVSPropertyOp56
 70
     1
102
RTVSPropertyOp57
 70
     1
102
RTVSPropertyOp58
 70
     1
102
RTVSPropertyOp59
 70
     1
102
RTVSPropertyOp60
 70
     1
102
RTVSPropertyOp61
 70
     1
102
RTVSPropertyOp62
 70
     1
  0
XRECORD
  5
377
102
{ACAD_REACTORS
330
376
102
}
330
376
100
AcDbXrecord
280
     1
102
RTVSPost2010Prop28
280
     0
102
RTVSPost2010PropOp28
 70
     1
102
RTVSPost2010Prop29
280
     1
102
RTVSPost2010PropOp29
 70
     1
102
RTVSPost2010Prop30
280
     1
102
RTVSPost2010PropOp30
 70
     1
102
RTVSPost2010Prop31
280
     0
102
RTVSPost2010PropOp31
 70
     1
102
RTVSPost2010Prop32
280
     0
102
RTVSPost2010PropOp32
 70
     1
102
RTVSPost2010Prop33
280
     0
102
RTVSPost2010PropOp33
 70
     1
102
RTVSPost2010Prop34
280
     0
102
RTVSPost2010PropOp34
 70
     1
102
RTVSPost2010Prop35
280
     0
102
RTVSPost2010PropOp35
 70
     1
102
RTVSPost2010Prop36
280
     0
102
RTVSPost2010PropOp36
 70
     1
102
RTVSPost2010Prop37
 90
       50
102
RTVSPost2010PropOp37
 70
     1
102
RTVSPost2010Prop38
140
0.0
102
RTVSPost2010PropOp38
 70
     1
102
RTVSPost2010Prop39
140
1.0
102
RTVSPost2010PropOp39
 70
     1
102
RTVSPost2010Prop40
 90
        0
102
RTVSPost2010PropOp40
 70
     1
102
RTVSPost2010Prop41ColorIndex
 90
       18
102
RTVSPost2010Prop41ColorRGB
 90
        0
102
RTVSPost2010PropOp41
 70
     1
102
RTVSPost2010Prop42
 90
       50
102
RTVSPost2010PropOp42
 70
     1
102
RTVSPost2010Prop43
 90
        3
102
RTVSPost2010PropOp43
 70
     1
102
RTVSPost2010Prop44ColorIndex
 90
        5
102
RTVSPost2010Prop44ColorRGB
 90
      255
102
RTVSPost2010PropOp44
 70
     1
102
RTVSPost2010Prop45
280
     0
102
RTVSPost2010PropOp45
 70
     1
102
RTVSPost2010Prop46
 90
       50
102
RTVSPost2010PropOp46
 70
     1
102
RTVSPost2010Prop47
 90
       50
102
RTVSPost2010PropOp47
 70
     1
102
RTVSPost2010Prop48
 90
       50
102
RTVSPost2010PropOp48
 70
     1
102
RTVSPost2010Prop49
280
     0
102
RTVSPost2010PropOp49
 70
     1
102
RTVSPost2010Prop50
 90
       50
102
RTVSPost2010PropOp50
 70
     1
102
RTVSPost2010Prop51ColorIndex
 90
      256
102
RTVSPost2010Prop51ColorRGB
 90
-16777216
102
RTVSPost2010PropOp51
 70
     0
102
RTVSPost2010Prop52
140
1.0
102
RTVSPost2010PropOp52
 70
     0
102
RTVSPost2010Prop53
 90
        2
102
RTVSPost2010PropOp53
 70
     1
102
RTVSPost2010Prop54
  1
strokes_ogs.tif
102
RTVSPost2010PropOp54
 70
     1
102
RTVSPost2010Prop55
280
     0
102
RTVSPost2010PropOp55
 70
     1
102
RTVSPost2010Prop56
140
1.0
102
RTVSPost2010PropOp56
 70
     1
102
RTVSPost2010Prop57
140
1.0
102
RTVSPost2010PropOp57
 70
     1
102
RTVSPropertyOp0
 70
     1
102
RTVSPropertyOp1
 70
     1
102
RTVSPropertyOp2
 70
     1
102
RTVSPropertyOp3
 70
     1
102
RTVSPropertyOp4
 70
     1
102
RTVSPropertyOp5
 70
     1
102
RTVSPropertyOp6
 70
     1
102
RTVSPropertyOp7
 70
     1
102
RTVSPropertyOp8
 70
     1
102
RTVSPropertyOp9
 70
     1
102
RTVSPropertyOp10
 70
     1
102
RTVSPropertyOp11
 70
     1
102
RTVSPropertyOp12
 70
     1
102
RTVSPropertyOp13
 70
     1
102
RTVSPropertyOp14
 70
     1
102
RTVSPropertyOp15
 70
     1
102
RTVSPropertyOp16
 70
     1
102
RTVSPropertyOp17
 70
     1
102
RTVSPropertyOp18
 70
     1
102
RTVSPropertyOp19
 70
     1
102
RTVSPropertyOp20
 70
     1
102
RTVSPropertyOp21
 70
     1
102
RTVSPropertyOp22
 70
     1
102
RTVSPropertyOp23
 70
     1
102
RTVSPropertyOp24
 70
     1
102
RTVSPropertyOp25
 70
     1
102
RTVSPropertyOp26
 70
     1
102
RTVSPropertyOp27
 70
     1
102
RTVSPropertyOp28
 70
     1
102
RTVSPropertyOp29
 70
     1
102
RTVSPropertyOp30
 70
     1
102
RTVSPropertyOp31
 70
     1
102
RTVSPropertyOp32
 70
     1
102
RTVSPropertyOp33
 70
     1
102
RTVSPropertyOp34
 70
     1
102
RTVSPropertyOp35
 70
     1
102
RTVSPropertyOp36
 70
     1
102
RTVSPropertyOp37
 70
     1
102
RTVSPropertyOp38
 70
     1
102
RTVSPropertyOp39
 70
     1
102
RTVSPropertyOp40
 70
     1
102
RTVSPropertyOp41
 70
     1
102
RTVSPropertyOp42
 70
     1
102
RTVSPropertyOp43
 70
     1
102
RTVSPropertyOp44
 70
     1
102
RTVSPropertyOp45
 70
     1
102
RTVSPropertyOp46
 70
     1
102
RTVSPropertyOp47
 70
     1
102
RTVSPropertyOp48
 70
     1
102
RTVSPropertyOp49
 70
     1
102
RTVSPropertyOp50
 70
     1
102
RTVSPropertyOp51
 70
     0
102
RTVSPropertyOp52
 70
     0
102
RTVSPropertyOp53
 70
     1
102
RTVSPropertyOp54
 70
     1
102
RTVSPropertyOp55
 70
     1
102
RTVSPropertyOp56
 70
     1
102
RTVSPropertyOp57
 70
     1
102
RTVSPropertyOp58
 70
     1
102
RTVSPropertyOp59
 70
     1
102
RTVSPropertyOp60
 70
     1
102
RTVSPropertyOp61
 70
     1
102
RTVSPropertyOp62
 70
     1
  0
XRECORD
  5
379
102
{ACAD_REACTORS
330
378
102
}
330
378
100
AcDbXrecord
280
     1
102
RTVSPost2010Prop28
280
     0
102
RTVSPost2010PropOp28
 70
     1
102
RTVSPost2010Prop29
280
     1
102
RTVSPost2010PropOp29
 70
     1
102
RTVSPost2010Prop30
280
     1
102
RTVSPost2010PropOp30
 70
     1
102
RTVSPost2010Prop31
280
     0
102
RTVSPost2010PropOp31
 70
     1
102
RTVSPost2010Prop32
280
     0
102
RTVSPost2010PropOp32
 70
     1
102
RTVSPost2010Prop33
280
     0
102
RTVSPost2010PropOp33
 70
     1
102
RTVSPost2010Prop34
280
     0
102
RTVSPost2010PropOp34
 70
     1
102
RTVSPost2010Prop35
280
     0
102
RTVSPost2010PropOp35
 70
     1
102
RTVSPost2010Prop36
280
     0
102
RTVSPost2010PropOp36
 70
     1
102
RTVSPost2010Prop37
 90
       50
102
RTVSPost2010PropOp37
 70
     1
102
RTVSPost2010Prop38
140
0.0
102
RTVSPost2010PropOp38
 70
     1
102
RTVSPost2010Prop39
140
1.0
102
RTVSPost2010PropOp39
 70
     1
102
RTVSPost2010Prop40
 90
        0
102
RTVSPost2010PropOp40
 70
     1
102
RTVSPost2010Prop41ColorIndex
 90
       18
102
RTVSPost2010Prop41ColorRGB
 90
        0
102
RTVSPost2010PropOp41
 70
     1
102
RTVSPost2010Prop42
 90
       50
102
RTVSPost2010PropOp42
 70
     1
102
RTVSPost2010Prop43
 90
        3
102
RTVSPost2010PropOp43
 70
     1
102
RTVSPost2010Prop44ColorIndex
 90
        5
102
RTVSPost2010Prop44ColorRGB
 90
      255
102
RTVSPost2010PropOp44
 70
     1
102
RTVSPost2010Prop45
280
     0
102
RTVSPost2010PropOp45
 70
     1
102
RTVSPost2010Prop46
 90
       50
102
RTVSPost2010PropOp46
 70
     1
102
RTVSPost2010Prop47
 90
       50
102
RTVSPost2010PropOp47
 70
     1
102
RTVSPost2010Prop48
 90
       50
102
RTVSPost2010PropOp48
 70
     1
102
RTVSPost2010Prop49
280
     0
102
RTVSPost2010PropOp49
 70
     1
102
RTVSPost2010Prop50
 90
       50
102
RTVSPost2010PropOp50
 70
     1
102
RTVSPost2010Prop51ColorIndex
 90
      256
102
RTVSPost2010Prop51ColorRGB
 90
-16777216
102
RTVSPost2010PropOp51
 70
     0
102
RTVSPost2010Prop52
140
1.0
102
RTVSPost2010PropOp52
 70
     0
102
RTVSPost2010Prop53
 90
        2
102
RTVSPost2010PropOp53
 70
     1
102
RTVSPost2010Prop54
  1
strokes_ogs.tif
102
RTVSPost2010PropOp54
 70
     1
102
RTVSPost2010Prop55
280
     0
102
RTVSPost2010PropOp55
 70
     1
102
RTVSPost2010Prop56
140
1.0
102
RTVSPost2010PropOp56
 70
     1
102
RTVSPost2010Prop57
140
1.0
102
RTVSPost2010PropOp57
 70
     1
102
RTVSPropertyOp0
 70
     1
102
RTVSPropertyOp1
 70
     1
102
RTVSPropertyOp2
 70
     1
102
RTVSPropertyOp3
 70
     1
102
RTVSPropertyOp4
 70
     1
102
RTVSPropertyOp5
 70
     1
102
RTVSPropertyOp6
 70
     1
102
RTVSPropertyOp7
 70
     1
102
RTVSPropertyOp8
 70
     1
102
RTVSPropertyOp9
 70
     1
102
RTVSPropertyOp10
 70
     1
102
RTVSPropertyOp11
 70
     1
102
RTVSPropertyOp12
 70
     1
102
RTVSPropertyOp13
 70
     1
102
RTVSPropertyOp14
 70
     1
102
RTVSPropertyOp15
 70
     1
102
RTVSPropertyOp16
 70
     1
102
RTVSPropertyOp17
 70
     1
102
RTVSPropertyOp18
 70
     1
102
RTVSPropertyOp19
 70
     1
102
RTVSPropertyOp20
 70
     1
102
RTVSPropertyOp21
 70
     1
102
RTVSPropertyOp22
 70
     1
102
RTVSPropertyOp23
 70
     1
102
RTVSPropertyOp24
 70
     1
102
RTVSPropertyOp25
 70
     1
102
RTVSPropertyOp26
 70
     1
102
RTVSPropertyOp27
 70
     1
102
RTVSPropertyOp28
 70
     1
102
RTVSPropertyOp29
 70
     1
102
RTVSPropertyOp30
 70
     1
102
RTVSPropertyOp31
 70
     1
102
RTVSPropertyOp32
 70
     1
102
RTVSPropertyOp33
 70
     1
102
RTVSPropertyOp34
 70
     1
102
RTVSPropertyOp35
 70
     1
102
RTVSPropertyOp36
 70
     1
102
RTVSPropertyOp37
 70
     1
102
RTVSPropertyOp38
 70
     1
102
RTVSPropertyOp39
 70
     1
102
RTVSPropertyOp40
 70
     1
102
RTVSPropertyOp41
 70
     1
102
RTVSPropertyOp42
 70
     1
102
RTVSPropertyOp43
 70
     1
102
RTVSPropertyOp44
 70
     1
102
RTVSPropertyOp45
 70
     1
102
RTVSPropertyOp46
 70
     1
102
RTVSPropertyOp47
 70
     1
102
RTVSPropertyOp48
 70
     1
102
RTVSPropertyOp49
 70
     1
102
RTVSPropertyOp50
 70
     1
102
RTVSPropertyOp51
 70
     0
102
RTVSPropertyOp52
 70
     0
102
RTVSPropertyOp53
 70
     1
102
RTVSPropertyOp54
 70
     1
102
RTVSPropertyOp55
 70
     1
102
RTVSPropertyOp56
 70
     1
102
RTVSPropertyOp57
 70
     1
102
RTVSPropertyOp58
 70
     1
102
RTVSPropertyOp59
 70
     1
102
RTVSPropertyOp60
 70
     1
102
RTVSPropertyOp61
 70
     1
102
RTVSPropertyOp62
 70
     1
  0
XRECORD
  5
37B
102
{ACAD_REACTORS
330
37A
102
}
330
37A
100
AcDbXrecord
280
     1
102
RTVSPost2010Prop28
280
     0
102
RTVSPost2010PropOp28
 70
     1
102
RTVSPost2010Prop29
280
     1
102
RTVSPost2010PropOp29
 70
     1
102
RTVSPost2010Prop30
280
     1
102
RTVSPost2010PropOp30
 70
     1
102
RTVSPost2010Prop31
280
     0
102
RTVSPost2010PropOp31
 70
     1
102
RTVSPost2010Prop32
280
     0
102
RTVSPost2010PropOp32
 70
     1
102
RTVSPost2010Prop33
280
     0
102
RTVSPost2010PropOp33
 70
     1
102
RTVSPost2010Prop34
280
     0
102
RTVSPost2010PropOp34
 70
     1
102
RTVSPost2010Prop35
280
     0
102
RTVSPost2010PropOp35
 70
     1
102
RTVSPost2010Prop36
280
     0
102
RTVSPost2010PropOp36
 70
     1
102
RTVSPost2010Prop37
 90
       50
102
RTVSPost2010PropOp37
 70
     1
102
RTVSPost2010Prop38
140
0.0
102
RTVSPost2010PropOp38
 70
     1
102
RTVSPost2010Prop39
140
1.0
102
RTVSPost2010PropOp39
 70
     1
102
RTVSPost2010Prop40
 90
        0
102
RTVSPost2010PropOp40
 70
     1
102
RTVSPost2010Prop41ColorIndex
 90
       18
102
RTVSPost2010Prop41ColorRGB
 90
        0
102
RTVSPost2010PropOp41
 70
     1
102
RTVSPost2010Prop42
 90
       50
102
RTVSPost2010PropOp42
 70
     1
102
RTVSPost2010Prop43
 90
        3
102
RTVSPost2010PropOp43
 70
     1
102
RTVSPost2010Prop44ColorIndex
 90
        5
102
RTVSPost2010Prop44ColorRGB
 90
      255
102
RTVSPost2010PropOp44
 70
     1
102
RTVSPost2010Prop45
280
     0
102
RTVSPost2010PropOp45
 70
     1
102
RTVSPost2010Prop46
 90
       50
102
RTVSPost2010PropOp46
 70
     1
102
RTVSPost2010Prop47
 90
       50
102
RTVSPost2010PropOp47
 70
     1
102
RTVSPost2010Prop48
 90
       50
102
RTVSPost2010PropOp48
 70
     1
102
RTVSPost2010Prop49
280
     0
102
RTVSPost2010PropOp49
 70
     1
102
RTVSPost2010Prop50
 90
       50
102
RTVSPost2010PropOp50
 70
     1
102
RTVSPost2010Prop51ColorIndex
 90
      256
102
RTVSPost2010Prop51ColorRGB
 90
-16777216
102
RTVSPost2010PropOp51
 70
     0
102
RTVSPost2010Prop52
140
1.0
102
RTVSPost2010PropOp52
 70
     0
102
RTVSPost2010Prop53
 90
        2
102
RTVSPost2010PropOp53
 70
     1
102
RTVSPost2010Prop54
  1
strokes_ogs.tif
102
RTVSPost2010PropOp54
 70
     1
102
RTVSPost2010Prop55
280
     0
102
RTVSPost2010PropOp55
 70
     1
102
RTVSPost2010Prop56
140
1.0
102
RTVSPost2010PropOp56
 70
     1
102
RTVSPost2010Prop57
140
1.0
102
RTVSPost2010PropOp57
 70
     1
102
RTVSPropertyOp0
 70
     1
102
RTVSPropertyOp1
 70
     1
102
RTVSPropertyOp2
 70
     1
102
RTVSPropertyOp3
 70
     1
102
RTVSPropertyOp4
 70
     1
102
RTVSPropertyOp5
 70
     1
102
RTVSPropertyOp6
 70
     1
102
RTVSPropertyOp7
 70
     1
102
RTVSPropertyOp8
 70
     1
102
RTVSPropertyOp9
 70
     1
102
RTVSPropertyOp10
 70
     1
102
RTVSPropertyOp11
 70
     1
102
RTVSPropertyOp12
 70
     1
102
RTVSPropertyOp13
 70
     1
102
RTVSPropertyOp14
 70
     1
102
RTVSPropertyOp15
 70
     1
102
RTVSPropertyOp16
 70
     1
102
RTVSPropertyOp17
 70
     1
102
RTVSPropertyOp18
 70
     1
102
RTVSPropertyOp19
 70
     1
102
RTVSPropertyOp20
 70
     1
102
RTVSPropertyOp21
 70
     1
102
RTVSPropertyOp22
 70
     1
102
RTVSPropertyOp23
 70
     1
102
RTVSPropertyOp24
 70
     1
102
RTVSPropertyOp25
 70
     1
102
RTVSPropertyOp26
 70
     1
102
RTVSPropertyOp27
 70
     1
102
RTVSPropertyOp28
 70
     1
102
RTVSPropertyOp29
 70
     1
102
RTVSPropertyOp30
 70
     1
102
RTVSPropertyOp31
 70
     1
102
RTVSPropertyOp32
 70
     1
102
RTVSPropertyOp33
 70
     1
102
RTVSPropertyOp34
 70
     1
102
RTVSPropertyOp35
 70
     1
102
RTVSPropertyOp36
 70
     1
102
RTVSPropertyOp37
 70
     1
102
RTVSPropertyOp38
 70
     1
102
RTVSPropertyOp39
 70
     1
102
RTVSPropertyOp40
 70
     1
102
RTVSPropertyOp41
 70
     1
102
RTVSPropertyOp42
 70
     1
102
RTVSPropertyOp43
 70
     1
102
RTVSPropertyOp44
 70
     1
102
RTVSPropertyOp45
 70
     1
102
RTVSPropertyOp46
 70
     1
102
RTVSPropertyOp47
 70
     1
102
RTVSPropertyOp48
 70
     1
102
RTVSPropertyOp49
 70
     1
102
RTVSPropertyOp50
 70
     1
102
RTVSPropertyOp51
 70
     0
102
RTVSPropertyOp52
 70
     0
102
RTVSPropertyOp53
 70
     1
102
RTVSPropertyOp54
 70
     1
102
RTVSPropertyOp55
 70
     1
102
RTVSPropertyOp56
 70
     1
102
RTVSPropertyOp57
 70
     1
102
RTVSPropertyOp58
 70
     1
102
RTVSPropertyOp59
 70
     1
102
RTVSPropertyOp60
 70
     1
102
RTVSPropertyOp61
 70
     1
102
RTVSPropertyOp62
 70
     1
  0
XRECORD
  5
37D
102
{ACAD_REACTORS
330
37C
102
}
330
37C
100
AcDbXrecord
280
     1
102
RTVSPost2010Prop28
280
     0
102
RTVSPost2010PropOp28
 70
     1
102
RTVSPost2010Prop29
280
     1
102
RTVSPost2010PropOp29
 70
     1
102
RTVSPost2010Prop30
280
     1
102
RTVSPost2010PropOp30
 70
     1
102
RTVSPost2010Prop31
280
     0
102
RTVSPost2010PropOp31
 70
     1
102
RTVSPost2010Prop32
280
     0
102
RTVSPost2010PropOp32
 70
     1
102
RTVSPost2010Prop33
280
     0
102
RTVSPost2010PropOp33
 70
     1
102
RTVSPost2010Prop34
280
     0
102
RTVSPost2010PropOp34
 70
     1
102
RTVSPost2010Prop35
280
     0
102
RTVSPost2010PropOp35
 70
     1
102
RTVSPost2010Prop36
280
     0
102
RTVSPost2010PropOp36
 70
     1
102
RTVSPost2010Prop37
 90
       50
102
RTVSPost2010PropOp37
 70
     1
102
RTVSPost2010Prop38
140
0.0
102
RTVSPost2010PropOp38
 70
     1
102
RTVSPost2010Prop39
140
1.0
102
RTVSPost2010PropOp39
 70
     1
102
RTVSPost2010Prop40
 90
        0
102
RTVSPost2010PropOp40
 70
     1
102
RTVSPost2010Prop41ColorIndex
 90
       18
102
RTVSPost2010Prop41ColorRGB
 90
        0
102
RTVSPost2010PropOp41
 70
     1
102
RTVSPost2010Prop42
 90
       50
102
RTVSPost2010PropOp42
 70
     1
102
RTVSPost2010Prop43
 90
        3
102
RTVSPost2010PropOp43
 70
     1
102
RTVSPost2010Prop44ColorIndex
 90
        5
102
RTVSPost2010Prop44ColorRGB
 90
      255
102
RTVSPost2010PropOp44
 70
     1
102
RTVSPost2010Prop45
280
     0
102
RTVSPost2010PropOp45
 70
     1
102
RTVSPost2010Prop46
 90
       50
102
RTVSPost2010PropOp46
 70
     1
102
RTVSPost2010Prop47
 90
       50
102
RTVSPost2010PropOp47
 70
     1
102
RTVSPost2010Prop48
 90
       50
102
RTVSPost2010PropOp48
 70
     1
102
RTVSPost2010Prop49
280
     0
102
RTVSPost2010PropOp49
 70
     1
102
RTVSPost2010Prop50
 90
       50
102
RTVSPost2010PropOp50
 70
     1
102
RTVSPost2010Prop51ColorIndex
 90
      256
102
RTVSPost2010Prop51ColorRGB
 90
-16777216
102
RTVSPost2010PropOp51
 70
     0
102
RTVSPost2010Prop52
140
1.0
102
RTVSPost2010PropOp52
 70
     0
102
RTVSPost2010Prop53
 90
        2
102
RTVSPost2010PropOp53
 70
     1
102
RTVSPost2010Prop54
  1
strokes_ogs.tif
102
RTVSPost2010PropOp54
 70
     1
102
RTVSPost2010Prop55
280
     0
102
RTVSPost2010PropOp55
 70
     1
102
RTVSPost2010Prop56
140
1.0
102
RTVSPost2010PropOp56
 70
     1
102
RTVSPost2010Prop57
140
1.0
102
RTVSPost2010PropOp57
 70
     1
102
RTVSPropertyOp0
 70
     1
102
RTVSPropertyOp1
 70
     1
102
RTVSPropertyOp2
 70
     1
102
RTVSPropertyOp3
 70
     1
102
RTVSPropertyOp4
 70
     1
102
RTVSPropertyOp5
 70
     1
102
RTVSPropertyOp6
 70
     1
102
RTVSPropertyOp7
 70
     1
102
RTVSPropertyOp8
 70
     1
102
RTVSPropertyOp9
 70
     1
102
RTVSPropertyOp10
 70
     1
102
RTVSPropertyOp11
 70
     1
102
RTVSPropertyOp12
 70
     1
102
RTVSPropertyOp13
 70
     1
102
RTVSPropertyOp14
 70
     1
102
RTVSPropertyOp15
 70
     1
102
RTVSPropertyOp16
 70
     1
102
RTVSPropertyOp17
 70
     1
102
RTVSPropertyOp18
 70
     1
102
RTVSPropertyOp19
 70
     1
102
RTVSPropertyOp20
 70
     1
102
RTVSPropertyOp21
 70
     1
102
RTVSPropertyOp22
 70
     1
102
RTVSPropertyOp23
 70
     1
102
RTVSPropertyOp24
 70
     1
102
RTVSPropertyOp25
 70
     1
102
RTVSPropertyOp26
 70
     1
102
RTVSPropertyOp27
 70
     1
102
RTVSPropertyOp28
 70
     1
102
RTVSPropertyOp29
 70
     1
102
RTVSPropertyOp30
 70
     1
102
RTVSPropertyOp31
 70
     1
102
RTVSPropertyOp32
 70
     1
102
RTVSPropertyOp33
 70
     1
102
RTVSPropertyOp34
 70
     1
102
RTVSPropertyOp35
 70
     1
102
RTVSPropertyOp36
 70
     1
102
RTVSPropertyOp37
 70
     1
102
RTVSPropertyOp38
 70
     1
102
RTVSPropertyOp39
 70
     1
102
RTVSPropertyOp40
 70
     1
102
RTVSPropertyOp41
 70
     1
102
RTVSPropertyOp42
 70
     1
102
RTVSPropertyOp43
 70
     1
102
RTVSPropertyOp44
 70
     1
102
RTVSPropertyOp45
 70
     1
102
RTVSPropertyOp46
 70
     1
102
RTVSPropertyOp47
 70
     1
102
RTVSPropertyOp48
 70
     1
102
RTVSPropertyOp49
 70
     1
102
RTVSPropertyOp50
 70
     1
102
RTVSPropertyOp51
 70
     0
102
RTVSPropertyOp52
 70
     0
102
RTVSPropertyOp53
 70
     1
102
RTVSPropertyOp54
 70
     1
102
RTVSPropertyOp55
 70
     1
102
RTVSPropertyOp56
 70
     1
102
RTVSPropertyOp57
 70
     1
102
RTVSPropertyOp58
 70
     1
102
RTVSPropertyOp59
 70
     1
102
RTVSPropertyOp60
 70
     1
102
RTVSPropertyOp61
 70
     1
102
RTVSPropertyOp62
 70
     1
  0
XRECORD
  5
383
102
{ACAD_REACTORS
330
382
102
}
330
382
100
AcDbXrecord
280
     1
102
RTVSPost2010Prop28
280
     0
102
RTVSPost2010PropOp28
 70
     1
102
RTVSPost2010Prop29
280
     1
102
RTVSPost2010PropOp29
 70
     1
102
RTVSPost2010Prop30
280
     1
102
RTVSPost2010PropOp30
 70
     1
102
RTVSPost2010Prop31
280
     0
102
RTVSPost2010PropOp31
 70
     1
102
RTVSPost2010Prop32
280
     0
102
RTVSPost2010PropOp32
 70
     1
102
RTVSPost2010Prop33
280
     0
102
RTVSPost2010PropOp33
 70
     1
102
RTVSPost2010Prop34
280
     0
102
RTVSPost2010PropOp34
 70
     1
102
RTVSPost2010Prop35
280
     0
102
RTVSPost2010PropOp35
 70
     1
102
RTVSPost2010Prop36
280
     0
102
RTVSPost2010PropOp36
 70
     1
102
RTVSPost2010Prop37
 90
       50
102
RTVSPost2010PropOp37
 70
     1
102
RTVSPost2010Prop38
140
0.0
102
RTVSPost2010PropOp38
 70
     1
102
RTVSPost2010Prop39
140
1.0
102
RTVSPost2010PropOp39
 70
     1
102
RTVSPost2010Prop40
 90
        0
102
RTVSPost2010PropOp40
 70
     1
102
RTVSPost2010Prop41ColorIndex
 90
       18
102
RTVSPost2010Prop41ColorRGB
 90
        0
102
RTVSPost2010PropOp41
 70
     1
102
RTVSPost2010Prop42
 90
       50
102
RTVSPost2010PropOp42
 70
     1
102
RTVSPost2010Prop43
 90
        3
102
RTVSPost2010PropOp43
 70
     1
102
RTVSPost2010Prop44ColorIndex
 90
        5
102
RTVSPost2010Prop44ColorRGB
 90
      255
102
RTVSPost2010PropOp44
 70
     1
102
RTVSPost2010Prop45
280
     0
102
RTVSPost2010PropOp45
 70
     1
102
RTVSPost2010Prop46
 90
       50
102
RTVSPost2010PropOp46
 70
     1
102
RTVSPost2010Prop47
 90
       50
102
RTVSPost2010PropOp47
 70
     1
102
RTVSPost2010Prop48
 90
       50
102
RTVSPost2010PropOp48
 70
     1
102
RTVSPost2010Prop49
280
     0
102
RTVSPost2010PropOp49
 70
     1
102
RTVSPost2010Prop50
 90
       50
102
RTVSPost2010PropOp50
 70
     1
102
RTVSPost2010Prop51ColorIndex
 90
      256
102
RTVSPost2010Prop51ColorRGB
 90
-16777216
102
RTVSPost2010PropOp51
 70
     0
102
RTVSPost2010Prop52
140
1.0
102
RTVSPost2010PropOp52
 70
     0
102
RTVSPost2010Prop53
 90
        2
102
RTVSPost2010PropOp53
 70
     1
102
RTVSPost2010Prop54
  1
strokes_ogs.tif
102
RTVSPost2010PropOp54
 70
     1
102
RTVSPost2010Prop55
280
     0
102
RTVSPost2010PropOp55
 70
     1
102
RTVSPost2010Prop56
140
1.0
102
RTVSPost2010PropOp56
 70
     1
102
RTVSPost2010Prop57
140
1.0
102
RTVSPost2010PropOp57
 70
     1
102
RTVSPropertyOp0
 70
     1
102
RTVSPropertyOp1
 70
     1
102
RTVSPropertyOp2
 70
     1
102
RTVSPropertyOp3
 70
     1
102
RTVSPropertyOp4
 70
     1
102
RTVSPropertyOp5
 70
     1
102
RTVSPropertyOp6
 70
     1
102
RTVSPropertyOp7
 70
     1
102
RTVSPropertyOp8
 70
     1
102
RTVSPropertyOp9
 70
     1
102
RTVSPropertyOp10
 70
     1
102
RTVSPropertyOp11
 70
     1
102
RTVSPropertyOp12
 70
     1
102
RTVSPropertyOp13
 70
     1
102
RTVSPropertyOp14
 70
     1
102
RTVSPropertyOp15
 70
     1
102
RTVSPropertyOp16
 70
     1
102
RTVSPropertyOp17
 70
     1
102
RTVSPropertyOp18
 70
     1
102
RTVSPropertyOp19
 70
     1
102
RTVSPropertyOp20
 70
     1
102
RTVSPropertyOp21
 70
     1
102
RTVSPropertyOp22
 70
     1
102
RTVSPropertyOp23
 70
     1
102
RTVSPropertyOp24
 70
     1
102
RTVSPropertyOp25
 70
     1
102
RTVSPropertyOp26
 70
     1
102
RTVSPropertyOp27
 70
     1
102
RTVSPropertyOp28
 70
     1
102
RTVSPropertyOp29
 70
     1
102
RTVSPropertyOp30
 70
     1
102
RTVSPropertyOp31
 70
     1
102
RTVSPropertyOp32
 70
     1
102
RTVSPropertyOp33
 70
     1
102
RTVSPropertyOp34
 70
     1
102
RTVSPropertyOp35
 70
     1
102
RTVSPropertyOp36
 70
     1
102
RTVSPropertyOp37
 70
     1
102
RTVSPropertyOp38
 70
     1
102
RTVSPropertyOp39
 70
     1
102
RTVSPropertyOp40
 70
     1
102
RTVSPropertyOp41
 70
     1
102
RTVSPropertyOp42
 70
     1
102
RTVSPropertyOp43
 70
     1
102
RTVSPropertyOp44
 70
     1
102
RTVSPropertyOp45
 70
     1
102
RTVSPropertyOp46
 70
     1
102
RTVSPropertyOp47
 70
     1
102
RTVSPropertyOp48
 70
     1
102
RTVSPropertyOp49
 70
     1
102
RTVSPropertyOp50
 70
     1
102
RTVSPropertyOp51
 70
     0
102
RTVSPropertyOp52
 70
     0
102
RTVSPropertyOp53
 70
     1
102
RTVSPropertyOp54
 70
     1
102
RTVSPropertyOp55
 70
     1
102
RTVSPropertyOp56
 70
     1
102
RTVSPropertyOp57
 70
     1
102
RTVSPropertyOp58
 70
     1
102
RTVSPropertyOp59
 70
     1
102
RTVSPropertyOp60
 70
     1
102
RTVSPropertyOp61
 70
     1
102
RTVSPropertyOp62
 70
     1
  0
XRECORD
  5
397
102
{ACAD_REACTORS
330
396
102
}
330
396
100
AcDbXrecord
280
     1
102
RTVSPost2010Prop28
280
     0
102
RTVSPost2010PropOp28
 70
     0
102
RTVSPost2010Prop29
280
     1
102
RTVSPost2010PropOp29
 70
     0
102
RTVSPost2010Prop30
280
     1
102
RTVSPost2010PropOp30
 70
     0
102
RTVSPost2010Prop31
280
     0
102
RTVSPost2010PropOp31
 70
     0
102
RTVSPost2010Prop32
280
     0
102
RTVSPost2010PropOp32
 70
     0
102
RTVSPost2010Prop33
280
     0
102
RTVSPost2010PropOp33
 70
     0
102
RTVSPost2010Prop34
280
     0
102
RTVSPost2010PropOp34
 70
     0
102
RTVSPost2010Prop35
280
     0
102
RTVSPost2010PropOp35
 70
     0
102
RTVSPost2010Prop36
280
     0
102
RTVSPost2010PropOp36
 70
     0
102
RTVSPost2010Prop37
 90
       50
102
RTVSPost2010PropOp37
 70
     0
102
RTVSPost2010Prop38
140
0.0
102
RTVSPost2010PropOp38
 70
     0
102
RTVSPost2010Prop39
140
1.0
102
RTVSPost2010PropOp39
 70
     0
102
RTVSPost2010Prop40
 90
        0
102
RTVSPost2010PropOp40
 70
     0
102
RTVSPost2010Prop41ColorIndex
 90
       18
102
RTVSPost2010Prop41ColorRGB
 90
        0
102
RTVSPost2010PropOp41
 70
     0
102
RTVSPost2010Prop42
 90
       50
102
RTVSPost2010PropOp42
 70
     0
102
RTVSPost2010Prop43
 90
        3
102
RTVSPost2010PropOp43
 70
     0
102
RTVSPost2010Prop44ColorIndex
 90
        5
102
RTVSPost2010Prop44ColorRGB
 90
      255
102
RTVSPost2010PropOp44
 70
     0
102
RTVSPost2010Prop45
280
     0
102
RTVSPost2010PropOp45
 70
     0
102
RTVSPost2010Prop46
 90
       50
102
RTVSPost2010PropOp46
 70
     0
102
RTVSPost2010Prop47
 90
       50
102
RTVSPost2010PropOp47
 70
     0
102
RTVSPost2010Prop48
 90
       50
102
RTVSPost2010PropOp48
 70
     0
102
RTVSPost2010Prop49
280
     0
102
RTVSPost2010PropOp49
 70
     0
102
RTVSPost2010Prop50
 90
       50
102
RTVSPost2010PropOp50
 70
     0
102
RTVSPost2010Prop51ColorIndex
 90
      256
102
RTVSPost2010Prop51ColorRGB
 90
-16777216
102
RTVSPost2010PropOp51
 70
     0
102
RTVSPost2010Prop52
140
1.0
102
RTVSPost2010PropOp52
 70
     0
102
RTVSPost2010Prop53
 90
        2
102
RTVSPost2010PropOp53
 70
     0
102
RTVSPost2010Prop54
  1
strokes_ogs.tif
102
RTVSPost2010PropOp54
 70
     0
102
RTVSPost2010Prop55
280
     0
102
RTVSPost2010PropOp55
 70
     0
102
RTVSPost2010Prop56
140
1.0
102
RTVSPost2010PropOp56
 70
     0
102
RTVSPost2010Prop57
140
1.0
102
RTVSPost2010PropOp57
 70
     0
102
RTVSPropertyOp0
 70
     0
102
RTVSPropertyOp1
 70
     0
102
RTVSPropertyOp2
 70
     0
102
RTVSPropertyOp3
 70
     0
102
RTVSPropertyOp4
 70
     0
102
RTVSPropertyOp5
 70
     0
102
RTVSPropertyOp6
 70
     0
102
RTVSPropertyOp7
 70
     0
102
RTVSPropertyOp8
 70
     0
102
RTVSPropertyOp9
 70
     0
102
RTVSPropertyOp10
 70
     0
102
RTVSPropertyOp11
 70
     0
102
RTVSPropertyOp12
 70
     0
102
RTVSPropertyOp13
 70
     0
102
RTVSPropertyOp14
 70
     2
102
RTVSPropertyOp15
 70
     0
102
RTVSPropertyOp16
 70
     0
102
RTVSPropertyOp17
 70
     0
102
RTVSPropertyOp18
 70
     0
102
RTVSPropertyOp19
 70
     0
102
RTVSPropertyOp20
 70
     0
102
RTVSPropertyOp21
 70
     0
102
RTVSPropertyOp22
 70
     0
102
RTVSPropertyOp23
 70
     0
102
RTVSPropertyOp24
 70
     0
102
RTVSPropertyOp25
 70
     0
102
RTVSPropertyOp26
 70
     0
102
RTVSPropertyOp27
 70
     0
102
RTVSPropertyOp28
 70
     0
102
RTVSPropertyOp29
 70
     0
102
RTVSPropertyOp30
 70
     0
102
RTVSPropertyOp31
 70
     0
102
RTVSPropertyOp32
 70
     0
102
RTVSPropertyOp33
 70
     0
102
RTVSPropertyOp34
 70
     0
102
RTVSPropertyOp35
 70
     0
102
RTVSPropertyOp36
 70
     0
102
RTVSPropertyOp37
 70
     0
102
RTVSPropertyOp38
 70
     0
102
RTVSPropertyOp39
 70
     0
102
RTVSPropertyOp40
 70
     0
102
RTVSPropertyOp41
 70
     0
102
RTVSPropertyOp42
 70
     0
102
RTVSPropertyOp43
 70
     0
102
RTVSPropertyOp44
 70
     0
102
RTVSPropertyOp45
 70
     0
102
RTVSPropertyOp46
 70
     0
102
RTVSPropertyOp47
 70
     0
102
RTVSPropertyOp48
 70
     0
102
RTVSPropertyOp49
 70
     0
102
RTVSPropertyOp50
 70
     0
102
RTVSPropertyOp51
 70
     0
102
RTVSPropertyOp52
 70
     0
102
RTVSPropertyOp53
 70
     0
102
RTVSPropertyOp54
 70
     0
102
RTVSPropertyOp55
 70
     0
102
RTVSPropertyOp56
 70
     0
102
RTVSPropertyOp57
 70
     0
102
RTVSPropertyOp58
 70
     1
102
RTVSPropertyOp59
 70
     1
102
RTVSPropertyOp60
 70
     1
102
RTVSPropertyOp61
 70
     1
102
RTVSPropertyOp62
 70
     1
  0
XRECORD
  5
391
102
{ACAD_REACTORS
330
390
102
}
330
390
100
AcDbXrecord
280
     1
102
RTVSPost2010Prop28
280
     0
102
RTVSPost2010PropOp28
 70
     1
102
RTVSPost2010Prop29
280
     1
102
RTVSPost2010PropOp29
 70
     1
102
RTVSPost2010Prop30
280
     1
102
RTVSPost2010PropOp30
 70
     1
102
RTVSPost2010Prop31
280
     0
102
RTVSPost2010PropOp31
 70
     1
102
RTVSPost2010Prop32
280
     0
102
RTVSPost2010PropOp32
 70
     1
102
RTVSPost2010Prop33
280
     0
102
RTVSPost2010PropOp33
 70
     1
102
RTVSPost2010Prop34
280
     0
102
RTVSPost2010PropOp34
 70
     1
102
RTVSPost2010Prop35
280
     0
102
RTVSPost2010PropOp35
 70
     1
102
RTVSPost2010Prop36
280
     0
102
RTVSPost2010PropOp36
 70
     1
102
RTVSPost2010Prop37
 90
       50
102
RTVSPost2010PropOp37
 70
     1
102
RTVSPost2010Prop38
140
0.0
102
RTVSPost2010PropOp38
 70
     1
102
RTVSPost2010Prop39
140
1.0
102
RTVSPost2010PropOp39
 70
     1
102
RTVSPost2010Prop40
 90
        0
102
RTVSPost2010PropOp40
 70
     1
102
RTVSPost2010Prop41ColorIndex
 90
       18
102
RTVSPost2010Prop41ColorRGB
 90
        0
102
RTVSPost2010PropOp41
 70
     1
102
RTVSPost2010Prop42
 90
       50
102
RTVSPost2010PropOp42
 70
     1
102
RTVSPost2010Prop43
 90
        3
102
RTVSPost2010PropOp43
 70
     1
102
RTVSPost2010Prop44ColorIndex
 90
        5
102
RTVSPost2010Prop44ColorRGB
 90
      255
102
RTVSPost2010PropOp44
 70
     1
102
RTVSPost2010Prop45
280
     0
102
RTVSPost2010PropOp45
 70
     1
102
RTVSPost2010Prop46
 90
       50
102
RTVSPost2010PropOp46
 70
     1
102
RTVSPost2010Prop47
 90
       50
102
RTVSPost2010PropOp47
 70
     1
102
RTVSPost2010Prop48
 90
       50
102
RTVSPost2010PropOp48
 70
     1
102
RTVSPost2010Prop49
280
     0
102
RTVSPost2010PropOp49
 70
     1
102
RTVSPost2010Prop50
 90
       50
102
RTVSPost2010PropOp50
 70
     1
102
RTVSPost2010Prop51ColorIndex
 90
      256
102
RTVSPost2010Prop51ColorRGB
 90
-16777216
102
RTVSPost2010PropOp51
 70
     0
102
RTVSPost2010Prop52
140
1.0
102
RTVSPost2010PropOp52
 70
     0
102
RTVSPost2010Prop53
 90
        2
102
RTVSPost2010PropOp53
 70
     1
102
RTVSPost2010Prop54
  1
strokes_ogs.tif
102
RTVSPost2010PropOp54
 70
     1
102
RTVSPost2010Prop55
280
     0
102
RTVSPost2010PropOp55
 70
     1
102
RTVSPost2010Prop56
140
1.0
102
RTVSPost2010PropOp56
 70
     1
102
RTVSPost2010Prop57
140
1.0
102
RTVSPost2010PropOp57
 70
     1
102
RTVSPropertyOp0
 70
     1
102
RTVSPropertyOp1
 70
     1
102
RTVSPropertyOp2
 70
     1
102
RTVSPropertyOp3
 70
     1
102
RTVSPropertyOp4
 70
     1
102
RTVSPropertyOp5
 70
     1
102
RTVSPropertyOp6
 70
     1
102
RTVSPropertyOp7
 70
     1
102
RTVSPropertyOp8
 70
     1
102
RTVSPropertyOp9
 70
     1
102
RTVSPropertyOp10
 70
     1
102
RTVSPropertyOp11
 70
     1
102
RTVSPropertyOp12
 70
     1
102
RTVSPropertyOp13
 70
     1
102
RTVSPropertyOp14
 70
     1
102
RTVSPropertyOp15
 70
     1
102
RTVSPropertyOp16
 70
     1
102
RTVSPropertyOp17
 70
     1
102
RTVSPropertyOp18
 70
     1
102
RTVSPropertyOp19
 70
     1
102
RTVSPropertyOp20
 70
     1
102
RTVSPropertyOp21
 70
     1
102
RTVSPropertyOp22
 70
     1
102
RTVSPropertyOp23
 70
     1
102
RTVSPropertyOp24
 70
     1
102
RTVSPropertyOp25
 70
     1
102
RTVSPropertyOp26
 70
     1
102
RTVSPropertyOp27
 70
     1
102
RTVSPropertyOp28
 70
     1
102
RTVSPropertyOp29
 70
     1
102
RTVSPropertyOp30
 70
     1
102
RTVSPropertyOp31
 70
     1
102
RTVSPropertyOp32
 70
     1
102
RTVSPropertyOp33
 70
     1
102
RTVSPropertyOp34
 70
     1
102
RTVSPropertyOp35
 70
     1
102
RTVSPropertyOp36
 70
     1
102
RTVSPropertyOp37
 70
     1
102
RTVSPropertyOp38
 70
     1
102
RTVSPropertyOp39
 70
     1
102
RTVSPropertyOp40
 70
     1
102
RTVSPropertyOp41
 70
     1
102
RTVSPropertyOp42
 70
     1
102
RTVSPropertyOp43
 70
     1
102
RTVSPropertyOp44
 70
     1
102
RTVSPropertyOp45
 70
     1
102
RTVSPropertyOp46
 70
     1
102
RTVSPropertyOp47
 70
     1
102
RTVSPropertyOp48
 70
     1
102
RTVSPropertyOp49
 70
     1
102
RTVSPropertyOp50
 70
     1
102
RTVSPropertyOp51
 70
     0
102
RTVSPropertyOp52
 70
     0
102
RTVSPropertyOp53
 70
     1
102
RTVSPropertyOp54
 70
     1
102
RTVSPropertyOp55
 70
     1
102
RTVSPropertyOp56
 70
     1
102
RTVSPropertyOp57
 70
     1
102
RTVSPropertyOp58
 70
     1
102
RTVSPropertyOp59
 70
     1
102
RTVSPropertyOp60
 70
     1
102
RTVSPropertyOp61
 70
     1
102
RTVSPropertyOp62
 70
     1
  0
XRECORD
  5
399
102
{ACAD_REACTORS
330
398
102
}
330
398
100
AcDbXrecord
280
     1
102
RTVSPost2010Prop28
280
     0
102
RTVSPost2010PropOp28
 70
     0
102
RTVSPost2010Prop29
280
     1
102
RTVSPost2010PropOp29
 70
     0
102
RTVSPost2010Prop30
280
     1
102
RTVSPost2010PropOp30
 70
     0
102
RTVSPost2010Prop31
280
     0
102
RTVSPost2010PropOp31
 70
     0
102
RTVSPost2010Prop32
280
     0
102
RTVSPost2010PropOp32
 70
     0
102
RTVSPost2010Prop33
280
     0
102
RTVSPost2010PropOp33
 70
     0
102
RTVSPost2010Prop34
280
     0
102
RTVSPost2010PropOp34
 70
     0
102
RTVSPost2010Prop35
280
     0
102
RTVSPost2010PropOp35
 70
     0
102
RTVSPost2010Prop36
280
     0
102
RTVSPost2010PropOp36
 70
     0
102
RTVSPost2010Prop37
 90
       50
102
RTVSPost2010PropOp37
 70
     0
102
RTVSPost2010Prop38
140
0.0
102
RTVSPost2010PropOp38
 70
     0
102
RTVSPost2010Prop39
140
1.0
102
RTVSPost2010PropOp39
 70
     0
102
RTVSPost2010Prop40
 90
        0
102
RTVSPost2010PropOp40
 70
     0
102
RTVSPost2010Prop41ColorIndex
 90
       18
102
RTVSPost2010Prop41ColorRGB
 90
        0
102
RTVSPost2010PropOp41
 70
     0
102
RTVSPost2010Prop42
 90
       50
102
RTVSPost2010PropOp42
 70
     0
102
RTVSPost2010Prop43
 90
        3
102
RTVSPost2010PropOp43
 70
     0
102
RTVSPost2010Prop44ColorIndex
 90
        5
102
RTVSPost2010Prop44ColorRGB
 90
      255
102
RTVSPost2010PropOp44
 70
     0
102
RTVSPost2010Prop45
280
     0
102
RTVSPost2010PropOp45
 70
     0
102
RTVSPost2010Prop46
 90
       50
102
RTVSPost2010PropOp46
 70
     0
102
RTVSPost2010Prop47
 90
       50
102
RTVSPost2010PropOp47
 70
     0
102
RTVSPost2010Prop48
 90
       50
102
RTVSPost2010PropOp48
 70
     0
102
RTVSPost2010Prop49
280
     0
102
RTVSPost2010PropOp49
 70
     0
102
RTVSPost2010Prop50
 90
       50
102
RTVSPost2010PropOp50
 70
     0
102
RTVSPost2010Prop51ColorIndex
 90
      256
102
RTVSPost2010Prop51ColorRGB
 90
-16777216
102
RTVSPost2010PropOp51
 70
     0
102
RTVSPost2010Prop52
140
1.0
102
RTVSPost2010PropOp52
 70
     0
102
RTVSPost2010Prop53
 90
        2
102
RTVSPost2010PropOp53
 70
     0
102
RTVSPost2010Prop54
  1
strokes_ogs.tif
102
RTVSPost2010PropOp54
 70
     0
102
RTVSPost2010Prop55
280
     0
102
RTVSPost2010PropOp55
 70
     0
102
RTVSPost2010Prop56
140
1.0
102
RTVSPost2010PropOp56
 70
     0
102
RTVSPost2010Prop57
140
1.0
102
RTVSPost2010PropOp57
 70
     0
102
RTVSPropertyOp0
 70
     0
102
RTVSPropertyOp1
 70
     0
102
RTVSPropertyOp2
 70
     0
102
RTVSPropertyOp3
 70
     0
102
RTVSPropertyOp4
 70
     0
102
RTVSPropertyOp5
 70
     0
102
RTVSPropertyOp6
 70
     0
102
RTVSPropertyOp7
 70
     0
102
RTVSPropertyOp8
 70
     0
102
RTVSPropertyOp9
 70
     0
102
RTVSPropertyOp10
 70
     0
102
RTVSPropertyOp11
 70
     0
102
RTVSPropertyOp12
 70
     0
102
RTVSPropertyOp13
 70
     0
102
RTVSPropertyOp14
 70
     2
102
RTVSPropertyOp15
 70
     0
102
RTVSPropertyOp16
 70
     0
102
RTVSPropertyOp17
 70
     0
102
RTVSPropertyOp18
 70
     0
102
RTVSPropertyOp19
 70
     0
102
RTVSPropertyOp20
 70
     0
102
RTVSPropertyOp21
 70
     0
102
RTVSPropertyOp22
 70
     0
102
RTVSPropertyOp23
 70
     0
102
RTVSPropertyOp24
 70
     0
102
RTVSPropertyOp25
 70
     0
102
RTVSPropertyOp26
 70
     0
102
RTVSPropertyOp27
 70
     0
102
RTVSPropertyOp28
 70
     0
102
RTVSPropertyOp29
 70
     0
102
RTVSPropertyOp30
 70
     0
102
RTVSPropertyOp31
 70
     0
102
RTVSPropertyOp32
 70
     0
102
RTVSPropertyOp33
 70
     0
102
RTVSPropertyOp34
 70
     0
102
RTVSPropertyOp35
 70
     0
102
RTVSPropertyOp36
 70
     0
102
RTVSPropertyOp37
 70
     0
102
RTVSPropertyOp38
 70
     0
102
RTVSPropertyOp39
 70
     0
102
RTVSPropertyOp40
 70
     0
102
RTVSPropertyOp41
 70
     0
102
RTVSPropertyOp42
 70
     0
102
RTVSPropertyOp43
 70
     0
102
RTVSPropertyOp44
 70
     0
102
RTVSPropertyOp45
 70
     0
102
RTVSPropertyOp46
 70
     0
102
RTVSPropertyOp47
 70
     0
102
RTVSPropertyOp48
 70
     0
102
RTVSPropertyOp49
 70
     0
102
RTVSPropertyOp50
 70
     0
102
RTVSPropertyOp51
 70
     0
102
RTVSPropertyOp52
 70
     0
102
RTVSPropertyOp53
 70
     0
102
RTVSPropertyOp54
 70
     0
102
RTVSPropertyOp55
 70
     0
102
RTVSPropertyOp56
 70
     0
102
RTVSPropertyOp57
 70
     0
102
RTVSPropertyOp58
 70
     1
102
RTVSPropertyOp59
 70
     1
102
RTVSPropertyOp60
 70
     1
102
RTVSPropertyOp61
 70
     1
102
RTVSPropertyOp62
 70
     1
  0
XRECORD
  5
387
102
{ACAD_REACTORS
330
386
102
}
330
386
100
AcDbXrecord
280
     1
102
RTVSPost2010Prop28
280
     0
102
RTVSPost2010PropOp28
 70
     1
102
RTVSPost2010Prop29
280
     1
102
RTVSPost2010PropOp29
 70
     1
102
RTVSPost2010Prop30
280
     1
102
RTVSPost2010PropOp30
 70
     1
102
RTVSPost2010Prop31
280
     0
102
RTVSPost2010PropOp31
 70
     1
102
RTVSPost2010Prop32
280
     0
102
RTVSPost2010PropOp32
 70
     1
102
RTVSPost2010Prop33
280
     0
102
RTVSPost2010PropOp33
 70
     1
102
RTVSPost2010Prop34
280
     0
102
RTVSPost2010PropOp34
 70
     1
102
RTVSPost2010Prop35
280
     0
102
RTVSPost2010PropOp35
 70
     1
102
RTVSPost2010Prop36
280
     0
102
RTVSPost2010PropOp36
 70
     1
102
RTVSPost2010Prop37
 90
       50
102
RTVSPost2010PropOp37
 70
     1
102
RTVSPost2010Prop38
140
0.0
102
RTVSPost2010PropOp38
 70
     1
102
RTVSPost2010Prop39
140
1.0
102
RTVSPost2010PropOp39
 70
     1
102
RTVSPost2010Prop40
 90
        0
102
RTVSPost2010PropOp40
 70
     1
102
RTVSPost2010Prop41ColorIndex
 90
       18
102
RTVSPost2010Prop41ColorRGB
 90
        0
102
RTVSPost2010PropOp41
 70
     1
102
RTVSPost2010Prop42
 90
       50
102
RTVSPost2010PropOp42
 70
     1
102
RTVSPost2010Prop43
 90
        3
102
RTVSPost2010PropOp43
 70
     1
102
RTVSPost2010Prop44ColorIndex
 90
        5
102
RTVSPost2010Prop44ColorRGB
 90
      255
102
RTVSPost2010PropOp44
 70
     1
102
RTVSPost2010Prop45
280
     0
102
RTVSPost2010PropOp45
 70
     1
102
RTVSPost2010Prop46
 90
       50
102
RTVSPost2010PropOp46
 70
     1
102
RTVSPost2010Prop47
 90
       50
102
RTVSPost2010PropOp47
 70
     1
102
RTVSPost2010Prop48
 90
       50
102
RTVSPost2010PropOp48
 70
     1
102
RTVSPost2010Prop49
280
     0
102
RTVSPost2010PropOp49
 70
     1
102
RTVSPost2010Prop50
 90
       50
102
RTVSPost2010PropOp50
 70
     1
102
RTVSPost2010Prop51ColorIndex
 90
      256
102
RTVSPost2010Prop51ColorRGB
 90
-16777216
102
RTVSPost2010PropOp51
 70
     0
102
RTVSPost2010Prop52
140
1.0
102
RTVSPost2010PropOp52
 70
     0
102
RTVSPost2010Prop53
 90
        2
102
RTVSPost2010PropOp53
 70
     1
102
RTVSPost2010Prop54
  1
strokes_ogs.tif
102
RTVSPost2010PropOp54
 70
     1
102
RTVSPost2010Prop55
280
     0
102
RTVSPost2010PropOp55
 70
     1
102
RTVSPost2010Prop56
140
1.0
102
RTVSPost2010PropOp56
 70
     1
102
RTVSPost2010Prop57
140
1.0
102
RTVSPost2010PropOp57
 70
     1
102
RTVSPropertyOp0
 70
     1
102
RTVSPropertyOp1
 70
     1
102
RTVSPropertyOp2
 70
     1
102
RTVSPropertyOp3
 70
     1
102
RTVSPropertyOp4
 70
     1
102
RTVSPropertyOp5
 70
     1
102
RTVSPropertyOp6
 70
     1
102
RTVSPropertyOp7
 70
     1
102
RTVSPropertyOp8
 70
     1
102
RTVSPropertyOp9
 70
     1
102
RTVSPropertyOp10
 70
     1
102
RTVSPropertyOp11
 70
     1
102
RTVSPropertyOp12
 70
     1
102
RTVSPropertyOp13
 70
     1
102
RTVSPropertyOp14
 70
     1
102
RTVSPropertyOp15
 70
     1
102
RTVSPropertyOp16
 70
     1
102
RTVSPropertyOp17
 70
     1
102
RTVSPropertyOp18
 70
     1
102
RTVSPropertyOp19
 70
     1
102
RTVSPropertyOp20
 70
     1
102
RTVSPropertyOp21
 70
     1
102
RTVSPropertyOp22
 70
     1
102
RTVSPropertyOp23
 70
     1
102
RTVSPropertyOp24
 70
     1
102
RTVSPropertyOp25
 70
     1
102
RTVSPropertyOp26
 70
     1
102
RTVSPropertyOp27
 70
     1
102
RTVSPropertyOp28
 70
     1
102
RTVSPropertyOp29
 70
     1
102
RTVSPropertyOp30
 70
     1
102
RTVSPropertyOp31
 70
     1
102
RTVSPropertyOp32
 70
     1
102
RTVSPropertyOp33
 70
     1
102
RTVSPropertyOp34
 70
     1
102
RTVSPropertyOp35
 70
     1
102
RTVSPropertyOp36
 70
     1
102
RTVSPropertyOp37
 70
     1
102
RTVSPropertyOp38
 70
     1
102
RTVSPropertyOp39
 70
     1
102
RTVSPropertyOp40
 70
     1
102
RTVSPropertyOp41
 70
     1
102
RTVSPropertyOp42
 70
     1
102
RTVSPropertyOp43
 70
     1
102
RTVSPropertyOp44
 70
     1
102
RTVSPropertyOp45
 70
     1
102
RTVSPropertyOp46
 70
     1
102
RTVSPropertyOp47
 70
     1
102
RTVSPropertyOp48
 70
     1
102
RTVSPropertyOp49
 70
     1
102
RTVSPropertyOp50
 70
     1
102
RTVSPropertyOp51
 70
     0
102
RTVSPropertyOp52
 70
     0
102
RTVSPropertyOp53
 70
     1
102
RTVSPropertyOp54
 70
     1
102
RTVSPropertyOp55
 70
     1
102
RTVSPropertyOp56
 70
     1
102
RTVSPropertyOp57
 70
     1
102
RTVSPropertyOp58
 70
     1
102
RTVSPropertyOp59
 70
     1
102
RTVSPropertyOp60
 70
     1
102
RTVSPropertyOp61
 70
     1
102
RTVSPropertyOp62
 70
     1
  0
XRECORD
  5
3A5
102
{ACAD_REACTORS
330
3A4
102
}
330
3A4
100
AcDbXrecord
280
     1
102
RTVSPost2010Prop28
280
     0
102
RTVSPost2010PropOp28
 70
     1
102
RTVSPost2010Prop29
280
     1
102
RTVSPost2010PropOp29
 70
     1
102
RTVSPost2010Prop30
280
     1
102
RTVSPost2010PropOp30
 70
     1
102
RTVSPost2010Prop31
280
     0
102
RTVSPost2010PropOp31
 70
     1
102
RTVSPost2010Prop32
280
     0
102
RTVSPost2010PropOp32
 70
     1
102
RTVSPost2010Prop33
280
     0
102
RTVSPost2010PropOp33
 70
     1
102
RTVSPost2010Prop34
280
     0
102
RTVSPost2010PropOp34
 70
     1
102
RTVSPost2010Prop35
280
     0
102
RTVSPost2010PropOp35
 70
     1
102
RTVSPost2010Prop36
280
     0
102
RTVSPost2010PropOp36
 70
     1
102
RTVSPost2010Prop37
 90
       50
102
RTVSPost2010PropOp37
 70
     1
102
RTVSPost2010Prop38
140
0.0
102
RTVSPost2010PropOp38
 70
     1
102
RTVSPost2010Prop39
140
1.0
102
RTVSPost2010PropOp39
 70
     1
102
RTVSPost2010Prop40
 90
        0
102
RTVSPost2010PropOp40
 70
     1
102
RTVSPost2010Prop41ColorIndex
 90
       18
102
RTVSPost2010Prop41ColorRGB
 90
        0
102
RTVSPost2010PropOp41
 70
     1
102
RTVSPost2010Prop42
 90
       50
102
RTVSPost2010PropOp42
 70
     1
102
RTVSPost2010Prop43
 90
        3
102
RTVSPost2010PropOp43
 70
     1
102
RTVSPost2010Prop44ColorIndex
 90
        5
102
RTVSPost2010Prop44ColorRGB
 90
      255
102
RTVSPost2010PropOp44
 70
     1
102
RTVSPost2010Prop45
280
     0
102
RTVSPost2010PropOp45
 70
     1
102
RTVSPost2010Prop46
 90
       50
102
RTVSPost2010PropOp46
 70
     1
102
RTVSPost2010Prop47
 90
       50
102
RTVSPost2010PropOp47
 70
     1
102
RTVSPost2010Prop48
 90
       50
102
RTVSPost2010PropOp48
 70
     1
102
RTVSPost2010Prop49
280
     0
102
RTVSPost2010PropOp49
 70
     1
102
RTVSPost2010Prop50
 90
       50
102
RTVSPost2010PropOp50
 70
     1
102
RTVSPost2010Prop51ColorIndex
 90
      256
102
RTVSPost2010Prop51ColorRGB
 90
-16777216
102
RTVSPost2010PropOp51
 70
     0
102
RTVSPost2010Prop52
140
1.0
102
RTVSPost2010PropOp52
 70
     0
102
RTVSPost2010Prop53
 90
        2
102
RTVSPost2010PropOp53
 70
     1
102
RTVSPost2010Prop54
  1
strokes_ogs.tif
102
RTVSPost2010PropOp54
 70
     1
102
RTVSPost2010Prop55
280
     0
102
RTVSPost2010PropOp55
 70
     1
102
RTVSPost2010Prop56
140
1.0
102
RTVSPost2010PropOp56
 70
     1
102
RTVSPost2010Prop57
140
1.0
102
RTVSPost2010PropOp57
 70
     1
102
RTVSPropertyOp0
 70
     1
102
RTVSPropertyOp1
 70
     1
102
RTVSPropertyOp2
 70
     1
102
RTVSPropertyOp3
 70
     1
102
RTVSPropertyOp4
 70
     1
102
RTVSPropertyOp5
 70
     1
102
RTVSPropertyOp6
 70
     1
102
RTVSPropertyOp7
 70
     1
102
RTVSPropertyOp8
 70
     1
102
RTVSPropertyOp9
 70
     1
102
RTVSPropertyOp10
 70
     1
102
RTVSPropertyOp11
 70
     1
102
RTVSPropertyOp12
 70
     1
102
RTVSPropertyOp13
 70
     1
102
RTVSPropertyOp14
 70
     1
102
RTVSPropertyOp15
 70
     1
102
RTVSPropertyOp16
 70
     1
102
RTVSPropertyOp17
 70
     1
102
RTVSPropertyOp18
 70
     1
102
RTVSPropertyOp19
 70
     1
102
RTVSPropertyOp20
 70
     1
102
RTVSPropertyOp21
 70
     1
102
RTVSPropertyOp22
 70
     1
102
RTVSPropertyOp23
 70
     1
102
RTVSPropertyOp24
 70
     1
102
RTVSPropertyOp25
 70
     1
102
RTVSPropertyOp26
 70
     1
102
RTVSPropertyOp27
 70
     1
102
RTVSPropertyOp28
 70
     1
102
RTVSPropertyOp29
 70
     1
102
RTVSPropertyOp30
 70
     1
102
RTVSPropertyOp31
 70
     1
102
RTVSPropertyOp32
 70
     1
102
RTVSPropertyOp33
 70
     1
102
RTVSPropertyOp34
 70
     1
102
RTVSPropertyOp35
 70
     1
102
RTVSPropertyOp36
 70
     1
102
RTVSPropertyOp37
 70
     1
102
RTVSPropertyOp38
 70
     1
102
RTVSPropertyOp39
 70
     1
102
RTVSPropertyOp40
 70
     1
102
RTVSPropertyOp41
 70
     1
102
RTVSPropertyOp42
 70
     1
102
RTVSPropertyOp43
 70
     1
102
RTVSPropertyOp44
 70
     1
102
RTVSPropertyOp45
 70
     1
102
RTVSPropertyOp46
 70
     1
102
RTVSPropertyOp47
 70
     1
102
RTVSPropertyOp48
 70
     1
102
RTVSPropertyOp49
 70
     1
102
RTVSPropertyOp50
 70
     1
102
RTVSPropertyOp51
 70
     0
102
RTVSPropertyOp52
 70
     0
102
RTVSPropertyOp53
 70
     1
102
RTVSPropertyOp54
 70
     1
102
RTVSPropertyOp55
 70
     1
102
RTVSPropertyOp56
 70
     1
102
RTVSPropertyOp57
 70
     1
102
RTVSPropertyOp58
 70
     1
102
RTVSPropertyOp59
 70
     1
102
RTVSPropertyOp60
 70
     1
102
RTVSPropertyOp61
 70
     1
102
RTVSPropertyOp62
 70
     1
  0
XRECORD
  5
3A3
102
{ACAD_REACTORS
330
3A2
102
}
330
3A2
100
AcDbXrecord
280
     1
102
RTVSPost2010Prop28
280
     0
102
RTVSPost2010PropOp28
 70
     1
102
RTVSPost2010Prop29
280
     1
102
RTVSPost2010PropOp29
 70
     1
102
RTVSPost2010Prop30
280
     1
102
RTVSPost2010PropOp30
 70
     1
102
RTVSPost2010Prop31
280
     0
102
RTVSPost2010PropOp31
 70
     1
102
RTVSPost2010Prop32
280
     0
102
RTVSPost2010PropOp32
 70
     1
102
RTVSPost2010Prop33
280
     0
102
RTVSPost2010PropOp33
 70
     1
102
RTVSPost2010Prop34
280
     0
102
RTVSPost2010PropOp34
 70
     1
102
RTVSPost2010Prop35
280
     0
102
RTVSPost2010PropOp35
 70
     1
102
RTVSPost2010Prop36
280
     0
102
RTVSPost2010PropOp36
 70
     1
102
RTVSPost2010Prop37
 90
       50
102
RTVSPost2010PropOp37
 70
     1
102
RTVSPost2010Prop38
140
0.0
102
RTVSPost2010PropOp38
 70
     1
102
RTVSPost2010Prop39
140
1.0
102
RTVSPost2010PropOp39
 70
     1
102
RTVSPost2010Prop40
 90
        0
102
RTVSPost2010PropOp40
 70
     1
102
RTVSPost2010Prop41ColorIndex
 90
       18
102
RTVSPost2010Prop41ColorRGB
 90
        0
102
RTVSPost2010PropOp41
 70
     1
102
RTVSPost2010Prop42
 90
       50
102
RTVSPost2010PropOp42
 70
     1
102
RTVSPost2010Prop43
 90
        3
102
RTVSPost2010PropOp43
 70
     1
102
RTVSPost2010Prop44ColorIndex
 90
        5
102
RTVSPost2010Prop44ColorRGB
 90
      255
102
RTVSPost2010PropOp44
 70
     1
102
RTVSPost2010Prop45
280
     0
102
RTVSPost2010PropOp45
 70
     1
102
RTVSPost2010Prop46
 90
       50
102
RTVSPost2010PropOp46
 70
     1
102
RTVSPost2010Prop47
 90
       50
102
RTVSPost2010PropOp47
 70
     1
102
RTVSPost2010Prop48
 90
       50
102
RTVSPost2010PropOp48
 70
     1
102
RTVSPost2010Prop49
280
     0
102
RTVSPost2010PropOp49
 70
     1
102
RTVSPost2010Prop50
 90
       50
102
RTVSPost2010PropOp50
 70
     1
102
RTVSPost2010Prop51ColorIndex
 90
      256
102
RTVSPost2010Prop51ColorRGB
 90
-16777216
102
RTVSPost2010PropOp51
 70
     0
102
RTVSPost2010Prop52
140
1.0
102
RTVSPost2010PropOp52
 70
     0
102
RTVSPost2010Prop53
 90
        2
102
RTVSPost2010PropOp53
 70
     1
102
RTVSPost2010Prop54
  1
strokes_ogs.tif
102
RTVSPost2010PropOp54
 70
     1
102
RTVSPost2010Prop55
280
     0
102
RTVSPost2010PropOp55
 70
     1
102
RTVSPost2010Prop56
140
1.0
102
RTVSPost2010PropOp56
 70
     1
102
RTVSPost2010Prop57
140
1.0
102
RTVSPost2010PropOp57
 70
     1
102
RTVSPropertyOp0
 70
     1
102
RTVSPropertyOp1
 70
     1
102
RTVSPropertyOp2
 70
     1
102
RTVSPropertyOp3
 70
     1
102
RTVSPropertyOp4
 70
     1
102
RTVSPropertyOp5
 70
     1
102
RTVSPropertyOp6
 70
     1
102
RTVSPropertyOp7
 70
     1
102
RTVSPropertyOp8
 70
     1
102
RTVSPropertyOp9
 70
     1
102
RTVSPropertyOp10
 70
     1
102
RTVSPropertyOp11
 70
     1
102
RTVSPropertyOp12
 70
     1
102
RTVSPropertyOp13
 70
     1
102
RTVSPropertyOp14
 70
     1
102
RTVSPropertyOp15
 70
     1
102
RTVSPropertyOp16
 70
     1
102
RTVSPropertyOp17
 70
     1
102
RTVSPropertyOp18
 70
     1
102
RTVSPropertyOp19
 70
     1
102
RTVSPropertyOp20
 70
     1
102
RTVSPropertyOp21
 70
     1
102
RTVSPropertyOp22
 70
     1
102
RTVSPropertyOp23
 70
     1
102
RTVSPropertyOp24
 70
     1
102
RTVSPropertyOp25
 70
     1
102
RTVSPropertyOp26
 70
     1
102
RTVSPropertyOp27
 70
     1
102
RTVSPropertyOp28
 70
     1
102
RTVSPropertyOp29
 70
     1
102
RTVSPropertyOp30
 70
     1
102
RTVSPropertyOp31
 70
     1
102
RTVSPropertyOp32
 70
     1
102
RTVSPropertyOp33
 70
     1
102
RTVSPropertyOp34
 70
     1
102
RTVSPropertyOp35
 70
     1
102
RTVSPropertyOp36
 70
     1
102
RTVSPropertyOp37
 70
     1
102
RTVSPropertyOp38
 70
     1
102
RTVSPropertyOp39
 70
     1
102
RTVSPropertyOp40
 70
     1
102
RTVSPropertyOp41
 70
     1
102
RTVSPropertyOp42
 70
     1
102
RTVSPropertyOp43
 70
     1
102
RTVSPropertyOp44
 70
     1
102
RTVSPropertyOp45
 70
     1
102
RTVSPropertyOp46
 70
     1
102
RTVSPropertyOp47
 70
     1
102
RTVSPropertyOp48
 70
     1
102
RTVSPropertyOp49
 70
     1
102
RTVSPropertyOp50
 70
     1
102
RTVSPropertyOp51
 70
     0
102
RTVSPropertyOp52
 70
     0
102
RTVSPropertyOp53
 70
     1
102
RTVSPropertyOp54
 70
     1
102
RTVSPropertyOp55
 70
     1
102
RTVSPropertyOp56
 70
     1
102
RTVSPropertyOp57
 70
     1
102
RTVSPropertyOp58
 70
     1
102
RTVSPropertyOp59
 70
     1
102
RTVSPropertyOp60
 70
     1
102
RTVSPropertyOp61
 70
     1
102
RTVSPropertyOp62
 70
     1
  0
XRECORD
  5
39D
102
{ACAD_REACTORS
330
39C
102
}
330
39C
100
AcDbXrecord
280
     1
102
RTVSPost2010Prop28
280
     0
102
RTVSPost2010PropOp28
 70
     1
102
RTVSPost2010Prop29
280
     1
102
RTVSPost2010PropOp29
 70
     1
102
RTVSPost2010Prop30
280
     1
102
RTVSPost2010PropOp30
 70
     1
102
RTVSPost2010Prop31
280
     0
102
RTVSPost2010PropOp31
 70
     1
102
RTVSPost2010Prop32
280
     0
102
RTVSPost2010PropOp32
 70
     1
102
RTVSPost2010Prop33
280
     0
102
RTVSPost2010PropOp33
 70
     1
102
RTVSPost2010Prop34
280
     0
102
RTVSPost2010PropOp34
 70
     1
102
RTVSPost2010Prop35
280
     0
102
RTVSPost2010PropOp35
 70
     1
102
RTVSPost2010Prop36
280
     0
102
RTVSPost2010PropOp36
 70
     1
102
RTVSPost2010Prop37
 90
       50
102
RTVSPost2010PropOp37
 70
     1
102
RTVSPost2010Prop38
140
0.0
102
RTVSPost2010PropOp38
 70
     1
102
RTVSPost2010Prop39
140
1.0
102
RTVSPost2010PropOp39
 70
     1
102
RTVSPost2010Prop40
 90
        0
102
RTVSPost2010PropOp40
 70
     1
102
RTVSPost2010Prop41ColorIndex
 90
       18
102
RTVSPost2010Prop41ColorRGB
 90
        0
102
RTVSPost2010PropOp41
 70
     1
102
RTVSPost2010Prop42
 90
       50
102
RTVSPost2010PropOp42
 70
     1
102
RTVSPost2010Prop43
 90
        3
102
RTVSPost2010PropOp43
 70
     1
102
RTVSPost2010Prop44ColorIndex
 90
        5
102
RTVSPost2010Prop44ColorRGB
 90
      255
102
RTVSPost2010PropOp44
 70
     1
102
RTVSPost2010Prop45
280
     0
102
RTVSPost2010PropOp45
 70
     1
102
RTVSPost2010Prop46
 90
       50
102
RTVSPost2010PropOp46
 70
     1
102
RTVSPost2010Prop47
 90
       50
102
RTVSPost2010PropOp47
 70
     1
102
RTVSPost2010Prop48
 90
       50
102
RTVSPost2010PropOp48
 70
     1
102
RTVSPost2010Prop49
280
     0
102
RTVSPost2010PropOp49
 70
     1
102
RTVSPost2010Prop50
 90
       50
102
RTVSPost2010PropOp50
 70
     1
102
RTVSPost2010Prop51ColorIndex
 90
      256
102
RTVSPost2010Prop51ColorRGB
 90
-16777216
102
RTVSPost2010PropOp51
 70
     0
102
RTVSPost2010Prop52
140
1.0
102
RTVSPost2010PropOp52
 70
     0
102
RTVSPost2010Prop53
 90
        2
102
RTVSPost2010PropOp53
 70
     1
102
RTVSPost2010Prop54
  1
strokes_ogs.tif
102
RTVSPost2010PropOp54
 70
     1
102
RTVSPost2010Prop55
280
     0
102
RTVSPost2010PropOp55
 70
     1
102
RTVSPost2010Prop56
140
1.0
102
RTVSPost2010PropOp56
 70
     1
102
RTVSPost2010Prop57
140
1.0
102
RTVSPost2010PropOp57
 70
     1
102
RTVSPropertyOp0
 70
     1
102
RTVSPropertyOp1
 70
     1
102
RTVSPropertyOp2
 70
     1
102
RTVSPropertyOp3
 70
     1
102
RTVSPropertyOp4
 70
     1
102
RTVSPropertyOp5
 70
     1
102
RTVSPropertyOp6
 70
     1
102
RTVSPropertyOp7
 70
     1
102
RTVSPropertyOp8
 70
     1
102
RTVSPropertyOp9
 70
     1
102
RTVSPropertyOp10
 70
     1
102
RTVSPropertyOp11
 70
     1
102
RTVSPropertyOp12
 70
     1
102
RTVSPropertyOp13
 70
     1
102
RTVSPropertyOp14
 70
     1
102
RTVSPropertyOp15
 70
     1
102
RTVSPropertyOp16
 70
     1
102
RTVSPropertyOp17
 70
     1
102
RTVSPropertyOp18
 70
     1
102
RTVSPropertyOp19
 70
     1
102
RTVSPropertyOp20
 70
     1
102
RTVSPropertyOp21
 70
     1
102
RTVSPropertyOp22
 70
     1
102
RTVSPropertyOp23
 70
     1
102
RTVSPropertyOp24
 70
     1
102
RTVSPropertyOp25
 70
     1
102
RTVSPropertyOp26
 70
     1
102
RTVSPropertyOp27
 70
     1
102
RTVSPropertyOp28
 70
     1
102
RTVSPropertyOp29
 70
     1
102
RTVSPropertyOp30
 70
     1
102
RTVSPropertyOp31
 70
     1
102
RTVSPropertyOp32
 70
     1
102
RTVSPropertyOp33
 70
     1
102
RTVSPropertyOp34
 70
     1
102
RTVSPropertyOp35
 70
     1
102
RTVSPropertyOp36
 70
     1
102
RTVSPropertyOp37
 70
     1
102
RTVSPropertyOp38
 70
     1
102
RTVSPropertyOp39
 70
     1
102
RTVSPropertyOp40
 70
     1
102
RTVSPropertyOp41
 70
     1
102
RTVSPropertyOp42
 70
     1
102
RTVSPropertyOp43
 70
     1
102
RTVSPropertyOp44
 70
     1
102
RTVSPropertyOp45
 70
     1
102
RTVSPropertyOp46
 70
     1
102
RTVSPropertyOp47
 70
     1
102
RTVSPropertyOp48
 70
     1
102
RTVSPropertyOp49
 70
     1
102
RTVSPropertyOp50
 70
     1
102
RTVSPropertyOp51
 70
     0
102
RTVSPropertyOp52
 70
     0
102
RTVSPropertyOp53
 70
     1
102
RTVSPropertyOp54
 70
     1
102
RTVSPropertyOp55
 70
     1
102
RTVSPropertyOp56
 70
     1
102
RTVSPropertyOp57
 70
     1
102
RTVSPropertyOp58
 70
     1
102
RTVSPropertyOp59
 70
     1
102
RTVSPropertyOp60
 70
     1
102
RTVSPropertyOp61
 70
     1
102
RTVSPropertyOp62
 70
     1
  0
XRECORD
  5
39F
102
{ACAD_REACTORS
330
39E
102
}
330
39E
100
AcDbXrecord
280
     1
102
RTVSPost2010Prop28
280
     0
102
RTVSPost2010PropOp28
 70
     1
102
RTVSPost2010Prop29
280
     1
102
RTVSPost2010PropOp29
 70
     1
102
RTVSPost2010Prop30
280
     1
102
RTVSPost2010PropOp30
 70
     1
102
RTVSPost2010Prop31
280
     0
102
RTVSPost2010PropOp31
 70
     1
102
RTVSPost2010Prop32
280
     0
102
RTVSPost2010PropOp32
 70
     1
102
RTVSPost2010Prop33
280
     0
102
RTVSPost2010PropOp33
 70
     1
102
RTVSPost2010Prop34
280
     0
102
RTVSPost2010PropOp34
 70
     1
102
RTVSPost2010Prop35
280
     0
102
RTVSPost2010PropOp35
 70
     1
102
RTVSPost2010Prop36
280
     0
102
RTVSPost2010PropOp36
 70
     1
102
RTVSPost2010Prop37
 90
       50
102
RTVSPost2010PropOp37
 70
     1
102
RTVSPost2010Prop38
140
0.0
102
RTVSPost2010PropOp38
 70
     1
102
RTVSPost2010Prop39
140
1.0
102
RTVSPost2010PropOp39
 70
     1
102
RTVSPost2010Prop40
 90
        0
102
RTVSPost2010PropOp40
 70
     1
102
RTVSPost2010Prop41ColorIndex
 90
       18
102
RTVSPost2010Prop41ColorRGB
 90
        0
102
RTVSPost2010PropOp41
 70
     1
102
RTVSPost2010Prop42
 90
       50
102
RTVSPost2010PropOp42
 70
     1
102
RTVSPost2010Prop43
 90
        3
102
RTVSPost2010PropOp43
 70
     1
102
RTVSPost2010Prop44ColorIndex
 90
        5
102
RTVSPost2010Prop44ColorRGB
 90
      255
102
RTVSPost2010PropOp44
 70
     1
102
RTVSPost2010Prop45
280
     0
102
RTVSPost2010PropOp45
 70
     1
102
RTVSPost2010Prop46
 90
       50
102
RTVSPost2010PropOp46
 70
     1
102
RTVSPost2010Prop47
 90
       50
102
RTVSPost2010PropOp47
 70
     1
102
RTVSPost2010Prop48
 90
       50
102
RTVSPost2010PropOp48
 70
     1
102
RTVSPost2010Prop49
280
     0
102
RTVSPost2010PropOp49
 70
     1
102
RTVSPost2010Prop50
 90
       50
102
RTVSPost2010PropOp50
 70
     1
102
RTVSPost2010Prop51ColorIndex
 90
      256
102
RTVSPost2010Prop51ColorRGB
 90
-16777216
102
RTVSPost2010PropOp51
 70
     0
102
RTVSPost2010Prop52
140
1.0
102
RTVSPost2010PropOp52
 70
     0
102
RTVSPost2010Prop53
 90
        2
102
RTVSPost2010PropOp53
 70
     1
102
RTVSPost2010Prop54
  1
strokes_ogs.tif
102
RTVSPost2010PropOp54
 70
     1
102
RTVSPost2010Prop55
280
     0
102
RTVSPost2010PropOp55
 70
     1
102
RTVSPost2010Prop56
140
1.0
102
RTVSPost2010PropOp56
 70
     1
102
RTVSPost2010Prop57
140
1.0
102
RTVSPost2010PropOp57
 70
     1
102
RTVSPropertyOp0
 70
     1
102
RTVSPropertyOp1
 70
     1
102
RTVSPropertyOp2
 70
     1
102
RTVSPropertyOp3
 70
     1
102
RTVSPropertyOp4
 70
     1
102
RTVSPropertyOp5
 70
     1
102
RTVSPropertyOp6
 70
     1
102
RTVSPropertyOp7
 70
     1
102
RTVSPropertyOp8
 70
     1
102
RTVSPropertyOp9
 70
     1
102
RTVSPropertyOp10
 70
     1
102
RTVSPropertyOp11
 70
     1
102
RTVSPropertyOp12
 70
     1
102
RTVSPropertyOp13
 70
     1
102
RTVSPropertyOp14
 70
     1
102
RTVSPropertyOp15
 70
     1
102
RTVSPropertyOp16
 70
     1
102
RTVSPropertyOp17
 70
     1
102
RTVSPropertyOp18
 70
     1
102
RTVSPropertyOp19
 70
     1
102
RTVSPropertyOp20
 70
     1
102
RTVSPropertyOp21
 70
     1
102
RTVSPropertyOp22
 70
     1
102
RTVSPropertyOp23
 70
     1
102
RTVSPropertyOp24
 70
     1
102
RTVSPropertyOp25
 70
     1
102
RTVSPropertyOp26
 70
     1
102
RTVSPropertyOp27
 70
     1
102
RTVSPropertyOp28
 70
     1
102
RTVSPropertyOp29
 70
     1
102
RTVSPropertyOp30
 70
     1
102
RTVSPropertyOp31
 70
     1
102
RTVSPropertyOp32
 70
     1
102
RTVSPropertyOp33
 70
     1
102
RTVSPropertyOp34
 70
     1
102
RTVSPropertyOp35
 70
     1
102
RTVSPropertyOp36
 70
     1
102
RTVSPropertyOp37
 70
     1
102
RTVSPropertyOp38
 70
     1
102
RTVSPropertyOp39
 70
     1
102
RTVSPropertyOp40
 70
     1
102
RTVSPropertyOp41
 70
     1
102
RTVSPropertyOp42
 70
     1
102
RTVSPropertyOp43
 70
     1
102
RTVSPropertyOp44
 70
     1
102
RTVSPropertyOp45
 70
     1
102
RTVSPropertyOp46
 70
     1
102
RTVSPropertyOp47
 70
     1
102
RTVSPropertyOp48
 70
     1
102
RTVSPropertyOp49
 70
     1
102
RTVSPropertyOp50
 70
     1
102
RTVSPropertyOp51
 70
     0
102
RTVSPropertyOp52
 70
     0
102
RTVSPropertyOp53
 70
     1
102
RTVSPropertyOp54
 70
     1
102
RTVSPropertyOp55
 70
     1
102
RTVSPropertyOp56
 70
     1
102
RTVSPropertyOp57
 70
     1
102
RTVSPropertyOp58
 70
     1
102
RTVSPropertyOp59
 70
     1
102
RTVSPropertyOp60
 70
     1
102
RTVSPropertyOp61
 70
     1
102
RTVSPropertyOp62
 70
     1
  0
XRECORD
  5
38F
102
{ACAD_REACTORS
330
38E
102
}
330
38E
100
AcDbXrecord
280
     1
102
RTVSPost2010Prop28
280
     0
102
RTVSPost2010PropOp28
 70
     1
102
RTVSPost2010Prop29
280
     1
102
RTVSPost2010PropOp29
 70
     1
102
RTVSPost2010Prop30
280
     1
102
RTVSPost2010PropOp30
 70
     1
102
RTVSPost2010Prop31
280
     0
102
RTVSPost2010PropOp31
 70
     1
102
RTVSPost2010Prop32
280
     0
102
RTVSPost2010PropOp32
 70
     1
102
RTVSPost2010Prop33
280
     0
102
RTVSPost2010PropOp33
 70
     1
102
RTVSPost2010Prop34
280
     0
102
RTVSPost2010PropOp34
 70
     1
102
RTVSPost2010Prop35
280
     0
102
RTVSPost2010PropOp35
 70
     1
102
RTVSPost2010Prop36
280
     0
102
RTVSPost2010PropOp36
 70
     1
102
RTVSPost2010Prop37
 90
       50
102
RTVSPost2010PropOp37
 70
     1
102
RTVSPost2010Prop38
140
0.0
102
RTVSPost2010PropOp38
 70
     1
102
RTVSPost2010Prop39
140
1.0
102
RTVSPost2010PropOp39
 70
     1
102
RTVSPost2010Prop40
 90
        0
102
RTVSPost2010PropOp40
 70
     1
102
RTVSPost2010Prop41ColorIndex
 90
       18
102
RTVSPost2010Prop41ColorRGB
 90
        0
102
RTVSPost2010PropOp41
 70
     1
102
RTVSPost2010Prop42
 90
       50
102
RTVSPost2010PropOp42
 70
     1
102
RTVSPost2010Prop43
 90
        3
102
RTVSPost2010PropOp43
 70
     1
102
RTVSPost2010Prop44ColorIndex
 90
        5
102
RTVSPost2010Prop44ColorRGB
 90
      255
102
RTVSPost2010PropOp44
 70
     1
102
RTVSPost2010Prop45
280
     0
102
RTVSPost2010PropOp45
 70
     1
102
RTVSPost2010Prop46
 90
       50
102
RTVSPost2010PropOp46
 70
     1
102
RTVSPost2010Prop47
 90
       50
102
RTVSPost2010PropOp47
 70
     1
102
RTVSPost2010Prop48
 90
       50
102
RTVSPost2010PropOp48
 70
     1
102
RTVSPost2010Prop49
280
     0
102
RTVSPost2010PropOp49
 70
     1
102
RTVSPost2010Prop50
 90
       50
102
RTVSPost2010PropOp50
 70
     1
102
RTVSPost2010Prop51ColorIndex
 90
      256
102
RTVSPost2010Prop51ColorRGB
 90
-16777216
102
RTVSPost2010PropOp51
 70
     0
102
RTVSPost2010Prop52
140
1.0
102
RTVSPost2010PropOp52
 70
     0
102
RTVSPost2010Prop53
 90
        2
102
RTVSPost2010PropOp53
 70
     1
102
RTVSPost2010Prop54
  1
strokes_ogs.tif
102
RTVSPost2010PropOp54
 70
     1
102
RTVSPost2010Prop55
280
     0
102
RTVSPost2010PropOp55
 70
     1
102
RTVSPost2010Prop56
140
1.0
102
RTVSPost2010PropOp56
 70
     1
102
RTVSPost2010Prop57
140
1.0
102
RTVSPost2010PropOp57
 70
     1
102
RTVSPropertyOp0
 70
     1
102
RTVSPropertyOp1
 70
     1
102
RTVSPropertyOp2
 70
     1
102
RTVSPropertyOp3
 70
     1
102
RTVSPropertyOp4
 70
     1
102
RTVSPropertyOp5
 70
     1
102
RTVSPropertyOp6
 70
     1
102
RTVSPropertyOp7
 70
     1
102
RTVSPropertyOp8
 70
     1
102
RTVSPropertyOp9
 70
     1
102
RTVSPropertyOp10
 70
     1
102
RTVSPropertyOp11
 70
     1
102
RTVSPropertyOp12
 70
     1
102
RTVSPropertyOp13
 70
     1
102
RTVSPropertyOp14
 70
     1
102
RTVSPropertyOp15
 70
     1
102
RTVSPropertyOp16
 70
     1
102
RTVSPropertyOp17
 70
     1
102
RTVSPropertyOp18
 70
     1
102
RTVSPropertyOp19
 70
     1
102
RTVSPropertyOp20
 70
     1
102
RTVSPropertyOp21
 70
     1
102
RTVSPropertyOp22
 70
     1
102
RTVSPropertyOp23
 70
     1
102
RTVSPropertyOp24
 70
     1
102
RTVSPropertyOp25
 70
     1
102
RTVSPropertyOp26
 70
     1
102
RTVSPropertyOp27
 70
     1
102
RTVSPropertyOp28
 70
     1
102
RTVSPropertyOp29
 70
     1
102
RTVSPropertyOp30
 70
     1
102
RTVSPropertyOp31
 70
     1
102
RTVSPropertyOp32
 70
     1
102
RTVSPropertyOp33
 70
     1
102
RTVSPropertyOp34
 70
     1
102
RTVSPropertyOp35
 70
     1
102
RTVSPropertyOp36
 70
     1
102
RTVSPropertyOp37
 70
     1
102
RTVSPropertyOp38
 70
     1
102
RTVSPropertyOp39
 70
     1
102
RTVSPropertyOp40
 70
     1
102
RTVSPropertyOp41
 70
     1
102
RTVSPropertyOp42
 70
     1
102
RTVSPropertyOp43
 70
     1
102
RTVSPropertyOp44
 70
     1
102
RTVSPropertyOp45
 70
     1
102
RTVSPropertyOp46
 70
     1
102
RTVSPropertyOp47
 70
     1
102
RTVSPropertyOp48
 70
     1
102
RTVSPropertyOp49
 70
     1
102
RTVSPropertyOp50
 70
     1
102
RTVSPropertyOp51
 70
     0
102
RTVSPropertyOp52
 70
     0
102
RTVSPropertyOp53
 70
     1
102
RTVSPropertyOp54
 70
     1
102
RTVSPropertyOp55
 70
     1
102
RTVSPropertyOp56
 70
     1
102
RTVSPropertyOp57
 70
     1
102
RTVSPropertyOp58
 70
     1
102
RTVSPropertyOp59
 70
     1
102
RTVSPropertyOp60
 70
     1
102
RTVSPropertyOp61
 70
     1
102
RTVSPropertyOp62
 70
     1
  0
XRECORD
  5
381
102
{ACAD_REACTORS
330
380
102
}
330
380
100
AcDbXrecord
280
     1
102
RTVSPost2010Prop28
280
     0
102
RTVSPost2010PropOp28
 70
     1
102
RTVSPost2010Prop29
280
     1
102
RTVSPost2010PropOp29
 70
     1
102
RTVSPost2010Prop30
280
     1
102
RTVSPost2010PropOp30
 70
     1
102
RTVSPost2010Prop31
280
     0
102
RTVSPost2010PropOp31
 70
     1
102
RTVSPost2010Prop32
280
     0
102
RTVSPost2010PropOp32
 70
     1
102
RTVSPost2010Prop33
280
     0
102
RTVSPost2010PropOp33
 70
     1
102
RTVSPost2010Prop34
280
     0
102
RTVSPost2010PropOp34
 70
     1
102
RTVSPost2010Prop35
280
     0
102
RTVSPost2010PropOp35
 70
     1
102
RTVSPost2010Prop36
280
     0
102
RTVSPost2010PropOp36
 70
     1
102
RTVSPost2010Prop37
 90
       50
102
RTVSPost2010PropOp37
 70
     1
102
RTVSPost2010Prop38
140
0.0
102
RTVSPost2010PropOp38
 70
     1
102
RTVSPost2010Prop39
140
1.0
102
RTVSPost2010PropOp39
 70
     1
102
RTVSPost2010Prop40
 90
        0
102
RTVSPost2010PropOp40
 70
     1
102
RTVSPost2010Prop41ColorIndex
 90
       18
102
RTVSPost2010Prop41ColorRGB
 90
        0
102
RTVSPost2010PropOp41
 70
     1
102
RTVSPost2010Prop42
 90
       50
102
RTVSPost2010PropOp42
 70
     1
102
RTVSPost2010Prop43
 90
        3
102
RTVSPost2010PropOp43
 70
     1
102
RTVSPost2010Prop44ColorIndex
 90
        5
102
RTVSPost2010Prop44ColorRGB
 90
      255
102
RTVSPost2010PropOp44
 70
     1
102
RTVSPost2010Prop45
280
     0
102
RTVSPost2010PropOp45
 70
     1
102
RTVSPost2010Prop46
 90
       50
102
RTVSPost2010PropOp46
 70
     1
102
RTVSPost2010Prop47
 90
       50
102
RTVSPost2010PropOp47
 70
     1
102
RTVSPost2010Prop48
 90
       50
102
RTVSPost2010PropOp48
 70
     1
102
RTVSPost2010Prop49
280
     0
102
RTVSPost2010PropOp49
 70
     1
102
RTVSPost2010Prop50
 90
       50
102
RTVSPost2010PropOp50
 70
     1
102
RTVSPost2010Prop51ColorIndex
 90
      256
102
RTVSPost2010Prop51ColorRGB
 90
-16777216
102
RTVSPost2010PropOp51
 70
     0
102
RTVSPost2010Prop52
140
1.0
102
RTVSPost2010PropOp52
 70
     0
102
RTVSPost2010Prop53
 90
        2
102
RTVSPost2010PropOp53
 70
     1
102
RTVSPost2010Prop54
  1
strokes_ogs.tif
102
RTVSPost2010PropOp54
 70
     1
102
RTVSPost2010Prop55
280
     0
102
RTVSPost2010PropOp55
 70
     1
102
RTVSPost2010Prop56
140
1.0
102
RTVSPost2010PropOp56
 70
     1
102
RTVSPost2010Prop57
140
1.0
102
RTVSPost2010PropOp57
 70
     1
102
RTVSPropertyOp0
 70
     1
102
RTVSPropertyOp1
 70
     1
102
RTVSPropertyOp2
 70
     1
102
RTVSPropertyOp3
 70
     1
102
RTVSPropertyOp4
 70
     1
102
RTVSPropertyOp5
 70
     1
102
RTVSPropertyOp6
 70
     1
102
RTVSPropertyOp7
 70
     1
102
RTVSPropertyOp8
 70
     1
102
RTVSPropertyOp9
 70
     1
102
RTVSPropertyOp10
 70
     1
102
RTVSPropertyOp11
 70
     1
102
RTVSPropertyOp12
 70
     1
102
RTVSPropertyOp13
 70
     1
102
RTVSPropertyOp14
 70
     1
102
RTVSPropertyOp15
 70
     1
102
RTVSPropertyOp16
 70
     1
102
RTVSPropertyOp17
 70
     1
102
RTVSPropertyOp18
 70
     1
102
RTVSPropertyOp19
 70
     1
102
RTVSPropertyOp20
 70
     1
102
RTVSPropertyOp21
 70
     1
102
RTVSPropertyOp22
 70
     1
102
RTVSPropertyOp23
 70
     1
102
RTVSPropertyOp24
 70
     1
102
RTVSPropertyOp25
 70
     1
102
RTVSPropertyOp26
 70
     1
102
RTVSPropertyOp27
 70
     1
102
RTVSPropertyOp28
 70
     1
102
RTVSPropertyOp29
 70
     1
102
RTVSPropertyOp30
 70
     1
102
RTVSPropertyOp31
 70
     1
102
RTVSPropertyOp32
 70
     1
102
RTVSPropertyOp33
 70
     1
102
RTVSPropertyOp34
 70
     1
102
RTVSPropertyOp35
 70
     1
102
RTVSPropertyOp36
 70
     1
102
RTVSPropertyOp37
 70
     1
102
RTVSPropertyOp38
 70
     1
102
RTVSPropertyOp39
 70
     1
102
RTVSPropertyOp40
 70
     1
102
RTVSPropertyOp41
 70
     1
102
RTVSPropertyOp42
 70
     1
102
RTVSPropertyOp43
 70
     1
102
RTVSPropertyOp44
 70
     1
102
RTVSPropertyOp45
 70
     1
102
RTVSPropertyOp46
 70
     1
102
RTVSPropertyOp47
 70
     1
102
RTVSPropertyOp48
 70
     1
102
RTVSPropertyOp49
 70
     1
102
RTVSPropertyOp50
 70
     1
102
RTVSPropertyOp51
 70
     0
102
RTVSPropertyOp52
 70
     0
102
RTVSPropertyOp53
 70
     1
102
RTVSPropertyOp54
 70
     1
102
RTVSPropertyOp55
 70
     1
102
RTVSPropertyOp56
 70
     1
102
RTVSPropertyOp57
 70
     1
102
RTVSPropertyOp58
 70
     1
102
RTVSPropertyOp59
 70
     1
102
RTVSPropertyOp60
 70
     1
102
RTVSPropertyOp61
 70
     1
102
RTVSPropertyOp62
 70
     1
  0
XRECORD
  5
3A1
102
{ACAD_REACTORS
330
3A0
102
}
330
3A0
100
AcDbXrecord
280
     1
102
RTVSPost2010Prop28
280
     0
102
RTVSPost2010PropOp28
 70
     1
102
RTVSPost2010Prop29
280
     1
102
RTVSPost2010PropOp29
 70
     1
102
RTVSPost2010Prop30
280
     1
102
RTVSPost2010PropOp30
 70
     1
102
RTVSPost2010Prop31
280
     0
102
RTVSPost2010PropOp31
 70
     1
102
RTVSPost2010Prop32
280
     0
102
RTVSPost2010PropOp32
 70
     1
102
RTVSPost2010Prop33
280
     0
102
RTVSPost2010PropOp33
 70
     1
102
RTVSPost2010Prop34
280
     0
102
RTVSPost2010PropOp34
 70
     1
102
RTVSPost2010Prop35
280
     0
102
RTVSPost2010PropOp35
 70
     1
102
RTVSPost2010Prop36
280
     0
102
RTVSPost2010PropOp36
 70
     1
102
RTVSPost2010Prop37
 90
       50
102
RTVSPost2010PropOp37
 70
     1
102
RTVSPost2010Prop38
140
0.0
102
RTVSPost2010PropOp38
 70
     1
102
RTVSPost2010Prop39
140
1.0
102
RTVSPost2010PropOp39
 70
     1
102
RTVSPost2010Prop40
 90
        0
102
RTVSPost2010PropOp40
 70
     1
102
RTVSPost2010Prop41ColorIndex
 90
       18
102
RTVSPost2010Prop41ColorRGB
 90
        0
102
RTVSPost2010PropOp41
 70
     1
102
RTVSPost2010Prop42
 90
       50
102
RTVSPost2010PropOp42
 70
     1
102
RTVSPost2010Prop43
 90
        3
102
RTVSPost2010PropOp43
 70
     1
102
RTVSPost2010Prop44ColorIndex
 90
        5
102
RTVSPost2010Prop44ColorRGB
 90
      255
102
RTVSPost2010PropOp44
 70
     1
102
RTVSPost2010Prop45
280
     0
102
RTVSPost2010PropOp45
 70
     1
102
RTVSPost2010Prop46
 90
       50
102
RTVSPost2010PropOp46
 70
     1
102
RTVSPost2010Prop47
 90
       50
102
RTVSPost2010PropOp47
 70
     1
102
RTVSPost2010Prop48
 90
       50
102
RTVSPost2010PropOp48
 70
     1
102
RTVSPost2010Prop49
280
     0
102
RTVSPost2010PropOp49
 70
     1
102
RTVSPost2010Prop50
 90
       50
102
RTVSPost2010PropOp50
 70
     1
102
RTVSPost2010Prop51ColorIndex
 90
      256
102
RTVSPost2010Prop51ColorRGB
 90
-16777216
102
RTVSPost2010PropOp51
 70
     0
102
RTVSPost2010Prop52
140
1.0
102
RTVSPost2010PropOp52
 70
     0
102
RTVSPost2010Prop53
 90
        2
102
RTVSPost2010PropOp53
 70
     1
102
RTVSPost2010Prop54
  1
strokes_ogs.tif
102
RTVSPost2010PropOp54
 70
     1
102
RTVSPost2010Prop55
280
     0
102
RTVSPost2010PropOp55
 70
     1
102
RTVSPost2010Prop56
140
1.0
102
RTVSPost2010PropOp56
 70
     1
102
RTVSPost2010Prop57
140
1.0
102
RTVSPost2010PropOp57
 70
     1
102
RTVSPropertyOp0
 70
     1
102
RTVSPropertyOp1
 70
     1
102
RTVSPropertyOp2
 70
     1
102
RTVSPropertyOp3
 70
     1
102
RTVSPropertyOp4
 70
     1
102
RTVSPropertyOp5
 70
     1
102
RTVSPropertyOp6
 70
     1
102
RTVSPropertyOp7
 70
     1
102
RTVSPropertyOp8
 70
     1
102
RTVSPropertyOp9
 70
     1
102
RTVSPropertyOp10
 70
     1
102
RTVSPropertyOp11
 70
     1
102
RTVSPropertyOp12
 70
     1
102
RTVSPropertyOp13
 70
     1
102
RTVSPropertyOp14
 70
     1
102
RTVSPropertyOp15
 70
     1
102
RTVSPropertyOp16
 70
     1
102
RTVSPropertyOp17
 70
     1
102
RTVSPropertyOp18
 70
     1
102
RTVSPropertyOp19
 70
     1
102
RTVSPropertyOp20
 70
     1
102
RTVSPropertyOp21
 70
     1
102
RTVSPropertyOp22
 70
     1
102
RTVSPropertyOp23
 70
     1
102
RTVSPropertyOp24
 70
     1
102
RTVSPropertyOp25
 70
     1
102
RTVSPropertyOp26
 70
     1
102
RTVSPropertyOp27
 70
     1
102
RTVSPropertyOp28
 70
     1
102
RTVSPropertyOp29
 70
     1
102
RTVSPropertyOp30
 70
     1
102
RTVSPropertyOp31
 70
     1
102
RTVSPropertyOp32
 70
     1
102
RTVSPropertyOp33
 70
     1
102
RTVSPropertyOp34
 70
     1
102
RTVSPropertyOp35
 70
     1
102
RTVSPropertyOp36
 70
     1
102
RTVSPropertyOp37
 70
     1
102
RTVSPropertyOp38
 70
     1
102
RTVSPropertyOp39
 70
     1
102
RTVSPropertyOp40
 70
     1
102
RTVSPropertyOp41
 70
     1
102
RTVSPropertyOp42
 70
     1
102
RTVSPropertyOp43
 70
     1
102
RTVSPropertyOp44
 70
     1
102
RTVSPropertyOp45
 70
     1
102
RTVSPropertyOp46
 70
     1
102
RTVSPropertyOp47
 70
     1
102
RTVSPropertyOp48
 70
     1
102
RTVSPropertyOp49
 70
     1
102
RTVSPropertyOp50
 70
     1
102
RTVSPropertyOp51
 70
     0
102
RTVSPropertyOp52
 70
     0
102
RTVSPropertyOp53
 70
     1
102
RTVSPropertyOp54
 70
     1
102
RTVSPropertyOp55
 70
     1
102
RTVSPropertyOp56
 70
     1
102
RTVSPropertyOp57
 70
     1
102
RTVSPropertyOp58
 70
     1
102
RTVSPropertyOp59
 70
     1
102
RTVSPropertyOp60
 70
     1
102
RTVSPropertyOp61
 70
     1
102
RTVSPropertyOp62
 70
     1
  0
ENDSEC
  0
EOF
