  0
SECTION
  2
HEADER
  9
$ACADVER
  1
AC1018
  9
$ACADMAINTVER
 70
   104
  9
$DWGCODEPAGE
  3
ANSI_1250
  9
$LASTSAVEDBY
  1
wq7085
  9
$INSBASE
 10
0.0
 20
0.0
 30
0.0
  9
$EXTMIN
 10
187.2502013333333
 20
118.534924
 30
0.0
  9
$EXTMAX
 10
430.913223
 20
341.6963336666668
 30
0.0
  9
$LIMMIN
 10
-0.5
 20
-0.5
  9
$LIMMAX
 10
5.0
 20
5.0
  9
$ORTHOMODE
 70
     0
  9
$REGENMODE
 70
     1
  9
$FILLMODE
 70
     1
  9
$QTEXTMODE
 70
     0
  9
$MIRRTEXT
 70
     1
  9
$LTSCALE
 40
1.0
  9
$ATTMODE
 70
     1
  9
$TEXTSIZE
 40
0.2
  9
$TRACEWID
 40
0.05
  9
$TEXTSTYLE
  7
Standard
  9
$CLAYER
  8
0
  9
$CELTYPE
  6
ByLayer
  9
$CECOLOR
 62
   256
  9
$CELTSCALE
 40
1.0
  9
$DISPSILH
 70
     0
  9
$DIMSCALE
 40
1.0
  9
$DIMASZ
 40
0.18
  9
$DIMEXO
 40
0.0625
  9
$DIMDLI
 40
0.38
  9
$DIMRND
 40
0.0
  9
$DIMDLE
 40
0.0
  9
$DIMEXE
 40
0.18
  9
$DIMTP
 40
0.0
  9
$DIMTM
 40
0.0
  9
$DIMTXT
 40
0.18
  9
$DIMCEN
 40
0.09
  9
$DIMTSZ
 40
0.0
  9
$DIMTOL
 70
     0
  9
$DIMLIM
 70
     0
  9
$DIMTIH
 70
     1
  9
$DIMTOH
 70
     1
  9
$DIMSE1
 70
     0
  9
$DIMSE2
 70
     0
  9
$DIMTAD
 70
     0
  9
$DIMZIN
 70
     0
  9
$DIMBLK
  1

  9
$DIMASO
 70
     1
  9
$DIMSHO
 70
     1
  9
$DIMPOST
  1

  9
$DIMAPOST
  1

  9
$DIMALT
 70
     0
  9
$DIMALTD
 70
     2
  9
$DIMALTF
 40
25.4
  9
$DIMLFAC
 40
1.0
  9
$DIMTOFL
 70
     0
  9
$DIMTVP
 40
0.0
  9
$DIMTIX
 70
     0
  9
$DIMSOXD
 70
     0
  9
$DIMSAH
 70
     0
  9
$DIMBLK1
  1

  9
$DIMBLK2
  1

  9
$DIMSTYLE
  2
Standard
  9
$DIMCLRD
 70
     0
  9
$DIMCLRE
 70
     0
  9
$DIMCLRT
 70
     0
  9
$DIMTFAC
 40
1.0
  9
$DIMGAP
 40
0.09
  9
$DIMJUST
 70
     0
  9
$DIMSD1
 70
     0
  9
$DIMSD2
 70
     0
  9
$DIMTOLJ
 70
     1
  9
$DIMTZIN
 70
     0
  9
$DIMALTZ
 70
     0
  9
$DIMALTTZ
 70
     0
  9
$DIMUPT
 70
     0
  9
$DIMDEC
 70
     4
  9
$DIMTDEC
 70
     4
  9
$DIMALTU
 70
     2
  9
$DIMALTTD
 70
     2
  9
$DIMTXSTY
  7
Standard
  9
$DIMAUNIT
 70
     0
  9
$DIMADEC
 70
     0
  9
$DIMALTRND
 40
0.0
  9
$DIMAZIN
 70
     0
  9
$DIMDSEP
 70
    46
  9
$DIMATFIT
 70
     3
  9
$DIMFRAC
 70
     0
  9
$DIMLDRBLK
  1

  9
$DIMLUNIT
 70
     2
  9
$DIMLWD
 70
    -2
  9
$DIMLWE
 70
    -2
  9
$DIMTMOVE
 70
     0
  9
$LUNITS
 70
     2
  9
$LUPREC
 70
     4
  9
$SKETCHINC
 40
0.1
  9
$FILLETRAD
 40
0.5
  9
$AUNITS
 70
     0
  9
$AUPREC
 70
     0
  9
$MENU
  1
.
  9
$ELEVATION
 40
0.0
  9
$PELEVATION
 40
0.0
  9
$THICKNESS
 40
0.0
  9
$LIMCHECK
 70
     0
  9
$CHAMFERA
 40
0.0
  9
$CHAMFERB
 40
0.0
  9
$CHAMFERC
 40
0.0
  9
$CHAMFERD
 40
0.0
  9
$SKPOLY
 70
     0
  9
$TDCREATE
 40
2459089.295856482
  9
$TDUCREATE
 40
2459089.212528831
  9
$TDUPDATE
 40
2459089.297789352
  9
$TDUUPDATE
 40
2459089.214456019
  9
$TDINDWG
 40
0.0005439931
  9
$TDUSRTIMER
 40
0.0005439931
  9
$USRTIMER
 70
     1
  9
$ANGBASE
 50
0.0
  9
$ANGDIR
 70
     0
  9
$PDMODE
 70
     0
  9
$PDSIZE
 40
0.0
  9
$PLINEWID
 40
0.0
  9
$SPLFRAME
 70
     0
  9
$SPLINETYPE
 70
     6
  9
$SPLINESEGS
 70
     8
  9
$HANDSEED
  5
39C
  9
$SURFTAB1
 70
     6
  9
$SURFTAB2
 70
     6
  9
$SURFTYPE
 70
     6
  9
$SURFU
 70
     6
  9
$SURFV
 70
     6
  9
$UCSBASE
  2

  9
$UCSNAME
  2

  9
$UCSORG
 10
274.404842
 20
288.907994
 30
0.0
  9
$UCSXDIR
 10
1.0
 20
0.0
 30
0.0
  9
$UCSYDIR
 10
0.0
 20
1.0
 30
0.0
  9
$UCSORTHOREF
  2

  9
$UCSORTHOVIEW
 70
     0
  9
$UCSORGTOP
 10
0.0
 20
0.0
 30
0.0
  9
$UCSORGBOTTOM
 10
0.0
 20
0.0
 30
0.0
  9
$UCSORGLEFT
 10
0.0
 20
0.0
 30
0.0
  9
$UCSORGRIGHT
 10
0.0
 20
0.0
 30
0.0
  9
$UCSORGFRONT
 10
0.0
 20
0.0
 30
0.0
  9
$UCSORGBACK
 10
0.0
 20
0.0
 30
0.0
  9
$PUCSBASE
  2

  9
$PUCSNAME
  2

  9
$PUCSORG
 10
0.0
 20
0.0
 30
0.0
  9
$PUCSXDIR
 10
1.0
 20
0.0
 30
0.0
  9
$PUCSYDIR
 10
0.0
 20
1.0
 30
0.0
  9
$PUCSORTHOREF
  2

  9
$PUCSORTHOVIEW
 70
     0
  9
$PUCSORGTOP
 10
0.0
 20
0.0
 30
0.0
  9
$PUCSORGBOTTOM
 10
0.0
 20
0.0
 30
0.0
  9
$PUCSORGLEFT
 10
0.0
 20
0.0
 30
0.0
  9
$PUCSORGRIGHT
 10
0.0
 20
0.0
 30
0.0
  9
$PUCSORGFRONT
 10
0.0
 20
0.0
 30
0.0
  9
$PUCSORGBACK
 10
0.0
 20
0.0
 30
0.0
  9
$USERI1
 70
     0
  9
$USERI2
 70
     0
  9
$USERI3
 70
     0
  9
$USERI4
 70
     0
  9
$USERI5
 70
     0
  9
$USERR1
 40
0.0
  9
$USERR2
 40
0.0
  9
$USERR3
 40
0.0
  9
$USERR4
 40
0.0
  9
$USERR5
 40
0.0
  9
$WORLDVIEW
 70
     1
  9
$SHADEDGE
 70
     3
  9
$SHADEDIF
 70
    70
  9
$TILEMODE
 70
     1
  9
$MAXACTVP
 70
    64
  9
$PINSBASE
 10
0.0
 20
0.0
 30
0.0
  9
$PLIMCHECK
 70
     0
  9
$PEXTMIN
 10
-0.5
 20
-0.5
 30
-0.5
  9
$PEXTMAX
 10
5.0
 20
5.0
 30
5.0
  9
$PLIMMIN
 10
-0.5
 20
-0.5
  9
$PLIMMAX
 10
5.0
 20
5.0
  9
$UNITMODE
 70
     0
  9
$VISRETAIN
 70
     1
  9
$PLINEGEN
 70
     0
  9
$PSLTSCALE
 70
     1
  9
$TREEDEPTH
 70
  3020
  9
$CMLSTYLE
  2
Standard
  9
$CMLJUST
 70
     0
  9
$CMLSCALE
 40
1.0
  9
$PROXYGRAPHICS
 70
     1
  9
$MEASUREMENT
 70
     1
  9
$CELWEIGHT
370
    13
  9
$ENDCAPS
280
     0
  9
$JOINSTYLE
280
     0
  9
$LWDISPLAY
290
     0
  9
$INSUNITS
 70
     4
  9
$HYPERLINKBASE
  1

  9
$STYLESHEET
  1

  9
$XEDIT
290
     1
  9
$CEPSNTYPE
380
     0
  9
$PSTYLEMODE
290
     1
  9
$FINGERPRINTGUID
  2
{AE7EF4CE-92B8-489A-A624-7FD3F55946E5}
  9
$VERSIONGUID
  2
{7279EBD0-2C7F-E843-A0BA-48CE650DA4F1}
  9
$EXTNAMES
290
     1
  9
$PSVPSCALE
 40
0.0
  9
$OLESTARTUP
290
     0
  9
$SORTENTS
280
   127
  9
$INDEXCTL
280
     0
  9
$HIDETEXT
280
     1
  9
$XCLIPFRAME
290
     0
  9
$HALOGAP
280
     0
  9
$OBSCOLOR
 70
   257
  9
$OBSLTYPE
280
     0
  9
$INTERSECTIONDISPLAY
280
     0
  9
$INTERSECTIONCOLOR
 70
   257
  9
$DIMASSOC
280
     2
  9
$PROJECTNAME
  1

  0
ENDSEC
  0
SECTION
  2
CLASSES
  0
CLASS
  1
ACDBDICTIONARYWDFLT
  2
AcDbDictionaryWithDefault
  3
ObjectDBX Classes
 90
        0
 91
        1
280
     0
281
     0
  0
CLASS
  1
VISUALSTYLE
  2
AcDbVisualStyle
  3
ObjectDBX Classes
 90
     4095
 91
       24
280
     0
281
     0
  0
CLASS
  1
MATERIAL
  2
AcDbMaterial
  3
ObjectDBX Classes
 90
     1153
 91
        3
280
     0
281
     0
  0
CLASS
  1
SCALE
  2
AcDbScale
  3
ObjectDBX Classes
 90
     1153
 91
       33
280
     0
281
     0
  0
CLASS
  1
TABLESTYLE
  2
AcDbTableStyle
  3
ObjectDBX Classes
 90
     4095
 91
        1
280
     0
281
     0
  0
CLASS
  1
MLEADERSTYLE
  2
AcDbMLeaderStyle
  3
ACDB_MLEADERSTYLE_CLASS
 90
     4095
 91
        1
280
     0
281
     0
  0
CLASS
  1
SUN
  2
AcDbSun
  3
SCENEOE
 90
     1153
 91
        0
280
     0
281
     0
  0
CLASS
  1
DIMASSOC
  2
AcDbDimAssoc
  3
"AcDbDimAssoc|Product Desc:     AcDim ARX App For Dimension|Company:          Autodesk, Inc.|WEB Address:      www.autodesk.com"
 90
        0
 91
        7
280
     0
281
     0
  0
CLASS
  1
DICTIONARYVAR
  2
AcDbDictionaryVar
  3
ObjectDBX Classes
 90
        0
 91
        8
280
     0
281
     0
  0
CLASS
  1
CELLSTYLEMAP
  2
AcDbCellStyleMap
  3
ObjectDBX Classes
 90
     1152
 91
        2
280
     0
281
     0
  0
CLASS
  1
ACDBSECTIONVIEWSTYLE
  2
AcDbSectionViewStyle
  3
ObjectDBX Classes
 90
     1025
 91
        1
280
     0
281
     0
  0
CLASS
  1
ACDBDETAILVIEWSTYLE
  2
AcDbDetailViewStyle
  3
ObjectDBX Classes
 90
     1025
 91
        1
280
     0
281
     0
  0
CLASS
  1
SORTENTSTABLE
  2
AcDbSortentsTable
  3
ObjectDBX Classes
 90
        0
 91
        1
280
     0
281
     0
  0
ENDSEC
  0
SECTION
  2
TABLES
  0
TABLE
  2
VPORT
  5
8
330
0
100
AcDbSymbolTable
 70
    16
  0
VPORT
  5
29
330
8
100
AcDbSymbolTableRecord
100
AcDbViewportTableRecord
  2
*Active
 70
     0
 10
0.0
 20
0.0
 11
1.0
 21
1.0
 12
285.7598799239702
 22
283.862991570863
 13
0.0
 23
0.0
 14
0.5
 24
0.5
 15
0.5
 25
0.5
 16
0.0
 26
0.0
 36
1.0
 17
0.0
 27
0.0
 37
0.0
 40
175.2460546601313
 41
2.188141391106043
 42
50.0
 43
446.216024
 44
-446.216024
 50
0.0
 51
0.0
 71
     0
 72
   100
 73
     1
 74
     3
 75
     0
 76
     0
 77
     0
 78
     0
281
     0
 65
     1
110
274.404842
120
288.907994
130
0.0
111
1.0
121
0.0
131
0.0
112
0.0
122
1.0
132
0.0
 79
     0
146
0.0
1001
ACAD_NAV_VCDISPLAY
1070
     3
  0
VPORT
  5
2A0
330
8
100
AcDbSymbolTableRecord
100
AcDbViewportTableRecord
  2
L1
 70
     0
 10
0.0
 20
0.0
 11
1.0
 21
1.0
 12
308.577499
 22
230.078571
 13
0.0
 23
0.0
 14
0.5
 24
0.5
 15
0.5
 25
0.5
 16
0.0
 26
0.0
 36
1.0
 17
0.0
 27
0.0
 37
0.0
 40
207.433333
 41
0.085602
 42
50.0
 43
446.216024
 44
-446.216024
 50
0.0
 51
0.0
 71
     0
 72
   100
 73
     1
 74
     3
 75
     0
 76
     0
 77
     0
 78
     0
281
     0
 65
     1
110
0.0
120
0.0
130
0.0
111
1.0
121
0.0
131
0.0
112
0.0
122
1.0
132
0.0
 79
     0
146
0.0
  0
VPORT
  5
2A1
330
8
100
AcDbSymbolTableRecord
100
AcDbViewportTableRecord
  2
L2
 70
     0
 10
0.0
 20
0.0
 11
0.5
 21
1.0
 12
0.0
 22
0.0
 13
0.0
 23
0.0
 14
0.5
 24
0.5
 15
0.5
 25
0.5
 16
0.0
 26
-1.0
 36
0.0
 17
0.0
 27
0.0
 37
0.0
 40
1316.18997
 41
0.013491
 42
50.0
 43
678.00864
 44
-678.00864
 50
0.0
 51
0.0
 71
     0
 72
   100
 73
     1
 74
     3
 75
     0
 76
     0
 77
     0
 78
     0
281
     0
 65
     1
110
0.0
120
0.0
130
0.0
111
1.0
121
0.0
131
0.0
112
0.0
122
1.0
132
0.0
 79
     0
146
0.0
  0
VPORT
  5
2A2
330
8
100
AcDbSymbolTableRecord
100
AcDbViewportTableRecord
  2
L2
 70
     0
 10
0.5
 20
0.0
 11
1.0
 21
1.0
 12
0.0
 22
0.0
 13
0.0
 23
0.0
 14
0.5
 24
0.5
 15
0.5
 25
0.5
 16
1.0
 26
0.0
 36
0.0
 17
0.0
 27
0.0
 37
0.0
 40
1316.18997
 41
0.013491
 42
50.0
 43
666.2177989999999
 44
-666.2177989999999
 50
0.0
 51
0.0
 71
     0
 72
   100
 73
     1
 74
     3
 75
     0
 76
     0
 77
     0
 78
     0
281
     0
 65
     1
110
0.0
120
0.0
130
0.0
111
1.0
121
0.0
131
0.0
112
0.0
122
1.0
132
0.0
 79
     0
146
0.0
  0
VPORT
  5
2A3
330
8
100
AcDbSymbolTableRecord
100
AcDbViewportTableRecord
  2
L3
 70
     0
 10
0.0
 20
0.5
 11
1.0
 21
1.0
 12
308.577499
 22
230.078571
 13
0.0
 23
0.0
 14
0.5
 24
0.5
 15
0.5
 25
0.5
 16
0.0
 26
0.0
 36
1.0
 17
0.0
 27
0.0
 37
0.0
 40
207.433333
 41
0.085602
 42
50.0
 43
446.216024
 44
-446.216024
 50
0.0
 51
0.0
 71
     0
 72
   100
 73
     1
 74
     3
 75
     0
 76
     0
 77
     0
 78
     0
281
     0
 65
     1
110
0.0
120
0.0
130
0.0
111
1.0
121
0.0
131
0.0
112
0.0
122
1.0
132
0.0
 79
     0
146
0.0
  0
VPORT
  5
2A4
330
8
100
AcDbSymbolTableRecord
100
AcDbViewportTableRecord
  2
L3
 70
     0
 10
0.0
 20
0.0
 11
1.0
 21
0.5
 12
0.0
 22
0.0
 13
0.0
 23
0.0
 14
0.5
 24
0.5
 15
0.5
 25
0.5
 16
0.0
 26
-1.0
 36
0.0
 17
0.0
 27
0.0
 37
0.0
 40
1316.18997
 41
0.013491
 42
50.0
 43
678.00864
 44
-678.00864
 50
0.0
 51
0.0
 71
     0
 72
   100
 73
     1
 74
     3
 75
     0
 76
     0
 77
     0
 78
     0
281
     0
 65
     1
110
0.0
120
0.0
130
0.0
111
1.0
121
0.0
131
0.0
112
0.0
122
1.0
132
0.0
 79
     0
146
0.0
  0
VPORT
  5
2A5
330
8
100
AcDbSymbolTableRecord
100
AcDbViewportTableRecord
  2
L4
 70
     0
 10
0.0
 20
0.5
 11
0.5
 21
1.0
 12
308.577499
 22
230.078571
 13
0.0
 23
0.0
 14
0.5
 24
0.5
 15
0.5
 25
0.5
 16
0.0
 26
0.0
 36
1.0
 17
0.0
 27
0.0
 37
0.0
 40
207.433333
 41
0.085602
 42
50.0
 43
446.216024
 44
-446.216024
 50
0.0
 51
0.0
 71
     0
 72
   100
 73
     1
 74
     3
 75
     0
 76
     0
 77
     0
 78
     0
281
     0
 65
     1
110
0.0
120
0.0
130
0.0
111
1.0
121
0.0
131
0.0
112
0.0
122
1.0
132
0.0
 79
     0
146
0.0
  0
VPORT
  5
2A6
330
8
100
AcDbSymbolTableRecord
100
AcDbViewportTableRecord
  2
L4
 70
     0
 10
0.0
 20
0.0
 11
0.5
 21
0.5
 12
0.0
 22
0.0
 13
0.0
 23
0.0
 14
0.5
 24
0.5
 15
0.5
 25
0.5
 16
0.0
 26
-1.0
 36
0.0
 17
0.0
 27
0.0
 37
0.0
 40
1316.18997
 41
0.013491
 42
50.0
 43
678.00864
 44
-678.00864
 50
0.0
 51
0.0
 71
     0
 72
   100
 73
     1
 74
     3
 75
     0
 76
     0
 77
     0
 78
     0
281
     0
 65
     1
110
0.0
120
0.0
130
0.0
111
1.0
121
0.0
131
0.0
112
0.0
122
1.0
132
0.0
 79
     0
146
0.0
  0
VPORT
  5
2A7
330
8
100
AcDbSymbolTableRecord
100
AcDbViewportTableRecord
  2
L4
 70
     0
 10
0.5
 20
0.0
 11
1.0
 21
0.5
 12
0.0
 22
0.0
 13
0.0
 23
0.0
 14
0.5
 24
0.5
 15
0.5
 25
0.5
 16
1.0
 26
0.0
 36
0.0
 17
0.0
 27
0.0
 37
0.0
 40
1316.18997
 41
0.013491
 42
50.0
 43
666.2177989999999
 44
-666.2177989999999
 50
0.0
 51
0.0
 71
     0
 72
   100
 73
     1
 74
     3
 75
     0
 76
     0
 77
     0
 78
     0
281
     0
 65
     1
110
0.0
120
0.0
130
0.0
111
1.0
121
0.0
131
0.0
112
0.0
122
1.0
132
0.0
 79
     0
146
0.0
  0
VPORT
  5
2A8
330
8
100
AcDbSymbolTableRecord
100
AcDbViewportTableRecord
  2
L4
 70
     0
 10
0.5
 20
0.5
 11
1.0
 21
1.0
 12
0.0
 22
0.0
 13
0.0
 23
0.0
 14
0.5
 24
0.5
 15
0.5
 25
0.5
 16
0.5773502691896259
 26
-0.5773502691896259
 36
0.5773502691896259
 17
0.0
 27
0.0
 37
0.0
 40
1292.532264
 41
0.013738
 42
50.0
 43
673.245608
 44
-673.245608
 50
0.0
 51
0.0
 71
     0
 72
   100
 73
     1
 74
     3
 75
     0
 76
     0
 77
     0
 78
     0
281
     0
 65
     1
110
0.0
120
0.0
130
0.0
111
1.0
121
0.0
131
0.0
112
0.0
122
1.0
132
0.0
 79
     0
146
0.0
  0
VPORT
  5
2A9
330
8
100
AcDbSymbolTableRecord
100
AcDbViewportTableRecord
  2
L6
 70
     0
 10
0.0
 20
0.5
 11
0.333333
 21
1.0
 12
0.0
 22
0.0
 13
0.0
 23
0.0
 14
0.5
 24
0.5
 15
0.5
 25
0.5
 16
0.7188730927569434
 26
-0.5850486126764433
 36
0.3754192287502549
 17
0.0
 27
0.0
 37
0.0
 40
1364.064247
 41
0.013018
 42
50.0
 43
706.2613849999999
 44
-706.2613849999999
 50
0.0
 51
0.0
 71
     0
 72
   100
 73
     1
 74
     3
 75
     0
 76
     0
 77
     0
 78
     0
281
     0
 65
     1
110
0.0
120
0.0
130
0.0
111
1.0
121
0.0
131
0.0
112
0.0
122
1.0
132
0.0
 79
     0
146
0.0
  0
VPORT
  5
2AA
330
8
100
AcDbSymbolTableRecord
100
AcDbViewportTableRecord
  2
L6
 70
     0
 10
0.0
 20
0.0
 11
0.333333
 21
0.5
 12
0.0
 22
0.0
 13
0.0
 23
0.0
 14
0.5
 24
0.5
 15
0.5
 25
0.5
 16
-1.0
 26
0.0
 36
0.0
 17
0.0
 27
0.0
 37
0.0
 40
1316.18997
 41
0.013491
 42
50.0
 43
666.2177989999999
 44
-666.2177989999999
 50
0.0
 51
0.0
 71
     0
 72
   100
 73
     1
 74
     3
 75
     0
 76
     0
 77
     0
 78
     0
281
     0
 65
     1
110
0.0
120
0.0
130
0.0
111
1.0
121
0.0
131
0.0
112
0.0
122
1.0
132
0.0
 79
     0
146
0.0
  0
VPORT
  5
2AB
330
8
100
AcDbSymbolTableRecord
100
AcDbViewportTableRecord
  2
L6
 70
     0
 10
0.333333
 20
0.5
 11
0.666667
 21
1.0
 12
308.577499
 22
230.078571
 13
0.0
 23
0.0
 14
0.5
 24
0.5
 15
0.5
 25
0.5
 16
0.0
 26
0.0
 36
1.0
 17
0.0
 27
0.0
 37
0.0
 40
207.433333
 41
0.085602
 42
50.0
 43
446.216024
 44
-446.216024
 50
0.0
 51
0.0
 71
     0
 72
   100
 73
     1
 74
     3
 75
     0
 76
     0
 77
     0
 78
     0
281
     0
 65
     1
110
0.0
120
0.0
130
0.0
111
1.0
121
0.0
131
0.0
112
0.0
122
1.0
132
0.0
 79
     0
146
0.0
  0
VPORT
  5
2AC
330
8
100
AcDbSymbolTableRecord
100
AcDbViewportTableRecord
  2
L6
 70
     0
 10
0.333333
 20
0.0
 11
0.666667
 21
0.5
 12
0.0
 22
0.0
 13
0.0
 23
0.0
 14
0.5
 24
0.5
 15
0.5
 25
0.5
 16
0.0
 26
-1.0
 36
0.0
 17
0.0
 27
0.0
 37
0.0
 40
1316.18997
 41
0.013491
 42
50.0
 43
678.00864
 44
-678.00864
 50
0.0
 51
0.0
 71
     0
 72
   100
 73
     1
 74
     3
 75
     0
 76
     0
 77
     0
 78
     0
281
     0
 65
     1
110
0.0
120
0.0
130
0.0
111
1.0
121
0.0
131
0.0
112
0.0
122
1.0
132
0.0
 79
     0
146
0.0
  0
VPORT
  5
2AD
330
8
100
AcDbSymbolTableRecord
100
AcDbViewportTableRecord
  2
L6
 70
     0
 10
0.666667
 20
0.5
 11
1.0
 21
1.0
 12
0.0
 22
0.0
 13
0.0
 23
0.0
 14
0.5
 24
0.5
 15
0.5
 25
0.5
 16
0.5773502691896259
 26
-0.5773502691896259
 36
0.5773502691896259
 17
0.0
 27
0.0
 37
0.0
 40
1292.532264
 41
0.013738
 42
50.0
 43
673.245608
 44
-673.245608
 50
0.0
 51
0.0
 71
     0
 72
   100
 73
     1
 74
     3
 75
     0
 76
     0
 77
     0
 78
     0
281
     0
 65
     1
110
0.0
120
0.0
130
0.0
111
1.0
121
0.0
131
0.0
112
0.0
122
1.0
132
0.0
 79
     0
146
0.0
  0
VPORT
  5
2AE
330
8
100
AcDbSymbolTableRecord
100
AcDbViewportTableRecord
  2
L6
 70
     0
 10
0.666667
 20
0.0
 11
1.0
 21
0.5
 12
0.0
 22
0.0
 13
0.0
 23
0.0
 14
0.5
 24
0.5
 15
0.5
 25
0.5
 16
1.0
 26
0.0
 36
0.0
 17
0.0
 27
0.0
 37
0.0
 40
1316.18997
 41
0.013491
 42
50.0
 43
666.2177989999999
 44
-666.2177989999999
 50
0.0
 51
0.0
 71
     0
 72
   100
 73
     1
 74
     3
 75
     0
 76
     0
 77
     0
 78
     0
281
     0
 65
     1
110
0.0
120
0.0
130
0.0
111
1.0
121
0.0
131
0.0
112
0.0
122
1.0
132
0.0
 79
     0
146
0.0
  0
ENDTAB
  0
TABLE
  2
LTYPE
  5
5
330
0
100
AcDbSymbolTable
 70
     7
  0
LTYPE
  5
14
330
5
100
AcDbSymbolTableRecord
100
AcDbLinetypeTableRecord
  2
ByBlock
 70
     0
  3

 72
    65
 73
     0
 40
0.0
  0
LTYPE
  5
15
330
5
100
AcDbSymbolTableRecord
100
AcDbLinetypeTableRecord
  2
ByLayer
 70
     0
  3

 72
    65
 73
     0
 40
0.0
  0
LTYPE
  5
16
330
5
100
AcDbSymbolTableRecord
100
AcDbLinetypeTableRecord
  2
Continuous
 70
     0
  3
Solid line
 72
    65
 73
     0
 40
0.0
  0
LTYPE
  5
6E
330
5
100
AcDbSymbolTableRecord
100
AcDbLinetypeTableRecord
  2
CENTER
 70
     0
  3
____ _ ____ _ ____ _ ____
 72
    65
 73
     4
 40
47.4
 49
22.0
 74
     4
 75
     0
340
0
 46
0.0
 50
0.0
 44
0.0
 45
0.0
 49
-8.5
 74
     4
 75
     0
340
0
 46
0.0
 50
0.0
 44
0.0
 45
0.0
 49
8.5
 74
     4
 75
     0
340
0
 46
0.0
 50
0.0
 44
0.0
 45
0.0
 49
-8.5
 74
     4
 75
     0
340
0
 46
0.0
 50
0.0
 44
0.0
 45
0.0
  0
LTYPE
  5
6F
330
5
100
AcDbSymbolTableRecord
100
AcDbLinetypeTableRecord
  2
DASHDOT
 70
     0
  3
_._._._._._._._._._._._._._._._.
 72
    65
 73
     4
 40
70.0
 49
31.0
 74
     4
 75
     0
340
0
 46
0.0
 50
0.0
 44
0.0
 45
0.0
 49
-13.0
 74
     4
 75
     0
340
0
 46
0.0
 50
0.0
 44
0.0
 45
0.0
 49
13.0
 74
     4
 75
     0
340
0
 46
0.0
 50
0.0
 44
0.0
 45
0.0
 49
-13.0
 74
     4
 75
     0
340
0
 46
0.0
 50
0.0
 44
0.0
 45
0.0
  0
LTYPE
  5
70
330
5
100
AcDbSymbolTableRecord
100
AcDbLinetypeTableRecord
  2
DASHED
 70
     0
  3
__ __ __ __ __ __ __ __ __
 72
    65
 73
     2
 40
25.72
 49
12.86
 74
     4
 75
     0
340
0
 46
0.0
 50
0.0
 44
0.0
 45
0.0
 49
-12.86
 74
     4
 75
     0
340
0
 46
0.0
 50
0.0
 44
0.0
 45
0.0
  0
LTYPE
  5
71
330
5
100
AcDbSymbolTableRecord
100
AcDbLinetypeTableRecord
  2
DOT
 70
     0
  3
.........................
 72
    65
 73
     2
 40
10.0
 49
0.0
 74
     4
 75
     0
340
0
 46
0.0
 50
0.0
 44
0.0
 45
0.0
 49
-10.0
 74
     4
 75
     0
340
0
 46
0.0
 50
0.0
 44
0.0
 45
0.0
  0
LTYPE
  5
72
330
5
100
AcDbSymbolTableRecord
100
AcDbLinetypeTableRecord
  2
PHANTOM
 70
     0
  3
____ _ _ ____ _ _ _____ _ _ ____
 72
    65
 73
     6
 40
50.5
 49
18.0
 74
     4
 75
     0
340
0
 46
0.0
 50
0.0
 44
0.0
 45
0.0
 49
-6.5
 74
     4
 75
     0
340
0
 46
0.0
 50
0.0
 44
0.0
 45
0.0
 49
6.5
 74
     4
 75
     0
340
0
 46
0.0
 50
0.0
 44
0.0
 45
0.0
 49
-6.5
 74
     4
 75
     0
340
0
 46
0.0
 50
0.0
 44
0.0
 45
0.0
 49
6.5
 74
     4
 75
     0
340
0
 46
0.0
 50
0.0
 44
0.0
 45
0.0
 49
-6.5
 74
     4
 75
     0
340
0
 46
0.0
 50
0.0
 44
0.0
 45
0.0
  0
LTYPE
  5
33E
330
5
100
AcDbSymbolTableRecord
100
AcDbLinetypeTableRecord
  2
CENTER2
 70
     0
  3
Center (.5x) ___ _ ___ _ ___ _ ___ _ ___ _ ___
 72
    65
 73
     4
 40
1.125
 49
0.75
 74
     0
 49
-0.125
 74
     0
 49
0.125
 74
     0
 49
-0.125
 74
     0
  0
ENDTAB
  0
TABLE
  2
LAYER
  5
2
330
0
100
AcDbSymbolTable
 70
    22
  0
LAYER
  5
10
102
{ACAD_XDICTIONARY
360
349
102
}
330
2
100
AcDbSymbolTableRecord
100
AcDbLayerTableRecord
  2
0
 70
     0
 62
     7
  6
Continuous
370
    -3
390
F
  0
LAYER
  5
1FA
330
2
100
AcDbSymbolTableRecord
100
AcDbLayerTableRecord
  2
Defpoints
 70
     0
 62
     7
  6
Continuous
290
     0
370
    -3
390
F
  0
LAYER
  5
33B
102
{ACAD_XDICTIONARY
360
34B
102
}
330
2
100
AcDbSymbolTableRecord
100
AcDbLayerTableRecord
  2
1
 70
     0
 62
     4
  6
Continuous
370
    -3
390
F
  0
LAYER
  5
33C
102
{ACAD_XDICTIONARY
360
34D
102
}
330
2
100
AcDbSymbolTableRecord
100
AcDbLayerTableRecord
  2
2
 70
     0
 62
     7
  6
Continuous
370
    -3
390
F
  0
LAYER
  5
33D
102
{ACAD_XDICTIONARY
360
34F
102
}
330
2
100
AcDbSymbolTableRecord
100
AcDbLayerTableRecord
  2
4
 70
     0
 62
     2
  6
CENTER2
370
    -3
390
F
  0
LAYER
  5
33F
102
{ACAD_XDICTIONARY
360
351
102
}
330
2
100
AcDbSymbolTableRecord
100
AcDbLayerTableRecord
  2
SK1
 70
     0
 62
     4
  6
Continuous
370
    -3
390
F
  0
LAYER
  5
340
102
{ACAD_XDICTIONARY
360
353
102
}
330
2
100
AcDbSymbolTableRecord
100
AcDbLayerTableRecord
  2
SK2
 70
     0
 62
     7
  6
Continuous
370
    -3
390
F
  0
LAYER
  5
342
102
{ACAD_XDICTIONARY
360
355
102
}
330
2
100
AcDbSymbolTableRecord
100
AcDbLayerTableRecord
  2
SK4
 70
     0
 62
     2
  6
CENTER2
370
    -3
390
F
  0
LAYER
  5
343
102
{ACAD_XDICTIONARY
360
357
102
}
330
2
100
AcDbSymbolTableRecord
100
AcDbLayerTableRecord
  2
SK6
 70
     0
 62
     5
  6
Continuous
370
    -3
390
F
  0
LAYER
  5
344
102
{ACAD_XDICTIONARY
360
359
102
}
330
2
100
AcDbSymbolTableRecord
100
AcDbLayerTableRecord
  2
CUT
 70
     0
 62
     1
  6
Continuous
370
    -3
390
F
  0
LAYER
  5
345
102
{ACAD_XDICTIONARY
360
35B
102
}
330
2
100
AcDbSymbolTableRecord
100
AcDbLayerTableRecord
  2
NOCUT
 70
     0
 62
     7
  6
Continuous
370
    -3
390
F
  0
LAYER
  5
346
102
{ACAD_XDICTIONARY
360
35D
102
}
330
2
100
AcDbSymbolTableRecord
100
AcDbLayerTableRecord
  2
80
 70
     0
 62
     6
  6
Continuous
370
    -3
390
F
  0
LAYER
  5
347
102
{ACAD_XDICTIONARY
360
35F
102
}
330
2
100
AcDbSymbolTableRecord
100
AcDbLayerTableRecord
  2
81
 70
     0
 62
     3
  6
Continuous
370
    -3
390
F
  0
ENDTAB
  0
TABLE
  2
STYLE
  5
3
330
0
100
AcDbSymbolTable
 70
     3
  0
STYLE
  5
11
330
3
100
AcDbSymbolTableRecord
100
AcDbTextStyleTableRecord
  2
Standard
 70
     0
 40
0.0
 41
1.0
 50
0.0
 71
     0
 42
0.2
  3
txt
  4

  0
STYLE
  5
1EE
330
3
100
AcDbSymbolTableRecord
100
AcDbTextStyleTableRecord
  2
cesky
 70
     0
 40
0.0
 41
1.0
 50
0.0
 71
     0
 42
0.2
  3
simplex.shx
  4

  0
STYLE
  5
1EF
330
3
100
AcDbSymbolTableRecord
100
AcDbTextStyleTableRecord
  2
DWGDirectTextStyle
 70
     0
 40
0.0
 41
1.0
 50
0.0
 71
     0
 42
0.2
  3
simplex
  4

  0
ENDTAB
  0
TABLE
  2
VIEW
  5
6
330
0
100
AcDbSymbolTable
 70
     0
  0
ENDTAB
  0
TABLE
  2
UCS
  5
7
330
0
100
AcDbSymbolTable
 70
     0
  0
ENDTAB
  0
TABLE
  2
APPID
  5
9
330
0
100
AcDbSymbolTable
 70
     7
  0
APPID
  5
12
330
9
100
AcDbSymbolTableRecord
100
AcDbRegAppTableRecord
  2
ACAD
 70
     0
  0
APPID
  5
1F6
330
9
100
AcDbSymbolTableRecord
100
AcDbRegAppTableRecord
  2
ACAD_DSTYLE_DIMBREAK
 70
     0
  0
APPID
  5
2AF
330
9
100
AcDbSymbolTableRecord
100
AcDbRegAppTableRecord
  2
ACAD_DSTYLE_DIM_LINETYPE
 70
     0
  0
APPID
  5
2B0
330
9
100
AcDbSymbolTableRecord
100
AcDbRegAppTableRecord
  2
ACAD_DSTYLE_DIM_EXT1_LINETYPE
 70
     0
  0
APPID
  5
2B1
330
9
100
AcDbSymbolTableRecord
100
AcDbRegAppTableRecord
  2
ACAD_DSTYLE_DIM_EXT2_LINETYPE
 70
     0
  0
APPID
  5
2F1
330
9
100
AcDbSymbolTableRecord
100
AcDbRegAppTableRecord
  2
ACAD_MLEADERVER
 70
     0
  0
APPID
  5
364
330
9
100
AcDbSymbolTableRecord
100
AcDbRegAppTableRecord
  2
ACAD_NAV_VCDISPLAY
 70
     0
  0
ENDTAB
  0
TABLE
  2
DIMSTYLE
  5
A
330
0
100
AcDbSymbolTable
 70
     1
100
AcDbDimStyleTable
 71
     0
  0
DIMSTYLE
105
27
330
A
100
AcDbSymbolTableRecord
100
AcDbDimStyleTableRecord
  2
Standard
 70
     0
340
11
1001
ACAD_DSTYLE_DIMBREAK
1070
   391
1040
6.349999999999999
  0
ENDTAB
  0
TABLE
  2
BLOCK_RECORD
  5
1
330
0
100
AcDbSymbolTable
 70
    16
  0
BLOCK_RECORD
  5
1F
102
{ACAD_XDICTIONARY
360
301
102
}
330
1
100
AcDbSymbolTableRecord
100
AcDbBlockTableRecord
  2
*Model_Space
340
22
  0
BLOCK_RECORD
  5
1B
330
1
100
AcDbSymbolTableRecord
100
AcDbBlockTableRecord
  2
*Paper_Space
340
1E
  0
BLOCK_RECORD
  5
23
330
1
100
AcDbSymbolTableRecord
100
AcDbBlockTableRecord
  2
*Paper_Space0
340
26
  0
BLOCK_RECORD
  5
1F1
330
1
100
AcDbSymbolTableRecord
100
AcDbBlockTableRecord
  2
ASSORTED_DRAFT1
340
0
  0
BLOCK_RECORD
  5
1FB
330
1
100
AcDbSymbolTableRecord
100
AcDbBlockTableRecord
  2
*D2
340
0
  0
BLOCK_RECORD
  5
207
330
1
100
AcDbSymbolTableRecord
100
AcDbBlockTableRecord
  2
_U0
340
0
  0
BLOCK_RECORD
  5
213
330
1
100
AcDbSymbolTableRecord
100
AcDbBlockTableRecord
  2
*D4
340
0
  0
BLOCK_RECORD
  5
21E
330
1
100
AcDbSymbolTableRecord
100
AcDbBlockTableRecord
  2
_U1
340
0
  0
BLOCK_RECORD
  5
229
330
1
100
AcDbSymbolTableRecord
100
AcDbBlockTableRecord
  2
*D6
340
0
  0
BLOCK_RECORD
  5
235
330
1
100
AcDbSymbolTableRecord
100
AcDbBlockTableRecord
  2
_U2
340
0
  0
BLOCK_RECORD
  5
242
330
1
100
AcDbSymbolTableRecord
100
AcDbBlockTableRecord
  2
*D8
340
0
  0
BLOCK_RECORD
  5
24E
330
1
100
AcDbSymbolTableRecord
100
AcDbBlockTableRecord
  2
_U3
340
0
  0
BLOCK_RECORD
  5
25B
330
1
100
AcDbSymbolTableRecord
100
AcDbBlockTableRecord
  2
*D10
340
0
  0
BLOCK_RECORD
  5
267
330
1
100
AcDbSymbolTableRecord
100
AcDbBlockTableRecord
  2
_U4
340
0
  0
BLOCK_RECORD
  5
273
330
1
100
AcDbSymbolTableRecord
100
AcDbBlockTableRecord
  2
*D12
340
0
  0
BLOCK_RECORD
  5
27F
330
1
100
AcDbSymbolTableRecord
100
AcDbBlockTableRecord
  2
_U5
340
0
  0
BLOCK_RECORD
  5
28B
330
1
100
AcDbSymbolTableRecord
100
AcDbBlockTableRecord
  2
*D14
340
0
  0
BLOCK_RECORD
  5
297
330
1
100
AcDbSymbolTableRecord
100
AcDbBlockTableRecord
  2
_U6
340
0
  0
ENDTAB
  0
ENDSEC
  0
SECTION
  2
BLOCKS
  0
BLOCK
  5
20
330
1F
100
AcDbEntity
  8
0
100
AcDbBlockBegin
  2
*Model_Space
 70
     0
 10
0.0
 20
0.0
 30
0.0
  3
*Model_Space
  1

  0
ENDBLK
  5
21
330
1F
100
AcDbEntity
  8
0
100
AcDbBlockEnd
  0
BLOCK
  5
1C
330
1B
100
AcDbEntity
 67
     1
  8
0
100
AcDbBlockBegin
  2
*Paper_Space
 70
     0
 10
0.0
 20
0.0
 30
0.0
  3
*Paper_Space
  1

  0
ENDBLK
  5
1D
330
1B
100
AcDbEntity
 67
     1
  8
0
100
AcDbBlockEnd
  0
BLOCK
  5
24
330
23
100
AcDbEntity
 67
     1
  8
0
100
AcDbBlockBegin
  2
*Paper_Space0
 70
     0
 10
0.0
 20
0.0
 30
0.0
  3
*Paper_Space0
  1

  0
ENDBLK
  5
25
330
23
100
AcDbEntity
 67
     1
  8
0
100
AcDbBlockEnd
  0
BLOCK
  5
1F4
330
1F1
100
AcDbEntity
  8
0
100
AcDbBlockBegin
  2
ASSORTED_DRAFT1
 70
     0
 10
0.0
 20
0.0
 30
0.0
  3
ASSORTED_DRAFT1
  1

  0
SOLID
  5
1F2
330
1F1
100
AcDbEntity
  8
0
 62
   254
370
    13
100
AcDbTrace
 10
270.185042
 20
164.534924
 30
0.0
 11
265.185046
 21
163.42645
 31
0.0
 12
265.1850379999999
 22
165.643397
 32
0.0
 13
270.185042
 23
164.534924
 33
0.0
  0
ENDBLK
  5
1F5
330
1F1
100
AcDbEntity
  8
0
100
AcDbBlockEnd
  0
BLOCK
  5
1FC
330
1FB
100
AcDbEntity
  8
0
100
AcDbBlockBegin
  2
*D2
 70
     1
 10
0.0
 20
0.0
 30
0.0
  3
*D2
  1

  0
LINE
  5
1FE
330
1FB
100
AcDbEntity
  8
0
 62
   254
370
    -2
100
AcDbLine
 10
415.4048419999999
 20
303.407994
 30
0.0
 11
415.4048419999999
 21
323.882273
 31
0.0
  0
LINE
  5
1FF
330
1FB
100
AcDbEntity
  8
0
 62
   254
370
    -2
100
AcDbLine
 10
274.404842
 20
288.907994
 30
0.0
 11
274.404842
 21
323.882273
 31
0.0
  0
LINE
  5
200
330
1FB
100
AcDbEntity
  8
0
 62
   254
370
    -2
100
AcDbLine
 10
411.9048419999999
 20
322.882273
 30
0.0
 11
277.904842
 21
322.882273
 31
0.0
  0
SOLID
  5
201
330
1FB
100
AcDbEntity
  8
0
 62
   254
100
AcDbTrace
 10
411.9048419999999
 20
322.29894
 30
0.0
 11
411.9048419999999
 21
323.465606
 31
0.0
 12
415.4048419999999
 22
322.882273
 32
0.0
 13
415.4048419999999
 23
322.882273
 33
0.0
  0
SOLID
  5
202
330
1FB
100
AcDbEntity
  8
0
 62
   254
100
AcDbTrace
 10
277.904842
 20
323.465606
 30
0.0
 11
277.904842
 21
322.29894
 31
0.0
 12
274.404842
 22
322.882273
 32
0.0
 13
274.404842
 23
322.882273
 33
0.0
  0
MTEXT
  5
203
330
1FB
100
AcDbEntity
  8
0
 62
   254
370
    13
100
AcDbMText
 10
344.904842
 20
328.132273
 30
0.0
 40
3.5
 41
0.0
 71
     5
 72
     1
  1
\A1;141
  7
cesky
 73
     1
 44
1.0
  0
POINT
  5
204
330
1FB
100
AcDbEntity
  8
Defpoints
 62
     0
100
AcDbPoint
 10
415.4048419999999
 20
303.407994
 30
0.0
  0
POINT
  5
205
330
1FB
100
AcDbEntity
  8
Defpoints
 62
     0
100
AcDbPoint
 10
274.404842
 20
288.907994
 30
0.0
  0
POINT
  5
206
330
1FB
100
AcDbEntity
  8
Defpoints
 62
     0
100
AcDbPoint
 10
274.404842
 20
322.882273
 30
0.0
  0
ENDBLK
  5
1FD
330
1FB
100
AcDbEntity
  8
0
100
AcDbBlockEnd
  0
BLOCK
  5
20E
330
207
100
AcDbEntity
  8
0
100
AcDbBlockBegin
  2
_U0
 70
     0
 10
0.0
 20
0.0
 30
0.0
  3
_U0
  1

  0
ENDBLK
  5
20F
330
207
100
AcDbEntity
  8
0
100
AcDbBlockEnd
  0
BLOCK
  5
214
330
213
100
AcDbEntity
  8
0
100
AcDbBlockBegin
  2
*D4
 70
     1
 10
0.0
 20
0.0
 30
0.0
  3
*D4
  1

  0
LINE
  5
216
330
213
100
AcDbEntity
  8
0
 62
   254
370
    -2
100
AcDbLine
 10
292.203832
 20
288.907994
 30
0.0
 11
430.913223
 21
288.907994
 31
0.0
  0
LINE
  5
217
330
213
100
AcDbEntity
  8
0
 62
   254
370
    -2
100
AcDbLine
 10
330.83929
 20
303.407994
 30
0.0
 11
430.913223
 21
303.407994
 31
0.0
  0
LINE
  5
218
330
213
100
AcDbEntity
  8
0
 62
   254
370
    -2
100
AcDbLine
 10
429.913223
 20
288.907994
 30
0.0
 11
429.913223
 21
303.407994
 31
0.0
  0
SOLID
  5
219
330
213
100
AcDbEntity
  8
0
 62
   254
100
AcDbTrace
 10
430.4965559999999
 20
299.907994
 30
0.0
 11
429.32989
 21
299.907994
 31
0.0
 12
429.913223
 22
303.407994
 32
0.0
 13
429.913223
 23
303.407994
 33
0.0
  0
MTEXT
  5
21A
330
213
100
AcDbEntity
  8
0
 62
   254
370
    13
100
AcDbMText
 10
424.663223
 20
279.157994
 30
0.0
 40
3.5
 41
0.0
 71
     5
 72
     1
  1
\A1;29
  7
cesky
 11
0.0
 21
1.0
 31
0.0
 73
     1
 44
1.0
  0
POINT
  5
21B
330
213
100
AcDbEntity
  8
Defpoints
 62
     0
100
AcDbPoint
 10
292.203832
 20
288.907994
 30
0.0
  0
POINT
  5
21C
330
213
100
AcDbEntity
  8
Defpoints
 62
     0
100
AcDbPoint
 10
330.83929
 20
303.407994
 30
0.0
  0
POINT
  5
21D
330
213
100
AcDbEntity
  8
Defpoints
 62
     0
100
AcDbPoint
 10
429.913223
 20
303.407994
 30
0.0
  0
ENDBLK
  5
215
330
213
100
AcDbEntity
  8
0
100
AcDbBlockEnd
  0
BLOCK
  5
224
330
21E
100
AcDbEntity
  8
0
100
AcDbBlockBegin
  2
_U1
 70
     0
 10
0.0
 20
0.0
 30
0.0
  3
_U1
  1

  0
ENDBLK
  5
225
330
21E
100
AcDbEntity
  8
0
100
AcDbBlockEnd
  0
BLOCK
  5
22A
330
229
100
AcDbEntity
  8
0
100
AcDbBlockBegin
  2
*D6
 70
     1
 10
0.0
 20
0.0
 30
0.0
  3
*D6
  1

  0
LINE
  5
22C
330
229
100
AcDbEntity
  8
0
 62
    95
370
    -2
100
AcDbLine
 10
216.404842
 20
304.907994
 30
0.0
 11
203.66833
 21
304.907994
 31
0.0
  0
LINE
  5
22D
330
229
100
AcDbEntity
  8
0
 62
    95
370
    -2
100
AcDbLine
 10
216.404842
 20
272.907994
 30
0.0
 11
203.66833
 21
272.907994
 31
0.0
  0
LINE
  5
22E
330
229
100
AcDbEntity
  8
0
 62
    95
370
    -2
100
AcDbLine
 10
204.66833
 20
301.407994
 30
0.0
 11
204.66833
 21
276.407994
 31
0.0
  0
SOLID
  5
22F
330
229
100
AcDbEntity
  8
0
 62
    95
100
AcDbTrace
 10
205.251663
 20
301.407994
 30
0.0
 11
204.084996
 21
301.407994
 31
0.0
 12
204.66833
 22
304.907994
 32
0.0
 13
204.66833
 23
304.907994
 33
0.0
  0
SOLID
  5
230
330
229
100
AcDbEntity
  8
0
 62
    95
100
AcDbTrace
 10
204.084996
 20
276.407994
 30
0.0
 11
205.251663
 21
276.407994
 31
0.0
 12
204.66833
 22
272.907994
 32
0.0
 13
204.66833
 23
272.907994
 33
0.0
  0
MTEXT
  5
231
330
229
100
AcDbEntity
  8
0
 62
    95
370
    13
100
AcDbMText
 10
199.41833
 20
288.907994
 30
0.0
 40
3.5
 41
0.0
 71
     5
 72
     1
  1
\A1;32
  7
cesky
 11
0.0
 21
1.0
 31
0.0
 73
     1
 44
1.0
  0
POINT
  5
232
330
229
100
AcDbEntity
  8
Defpoints
 62
     0
100
AcDbPoint
 10
216.404842
 20
304.907994
 30
0.0
  0
POINT
  5
233
330
229
100
AcDbEntity
  8
Defpoints
 62
     0
100
AcDbPoint
 10
216.404842
 20
272.907994
 30
0.0
  0
POINT
  5
234
330
229
100
AcDbEntity
  8
Defpoints
 62
     0
100
AcDbPoint
 10
204.66833
 20
272.907994
 30
0.0
  0
ENDBLK
  5
22B
330
229
100
AcDbEntity
  8
0
100
AcDbBlockEnd
  0
BLOCK
  5
23D
330
235
100
AcDbEntity
  8
0
100
AcDbBlockBegin
  2
_U2
 70
     0
 10
0.0
 20
0.0
 30
0.0
  3
_U2
  1

  0
ENDBLK
  5
23E
330
235
100
AcDbEntity
  8
0
100
AcDbBlockEnd
  0
BLOCK
  5
243
330
242
100
AcDbEntity
  8
0
100
AcDbBlockBegin
  2
*D8
 70
     1
 10
0.0
 20
0.0
 30
0.0
  3
*D8
  1

  0
LINE
  5
245
330
242
100
AcDbEntity
  8
0
 62
    95
370
    -2
100
AcDbLine
 10
277.154842
 20
309.907994
 30
0.0
 11
191.104285
 21
309.907994
 31
0.0
  0
LINE
  5
246
330
242
100
AcDbEntity
  8
0
 62
    95
370
    -2
100
AcDbLine
 10
277.154842
 20
267.907994
 30
0.0
 11
191.104285
 21
267.907994
 31
0.0
  0
LINE
  5
247
330
242
100
AcDbEntity
  8
0
 62
    95
370
    -2
100
AcDbLine
 10
192.104285
 20
306.407994
 30
0.0
 11
192.104285
 21
271.407994
 31
0.0
  0
SOLID
  5
248
330
242
100
AcDbEntity
  8
0
 62
    95
100
AcDbTrace
 10
192.687618
 20
306.407994
 30
0.0
 11
191.520952
 21
306.407994
 31
0.0
 12
192.104285
 22
309.907994
 32
0.0
 13
192.104285
 23
309.907994
 33
0.0
  0
SOLID
  5
249
330
242
100
AcDbEntity
  8
0
 62
    95
100
AcDbTrace
 10
191.520952
 20
271.407994
 30
0.0
 11
192.687618
 21
271.407994
 31
0.0
 12
192.104285
 22
267.907994
 32
0.0
 13
192.104285
 23
267.907994
 33
0.0
  0
MTEXT
  5
24A
330
242
100
AcDbEntity
  8
0
 62
    95
370
    13
100
AcDbMText
 10
186.854285
 20
288.907994
 30
0.0
 40
3.5
 41
0.0
 71
     5
 72
     1
  1
\A1;42
  7
cesky
 11
0.0
 21
1.0
 31
0.0
 73
     1
 44
1.0
  0
POINT
  5
24B
330
242
100
AcDbEntity
  8
Defpoints
 62
     0
100
AcDbPoint
 10
277.154842
 20
309.907994
 30
0.0
  0
POINT
  5
24C
330
242
100
AcDbEntity
  8
Defpoints
 62
     0
100
AcDbPoint
 10
277.154842
 20
267.907994
 30
0.0
  0
POINT
  5
24D
330
242
100
AcDbEntity
  8
Defpoints
 62
     0
100
AcDbPoint
 10
192.104285
 20
267.907994
 30
0.0
  0
ENDBLK
  5
244
330
242
100
AcDbEntity
  8
0
100
AcDbBlockEnd
  0
BLOCK
  5
256
330
24E
100
AcDbEntity
  8
0
100
AcDbBlockBegin
  2
_U3
 70
     0
 10
0.0
 20
0.0
 30
0.0
  3
_U3
  1

  0
ENDBLK
  5
257
330
24E
100
AcDbEntity
  8
0
100
AcDbBlockEnd
  0
BLOCK
  5
25C
330
25B
100
AcDbEntity
  8
0
100
AcDbBlockBegin
  2
*D10
 70
     1
 10
0.0
 20
0.0
 30
0.0
  3
*D10
  1

  0
LINE
  5
25E
330
25B
100
AcDbEntity
  8
0
 62
   254
370
    -2
100
AcDbLine
 10
415.4048419999999
 20
305.407994
 30
0.0
 11
415.4048419999999
 21
338.155501
 31
0.0
  0
LINE
  5
25F
330
25B
100
AcDbEntity
  8
0
 62
   254
370
    -2
100
AcDbLine
 10
214.404842
 20
302.907994
 30
0.0
 11
214.404842
 21
338.155501
 31
0.0
  0
LINE
  5
260
330
25B
100
AcDbEntity
  8
0
 62
   254
370
    -2
100
AcDbLine
 10
411.9048419999999
 20
337.155501
 30
0.0
 11
217.904842
 21
337.155501
 31
0.0
  0
SOLID
  5
261
330
25B
100
AcDbEntity
  8
0
 62
   254
100
AcDbTrace
 10
411.9048419999999
 20
336.572167
 30
0.0
 11
411.9048419999999
 21
337.738834
 31
0.0
 12
415.4048419999999
 22
337.155501
 32
0.0
 13
415.4048419999999
 23
337.155501
 33
0.0
  0
SOLID
  5
262
330
25B
100
AcDbEntity
  8
0
 62
   254
100
AcDbTrace
 10
217.904842
 20
337.738834
 30
0.0
 11
217.904842
 21
336.572167
 31
0.0
 12
214.404842
 22
337.155501
 32
0.0
 13
214.404842
 23
337.155501
 33
0.0
  0
MTEXT
  5
263
330
25B
100
AcDbEntity
  8
0
 62
   254
370
    13
100
AcDbMText
 10
314.904842
 20
342.405501
 30
0.0
 40
3.5
 41
0.0
 71
     5
 72
     1
  1
\A1;201
  7
cesky
 73
     1
 44
1.0
  0
POINT
  5
264
330
25B
100
AcDbEntity
  8
Defpoints
 62
     0
100
AcDbPoint
 10
415.4048419999999
 20
305.407994
 30
0.0
  0
POINT
  5
265
330
25B
100
AcDbEntity
  8
Defpoints
 62
     0
100
AcDbPoint
 10
214.404842
 20
302.907994
 30
0.0
  0
POINT
  5
266
330
25B
100
AcDbEntity
  8
Defpoints
 62
     0
100
AcDbPoint
 10
214.404842
 20
337.155501
 30
0.0
  0
ENDBLK
  5
25D
330
25B
100
AcDbEntity
  8
0
100
AcDbBlockEnd
  0
BLOCK
  5
26E
330
267
100
AcDbEntity
  8
0
100
AcDbBlockBegin
  2
_U4
 70
     0
 10
0.0
 20
0.0
 30
0.0
  3
_U4
  1

  0
ENDBLK
  5
26F
330
267
100
AcDbEntity
  8
0
100
AcDbBlockEnd
  0
BLOCK
  5
274
330
273
100
AcDbEntity
  8
0
100
AcDbBlockBegin
  2
*D12
 70
     1
 10
0.0
 20
0.0
 30
0.0
  3
*D12
  1

  0
LINE
  5
276
330
273
100
AcDbEntity
  8
0
 62
   254
370
    -2
100
AcDbLine
 10
274.404842
 20
288.907994
 30
0.0
 11
274.404842
 21
323.882273
 31
0.0
  0
LINE
  5
277
330
273
100
AcDbEntity
  8
0
 62
   254
370
    -2
100
AcDbLine
 10
214.404842
 20
295.907994
 30
0.0
 11
214.404842
 21
323.882273
 31
0.0
  0
LINE
  5
278
330
273
100
AcDbEntity
  8
0
 62
   254
370
    -2
100
AcDbLine
 10
270.904842
 20
322.882273
 30
0.0
 11
217.904842
 21
322.882273
 31
0.0
  0
SOLID
  5
279
330
273
100
AcDbEntity
  8
0
 62
   254
100
AcDbTrace
 10
270.904842
 20
322.29894
 30
0.0
 11
270.904842
 21
323.465606
 31
0.0
 12
274.404842
 22
322.882273
 32
0.0
 13
274.404842
 23
322.882273
 33
0.0
  0
SOLID
  5
27A
330
273
100
AcDbEntity
  8
0
 62
   254
100
AcDbTrace
 10
217.904842
 20
323.465606
 30
0.0
 11
217.904842
 21
322.29894
 31
0.0
 12
214.404842
 22
322.882273
 32
0.0
 13
214.404842
 23
322.882273
 33
0.0
  0
MTEXT
  5
27B
330
273
100
AcDbEntity
  8
0
 62
   254
370
    13
100
AcDbMText
 10
244.404842
 20
328.132273
 30
0.0
 40
3.5
 41
0.0
 71
     5
 72
     1
  1
\A1;60
  7
cesky
 73
     1
 44
1.0
  0
POINT
  5
27C
330
273
100
AcDbEntity
  8
Defpoints
 62
     0
100
AcDbPoint
 10
274.404842
 20
288.907994
 30
0.0
  0
POINT
  5
27D
330
273
100
AcDbEntity
  8
Defpoints
 62
     0
100
AcDbPoint
 10
214.404842
 20
295.907994
 30
0.0
  0
POINT
  5
27E
330
273
100
AcDbEntity
  8
Defpoints
 62
     0
100
AcDbPoint
 10
214.404842
 20
322.882273
 30
0.0
  0
ENDBLK
  5
275
330
273
100
AcDbEntity
  8
0
100
AcDbBlockEnd
  0
BLOCK
  5
286
330
27F
100
AcDbEntity
  8
0
100
AcDbBlockBegin
  2
_U5
 70
     0
 10
0.0
 20
0.0
 30
0.0
  3
_U5
  1

  0
ENDBLK
  5
287
330
27F
100
AcDbEntity
  8
0
100
AcDbBlockEnd
  0
BLOCK
  5
28C
330
28B
100
AcDbEntity
  8
0
100
AcDbBlockBegin
  2
*D14
 70
     1
 10
0.0
 20
0.0
 30
0.0
  3
*D14
  1

  0
LINE
  5
28E
330
28B
100
AcDbEntity
  8
0
 62
   254
370
    -2
100
AcDbLine
 10
415.4048419999999
 20
303.407994
 30
0.0
 11
415.4048419999999
 21
312.553778
 31
0.0
  0
LINE
  5
28F
330
28B
100
AcDbEntity
  8
0
 62
   254
370
    -2
100
AcDbLine
 10
292.43482
 20
303.274003
 30
0.0
 11
292.43482
 21
312.553778
 31
0.0
  0
LINE
  5
290
330
28B
100
AcDbEntity
  8
0
 62
   254
370
    -2
100
AcDbLine
 10
411.9048419999999
 20
311.553778
 30
0.0
 11
295.93482
 21
311.553778
 31
0.0
  0
SOLID
  5
291
330
28B
100
AcDbEntity
  8
0
 62
   254
100
AcDbTrace
 10
411.9048419999999
 20
310.9704450000001
 30
0.0
 11
411.9048419999999
 21
312.137112
 31
0.0
 12
415.4048419999999
 22
311.553778
 32
0.0
 13
415.4048419999999
 23
311.553778
 33
0.0
  0
SOLID
  5
292
330
28B
100
AcDbEntity
  8
0
 62
   254
100
AcDbTrace
 10
295.93482
 20
312.137112
 30
0.0
 11
295.93482
 21
310.9704450000001
 31
0.0
 12
292.43482
 22
311.553778
 32
0.0
 13
292.43482
 23
311.553778
 33
0.0
  0
MTEXT
  5
293
330
28B
100
AcDbEntity
  8
0
 62
   254
370
    13
100
AcDbMText
 10
353.919831
 20
316.803778
 30
0.0
 40
3.5
 41
0.0
 71
     5
 72
     1
  1
\A1;123
  7
cesky
 73
     1
 44
1.0
  0
POINT
  5
294
330
28B
100
AcDbEntity
  8
Defpoints
 62
     0
100
AcDbPoint
 10
415.4048419999999
 20
303.407994
 30
0.0
  0
POINT
  5
295
330
28B
100
AcDbEntity
  8
Defpoints
 62
     0
100
AcDbPoint
 10
292.43482
 20
303.274003
 30
0.0
  0
POINT
  5
296
330
28B
100
AcDbEntity
  8
Defpoints
 62
     0
100
AcDbPoint
 10
292.43482
 20
311.553778
 30
0.0
  0
ENDBLK
  5
28D
330
28B
100
AcDbEntity
  8
0
100
AcDbBlockEnd
  0
BLOCK
  5
29E
330
297
100
AcDbEntity
  8
0
100
AcDbBlockBegin
  2
_U6
 70
     0
 10
0.0
 20
0.0
 30
0.0
  3
_U6
  1

  0
ENDBLK
  5
29F
330
297
100
AcDbEntity
  8
0
100
AcDbBlockEnd
  0
ENDSEC
  0
SECTION
  2
ENTITIES
  0
POINT
  5
73
102
{ACAD_REACTORS
330
348
102
}
330
1F
100
AcDbEntity
  8
80
100
AcDbPoint
 10
274.404842
 20
288.907994
 30
0.0
  0
POINT
  5
76
330
1F
100
AcDbEntity
  8
4
 60
     1
100
AcDbPoint
 10
292.203832
 20
288.907994
 30
0.0
  0
POINT
  5
78
330
1F
100
AcDbEntity
  8
4
 60
     1
100
AcDbPoint
 10
414.706271
 20
288.907994
 30
0.0
  0
POINT
  5
79
330
1F
100
AcDbEntity
  8
SK4
 60
     1
100
AcDbPoint
 10
216.404842
 20
288.907994
 30
0.0
  0
POINT
  5
7A
330
1F
100
AcDbEntity
  8
SK4
 60
     1
100
AcDbPoint
 10
274.404842
 20
288.907994
 30
0.0
  0
POINT
  5
7B
330
1F
100
AcDbEntity
  8
SK6
 60
     1
100
AcDbPoint
 10
274.404842
 20
288.907994
 30
0.0
  0
POINT
  5
7C
330
1F
100
AcDbEntity
  8
SK6
 60
     1
100
AcDbPoint
 10
292.43482
 20
303.274003
 30
0.0
  0
LINE
  5
7D
330
1F
100
AcDbEntity
  8
1
100
AcDbLine
 10
410.563513
 20
297.258363
 30
0.0
 11
410.5621359999999
 21
297.253206
 31
0.0
  0
LINE
  5
7F
330
1F
100
AcDbEntity
  8
1
100
AcDbLine
 10
409.4515969999999
 20
297.241417
 30
0.0
 11
409.4263049999999
 21
297.146721
 31
0.0
  0
LINE
  5
80
330
1F
100
AcDbEntity
  8
1
100
AcDbLine
 10
410.590963
 20
297.3679259999999
 30
0.0
 11
410.565241
 21
297.271621
 31
0.0
  0
LINE
  5
81
330
1F
100
AcDbEntity
  8
1
100
AcDbLine
 10
409.346471
 20
299.057398
 30
0.0
 11
409.372193
 21
299.153703
 31
0.0
  0
LINE
  5
82
330
1F
100
AcDbEntity
  8
1
100
AcDbLine
 10
410.912241
 20
298.821757
 30
0.0
 11
410.8865559999999
 21
298.725591
 31
0.0
  0
LINE
  5
83
330
1F
100
AcDbEntity
  8
1
100
AcDbLine
 10
292.203832
 20
274.907994
 30
0.0
 11
295.1633109999999
 21
274.907994
 31
0.0
  0
LINE
  5
85
330
1F
100
AcDbEntity
  8
1
100
AcDbLine
 10
405.398714
 20
302.907994
 30
0.0
 11
396.216898
 21
302.907994
 31
0.0
  0
LINE
  5
86
330
1F
100
AcDbEntity
  8
1
100
AcDbLine
 10
306.825471
 20
302.907994
 30
0.0
 11
292.203832
 21
302.907994
 31
0.0
  0
LINE
  5
87
330
1F
100
AcDbEntity
  8
1
100
AcDbLine
 10
409.0251549999999
 20
297.603428
 30
0.0
 11
409.0508409999999
 21
297.699594
 31
0.0
  0
LINE
  5
88
330
1F
100
AcDbEntity
  8
1
100
AcDbLine
 10
409.349575
 20
299.075812
 30
0.0
 11
409.3752049999999
 21
299.17177
 31
0.0
  0
LINE
  5
89
330
1F
100
AcDbEntity
  8
1
100
AcDbLine
 10
408.773071
 20
298.220504
 30
0.0
 11
408.748149
 21
298.127197
 31
0.0
  0
LINE
  5
8A
330
1F
100
AcDbEntity
  8
1
100
AcDbLine
 10
408.859474
 20
298.2057240000001
 30
0.0
 11
408.834017
 21
298.110412
 31
0.0
  0
LINE
  5
8B
330
1F
100
AcDbEntity
  8
1
100
AcDbLine
 10
411.0391439999999
 20
297.621679
 30
0.0
 11
411.064044
 21
297.714906
 31
0.0
  0
LINE
  5
8C
330
1F
100
AcDbEntity
  8
1
100
AcDbLine
 10
410.949268
 20
297.642444
 30
0.0
 11
410.974737
 21
297.737799
 31
0.0
  0
LINE
  5
8D
330
1F
100
AcDbEntity
  8
1
100
AcDbLine
 10
410.0062369999999
 20
297.025127
 30
0.0
 11
410.0315759999999
 21
297.12
 31
0.0
  0
LINE
  5
8E
330
1F
100
AcDbEntity
  8
1
100
AcDbLine
 10
399.304407
 20
294.456491
 30
0.0
 11
399.680289
 21
294.240047
 31
0.0
  0
LINE
  5
8F
330
1F
100
AcDbEntity
  8
1
100
AcDbLine
 10
402.978843
 20
292.866532
 30
0.0
 11
402.983411
 21
292.883634
 31
0.0
  0
LINE
  5
90
330
1F
100
AcDbEntity
  8
1
100
AcDbLine
 10
402.931473
 20
291.058289
 30
0.0
 11
402.9621139999999
 21
290.1627299999999
 31
0.0
  0
LINE
  5
91
330
1F
100
AcDbEntity
  8
1
100
AcDbLine
 10
412.9073759999999
 20
292.848705
 30
0.0
 11
406.518297
 21
292.570291
 31
0.0
  0
LINE
  5
92
330
1F
100
AcDbEntity
  8
1
100
AcDbLine
 10
286.4048419999999
 20
302.665331
 30
0.0
 11
286.4048419999999
 21
287.276545
 31
0.0
  0
LINE
  5
93
330
1F
100
AcDbEntity
  8
1
100
AcDbLine
 10
414.700281
 20
302.540002
 30
0.0
 11
415.057361
 21
294.585554
 31
0.0
  0
LINE
  5
95
330
1F
100
AcDbEntity
  8
1
100
AcDbLine
 10
405.9237659999999
 20
302.929652
 30
0.0
 11
413.8936029999999
 21
303.276951
 31
0.0
  0
LINE
  5
96
330
1F
100
AcDbEntity
  8
1
100
AcDbLine
 10
405.543354
 20
294.1709649999999
 30
0.0
 11
405.1862729999999
 21
302.125413
 31
0.0
  0
LINE
  5
97
330
1F
100
AcDbEntity
  8
1
100
AcDbLine
 10
414.319869
 20
293.781315
 30
0.0
 11
406.350031
 21
293.4340160000001
 31
0.0
  0
LINE
  5
98
330
1F
100
AcDbEntity
  8
1
100
AcDbLine
 10
406.466608
 20
301.682559
 30
0.0
 11
413.45853
 21
301.987244
 31
0.0
  0
LINE
  5
99
330
1F
100
AcDbEntity
  8
1
100
AcDbLine
 10
406.7798739999999
 20
294.704139
 30
0.0
 11
406.466608
 21
301.682559
 31
0.0
  0
LINE
  5
9A
330
1F
100
AcDbEntity
  8
1
100
AcDbLine
 10
413.7717959999999
 20
295.008823
 30
0.0
 11
406.7798739999999
 21
294.704139
 31
0.0
  0
LINE
  5
9B
330
1F
100
AcDbEntity
  8
1
100
AcDbLine
 10
413.45853
 20
301.987244
 30
0.0
 11
413.7717959999999
 21
295.008823
 31
0.0
  0
LINE
  5
9C
330
1F
100
AcDbEntity
  8
1
100
AcDbLine
 10
415.2974359999999
 20
281.913516
 30
0.0
 11
414.6718359999999
 21
280.872342
 31
0.0
  0
LINE
  5
9D
330
1F
100
AcDbEntity
  8
1
100
AcDbLine
 10
414.3013999999999
 20
281.255939
 30
0.0
 11
414.6718359999999
 21
280.872342
 31
0.0
  0
LINE
  5
9E
330
1F
100
AcDbEntity
  8
1
100
AcDbLine
 10
414.6718359999999
 20
280.872342
 30
0.0
 11
413.968452
 21
280.48245
 31
0.0
  0
LINE
  5
9F
330
1F
100
AcDbEntity
  8
1
100
AcDbLine
 10
414.369933
 20
289.419478
 30
0.0
 11
414.797416
 21
289.16262
 31
0.0
  0
LINE
  5
A0
330
1F
100
AcDbEntity
  8
1
100
AcDbLine
 10
414.4138179999999
 20
288.792185
 30
0.0
 11
414.797416
 21
289.16262
 31
0.0
  0
LINE
  5
A1
330
1F
100
AcDbEntity
  8
1
100
AcDbLine
 10
414.797416
 20
289.16262
 30
0.0
 11
415.4048419999999
 21
288.066795
 31
0.0
  0
LINE
  5
A2
330
1F
100
AcDbEntity
  8
1
100
AcDbLine
 10
414.8874189999999
 20
287.937787
 30
0.0
 11
415.4048419999999
 21
288.066795
 31
0.0
  0
LINE
  5
A3
330
1F
100
AcDbEntity
  8
1
100
AcDbLine
 10
414.7848309999999
 20
282.060503
 30
0.0
 11
415.2974359999999
 21
281.913516
 31
0.0
  0
LINE
  5
A4
330
1F
100
AcDbEntity
  8
1
100
AcDbLine
 10
415.4048419999999
 20
288.066795
 30
0.0
 11
415.2974359999999
 21
281.913516
 31
0.0
  0
LINE
  5
A5
330
1F
100
AcDbEntity
  8
1
100
AcDbLine
 10
414.3013999999999
 20
281.255939
 30
0.0
 11
413.850665
 21
281.006093
 31
0.0
  0
LINE
  5
A6
330
1F
100
AcDbEntity
  8
1
100
AcDbLine
 10
414.2414729999999
 20
287.776734
 30
0.0
 11
414.183864
 21
287.880664
 31
0.0
  0
LINE
  5
A7
330
1F
100
AcDbEntity
  8
1
100
AcDbLine
 10
414.4138179999999
 20
288.792185
 30
0.0
 11
414.8874189999999
 21
287.937787
 31
0.0
  0
LINE
  5
A8
330
1F
100
AcDbEntity
  8
1
100
AcDbLine
 10
414.8874189999999
 20
287.937787
 30
0.0
 11
414.2414729999999
 21
287.776734
 31
0.0
  0
LINE
  5
A9
330
1F
100
AcDbEntity
  8
1
100
AcDbLine
 10
414.1448989999999
 20
282.244001
 30
0.0
 11
414.176952
 21
284.08035
 31
0.0
  0
LINE
  5
AA
330
1F
100
AcDbEntity
  8
1
100
AcDbLine
 10
414.183868
 20
284.476545
 30
0.0
 11
414.2414729999999
 21
287.776734
 31
0.0
  0
LINE
  5
AB
330
1F
100
AcDbEntity
  8
1
100
AcDbLine
 10
414.8874189999999
 20
287.937787
 30
0.0
 11
414.7848309999999
 21
282.060503
 31
0.0
  0
LINE
  5
AC
330
1F
100
AcDbEntity
  8
1
100
AcDbLine
 10
414.7848309999999
 20
282.060503
 30
0.0
 11
414.1448989999999
 21
282.244001
 31
0.0
  0
LINE
  5
AD
330
1F
100
AcDbEntity
  8
1
100
AcDbLine
 10
413.947114
 20
281.91483
 30
0.0
 11
414.1448989999999
 21
282.244001
 31
0.0
  0
LINE
  5
AE
330
1F
100
AcDbEntity
  8
1
100
AcDbLine
 10
414.3013999999999
 20
281.255939
 30
0.0
 11
413.9191939999999
 21
281.651726
 31
0.0
  0
LINE
  5
AF
330
1F
100
AcDbEntity
  8
1
100
AcDbLine
 10
414.7848309999999
 20
282.060503
 30
0.0
 11
414.3013999999999
 21
281.255939
 31
0.0
  0
LINE
  5
B0
330
1F
100
AcDbEntity
  8
1
100
AcDbLine
 10
414.4138179999999
 20
288.792185
 30
0.0
 11
414.183867
 21
288.570123
 31
0.0
  0
LINE
  5
B1
330
1F
100
AcDbEntity
  8
1
100
AcDbLine
 10
414.183914
 20
288.930325
 30
0.0
 11
414.4138179999999
 21
288.792185
 31
0.0
  0
LINE
  5
B2
330
1F
100
AcDbEntity
  8
1
100
AcDbLine
 10
412.7946149999999
 20
284.145494
 30
0.0
 11
413.0853649999999
 21
284.145494
 31
0.0
  0
LINE
  5
B3
330
1F
100
AcDbEntity
  8
1
100
AcDbLine
 10
405.433148
 20
302.714181
 30
0.0
 11
405.4247829999999
 21
302.906788
 31
0.0
  0
LINE
  5
B4
330
1F
100
AcDbEntity
  8
1
100
AcDbLine
 10
408.2070709999999
 20
293.308714
 30
0.0
 11
414.4492709999999
 21
293.580728
 31
0.0
  0
LINE
  5
B5
330
1F
100
AcDbEntity
  8
1
100
AcDbLine
 10
414.6448419999999
 20
289.972741
 30
0.0
 11
414.6448419999999
 21
290.072756
 31
0.0
  0
LINE
  5
B6
330
1F
100
AcDbEntity
  8
1
100
AcDbLine
 10
414.4507879999999
 20
293.4153950000001
 30
0.0
 11
414.4492709999999
 21
293.580728
 31
0.0
  0
LINE
  5
B7
330
1F
100
AcDbEntity
  8
1
100
AcDbLine
 10
405.20623
 20
302.318289
 30
0.0
 11
405.184278
 21
302.8237279999999
 31
0.0
  0
LINE
  5
B8
330
1F
100
AcDbEntity
  8
1
100
AcDbLine
 10
414.3680779999999
 20
292.872092
 30
0.0
 11
406.525747
 21
292.53035
 31
0.0
  0
LINE
  5
B9
330
1F
100
AcDbEntity
  8
1
100
AcDbLine
 10
414.3680779999999
 20
292.872092
 30
0.0
 11
412.6840129999999
 21
290.066074
 31
0.0
  0
LINE
  5
BA
330
1F
100
AcDbEntity
  8
1
100
AcDbLine
 10
413.9728789999999
 20
280.482375
 30
0.0
 11
413.865528
 21
280.4840930000001
 31
0.0
  0
LINE
  5
BB
330
1F
100
AcDbEntity
  8
1
100
AcDbLine
 10
413.848362
 20
280.984432
 30
0.0
 11
414.183868
 21
284.145494
 31
0.0
  0
LINE
  5
BC
330
1F
100
AcDbEntity
  8
1
100
AcDbLine
 10
414.183868
 20
284.145494
 30
0.0
 11
414.183868
 21
288.911302
 31
0.0
  0
LINE
  5
BD
330
1F
100
AcDbEntity
  8
1
100
AcDbLine
 10
414.2541379999999
 20
289.410151
 30
0.0
 11
414.3616719999999
 21
289.408274
 31
0.0
  0
LINE
  5
BE
330
1F
100
AcDbEntity
  8
1
100
AcDbLine
 10
279.404842
 20
267.907994
 30
0.0
 11
279.404842
 21
271.700972
 31
0.0
  0
LINE
  5
BF
330
1F
100
AcDbEntity
  8
1
100
AcDbLine
 10
279.404842
 20
309.907994
 30
0.0
 11
279.404842
 21
280.222161
 31
0.0
  0
LINE
  5
C0
330
1F
100
AcDbEntity
  8
1
100
AcDbLine
 10
414.3680779999999
 20
292.872092
 30
0.0
 11
414.3854319999999
 21
292.880853
 31
0.0
  0
LINE
  5
C1
330
1F
100
AcDbEntity
  8
1
100
AcDbLine
 10
414.4912319999999
 20
293.601913
 30
0.0
 11
408.212301
 21
293.328298
 31
0.0
  0
LINE
  5
C2
330
1F
100
AcDbEntity
  8
1
100
AcDbLine
 10
408.2070709999999
 20
293.308714
 30
0.0
 11
408.212301
 21
293.328298
 31
0.0
  0
LINE
  5
C3
330
1F
100
AcDbEntity
  8
1
100
AcDbLine
 10
414.3616719999999
 20
289.408274
 30
0.0
 11
414.6026799999999
 21
289.734866
 31
0.0
  0
LINE
  5
C4
330
1F
100
AcDbEntity
  8
1
100
AcDbLine
 10
414.6026799999999
 20
289.973477
 30
0.0
 11
414.6026799999999
 21
289.734866
 31
0.0
  0
LINE
  5
C5
330
1F
100
AcDbEntity
  8
1
100
AcDbLine
 10
414.6026799999999
 20
289.973477
 30
0.0
 11
414.6448419999999
 21
289.972741
 31
0.0
  0
LINE
  5
C6
330
1F
100
AcDbEntity
  8
1
100
AcDbLine
 10
414.6448419999999
 20
293.881397
 30
0.0
 11
414.6448419999999
 21
290.072756
 31
0.0
  0
LINE
  5
C7
330
1F
100
AcDbEntity
  8
1
100
AcDbLine
 10
414.4912319999999
 20
293.601913
 30
0.0
 11
414.489178
 21
293.825831
 31
0.0
  0
LINE
  5
C8
330
1F
100
AcDbEntity
  8
1
100
AcDbLine
 10
414.4912319999999
 20
293.601913
 30
0.0
 11
414.4492709999999
 21
293.580728
 31
0.0
  0
LINE
  5
C9
330
1F
100
AcDbEntity
  8
1
100
AcDbLine
 10
413.6644
 20
274.907994
 30
0.0
 11
414.195237
 21
279.909422
 31
0.0
  0
LINE
  5
CA
330
1F
100
AcDbEntity
  8
1
100
AcDbLine
 10
414.195237
 20
279.909422
 30
0.0
 11
414.153147
 21
279.910095
 31
0.0
  0
LINE
  5
CB
330
1F
100
AcDbEntity
  8
1
100
AcDbLine
 10
414.178429
 20
280.148296
 30
0.0
 11
414.153147
 21
279.910095
 31
0.0
  0
LINE
  5
CC
330
1F
100
AcDbEntity
  8
1
100
AcDbLine
 10
414.178429
 20
280.148296
 30
0.0
 11
413.9728789999999
 21
280.482375
 31
0.0
  0
LINE
  5
CD
330
1F
100
AcDbEntity
  8
1
100
AcDbLine
 10
413.444952
 20
284.145494
 30
0.0
 11
414.183868
 21
284.145494
 31
0.0
  0
LINE
  5
CE
330
1F
100
AcDbEntity
  8
SK1
100
AcDbLine
 10
216.404842
 20
304.907994
 30
0.0
 11
216.404842
 21
272.907994
 31
0.0
  0
LINE
  5
CF
330
1F
100
AcDbEntity
  8
SK1
100
AcDbLine
 10
214.404842
 20
302.907994
 30
0.0
 11
214.404842
 21
274.907994
 31
0.0
  0
LINE
  5
D0
330
1F
100
AcDbEntity
  8
1
100
AcDbLine
 10
405.255724
 20
296.011298
 30
0.0
 11
405.250493
 21
295.991713
 31
0.0
  0
LINE
  5
D1
330
1F
100
AcDbEntity
  8
1
100
AcDbLine
 10
405.255724
 20
296.011298
 30
0.0
 11
404.959833
 21
302.824157
 31
0.0
  0
LINE
  5
D2
330
1F
100
AcDbEntity
  8
1
100
AcDbLine
 10
404.955316
 20
302.788127
 30
0.0
 11
405.250493
 21
295.991713
 31
0.0
  0
LINE
  5
D3
330
1F
100
AcDbEntity
  8
1
100
AcDbLine
 10
413.6644
 20
274.907994
 30
0.0
 11
395.396561
 21
274.907994
 31
0.0
  0
LINE
  5
D4
330
1F
100
AcDbEntity
  8
1
100
AcDbLine
 10
274.904842
 20
267.907994
 30
0.0
 11
274.904842
 21
288.907994
 31
0.0
  0
LINE
  5
D5
330
1F
100
AcDbEntity
  8
1
100
AcDbLine
 10
274.904842
 20
288.907994
 30
0.0
 11
274.904842
 21
309.907994
 31
0.0
  0
LINE
  5
D6
330
1F
100
AcDbEntity
  8
1
100
AcDbLine
 10
407.3251439999999
 20
298.9720549999999
 30
0.0
 11
407.3046989999999
 21
298.895508
 31
0.0
  0
LINE
  5
D7
330
1F
100
AcDbEntity
  8
1
100
AcDbLine
 10
412.61843
 20
297.476258
 30
0.0
 11
412.638875
 21
297.552805
 31
0.0
  0
LINE
  5
D8
330
1F
100
AcDbEntity
  8
1
100
AcDbLine
 10
279.404842
 20
267.907994
 30
0.0
 11
282.304337
 21
270.807488
 31
0.0
  0
LINE
  5
D9
330
1F
100
AcDbEntity
  8
1
100
AcDbLine
 10
282.304337
 20
307.008499
 30
0.0
 11
279.404842
 21
309.907994
 31
0.0
  0
LINE
  5
DA
330
1F
100
AcDbEntity
  8
SK1
100
AcDbLine
 10
214.404842
 20
274.907994
 30
0.0
 11
216.404842
 21
272.907994
 31
0.0
  0
LINE
  5
DB
330
1F
100
AcDbEntity
  8
SK1
100
AcDbLine
 10
216.404842
 20
304.907994
 30
0.0
 11
214.404842
 21
302.907994
 31
0.0
  0
LINE
  5
DC
330
1F
100
AcDbEntity
  8
SK1
100
AcDbLine
 10
274.404842
 20
304.907994
 30
0.0
 11
216.404842
 21
304.907994
 31
0.0
  0
LINE
  5
DD
330
1F
100
AcDbEntity
  8
1
100
AcDbLine
 10
274.904842
 20
267.907994
 30
0.0
 11
274.404842
 21
268.407994
 31
0.0
  0
LINE
  5
DE
330
1F
100
AcDbEntity
  8
1
100
AcDbLine
 10
274.404842
 20
309.407994
 30
0.0
 11
274.904842
 21
309.907994
 31
0.0
  0
LINE
  5
DF
330
1F
100
AcDbEntity
  8
1
100
AcDbLine
 10
279.404842
 20
309.907994
 30
0.0
 11
274.904842
 21
309.907994
 31
0.0
  0
LINE
  5
E4
330
1F
100
AcDbEntity
  8
80
100
AcDbLine
 10
275.404416
 20
288.907994
 30
0.0
 11
273.405268
 21
288.907994
 31
0.0
  0
LINE
  5
E5
330
1F
100
AcDbEntity
  8
1
100
AcDbLine
 10
274.404842
 20
309.407994
 30
0.0
 11
274.404842
 21
288.907994
 31
0.0
  0
LINE
  5
E6
330
1F
100
AcDbEntity
  8
1
100
AcDbLine
 10
274.404842
 20
288.907994
 30
0.0
 11
274.404842
 21
268.407994
 31
0.0
  0
LINE
  5
E7
330
1F
100
AcDbEntity
  8
80
100
AcDbLine
 10
274.404842
 20
287.90842
 30
0.0
 11
274.404842
 21
289.907567
 31
0.0
  0
LINE
  5
E8
330
1F
100
AcDbEntity
  8
81
100
AcDbLine
 10
415.4048419999999
 20
305.407994
 30
0.0
 11
415.4048419999999
 21
301.407994
 31
0.0
  0
LINE
  5
E9
330
1F
100
AcDbEntity
  8
SK1
100
AcDbLine
 10
216.404842
 20
272.907994
 30
0.0
 11
274.404842
 21
272.907994
 31
0.0
  0
LINE
  5
EA
330
1F
100
AcDbEntity
  8
81
100
AcDbLine
 10
413.404842
 20
303.407994
 30
0.0
 11
417.404842
 21
303.407994
 31
0.0
  0
LINE
  5
EB
330
1F
100
AcDbEntity
  8
1
100
AcDbLine
 10
274.904842
 20
267.907994
 30
0.0
 11
279.404842
 21
267.907994
 31
0.0
  0
LINE
  5
11C
330
1F
100
AcDbEntity
  8
NOCUT
100
AcDbLine
 10
279.404842
 20
309.907994
 30
0.0
 11
282.304337
 21
307.008499
 31
0.0
  0
LINE
  5
11D
330
1F
100
AcDbEntity
  8
NOCUT
100
AcDbLine
 10
292.203832
 20
302.907994
 30
0.0
 11
414.257901
 21
302.907994
 31
0.0
  0
LINE
  5
11E
330
1F
100
AcDbEntity
  8
NOCUT
100
AcDbLine
 10
414.257901
 20
302.907994
 30
0.0
 11
414.6448419999999
 21
294.114096
 31
0.0
  0
LINE
  5
11F
330
1F
100
AcDbEntity
  8
NOCUT
100
AcDbLine
 10
414.6448419999999
 20
294.114096
 30
0.0
 11
414.6448419999999
 21
288.907994
 31
0.0
  0
LINE
  5
120
330
1F
100
AcDbEntity
  8
NOCUT
100
AcDbLine
 10
414.6448419999999
 20
288.907994
 30
0.0
 11
214.404842
 21
288.907994
 31
0.0
  0
LINE
  5
121
330
1F
100
AcDbEntity
  8
NOCUT
100
AcDbLine
 10
274.404842
 20
304.907994
 30
0.0
 11
274.404842
 21
309.407994
 31
0.0
  0
LINE
  5
122
330
1F
100
AcDbEntity
  8
NOCUT
100
AcDbLine
 10
274.404842
 20
309.407994
 30
0.0
 11
274.904842
 21
309.907994
 31
0.0
  0
LINE
  5
123
330
1F
100
AcDbEntity
  8
NOCUT
100
AcDbLine
 10
214.404842
 20
302.907994
 30
0.0
 11
216.404842
 21
304.907994
 31
0.0
  0
LINE
  5
124
330
1F
100
AcDbEntity
  8
NOCUT
100
AcDbLine
 10
274.404842
 20
304.907994
 30
0.0
 11
216.404842
 21
304.907994
 31
0.0
  0
LINE
  5
125
330
1F
100
AcDbEntity
  8
NOCUT
100
AcDbLine
 10
279.404842
 20
309.907994
 30
0.0
 11
274.904842
 21
309.907994
 31
0.0
  0
LINE
  5
126
330
1F
100
AcDbEntity
  8
NOCUT
100
AcDbLine
 10
214.404842
 20
302.907994
 30
0.0
 11
214.404842
 21
288.907994
 31
0.0
  0
ARC
  5
12F
330
1F
100
AcDbEntity
  8
1
100
AcDbCircle
 10
410.402831
 20
285.273558
 30
0.0
 40
1.5
100
AcDbArc
 50
75.0
 51
345.0
  0
CIRCLE
  5
130
330
1F
100
AcDbEntity
  8
1
100
AcDbCircle
 10
410.4224789999999
 20
285.253212
 30
0.0
 40
1.099999999999998
  0
ARC
  5
131
330
1F
100
AcDbEntity
  8
1
100
AcDbCircle
 10
292.203832
 20
260.907994
 30
0.0
 40
14.0
100
AcDbArc
 50
90.0
 51
135.0
  0
ARC
  5
132
330
1F
100
AcDbEntity
  8
1
100
AcDbCircle
 10
292.203832
 20
316.907994
 30
0.0
 40
14.0
100
AcDbArc
 50
225.0
 51
270.0
  0
ARC
  5
141
330
1F
100
AcDbEntity
  8
NOCUT
100
AcDbCircle
 10
292.203832
 20
316.907994
 30
0.0
 40
14.0
100
AcDbArc
 50
225.0
 51
270.0
  0
ELLIPSE
  5
142
330
1F
100
AcDbEntity
  8
1
100
AcDbEllipse
 10
406.2069499999999
 20
291.198824
 30
0.0
 11
-0.6723783530007607
 21
-0.0324079326056129
 31
0.0
210
0.0
220
0.0
230
0.9999999999999998
 40
0.221492
 41
2.139322045924716
 42
4.137678387507346
  0
ELLIPSE
  5
143
330
1F
100
AcDbEntity
  8
1
100
AcDbEllipse
 10
405.961555
 20
305.131758
 30
0.0
 11
-12.1732727756235
 21
3.25137354517499
 31
0.0
210
0.0
220
0.0
230
1.0
 40
0.9977149999999999
 41
1.309254993020597
 42
1.875432126565234
  0
ELLIPSE
  5
144
330
1F
100
AcDbEntity
  8
1
100
AcDbEllipse
 10
409.9820089999999
 20
298.26243
 30
0.0
 11
-2.656865089917826
 21
0.7096251785104143
 31
0.0
210
0.0
220
0.0
230
0.9999999999999998
 40
0.9977149999999998
 41
3.1416682561326
 42
6.283162710081786
  0
ELLIPSE
  5
145
330
1F
100
AcDbEntity
  8
1
100
AcDbEllipse
 10
409.512336
 20
297.09596
 30
0.0
 11
-0.0965221760105445
 21
0.0257802199447827
 31
0.0
210
0.0
220
0.0
230
1.0
 40
0.9977149999999999
 41
5.21585425207991
 42
6.064789404490599
  0
ELLIPSE
  5
146
330
1F
100
AcDbEntity
  8
1
100
AcDbEllipse
 10
409.3350229999999
 20
297.188026
 30
0.0
 11
-0.0965221760105447
 21
0.0257802199447827
 31
0.0
210
0.0
220
0.0
230
0.9999999999999998
 40
0.9977149999999999
 41
1.550662822891553
 42
2.923196750900869
  0
ELLIPSE
  5
147
330
1F
100
AcDbEntity
  8
1
100
AcDbEllipse
 10
409.4612859999999
 20
297.625179
 30
0.0
 11
-0.5371411886095508
 21
0.1434656630849622
 31
0.0
210
0.0
220
0.0
230
1.0
 40
0.9977149999999999
 41
0.6305392497219973
 42
1.550662822891813
  0
ELLIPSE
  5
148
330
1F
100
AcDbEntity
  8
1
100
AcDbEllipse
 10
409.0361679999999
 20
297.461048
 30
0.0
 11
-0.0965221760105445
 21
0.0257802199447826
 31
0.0
210
0.0
220
0.0
230
1.0
 40
0.9977149999999999
 41
5.541190628892087
 42
6.913724556901744
  0
ELLIPSE
  5
149
330
1F
100
AcDbEntity
  8
1
100
AcDbEllipse
 10
408.928633
 20
297.629208
 30
0.0
 11
-0.0965221760105445
 21
0.0257802199447827
 31
0.0
210
0.0
220
0.0
230
0.9999999999999996
 40
0.9977149999999999
 41
2.399597975303036
 42
3.248533127713513
  0
ELLIPSE
  5
14A
330
1F
100
AcDbEntity
  8
1
100
AcDbEllipse
 10
408.477999
 20
297.699298
 30
0.0
 11
-0.5371411886095508
 21
0.1434656630849621
 31
0.0
210
0.0
220
0.0
230
1.0
 40
0.9977149999999999
 41
3.248533127713502
 42
4.168656700883377
  0
ELLIPSE
  5
14B
330
1F
100
AcDbEntity
  8
1
100
AcDbEllipse
 10
408.806429
 20
298.014629
 30
0.0
 11
-0.0965221760105445
 21
0.0257802199447827
 31
0.0
210
0.0
220
0.0
230
1.0
 40
0.9977149999999999
 41
4.168656700883627
 42
5.017591853294458
  0
ELLIPSE
  5
14C
330
1F
100
AcDbEntity
  8
1
100
AcDbEllipse
 10
408.797487
 20
298.2138240000001
 30
0.0
 11
-0.0965221760105447
 21
0.0257802199447827
 31
0.0
210
0.0
220
0.0
230
0.9999999999999998
 40
0.9977149999999999
 41
0.5034652716953115
 42
1.875999199704915
  0
ELLIPSE
  5
14D
330
1F
100
AcDbEntity
  8
1
100
AcDbEllipse
 10
409.2400809999999
 20
298.322838
 30
0.0
 11
-0.5371411886095508
 21
0.1434656630849622
 31
0.0
210
0.0
220
0.0
230
1.0
 40
0.9977149999999999
 41
5.866527005704949
 42
6.786650578874894
  0
ELLIPSE
  5
14E
330
1F
100
AcDbEntity
  8
1
100
AcDbEllipse
 10
408.8846779999999
 20
298.608369
 30
0.0
 11
-0.0965221760105445
 21
0.0257802199447826
 31
0.0
210
0.0
220
0.0
230
1.0
 40
0.9977149999999999
 41
4.493993077696221
 42
5.86652700570496
  0
ELLIPSE
  5
14F
330
1F
100
AcDbEntity
  8
1
100
AcDbEllipse
 10
408.976724
 20
298.785226
 30
0.0
 11
-0.0965221760105445
 21
0.0257802199447827
 31
0.0
210
0.0
220
0.0
230
0.9999999999999996
 40
0.9977149999999999
 41
1.352400424105612
 42
2.201335576516946
  0
ELLIPSE
  5
150
330
1F
100
AcDbEntity
  8
1
100
AcDbEllipse
 10
408.8117829999999
 20
299.20969
 30
0.0
 11
-0.5371411886095508
 21
0.1434656630849621
 31
0.0
210
0.0
220
0.0
230
1.0
 40
0.9977149999999999
 41
2.201335576516898
 42
3.121459149686745
  0
ELLIPSE
  5
151
330
1F
100
AcDbEntity
  8
1
100
AcDbEllipse
 10
409.2499479999999
 20
299.083178
 30
0.0
 11
-0.0965221760105445
 21
0.0257802199447827
 31
0.0
210
0.0
220
0.0
230
1.0
 40
0.9977149999999999
 41
3.121459149686665
 42
3.970394302098
  0
ELLIPSE
  5
152
330
1F
100
AcDbEntity
  8
1
100
AcDbEllipse
 10
409.4183189999999
 20
299.190308
 30
0.0
 11
-0.0965221760105447
 21
0.0257802199447827
 31
0.0
210
0.0
220
0.0
230
0.9999999999999998
 40
0.9977149999999999
 41
5.739453027678441
 42
7.11198695568701
  0
ELLIPSE
  5
153
330
1F
100
AcDbEntity
  8
1
100
AcDbEllipse
 10
409.7346509999999
 20
298.862168
 30
0.0
 11
-0.5371411886095508
 21
0.1434656630849622
 31
0.0
210
0.0
220
0.0
230
1.0
 40
0.9977149999999999
 41
4.819329454508425
 42
5.739453027678278
  0
ELLIPSE
  5
154
330
1F
100
AcDbEntity
  8
1
100
AcDbEllipse
 10
409.804366
 20
299.31183
 30
0.0
 11
-0.0965221760105445
 21
0.0257802199447826
 31
0.0
210
0.0
220
0.0
230
1.0
 40
0.9977149999999999
 41
3.446795526499353
 42
4.819329454508316
  0
ELLIPSE
  5
155
330
1F
100
AcDbEntity
  8
1
100
AcDbEllipse
 10
410.003947
 20
299.320528
 30
0.0
 11
-0.0965221760105445
 21
0.0257802199447827
 31
0.0
210
0.0
220
0.0
230
0.9999999999999996
 40
0.9977149999999999
 41
0.3052028729093901
 42
1.154138025320297
  0
ELLIPSE
  5
156
330
1F
100
AcDbEntity
  8
1
100
AcDbEllipse
 10
410.2896399999999
 20
299.674901
 30
0.0
 11
-0.5371411886095508
 21
0.1434656630849621
 31
0.0
210
0.0
220
0.0
230
1.0
 40
0.9977149999999999
 41
1.154138025320291
 42
2.074261598490139
  0
ELLIPSE
  5
157
330
1F
100
AcDbEntity
  8
1
100
AcDbEllipse
 10
410.3993749999999
 20
299.233059
 30
0.0
 11
-0.0965221760105445
 21
0.0257802199447827
 31
0.0
210
0.0
220
0.0
230
1.0
 40
0.9977149999999999
 41
2.074261598489834
 42
2.923196750901008
  0
ELLIPSE
  5
158
330
1F
100
AcDbEntity
  8
1
100
AcDbEllipse
 10
410.576688
 20
299.1409930000001
 30
0.0
 11
-0.0965221760105447
 21
0.0257802199447827
 31
0.0
210
0.0
220
0.0
230
0.9999999999999998
 40
0.9977149999999999
 41
4.692255476481629
 42
6.064789404490585
  0
ELLIPSE
  5
159
330
1F
100
AcDbEntity
  8
1
100
AcDbEllipse
 10
410.4504249999999
 20
298.703839
 30
0.0
 11
-0.5371411886095508
 21
0.1434656630849622
 31
0.0
210
0.0
220
0.0
230
1.0
 40
0.9977149999999999
 41
3.772131903311821
 42
4.692255476481657
  0
ELLIPSE
  5
15A
330
1F
100
AcDbEntity
  8
1
100
AcDbEllipse
 10
410.875544
 20
298.86797
 30
0.0
 11
-0.0965221760105445
 21
0.0257802199447826
 31
0.0
210
0.0
220
0.0
230
1.0
 40
0.9977149999999999
 41
2.399597975302336
 42
3.772131903311842
  0
ELLIPSE
  5
15B
330
1F
100
AcDbEntity
  8
1
100
AcDbEllipse
 10
410.983078
 20
298.699811
 30
0.0
 11
-0.0965221760105445
 21
0.0257802199447827
 31
0.0
210
0.0
220
0.0
230
0.9999999999999996
 40
0.9977149999999999
 41
5.541190628892533
 42
6.390125781303463
  0
ELLIPSE
  5
15C
330
1F
100
AcDbEntity
  8
1
100
AcDbEllipse
 10
411.433713
 20
298.62972
 30
0.0
 11
-0.5371411886095508
 21
0.1434656630849621
 31
0.0
210
0.0
220
0.0
230
1.0
 40
0.9977149999999999
 41
0.1069404741237071
 42
1.027064047293585
  0
ELLIPSE
  5
15D
330
1F
100
AcDbEntity
  8
1
100
AcDbEllipse
 10
411.105283
 20
298.31439
 30
0.0
 11
-0.0965221760105445
 21
0.0257802199447827
 31
0.0
210
0.0
220
0.0
230
1.0
 40
0.9977149999999999
 41
1.0270640472937
 42
1.875999199704645
  0
ELLIPSE
  5
15E
330
1F
100
AcDbEntity
  8
1
100
AcDbEllipse
 10
411.1142249999999
 20
298.115195
 30
0.0
 11
-0.0965221760105447
 21
0.0257802199447827
 31
0.0
210
0.0
220
0.0
230
0.9999999999999998
 40
0.9977149999999999
 41
3.645057925284973
 42
5.017591853294436
  0
ELLIPSE
  5
15F
330
1F
100
AcDbEntity
  8
1
100
AcDbEllipse
 10
410.67163
 20
298.00618
 30
0.0
 11
-0.5371411886095508
 21
0.1434656630849622
 31
0.0
210
0.0
220
0.0
230
1.0
 40
0.9977149999999999
 41
2.724934352115195
 42
3.645057925285043
  0
ELLIPSE
  5
160
330
1F
100
AcDbEntity
  8
1
100
AcDbEllipse
 10
411.027033
 20
297.720649
 30
0.0
 11
-0.0965221760105445
 21
0.0257802199447826
 31
0.0
210
0.0
220
0.0
230
1.0
 40
0.9977149999999999
 41
1.352400424106336
 42
2.72493435211534
  0
ELLIPSE
  5
161
330
1F
100
AcDbEntity
  8
1
100
AcDbEllipse
 10
410.934987
 20
297.543792
 30
0.0
 11
-0.0965221760105445
 21
0.0257802199447827
 31
0.0
210
0.0
220
0.0
230
0.9999999999999996
 40
0.9977149999999999
 41
4.49399307769613
 42
5.342928230106958
  0
ELLIPSE
  5
162
330
1F
100
AcDbEntity
  8
1
100
AcDbEllipse
 10
411.099929
 20
297.119328
 30
0.0
 11
-0.5371411886095508
 21
0.1434656630849621
 31
0.0
210
0.0
220
0.0
230
1.0
 40
0.9977149999999999
 41
5.342928230106748
 42
6.26305180327655
  0
ELLIPSE
  5
163
330
1F
100
AcDbEntity
  8
1
100
AcDbEllipse
 10
410.661763
 20
297.24584
 30
0.0
 11
-0.0965221760105445
 21
0.0257802199447827
 31
0.0
210
0.0
220
0.0
230
1.0
 40
0.9977149999999999
 41
6.263051803276603
 42
7.111986955687477
  0
ELLIPSE
  5
164
330
1F
100
AcDbEntity
  8
1
100
AcDbEllipse
 10
410.4933919999999
 20
297.138711
 30
0.0
 11
-0.0965221760105447
 21
0.0257802199447827
 31
0.0
210
0.0
220
0.0
230
0.9999999999999998
 40
0.9977149999999999
 41
2.597860374088304
 42
3.970394302097798
  0
ELLIPSE
  5
165
330
1F
100
AcDbEntity
  8
1
100
AcDbEllipse
 10
410.1770609999999
 20
297.46685
 30
0.0
 11
-0.5371411886095508
 21
0.1434656630849622
 31
0.0
210
0.0
220
0.0
230
1.0
 40
0.9977149999999999
 41
1.677736800918631
 42
2.597860374088461
  0
ELLIPSE
  5
166
330
1F
100
AcDbEntity
  8
1
100
AcDbEllipse
 10
410.107345
 20
297.017188
 30
0.0
 11
-0.0965221760105445
 21
0.0257802199447826
 31
0.0
210
0.0
220
0.0
230
1.0
 40
0.9977149999999999
 41
0.3052028729094756
 42
1.677736800918784
  0
ELLIPSE
  5
167
330
1F
100
AcDbEntity
  8
1
100
AcDbEllipse
 10
409.9077649999999
 20
297.008491
 30
0.0
 11
-0.0965221760105445
 21
0.0257802199447827
 31
0.0
210
0.0
220
0.0
230
0.9999999999999996
 40
0.9977149999999999
 41
3.446795526499421
 42
4.295730678910349
  0
ELLIPSE
  5
168
330
1F
100
AcDbEntity
  8
1
100
AcDbEllipse
 10
409.6220719999999
 20
296.654118
 30
0.0
 11
-0.5371411886095508
 21
0.1434656630849621
 31
0.0
210
0.0
220
0.0
230
1.0
 40
0.9977149999999999
 41
4.295730678910168
 42
5.215854252080028
  0
ELLIPSE
  5
169
330
1F
100
AcDbEntity
  8
1
100
AcDbEllipse
 10
409.955856
 20
298.164509
 30
0.0
 11
1.739038967946215
 21
-0.4644819350249994
 31
0.0
210
0.0
220
0.0
230
0.9999999999999998
 40
0.9977149999999999
 41
0.0
 42
6.283185307179585
  0
ELLIPSE
  5
16A
330
1F
100
AcDbEntity
  8
1
100
AcDbEllipse
 10
409.961565
 20
298.185883
 30
0.0
 11
2.656865089917826
 21
-0.7096251785104153
 31
0.0
210
0.0
220
0.0
230
1.0
 40
0.9977149999999998
 41
0.0
 42
6.283185307179585
  0
ELLIPSE
  5
16B
330
1F
100
AcDbEntity
  8
1
100
AcDbEllipse
 10
410.141869
 20
298.430556
 30
0.0
 11
2.990426653188631
 21
-0.7987165233357483
 31
0.0
210
0.0
220
0.0
230
1.0
 40
0.9977149999999999
 41
2.264673262974929
 42
6.283185307179585
  0
ELLIPSE
  5
16C
330
1F
100
AcDbEntity
  8
1
100
AcDbEllipse
 10
410.141869
 20
298.430556
 30
0.0
 11
2.990426653188631
 21
-0.7987165233357483
 31
0.0
210
0.0
220
0.0
230
1.0
 40
0.9977149999999999
 41
0.0
 42
0.8769727393660321
  0
ELLIPSE
  5
16D
330
1F
100
AcDbEntity
  8
1
100
AcDbEllipse
 10
406.2624539999999
 20
294.100563
 30
0.0
 11
0.9539746251573996
 21
1.0422760640228
 31
0.0
210
0.0
220
0.0
230
1.0
 40
0.022111
 41
0.9735594950420534
 42
1.528370527451878
  0
ELLIPSE
  5
16E
330
1F
100
AcDbEntity
  8
1
100
AcDbEllipse
 10
410.122079
 20
298.356463
 30
0.0
 11
3.047894963411017
 21
-0.8140658009693796
 31
0.0
210
0.0
220
0.0
230
1.0
 40
0.9977149999999999
 41
0.0
 42
6.283185307179585
  0
ELLIPSE
  5
16F
330
1F
100
AcDbEntity
  8
1
100
AcDbEllipse
 10
414.3067249999999
 20
294.451105
 30
0.0
 11
1.042958970973824
 21
-0.9545996764017214
 31
0.0
210
0.0
220
0.0
230
1.0
 40
0.042396
 41
1.592874857175975
 42
2.147685889900142
  0
ELLIPSE
  5
170
330
1F
100
AcDbEntity
  8
1
100
AcDbEllipse
 10
405.9020379999999
 20
302.129301
 30
0.0
 11
1.042958970275656
 21
-0.9545996757471712
 31
0.0
210
0.0
220
0.0
230
1.0
 40
0.042396
 41
1.038063823913752
 42
1.592874856992829
  0
ELLIPSE
  5
171
330
1F
100
AcDbEntity
  8
1
100
AcDbEllipse
 10
413.9463089999999
 20
302.479843
 30
0.0
 11
0.9539746247517825
 21
1.042276063543241
 31
0.0
210
0.0
220
0.0
230
0.9999999999999998
 40
0.022111
 41
1.528370528230956
 42
2.083181560856099
  0
ELLIPSE
  5
172
330
1F
100
AcDbEntity
  8
1
100
AcDbEllipse
 10
410.119202
 20
298.345691
 30
0.0
 11
-3.139931469902891
 21
0.8386479382395817
 31
0.0
210
0.0
220
0.0
230
1.0
 40
0.9977149999999999
 41
0.0
 42
6.283185307179585
  0
ELLIPSE
  5
173
330
1F
100
AcDbEntity
  8
1
100
AcDbEllipse
 10
409.342643
 20
288.907994
 30
0.0
 11
24.01544726611556
 21
-13.81189850213234
 31
0.0
210
0.0
220
0.0
230
1.0
 40
0.09524
 41
4.154134226778623
 42
4.359749929695241
  0
ELLIPSE
  5
174
330
1F
100
AcDbEntity
  8
1
100
AcDbEllipse
 10
406.0107359999999
 20
288.907993
 30
0.0
 11
0.5899605856147874
 21
-13.99999508202217
 31
0.0
210
0.0
220
0.0
230
1.0
 40
0.020196
 41
3.016096008089105
 42
3.127620386115391
  0
ELLIPSE
  5
175
330
1F
100
AcDbEntity
  8
1
100
AcDbEllipse
 10
406.799931
 20
294.728325
 30
0.0
 11
1.932265519940236
 21
-0.5160910389166656
 31
0.0
210
0.0
220
0.0
230
1.0
 40
0.9977149999999999
 41
5.619781166511146
 42
5.753376575869035
  0
ELLIPSE
  5
176
330
1F
100
AcDbEntity
  8
1
100
AcDbEllipse
 10
405.87846
 20
288.907993
 30
0.0
 11
0.4895584126858409
 21
-13.9998285678818
 31
0.0
210
0.0
220
0.0
230
1.0
 40
0.141526
 41
3.123522474660391
 42
3.246416005009006
  0
ELLIPSE
  5
177
330
1F
100
AcDbEntity
  8
1
100
AcDbEllipse
 10
322.832703
 20
288.907993
 30
0.0
 11
297.8780181495561
 21
13.65297328234503
 31
0.0
210
0.0
220
0.0
230
0.9999999999999998
 40
0.0104
 41
4.997041373123169
 42
5.018322428776449
  0
ELLIPSE
  5
178
330
1F
100
AcDbEntity
  8
1
100
AcDbEllipse
 10
413.9185129999999
 20
280.983309
 30
0.0
 11
0.0538770024364534
 21
0.4991611425138944
 31
0.0
210
0.0
220
0.0
230
1.0
 40
0.139171
 41
1.583568179257869
 42
3.154364506041851
  0
ELLIPSE
  5
179
330
1F
100
AcDbEntity
  8
1
100
AcDbEllipse
 10
414.2541379999999
 20
288.910075
 30
0.0
 11
0.0001758288816804
 21
-0.5000776676615816
 31
0.0
210
0.0
220
0.0
230
0.9999999999999998
 40
0.140519
 41
3.139090475969136
 42
4.709886802772911
  0
ELLIPSE
  5
17A
330
1F
100
AcDbEntity
  8
1
100
AcDbEllipse
 10
316.731415
 20
288.907994
 30
0.0
 11
50.44667722087043
 21
-10.90378575367464
 31
0.0
210
0.0
220
0.0
230
0.9999999999999998
 40
0.174067
 41
4.257064677530806
 42
4.413072486204873
  0
ELLIPSE
  5
17B
330
1F
100
AcDbEntity
  8
1
100
AcDbEllipse
 10
406.805162
 20
294.747909
 30
0.0
 11
-1.932265519940236
 21
0.5160910389166649
 31
0.0
210
0.0
220
0.0
230
1.0
 40
0.9977149999999999
 41
2.61178392227924
 42
2.742150232711855
  0
ELLIPSE
  5
17C
330
1F
100
AcDbEntity
  8
1
100
AcDbEllipse
 10
414.380853
 20
293.380088
 30
0.0
 11
0.0003729802240751
 21
0.5004811191523491
 31
0.0
210
0.0
220
0.0
230
1.0
 40
0.140033
 41
3.212303616811392
 42
4.783099943614853
  0
ELLIPSE
  5
17D
330
1F
100
AcDbEntity
  8
1
100
AcDbEllipse
 10
415.15032
 20
288.907994
 30
0.0
 11
1.515342771884586
 21
13.99841667295692
 31
0.0
210
0.0
220
0.0
230
0.9999999999999998
 40
0.138944
 41
1.932942856568513
 42
3.156632395651078
  0
ELLIPSE
  5
17E
330
1F
100
AcDbEntity
  8
1
100
AcDbEllipse
 10
414.6448419999999
 20
288.907994
 30
0.0
 11
0.0
 21
13.9999999992488
 31
0.0
210
0.0
220
0.0
230
1.0
 40
0.140541
 41
1.487981676657626
 42
1.917903114526252
  0
ELLIPSE
  5
17F
330
1F
100
AcDbEntity
  8
1
100
AcDbEllipse
 10
406.872639
 20
295.000545
 30
0.0
 11
-1.932265519940236
 21
0.5160910389166649
 31
0.0
210
0.0
220
0.0
230
1.0
 40
0.9977149999999999
 41
0.070565088037547
 42
1.875999251379564
  0
ELLIPSE
  5
180
330
1F
100
AcDbEntity
  8
1
100
AcDbEllipse
 10
406.872639
 20
295.000545
 30
0.0
 11
-1.932265519940236
 21
0.5160910389166649
 31
0.0
210
0.0
220
0.0
230
1.0
 40
0.9977149999999999
 41
1.875999251379564
 42
2.563713393647951
  0
ELLIPSE
  5
181
330
1F
100
AcDbEntity
  8
1
100
AcDbEllipse
 10
406.805162
 20
294.747909
 30
0.0
 11
-1.932265519940236
 21
0.5160910389166649
 31
0.0
210
0.0
220
0.0
230
1.0
 40
0.9977149999999999
 41
5.716445802771674
 42
5.859275107656515
  0
ELLIPSE
  5
182
330
1F
100
AcDbEntity
  8
1
100
AcDbEllipse
 10
406.799931
 20
294.728325
 30
0.0
 11
1.932265519940236
 21
-0.5160910389166656
 31
0.0
210
0.0
220
0.0
230
1.0
 40
0.9977149999999999
 41
2.717682454066727
 42
4.39245156995009
  0
ELLIPSE
  5
183
330
1F
100
AcDbEntity
  8
1
100
AcDbEllipse
 10
405.576983
 20
288.907747
 30
0.0
 11
0.5899715825563408
 21
-14.00024194457411
 31
0.0
210
0.0
220
0.0
230
1.0
 40
0.020196
 41
3.25023311417156
 42
3.271691851127656
  0
ELLIPSE
  5
184
330
1F
100
AcDbEntity
  8
1
100
AcDbEllipse
 10
352.483191
 20
288.952752
 30
0.0
 11
801.5200091442927
 21
-0.9157527469432242
 31
0.0
210
0.0
220
0.0
230
0.9999999999999998
 40
0.017373
 41
1.505303552800648
 42
1.507487193695707
  0
SPLINE
  5
18A
330
1F
100
AcDbEntity
  8
1
100
AcDbSpline
210
0.0
220
0.0
230
1.0
 70
     8
 71
     3
 72
    12
 73
     8
 74
     0
 42
0.000000001
 43
0.0000000001
 40
0.0
 40
0.0
 40
0.0
 40
0.0
 40
0.2304272992882132
 40
0.2304272992882132
 40
0.486951532858777
 40
0.486951532858777
 40
1.0
 40
1.0
 40
1.0
 40
1.0
 10
405.5015743179807
 20
302.7746170508315
 30
0.0
 10
405.4958139707615
 20
302.7764978822427
 30
0.0
 10
405.4906296846256
 20
302.7783945240685
 30
0.0
 10
405.4809104284619
 20
302.7824323296895
 30
0.0
 10
405.476502493494
 20
302.7845863913218
 30
0.0
 10
405.4657029693482
 20
302.7909990480519
 30
0.0
 10
405.4616520117232
 20
302.7952200813317
 30
0.0
 10
405.4608053510258
 20
302.799378597568
 30
0.0
  0
SPLINE
  5
18B
330
1F
100
AcDbEntity
  8
1
100
AcDbSpline
210
0.0
220
0.0
230
1.0
 70
     8
 71
     3
 72
    15
 73
    11
 74
     0
 42
0.000000001
 43
0.0000000001
 40
0.0
 40
0.0
 40
0.0
 40
0.0
 40
0.2499999999999988
 40
0.4999999999999976
 40
0.7499999999999964
 40
0.7499999999999964
 40
0.874999999999998
 40
0.9374999999999992
 40
0.9374999999999992
 40
1.0
 40
1.0
 40
1.0
 40
1.0
 10
295.7862469202968
 20
274.910009382064
 30
0.0
 10
295.9568304237198
 20
274.9110787527851
 30
0.0
 10
296.3009736687853
 20
274.913793597381
 30
0.0
 10
296.8260990514802
 20
274.9179575307881
 30
0.0
 10
297.1822000295616
 20
274.9199881144615
 30
0.0
 10
297.4515971172955
 20
274.9210331522917
 30
0.0
 10
297.5868765790385
 20
274.9214378230598
 30
0.0
 10
297.7230452307114
 20
274.9216437674041
 30
0.0
 10
297.814024336013
 20
274.9217355705396
 30
0.0
 10
297.859490531065
 20
274.9217585205664
 30
0.0
 10
297.9048419452957
 20
274.9217585205664
 30
0.0
  0
SPLINE
  5
18C
330
1F
100
AcDbEntity
  8
1
100
AcDbSpline
210
0.0
220
0.0
230
1.0
 70
     8
 71
     3
 72
    16
 73
    12
 74
     0
 42
0.000000001
 43
0.0000000001
 40
0.0
 40
0.0
 40
0.0
 40
0.0
 40
0.2500000000000551
 40
0.2500000000000551
 40
0.5000000000001103
 40
0.5000000000001103
 40
0.6250000000000827
 40
0.6250000000000827
 40
0.7500000000000552
 40
0.7500000000000552
 40
1.0
 40
1.0
 40
1.0
 40
1.0
 10
406.566424372709
 20
291.341442649719
 30
0.0
 10
406.514788098356
 20
291.3463270901932
 30
0.0
 10
406.4613125723245
 20
291.3504072196574
 30
0.0
 10
406.3514551737466
 20
291.3575548059999
 30
0.0
 10
406.295063358179
 20
291.3606154942116
 30
0.0
 10
406.2085456216015
 20
291.364678544259
 30
0.0
 10
406.179382362869
 20
291.3659433918758
 30
0.0
 10
406.120428598099
 20
291.3683197956811
 30
0.0
 10
406.0905855364433
 20
291.3694329003807
 30
0.0
 10
406.0008444193953
 20
291.3725464328904
 30
0.0
 10
405.9405604928289
 20
291.374332587296
 30
0.0
 10
405.8798419452958
 20
291.3758834414816
 30
0.0
  0
SPLINE
  5
18D
330
1F
100
AcDbEntity
  8
1
100
AcDbSpline
210
0.0
220
0.0
230
1.0
 70
     8
 71
     3
 72
    14
 73
    10
 74
     0
 42
0.000000001
 43
0.0000000001
 40
0.0
 40
0.0
 40
0.0
 40
0.0
 40
0.2499999999999999
 40
0.2499999999999999
 40
0.4999999999999999
 40
0.4999999999999999
 40
0.7499999999999997
 40
0.7499999999999997
 40
1.0
 40
1.0
 40
1.0
 40
1.0
 10
322.6500770690827
 20
275.712069104839
 30
0.0
 10
320.5935464817342
 20
275.5856229646485
 30
0.0
 10
318.536330254493
 20
275.4755672849045
 30
0.0
 10
314.4195437312318
 20
275.2869651441499
 30
0.0
 10
312.3599669069119
 20
275.2084414845062
 30
0.0
 10
308.2372905960442
 20
275.0806839169948
 30
0.0
 10
306.1741861743999
 20
275.0314543929833
 30
0.0
 10
302.0432917543907
 20
274.9586346621545
 30
0.0
 10
299.9754992273307
 20
274.9350361488503
 30
0.0
 10
297.9048419452957
 20
274.9217585205664
 30
0.0
  0
SPLINE
  5
18E
330
1F
100
AcDbEntity
  8
1
100
AcDbSpline
210
0.0
220
0.0
230
1.0
 70
     8
 71
     3
 72
    48
 73
    44
 74
     0
 42
0.000000001
 43
0.0000000001
 40
0.0
 40
0.0
 40
0.0
 40
0.0
 40
0.0625000000000005
 40
0.0625000000000005
 40
0.125000000000001
 40
0.125000000000001
 40
0.1562500000000006
 40
0.1562500000000006
 40
0.1875000000000001
 40
0.1875000000000001
 40
0.2500000000000012
 40
0.3125000000000022
 40
0.3125000000000022
 40
0.3437500000000029
 40
0.3437500000000029
 40
0.3750000000000036
 40
0.3750000000000036
 40
0.4375000000000066
 40
0.4375000000000066
 40
0.4687500000000072
 40
0.4687500000000072
 40
0.5000000000000079
 40
0.5000000000000079
 40
0.5625000000000053
 40
0.5625000000000053
 40
0.6250000000000025
 40
0.6250000000000025
 40
0.6874999999999999
 40
0.6874999999999999
 40
0.7187499999999986
 40
0.7187499999999986
 40
0.7499999999999974
 40
0.7812499999999963
 40
0.7812499999999963
 40
0.8124999999999948
 40
0.8124999999999948
 40
0.8749999999999941
 40
0.8749999999999941
 40
0.906249999999996
 40
0.906249999999996
 40
0.9374999999999975
 40
0.9374999999999975
 40
1.0
 40
1.0
 40
1.0
 40
1.0
 10
413.0853653207886
 20
284.1454935137063
 30
0.0
 10
413.0865650893388
 20
284.1017587267943
 30
0.0
 10
413.0882984695986
 20
284.0601729479594
 30
0.0
 10
413.0928357163533
 20
283.9813795932912
 30
0.0
 10
413.095621470804
 20
283.9444811788069
 30
0.0
 10
413.1005665905856
 20
283.8928364650234
 30
0.0
 10
413.1023429694363
 20
283.8762399560868
 30
0.0
 10
413.1061532855864
 20
283.8442912043914
 30
0.0
 10
413.1081809163712
 20
283.8289963454377
 30
0.0
 10
413.1146000064533
 20
283.7852960266705
 30
0.0
 10
413.1240725532251
 20
283.7326801664548
 30
0.0
 10
413.1353316624261
 20
283.6911134634267
 30
0.0
 10
413.1444517445593
 20
283.6641176746855
 30
0.0
 10
413.147604613152
 20
283.6558169551551
 30
0.0
 10
413.1541397046133
 20
283.6406339783906
 30
0.0
 10
413.1575293200941
 20
283.6337412324938
 30
0.0
 10
413.1679628369536
 20
283.6153820777574
 30
0.0
 10
413.1752860309687
 20
283.6061766032887
 30
0.0
 10
413.1868165118541
 20
283.5968732344534
 30
0.0
 10
413.1907511345459
 20
283.5945244108235
 30
0.0
 10
413.1988038781925
 20
283.5913415999161
 30
0.0
 10
413.202928295191
 20
283.5905079184387
 30
0.0
 10
413.215532616434
 20
283.590311134223
 30
0.0
 10
413.2242243313341
 20
283.5932357528772
 30
0.0
 10
413.2421828295017
 20
283.6051691013283
 30
0.0
 10
413.2514713336654
 20
283.6142164642115
 30
0.0
 10
413.2704332269522
 20
283.6382572224901
 30
0.0
 10
413.2801243646709
 20
283.6532501367213
 30
0.0
 10
413.2949790350658
 20
283.680236171882
 30
0.0
 10
413.299980505748
 20
283.6899788335551
 30
0.0
 10
413.3100336427559
 20
283.7108586887226
 30
0.0
 10
413.3201504091531
 20
283.7331567319836
 30
0.0
 10
413.3303942624425
 20
283.7582873203869
 30
0.0
 10
413.3407020833372
 20
283.7848436351302
 30
0.0
 10
413.3458936324558
 20
283.7988519361863
 30
0.0
 10
413.3614813318758
 20
283.8428012814545
 30
0.0
 10
413.3719124765373
 20
283.8747128523111
 30
0.0
 10
413.3876183318312
 20
283.926506234516
 30
0.0
 10
413.3928708787904
 20
283.9444528767275
 30
0.0
 10
413.4033556869749
 20
283.9815305418804
 30
0.0
 10
413.4085853880616
 20
284.0006503303889
 30
0.0
 10
413.4242365612362
 20
284.0597443805202
 30
0.0
 10
413.4346270949251
 20
284.1014780349611
 30
0.0
 10
413.4449521798841
 20
284.1454935136931
 30
0.0
  0
SPLINE
  5
18F
330
1F
100
AcDbEntity
  8
1
100
AcDbSpline
210
0.0
220
0.0
230
1.0
 70
     8
 71
     3
 72
   118
 73
   114
 74
     0
 42
0.000000001
 43
0.0000000001
 40
0.0
 40
0.0
 40
0.0
 40
0.0
 40
0.0312500000000007
 40
0.0312500000000007
 40
0.0625000000000015
 40
0.0625000000000015
 40
0.078125000000002
 40
0.078125000000002
 40
0.0937500000000026
 40
0.0937500000000026
 40
0.1093750000000031
 40
0.1093750000000031
 40
0.1250000000000036
 40
0.1250000000000036
 40
0.1406250000000042
 40
0.1406250000000042
 40
0.1562500000000047
 40
0.1718750000000052
 40
0.1718750000000052
 40
0.1875000000000058
 40
0.1875000000000058
 40
0.2031250000000063
 40
0.2031250000000063
 40
0.2109375000000064
 40
0.2109375000000064
 40
0.2187500000000064
 40
0.2187500000000064
 40
0.2500000000000077
 40
0.2500000000000077
 40
0.2656250000000086
 40
0.2656250000000086
 40
0.273437500000009
 40
0.273437500000009
 40
0.2812500000000095
 40
0.2812500000000095
 40
0.3125000000000108
 40
0.3125000000000108
 40
0.3281250000000109
 40
0.3281250000000109
 40
0.3437500000000109
 40
0.3437500000000109
 40
0.3593750000000112
 40
0.3593750000000112
 40
0.3750000000000114
 40
0.3750000000000114
 40
0.3906250000000115
 40
0.3906250000000115
 40
0.4062500000000118
 40
0.4218750000000119
 40
0.4218750000000119
 40
0.4375000000000119
 40
0.4375000000000119
 40
0.4531250000000121
 40
0.4531250000000121
 40
0.4687500000000124
 40
0.4687500000000124
 40
0.4843750000000124
 40
0.4843750000000124
 40
0.5000000000000126
 40
0.5000000000000126
 40
0.5312500000000108
 40
0.5312500000000108
 40
0.5625000000000089
 40
0.5625000000000089
 40
0.5781250000000088
 40
0.5781250000000088
 40
0.5937500000000086
 40
0.5937500000000086
 40
0.6093750000000084
 40
0.6093750000000084
 40
0.6250000000000082
 40
0.6250000000000082
 40
0.6406250000000079
 40
0.6406250000000079
 40
0.6562500000000079
 40
0.6718750000000077
 40
0.6718750000000077
 40
0.6875000000000075
 40
0.6875000000000075
 40
0.7031250000000072
 40
0.7031250000000072
 40
0.7187500000000071
 40
0.7187500000000071
 40
0.734375000000007
 40
0.734375000000007
 40
0.7500000000000067
 40
0.7500000000000067
 40
0.7656250000000066
 40
0.7656250000000066
 40
0.7812500000000063
 40
0.7812500000000063
 40
0.812500000000006
 40
0.812500000000006
 40
0.8437500000000058
 40
0.8437500000000058
 40
0.8593750000000056
 40
0.8593750000000056
 40
0.8750000000000055
 40
0.8750000000000055
 40
0.8906250000000053
 40
0.8906250000000053
 40
0.9062500000000051
 40
0.9062500000000051
 40
0.9375000000000047
 40
0.9375000000000047
 40
0.9531250000000047
 40
0.9531250000000047
 40
0.9609375000000039
 40
0.9609375000000039
 40
0.9687500000000033
 40
0.9843750000000017
 40
0.9843750000000017
 40
1.0
 40
1.0
 40
1.0
 40
1.0
 10
413.4449521798841
 20
284.1454935136931
 30
0.0
 10
413.4529260199825
 20
284.2080600774235
 30
0.0
 10
413.4602159151129
 20
284.2745389109056
 30
0.0
 10
413.4734230625206
 20
284.4153483047912
 30
0.0
 10
413.4792661540364
 20
284.4889020990576
 30
0.0
 10
413.4868791787781
 20
284.6037295863868
 30
0.0
 10
413.489222757991
 20
284.6427509975435
 30
0.0
 10
413.493488230574
 20
284.7216837840118
 30
0.0
 10
413.4954154886032
 20
284.7616723728884
 30
0.0
 10
413.49885915995
 20
284.8426936577672
 30
0.0
 10
413.5003772408036
 20
284.8837982815871
 30
0.0
 10
413.5029788527999
 20
284.9664449675996
 30
0.0
 10
413.504065403185
 20
285.0080397004561
 30
0.0
 10
413.505812142707
 20
285.0917692225684
 30
0.0
 10
413.5064730075649
 20
285.133981340553
 30
0.0
 10
413.5073601702478
 20
285.2185614449797
 30
0.0
 10
413.5078133184959
 20
285.3031727165139
 30
0.0
 10
413.5074066206269
 20
285.3878457346494
 30
0.0
 10
413.5065672408637
 20
285.472549824201
 30
0.0
 10
413.505933559356
 20
285.5146752236501
 30
0.0
 10
413.5042442847077
 20
285.5984467255534
 30
0.0
 10
413.5031886323799
 20
285.6400981904996
 30
0.0
 10
413.5012879122048
 20
285.7022231604216
 30
0.0
 10
413.5006004762784
 20
285.7228953910014
 30
0.0
 10
413.4991276794548
 20
285.7638936718501
 30
0.0
 10
413.4983417235317
 20
285.7842431518213
 30
0.0
 10
413.4941679881861
 20
285.8852538212758
 30
0.0
 10
413.4900521118278
 20
285.9637162054804
 30
0.0
 10
413.4827394469854
 20
286.0779705281111
 30
0.0
 10
413.4801113413447
 20
286.1154798516505
 30
0.0
 10
413.4758800228626
 20
286.170870592547
 30
0.0
 10
413.4744213439021
 20
286.1891884928025
 30
0.0
 10
413.4714063764966
 20
286.2255295190326
 30
0.0
 10
413.4698476954588
 20
286.2435784933656
 30
0.0
 10
413.4618440152208
 20
286.3326642962016
 30
0.0
 10
413.454768853216
 20
286.4003156399735
 30
0.0
 10
413.4431516432345
 20
286.4963874777256
 30
0.0
 10
413.4391222802807
 20
286.5274089396983
 30
0.0
 10
413.4307854511042
 20
286.5872098513919
 30
0.0
 10
413.4264730907556
 20
286.6160302080846
 30
0.0
 10
413.4175599184433
 20
286.6715065204939
 30
0.0
 10
413.4129532526431
 20
286.6981875211848
 30
0.0
 10
413.4035193324611
 20
286.7489804406021
 30
0.0
 10
413.3986848220073
 20
286.7731421765145
 30
0.0
 10
413.3887811269999
 20
286.8190006819332
 30
0.0
 10
413.3837027759987
 20
286.8407325617021
 30
0.0
 10
413.3733545364123
 20
286.8815189337997
 30
0.0
 10
413.362829693102
 20
286.9195831554886
 30
0.0
 10
413.3519536053157
 20
286.952233333394
 30
0.0
 10
413.3409001442654
 20
286.9821494992854
 30
0.0
 10
413.3353066328914
 20
286.9956783764427
 30
0.0
 10
413.3240170384641
 20
287.0198233842423
 30
0.0
 10
413.318316197852
 20
287.0304525113468
 30
0.0
 10
413.3068017471298
 20
287.0488064292547
 30
0.0
 10
413.3009837704031
 20
287.0565294543598
 30
0.0
 10
413.2893245345944
 20
287.068935643479
 30
0.0
 10
413.283472465519
 20
287.0736389290168
 30
0.0
 10
413.2717233359676
 20
287.080039932649
 30
0.0
 10
413.2658147652818
 20
287.0817365926489
 30
0.0
 10
413.2481149356745
 20
287.0822441579029
 30
0.0
 10
413.2363645773478
 20
287.0765254576015
 30
0.0
 10
413.2129639998629
 20
287.0528414549262
 30
0.0
 10
413.2014466252165
 20
287.0350066233705
 30
0.0
 10
413.1844626396351
 20
286.9992675095876
 30
0.0
 10
413.1788504933823
 20
286.9858439744825
 30
0.0
 10
413.1678131119032
 20
286.9561883184409
 30
0.0
 10
413.1623763187947
 20
286.939933850315
 30
0.0
 10
413.1516671851434
 20
286.9045601837685
 30
0.0
 10
413.1463849563905
 20
286.8853982583021
 30
0.0
 10
413.1360592497641
 20
286.8444480589427
 30
0.0
 10
413.1310110558287
 20
286.8226515533381
 30
0.0
 10
413.1211437958419
 20
286.7764179299961
 30
0.0
 10
413.1163180856546
 20
286.7519439339623
 30
0.0
 10
413.1069296467172
 20
286.7004837537725
 30
0.0
 10
413.0978307836186
 20
286.6466693336429
 30
0.0
 10
413.0893077274704
 20
286.5881736261361
 30
0.0
 10
413.0810755191014
 20
286.527313337867
 30
0.0
 10
413.0771213212072
 20
286.4958177673692
 30
0.0
 10
413.0695604277158
 20
286.430918030736
 30
0.0
 10
413.0659494204859
 20
286.397482229142
 30
0.0
 10
413.0590680448677
 20
286.3286285194325
 30
0.0
 10
413.0557984064748
 20
286.2932029564121
 30
0.0
 10
413.0496542478838
 20
286.2209475114063
 30
0.0
 10
413.0467723458213
 20
286.1840475321649
 30
0.0
 10
413.0413889518181
 20
286.1087028342049
 30
0.0
 10
413.0388834619384
 20
286.0701814773524
 30
0.0
 10
413.034290171557
 20
285.9921324234491
 30
0.0
 10
413.0321990063083
 20
285.9525718084977
 30
0.0
 10
413.0284256595085
 20
285.8723835583777
 30
0.0
 10
413.0267411760097
 20
285.8316892787549
 30
0.0
 10
413.0223245263607
 20
285.7084619286218
 30
0.0
 10
413.0202362563223
 20
285.6251731322411
 30
0.0
 10
413.0177664878113
 20
285.4563284582691
 30
0.0
 10
413.0173993783615
 20
285.3716728992686
 30
0.0
 10
413.0181385147689
 20
285.2446078761273
 30
0.0
 10
413.0186014694644
 20
285.2022432234006
 30
0.0
 10
413.0199504425766
 20
285.1181265483253
 30
0.0
 10
413.0208367284985
 20
285.0762905971433
 30
0.0
 10
413.0230319387857
 20
284.9930624592014
 30
0.0
 10
413.0243454732865
 20
284.9515681281658
 30
0.0
 10
413.0273652002198
 20
284.869904549912
 30
0.0
 10
413.0290724004519
 20
284.8296551984907
 30
0.0
 10
413.0347720837123
 20
284.7106133497673
 30
0.0
 10
413.0393397698561
 20
284.6335185593377
 30
0.0
 10
413.0473418982623
 20
284.5212723569577
 30
0.0
 10
413.0502017616842
 20
284.4844250806767
 30
0.0
 10
413.054786914076
 20
284.4300259105743
 30
0.0
 10
413.0563629010256
 20
284.4120603510967
 30
0.0
 10
413.0595956242818
 20
284.3766243161397
 30
0.0
 10
413.0645717932126
 20
284.3241426714924
 30
0.0
 10
413.0699266828431
 20
284.273664856229
 30
0.0
 10
413.0774035884902
 20
284.20814446511
 30
0.0
 10
413.081314928812
 20
284.1762512408637
 30
0.0
 10
413.0853653207872
 20
284.1454935137063
 30
0.0
  0
SPLINE
  5
190
330
1F
100
AcDbEntity
  8
1
100
AcDbSpline
210
0.0
220
0.0
230
1.0
 70
     8
 71
     3
 72
    16
 73
    12
 74
     0
 42
0.000000001
 43
0.0000000001
 40
0.0
 40
0.0
 40
0.0
 40
0.0
 40
0.2500000000000538
 40
0.2500000000000538
 40
0.5000000000001077
 40
0.5000000000001077
 40
0.6250000000000816
 40
0.6250000000000816
 40
0.7500000000000555
 40
0.7500000000000555
 40
1.0
 40
1.0
 40
1.0
 40
1.0
 10
405.8798419452958
 20
291.0283448581272
 30
0.0
 10
405.9414319707025
 20
291.0289315866356
 30
0.0
 10
406.0022780471653
 20
291.0306665419942
 30
0.0
 10
406.1224521230559
 20
291.0363985455242
 30
0.0
 10
406.1817812759612
 20
291.0403948002145
 30
0.0
 10
406.2695224451081
 20
291.048143094522
 30
0.0
 10
406.2985597038664
 20
291.0510190964541
 30
0.0
 10
406.3561789082067
 20
291.0573815355801
 30
0.0
 10
406.3848074525717
 20
291.0608758609253
 30
0.0
 10
406.4690062221065
 20
291.0721954088621
 30
0.0
 10
406.5231893632319
 20
291.0808760288351
 30
0.0
 10
406.5750008146838
 20
291.0907725954763
 30
0.0
  0
SPLINE
  5
191
330
1F
100
AcDbEntity
  8
1
100
AcDbSpline
210
0.0
220
0.0
230
1.0
 70
    24
 71
     3
 72
    10
 73
     6
 74
     0
 42
0.000000001
 43
0.0000000001
 40
0.0
 40
0.0
 40
0.0
 40
0.0
 40
0.5000000000000009
 40
0.5000000000000009
 40
1.0
 40
1.0
 40
1.0
 40
1.0
 10
405.8798419452958
 20
291.0283448575137
 30
0.0
 10
405.8798419452958
 20
291.0573367169588
 30
0.0
 10
405.8798419452958
 20
291.1009928912932
 30
0.0
 10
405.8798419452958
 20
291.2170833737321
 30
0.0
 10
405.8798419452958
 20
291.2895173732015
 30
0.0
 10
405.8798419452958
 20
291.3758834414816
 30
0.0
  0
SPLINE
  5
192
330
1F
100
AcDbEntity
  8
1
100
AcDbSpline
210
0.0
220
0.0
230
1.0
 70
     8
 71
     3
 72
    32
 73
    28
 74
     0
 42
0.000000001
 43
0.0000000001
 40
0.0
 40
0.0
 40
0.0
 40
0.0
 40
0.1250000000000027
 40
0.1250000000000027
 40
0.2500000000000054
 40
0.2500000000000054
 40
0.3125000000000069
 40
0.3125000000000069
 40
0.3750000000000084
 40
0.3750000000000084
 40
0.5000000000000114
 40
0.5000000000000114
 40
0.6250000000000143
 40
0.6250000000000143
 40
0.6875000000000119
 40
0.6875000000000119
 40
0.7500000000000095
 40
0.7500000000000095
 40
0.8125000000000071
 40
0.8125000000000071
 40
0.8750000000000046
 40
0.8750000000000046
 40
0.9375000000000021
 40
0.9375000000000021
 40
0.9687500000000012
 40
0.9687500000000012
 40
1.0
 40
1.0
 40
1.0
 40
1.0
 10
400.4225419924543
 20
293.7692293812966
 30
0.0
 10
400.6520172026423
 20
293.6167402261396
 30
0.0
 10
400.8821645173866
 20
293.4717265280303
 30
0.0
 10
401.3437563064336
 20
293.1956979478435
 30
0.0
 10
401.5752016588034
 20
293.0646857134597
 30
0.0
 10
401.9232607777453
 20
292.8781366713332
 30
0.0
 10
402.0394284377333
 20
292.8176168403435
 30
0.0
 10
402.2720367370133
 20
292.6998313129432
 30
0.0
 10
402.3885298883142
 20
292.6425420887416
 30
0.0
 10
402.7376022170939
 20
292.4758187631762
 30
0.0
 10
402.9699889698666
 20
292.3714165063138
 30
0.0
 10
403.4337253000301
 20
292.1753788914385
 30
0.0
 10
403.6650947770789
 20
292.0837498931592
 30
0.0
 10
404.0107067996178
 20
291.955357298936
 30
0.0
 10
404.1257244562227
 20
291.9140481433593
 30
0.0
 10
404.3547442827487
 20
291.834450619277
 30
0.0
 10
404.4687335072991
 20
291.7961665034184
 30
0.0
 10
404.6953397444166
 20
291.7224679904885
 30
0.0
 10
404.807961702673
 20
291.6870550956215
 30
0.0
 10
405.0312818550955
 20
291.6188820171496
 30
0.0
 10
405.1419917962001
 20
291.5861252893237
 30
0.0
 10
405.3604821674849
 20
291.5229203622242
 30
0.0
 10
405.4682955993561
 20
291.4924815801589
 30
0.0
 10
405.6262787794069
 20
291.4480725984017
 30
0.0
 10
405.6783069177393
 20
291.4334749017733
 30
0.0
 10
405.7805970718055
 20
291.4045408426293
 30
0.0
 10
405.8308665206005
 20
291.3902064898835
 30
0.0
 10
405.8798419452958
 20
291.3758834414816
 30
0.0
  0
SPLINE
  5
193
330
1F
100
AcDbEntity
  8
1
100
AcDbSpline
210
0.0
220
0.0
230
1.0
 70
     8
 71
     3
 72
    14
 73
    10
 74
     0
 42
0.000000001
 43
0.0000000001
 40
0.0
 40
0.0
 40
0.0
 40
0.0
 40
0.25
 40
0.25
 40
0.5
 40
0.5
 40
0.75
 40
0.75
 40
1.0
 40
1.0
 40
1.0
 40
1.0
 10
292.2038318185192
 20
274.954638765423
 30
0.0
 10
292.5021757431954
 20
274.9451781289849
 30
0.0
 10
292.8004149610107
 20
274.9371409024562
 30
0.0
 10
293.3967714427173
 20
274.9239501870867
 30
0.0
 10
293.6948891760394
 20
274.9187999813468
 30
0.0
 10
294.2913507400062
 20
274.9114112390957
 30
0.0
 10
294.589696518649
 20
274.9091755282892
 30
0.0
 10
295.187187788527
 20
274.907533767689
 30
0.0
 10
295.4863360405145
 20
274.9081292711075
 30
0.0
 10
295.7862469202967
 20
274.910009382064
 30
0.0
  0
SPLINE
  5
194
330
1F
100
AcDbEntity
  8
1
100
AcDbSpline
210
0.0
220
0.0
230
1.0
 70
     8
 71
     3
 72
     8
 73
     4
 74
     0
 42
0.000000001
 43
0.0000000001
 40
0.0
 40
0.0
 40
0.0
 40
0.0
 40
1.0
 40
1.0
 40
1.0
 40
1.0
 10
292.8426914441889
 20
285.8165178635792
 30
0.0
 10
292.6314360246653
 20
285.8813797573231
 30
0.0
 10
292.4185380828611
 20
285.9424058988236
 30
0.0
 10
292.2038318185192
 20
285.9991381247588
 30
0.0
  0
SPLINE
  5
195
330
1F
100
AcDbEntity
  8
1
100
AcDbSpline
210
0.0
220
0.0
230
1.0
 70
     8
 71
     3
 72
    22
 73
    18
 74
     0
 42
0.000000001
 43
0.0000000001
 40
0.0
 40
0.0
 40
0.0
 40
0.0
 40
0.125
 40
0.125
 40
0.25
 40
0.25
 40
0.375
 40
0.375
 40
0.5
 40
0.5
 40
0.625
 40
0.625
 40
0.75
 40
0.75
 40
0.875
 40
0.875
 40
1.0
 40
1.0
 40
1.0
 40
1.0
 10
409.448939081796
 20
297.2365649805687
 30
0.0
 10
409.4463152837668
 20
297.2314586612006
 30
0.0
 10
409.4432782706098
 20
297.2265896759514
 30
0.0
 10
409.4365080041643
 20
297.2174805175489
 30
0.0
 10
409.4327628288677
 20
297.2132151641489
 30
0.0
 10
409.4245320338335
 20
297.2052804064085
 30
0.0
 10
409.4200405682384
 20
297.2016204359839
 30
0.0
 10
409.4106048629631
 20
297.1951695281296
 30
0.0
 10
409.4056260793669
 20
297.1923415883845
 30
0.0
 10
409.3951248521785
 20
297.1875167873498
 30
0.0
 10
409.3896196067906
 20
297.1855394600183
 30
0.0
 10
409.3784447274624
 20
297.1825902632438
 30
0.0
 10
409.3727293988726
 20
297.1815950778208
 30
0.0
 10
409.3610293747818
 20
297.1806199019767
 30
0.0
 10
409.3551336110651
 20
297.1806547718234
 30
0.0
 10
409.3434983426663
 20
297.1817619669127
 30
0.0
 10
409.3377205104834
 20
297.1828302375108
 30
0.0
 10
409.3319853838086
 20
297.1844466135609
 30
0.0
  0
SPLINE
  5
196
330
1F
100
AcDbEntity
  8
1
100
AcDbSpline
210
0.0
220
0.0
230
1.0
 70
     8
 71
     3
 72
    20
 73
    16
 74
     0
 42
0.000000001
 43
0.0000000001
 40
0.0
 40
0.0
 40
0.0
 40
0.0
 40
0.1249999999999999
 40
0.1249999999999999
 40
0.2499999999999999
 40
0.2499999999999999
 40
0.3749999999999998
 40
0.3749999999999998
 40
0.4999999999999999
 40
0.4999999999999999
 40
0.6249999999999999
 40
0.6249999999999999
 40
0.7499999999999999
 40
0.7499999999999999
 40
1.0
 40
1.0
 40
1.0
 40
1.0
 10
410.1166950232399
 20
297.0108691474138
 30
0.0
 10
410.1108099381967
 20
297.0118227648236
 30
0.0
 10
410.1051110645851
 20
297.0132936114441
 30
0.0
 10
410.0940661488625
 20
297.0172135307322
 30
0.0
 10
410.0886702036882
 20
297.019694375084
 30
0.0
 10
410.0785220025226
 20
297.025502121376
 30
0.0
 10
410.073778355189
 20
297.0288091857537
 30
0.0
 10
410.0649198653512
 20
297.0361884147139
 30
0.0
 10
410.0607722441303
 20
297.0403017999286
 30
0.0
 10
410.0532972123418
 20
297.049116750121
 30
0.0
 10
410.0499895283052
 20
297.0537787974777
 30
0.0
 10
410.0441896426348
 20
297.0635841036944
 30
0.0
 10
410.0416878546391
 20
297.068753497168
 30
0.0
 10
410.0355101783398
 20
297.0848348916034
 30
0.0
 10
410.0332461868001
 20
297.0959365905728
 30
0.0
 10
410.0328143891719
 20
297.1074119903329
 30
0.0
  0
SPLINE
  5
197
330
1F
100
AcDbEntity
  8
1
100
AcDbSpline
210
0.0
220
0.0
230
1.0
 70
     8
 71
     3
 72
    14
 73
    10
 74
     0
 42
0.000000001
 43
0.0000000001
 40
0.0
 40
0.0
 40
0.0
 40
0.0
 40
0.25
 40
0.25
 40
0.5
 40
0.5
 40
0.75
 40
0.75
 40
1.0
 40
1.0
 40
1.0
 40
1.0
 10
409.4489390817964
 20
297.2365649805696
 30
0.0
 10
409.4522214785926
 20
297.2429530356518
 30
0.0
 10
409.4561615228987
 20
297.2489913032805
 30
0.0
 10
409.4651644664057
 20
297.2600968010959
 30
0.0
 10
409.4701857014216
 20
297.2651308450368
 30
0.0
 10
409.4812809391138
 20
297.2741516255819
 30
0.0
 10
409.4873950426989
 20
297.2781394879203
 30
0.0
 10
409.5001877653737
 20
297.2846536310722
 30
0.0
 10
409.5069232633944
 20
297.2872378706061
 30
0.0
 10
409.5140293725382
 20
297.2890912511776
 30
0.0
  0
SPLINE
  5
198
330
1F
100
AcDbEntity
  8
1
100
AcDbSpline
210
0.0
220
0.0
230
1.0
 70
     8
 71
     3
 72
    14
 73
    10
 74
     0
 42
0.000000001
 43
0.0000000001
 40
0.0
 40
0.0
 40
0.0
 40
0.0
 40
0.25
 40
0.25
 40
0.5
 40
0.5
 40
0.75
 40
0.75
 40
1.0
 40
1.0
 40
1.0
 40
1.0
 10
409.9960804291909
 20
297.1824617454818
 30
0.0
 10
410.0017381483176
 20
297.1777821893564
 30
0.0
 10
410.0068481308514
 20
297.1724884121067
 30
0.0
 10
410.0156901777513
 20
297.1611357537701
 30
0.0
 10
410.0194482506178
 20
297.155073729925
 30
0.0
 10
410.02568231684
 20
297.1421998647753
 30
0.0
 10
410.0281350273887
 20
297.1353847077078
 30
0.0
 10
410.0315455072773
 20
297.1216164877171
 30
0.0
 10
410.0325443464789
 20
297.1145886111655
 30
0.0
 10
410.0328143891719
 20
297.1074119903329
 30
0.0
  0
SPLINE
  5
199
330
1F
100
AcDbEntity
  8
1
100
AcDbSpline
210
0.0
220
0.0
230
1.0
 70
     8
 71
     3
 72
    21
 73
    17
 74
     0
 42
0.000000001
 43
0.0000000001
 40
0.0
 40
0.0
 40
0.0
 40
0.0
 40
0.2499999999998785
 40
0.2499999999998785
 40
0.3124999999998457
 40
0.3124999999998457
 40
0.3749999999998128
 40
0.3749999999998128
 40
0.4999999999997473
 40
0.6249999999996816
 40
0.6249999999996816
 40
0.6874999999997055
 40
0.6874999999997055
 40
0.7499999999997293
 40
0.7499999999997293
 40
1.0
 40
1.0
 40
1.0
 40
1.0
 10
409.3319853838086
 20
297.1844466135609
 30
0.0
 10
409.2907324409763
 20
297.1960732562783
 30
0.0
 10
409.2513932984402
 20
297.2123003802391
 30
0.0
 10
409.2046150782623
 20
297.2383283372257
 30
0.0
 10
409.1953622486226
 20
297.2438382057111
 30
0.0
 10
409.1773079730041
 20
297.2553182875453
 30
0.0
 10
409.1684836028846
 20
297.261299744564
 30
0.0
 10
409.1426077416238
 20
297.2799551387506
 30
0.0
 10
409.1096954123027
 20
297.306720465062
 30
0.0
 10
409.0799392444501
 20
297.337242887148
 30
0.0
 10
409.0588452131933
 20
297.3615907819095
 30
0.0
 10
409.0520338315276
 20
297.3699357039517
 30
0.0
 10
409.0389964445211
 20
297.3868919540937
 30
0.0
 10
409.0327479805841
 20
297.3955286456927
 30
0.0
 10
409.0028325416656
 20
297.4394906549999
 30
0.0
 10
408.9830939649337
 20
297.4771210251835
 30
0.0
 10
408.9676625853448
 20
297.5172777833281
 30
0.0
  0
SPLINE
  5
19A
330
1F
100
AcDbEntity
  8
1
100
AcDbSpline
210
0.0
220
0.0
230
1.0
 70
     8
 71
     3
 72
    21
 73
    17
 74
     0
 42
0.000000001
 43
0.0000000001
 40
0.0
 40
0.0
 40
0.0
 40
0.0
 40
0.25000000000013
 40
0.25000000000013
 40
0.3125000000001222
 40
0.3125000000001222
 40
0.3750000000001145
 40
0.3750000000001145
 40
0.5000000000000979
 40
0.6250000000000816
 40
0.6250000000000816
 40
0.6874999999999976
 40
0.6874999999999976
 40
0.7499999999999135
 40
0.7499999999999135
 40
1.0
 40
1.0
 40
1.0
 40
1.0
 10
409.5140293725382
 20
297.2890912511776
 30
0.0
 10
409.555260553211
 20
297.2998449657144
 30
0.0
 10
409.5971894206559
 20
297.3057546802721
 30
0.0
 10
409.6505622758733
 20
297.3069329411266
 30
0.0
 10
409.6612854868855
 20
297.3068541014082
 30
0.0
 10
409.6828337274819
 20
297.3060464352757
 30
0.0
 10
409.6936846525265
 20
297.3053128383935
 30
0.0
 10
409.7259086813706
 20
297.3021548510029
 30
0.0
 10
409.7682882084846
 20
297.2953998324747
 30
0.0
 10
409.8095214368634
 20
297.2836675420203
 30
0.0
 10
409.8400092848203
 20
297.2729700819144
 30
0.0
 10
409.8501347175711
 20
297.2690715410108
 30
0.0
 10
409.8700473359764
 20
297.2607066190093
 30
0.0
 10
409.8798167408967
 20
297.2562508382546
 30
0.0
 10
409.9277636700793
 20
297.2326498862713
 30
0.0
 10
409.9632770231666
 20
297.2095937709782
 30
0.0
 10
409.9960804291909
 20
297.1824617454818
 30
0.0
  0
SPLINE
  5
19B
330
1F
100
AcDbEntity
  8
1
100
AcDbSpline
210
0.0
220
0.0
230
1.0
 70
     8
 71
     3
 72
     8
 73
     4
 74
     0
 42
0.000000001
 43
0.0000000001
 40
0.0
 40
0.0
 40
0.0
 40
0.0
 40
1.0
 40
1.0
 40
1.0
 40
1.0
 10
408.9676625853448
 20
297.5172777833281
 30
0.0
 10
408.9661475652116
 20
297.5212202887096
 30
0.0
 10
408.9648983733788
 20
297.5252150632515
 30
0.0
 10
408.9639048644395
 20
297.5292600466735
 30
0.0
  0
SPLINE
  5
19C
330
1F
100
AcDbEntity
  8
1
100
AcDbSpline
210
0.0
220
0.0
230
1.0
 70
     8
 71
     3
 72
    21
 73
    17
 74
     0
 42
0.000000001
 43
0.0000000001
 40
0.0
 40
0.0
 40
0.0
 40
0.0
 40
0.2499999999998812
 40
0.2499999999998812
 40
0.3124999999999197
 40
0.3124999999999197
 40
0.3749999999999583
 40
0.3749999999999583
 40
0.5000000000000311
 40
0.625000000000104
 40
0.625000000000104
 40
0.6875000000001404
 40
0.6875000000001404
 40
0.7500000000001768
 40
0.7500000000001768
 40
1.0
 40
1.0
 40
1.0
 40
1.0
 10
410.587309146741
 20
297.15901259573
 30
0.0
 10
410.5563699045648
 20
297.1291111187786
 30
0.0
 10
410.5224613612405
 20
297.103186823533
 30
0.0
 10
410.47636673453
 20
297.0757512198047
 30
0.0
 10
410.4669390602809
 20
297.0705064538612
 30
0.0
 10
410.4479181471909
 20
297.0606399903721
 30
0.0
 10
410.4383036569093
 20
297.0560041075898
 30
0.0
 10
410.4091537391546
 20
297.0429722390052
 30
0.0
 10
410.3694719585118
 20
297.0279261750352
 30
0.0
 10
410.3281706879986
 20
297.0175078707009
 30
0.0
 10
410.2965671785303
 20
297.0114875861407
 30
0.0
 10
410.285947902921
 20
297.0097867636219
 30
0.0
 10
410.2647783749634
 20
297.0070266972773
 30
0.0
 10
410.2541949259518
 20
297.0059607548122
 30
0.0
 10
410.2012843464001
 20
297.0021733069188
 30
0.0
 10
410.1589766856898
 20
297.0040178395514
 30
0.0
 10
410.1166950232399
 20
297.0108691474138
 30
0.0
  0
SPLINE
  5
19D
330
1F
100
AcDbEntity
  8
1
100
AcDbSpline
210
0.0
220
0.0
230
1.0
 70
     8
 71
     3
 72
     8
 73
     4
 74
     0
 42
0.000000001
 43
0.0000000001
 40
0.0
 40
0.0
 40
0.0
 40
0.0
 40
1.0
 40
1.0
 40
1.0
 40
1.0
 10
409.0530813955219
 20
297.710195434169
 30
0.0
 10
409.0525194536415
 20
297.7066101026876
 30
0.0
 10
409.0517657283505
 20
297.7030622403291
 30
0.0
 10
409.0508351248673
 20
297.6995805516945
 30
0.0
  0
SPLINE
  5
19E
330
1F
100
AcDbEntity
  8
1
100
AcDbSpline
210
0.0
220
0.0
230
1.0
 70
     8
 71
     3
 72
    21
 73
    17
 74
     0
 42
0.000000001
 43
0.0000000001
 40
0.0
 40
0.0
 40
0.0
 40
0.0
 40
0.2499999999998839
 40
0.2499999999998839
 40
0.3124999999998898
 40
0.3124999999998898
 40
0.3749999999998956
 40
0.3749999999998956
 40
0.4999999999999166
 40
0.6249999999999374
 40
0.6249999999999374
 40
0.6874999999999478
 40
0.6874999999999478
 40
0.7499999999999583
 40
0.7499999999999583
 40
1.0
 40
1.0
 40
1.0
 40
1.0
 10
408.9041068548795
 20
298.1800464248527
 30
0.0
 10
408.9336247763581
 20
298.1502443371407
 30
0.0
 10
408.9593828878379
 20
298.1173281616227
 30
0.0
 10
408.9868185937643
 20
298.0721101740054
 30
0.0
 10
408.9920644700191
 20
298.0628603741992
 30
0.0
 10
409.0020586771418
 20
298.0439330484162
 30
0.0
 10
409.0068158943588
 20
298.0342306360201
 30
0.0
 10
409.0201183048371
 20
298.0049037777991
 30
0.0
 10
409.0354209284674
 20
297.964970773278
 30
0.0
 10
409.0459647239511
 20
297.9234112133088
 30
0.0
 10
409.0520568353211
 20
297.8916219585672
 30
0.0
 10
409.0537887950993
 20
297.8808831676159
 30
0.0
 10
409.0566064717023
 20
297.8593981188213
 30
0.0
 10
409.0576922552052
 20
297.8486730385703
 30
0.0
 10
409.0615594482891
 20
297.7951297010883
 30
0.0
 10
409.05972057258
 20
297.7525550648497
 30
0.0
 10
409.0530813955219
 20
297.710195434169
 30
0.0
  0
SPLINE
  5
19F
330
1F
100
AcDbEntity
  8
1
100
AcDbSpline
210
0.0
220
0.0
230
1.0
 70
     8
 71
     3
 72
    14
 73
    10
 74
     0
 42
0.000000001
 43
0.0000000001
 40
0.0
 40
0.0
 40
0.0
 40
0.0
 40
0.2499999999999998
 40
0.2499999999999998
 40
0.4999999999999994
 40
0.4999999999999994
 40
0.7499999999999999
 40
0.7499999999999999
 40
1.0
 40
1.0
 40
1.0
 40
1.0
 10
408.8272173004426
 20
298.2087987028902
 30
0.0
 10
408.8342819202495
 20
298.2092716013257
 30
0.0
 10
408.8413732873152
 20
298.2090014579001
 30
0.0
 10
408.8552806828404
 20
298.2070002679353
 30
0.0
 10
408.8620488022368
 20
298.2052878043733
 30
0.0
 10
408.8752123265688
 20
298.2004219306634
 30
0.0
 10
408.8816277941856
 20
298.1972350353428
 30
0.0
 10
408.893492431292
 20
298.1896251213532
 30
0.0
 10
408.8990191990873
 20
298.1851830590251
 30
0.0
 10
408.9041068548795
 20
298.1800464248527
 30
0.0
  0
SPLINE
  5
1A0
330
1F
100
AcDbEntity
  8
1
100
AcDbSpline
210
0.0
220
0.0
230
1.0
 70
     8
 71
     3
 72
    22
 73
    18
 74
     0
 42
0.000000001
 43
0.0000000001
 40
0.0
 40
0.0
 40
0.0
 40
0.0
 40
0.125
 40
0.125
 40
0.25
 40
0.25
 40
0.375
 40
0.375
 40
0.5
 40
0.5
 40
0.625
 40
0.625
 40
0.75
 40
0.75
 40
0.875
 40
0.875
 40
1.0
 40
1.0
 40
1.0
 40
1.0
 10
408.8272173004426
 20
298.2087987028902
 30
0.0
 10
408.821569958188
 20
298.2084206755667
 30
0.0
 10
408.815920876779
 20
298.2085185669144
 30
0.0
 10
408.8048159102414
 20
298.2096339283669
 30
0.0
 10
408.799332578394
 20
298.2106486464303
 30
0.0
 10
408.7885092495234
 20
298.2136183485977
 30
0.0
 10
408.7831740966562
 20
298.2155832934198
 30
0.0
 10
408.7730220777767
 20
298.220347285409
 30
0.0
 10
408.7681566135511
 20
298.2231568819034
 30
0.0
 10
408.7588670566024
 20
298.2296680717476
 30
0.0
 10
408.7544677923136
 20
298.233365223883
 30
0.0
 10
408.7464467372649
 20
298.2414160463002
 30
0.0
 10
408.7427824737938
 20
298.2457968890881
 30
0.0
 10
408.7361881687057
 20
298.2553095823536
 30
0.0
 10
408.7333143288037
 20
298.2603734324116
 30
0.0
 10
408.7285300432602
 20
298.2708986903414
 30
0.0
 10
408.7265971326711
 20
298.2763909914662
 30
0.0
 10
408.7251535057391
 20
298.2821274738276
 30
0.0
  0
SPLINE
  5
1A1
330
1F
100
AcDbEntity
  8
1
100
AcDbSpline
210
0.0
220
0.0
230
1.0
 70
     8
 71
     3
 72
    21
 73
    17
 74
     0
 42
0.000000001
 43
0.0000000001
 40
0.0
 40
0.0
 40
0.0
 40
0.0
 40
0.2499999999998905
 40
0.2499999999998905
 40
0.3124999999999067
 40
0.3124999999999067
 40
0.3749999999999229
 40
0.3749999999999229
 40
0.4999999999998697
 40
0.6249999999998164
 40
0.6249999999998164
 40
0.6874999999998469
 40
0.6874999999998469
 40
0.7499999999998776
 40
0.7499999999998776
 40
1.0
 40
1.0
 40
1.0
 40
1.0
 10
410.5915101664948
 20
297.3698955901314
 30
0.0
 10
410.6033948910278
 20
297.4110915366539
 30
0.0
 10
410.6197024336569
 20
297.4504290556357
 30
0.0
 10
410.6457577751847
 20
297.4972688076567
 30
0.0
 10
410.6512560838766
 20
297.506518574494
 30
0.0
 10
410.6628463996704
 20
297.5247748032152
 30
0.0
 10
410.6689555549441
 20
297.5338013481162
 30
0.0
 10
410.6879142194797
 20
297.5601079045622
 30
0.0
 10
410.715015729777
 20
297.5933774231015
 30
0.0
 10
410.7456805849018
 20
297.6231133966423
 30
0.0
 10
410.770039455249
 20
297.6440681260639
 30
0.0
 10
410.7784174614372
 20
297.6508510388431
 30
0.0
 10
410.795476080259
 20
297.6638344640917
 30
0.0
 10
410.8041386948571
 20
297.6700248548264
 30
0.0
 10
410.8481000585318
 20
297.6995231580004
 30
0.0
 10
410.8853153147951
 20
297.718529396349
 30
0.0
 10
410.9245866825053
 20
297.7331170751192
 30
0.0
  0
SPLINE
  5
1A2
330
1F
100
AcDbEntity
  8
1
100
AcDbSpline
210
0.0
220
0.0
230
1.0
 70
     8
 71
     3
 72
    14
 73
    10
 74
     0
 42
0.000000001
 43
0.0000000001
 40
0.0
 40
0.0
 40
0.0
 40
0.0
 40
0.2499999999999998
 40
0.2499999999999998
 40
0.5
 40
0.5
 40
0.75
 40
0.75
 40
1.0
 40
1.0
 40
1.0
 40
1.0
 10
410.9245866825053
 20
297.7331170751192
 30
0.0
 10
410.9313598865557
 20
297.7356330385473
 30
0.0
 10
410.9383777258992
 20
297.7373638376717
 30
0.0
 10
410.9523704689235
 20
297.7392462904095
 30
0.0
 10
410.959362075919
 20
297.7394190202473
 30
0.0
 10
410.9733402877442
 20
297.7382758857898
 30
0.0
 10
410.9803163553662
 20
297.7369384925308
 30
0.0
 10
410.9936414380926
 20
297.7329020160797
 30
0.0
 10
411.0000739889057
 20
297.7302003742762
 30
0.0
 10
411.006269612853
 20
297.7267931813776
 30
0.0
  0
SPLINE
  5
1A3
330
1F
100
AcDbEntity
  8
1
100
AcDbSpline
210
0.0
220
0.0
230
1.0
 70
     8
 71
     3
 72
    20
 73
    16
 74
     0
 42
0.000000001
 43
0.0000000001
 40
0.0
 40
0.0
 40
0.0
 40
0.0
 40
0.1249999999999317
 40
0.1249999999999317
 40
0.2499999999998634
 40
0.2499999999998634
 40
0.3749999999997952
 40
0.3749999999997952
 40
0.4999999999997269
 40
0.4999999999997269
 40
0.6249999999996586
 40
0.6249999999996586
 40
0.7499999999995904
 40
0.7499999999995904
 40
1.0
 40
1.0
 40
1.0
 40
1.0
 10
411.1295097065666
 20
297.7502848200824
 30
0.0
 10
411.1257821105478
 20
297.7456856755687
 30
0.0
 10
411.1217091263871
 20
297.7415094079147
 30
0.0
 10
411.1129104920271
 20
297.7339573661396
 30
0.0
 10
411.1081330665056
 20
297.7305546060446
 30
0.0
 10
411.0981846342147
 20
297.7247351410863
 30
0.0
 10
411.0930332485093
 20
297.7223148792277
 30
0.0
 10
411.0823954395401
 20
297.7184051541234
 30
0.0
 10
411.0768574085541
 20
297.7169082493133
 30
0.0
 10
411.0656951800199
 20
297.7149217871375
 30
0.0
 10
411.0601122778521
 20
297.7144287521963
 30
0.0
 10
411.0489449714499
 20
297.7143912135083
 30
0.0
 10
411.0433327890476
 20
297.7148518609019
 30
0.0
 10
411.02667882037
 20
297.7176708007487
 30
0.0
 10
411.0161762361519
 20
297.7213451785871
 30
0.0
 10
411.006269612853
 20
297.7267931813776
 30
0.0
  0
SPLINE
  5
1A4
330
1F
100
AcDbEntity
  8
1
100
AcDbSpline
210
0.0
220
0.0
230
1.0
 70
     8
 71
     3
 72
    14
 73
    10
 74
     0
 42
0.000000001
 43
0.0000000001
 40
0.0
 40
0.0
 40
0.0
 40
0.0
 40
0.605350972944672
 40
0.605350972944672
 40
0.7566887161808432
 40
0.7566887161808432
 40
0.9080264594170147
 40
0.9080264594170147
 40
1.0
 40
1.0
 40
1.0
 40
1.0
 10
408.7251535057391
 20
298.2821274738276
 30
0.0
 10
408.7147691759086
 20
298.3233912682226
 30
0.0
 10
408.7092859985068
 20
298.3653462320963
 30
0.0
 10
408.7085582108285
 20
298.4186441384372
 30
0.0
 10
408.7087252556333
 20
298.4293695665615
 30
0.0
 10
408.7096785397018
 20
298.4506662807808
 30
0.0
 10
408.7104631247834
 20
298.4612629817694
 30
0.0
 10
408.712210629003
 20
298.4782181023319
 30
0.0
 10
408.7129826003232
 20
298.4846085698153
 30
0.0
 10
408.7138657445654
 20
298.490980374285
 30
0.0
  0
SPLINE
  5
1A5
330
1F
100
AcDbEntity
  8
1
100
AcDbSpline
210
0.0
220
0.0
230
1.0
 70
     8
 71
     3
 72
    12
 73
     8
 74
     0
 42
0.000000001
 43
0.0000000001
 40
0.0
 40
0.0
 40
0.0
 40
0.0
 40
0.0713656558322203
 40
0.0713656558322203
 40
0.2570925246657764
 40
0.2570925246657764
 40
1.0
 40
1.0
 40
1.0
 40
1.0
 10
411.2147070781762
 20
297.8974216153172
 30
0.0
 10
411.2132258400457
 20
297.8935929274032
 30
0.0
 10
411.2117040088477
 20
297.8897862719234
 30
0.0
 10
411.2060848767907
 20
297.8761747859138
 30
0.0
 10
411.2017576993586
 20
297.866501230523
 30
0.0
 10
411.1788068809016
 20
297.8189171358368
 30
0.0
 10
411.1562898983758
 20
297.7833264832926
 30
0.0
 10
411.1295097065666
 20
297.7502848200824
 30
0.0
  0
SPLINE
  5
1A6
330
1F
100
AcDbEntity
  8
1
100
AcDbSpline
210
0.0
220
0.0
230
1.0
 70
     8
 71
     3
 72
    14
 73
    10
 74
     0
 42
0.000000001
 43
0.0000000001
 40
0.0
 40
0.0
 40
0.0
 40
0.0
 40
0.25
 40
0.25
 40
0.5
 40
0.5
 40
0.75
 40
0.75
 40
1.0
 40
1.0
 40
1.0
 40
1.0
 10
409.3593933629202
 20
299.2313154101214
 30
0.0
 10
409.3632205581576
 20
299.2255672819248
 30
0.0
 10
409.3664161842295
 20
299.2194255677122
 30
0.0
 10
409.3714081028096
 20
299.2066445380166
 30
0.0
 10
409.3731971043693
 20
299.2000555140022
 30
0.0
 10
409.3753461528916
 20
299.1864727837427
 30
0.0
 10
409.3756869302736
 20
299.1794449218262
 30
0.0
 10
409.3748306005598
 20
299.1655888127632
 30
0.0
 10
409.3736545362319
 20
299.1586854266054
 30
0.0
 10
409.3716651311776
 20
299.1518059374813
 30
0.0
  0
SPLINE
  5
1A7
330
1F
100
AcDbEntity
  8
1
100
AcDbSpline
210
0.0
220
0.0
230
1.0
 70
     8
 71
     3
 72
    12
 73
     8
 74
     0
 42
0.000000001
 43
0.0000000001
 40
0.0
 40
0.0
 40
0.0
 40
0.0
 40
0.4717321844562103
 40
0.4717321844562103
 40
0.9434643689124206
 40
0.9434643689124206
 40
1.0
 40
1.0
 40
1.0
 40
1.0
 10
409.3593933629197
 20
299.2313154101227
 30
0.0
 10
409.3563340735735
 20
299.2359102076865
 30
0.0
 10
409.3536868144598
 20
299.2407438729709
 30
0.0
 10
409.3492826373946
 20
299.2507076561353
 30
0.0
 10
409.3475101653025
 20
299.2558595264927
 30
0.0
 10
409.3460206373333
 20
299.2618240778804
 30
0.0
 10
409.3458677403428
 20
299.2624649147608
 30
0.0
 10
409.3457214146027
 20
299.2631079381713
 30
0.0
  0
SPLINE
  5
1A8
330
1F
100
AcDbEntity
  8
1
100
AcDbSpline
210
0.0
220
0.0
230
1.0
 70
     8
 71
     3
 72
    14
 73
    10
 74
     0
 42
0.000000001
 43
0.0000000001
 40
0.0
 40
0.0
 40
0.0
 40
0.0
 40
0.14511584536279
 40
0.14511584536279
 40
0.43007723024186
 40
0.43007723024186
 40
0.7150386151209301
 40
0.7150386151209301
 40
1.0
 40
1.0
 40
1.0
 40
1.0
 10
410.9122478606472
 20
298.8217753554804
 30
0.0
 10
410.9131798494336
 20
298.8252621310962
 30
0.0
 10
410.9143006158636
 20
298.8286713431821
 30
0.0
 10
410.9181336034962
 20
298.8384550066936
 30
0.0
 10
410.9213285929032
 20
298.8445459047614
 30
0.0
 10
410.9289908825446
 20
298.8559730784498
 30
0.0
 10
410.9334715861938
 20
298.8612894575911
 30
0.0
 10
410.943299801461
 20
298.8706975488033
 30
0.0
 10
410.9486894397137
 20
298.874859703936
 30
0.0
 10
410.954570367955
 20
298.8784628788454
 30
0.0
  0
SPLINE
  5
1A9
330
1F
100
AcDbEntity
  8
1
100
AcDbSpline
210
0.0
220
0.0
230
1.0
 70
     8
 71
     3
 72
     8
 73
     4
 74
     0
 42
0.000000001
 43
0.0000000001
 40
0.0
 40
0.0
 40
0.0
 40
0.0
 40
1.0
 40
1.0
 40
1.0
 40
1.0
 10
410.9715955073442
 20
298.8917355035962
 30
0.0
 10
410.9664633064646
 20
298.8866943455553
 30
0.0
 10
410.9607866192614
 20
298.8822715022155
 30
0.0
 10
410.954570367955
 20
298.8784628788454
 30
0.0
  0
SPLINE
  5
1AA
330
1F
100
AcDbEntity
  8
1
100
AcDbSpline
210
0.0
220
0.0
230
1.0
 70
     8
 71
     3
 72
    36
 73
    32
 74
     0
 42
0.000000001
 43
0.0000000001
 40
0.0
 40
0.0
 40
0.0
 40
0.0
 40
0.124999999999909
 40
0.124999999999909
 40
0.187499999999872
 40
0.187499999999872
 40
0.2187499999998515
 40
0.2187499999998515
 40
0.249999999999831
 40
0.249999999999831
 40
0.3749999999997489
 40
0.3749999999997489
 40
0.406249999999759
 40
0.406249999999759
 40
0.4374999999997691
 40
0.4374999999997691
 40
0.4999999999997895
 40
0.4999999999997895
 40
0.62499999999983
 40
0.62499999999983
 40
0.6562499999998699
 40
0.6562499999998699
 40
0.6874999999999098
 40
0.7499999999999276
 40
0.8124999999999452
 40
0.8124999999999452
 40
0.8437499999999541
 40
0.8437499999999541
 40
0.874999999999963
 40
0.874999999999963
 40
1.0
 40
1.0
 40
1.0
 40
1.0
 10
414.7002807888953
 20
302.54000174282
 30
0.0
 10
414.6980001096332
 20
302.5908069180392
 30
0.0
 10
414.6905810570233
 20
302.6405049446736
 30
0.0
 10
414.6722236768534
 20
302.7134944183414
 30
0.0
 10
414.6648897136598
 20
302.7375624860362
 30
0.0
 10
414.6520404286738
 20
302.773266331731
 30
0.0
 10
414.6474351670648
 20
302.7851325094855
 30
0.0
 10
414.6376688264894
 20
302.8085581754093
 30
0.0
 10
414.6325143667966
 20
302.8201072548843
 30
0.0
 10
414.6054163050871
 20
302.8770524059178
 30
0.0
 10
414.5795347412533
 20
302.9200714772459
 30
0.0
 10
414.5420074502182
 20
302.9707214223686
 30
0.0
 10
414.5342407909601
 20
302.9806937473559
 30
0.0
 10
414.5181771434328
 20
303.0003182844803
 30
0.0
 10
414.5098647848934
 20
303.0099853830344
 30
0.0
 10
414.4843861250607
 20
303.0382068217926
 30
0.0
 10
414.4666088052676
 20
303.0560764461079
 30
0.0
 10
414.4109677095332
 20
303.1069294892156
 30
0.0
 10
414.3708178219902
 20
303.1371845569705
 30
0.0
 10
414.3166789355225
 20
303.1702874570242
 30
0.0
 10
414.3056378149443
 20
303.1766755948948
 30
0.0
 10
414.2833936493921
 20
303.1888349116527
 30
0.0
 10
414.2497002330413
 20
303.2062017163156
 30
0.0
 10
414.1919365492896
 20
303.2308597821718
 30
0.0
 10
414.144021061529
 20
303.2460422390567
 30
0.0
 10
414.1074297292696
 20
303.2556837267137
 30
0.0
 10
414.0951232898411
 20
303.2586061055586
 30
0.0
 10
414.0702865049863
 20
303.263853970562
 30
0.0
 10
414.0577399073892
 20
303.2661805749053
 30
0.0
 10
413.9950287114008
 20
303.276192313592
 30
0.0
 10
413.9445010750756
 20
303.2791690266225
 30
0.0
 10
413.8936032139826
 20
303.2769510691187
 30
0.0
  0
SPLINE
  5
1AB
330
1F
100
AcDbEntity
  8
1
100
AcDbSpline
210
0.0
220
0.0
230
1.0
 70
     8
 71
     3
 72
    36
 73
    32
 74
     0
 42
0.000000001
 43
0.0000000001
 40
0.0
 40
0.0
 40
0.0
 40
0.0
 40
0.124999999999939
 40
0.124999999999939
 40
0.187499999999909
 40
0.187499999999909
 40
0.2187499999999255
 40
0.2187499999999255
 40
0.249999999999942
 40
0.249999999999942
 40
0.3749999999999404
 40
0.3749999999999404
 40
0.4062499999999269
 40
0.4062499999999269
 40
0.4374999999999132
 40
0.4374999999999132
 40
0.4999999999999369
 40
0.4999999999999369
 40
0.6249999999999842
 40
0.6249999999999842
 40
0.6562499999999801
 40
0.6562499999999801
 40
0.6874999999999761
 40
0.7499999999999715
 40
0.8124999999999669
 40
0.8124999999999669
 40
0.8437499999999714
 40
0.8437499999999714
 40
0.8749999999999756
 40
0.8749999999999756
 40
1.0
 40
1.0
 40
1.0
 40
1.0
 10
405.9237657281858
 20
302.929652371768
 30
0.0
 10
405.8728622597088
 20
302.9274341699133
 30
0.0
 10
405.8230740005408
 20
302.9200865091524
 30
0.0
 10
405.7499605181154
 20
302.901848757831
 30
0.0
 10
405.7258530199193
 20
302.8945567785113
 30
0.0
 10
405.6900929280208
 20
302.8817736759772
 30
0.0
 10
405.6782084387832
 20
302.8771910732489
 30
0.0
 10
405.6547473930484
 20
302.8674708014544
 30
0.0
 10
405.6431812583648
 20
302.8623397266767
 30
0.0
 10
405.5861539329869
 20
302.8353603025189
 30
0.0
 10
405.5430789556075
 20
302.8095790794381
 30
0.0
 10
405.4923712359128
 20
302.7721839012332
 30
0.0
 10
405.4823879671058
 20
302.7644440020308
 30
0.0
 10
405.4627427830767
 20
302.7484345598362
 30
0.0
 10
405.4530659694091
 20
302.7401496940005
 30
0.0
 10
405.4248175519017
 20
302.714753695303
 30
0.0
 10
405.4069327208115
 20
302.697031973033
 30
0.0
 10
405.3560421645766
 20
302.6415590996109
 30
0.0
 10
405.3257728168278
 20
302.6015232523425
 30
0.0
 10
405.2926659402841
 20
302.5475293628753
 30
0.0
 10
405.2862777121161
 20
302.5365173990862
 30
0.0
 10
405.274119624724
 20
302.5143311639887
 30
0.0
 10
405.2567567694159
 20
302.4807242963384
 30
0.0
 10
405.2321156331329
 20
302.4231031550521
 30
0.0
 10
405.2169576885209
 20
302.3752998934967
 30
0.0
 10
405.2073387981283
 20
302.3387920365254
 30
0.0
 10
405.2044246552283
 20
302.3265133062433
 30
0.0
 10
405.1991947029358
 20
302.3017317022158
 30
0.0
 10
405.1968777916786
 20
302.2892126097657
 30
0.0
 10
405.1869177133047
 20
302.2266370467399
 30
0.0
 10
405.1839927322238
 20
302.1762128857838
 30
0.0
 10
405.1862731602528
 20
302.1254133071211
 30
0.0
  0
SPLINE
  5
1AC
330
1F
100
AcDbEntity
  8
1
100
AcDbSpline
210
0.0
220
0.0
230
1.0
 70
     8
 71
     3
 72
    36
 73
    32
 74
     0
 42
0.000000001
 43
0.0000000001
 40
0.0
 40
0.0
 40
0.0
 40
0.0
 40
0.1250000000001425
 40
0.1250000000001425
 40
0.1875000000002064
 40
0.1875000000002064
 40
0.2187500000002383
 40
0.2187500000002383
 40
0.2500000000002702
 40
0.2500000000002702
 40
0.3750000000004038
 40
0.3750000000004038
 40
0.4062500000004271
 40
0.4062500000004271
 40
0.4375000000004503
 40
0.4375000000004503
 40
0.5000000000004966
 40
0.5000000000004966
 40
0.6250000000005878
 40
0.6250000000005878
 40
0.6562500000005818
 40
0.6562500000005818
 40
0.6875000000005758
 40
0.7500000000005009
 40
0.8125000000004259
 40
0.8125000000004259
 40
0.8437500000003549
 40
0.8437500000003549
 40
0.8750000000002838
 40
0.8750000000002838
 40
1.0
 40
1.0
 40
1.0
 40
1.0
 10
405.5433537997368
 20
294.1709653677264
 30
0.0
 10
405.545634478999
 20
294.1201601925072
 30
0.0
 10
405.5530535316087
 20
294.0704621658728
 30
0.0
 10
405.5714109117787
 20
293.997472692205
 30
0.0
 10
405.5787448749721
 20
293.9734046245102
 30
0.0
 10
405.5915941599583
 20
293.9377007788154
 30
0.0
 10
405.5961994215673
 20
293.9258346010608
 30
0.0
 10
405.6059657621427
 20
293.9024089351372
 30
0.0
 10
405.6111202218353
 20
293.890859855662
 30
0.0
 10
405.6382182835451
 20
293.8339147046286
 30
0.0
 10
405.6640998473788
 20
293.7908956333005
 30
0.0
 10
405.7016271384139
 20
293.7402456881778
 30
0.0
 10
405.7093937976721
 20
293.7302733631906
 30
0.0
 10
405.7254574451993
 20
293.7106488260662
 30
0.0
 10
405.7337698037387
 20
293.7009817275122
 30
0.0
 10
405.7592484635714
 20
293.6727602887538
 30
0.0
 10
405.7770257833648
 20
293.6548906644386
 30
0.0
 10
405.8326668790989
 20
293.6040376213308
 30
0.0
 10
405.872816766642
 20
293.5737825535758
 30
0.0
 10
405.9269556531096
 20
293.5406796535222
 30
0.0
 10
405.9379967736878
 20
293.5342915156516
 30
0.0
 10
405.9602409392401
 20
293.5221321988937
 30
0.0
 10
405.9939343555909
 20
293.5047653942307
 30
0.0
 10
406.0516980781843
 20
293.4801074319199
 30
0.0
 10
406.0996135271033
 20
293.4649248714896
 30
0.0
 10
406.1362048593626
 20
293.4552833838327
 30
0.0
 10
406.1485112987912
 20
293.4523610049879
 30
0.0
 10
406.173348083646
 20
293.4471131399844
 30
0.0
 10
406.1858946812431
 20
293.4447865356411
 30
0.0
 10
406.2486058772313
 20
293.4347747969544
 30
0.0
 10
406.2991335135566
 20
293.431798083924
 30
0.0
 10
406.3500313746494
 20
293.4340160414278
 30
0.0
  0
SPLINE
  5
1AD
330
1F
100
AcDbEntity
  8
1
100
AcDbSpline
210
0.0
220
0.0
230
1.0
 70
     8
 71
     3
 72
    36
 73
    32
 74
     0
 42
0.000000001
 43
0.0000000001
 40
0.0
 40
0.0
 40
0.0
 40
0.0
 40
0.1250000000001082
 40
0.1250000000001082
 40
0.1875000000001623
 40
0.1875000000001623
 40
0.2187500000001571
 40
0.2187500000001571
 40
0.250000000000152
 40
0.250000000000152
 40
0.3750000000000721
 40
0.3750000000000721
 40
0.4062500000000381
 40
0.4062500000000381
 40
0.4375000000000038
 40
0.4375000000000038
 40
0.499999999999985
 40
0.499999999999985
 40
0.6249999999999472
 40
0.6249999999999472
 40
0.6562499999999552
 40
0.6562499999999552
 40
0.6874999999999632
 40
0.7499999999999809
 40
0.8124999999999985
 40
0.8124999999999985
 40
0.8437499999999978
 40
0.8437499999999978
 40
0.8749999999999969
 40
0.8749999999999969
 40
1.0
 40
1.0
 40
1.0
 40
1.0
 10
414.3198688604464
 20
293.7813147387784
 30
0.0
 10
414.3707723289233
 20
293.7835329406331
 30
0.0
 10
414.4205605880912
 20
293.790880601394
 30
0.0
 10
414.4936740705166
 20
293.8091183527154
 30
0.0
 10
414.5177815687128
 20
293.8164103320352
 30
0.0
 10
414.5535416606113
 20
293.8291934345693
 30
0.0
 10
414.565426149849
 20
293.8337760372975
 30
0.0
 10
414.5888871955836
 20
293.8434963090919
 30
0.0
 10
414.6004533302671
 20
293.8486273838697
 30
0.0
 10
414.6574806556451
 20
293.8756068080275
 30
0.0
 10
414.7005556330245
 20
293.9013880311082
 30
0.0
 10
414.7512633527193
 20
293.9387832093131
 30
0.0
 10
414.7612466215264
 20
293.9465231085157
 30
0.0
 10
414.7808918055554
 20
293.9625325507102
 30
0.0
 10
414.7905686192229
 20
293.970817416546
 30
0.0
 10
414.8188170367304
 20
293.9962134152434
 30
0.0
 10
414.8367018678206
 20
294.0139351375134
 30
0.0
 10
414.8875924240556
 20
294.0694080109355
 30
0.0
 10
414.9178617718042
 20
294.1094438582039
 30
0.0
 10
414.9509686483481
 20
294.1634377476711
 30
0.0
 10
414.9573568765161
 20
294.1744497114602
 30
0.0
 10
414.9695149639081
 20
294.1966359465578
 30
0.0
 10
414.9868778192162
 20
294.2302428142081
 30
0.0
 10
415.0115188517039
 20
294.2878639943773
 30
0.0
 10
415.0266769001113
 20
294.3356672170497
 30
0.0
 10
415.0362957905038
 20
294.372175074021
 30
0.0
 10
415.0392099334038
 20
294.3844538043031
 30
0.0
 10
415.0444398856964
 20
294.4092354083306
 30
0.0
 10
415.0467567969537
 20
294.4217545007806
 30
0.0
 10
415.0567168753274
 20
294.4843300638065
 30
0.0
 10
415.0596418564083
 20
294.5347542247627
 30
0.0
 10
415.0573614283795
 20
294.5855538034253
 30
0.0
  0
SPLINE
  5
1AE
330
1F
100
AcDbEntity
  8
1
100
AcDbSpline
210
0.0
220
0.0
230
1.0
 70
     8
 71
     3
 72
     8
 73
     4
 74
     0
 42
0.000000001
 43
0.0000000001
 40
0.0
 40
0.0
 40
0.0
 40
0.0
 40
1.0
 40
1.0
 40
1.0
 40
1.0
 10
399.6649123137385
 20
294.2054806437993
 30
0.0
 10
399.6218514909722
 20
294.2322138761653
 30
0.0
 10
399.5786922885661
 20
294.2589863013293
 30
0.0
 10
399.5354363462727
 20
294.2857972660415
 30
0.0
  0
SPLINE
  5
1AF
330
1F
100
AcDbEntity
  8
1
100
AcDbSpline
210
0.0
220
0.0
230
1.0
 70
     8
 71
     3
 72
    44
 73
    40
 74
     0
 42
0.000000001
 43
0.0000000001
 40
0.0
 40
0.0
 40
0.0
 40
0.0
 40
0.1249999999999534
 40
0.1249999999999534
 40
0.2499999999999328
 40
0.2499999999999328
 40
0.3749999999999123
 40
0.3749999999999123
 40
0.4374999999999122
 40
0.4374999999999122
 40
0.4999999999999122
 40
0.4999999999999122
 40
0.562499999999912
 40
0.562499999999912
 40
0.6249999999999119
 40
0.6249999999999119
 40
0.6874999999999118
 40
0.6874999999999118
 40
0.7187499999999144
 40
0.7187499999999144
 40
0.7499999999999171
 40
0.7499999999999171
 40
0.7812499999999197
 40
0.7812499999999197
 40
0.7968749999999261
 40
0.7968749999999261
 40
0.8124999999999324
 40
0.843749999999961
 40
0.843749999999961
 40
0.8593749999999753
 40
0.8593749999999753
 40
0.8749999999999896
 40
0.9062499999999925
 40
0.9062499999999925
 40
0.9374999999999948
 40
0.9374999999999948
 40
0.9687499999999975
 40
0.9687499999999975
 40
1.0
 40
1.0
 40
1.0
 40
1.0
 10
399.5354363462727
 20
294.2857972660414
 30
0.0
 10
399.4981784267038
 20
294.3088905270789
 30
0.0
 10
399.4619544883152
 20
294.3330387534972
 30
0.0
 10
399.3918097056649
 20
294.3837095528626
 30
0.0
 10
399.3578845546405
 20
294.4102277798645
 30
0.0
 10
399.2927748789323
 20
294.4661057472769
 30
0.0
 10
399.2615784147807
 20
294.4954535125728
 30
0.0
 10
399.2174838240265
 20
294.5422743432053
 30
0.0
 10
399.2032335926908
 20
294.5583591637063
 30
0.0
 10
399.1758652752194
 20
294.5916435931678
 30
0.0
 10
399.1628634286337
 20
294.6087002421305
 30
0.0
 10
399.1385115391947
 20
294.6438115008119
 30
0.0
 10
399.1271574418889
 20
294.661863777758
 30
0.0
 10
399.1065641951027
 20
294.69923682252
 30
0.0
 10
399.0973133453092
 20
294.718553944367
 30
0.0
 10
399.081771090934
 20
294.7589343925852
 30
0.0
 10
399.0756163558911
 20
294.779622225014
 30
0.0
 10
399.0698216481932
 20
294.8116933841557
 30
0.0
 10
399.0684680687079
 20
294.8226274274065
 30
0.0
 10
399.0672286156652
 20
294.8445129788408
 30
0.0
 10
399.0673328173132
 20
294.8554630947663
 30
0.0
 10
399.0692267401743
 20
294.8773761771624
 30
0.0
 10
399.0710147802372
 20
294.8883391544449
 30
0.0
 10
399.0752149674684
 20
294.9047913896064
 30
0.0
 10
399.0768802725725
 20
294.910306745992
 30
0.0
 10
399.0807173569932
 20
294.921179456926
 30
0.0
 10
399.0872087805934
 20
294.937210570629
 30
0.0
 10
399.0959288734944
 20
294.9523972711522
 30
0.0
 10
399.1061870474182
 20
294.9669978436663
 30
0.0
 10
399.1098710037134
 20
294.9717714989121
 30
0.0
 10
399.1175924498108
 20
294.9809335618957
 30
0.0
 10
399.1297557834109
 20
294.9941758857506
 30
0.0
 10
399.1435505003117
 20
295.0060108690242
 30
0.0
 10
399.1632418642323
 20
295.0206684488882
 30
0.0
 10
399.1735036549764
 20
295.0272664391188
 30
0.0
 10
399.1946684569144
 20
295.0392754449041
 30
0.0
 10
399.2055770483458
 20
295.044688149427
 30
0.0
 10
399.2279362347415
 20
295.054529812414
 30
0.0
 10
399.2394145891561
 20
295.0589665441494
 30
0.0
 10
399.2510468284642
 20
295.0629564033311
 30
0.0
  0
SPLINE
  5
1B0
330
1F
100
AcDbEntity
  8
1
100
AcDbSpline
210
0.0
220
0.0
230
1.0
 70
     8
 71
     3
 72
     8
 73
     4
 74
     0
 42
0.000000001
 43
0.0000000001
 40
0.0
 40
0.0
 40
0.0
 40
0.0
 40
1.0
 40
1.0
 40
1.0
 40
1.0
 10
300.0350580631516
 20
283.7052175393905
 30
0.0
 10
300.0351515771821
 20
283.7149967259417
 30
0.0
 10
300.035245103568
 20
283.7247759453808
 30
0.0
 10
300.0353386423141
 20
283.7345551977212
 30
0.0
  0
SPLINE
  5
1B1
330
1F
100
AcDbEntity
  8
1
100
AcDbSpline
210
0.0
220
0.0
230
1.0
 70
    12
 71
     2
 72
     6
 73
     3
 74
     0
 42
0.000000001
 43
0.0000000001
 40
0.0
 40
0.0
 40
0.0
 40
1.0
 40
1.0
 40
1.0
 10
300.0350580631516
 20
283.7052175393904
 30
0.0
 41
0.500000137654517
 10
300.0389049168492
 20
283.7188525937562
 30
0.0
 41
0.499999862345483
 10
300.0427489539218
 20
283.7324990697815
 30
0.0
 41
0.500000137654517
  0
SPLINE
  5
1B2
330
1F
100
AcDbEntity
  8
1
100
AcDbSpline
210
0.0
220
0.0
230
1.0
 70
     8
 71
     3
 72
    21
 73
    17
 74
     0
 42
0.000000001
 43
0.0000000001
 40
0.0
 40
0.0
 40
0.0
 40
0.0
 40
0.1249999999999922
 40
0.1249999999999922
 40
0.2499999999999913
 40
0.2499999999999913
 40
0.3749999999999905
 40
0.3749999999999905
 40
0.4999999999999896
 40
0.4999999999999896
 40
0.7499999999999949
 40
0.7499999999999949
 40
0.8124999999999962
 40
0.8124999999999962
 40
0.8749999999999975
 40
1.0
 40
1.0
 40
1.0
 40
1.0
 10
399.7971813669705
 20
292.017224481792
 30
0.0
 10
399.6245515107295
 20
292.1002523605893
 30
0.0
 10
399.4508195257109
 20
292.1852661247908
 30
0.0
 10
399.1014674604624
 20
292.3586957426768
 30
0.0
 10
398.9258463448407
 20
292.4471134619955
 30
0.0
 10
398.5729512888172
 20
292.6269270649582
 30
0.0
 10
398.3956767168455
 20
292.7183240866044
 30
0.0
 10
398.0396565406201
 20
292.9037687289904
 30
0.0
 10
397.8609105316625
 20
292.9978170789512
 30
0.0
 10
397.3226808584124
 20
293.2835508033622
 30
0.0
 10
396.9612157694015
 20
293.4788064343093
 30
0.0
 10
396.5065962504785
 20
293.7278998519752
 30
0.0
 10
396.4154871021286
 20
293.7779960817159
 30
0.0
 10
396.2332025466236
 20
293.8785633074963
 30
0.0
 10
395.9599729567646
 20
294.0298123817236
 30
0.0
 10
395.68730733816
 20
294.1822001171585
 30
0.0
 10
395.5057606461125
 20
294.2842570935051
 30
0.0
  0
SPLINE
  5
1B3
330
1F
100
AcDbEntity
  8
1
100
AcDbSpline
210
0.0
220
0.0
230
1.0
 70
     8
 71
     3
 72
    18
 73
    14
 74
     0
 42
0.000000001
 43
0.0000000001
 40
0.0
 40
0.0
 40
0.0
 40
0.0
 40
0.1244870070990523
 40
0.1244870070990523
 40
0.2339261312116702
 40
0.2339261312116702
 40
0.3433652553242889
 40
0.3433652553242889
 40
0.562243503549526
 40
0.562243503549526
 40
0.7811217517747629
 40
0.7811217517747629
 40
1.0
 40
1.0
 40
1.0
 40
1.0
 10
342.1461096205227
 20
277.712526929144
 30
0.0
 10
341.3356214601703
 20
277.6078237442958
 30
0.0
 10
340.5252863212327
 20
277.505866416301
 30
0.0
 10
339.0027801209982
 20
277.3196037155056
 30
0.0
 10
338.2905691582727
 20
277.234688719348
 30
0.0
 10
336.8663362709747
 20
277.0691554058222
 30
0.0
 10
336.1543223212212
 20
276.9885156253621
 30
0.0
 10
334.0187213718348
 20
276.752665286437
 30
0.0
 10
332.5955860557122
 20
276.6034750978026
 30
0.0
 10
329.7510133145662
 20
276.3207209652131
 30
0.0
 10
328.3295788636635
 20
276.187168021867
 30
0.0
 10
325.4885354231938
 20
275.9366620717383
 30
0.0
 10
324.0689268435116
 20
275.8197276581703
 30
0.0
 10
322.6500770690602
 20
275.7120691048373
 30
0.0
  0
SPLINE
  5
1B4
330
1F
100
AcDbEntity
  8
1
100
AcDbSpline
210
0.0
220
0.0
230
1.0
 70
     8
 71
     3
 72
    18
 73
    14
 74
     0
 42
0.000000001
 43
0.0000000001
 40
0.0
 40
0.0
 40
0.0
 40
0.0
 40
0.1946661486961314
 40
0.1946661486961314
 40
0.3893322973922627
 40
0.3893322973922627
 40
0.5839984460883941
 40
0.5839984460883941
 40
0.7786645947845255
 40
0.7786645947845255
 40
0.9733307434806569
 40
0.9733307434806569
 40
1.0
 40
1.0
 40
1.0
 40
1.0
 10
322.6500770690604
 20
275.7120691048357
 30
0.0
 10
323.7286548179097
 20
275.8678193013005
 30
0.0
 10
324.8084169252333
 20
276.0250172921901
 30
0.0
 10
326.9706171908231
 20
276.3389630750597
 30
0.0
 10
328.0530562886217
 20
276.495689522025
 30
0.0
 10
330.2205647312017
 20
276.8065885254615
 30
0.0
 10
331.3056325899351
 20
276.9607500612543
 30
0.0
 10
333.4780003855109
 20
277.2662218284462
 30
0.0
 10
334.5653377699339
 20
277.4175421285547
 30
0.0
 10
336.7413609594311
 20
277.7189235106224
 30
0.0
 10
337.830019952236
 20
277.8689989275304
 30
0.0
 10
339.0681463914631
 20
278.040739671678
 30
0.0
 10
339.2173366668113
 20
278.0614521800502
 30
0.0
 10
339.3665325138473
 20
278.0821787178072
 30
0.0
  0
SPLINE
  5
1B5
330
1F
100
AcDbEntity
  8
1
100
AcDbSpline
210
0.0
220
0.0
230
1.0
 70
     8
 71
     3
 72
     8
 73
     4
 74
     0
 42
0.000000001
 43
0.0000000001
 40
0.0
 40
0.0
 40
0.0
 40
0.0
 40
1.0
 40
1.0
 40
1.0
 40
1.0
 10
400.4225419924542
 20
293.7692293812967
 30
0.0
 10
400.1666994309286
 20
293.905411877526
 30
0.0
 10
399.9142726437868
 20
294.0506715338523
 30
0.0
 10
399.6649123137385
 20
294.2054806437994
 30
0.0
  0
SPLINE
  5
1B6
330
1F
100
AcDbEntity
  8
1
100
AcDbSpline
210
0.0
220
0.0
230
1.0
 70
     8
 71
     3
 72
    39
 73
    35
 74
     0
 42
0.000000001
 43
0.0000000001
 40
0.0
 40
0.0
 40
0.0
 40
0.0
 40
0.1249999999999988
 40
0.1249999999999988
 40
0.2499999999999975
 40
0.2499999999999975
 40
0.3124999999999971
 40
0.3124999999999971
 40
0.3437499999999967
 40
0.3437499999999967
 40
0.3749999999999963
 40
0.3749999999999963
 40
0.4999999999999961
 40
0.4999999999999961
 40
0.5624999999999961
 40
0.5624999999999961
 40
0.6249999999999963
 40
0.6249999999999963
 40
0.6562499999999963
 40
0.6562499999999963
 40
0.6718749999999963
 40
0.6718749999999963
 40
0.6874999999999961
 40
0.7499999999999972
 40
0.7499999999999972
 40
0.812499999999998
 40
0.812499999999998
 40
0.8749999999999989
 40
0.8749999999999989
 40
0.9062499999999989
 40
0.9062499999999989
 40
0.9374999999999992
 40
0.9374999999999992
 40
1.0
 40
1.0
 40
1.0
 40
1.0
 10
282.3043368819074
 20
283.4294504587295
 30
0.0
 10
282.6127353932486
 20
283.7019421958159
 30
0.0
 10
282.9355987080795
 20
283.9583131983902
 30
0.0
 10
283.611395940729
 20
284.43853692223
 30
0.0
 10
283.9643168662794
 20
284.6624043901629
 30
0.0
 10
284.518107655918
 20
284.9724851995782
 30
0.0
 10
284.7067844640138
 20
285.0715456820247
 30
0.0
 10
284.9962815310096
 20
285.2133723766707
 30
0.0
 10
285.0938618726635
 20
285.2595194444115
 30
0.0
 10
285.2912590884131
 20
285.3494884870224
 30
0.0
 10
285.3911756240791
 20
285.3933481679483
 30
0.0
 10
285.8935742234988
 20
285.6054166407492
 30
0.0
 10
286.3064531746691
 20
285.7530085670405
 30
0.0
 10
286.9433493127326
 20
285.9390710773557
 30
0.0
 10
287.1585856063347
 20
285.99518224897
 30
0.0
 10
287.5952296404259
 20
286.0948996284217
 30
0.0
 10
287.8166369609354
 20
286.1385077562063
 30
0.0
 10
288.153661386659
 20
286.1938287283373
 30
0.0
 10
288.2668224663531
 20
286.2105849167164
 30
0.0
 10
288.4378359559695
 20
286.2330807593355
 30
0.0
 10
288.4950977920564
 20
286.2401445900344
 30
0.0
 10
288.6098409425135
 20
286.2533474558358
 30
0.0
 10
288.8968827047305
 20
286.2840025647837
 30
0.0
 10
289.1848351716494
 20
286.3028545338071
 30
0.0
 10
289.6466641134601
 20
286.3174346800822
 30
0.0
 10
289.8781312961946
 20
286.3169333093439
 30
0.0
 10
290.3420924712614
 20
286.2996533307261
 30
0.0
 10
290.5745867145762
 20
286.2828748060971
 30
0.0
 10
290.9240209794649
 20
286.2448126873152
 30
0.0
 10
291.0406143339887
 20
286.2299745222645
 30
0.0
 10
291.2740156787583
 20
286.1958613373522
 30
0.0
 10
291.390863487085
 20
286.1765789346032
 30
0.0
 10
291.7414548215797
 20
286.111898504192
 30
0.0
 10
291.9735166074345
 20
286.059994731023
 30
0.0
 10
292.2038318185191
 20
285.9991381247585
 30
0.0
  0
SPLINE
  5
1B7
330
1F
100
AcDbEntity
  8
1
100
AcDbSpline
210
0.0
220
0.0
230
1.0
 70
     8
 71
     3
 72
    28
 73
    24
 74
     0
 42
0.000000001
 43
0.0000000001
 40
0.0
 40
0.0
 40
0.0
 40
0.0
 40
0.1250000000000422
 40
0.1250000000000422
 40
0.2500000000000844
 40
0.2500000000000844
 40
0.3125000000001285
 40
0.3125000000001285
 40
0.3750000000001726
 40
0.3750000000001726
 40
0.5000000000002613
 40
0.5000000000002613
 40
0.62500000000035
 40
0.62500000000035
 40
0.6562500000003338
 40
0.6562500000003338
 40
0.6875000000003175
 40
0.6875000000003175
 40
0.7500000000002329
 40
0.7500000000002329
 40
0.8750000000001165
 40
0.8750000000001165
 40
1.0
 40
1.0
 40
1.0
 40
1.0
 10
408.005280594467
 20
293.134521916772
 30
0.0
 10
407.9518497499718
 20
293.0942998135559
 30
0.0
 10
407.8970201251376
 20
293.056991441162
 30
0.0
 10
407.7844936693763
 20
292.9879059664929
 30
0.0
 10
407.7267984895098
 20
292.9561307702309
 30
0.0
 10
407.6379875810443
 20
292.9125992953855
 30
0.0
 10
407.6079635052906
 20
292.8987615157457
 30
0.0
 10
407.5473121061025
 20
292.8725669665881
 30
0.0
 10
407.5167862602738
 20
292.8602513208335
 30
0.0
 10
407.4245601528994
 20
292.8256126860763
 30
0.0
 10
407.362214889772
 20
292.8055878874186
 30
0.0
 10
407.2354689165808
 20
292.7717249241031
 30
0.0
 10
407.1710670211841
 20
292.7578862221799
 30
0.0
 10
407.0890081136114
 20
292.7446948411979
 30
0.0
 10
407.0724875907461
 20
292.7422588892795
 30
0.0
 10
407.0394647250605
 20
292.7378319830162
 30
0.0
 10
407.0229645144555
 20
292.735840271977
 30
0.0
 10
406.9734991793399
 20
292.7305249953239
 30
0.0
 10
406.9405695718922
 20
292.7278611641203
 30
0.0
 10
406.8419281728191
 20
292.722470698496
 30
0.0
 10
406.7763669725942
 20
292.7223422722644
 30
0.0
 10
406.6455923733254
 20
292.728868396944
 30
0.0
 10
406.5803771279576
 20
292.7355199004945
 30
0.0
 10
406.5152709759435
 20
292.745552869495
 30
0.0
  0
SPLINE
  5
1B8
330
1F
100
AcDbEntity
  8
1
100
AcDbSpline
210
0.0
220
0.0
230
1.0
 70
     8
 71
     3
 72
    25
 73
    21
 74
     0
 42
0.000000001
 43
0.0000000001
 40
0.0
 40
0.0
 40
0.0
 40
0.0
 40
0.1249999999999933
 40
0.2499999999999868
 40
0.37499999999998
 40
0.37499999999998
 40
0.4374999999999768
 40
0.4687499999999816
 40
0.4687499999999816
 40
0.4999999999999862
 40
0.4999999999999862
 40
0.6249999999999928
 40
0.749999999999999
 40
0.7812499999999975
 40
0.7812499999999975
 40
0.812499999999996
 40
0.812499999999996
 40
0.8749999999999932
 40
0.8749999999999932
 40
1.0
 40
1.0
 40
1.0
 40
1.0
 10
406.5145524169004
 20
292.5298596080228
 30
0.0
 10
406.2515017019146
 20
292.5182989795403
 30
0.0
 10
405.7266897988797
 20
292.5114655850789
 30
0.0
 10
404.9432741863459
 20
292.5492036446838
 30
0.0
 10
404.4235186920174
 20
292.6061501737373
 30
0.0
 10
404.0346539515494
 20
292.6608405185664
 30
0.0
 10
403.8404597281583
 20
292.6911829291859
 30
0.0
 10
403.6466255403158
 20
292.7260521074437
 30
0.0
 10
403.5174831861388
 20
292.7503090067427
 30
0.0
 10
403.4529729028526
 20
292.762939534008
 30
0.0
 10
403.1313205280795
 20
292.8284804779409
 30
0.0
 10
402.6213613959573
 20
292.9488139969716
 30
0.0
 10
402.0581078483799
 20
293.1185882328156
 30
0.0
 10
401.7488306815597
 20
293.2248460440927
 30
0.0
 10
401.6254124209756
 20
293.2683072381085
 30
0.0
 10
401.5638224697071
 20
293.2905267061297
 30
0.0
 10
401.379751300668
 20
293.3585278696122
 30
0.0
 10
401.2579497403791
 20
293.4056563498607
 30
0.0
 10
400.8952648919428
 20
293.5523735073437
 30
0.0
 10
400.6570987088868
 20
293.6572894039321
 30
0.0
 10
400.4225419924542
 20
293.7692293812967
 30
0.0
  0
SPLINE
  5
1B9
330
1F
100
AcDbEntity
  8
1
100
AcDbSpline
210
0.0
220
0.0
230
1.0
 70
     8
 71
     3
 72
    28
 73
    24
 74
     0
 42
0.000000001
 43
0.0000000001
 40
0.0
 40
0.0
 40
0.0
 40
0.0
 40
0.1249999999999788
 40
0.1249999999999788
 40
0.2499999999999576
 40
0.2499999999999576
 40
0.281249999999955
 40
0.281249999999955
 40
0.3124999999999524
 40
0.3749999999999363
 40
0.3749999999999363
 40
0.4999999999999151
 40
0.4999999999999151
 40
0.5312499999999182
 40
0.5312499999999182
 40
0.5624999999999214
 40
0.5624999999999214
 40
0.6249999999999277
 40
0.6249999999999277
 40
0.7499999999999517
 40
0.8749999999999758
 40
0.8749999999999758
 40
1.0
 40
1.0
 40
1.0
 40
1.0
 10
399.8137898836261
 20
291.5317950014525
 30
0.0
 10
400.0663795447115
 20
291.3744999938336
 30
0.0
 10
400.3244349780421
 20
291.2270979192269
 30
0.0
 10
400.8513316004724
 20
290.9521180817355
 30
0.0
 10
401.1201723794688
 20
290.8245391893771
 30
0.0
 10
401.4629708795698
 20
290.6776346858577
 30
0.0
 10
401.5319063195416
 20
290.6488678288968
 30
0.0
 10
401.6702101092325
 20
290.5926975217671
 30
0.0
 10
401.8783361038851
 20
290.5104754825925
 30
0.0
 10
402.0884613978877
 20
290.4343296243132
 30
0.0
 10
402.511357454428
 20
290.290105141696
 30
0.0
 10
402.7968115422701
 20
290.20470073652
 30
0.0
 10
403.1580238937671
 20
290.1114253301498
 30
0.0
 10
403.2304864073733
 20
290.0934451200793
 30
0.0
 10
403.3758525285276
 20
290.0588391882656
 30
0.0
 10
403.4487254935142
 20
290.0422219127477
 30
0.0
 10
403.6673935141896
 20
289.9945346376758
 30
0.0
 10
403.8134306161322
 20
289.9655816607826
 30
0.0
 10
404.2523060421081
 20
289.8871270162505
 30
0.0
 10
404.8395085135646
 20
289.8049071251282
 30
0.0
 10
405.4307223612428
 20
289.7668934737032
 30
0.0
 10
406.0239511322388
 20
289.7511043291498
 30
0.0
 10
406.3215728729808
 20
289.7543208649187
 30
0.0
 10
406.6202267604515
 20
289.7689202105127
 30
0.0
  0
SPLINE
  5
1BA
330
1F
100
AcDbEntity
  8
1
100
AcDbSpline
210
0.0
220
0.0
230
1.0
 70
     8
 71
     3
 72
     8
 73
     4
 74
     0
 42
0.000000001
 43
0.0000000001
 40
0.0
 40
0.0
 40
0.0
 40
0.0
 40
1.0
 40
1.0
 40
1.0
 40
1.0
 10
406.5145524169004
 20
292.5298596080228
 30
0.0
 10
406.5182828836657
 20
292.5300235556491
 30
0.0
 10
406.5220144220599
 20
292.5301868573515
 30
0.0
 10
406.5257470339314
 20
292.5303495120158
 30
0.0
  0
SPLINE
  5
1BB
330
1F
100
AcDbEntity
  8
1
100
AcDbSpline
210
0.0
220
0.0
230
1.0
 70
     8
 71
     3
 72
    36
 73
    32
 74
     0
 42
0.000000001
 43
0.0000000001
 40
0.0
 40
0.0
 40
0.0
 40
0.0
 40
0.0312500000000067
 40
0.0312500000000067
 40
0.0625000000000135
 40
0.0625000000000135
 40
0.0937500000000202
 40
0.0937500000000202
 40
0.125000000000027
 40
0.125000000000027
 40
0.1875000000000404
 40
0.1875000000000404
 40
0.2500000000000539
 40
0.2500000000000539
 40
0.3125000000000674
 40
0.3125000000000674
 40
0.3750000000000808
 40
0.3750000000000808
 40
0.4375000000000944
 40
0.4375000000000944
 40
0.468750000000096
 40
0.468750000000096
 40
0.5000000000000974
 40
0.5000000000000974
 40
0.625000000000073
 40
0.625000000000073
 40
0.7500000000000487
 40
0.7500000000000487
 40
0.8750000000000243
 40
0.8750000000000243
 40
1.0
 40
1.0
 40
1.0
 40
1.0
 10
405.8798419452958
 20
291.0283448581272
 30
0.0
 10
405.8215798024146
 20
291.0184718757076
 30
0.0
 10
405.7618476650392
 20
291.0096516450687
 30
0.0
 10
405.6406417261436
 20
290.9937076292266
 30
0.0
 10
405.5791526582244
 20
290.9865892264419
 30
0.0
 10
405.4550399615267
 20
290.973844543771
 30
0.0
 10
405.3924103780448
 20
290.9682203240891
 30
0.0
 10
405.2663801873372
 20
290.9583425392099
 30
0.0
 10
405.2029768798111
 20
290.9540898927173
 30
0.0
 10
405.0119581363928
 20
290.9432726702574
 30
0.0
 10
404.8835534541318
 20
290.9386420222461
 30
0.0
 10
404.6256859579277
 20
290.9341989041111
 30
0.0
 10
404.4962085953771
 20
290.9343911912832
 30
0.0
 10
404.2367041192758
 20
290.9394441433964
 30
0.0
 10
404.1066714023713
 20
290.9443065875643
 30
0.0
 10
403.8463435282428
 20
290.958636685927
 30
0.0
 10
403.7160458797993
 20
290.9681050954923
 30
0.0
 10
403.4553584745916
 20
290.9916383498222
 30
0.0
 10
403.3249674908678
 20
291.0057035321584
 30
0.0
 10
403.1293895045171
 20
291.0302719452376
 30
0.0
 10
403.0641978318486
 20
291.0390401416918
 30
0.0
 10
402.9338255002036
 20
291.0577410062025
 30
0.0
 10
402.8686921066408
 20
291.0676676145537
 30
0.0
 10
402.5439029227932
 20
291.120084275497
 30
0.0
 10
402.2863213232652
 20
291.1709895808112
 30
0.0
 10
401.7758255067304
 20
291.2906935313425
 30
0.0
 10
401.5229068936143
 20
291.3594931910878
 30
0.0
 10
401.0217752238436
 20
291.5153128358244
 30
0.0
 10
400.7735616018115
 20
291.6023304815459
 30
0.0
 10
400.2818449241845
 20
291.7952915269311
 30
0.0
 10
400.0383339200533
 20
291.9012399969237
 30
0.0
 10
399.7971813669706
 20
292.0172244817921
 30
0.0
  0
SPLINE
  5
1BC
330
1F
100
AcDbEntity
  8
1
100
AcDbSpline
210
0.0
220
0.0
230
1.0
 70
     8
 71
     3
 72
    16
 73
    12
 74
     0
 42
0.000000001
 43
0.0000000001
 40
0.0
 40
0.0
 40
0.0
 40
0.0
 40
0.2499999999999999
 40
0.2499999999999999
 40
0.4999999999999999
 40
0.4999999999999999
 40
0.7499999999999997
 40
0.7499999999999997
 40
0.8749999999999998
 40
0.8749999999999998
 40
1.0
 40
1.0
 40
1.0
 40
1.0
 10
282.3043368819074
 20
283.4294504587295
 30
0.0
 10
282.0464809712944
 20
283.2016166579262
 30
0.0
 10
281.7923794416285
 20
282.9652793097726
 30
0.0
 10
281.2920667182274
 20
282.4738984936088
 30
0.0
 10
281.0458535249202
 20
282.2188629273993
 30
0.0
 10
280.5618060783494
 20
281.6878811868339
 30
0.0
 10
280.3239678098935
 20
281.4119502191633
 30
0.0
 10
279.9740071434114
 20
280.9800848197524
 30
0.0
 10
279.8584882427832
 20
280.8331269752991
 30
0.0
 10
279.6298376795831
 20
280.5326920308301
 30
0.0
 10
279.5167056393342
 20
280.3792163571755
 30
0.0
 10
279.4048419452959
 20
280.2221612672908
 30
0.0
  0
SPLINE
  5
1BD
330
1F
100
AcDbEntity
  8
1
100
AcDbSpline
210
0.0
220
0.0
230
1.0
 70
     8
 71
     3
 72
    18
 73
    14
 74
     0
 42
0.000000001
 43
0.0000000001
 40
0.0
 40
0.0
 40
0.0
 40
0.0
 40
0.2499999999999996
 40
0.2499999999999996
 40
0.4999999999999992
 40
0.4999999999999992
 40
0.7499999999999987
 40
0.7499999999999987
 40
0.8125000000000191
 40
0.8125000000000191
 40
0.8750000000000397
 40
0.8750000000000397
 40
1.0
 40
1.0
 40
1.0
 40
1.0
 10
406.5152709759454
 20
292.7455528694948
 30
0.0
 10
406.4427144494641
 20
292.7567339539
 30
0.0
 10
406.3716413390686
 20
292.7718588488382
 30
0.0
 10
406.2318765057876
 20
292.8095481956172
 30
0.0
 10
406.1631877198639
 20
292.8321148600952
 30
0.0
 10
406.0277968046466
 20
292.8846941537225
 30
0.0
 10
405.9610984143765
 20
292.9147045298594
 30
0.0
 10
405.8787743723776
 20
292.9571493455552
 30
0.0
 10
405.8623602676443
 20
292.965888353834
 30
0.0
 10
405.8298562928824
 20
292.9837461793491
 30
0.0
 10
405.8137386317376
 20
292.9928790001268
 30
0.0
 10
405.7657850748143
 20
293.0208816403835
 30
0.0
 10
405.7343483606169
 20
293.0403553546403
 30
0.0
 10
405.7034376812632
 20
293.0606182629589
 30
0.0
  0
SPLINE
  5
1BE
330
1F
100
AcDbEntity
  8
1
100
AcDbSpline
210
0.0
220
0.0
230
1.0
 70
     8
 71
     3
 72
    10
 73
     6
 74
     0
 42
0.000000001
 43
0.0000000001
 40
0.0
 40
0.0
 40
0.0
 40
0.0
 40
0.5
 40
0.5
 40
1.0
 40
1.0
 40
1.0
 40
1.0
 10
403.2769456398453
 20
298.3847848396414
 30
0.0
 10
403.2625308405819
 20
299.1192870586724
 30
0.0
 10
403.2500170616262
 20
299.8538219883822
 30
0.0
 10
403.2275898253816
 20
301.3229281682341
 30
0.0
 10
403.2176852432538
 20
302.057497898245
 30
0.0
 10
403.2087150657298
 20
302.7920795061355
 30
0.0
  0
SPLINE
  5
1BF
330
1F
100
AcDbEntity
  8
1
100
AcDbSpline
210
0.0
220
0.0
230
1.0
 70
     8
 71
     3
 72
    42
 73
    38
 74
     0
 42
0.000000001
 43
0.0000000001
 40
0.0
 40
0.0
 40
0.0
 40
0.0
 40
0.060009601010476
 40
0.060009601010476
 40
0.1200192020209528
 40
0.1200192020209528
 40
0.1800288030314297
 40
0.1800288030314297
 40
0.2100336035366677
 40
0.2100336035366677
 40
0.2400384040419057
 40
0.2400384040419057
 40
0.3000480050523817
 40
0.3000480050523817
 40
0.3600576060628578
 40
0.3600576060628578
 40
0.4200672070733339
 40
0.4200672070733339
 40
0.450072007578572
 40
0.450072007578572
 40
0.48007680808381
 40
0.48007680808381
 40
0.6000960101047621
 40
0.6000960101047621
 40
0.7201152121257142
 40
0.7201152121257142
 40
0.7801248131361901
 40
0.7801248131361901
 40
0.8401344141466662
 40
0.8401344141466662
 40
0.900144015157142
 40
0.900144015157142
 40
0.9301488156623804
 40
0.9301488156623804
 40
0.9601536161676184
 40
0.9601536161676184
 40
1.0
 40
1.0
 40
1.0
 40
1.0
 10
403.2087150657297
 20
302.7920795061169
 30
0.0
 10
402.1573799250346
 20
302.8312545355553
 30
0.0
 10
401.102701376226
 20
302.8587602135433
 30
0.0
 10
398.9862498488606
 20
302.8955198254918
 30
0.0
 10
397.9244799949122
 20
302.9047904487642
 30
0.0
 10
395.7939729101792
 20
302.9097900992516
 30
0.0
 10
394.7252385271128
 20
302.9055288275941
 30
0.0
 10
393.1173354257828
 20
302.8919012297371
 30
0.0
 10
392.5805706298265
 20
302.8861455356256
 30
0.0
 10
391.5055513908873
 20
302.8725989255749
 30
0.0
 10
390.9674756975609
 20
302.8648102490967
 30
0.0
 10
389.3521544689488
 20
302.8388973251176
 30
0.0
 10
388.2736024606836
 20
302.8182589031105
 30
0.0
 10
386.1138922202192
 20
302.7720360009238
 30
0.0
 10
385.0327353723534
 20
302.7464501118758
 30
0.0
 10
382.8687179819841
 20
302.6910013205498
 30
0.0
 10
381.7858586794358
 20
302.6611370966822
 30
0.0
 10
380.1610618791187
 20
302.6128365100419
 30
0.0
 10
379.6193798056948
 20
302.596143245213
 30
0.0
 10
378.5359821462573
 20
302.5614291077861
 30
0.0
 10
377.9942581179619
 20
302.5434128952085
 30
0.0
 10
375.2856070706085
 20
302.4499941501996
 30
0.0
 10
373.118753065083
 20
302.364655902958
 30
0.0
 10
368.7861728664319
 20
302.1703681652706
 30
0.0
 10
366.6204497106016
 20
302.0613979598326
 30
0.0
 10
363.3732609975159
 20
301.8773884579995
 30
0.0
 10
362.2910939136511
 20
301.812618313323
 30
0.0
 10
360.1277785272086
 20
301.6756371228648
 30
0.0
 10
359.0465727735082
 20
301.6034266443073
 30
0.0
 10
356.8852060093661
 20
301.4507881361262
 30
0.0
 10
355.805043598748
 20
301.370366017199
 30
0.0
 10
354.1857376008224
 20
301.2427535533674
 30
0.0
 10
353.6461258624565
 20
301.1990498030361
 30
0.0
 10
352.5672520907895
 20
301.1091256959484
 30
0.0
 10
352.0279955928331
 20
301.0628894736691
 30
0.0
 10
350.7730159552607
 20
300.9522002482899
 30
0.0
 10
350.0574228253474
 20
300.8867561031792
 30
0.0
 10
349.3420977792514
 20
300.8190149062518
 30
0.0
  0
SPLINE
  5
1C0
330
1F
100
AcDbEntity
  8
1
100
AcDbSpline
210
0.0
220
0.0
230
1.0
 70
    28
 71
     4
 72
    13
 73
     8
 74
     0
 42
0.000000001
 43
0.0000000001
 40
0.0
 40
0.0
 40
0.0
 40
0.0
 40
0.0
 40
0.301981416280324
 40
0.301981416280324
 40
0.301981416280324
 40
1.0
 40
1.0
 40
1.0
 40
1.0
 40
1.0
 10
297.9048419452959
 20
284.3312645205664
 30
0.0
 41
1.002814354342204
 10
297.9048419452959
 20
283.7362613661005
 30
0.0
 41
0.9999446239508635
 10
297.9048419452957
 20
283.0711218998934
 30
0.0
 41
0.9955185390221881
 10
297.9048419452957
 20
282.3508194819138
 30
0.0
 41
0.9914032940833672
 10
297.9048419452957
 20
279.8368866560569
 30
0.0
 41
0.98135507638674
 10
297.9048419452957
 20
277.9244542565981
 30
0.0
 41
0.9801161669566683
 10
297.9048419452957
 20
276.2136223415995
 30
0.0
 41
0.9941619147949872
 10
297.9048419452957
 20
274.9217585205664
 30
0.0
 41
1.001682253086775
  0
SPLINE
  5
1C1
330
1F
100
AcDbEntity
  8
1
100
AcDbSpline
210
0.0
220
0.0
230
1.0
 70
     8
 71
     3
 72
    54
 73
    50
 74
     0
 42
0.000000001
 43
0.0000000001
 40
0.0
 40
0.0
 40
0.0
 40
0.0
 40
0.0624999999999998
 40
0.0624999999999998
 40
0.1249999999999998
 40
0.1249999999999998
 40
0.1562499999999998
 40
0.1562499999999998
 40
0.1874999999999998
 40
0.1874999999999998
 40
0.2499999999999999
 40
0.2499999999999999
 40
0.3125000000000001
 40
0.3125000000000001
 40
0.3437500000000002
 40
0.3437500000000002
 40
0.3750000000000003
 40
0.3750000000000003
 40
0.4062500000000004
 40
0.4062500000000004
 40
0.4375000000000006
 40
0.4375000000000006
 40
0.4687500000000007
 40
0.4687500000000007
 40
0.5000000000000007
 40
0.5000000000000007
 40
0.5312500000000007
 40
0.5312500000000007
 40
0.5468750000000008
 40
0.5468750000000008
 40
0.5625000000000009
 40
0.5625000000000009
 40
0.5937500000000009
 40
0.5937500000000009
 40
0.6250000000000009
 40
0.6250000000000009
 40
0.6875000000000007
 40
0.6875000000000007
 40
0.7500000000000004
 40
0.7500000000000004
 40
0.8125000000000001
 40
0.8125000000000001
 40
0.8437499999999998
 40
0.8437499999999998
 40
0.8749999999999998
 40
0.8749999999999998
 40
0.9374999999999998
 40
0.9374999999999998
 40
1.0
 40
1.0
 40
1.0
 40
1.0
 10
300.0350580631516
 20
283.7052175393905
 30
0.0
 10
302.0282450544798
 20
283.410257056395
 30
0.0
 10
304.0209876047822
 20
283.1176117022904
 30
0.0
 10
308.0052953756489
 20
282.5358165524292
 30
0.0
 10
309.996858204638
 20
282.2466493575944
 30
0.0
 10
312.9830341105837
 20
281.8145918571307
 30
0.0
 10
313.9782308837287
 20
281.6708559535043
 30
0.0
 10
315.9681860899532
 20
281.3838418445277
 30
0.0
 10
316.9629348190238
 20
281.2405642392266
 30
0.0
 10
319.9454967498994
 20
280.8114765536762
 30
0.0
 10
321.9319247156136
 20
280.5263112546001
 30
0.0
 10
325.9003899807034
 20
279.9584699571265
 30
0.0
 10
327.8824194469617
 20
279.6757711737466
 30
0.0
 10
330.8520182587552
 20
279.255640188573
 30
0.0
 10
331.8413134588251
 20
279.1162679446087
 30
0.0
 10
333.8187868155591
 20
278.8394532518818
 30
0.0
 10
334.8069647232691
 20
278.7020107838165
 30
0.0
 10
336.7822705087751
 20
278.4298117870676
 30
0.0
 10
337.7693981695955
 20
278.2950556413165
 30
0.0
 10
339.7427199816152
 20
278.0291501662886
 30
0.0
 10
340.7288785043426
 20
277.8979072627548
 30
0.0
 10
342.7011623566078
 20
277.6423118543611
 30
0.0
 10
343.6872949824891
 20
277.5179778505759
 30
0.0
 10
345.660334188615
 20
277.2785858760274
 30
0.0
 10
346.6472401554221
 20
277.1635199774491
 30
0.0
 10
348.622395987983
 20
276.9439118595666
 30
0.0
 10
349.6106618738616
 20
276.8393566840883
 30
0.0
 10
351.0943029564411
 20
276.6907556822777
 30
0.0
 10
351.5889705706832
 20
276.6425972762348
 30
0.0
 10
352.5785901630493
 20
276.5490395634949
 30
0.0
 10
353.0735470493378
 20
276.5036526184935
 30
0.0
 10
354.5588251942794
 20
276.3714035239528
 30
0.0
 10
355.5495435806106
 20
276.288419219951
 30
0.0
 10
357.5318908406166
 20
276.1316613791004
 30
0.0
 10
358.523521346194
 20
276.0578963678075
 30
0.0
 10
361.4997080085613
 20
275.8493290682252
 30
0.0
 10
363.4855536853934
 20
275.7272397948372
 30
0.0
 10
367.4608493407679
 20
275.5129272735037
 30
0.0
 10
369.4503213635186
 20
275.4207460336286
 30
0.0
 10
373.4330162405987
 20
275.2625094162187
 30
0.0
 10
375.4262357849598
 20
275.1964334199473
 30
0.0
 10
378.4186963725997
 20
275.1140467152047
 30
0.0
 10
379.4165751507373
 20
275.089381846371
 30
0.0
 10
381.4126974034591
 20
275.0452024692237
 30
0.0
 10
382.410988016568
 20
275.0256782340451
 30
0.0
 10
385.4064072999117
 20
274.9741922310913
 30
0.0
 10
387.4040911453436
 20
274.9492708865583
 30
0.0
 10
391.4001033639628
 20
274.9161771500698
 30
0.0
 10
393.3984292223049
 20
274.9079935137005
 30
0.0
 10
395.3965610173562
 20
274.9079935137005
 30
0.0
  0
SPLINE
  5
1C2
330
1F
100
AcDbEntity
  8
1
100
AcDbSpline
210
0.0
220
0.0
230
1.0
 70
     8
 71
     3
 72
    60
 73
    56
 74
     0
 42
0.000000001
 43
0.0000000001
 40
0.0
 40
0.0
 40
0.0
 40
0.0
 40
0.0374533717499249
 40
0.0374533717499249
 40
0.0718300370445706
 40
0.0718300370445706
 40
0.1062067023392163
 40
0.1062067023392163
 40
0.1749600329285077
 40
0.1749600329285077
 40
0.2437133635177992
 40
0.2437133635177992
 40
0.3124666941070905
 40
0.3124666941070905
 40
0.3468433594017362
 40
0.3468433594017362
 40
0.364031692049059
 40
0.364031692049059
 40
0.3812200246963817
 40
0.3812200246963817
 40
0.4155966899910272
 40
0.4155966899910272
 40
0.4499733552856727
 40
0.4499733552856727
 40
0.4843500205803182
 40
0.4843500205803182
 40
0.5187266858749636
 40
0.5187266858749636
 40
0.5531033511696091
 40
0.5531033511696091
 40
0.5874800164642546
 40
0.5874800164642546
 40
0.6218566817589001
 40
0.6218566817589001
 40
0.6562333470535454
 40
0.6562333470535454
 40
0.6906100123481909
 40
0.6906100123481909
 40
0.7249866776428364
 40
0.7249866776428364
 40
0.7593633429374819
 40
0.7593633429374819
 40
0.7937400082321272
 40
0.7937400082321272
 40
0.8281166735267726
 40
0.8281166735267726
 40
0.8624933388214181
 40
0.8624933388214181
 40
0.8968700041160635
 40
0.8968700041160635
 40
0.9312466694107092
 40
0.9312466694107092
 40
0.9656233347053545
 40
0.9656233347053545
 40
1.0
 40
1.0
 40
1.0
 40
1.0
 10
306.8271225678821
 20
302.9079869696799
 30
0.0
 10
307.9388016184722
 20
302.908002181504
 30
0.0
 10
309.0499279135515
 20
302.9045580153263
 30
0.0
 10
311.179982146652
 20
302.8905198538156
 30
0.0
 10
312.1989294523964
 20
302.8805423496065
 30
0.0
 10
314.2356691248858
 20
302.853543641208
 30
0.0
 10
315.2535159631075
 20
302.8365213022213
 30
0.0
 10
318.3057393344269
 20
302.7742549070238
 30
0.0
 10
320.3387906645464
 20
302.7177357787401
 30
0.0
 10
324.4029561907104
 20
302.5729423019993
 30
0.0
 10
326.4340786045364
 20
302.4846648538029
 30
0.0
 10
330.4961471436799
 20
302.2770550030426
 30
0.0
 10
332.5271024540837
 20
302.1577423981712
 30
0.0
 10
335.5746394529153
 20
301.9576870106783
 30
0.0
 10
336.5907221293381
 20
301.887498713462
 30
0.0
 10
338.1149740885033
 20
301.7773652586208
 30
0.0
 10
338.6230831975558
 20
301.7398459940455
 30
0.0
 10
339.6393724216289
 20
301.6632597301249
 30
0.0
 10
340.1475531400575
 20
301.624195097304
 30
0.0
 10
341.6721379661712
 20
301.5045675925393
 30
0.0
 10
342.6885795410855
 20
301.4215648346994
 30
0.0
 10
344.7213348882821
 20
301.248505494616
 30
0.0
 10
345.7376490831732
 20
301.1584449996667
 30
0.0
 10
347.7700751914462
 20
300.9709460217607
 30
0.0
 10
348.7862196217734
 20
300.8735026052173
 30
0.0
 10
350.8182188477536
 20
300.6712540403077
 30
0.0
 10
351.8340270513612
 20
300.5664519816501
 30
0.0
 10
353.8654238081344
 20
300.3498556272101
 30
0.0
 10
354.8810278219977
 20
300.2381040268161
 30
0.0
 10
356.9123424795496
 20
300.0086009915609
 30
0.0
 10
357.928052301284
 20
299.8908499878696
 30
0.0
 10
359.9597682335044
 20
299.6500624999427
 30
0.0
 10
360.9757736566255
 20
299.5270260486531
 30
0.0
 10
363.0081893415946
 20
299.2761811872838
 30
0.0
 10
364.02449130281
 20
299.1483859535622
 30
0.0
 10
366.0572966609824
 20
298.888372313115
 30
0.0
 10
367.0738060028253
 20
298.756153116778
 30
0.0
 10
369.1070402702087
 20
298.4874113284785
 30
0.0
 10
370.1237650370538
 20
298.3508891058082
 30
0.0
 10
372.157390219339
 20
298.0734621935006
 30
0.0
 10
373.1742906424063
 20
297.9325584999864
 30
0.0
 10
375.2081879287571
 20
297.6460696111359
 30
0.0
 10
376.2251589084066
 20
297.5004896891245
 30
0.0
 10
378.2587811913772
 20
297.2041321692031
 30
0.0
 10
379.2754781754018
 20
297.0534033328274
 30
0.0
 10
381.3083817142891
 20
296.7455974176281
 30
0.0
 10
382.324556697703
 20
296.5883838605554
 30
0.0
 10
384.3559901882702
 20
296.2654480742726
 30
0.0
 10
385.3712463079302
 20
296.0997105650616
 30
0.0
 10
387.4007170379531
 20
295.7587524568276
 30
0.0
 10
388.4149585498142
 20
295.5835046678128
 30
0.0
 10
390.4421626840506
 20
295.2241170032717
 30
0.0
 10
391.4551697739928
 20
295.0399461011235
 30
0.0
 10
393.4806116997267
 20
294.6653949776728
 30
0.0
 10
394.4930442271964
 20
294.4749958400633
 30
0.0
 10
395.5057606460904
 20
294.2842570935091
 30
0.0
  0
SPLINE
  5
1C3
330
1F
100
AcDbEntity
  8
1
100
AcDbSpline
210
0.0
220
0.0
230
1.0
 70
     8
 71
     3
 72
    47
 73
    43
 74
     0
 42
0.000000001
 43
0.0000000001
 40
0.0
 40
0.0
 40
0.0
 40
0.0
 40
0.0625000000000047
 40
0.0625000000000047
 40
0.1250000000000093
 40
0.1250000000000093
 40
0.2500000000000185
 40
0.2500000000000185
 40
0.3750000000000276
 40
0.3750000000000276
 40
0.4375000000000322
 40
0.4375000000000322
 40
0.5000000000000368
 40
0.5000000000000368
 40
0.5312500000000329
 40
0.5312500000000329
 40
0.5625000000000289
 40
0.5625000000000289
 40
0.6250000000000093
 40
0.6250000000000093
 40
0.6874999999999895
 40
0.6874999999999895
 40
0.7031249999999868
 40
0.7031249999999868
 40
0.7187499999999842
 40
0.7499999999999791
 40
0.7499999999999791
 40
0.8124999999999788
 40
0.8124999999999788
 40
0.8437499999999825
 40
0.8437499999999825
 40
0.8593749999999845
 40
0.8593749999999845
 40
0.8749999999999864
 40
0.8749999999999864
 40
0.9374999999999952
 40
0.9374999999999952
 40
0.968749999999998
 40
0.968749999999998
 40
0.9843749999999989
 40
0.9843749999999989
 40
1.0
 40
1.0
 40
1.0
 40
1.0
 10
399.2510468284644
 20
295.0629564033308
 30
0.0
 10
399.3597130300055
 20
295.1002289207258
 30
0.0
 10
399.4680377706913
 20
295.1386165640786
 30
0.0
 10
399.6839403524149
 20
295.2178310386795
 30
0.0
 10
399.7914581251997
 20
295.2586375328397
 30
0.0
 10
400.1119548162696
 20
295.3847427858447
 30
0.0
 10
400.3231230381144
 20
295.4737852652955
 30
0.0
 10
400.7393885556669
 20
295.6639630298413
 30
0.0
 10
400.9444975761492
 20
295.7650749601103
 30
0.0
 10
401.2463905850428
 20
295.9282372794914
 30
0.0
 10
401.346054568141
 20
295.9845509465253
 30
0.0
 10
401.5431493615026
 20
296.1016265845998
 30
0.0
 10
401.6405816067068
 20
296.1623856973517
 30
0.0
 10
401.7847562166687
 20
296.257455936303
 30
0.0
 10
401.8325136536556
 20
296.2898235115846
 30
0.0
 10
401.9271759144128
 20
296.3559102447894
 30
0.0
 10
401.9739936887038
 20
296.3895675755132
 30
0.0
 10
402.1127782638719
 20
296.4925353582142
 30
0.0
 10
402.2030863543461
 20
296.5638295962997
 30
0.0
 10
402.3783882690828
 20
296.7127738338287
 30
0.0
 10
402.4633894751216
 20
296.7904150048085
 30
0.0
 10
402.5655191571948
 20
296.8923960934411
 30
0.0
 10
402.5857578455933
 20
296.9130619367432
 30
0.0
 10
402.6256631168883
 20
296.9547830227247
 30
0.0
 10
402.6846748765544
 20
297.0179586913445
 30
0.0
 10
402.7410351055914
 20
297.0829958731589
 30
0.0
 10
402.8498554825381
 20
297.2158082977409
 30
0.0
 10
402.9172412286558
 20
297.3079733267301
 30
0.0
 10
403.0085646897139
 20
297.4530695014753
 30
0.0
 10
403.0373715842158
 20
297.5025822284873
 30
0.0
 10
403.077771476455
 20
297.5788244015699
 30
0.0
 10
403.0907687809189
 20
297.6045679508634
 30
0.0
 10
403.1157516714651
 20
297.6567653286742
 30
0.0
 10
403.1277664298499
 20
297.6832902537578
 30
0.0
 10
403.1846613792099
 20
297.8167795057882
 30
0.0
 10
403.2200974222312
 20
297.9262573511753
 30
0.0
 10
403.2555783521422
 20
298.0951842656568
 30
0.0
 10
403.2644503741399
 20
298.1522807753693
 30
0.0
 10
403.2728978276213
 20
298.2392209547926
 30
0.0
 10
403.2748907281314
 20
298.2683234676153
 30
0.0
 10
403.2771854130449
 20
298.3265080923865
 30
0.0
 10
403.2774913658867
 20
298.3556309876018
 30
0.0
 10
403.2769456398453
 20
298.3847848396414
 30
0.0
  0
SPLINE
  5
1C4
330
1F
100
AcDbEntity
  8
1
100
AcDbSpline
210
0.0
220
0.0
230
1.0
 70
    12
 71
     3
 72
     9
 73
     5
 74
     0
 42
0.000000001
 43
0.0000000001
 40
0.0
 40
0.0
 40
0.0
 40
0.0
 40
0.2163858826551128
 40
1.0
 40
1.0
 40
1.0
 40
1.0
 10
372.602624361521
 20
298.0076243751208
 30
0.0
 41
1.001504314761809
 10
374.8191709781122
 20
297.9662630122959
 30
0.0
 41
1.00151141891343
 10
385.0644916830478
 20
297.72527354294
 30
0.0
 41
1.001537229884637
 10
395.338581307191
 20
297.4943564308446
 30
0.0
 41
1.001449520602737
 10
403.2769456398455
 20
298.3847848396414
 30
0.0
 41
1.00148308042531
  0
SPLINE
  5
1C5
330
1F
100
AcDbEntity
  8
1
100
AcDbSpline
210
0.0
220
0.0
230
1.0
 70
     8
 71
     3
 72
    16
 73
    12
 74
     0
 42
0.000000001
 43
0.0000000001
 40
0.0
 40
0.0
 40
0.0
 40
0.0
 40
0.1249999999999996
 40
0.1249999999999996
 40
0.2499999999999992
 40
0.2499999999999992
 40
0.4999999999999994
 40
0.4999999999999994
 40
0.7499999999999997
 40
0.7499999999999997
 40
1.0
 40
1.0
 40
1.0
 40
1.0
 10
279.4048419452957
 20
271.7009719490965
 30
0.0
 10
279.518700629913
 20
271.7200547155827
 30
0.0
 10
279.6337790332153
 20
271.7436304706425
 30
0.0
 10
279.8660780376019
 20
271.7986248876172
 30
0.0
 10
279.9832990706532
 20
271.8300455705692
 30
0.0
 10
280.3377764064394
 20
271.9346481865973
 30
0.0
 10
280.5778410794326
 20
272.0181207568201
 30
0.0
 10
281.063543806927
 20
272.2064840334518
 30
0.0
 10
281.3091844274881
 20
272.3113922443915
 30
0.0
 10
281.8042925502482
 20
272.5380404704081
 30
0.0
 10
282.053758813428
 20
272.6597856744243
 30
0.0
 10
282.3043368818932
 20
272.7881966946034
 30
0.0
  0
SPLINE
  5
1C6
330
1F
100
AcDbEntity
  8
1
100
AcDbSpline
210
0.0
220
0.0
230
1.0
 70
     8
 71
     3
 72
    30
 73
    26
 74
     0
 42
0.000000001
 43
0.0000000001
 40
0.0
 40
0.0
 40
0.0
 40
0.0
 40
0.0625000000000003
 40
0.0625000000000003
 40
0.1250000000000006
 40
0.1250000000000006
 40
0.1875000000000009
 40
0.1875000000000009
 40
0.2500000000000009
 40
0.2500000000000009
 40
0.3750000000000011
 40
0.3750000000000011
 40
0.4375000000000011
 40
0.4375000000000011
 40
0.4687500000000011
 40
0.4687500000000011
 40
0.5000000000000009
 40
0.5000000000000009
 40
0.6250000000000007
 40
0.6250000000000007
 40
0.7500000000000004
 40
0.7500000000000004
 40
0.8750000000000001
 40
0.8750000000000001
 40
1.0
 40
1.0
 40
1.0
 40
1.0
 10
292.2038318185192
 20
274.954638765423
 30
0.0
 10
291.9575888050971
 20
274.9624472556678
 30
0.0
 10
291.7143343906771
 20
274.9651165362217
 30
0.0
 10
291.2331563666129
 20
274.961404128195
 30
0.0
 10
290.9952337643946
 20
274.9550204695895
 30
0.0
 10
290.5242231695281
 20
274.9341618738015
 30
0.0
 10
290.2911358806802
 20
274.9196853880362
 30
0.0
 10
289.8294219444702
 20
274.8833902825658
 30
0.0
 10
289.6007958245464
 20
274.8615704040635
 30
0.0
 10
288.9212037648135
 20
274.7859679760251
 30
0.0
 10
288.4764860167017
 20
274.7220928534931
 30
0.0
 10
287.8210821363934
 20
274.6084271333366
 30
0.0
 10
287.6045697003108
 20
274.5675492138462
 30
0.0
 10
287.2827101126065
 20
274.501940535831
 30
0.0
 10
287.1758203240777
 20
274.4793351312967
 30
0.0
 10
286.9635804277052
 20
274.4328445204846
 30
0.0
 10
286.8582132518021
 20
274.4089574984268
 30
0.0
 10
286.3350973293584
 20
274.2864153447682
 30
0.0
 10
285.9284654728505
 20
274.1784690435935
 30
0.0
 10
285.1385619559481
 20
273.9448045882159
 30
0.0
 10
284.7553021692288
 20
273.8190767381349
 30
0.0
 10
284.0126760408129
 20
273.5513071220253
 30
0.0
 10
283.6533146945603
 20
273.4092613038428
 30
0.0
 10
282.9596280745263
 20
273.1099476963247
 30
0.0
 10
282.6253028855128
 20
272.9526786551366
 30
0.0
 10
282.3043368818933
 20
272.7881966946035
 30
0.0
  0
SPLINE
  5
1C7
330
1F
100
AcDbEntity
  8
1
100
AcDbSpline
210
0.0
220
0.0
230
1.0
 70
     8
 71
     3
 72
    52
 73
    48
 74
     0
 42
0.000000001
 43
0.0000000001
 40
0.0
 40
0.0
 40
0.0
 40
0.0
 40
0.0624999999999997
 40
0.0624999999999997
 40
0.1249999999999994
 40
0.1249999999999994
 40
0.1874999999999991
 40
0.1874999999999991
 40
0.2031249999999992
 40
0.2031249999999992
 40
0.2187499999999993
 40
0.2187499999999993
 40
0.2500000000000001
 40
0.2500000000000001
 40
0.3125000000000015
 40
0.3125000000000015
 40
0.3750000000000029
 40
0.3750000000000029
 40
0.4062500000000037
 40
0.4062500000000037
 40
0.4218750000000039
 40
0.4218750000000039
 40
0.4296875000000039
 40
0.4296875000000039
 40
0.4375000000000039
 40
0.5000000000000038
 40
0.5000000000000038
 40
0.5625000000000036
 40
0.5625000000000036
 40
0.6250000000000034
 40
0.6250000000000034
 40
0.6562500000000032
 40
0.6562500000000032
 40
0.6875000000000031
 40
0.6875000000000031
 40
0.7500000000000026
 40
0.7500000000000026
 40
0.8125000000000015
 40
0.8125000000000015
 40
0.8281250000000015
 40
0.8281250000000015
 40
0.8437500000000014
 40
0.8750000000000012
 40
0.8750000000000012
 40
0.9375000000000007
 40
0.9375000000000007
 40
1.0
 40
1.0
 40
1.0
 40
1.0
 10
279.4048419452959
 20
280.2221612672907
 30
0.0
 10
279.2204558504044
 20
280.0526511077301
 30
0.0
 10
279.0460450129922
 20
279.8777448933422
 30
0.0
 10
278.716744218936
 20
279.5179524581156
 30
0.0
 10
278.561854658182
 20
279.3330649731491
 30
0.0
 10
278.2717404460173
 20
278.9537878420123
 30
0.0
 10
278.1365132720721
 20
278.7593984906973
 30
0.0
 10
277.9802338070483
 20
278.5105752768002
 30
0.0
 10
277.9496172438832
 20
278.46051800856
 30
0.0
 10
277.8896811902265
 20
278.3598174767549
 30
0.0
 10
277.8603235575816
 20
278.3091041015073
 30
0.0
 10
277.7746634334306
 20
278.1568688917266
 30
0.0
 10
277.7206802586887
 20
278.0551141479262
 30
0.0
 10
277.567972665295
 20
277.7491650350419
 30
0.0
 10
277.4784677567922
 20
277.5442906520232
 30
0.0
 10
277.3239247290502
 20
277.1331769762184
 30
0.0
 10
277.2588852236744
 20
276.9269371147117
 30
0.0
 10
277.1801276820246
 20
276.6167789786591
 30
0.0
 10
277.1570146416262
 20
276.5132587638412
 30
0.0
 10
277.1271680236047
 20
276.3577954129101
 30
0.0
 10
277.1180233947135
 20
276.3059437210247
 30
0.0
 10
277.1055310316372
 20
276.2281219527916
 30
0.0
 10
277.1015699143674
 20
276.2021639097507
 30
0.0
 10
277.0940821172823
 20
276.1504001396499
 30
0.0
 10
277.0623162571742
 20
275.9179715402239
 30
0.0
 10
277.0477271341198
 20
275.6900994135015
 30
0.0
 10
277.0481215197688
 20
275.292062223181
 30
0.0
 10
277.0614861755508
 20
275.096578284247
 30
0.0
 10
277.1145384496584
 20
274.7126019921503
 30
0.0
 10
277.1542246111453
 20
274.5241097518373
 30
0.0
 10
277.2340772190574
 20
274.2465932397033
 30
0.0
 10
277.2638681493182
 20
274.1557326634579
 30
0.0
 10
277.3295568061578
 20
273.977373409943
 30
0.0
 10
277.3654650119494
 20
273.8898390446653
 30
0.0
 10
277.4821922470246
 20
273.6319845300004
 30
0.0
 10
277.5719928172973
 20
273.4664056931017
 30
0.0
 10
277.7750957450016
 20
273.1470982406343
 30
0.0
 10
277.8883991853123
 20
272.9933711972054
 30
0.0
 10
278.0448455937243
 20
272.8082567508476
 30
0.0
 10
278.0769022019631
 20
272.7715616128813
 30
0.0
 10
278.142191496337
 20
272.699211918638
 30
0.0
 10
278.2419890467231
 20
272.5921260826278
 30
0.0
 10
278.3472995564761
 20
272.4892373092716
 30
0.0
 10
278.565118238696
 20
272.2887784113089
 30
0.0
 10
278.7199112639697
 20
272.1622200717183
 30
0.0
 10
279.0482669619493
 20
271.9220787300757
 30
0.0
 10
279.2218304459061
 20
271.8084978680074
 30
0.0
 10
279.4048419452957
 20
271.7009719490965
 30
0.0
  0
SPLINE
  5
1C8
330
1F
100
AcDbEntity
  8
1
100
AcDbSpline
210
0.0
220
0.0
230
1.0
 70
     9
 71
     3
 72
   125
 73
   121
 74
     0
 42
0.000000001
 43
0.0000000001
 40
0.0
 40
0.0
 40
0.0
 40
0.0
 40
0.0312500000000304
 40
0.0312500000000304
 40
0.0468750000000456
 40
0.0468750000000456
 40
0.0546875000000532
 40
0.0546875000000532
 40
0.0625000000000608
 40
0.0625000000000608
 40
0.093750000000091
 40
0.093750000000091
 40
0.1015625000001007
 40
0.1015625000001007
 40
0.1093750000001103
 40
0.1093750000001103
 40
0.125000000000122
 40
0.125000000000122
 40
0.1562500000001525
 40
0.1562500000001525
 40
0.1875000000001829
 40
0.1875000000001829
 40
0.2031250000001999
 40
0.2031250000001999
 40
0.210937500000207
 40
0.210937500000207
 40
0.2187500000002141
 40
0.2187500000002141
 40
0.2500000000002419
 40
0.2500000000002419
 40
0.2578125000002491
 40
0.2578125000002491
 40
0.2656250000002563
 40
0.2656250000002563
 40
0.2812500000002705
 40
0.2812500000002705
 40
0.3125000000002965
 40
0.3125000000002965
 40
0.3203125000003029
 40
0.3203125000003029
 40
0.3281250000003093
 40
0.343750000000322
 40
0.343750000000322
 40
0.3750000000003535
 40
0.3750000000003535
 40
0.3828125000003613
 40
0.3828125000003613
 40
0.3906250000003689
 40
0.4062500000003845
 40
0.4218750000003999
 40
0.4218750000003999
 40
0.4296875000004075
 40
0.4296875000004075
 40
0.4375000000004152
 40
0.4375000000004152
 40
0.468750000000436
 40
0.468750000000436
 40
0.4843750000004414
 40
0.4843750000004414
 40
0.4921875000004389
 40
0.4921875000004389
 40
0.5000000000004362
 40
0.5000000000004362
 40
0.5312500000004055
 40
0.5312500000004055
 40
0.5390625000004003
 40
0.5390625000004003
 40
0.5468750000003952
 40
0.5468750000003952
 40
0.562500000000375
 40
0.578125000000355
 40
0.578125000000355
 40
0.5937500000003349
 40
0.5937500000003349
 40
0.6250000000002949
 40
0.6250000000002949
 40
0.6328125000002848
 40
0.6328125000002848
 40
0.6406250000002748
 40
0.6406250000002748
 40
0.656250000000255
 40
0.656250000000255
 40
0.6875000000002212
 40
0.6875000000002212
 40
0.6953125000002144
 40
0.6953125000002144
 40
0.7031250000002079
 40
0.7187500000001951
 40
0.7343750000001823
 40
0.7343750000001823
 40
0.7421875000001764
 40
0.7421875000001764
 40
0.7500000000001706
 40
0.7500000000001706
 40
0.7812500000001482
 40
0.7812500000001482
 40
0.7968750000001359
 40
0.7968750000001359
 40
0.8125000000001236
 40
0.8125000000001236
 40
0.8437500000001032
 40
0.8437500000001032
 40
0.859375000000093
 40
0.859375000000093
 40
0.8671875000000881
 40
0.8671875000000881
 40
0.8750000000000831
 40
0.8750000000000831
 40
0.9062500000000483
 40
0.9062500000000483
 40
0.9218750000000351
 40
0.9218750000000351
 40
0.9375000000000223
 40
0.9531250000000092
 40
0.9531250000000092
 40
0.9609375000000079
 40
0.9609375000000079
 40
0.9687500000000063
 40
0.9687500000000063
 40
1.0
 40
1.0
 40
1.0
 40
1.0
 10
410.4246469271756
 20
286.5233679557892
 30
0.0
 10
410.5087618250938
 20
286.5218997247847
 30
0.0
 10
410.591270440029
 20
286.5120518086833
 30
0.0
 10
410.712723889171
 20
286.4852453810545
 30
0.0
 10
410.7528204512331
 20
286.4742886777354
 30
0.0
 10
410.8123690330819
 20
286.4547506841313
 30
0.0
 10
410.8321753772422
 20
286.447697107216
 30
0.0
 10
410.8712441950765
 20
286.4326646985675
 30
0.0
 10
410.8905086564637
 20
286.4246894688638
 30
0.0
 10
410.9855082970296
 20
286.3825665382009
 30
0.0
 10
411.0573139955037
 20
286.3417431741182
 30
0.0
 10
411.1418604503621
 20
286.2819061112153
 30
0.0
 10
411.1585068151306
 20
286.2694942922142
 30
0.0
 10
411.1912647146081
 20
286.2437679378589
 30
0.0
 10
411.2073724665529
 20
286.2304514013241
 30
0.0
 10
411.2543515329624
 20
286.1896020208993
 30
0.0
 10
411.2840710755743
 20
286.1610279253997
 30
0.0
 10
411.3685743880152
 20
286.0714198090676
 30
0.0
 10
411.418746145631
 20
286.0065359963566
 30
0.0
 10
411.5064544515856
 20
285.8663105473835
 30
0.0
 10
411.5425785589616
 20
285.7932210732152
 30
0.0
 10
411.5857621252134
 20
285.6795363783503
 30
0.0
 10
411.5983129326643
 20
285.6409551462247
 30
0.0
 10
411.6143384047949
 20
285.5820464887552
 30
0.0
 10
411.6192219583609
 20
285.5621934581151
 30
0.0
 10
411.6279928873553
 20
285.5223465076593
 30
0.0
 10
411.6318708763393
 20
285.5024068817364
 30
0.0
 10
411.6487826112991
 20
285.4026316834205
 30
0.0
 10
411.6544497823865
 20
285.3225686006755
 30
0.0
 10
411.6519375388436
 20
285.222206024171
 30
0.0
 10
411.6509510791815
 20
285.2021190953126
 30
0.0
 10
411.6479989735838
 20
285.161915995533
 30
0.0
 10
411.6460270523741
 20
285.1417519845456
 30
0.0
 10
411.6386624139441
 20
285.0815819311162
 30
0.0
 10
411.6318519594448
 20
285.0420306145563
 30
0.0
 10
411.6059081435976
 20
284.9250003160431
 30
0.0
 10
411.5813138403963
 20
284.8491312365113
 30
0.0
 10
411.5412789213166
 20
284.7569918033179
 30
0.0
 10
411.5327937922917
 20
284.7386809454705
 30
0.0
 10
411.5149048541231
 20
284.7024159547652
 30
0.0
 10
411.4868456323176
 20
284.6488666129962
 30
0.0
 10
411.4551870120534
 20
284.5978003835372
 30
0.0
 10
411.387126514815
 20
284.4989180420808
 30
0.0
 10
411.3354788274748
 20
284.4372967303493
 30
0.0
 10
411.2625470734838
 20
284.3659210000831
 30
0.0
 10
411.2475684086743
 20
284.3519649874867
 30
0.0
 10
411.217093814757
 20
284.3249309651648
 30
0.0
 10
411.1704928050906
 20
284.28559126012
 30
0.0
 10
411.0884318729902
 20
284.2259914074043
 30
0.0
 10
411.0180712903475
 20
284.1846751353744
 30
0.0
 10
410.9634697893683
 20
284.1561478038657
 30
0.0
 10
410.9449635399728
 20
284.1470494476677
 30
0.0
 10
410.9073213127988
 20
284.1296966926629
 30
0.0
 10
410.8881606802561
 20
284.1214360897862
 30
0.0
 10
410.7919372341261
 20
284.0827689823926
 30
0.0
 10
410.7127461086696
 20
284.0597592167227
 30
0.0
 10
410.5906428458537
 20
284.0370549107701
 30
0.0
 10
410.5493851400907
 20
284.0314694126023
 30
0.0
 10
410.4866263617005
 20
284.0261934624738
 30
0.0
 10
410.4656182620549
 20
284.0249611145696
 30
0.0
 10
410.4238225624118
 20
284.023559703637
 30
0.0
 10
410.4029772414961
 20
284.0233853599689
 30
0.0
 10
410.2990090533821
 20
284.0251029670642
 30
0.0
 10
410.2166540374344
 20
284.0346860588868
 30
0.0
 10
410.1147425711722
 20
284.0570303986763
 30
0.0
 10
410.0943526388814
 20
284.0620398894255
 30
0.0
 10
410.0540555536205
 20
284.0730203316408
 30
0.0
 10
410.0341391087303
 20
284.0789893300989
 30
0.0
 10
409.9750685963265
 20
284.098298781403
 30
0.0
 10
409.8981142459063
 20
284.1277765884205
 30
0.0
 10
409.8246723683216
 20
284.1645383732179
 30
0.0
 10
409.7529885269562
 20
284.204962349932
 30
0.0
 10
409.7179033490865
 20
284.227112067083
 30
0.0
 10
409.6173906289995
 20
284.2977059957005
 30
0.0
 10
409.556007614061
 20
284.3505512595111
 30
0.0
 10
409.486024412193
 20
284.4236321924728
 30
0.0
 10
409.4723682696372
 20
284.4386029201981
 30
0.0
 10
409.4457426048633
 20
284.4692616117752
 30
0.0
 10
409.4327469864301
 20
284.4849854043774
 30
0.0
 10
409.3951505386458
 20
284.5327995713595
 30
0.0
 10
409.3718427366833
 20
284.5656257309707
 30
0.0
 10
409.3069950651796
 20
284.6668725561298
 30
0.0
 10
409.2704830884929
 20
284.7380361033558
 30
0.0
 10
409.2333582001296
 20
284.831700395508
 30
0.0
 10
409.2263539246236
 20
284.8507035778084
 30
0.0
 10
409.2133439336548
 20
284.8888155213594
 30
0.0
 10
409.195278987424
 20
284.9462623117688
 30
0.0
 10
409.1722687520336
 20
285.0433802351314
 30
0.0
 10
409.161340354082
 20
285.1225333613921
 30
0.0
 10
409.1559943745793
 20
285.1824565460327
 30
0.0
 10
409.1546882588627
 20
285.202524138254
 30
0.0
 10
409.1530457709607
 20
285.2428493882861
 30
0.0
 10
409.1527105237378
 20
285.2631614389624
 30
0.0
 10
409.153509424556
 20
285.3644436004734
 30
0.0
 10
409.161946189268
 20
285.4444014425734
 30
0.0
 10
409.1860771595076
 20
285.5627467733493
 30
0.0
 10
409.1960465346363
 20
285.6019278948847
 30
0.0
 10
409.2199620361961
 20
285.6797311412116
 30
0.0
 10
409.2339903980093
 20
285.7185050894099
 30
0.0
 10
409.2812802075183
 20
285.8314926168628
 30
0.0
 10
409.3198493224853
 20
285.9031114377708
 30
0.0
 10
409.3882878475007
 20
286.0049085767441
 30
0.0
 10
409.4128765363877
 20
286.0378961187375
 30
0.0
 10
409.4525415487921
 20
286.0858882519697
 30
0.0
 10
409.4661538278407
 20
286.1015449919881
 30
0.0
 10
409.4940270800158
 20
286.132046242599
 30
0.0
 10
409.5083068541764
 20
286.1469135994493
 30
0.0
 10
409.5814006414295
 20
286.2193539119212
 30
0.0
 10
409.6452504955681
 20
286.2712921898648
 30
0.0
 10
409.7492762837121
 20
286.3399030790694
 30
0.0
 10
409.7855080366326
 20
286.3612822456479
 30
0.0
 10
409.8592122674856
 20
286.3999284355152
 30
0.0
 10
409.9344526963554
 20
286.4346998013904
 30
0.0
 10
410.0127094873696
 20
286.4618477556915
 30
0.0
 10
410.0725461355469
 20
286.4793126018561
 30
0.0
 10
410.0926827108946
 20
286.4846506562511
 30
0.0
 10
410.1333444906542
 20
286.4943423565328
 30
0.0
 10
410.1539173593188
 20
286.4987043450894
 30
0.0
 10
410.2571459667474
 20
286.5178778135159
 30
0.0
 10
410.3405320292576
 20
286.5248361867939
 30
0.0
 10
410.4246469271756
 20
286.5233679557893
 30
0.0
  0
SPLINE
  5
1C9
330
1F
100
AcDbEntity
  8
1
100
AcDbSpline
210
0.0
220
0.0
230
1.0
 70
    12
 71
     2
 72
     6
 73
     3
 74
     0
 42
0.000000001
 43
0.0000000001
 40
0.0
 40
0.0
 40
0.0
 40
1.0
 40
1.0
 40
1.0
 10
404.9598325735085
 20
302.8241570991288
 30
0.0
 41
0.500000076703357
 10
405.0720561687261
 20
302.8239430401822
 30
0.0
 41
0.499999923296643
 10
405.1842783721662
 20
302.8237284363296
 30
0.0
 41
0.500000076703357
  0
LINE
  5
1EB
330
1F
100
AcDbEntity
  8
4
100
AcDbLine
 10
269.203832
 20
288.907994
 30
0.0
 11
419.506271
 21
288.907994
 31
0.0
  0
LINE
  5
1EC
330
1F
100
AcDbEntity
  8
SK4
100
AcDbLine
 10
210.904842
 20
288.907994
 30
0.0
 11
277.404842
 21
288.907994
 31
0.0
  0
MTEXT
  5
1ED
330
1F
100
AcDbEntity
  8
SK6
100
AcDbMText
 10
278.633586
 20
248.640145
 30
0.0
 40
3.5
 41
0.0
 71
     7
 72
     5
  1
\W0.7240;804D-29-116-S32
  7
cesky
 73
     2
 44
0.8433729999999998
  0
MTEXT
  5
303
330
1F
100
AcDbEntity
  8
2
100
AcDbMText
 10
341.827842
 20
322.75644
 30
0.0
 40
3.5
 41
0.0
 71
     7
 72
     5
  1
\W0.9524;141
  7
cesky
 73
     2
 44
0.8433729999999998
  0
LINE
  5
304
330
1F
100
AcDbEntity
  8
2
100
AcDbLine
 10
415.4048419999999
 20
303.407994
 30
0.0
 11
415.4048419999999
 21
323.882273
 31
0.0
  0
LINE
  5
305
330
1F
100
AcDbEntity
  8
2
100
AcDbLine
 10
274.404842
 20
289.907567
 30
0.0
 11
274.404842
 21
323.882273
 31
0.0
  0
LINE
  5
306
330
1F
100
AcDbEntity
  8
2
100
AcDbLine
 10
415.4048419999999
 20
322.882273
 30
0.0
 11
274.404842
 21
322.882273
 31
0.0
  0
SOLID
  5
307
330
1F
100
AcDbEntity
  8
2
100
AcDbTrace
 10
415.4048419999999
 20
322.882273
 30
0.0
 11
411.9048439999999
 21
322.265129
 31
0.0
 12
411.9048399999999
 22
323.499418
 32
0.0
 13
411.9048399999999
 23
323.499418
 33
0.0
  0
SOLID
  5
308
330
1F
100
AcDbEntity
  8
2
100
AcDbTrace
 10
274.404842
 20
322.882273
 30
0.0
 11
277.90484
 21
323.499418
 31
0.0
 12
277.904844
 22
322.265129
 32
0.0
 13
277.904844
 23
322.265129
 33
0.0
  0
MTEXT
  5
309
330
1F
100
AcDbEntity
  8
2
100
AcDbMText
 10
429.7258059999999
 20
288.434636
 30
0.0
 40
3.5
 41
0.0
 71
     7
 72
     5
  1
\W0.7259;29
  7
cesky
 11
0.0000000000000001
 21
1.0
 31
0.0
 73
     2
 44
0.8433729999999998
  0
MTEXT
  5
30A
330
1F
100
AcDbEntity
  8
2
100
AcDbMText
 10
429.7258059999999
 20
281.697136
 30
0.0
 40
3.5
 41
0.0
 71
     7
 72
     5
  1
\W3.0115;\H2.63;%%c\H3.50;
  7
cesky
 11
0.0000000000000001
 21
1.0
 31
0.0
 73
     2
 44
0.8433729999999998
  0
LINE
  5
30B
330
1F
100
AcDbEntity
  8
2
100
AcDbLine
 10
417.404842
 20
303.407994
 30
0.0
 11
430.913223
 21
303.407994
 31
0.0
  0
LINE
  5
30C
330
1F
100
AcDbEntity
  8
2
100
AcDbLine
 10
429.913223
 20
303.407994
 30
0.0
 11
429.913223
 21
281.539636
 31
0.0
  0
SOLID
  5
30D
330
1F
100
AcDbEntity
  8
2
100
AcDbTrace
 10
429.913223
 20
303.407994
 30
0.0
 11
430.5303669999999
 21
299.9079959999999
 31
0.0
 12
429.296078
 22
299.907991
 32
0.0
 13
429.296078
 23
299.907991
 33
0.0
  0
MTEXT
  5
30E
330
1F
100
AcDbEntity
  8
2
100
AcDbMText
 10
311.827842
 20
337.029667
 30
0.0
 40
3.5
 41
0.0
 71
     7
 72
     5
  1
\W0.8677;201
  7
cesky
 73
     2
 44
0.8433729999999998
  0
LINE
  5
30F
330
1F
100
AcDbEntity
  8
2
100
AcDbLine
 10
415.4048419999999
 20
305.407994
 30
0.0
 11
415.4048419999999
 21
338.155501
 31
0.0
  0
LINE
  5
310
330
1F
100
AcDbEntity
  8
2
100
AcDbLine
 10
214.404842
 20
302.907994
 30
0.0
 11
214.404842
 21
338.155501
 31
0.0
  0
LINE
  5
311
330
1F
100
AcDbEntity
  8
2
100
AcDbLine
 10
415.4048419999999
 20
337.155501
 30
0.0
 11
214.404842
 21
337.155501
 31
0.0
  0
SOLID
  5
312
330
1F
100
AcDbEntity
  8
2
100
AcDbTrace
 10
415.4048419999999
 20
337.155501
 30
0.0
 11
411.9048439999999
 21
336.538356
 31
0.0
 12
411.9048399999999
 22
337.772645
 32
0.0
 13
411.9048399999999
 23
337.772645
 33
0.0
  0
SOLID
  5
313
330
1F
100
AcDbEntity
  8
2
100
AcDbTrace
 10
214.404842
 20
337.155501
 30
0.0
 11
217.90484
 21
337.772645
 31
0.0
 12
217.904844
 22
336.538356
 32
0.0
 13
217.904844
 23
336.538356
 33
0.0
  0
MTEXT
  5
314
330
1F
100
AcDbEntity
  8
2
100
AcDbMText
 10
242.590342
 20
322.75644
 30
0.0
 40
3.5
 41
0.0
 71
     7
 72
     5
  1
\W0.7045;60
  7
cesky
 73
     2
 44
0.8433729999999998
  0
LINE
  5
315
330
1F
100
AcDbEntity
  8
2
100
AcDbLine
 10
274.404842
 20
288.907994
 30
0.0
 11
274.404842
 21
323.882273
 31
0.0
  0
LINE
  5
316
330
1F
100
AcDbEntity
  8
2
100
AcDbLine
 10
214.404842
 20
302.907994
 30
0.0
 11
214.404842
 21
323.882273
 31
0.0
  0
LINE
  5
317
330
1F
100
AcDbEntity
  8
2
100
AcDbLine
 10
274.404842
 20
322.882273
 30
0.0
 11
214.404842
 21
322.882273
 31
0.0
  0
SOLID
  5
318
330
1F
100
AcDbEntity
  8
2
100
AcDbTrace
 10
274.404842
 20
322.882273
 30
0.0
 11
270.904844
 21
322.265129
 31
0.0
 12
270.90484
 22
323.499418
 32
0.0
 13
270.90484
 23
323.499418
 33
0.0
  0
SOLID
  5
319
330
1F
100
AcDbEntity
  8
2
100
AcDbTrace
 10
214.404842
 20
322.882273
 30
0.0
 11
217.90484
 21
323.499418
 31
0.0
 12
217.904844
 22
322.265129
 32
0.0
 13
217.904844
 23
322.265129
 33
0.0
  0
MTEXT
  5
31A
330
1F
100
AcDbEntity
  8
2
100
AcDbMText
 10
350.842831
 20
311.427945
 30
0.0
 40
3.5
 41
0.0
 71
     7
 72
     5
  1
\W0.7809;123
  7
cesky
 73
     2
 44
0.8433729999999998
  0
LINE
  5
31B
330
1F
100
AcDbEntity
  8
2
100
AcDbLine
 10
415.4048419999999
 20
305.407994
 30
0.0
 11
415.4048419999999
 21
312.553778
 31
0.0
  0
LINE
  5
31C
330
1F
100
AcDbEntity
  8
2
100
AcDbLine
 10
292.43482
 20
303.274003
 30
0.0
 11
292.43482
 21
312.553778
 31
0.0
  0
LINE
  5
31D
330
1F
100
AcDbEntity
  8
2
100
AcDbLine
 10
415.4048419999999
 20
311.553778
 30
0.0
 11
292.43482
 21
311.553778
 31
0.0
  0
SOLID
  5
31E
330
1F
100
AcDbEntity
  8
2
100
AcDbTrace
 10
415.4048419999999
 20
311.553778
 30
0.0
 11
411.9048439999999
 21
310.936634
 31
0.0
 12
411.9048399999999
 22
312.170923
 32
0.0
 13
411.9048399999999
 23
312.170923
 33
0.0
  0
SOLID
  5
31F
330
1F
100
AcDbEntity
  8
2
100
AcDbTrace
 10
292.43482
 20
311.553778
 30
0.0
 11
295.934817
 21
312.170923
 31
0.0
 12
295.934822
 22
310.936634
 32
0.0
 13
295.934822
 23
310.936634
 33
0.0
  0
MTEXT
  5
320
330
1F
100
AcDbEntity
  8
SK2
100
AcDbMText
 10
204.480913
 20
290.434244
 30
0.0
 40
3.5
 41
0.0
 71
     7
 72
     5
  1
\W0.7045;32
  7
cesky
 11
0.0000000000000001
 21
1.0
 31
0.0
 73
     2
 44
0.8433729999999998
  0
MTEXT
  5
321
330
1F
100
AcDbEntity
  8
SK2
100
AcDbMText
 10
204.480913
 20
283.696744
 30
0.0
 40
3.5
 41
0.0
 71
     7
 72
     5
  1
\W3.0115;\H2.63;%%c\H3.50;
  7
cesky
 11
0.0000000000000001
 21
1.0
 31
0.0
 73
     2
 44
0.8433729999999998
  0
LINE
  5
322
330
1F
100
AcDbEntity
  8
SK2
100
AcDbLine
 10
216.404842
 20
304.907994
 30
0.0
 11
203.66833
 21
304.907994
 31
0.0
  0
LINE
  5
323
330
1F
100
AcDbEntity
  8
SK2
100
AcDbLine
 10
216.404842
 20
272.907994
 30
0.0
 11
203.66833
 21
272.907994
 31
0.0
  0
LINE
  5
324
330
1F
100
AcDbEntity
  8
SK2
100
AcDbLine
 10
204.66833
 20
304.907994
 30
0.0
 11
204.66833
 21
272.907994
 31
0.0
  0
SOLID
  5
325
330
1F
100
AcDbEntity
  8
SK2
100
AcDbTrace
 10
204.66833
 20
304.907994
 30
0.0
 11
205.285474
 21
301.407996
 31
0.0
 12
204.051185
 22
301.407991
 32
0.0
 13
204.051185
 23
301.407991
 33
0.0
  0
SOLID
  5
326
330
1F
100
AcDbEntity
  8
SK2
100
AcDbTrace
 10
204.66833
 20
272.907994
 30
0.0
 11
204.051185
 21
276.407991
 31
0.0
 12
205.285474
 22
276.407996
 32
0.0
 13
205.285474
 23
276.407996
 33
0.0
  0
MTEXT
  5
327
330
1F
100
AcDbEntity
  8
SK2
100
AcDbMText
 10
191.916868
 20
290.434244
 30
0.0
 40
3.5
 41
0.0
 71
     7
 72
     5
  1
\W0.7045;42
  7
cesky
 11
0.0000000000000001
 21
1.0
 31
0.0
 73
     2
 44
0.8433729999999998
  0
MTEXT
  5
328
330
1F
100
AcDbEntity
  8
SK2
100
AcDbMText
 10
191.916868
 20
283.696744
 30
0.0
 40
3.5
 41
0.0
 71
     7
 72
     5
  1
\W3.0115;\H2.63;%%c\H3.50;
  7
cesky
 11
0.0000000000000001
 21
1.0
 31
0.0
 73
     2
 44
0.8433729999999998
  0
LINE
  5
329
330
1F
100
AcDbEntity
  8
SK2
100
AcDbLine
 10
274.904842
 20
309.907994
 30
0.0
 11
191.104285
 21
309.907994
 31
0.0
  0
LINE
  5
32A
330
1F
100
AcDbEntity
  8
SK2
100
AcDbLine
 10
274.904842
 20
267.907994
 30
0.0
 11
191.104285
 21
267.907994
 31
0.0
  0
LINE
  5
32B
330
1F
100
AcDbEntity
  8
SK2
100
AcDbLine
 10
192.104285
 20
309.907994
 30
0.0
 11
192.104285
 21
267.907994
 31
0.0
  0
SOLID
  5
32C
330
1F
100
AcDbEntity
  8
SK2
100
AcDbTrace
 10
192.104285
 20
309.907994
 30
0.0
 11
192.721429
 21
306.407996
 31
0.0
 12
191.48714
 22
306.407991
 32
0.0
 13
191.48714
 23
306.407991
 33
0.0
  0
SOLID
  5
32D
330
1F
100
AcDbEntity
  8
SK2
100
AcDbTrace
 10
192.104285
 20
267.907994
 30
0.0
 11
191.48714
 21
271.4079910000001
 31
0.0
 12
192.721429
 22
271.407996
 32
0.0
 13
192.721429
 23
271.407996
 33
0.0
  0
LINE
  5
32E
330
1F
100
AcDbEntity
  8
CUT
100
AcDbLine
 10
415.2974360653503
 20
295.9031859130247
 30
0.0
 11
415.4048419452957
 21
289.7551154040705
 31
0.0
  0
LINE
  5
330
330
1F
100
AcDbEntity
  8
CUT
100
AcDbLine
 10
414.9811632148159
 20
296.4295023054688
 30
0.0
 11
415.2974360653503
 21
295.9031859130247
 31
0.0
  0
LINE
  5
331
330
1F
100
AcDbEntity
  8
CUT
100
AcDbLine
 10
414.7002807888953
 20
302.6692898708586
 30
0.0
 11
414.9811632148159
 21
296.4295023054688
 31
0.0
  0
LINE
  5
333
330
1F
100
AcDbEntity
  8
CUT
100
AcDbLine
 10
405.9237657281858
 20
303.0389373251474
 30
0.0
 11
413.8936032139828
 21
303.4041365154391
 31
0.0
  0
LINE
  5
334
330
1F
100
AcDbEntity
  8
CUT
100
AcDbLine
 10
415.4048419999999
 20
289.755115
 30
0.0
 11
415.4048419999999
 21
288.907994
 31
0.0
  0
LINE
  5
335
330
1F
100
AcDbEntity
  8
CUT
100
AcDbLine
 10
405.1862729999999
 20
288.907994
 30
0.0
 11
405.1862729999999
 21
302.232832
 31
0.0
  0
LINE
  5
336
330
1F
100
AcDbEntity
  8
CUT
100
AcDbLine
 10
415.4048419999999
 20
288.907994
 30
0.0
 11
405.1862729999999
 21
288.907994
 31
0.0
  0
ARC
  5
337
330
1F
100
AcDbEntity
  8
CUT
100
AcDbCircle
 10
405.9682473845749
 20
302.2581694496194
 30
0.0
 40
0.782384608148219
100
AcDbArc
 50
96.02551198514447
 51
181.8558445015078
  0
ARC
  5
338
330
1F
100
AcDbEntity
  8
CUT
100
AcDbCircle
 10
405.9569127114707
 20
302.3145003932386
 30
0.0
 40
0.725194864029164
100
AcDbArc
 50
92.61977056870627
 51
95.60211361300295
  0
ARC
  5
339
330
1F
100
AcDbEntity
  8
CUT
100
AcDbCircle
 10
413.9213021358863
 20
302.6237226790135
 30
0.0
 40
0.7809052351977061
100
AcDbArc
 50
7.49928709048209
 51
92.03272333673266
  0
ARC
  5
33A
330
1F
100
AcDbEntity
  8
CUT
100
AcDbCircle
 10
413.9794452497866
 20
302.6368684313673
 30
0.0
 40
0.7215642897072518
100
AcDbArc
 50
2.57528996182668
 51
7.066936670663679
  0
ENDSEC
  0
SECTION
  2
OBJECTS
  0
DICTIONARY
  5
C
330
0
100
AcDbDictionary
281
     1
  3
ACAD_CIP_PREVIOUS_PRODUCT_INFO
350
300
  3
ACAD_COLOR
350
2FB
  3
ACAD_DETAILVIEWSTYLE
350
2F7
  3
ACAD_GROUP
350
D
  3
ACAD_LAYOUT
350
1A
  3
ACAD_MATERIAL
350
43
  3
ACAD_MLEADERSTYLE
350
6B
  3
ACAD_MLINESTYLE
350
17
  3
ACAD_PLOTSETTINGS
350
19
  3
ACAD_PLOTSTYLENAME
350
E
  3
ACAD_SCALELIST
350
47
  3
ACAD_SECTIONVIEWSTYLE
350
2F8
  3
ACAD_TABLESTYLE
350
69
  3
ACAD_VISUALSTYLE
350
2A
  3
ACDB_RECOMPOSE_DATA
350
366
  3
AcDbVariableDictionary
350
2B4
  0
DICTIONARY
  5
349
330
10
100
AcDbDictionary
280
     1
281
     1
  3
ADSK_XREC_LAYER_RECONCILED
360
34A
  0
DICTIONARY
  5
34B
330
33B
100
AcDbDictionary
280
     1
281
     1
  3
ADSK_XREC_LAYER_RECONCILED
360
34C
  0
DICTIONARY
  5
34D
330
33C
100
AcDbDictionary
280
     1
281
     1
  3
ADSK_XREC_LAYER_RECONCILED
360
34E
  0
DICTIONARY
  5
34F
330
33D
100
AcDbDictionary
280
     1
281
     1
  3
ADSK_XREC_LAYER_RECONCILED
360
350
  0
DICTIONARY
  5
351
330
33F
100
AcDbDictionary
280
     1
281
     1
  3
ADSK_XREC_LAYER_RECONCILED
360
352
  0
DICTIONARY
  5
353
330
340
100
AcDbDictionary
280
     1
281
     1
  3
ADSK_XREC_LAYER_RECONCILED
360
354
  0
DICTIONARY
  5
355
330
342
100
AcDbDictionary
280
     1
281
     1
  3
ADSK_XREC_LAYER_RECONCILED
360
356
  0
DICTIONARY
  5
357
330
343
100
AcDbDictionary
280
     1
281
     1
  3
ADSK_XREC_LAYER_RECONCILED
360
358
  0
DICTIONARY
  5
359
330
344
100
AcDbDictionary
280
     1
281
     1
  3
ADSK_XREC_LAYER_RECONCILED
360
35A
  0
DICTIONARY
  5
35B
330
345
100
AcDbDictionary
280
     1
281
     1
  3
ADSK_XREC_LAYER_RECONCILED
360
35C
  0
DICTIONARY
  5
35D
330
346
100
AcDbDictionary
280
     1
281
     1
  3
ADSK_XREC_LAYER_RECONCILED
360
35E
  0
DICTIONARY
  5
35F
330
347
100
AcDbDictionary
280
     1
281
     1
  3
ADSK_XREC_LAYER_RECONCILED
360
360
  0
DICTIONARY
  5
301
330
1F
100
AcDbDictionary
280
     1
281
     1
  3
ACAD_SORTENTS
360
302
  0
XRECORD
  5
300
102
{ACAD_REACTORS
330
C
102
}
330
C
100
AcDbXrecord
280
     1
300
ACD
300
2019
300

  0
DICTIONARY
  5
2FB
102
{ACAD_REACTORS
330
C
102
}
330
C
100
AcDbDictionary
281
     1
  0
DICTIONARY
  5
2F7
102
{ACAD_REACTORS
330
C
102
}
330
C
100
AcDbDictionary
281
     1
  3
Metric50
350
2FD
  0
DICTIONARY
  5
D
102
{ACAD_REACTORS
330
C
102
}
330
C
100
AcDbDictionary
281
     1
  3
NULOVY_BOD
350
348
  0
DICTIONARY
  5
1A
102
{ACAD_REACTORS
330
C
102
}
330
C
100
AcDbDictionary
281
     1
  3
Layout1
350
1E
  3
Layout2
350
26
  3
Model
350
22
  0
DICTIONARY
  5
43
102
{ACAD_REACTORS
330
C
102
}
330
C
100
AcDbDictionary
281
     1
  3
ByBlock
350
45
  3
ByLayer
350
44
  3
Global
350
46
  0
DICTIONARY
  5
6B
102
{ACAD_REACTORS
330
C
102
}
330
C
100
AcDbDictionary
281
     1
  3
Standard
350
6C
  0
DICTIONARY
  5
17
102
{ACAD_REACTORS
330
C
102
}
330
C
100
AcDbDictionary
281
     1
  3
Standard
350
18
  0
DICTIONARY
  5
19
102
{ACAD_REACTORS
330
C
102
}
330
C
100
AcDbDictionary
281
     1
  0
ACDBDICTIONARYWDFLT
  5
E
102
{ACAD_REACTORS
330
C
102
}
330
C
100
AcDbDictionary
281
     1
  3
Normal
350
F
100
AcDbDictionaryWithDefault
340
F
  0
DICTIONARY
  5
47
102
{ACAD_REACTORS
330
C
102
}
330
C
100
AcDbDictionary
281
     1
  3
A0
350
48
  3
A1
350
49
  3
A2
350
4A
  3
A3
350
4B
  3
A4
350
4C
  3
A5
350
4D
  3
A6
350
4E
  3
A7
350
4F
  3
A8
350
50
  3
A9
350
51
  3
B0
350
52
  3
B1
350
53
  3
B2
350
54
  3
B3
350
55
  3
B4
350
56
  3
B5
350
57
  3
B6
350
58
  3
B7
350
59
  3
B8
350
5A
  3
B9
350
5B
  3
C0
350
5C
  3
C1
350
5D
  3
C2
350
5E
  3
C3
350
5F
  3
C4
350
60
  3
C5
350
61
  3
C6
350
62
  3
C7
350
63
  3
C8
350
64
  3
C9
350
65
  3
D0
350
66
  3
D1
350
67
  3
D2
350
68
  0
DICTIONARY
  5
2F8
102
{ACAD_REACTORS
330
C
102
}
330
C
100
AcDbDictionary
281
     1
  3
Metric50
350
2FC
  0
DICTIONARY
  5
69
102
{ACAD_REACTORS
330
C
102
}
330
C
100
AcDbDictionary
281
     1
  3
Standard
350
6A
  0
DICTIONARY
  5
2A
102
{ACAD_REACTORS
330
C
102
}
330
C
100
AcDbDictionary
281
     1
  3
2dWireframe
350
2F
  3
Basic
350
32
  3
Brighten
350
36
  3
ColorChange
350
3A
  3
Conceptual
350
34
  3
Dim
350
35
  3
EdgeColorOff
350
3D
  3
Facepattern
350
39
  3
Flat
350
2B
  3
FlatWithEdges
350
2C
  3
Gouraud
350
2D
  3
GouraudWithEdges
350
2E
  3
Hidden
350
31
  3
JitterOff
350
3B
  3
Linepattern
350
38
  3
OverhangOff
350
3C
  3
Realistic
350
33
  3
Shaded
350
42
  3
Shaded with edges
350
41
  3
Shades of Gray
350
3E
  3
Sketchy
350
3F
  3
Thicken
350
37
  3
Wireframe
350
30
  3
X-Ray
350
40
  0
XRECORD
  5
366
102
{ACAD_REACTORS
330
C
102
}
330
C
100
AcDbXrecord
280
     1
 90
        1
330
6A
  0
DICTIONARY
  5
2B4
102
{ACAD_REACTORS
330
C
102
}
330
C
100
AcDbDictionary
281
     1
  3
CANNOSCALE
350
2B5
  3
CMLEADERSTYLE
350
2F6
  3
CTABLESTYLE
350
2F5
  3
CVIEWDETAILSTYLE
350
361
  3
CVIEWSECTIONSTYLE
350
362
  3
MSLTSCALE
350
2B6
  3
XCLIPFRAME
350
363
  0
XRECORD
  5
34A
102
{ACAD_REACTORS
330
349
102
}
330
349
100
AcDbXrecord
280
     1
290
     1
  0
XRECORD
  5
34C
102
{ACAD_REACTORS
330
34B
102
}
330
34B
100
AcDbXrecord
280
     1
290
     1
  0
XRECORD
  5
34E
102
{ACAD_REACTORS
330
34D
102
}
330
34D
100
AcDbXrecord
280
     1
290
     1
  0
XRECORD
  5
350
102
{ACAD_REACTORS
330
34F
102
}
330
34F
100
AcDbXrecord
280
     1
290
     1
  0
XRECORD
  5
352
102
{ACAD_REACTORS
330
351
102
}
330
351
100
AcDbXrecord
280
     1
290
     1
  0
XRECORD
  5
354
102
{ACAD_REACTORS
330
353
102
}
330
353
100
AcDbXrecord
280
     1
290
     1
  0
XRECORD
  5
356
102
{ACAD_REACTORS
330
355
102
}
330
355
100
AcDbXrecord
280
     1
290
     1
  0
XRECORD
  5
358
102
{ACAD_REACTORS
330
357
102
}
330
357
100
AcDbXrecord
280
     1
290
     1
  0
XRECORD
  5
35A
102
{ACAD_REACTORS
330
359
102
}
330
359
100
AcDbXrecord
280
     1
290
     1
  0
XRECORD
  5
35C
102
{ACAD_REACTORS
330
35B
102
}
330
35B
100
AcDbXrecord
280
     1
290
     1
  0
XRECORD
  5
35E
102
{ACAD_REACTORS
330
35D
102
}
330
35D
100
AcDbXrecord
280
     1
290
     1
  0
XRECORD
  5
360
102
{ACAD_REACTORS
330
35F
102
}
330
35F
100
AcDbXrecord
280
     1
290
     1
  0
SORTENTSTABLE
  5
302
102
{ACAD_REACTORS
330
301
102
}
330
301
100
AcDbSortentsTable
330
1F
331
303
  5
226
331
304
  5
23F
331
305
  5
303
331
306
  5
304
331
307
  5
305
331
308
  5
306
331
309
  5
307
331
30A
  5
308
331
30B
  5
309
331
30C
  5
30A
331
30D
  5
30B
331
30E
  5
31C
331
30F
  5
31D
331
310
  5
31E
331
311
  5
31F
331
312
  5
320
331
313
  5
321
331
314
  5
322
331
315
  5
323
331
316
  5
324
331
317
  5
325
331
318
  5
326
331
319
  5
327
331
31A
  5
328
331
31B
  5
329
331
31C
  5
32A
331
31D
  5
32B
331
31E
  5
32C
331
31F
  5
32D
331
320
  5
30E
331
321
  5
30F
331
322
  5
310
331
323
  5
311
331
324
  5
312
331
325
  5
313
331
326
  5
314
331
327
  5
315
331
328
  5
316
331
329
  5
317
331
32A
  5
318
331
32B
  5
319
331
32C
  5
31A
331
32D
  5
31B
331
330
  5
333
331
331
  5
334
331
333
  5
337
331
334
  5
338
331
335
  5
339
331
336
  5
33A
331
337
  5
330
331
338
  5
331
331
339
  5
335
331
33A
  5
336
  0
ACDBDETAILVIEWSTYLE
  5
2FD
102
{ACAD_XDICTIONARY
360
39A
102
}
102
{ACAD_REACTORS
330
2F7
102
}
330
2F7
100
AcDbModelDocViewStyle
 70
     0
  3
Metric50
290
     0
100
AcDbDetailViewStyle
 70
     0
 71
     0
 90
        3
 71
     1
340
11
 62
   256
 40
5.0
340
0
 62
   256
 40
5.0
300

 40
0.0
280
     1
 71
     2
340
16
 90
       25
 62
   256
 71
     3
340
11
 62
   256
 40
5.0
 90
        0
 40
15.0
 90
        1
300
%<\AcVar ViewDetailId>% (%<\AcVar ViewScale \f "%sn">%)
 71
     4
340
16
 90
       25
 62
   256
340
16
 90
       25
 62
   256
280
     0
  0
GROUP
  5
348
102
{ACAD_REACTORS
330
D
102
}
330
D
100
AcDbGroup
300

 70
     0
 71
     1
340
73
  0
LAYOUT
  5
1E
102
{ACAD_REACTORS
330
1A
102
}
330
1A
100
AcDbPlotSettings
  1

  2
none_device
  4

  6

 40
0.0
 41
0.0
 42
0.0
 43
0.0
 44
0.0
 45
0.0
 46
0.0
 47
0.0
 48
0.0
 49
0.0
140
0.0
141
0.0
142
1.0
143
1.0
 70
   688
 72
     0
 73
     0
 74
     5
  7

 75
    16
147
1.0
 76
     0
 77
     2
 78
   300
148
0.0
149
0.0
100
AcDbLayout
  1
Layout1
 70
     1
 71
     1
 10
-0.5
 20
-0.5
 11
5.0
 21
5.0
 12
0.0
 22
0.0
 32
0.0
 14
-0.5
 24
-0.5
 34
-0.5
 15
5.0
 25
5.0
 35
5.0
146
0.0
 13
0.0
 23
0.0
 33
0.0
 16
1.0
 26
0.0
 36
0.0
 17
0.0
 27
1.0
 37
0.0
 76
     0
330
1B
  0
LAYOUT
  5
26
102
{ACAD_REACTORS
330
1A
102
}
330
1A
100
AcDbPlotSettings
  1

  2
none_device
  4

  6

 40
0.0
 41
0.0
 42
0.0
 43
0.0
 44
0.0
 45
0.0
 46
0.0
 47
0.0
 48
0.0
 49
0.0
140
0.0
141
0.0
142
1.0
143
1.0
 70
   688
 72
     0
 73
     0
 74
     5
  7

 75
    16
147
1.0
 76
     0
 77
     2
 78
   300
148
0.0
149
0.0
100
AcDbLayout
  1
Layout2
 70
     1
 71
     2
 10
0.0
 20
0.0
 11
0.0
 21
0.0
 12
0.0
 22
0.0
 32
0.0
 14
0.0
 24
0.0
 34
0.0
 15
0.0
 25
0.0
 35
0.0
146
0.0
 13
0.0
 23
0.0
 33
0.0
 16
1.0
 26
0.0
 36
0.0
 17
0.0
 27
1.0
 37
0.0
 76
     0
330
23
  0
LAYOUT
  5
22
102
{ACAD_REACTORS
330
1A
102
}
330
1A
100
AcDbPlotSettings
  1

  2
none_device
  4
Letter_(8.50_x_11.00_Inches)
  6

 40
6.349999999999999
 41
6.349999999999999
 42
6.350005
 43
6.350005
 44
215.9
 45
279.4
 46
0.0
 47
0.0
 48
0.0
 49
0.0
140
0.0
141
0.0
142
1.0
143
1.0
 70
  1712
 72
     0
 73
     0
 74
     0
  7

 75
     0
147
1.0
 76
     0
 77
     2
 78
   300
148
0.0
149
0.0
100
AcDbLayout
  1
Model
 70
     1
 71
     0
 10
-0.5
 20
-0.5
 11
5.0
 21
5.0
 12
0.0
 22
0.0
 32
0.0
 14
-0.5
 24
-0.5
 34
-0.5
 15
5.0
 25
5.0
 35
5.0
146
0.0
 13
0.0
 23
0.0
 33
0.0
 16
1.0
 26
0.0
 36
0.0
 17
0.0
 27
1.0
 37
0.0
 76
     0
330
1F
331
29
  0
MATERIAL
  5
45
102
{ACAD_XDICTIONARY
360
2EA
102
}
102
{ACAD_REACTORS
330
43
102
}
330
43
100
AcDbMaterial
  1
ByBlock
  0
MATERIAL
  5
44
102
{ACAD_XDICTIONARY
360
2E8
102
}
102
{ACAD_REACTORS
330
43
102
}
330
43
100
AcDbMaterial
  1
ByLayer
  0
MATERIAL
  5
46
102
{ACAD_XDICTIONARY
360
2EC
102
}
102
{ACAD_REACTORS
330
43
102
}
330
43
100
AcDbMaterial
  1
Global
  0
MLEADERSTYLE
  5
6C
102
{ACAD_REACTORS
330
6B
102
}
330
6B
100
AcDbMLeaderStyle
170
     2
171
     1
172
     0
 90
        2
 40
0.0
 41
0.0
173
     1
 91
-1056964608
340
14
 92
       -2
290
     1
 42
0.09
291
     1
 43
0.36
  3
Standard
 44
0.18
300

342
11
174
     1
178
     6
175
     1
176
     0
 93
-1056964608
 45
0.18
292
     0
297
     0
 46
0.18
 94
-1056964608
 47
1.0
 49
1.0
140
1.0
293
     1
141
0.0
294
     1
177
     0
142
1.0
295
     0
296
     0
143
0.125
1001
ACAD_MLEADERVER
1070
     2
  0
MLINESTYLE
  5
18
102
{ACAD_REACTORS
330
17
102
}
330
17
100
AcDbMlineStyle
  2
STANDARD
 70
     0
  3

 62
   256
 51
90.0
 52
90.0
 71
     2
 49
0.5
 62
   256
  6
BYLAYER
 49
-0.5
 62
   256
  6
BYLAYER
  0
ACDBPLACEHOLDER
  5
F
102
{ACAD_REACTORS
330
E
102
}
330
E
  0
SCALE
  5
48
102
{ACAD_REACTORS
330
47
102
}
330
47
100
AcDbScale
 70
     0
300
1:1
140
1.0
141
1.0
290
     1
  0
SCALE
  5
49
102
{ACAD_REACTORS
330
47
102
}
330
47
100
AcDbScale
 70
     0
300
1:2
140
1.0
141
2.0
290
     0
  0
SCALE
  5
4A
102
{ACAD_REACTORS
330
47
102
}
330
47
100
AcDbScale
 70
     0
300
1:4
140
1.0
141
4.0
290
     0
  0
SCALE
  5
4B
102
{ACAD_REACTORS
330
47
102
}
330
47
100
AcDbScale
 70
     0
300
1:5
140
1.0
141
5.0
290
     0
  0
SCALE
  5
4C
102
{ACAD_REACTORS
330
47
102
}
330
47
100
AcDbScale
 70
     0
300
1:8
140
1.0
141
8.0
290
     0
  0
SCALE
  5
4D
102
{ACAD_REACTORS
330
47
102
}
330
47
100
AcDbScale
 70
     0
300
1:10
140
1.0
141
10.0
290
     0
  0
SCALE
  5
4E
102
{ACAD_REACTORS
330
47
102
}
330
47
100
AcDbScale
 70
     0
300
1:16
140
1.0
141
16.0
290
     0
  0
SCALE
  5
4F
102
{ACAD_REACTORS
330
47
102
}
330
47
100
AcDbScale
 70
     0
300
1:20
140
1.0
141
20.0
290
     0
  0
SCALE
  5
50
102
{ACAD_REACTORS
330
47
102
}
330
47
100
AcDbScale
 70
     0
300
1:30
140
1.0
141
30.0
290
     0
  0
SCALE
  5
51
102
{ACAD_REACTORS
330
47
102
}
330
47
100
AcDbScale
 70
     0
300
1:40
140
1.0
141
40.0
290
     0
  0
SCALE
  5
52
102
{ACAD_REACTORS
330
47
102
}
330
47
100
AcDbScale
 70
     0
300
1:50
140
1.0
141
50.0
290
     0
  0
SCALE
  5
53
102
{ACAD_REACTORS
330
47
102
}
330
47
100
AcDbScale
 70
     0
300
1:100
140
1.0
141
100.0
290
     0
  0
SCALE
  5
54
102
{ACAD_REACTORS
330
47
102
}
330
47
100
AcDbScale
 70
     0
300
2:1
140
2.0
141
1.0
290
     0
  0
SCALE
  5
55
102
{ACAD_REACTORS
330
47
102
}
330
47
100
AcDbScale
 70
     0
300
4:1
140
4.0
141
1.0
290
     0
  0
SCALE
  5
56
102
{ACAD_REACTORS
330
47
102
}
330
47
100
AcDbScale
 70
     0
300
8:1
140
8.0
141
1.0
290
     0
  0
SCALE
  5
57
102
{ACAD_REACTORS
330
47
102
}
330
47
100
AcDbScale
 70
     0
300
10:1
140
10.0
141
1.0
290
     0
  0
SCALE
  5
58
102
{ACAD_REACTORS
330
47
102
}
330
47
100
AcDbScale
 70
     0
300
100:1
140
100.0
141
1.0
290
     0
  0
SCALE
  5
59
102
{ACAD_REACTORS
330
47
102
}
330
47
100
AcDbScale
 70
     0
300
1/128" = 1'-0"
140
0.007812
141
12.0
290
     0
  0
SCALE
  5
5A
102
{ACAD_REACTORS
330
47
102
}
330
47
100
AcDbScale
 70
     0
300
1/64" = 1'-0"
140
0.015625
141
12.0
290
     0
  0
SCALE
  5
5B
102
{ACAD_REACTORS
330
47
102
}
330
47
100
AcDbScale
 70
     0
300
1/32" = 1'-0"
140
0.03125
141
12.0
290
     0
  0
SCALE
  5
5C
102
{ACAD_REACTORS
330
47
102
}
330
47
100
AcDbScale
 70
     0
300
1/16" = 1'-0"
140
0.0625
141
12.0
290
     0
  0
SCALE
  5
5D
102
{ACAD_REACTORS
330
47
102
}
330
47
100
AcDbScale
 70
     0
300
3/32" = 1'-0"
140
0.09375
141
12.0
290
     0
  0
SCALE
  5
5E
102
{ACAD_REACTORS
330
47
102
}
330
47
100
AcDbScale
 70
     0
300
1/8" = 1'-0"
140
0.125
141
12.0
290
     0
  0
SCALE
  5
5F
102
{ACAD_REACTORS
330
47
102
}
330
47
100
AcDbScale
 70
     0
300
3/16" = 1'-0"
140
0.1875
141
12.0
290
     0
  0
SCALE
  5
60
102
{ACAD_REACTORS
330
47
102
}
330
47
100
AcDbScale
 70
     0
300
1/4" = 1'-0"
140
0.25
141
12.0
290
     0
  0
SCALE
  5
61
102
{ACAD_REACTORS
330
47
102
}
330
47
100
AcDbScale
 70
     0
300
3/8" = 1'-0"
140
0.375
141
12.0
290
     0
  0
SCALE
  5
62
102
{ACAD_REACTORS
330
47
102
}
330
47
100
AcDbScale
 70
     0
300
1/2" = 1'-0"
140
0.5
141
12.0
290
     0
  0
SCALE
  5
63
102
{ACAD_REACTORS
330
47
102
}
330
47
100
AcDbScale
 70
     0
300
3/4" = 1'-0"
140
0.75
141
12.0
290
     0
  0
SCALE
  5
64
102
{ACAD_REACTORS
330
47
102
}
330
47
100
AcDbScale
 70
     0
300
1" = 1'-0"
140
1.0
141
12.0
290
     0
  0
SCALE
  5
65
102
{ACAD_REACTORS
330
47
102
}
330
47
100
AcDbScale
 70
     0
300
1-1/2" = 1'-0"
140
1.5
141
12.0
290
     0
  0
SCALE
  5
66
102
{ACAD_REACTORS
330
47
102
}
330
47
100
AcDbScale
 70
     0
300
3" = 1'-0"
140
3.0
141
12.0
290
     0
  0
SCALE
  5
67
102
{ACAD_REACTORS
330
47
102
}
330
47
100
AcDbScale
 70
     0
300
6" = 1'-0"
140
6.0
141
12.0
290
     0
  0
SCALE
  5
68
102
{ACAD_REACTORS
330
47
102
}
330
47
100
AcDbScale
 70
     0
300
1'-0" = 1'-0"
140
12.0
141
12.0
290
     0
  0
ACDBSECTIONVIEWSTYLE
  5
2FC
102
{ACAD_XDICTIONARY
360
398
102
}
102
{ACAD_REACTORS
330
2F8
102
}
330
2F8
100
AcDbModelDocViewStyle
 70
     0
  3
Metric50
290
     0
100
AcDbSectionViewStyle
 70
     0
 71
     0
 90
      102
 71
     1
340
11
 62
   256
 40
5.0
340
0
340
0
 62
   256
 40
5.0
300
I, O, Q, S, X, Z
 40
10.0
 90
        0
 40
2.5
 90
        0
 71
     2
340
16
 90
       25
 62
   256
340
16
 90
       50
 62
   256
 40
5.0
 40
2.5
 40
5.0
 71
     3
340
11
 62
   256
 40
5.0
 90
        0
 40
15.0
 90
        1
300
%<\AcVar ViewSectionStartId>%-%<\AcVar ViewSectionEndId>% (%<\AcVar ViewScale \f "%sn">%)
 71
     4
 62
   256
 62
   257
300
ANSI31
 40
1.0
 90
        0
290
     0
290
     0
 90
        6
 40
0.0
 40
1.570796326794896
 40
0.2617993877991494
 40
1.308996938995747
 40
-0.2617993877991494
 40
1.832595714594046
  0
TABLESTYLE
  5
6A
102
{ACAD_XDICTIONARY
360
2EE
102
}
102
{ACAD_REACTORS
330
69
102
}
330
69
100
AcDbTableStyle
  3
Standard
 70
     0
 71
     0
 40
0.06
 41
0.06
280
     0
281
     0
  7
Standard
140
0.18
170
     2
 62
     0
 63
     7
283
     0
274
    -2
284
     1
 64
     0
275
    -2
285
     1
 65
     0
276
    -2
286
     1
 66
     0
277
    -2
287
     1
 67
     0
278
    -2
288
     1
 68
     0
279
    -2
289
     1
 69
     0
  7
Standard
140
0.25
170
     5
 62
     0
 63
     7
283
     0
274
    -2
284
     1
 64
     0
275
    -2
285
     1
 65
     0
276
    -2
286
     1
 66
     0
277
    -2
287
     1
 67
     0
278
    -2
288
     1
 68
     0
279
    -2
289
     1
 69
     0
  7
Standard
140
0.18
170
     5
 62
     0
 63
     7
283
     0
274
    -2
284
     1
 64
     0
275
    -2
285
     1
 65
     0
276
    -2
286
     1
 66
     0
277
    -2
287
     1
 67
     0
278
    -2
288
     1
 68
     0
279
    -2
289
     1
 69
     0
  0
VISUALSTYLE
  5
2F
102
{ACAD_XDICTIONARY
360
36F
102
}
102
{ACAD_REACTORS
330
2A
102
}
330
2A
100
AcDbVisualStyle
  2

 70
     4
 71
     0
 72
     2
 73
     0
 90
        0
 40
-0.6
 41
-30.0
 62
     5
 63
     7
421
 16777215
 74
     1
 91
        4
 64
     7
 65
   257
 75
     1
175
     1
 42
1.0
 92
        0
 66
   257
 43
1.0
 76
     1
 77
     6
 78
     2
 67
     7
 79
     5
170
     0
171
     0
290
     0
174
     0
 93
        1
 44
0.0
173
     0
291
     0
 45
0.0
1001
ACAD
1000
AcDbSavedByObjectVersion
1070
     0
  0
VISUALSTYLE
  5
32
102
{ACAD_XDICTIONARY
360
375
102
}
102
{ACAD_REACTORS
330
2A
102
}
330
2A
100
AcDbVisualStyle
  2

 70
     7
 71
     1
 72
     0
 73
     1
 90
        0
 40
-0.6
 41
-30.0
 62
     5
 63
     7
421
 16777215
 74
     0
 91
        4
 64
     7
 65
   257
 75
     1
175
     1
 42
1.0
 92
        8
 66
     7
 43
1.0
 76
     1
 77
     6
 78
     2
 67
     7
 79
     5
170
     0
171
     0
290
     0
174
     0
 93
        1
 44
0.0
173
     0
291
     1
 45
0.0
1001
ACAD
1000
AcDbSavedByObjectVersion
1070
     0
  0
VISUALSTYLE
  5
36
102
{ACAD_XDICTIONARY
360
37D
102
}
102
{ACAD_REACTORS
330
2A
102
}
330
2A
100
AcDbVisualStyle
  2

 70
    12
 71
     2
 72
     2
 73
     0
 90
        0
 40
-0.6
 41
-30.0
 62
     5
 63
     7
421
 16777215
 74
     1
 91
        4
 64
     7
 65
   257
 75
     1
175
     1
 42
1.0
 92
        8
 66
     7
 43
1.0
 76
     1
 77
     6
 78
     2
 67
     7
 79
     5
170
     0
171
     0
290
     0
174
     0
 93
        1
 44
50.0
173
     0
291
     1
 45
0.0
1001
ACAD
1000
AcDbSavedByObjectVersion
1070
     0
  0
VISUALSTYLE
  5
3A
102
{ACAD_XDICTIONARY
360
385
102
}
102
{ACAD_REACTORS
330
2A
102
}
330
2A
100
AcDbVisualStyle
  2

 70
    16
 71
     2
 72
     2
 73
     3
 90
        0
 40
-0.6
 41
-30.0
 62
     5
 63
     8
421
  8421504
 74
     1
 91
        4
 64
     7
 65
   257
 75
     1
175
     1
 42
1.0
 92
        8
 66
     8
424
  8421504
 43
1.0
 76
     1
 77
     6
 78
     2
 67
     7
 79
     5
170
     0
171
     0
290
     0
174
     0
 93
        1
 44
0.0
173
     0
291
     1
 45
0.0
1001
ACAD
1000
AcDbSavedByObjectVersion
1070
     0
  0
VISUALSTYLE
  5
34
102
{ACAD_XDICTIONARY
360
379
102
}
102
{ACAD_REACTORS
330
2A
102
}
330
2A
100
AcDbVisualStyle
  2

 70
     9
 71
     3
 72
     2
 73
     0
 90
        0
 40
-0.6
 41
-30.0
 62
     5
 63
     7
421
 16777215
 74
     2
 91
        2
 64
     7
 65
   257
 75
     1
175
     1
 42
179.0
 92
        8
 66
     7
 43
1.0
 76
     1
 77
     6
 78
     2
 67
     7
 79
     3
170
     0
171
     0
290
     0
174
     0
 93
        1
 44
0.0
173
     0
291
     0
 45
0.0
1001
ACAD
1000
AcDbSavedByObjectVersion
1070
     0
  0
VISUALSTYLE
  5
35
102
{ACAD_XDICTIONARY
360
37B
102
}
102
{ACAD_REACTORS
330
2A
102
}
330
2A
100
AcDbVisualStyle
  2

 70
    11
 71
     2
 72
     2
 73
     0
 90
        0
 40
-0.6
 41
-30.0
 62
     5
 63
     7
421
 16777215
 74
     1
 91
        4
 64
     7
 65
   257
 75
     1
175
     1
 42
1.0
 92
        8
 66
     7
 43
1.0
 76
     1
 77
     6
 78
     2
 67
     7
 79
     5
170
     0
171
     0
290
     0
174
     0
 93
        1
 44
-50.0
173
     0
291
     1
 45
0.0
1001
ACAD
1000
AcDbSavedByObjectVersion
1070
     0
  0
VISUALSTYLE
  5
3D
102
{ACAD_XDICTIONARY
360
38B
102
}
102
{ACAD_REACTORS
330
2A
102
}
330
2A
100
AcDbVisualStyle
  2

 70
    22
 71
     2
 72
     2
 73
     0
 90
        0
 40
-0.6
 41
-30.0
 62
     5
 63
     7
421
 16777215
 74
     1
 91
        4
 64
     7
 65
   257
 75
     1
175
     1
 42
1.0
 92
        8
 66
     7
 43
1.0
 76
     1
 77
     6
 78
     2
 67
     7
 79
     5
170
     0
171
     0
290
     0
174
     0
 93
        1
 44
0.0
173
     0
291
     1
 45
0.0
1001
ACAD
1000
AcDbSavedByObjectVersion
1070
     0
  0
VISUALSTYLE
  5
39
102
{ACAD_XDICTIONARY
360
383
102
}
102
{ACAD_REACTORS
330
2A
102
}
330
2A
100
AcDbVisualStyle
  2

 70
    15
 71
     2
 72
     2
 73
     0
 90
        0
 40
-0.6
 41
-30.0
 62
     5
 63
     7
421
 16777215
 74
     1
 91
        4
 64
     7
 65
   257
 75
     1
175
     1
 42
1.0
 92
        8
 66
     7
 43
1.0
 76
     1
 77
     6
 78
     2
 67
     7
 79
     5
170
     0
171
     0
290
     0
174
     0
 93
        1
 44
0.0
173
     0
291
     1
 45
0.0
1001
ACAD
1000
AcDbSavedByObjectVersion
1070
     0
  0
VISUALSTYLE
  5
2B
102
{ACAD_XDICTIONARY
360
367
102
}
102
{ACAD_REACTORS
330
2A
102
}
330
2A
100
AcDbVisualStyle
  2

 70
     0
 71
     2
 72
     1
 73
     1
 90
        2
 40
-0.6
 41
30.0
 62
     5
 63
     7
421
 16777215
 74
     0
 91
        0
 64
     7
 65
   257
 75
     1
175
     1
 42
1.0
 92
        8
 66
     7
 43
1.0
 76
     1
 77
     6
 78
     2
 67
     7
 79
     5
170
     0
171
     0
290
     0
174
     0
 93
       13
 44
0.0
173
     0
291
     1
 45
0.0
1001
ACAD
1000
AcDbSavedByObjectVersion
1070
     0
  0
VISUALSTYLE
  5
2C
102
{ACAD_XDICTIONARY
360
369
102
}
102
{ACAD_REACTORS
330
2A
102
}
330
2A
100
AcDbVisualStyle
  2

 70
     1
 71
     2
 72
     1
 73
     1
 90
        2
 40
-0.6
 41
30.0
 62
     5
 63
     7
421
 16777215
 74
     1
 91
        0
 64
     7
 65
   257
 75
     1
175
     1
 42
1.0
 92
        0
 66
   257
 43
1.0
 76
     1
 77
     6
 78
     2
 67
     7
 79
     5
170
     0
171
     0
290
     0
174
     0
 93
       13
 44
0.0
173
     0
291
     1
 45
0.0
1001
ACAD
1000
AcDbSavedByObjectVersion
1070
     0
  0
VISUALSTYLE
  5
2D
102
{ACAD_XDICTIONARY
360
36B
102
}
102
{ACAD_REACTORS
330
2A
102
}
330
2A
100
AcDbVisualStyle
  2

 70
     2
 71
     2
 72
     2
 73
     1
 90
        2
 40
-0.6
 41
30.0
 62
     5
 63
     7
421
 16777215
 74
     0
 91
        0
 64
     7
 65
   257
 75
     1
175
     1
 42
1.0
 92
        0
 66
     7
 43
1.0
 76
     1
 77
     6
 78
     2
 67
     7
 79
     5
170
     0
171
     0
290
     0
174
     0
 93
       13
 44
0.0
173
     0
291
     1
 45
0.0
1001
ACAD
1000
AcDbSavedByObjectVersion
1070
     0
  0
VISUALSTYLE
  5
2E
102
{ACAD_XDICTIONARY
360
36D
102
}
102
{ACAD_REACTORS
330
2A
102
}
330
2A
100
AcDbVisualStyle
  2

 70
     3
 71
     2
 72
     2
 73
     1
 90
        2
 40
-0.6
 41
30.0
 62
     5
 63
     7
421
 16777215
 74
     1
 91
        0
 64
     7
 65
   257
 75
     1
175
     1
 42
1.0
 92
        0
 66
   257
 43
1.0
 76
     1
 77
     6
 78
     2
 67
     7
 79
     5
170
     0
171
     0
290
     0
174
     0
 93
       13
 44
0.0
173
     0
291
     1
 45
0.0
1001
ACAD
1000
AcDbSavedByObjectVersion
1070
     0
  0
VISUALSTYLE
  5
31
102
{ACAD_XDICTIONARY
360
373
102
}
102
{ACAD_REACTORS
330
2A
102
}
330
2A
100
AcDbVisualStyle
  2

 70
     6
 71
     1
 72
     2
 73
     2
 90
        0
 40
-0.6
 41
-30.0
 62
     5
 63
     7
421
 16777215
 74
     2
 91
        2
 64
     7
 65
   257
 75
     2
175
     1
 42
40.0
 92
        0
 66
   257
 43
1.0
 76
     1
 77
     6
 78
     2
 67
     7
 79
     3
170
     0
171
     0
290
     0
174
     0
 93
        1
 44
0.0
173
     0
291
     0
 45
0.0
1001
ACAD
1000
AcDbSavedByObjectVersion
1070
     0
  0
VISUALSTYLE
  5
3B
102
{ACAD_XDICTIONARY
360
387
102
}
102
{ACAD_REACTORS
330
2A
102
}
330
2A
100
AcDbVisualStyle
  2

 70
    20
 71
     2
 72
     2
 73
     0
 90
        0
 40
-0.6
 41
-30.0
 62
     5
 63
     7
421
 16777215
 74
     1
 91
        4
 64
     7
 65
   257
 75
     1
175
     1
 42
1.0
 92
       10
 66
     7
 43
1.0
 76
     1
 77
     6
 78
     2
 67
     7
 79
     5
170
     0
171
     0
290
     0
174
     0
 93
        1
 44
0.0
173
     0
291
     1
 45
0.0
1001
ACAD
1000
AcDbSavedByObjectVersion
1070
     0
  0
VISUALSTYLE
  5
38
102
{ACAD_XDICTIONARY
360
381
102
}
102
{ACAD_REACTORS
330
2A
102
}
330
2A
100
AcDbVisualStyle
  2

 70
    14
 71
     2
 72
     2
 73
     0
 90
        0
 40
-0.6
 41
-30.0
 62
     5
 63
     7
421
 16777215
 74
     1
 91
        4
 64
     7
 65
   257
 75
     7
175
     7
 42
1.0
 92
        8
 66
     7
 43
1.0
 76
     1
 77
     6
 78
     2
 67
     7
 79
     5
170
     0
171
     0
290
     0
174
     0
 93
        1
 44
0.0
173
     0
291
     1
 45
0.0
1001
ACAD
1000
AcDbSavedByObjectVersion
1070
     0
  0
VISUALSTYLE
  5
3C
102
{ACAD_XDICTIONARY
360
389
102
}
102
{ACAD_REACTORS
330
2A
102
}
330
2A
100
AcDbVisualStyle
  2

 70
    21
 71
     2
 72
     2
 73
     0
 90
        0
 40
-0.6
 41
-30.0
 62
     5
 63
     7
421
 16777215
 74
     1
 91
        4
 64
     7
 65
   257
 75
     1
175
     1
 42
1.0
 92
        9
 66
     7
 43
1.0
 76
     1
 77
     6
 78
     2
 67
     7
 79
     5
170
     0
171
     0
290
     0
174
     0
 93
        1
 44
0.0
173
     0
291
     1
 45
0.0
1001
ACAD
1000
AcDbSavedByObjectVersion
1070
     0
  0
VISUALSTYLE
  5
33
102
{ACAD_XDICTIONARY
360
377
102
}
102
{ACAD_REACTORS
330
2A
102
}
330
2A
100
AcDbVisualStyle
  2

 70
     8
 71
     2
 72
     3
 73
     0
 90
        2
 40
-0.6
 41
30.0
 62
     5
 63
     7
421
 16777215
 74
     0
 91
        0
 64
     7
 65
   257
 75
     1
175
     1
 42
1.0
 92
        8
 66
   257
 43
1.0
 76
     1
 77
     6
 78
     2
 67
     7
 79
     3
170
     0
171
     0
290
     0
174
     0
 93
       13
 44
0.0
173
     0
291
     0
 45
0.0
1001
ACAD
1000
AcDbSavedByObjectVersion
1070
     0
  0
VISUALSTYLE
  5
42
102
{ACAD_XDICTIONARY
360
395
102
}
102
{ACAD_REACTORS
330
2A
102
}
330
2A
100
AcDbVisualStyle
  2

 70
    27
 71
     2
 72
     2
 73
     1
 90
        2
 40
-0.6
 41
30.0
 62
     5
 63
     7
421
 16777215
 74
     0
 91
        4
 64
     7
 65
   257
 75
     1
175
     1
 42
1.0
 92
        8
 66
   257
 43
1.0
 76
     1
 77
     6
 78
     2
 67
     8
425
  7895160
 79
     3
170
     0
171
     0
290
     0
174
     0
 93
        5
 44
0.0
173
     0
291
     0
 45
0.0
1001
ACAD
1000
AcDbSavedByObjectVersion
1070
     0
  0
VISUALSTYLE
  5
41
102
{ACAD_XDICTIONARY
360
393
102
}
102
{ACAD_REACTORS
330
2A
102
}
330
2A
100
AcDbVisualStyle
  2

 70
    26
 71
     2
 72
     2
 73
     1
 90
        2
 40
-0.6
 41
30.0
 62
     5
 63
     7
421
 16777215
 74
     1
 91
       10
 64
     7
 65
   257
 75
     2
175
     1
 42
1.0
 92
        8
 66
   257
 43
1.0
 76
     1
 77
     6
 78
     2
 67
     7
 79
     3
170
     0
171
     0
290
     0
174
     0
 93
        5
 44
0.0
173
     0
291
     0
 45
0.0
1001
ACAD
1000
AcDbSavedByObjectVersion
1070
     0
  0
VISUALSTYLE
  5
3E
102
{ACAD_XDICTIONARY
360
38D
102
}
102
{ACAD_REACTORS
330
2A
102
}
330
2A
100
AcDbVisualStyle
  2

 70
    23
 71
     2
 72
     2
 73
     3
 90
        0
 40
-0.6
 41
-30.0
 62
     5
 63
     7
421
 16777215
 74
     2
 91
        2
 64
     7
 65
     7
 75
     1
175
     1
 42
40.0
 92
        8
 66
     7
 43
1.0
 76
     1
 77
     6
 78
     2
 67
     7
 79
     3
170
     0
171
     0
290
     0
174
     0
 93
        1
 44
0.0
173
     0
291
     0
 45
0.0
1001
ACAD
1000
AcDbSavedByObjectVersion
1070
     0
  0
VISUALSTYLE
  5
3F
102
{ACAD_XDICTIONARY
360
38F
102
}
102
{ACAD_REACTORS
330
2A
102
}
330
2A
100
AcDbVisualStyle
  2

 70
    24
 71
     1
 72
     2
 73
     2
 90
        0
 40
-0.6
 41
-30.0
 62
     5
 63
     7
421
 16777215
 74
     2
 91
        2
 64
     7
 65
     7
 75
     1
175
     1
 42
40.0
 92
       11
 66
     7
 43
1.0
 76
     1
 77
     6
 78
     2
 67
     7
 79
     6
170
     0
171
     0
290
     0
174
     0
 93
        1
 44
0.0
173
     0
291
     0
 45
0.0
1001
ACAD
1000
AcDbSavedByObjectVersion
1070
     0
  0
VISUALSTYLE
  5
37
102
{ACAD_XDICTIONARY
360
37F
102
}
102
{ACAD_REACTORS
330
2A
102
}
330
2A
100
AcDbVisualStyle
  2

 70
    13
 71
     2
 72
     2
 73
     0
 90
        0
 40
-0.6
 41
-30.0
 62
     5
 63
     7
421
 16777215
 74
     1
 91
        4
 64
     7
 65
   257
 75
     1
175
     1
 42
1.0
 92
       12
 66
     7
 43
1.0
 76
     1
 77
     6
 78
     2
 67
     7
 79
     5
170
     0
171
     0
290
     0
174
     0
 93
        1
 44
0.0
173
     0
291
     1
 45
0.0
1001
ACAD
1000
AcDbSavedByObjectVersion
1070
     0
  0
VISUALSTYLE
  5
30
102
{ACAD_XDICTIONARY
360
371
102
}
102
{ACAD_REACTORS
330
2A
102
}
330
2A
100
AcDbVisualStyle
  2

 70
     5
 71
     0
 72
     2
 73
     0
 90
        0
 40
-0.6
 41
-30.0
 62
     5
 63
     7
421
 16777215
 74
     1
 91
        4
 64
     7
 65
   257
 75
     1
175
     1
 42
1.0
 92
        0
 66
   257
 43
1.0
 76
     1
 77
     6
 78
     2
 67
     7
 79
     3
170
     0
171
     0
290
     0
174
     0
 93
        1
 44
0.0
173
     0
291
     0
 45
0.0
1001
ACAD
1000
AcDbSavedByObjectVersion
1070
     0
  0
VISUALSTYLE
  5
40
102
{ACAD_XDICTIONARY
360
391
102
}
102
{ACAD_REACTORS
330
2A
102
}
330
2A
100
AcDbVisualStyle
  2

 70
    25
 71
     2
 72
     2
 73
     1
 90
        1
 40
0.5
 41
-30.0
 62
     5
 63
     7
421
 16777215
 74
     1
 91
        0
 64
     7
 65
   257
 75
     1
175
     1
 42
1.0
 92
        8
 66
     7
 43
1.0
 76
     1
 77
     6
 78
     2
 67
     7
 79
     3
170
     0
171
     0
290
     0
174
     0
 93
       13
 44
0.0
173
     0
291
     0
 45
0.0
1001
ACAD
1000
AcDbSavedByObjectVersion
1070
     0
  0
DICTIONARYVAR
  5
2B5
102
{ACAD_REACTORS
330
2B4
102
}
330
2B4
100
DictionaryVariables
280
     0
  1
1:1
  0
DICTIONARYVAR
  5
2F6
102
{ACAD_REACTORS
330
2B4
102
}
330
2B4
100
DictionaryVariables
280
     0
  1
STANDARD
  0
DICTIONARYVAR
  5
2F5
102
{ACAD_REACTORS
330
2B4
102
}
330
2B4
100
DictionaryVariables
280
     0
  1
STANDARD
  0
DICTIONARYVAR
  5
361
102
{ACAD_REACTORS
330
2B4
102
}
330
2B4
100
DictionaryVariables
280
     0
  1
Metric50
  0
DICTIONARYVAR
  5
362
102
{ACAD_REACTORS
330
2B4
102
}
330
2B4
100
DictionaryVariables
280
     0
  1
Metric50
  0
DICTIONARYVAR
  5
2B6
102
{ACAD_REACTORS
330
2B4
102
}
330
2B4
100
DictionaryVariables
280
     0
  1
1
  0
DICTIONARYVAR
  5
363
102
{ACAD_REACTORS
330
2B4
102
}
330
2B4
100
DictionaryVariables
280
     0
  1
2
  0
DICTIONARY
  5
39A
330
2FD
100
AcDbDictionary
280
     1
281
     1
  3
ACAD_XREC_ROUNDTRIP
360
39B
  0
DICTIONARY
  5
2EA
330
45
100
AcDbDictionary
280
     1
281
     1
  3
ACAD_XREC_ROUNDTRIP
360
2EB
  0
DICTIONARY
  5
2E8
330
44
100
AcDbDictionary
280
     1
281
     1
  3
ACAD_XREC_ROUNDTRIP
360
2E9
  0
DICTIONARY
  5
2EC
330
46
100
AcDbDictionary
280
     1
281
     1
  3
ACAD_XREC_ROUNDTRIP
360
2ED
  0
DICTIONARY
  5
398
330
2FC
100
AcDbDictionary
280
     1
281
     1
  3
ACAD_XREC_ROUNDTRIP
360
399
  0
DICTIONARY
  5
2EE
330
6A
100
AcDbDictionary
280
     1
281
     1
  3
ACAD_ROUNDTRIP_2008_TABLESTYLE_CELLSTYLEMAP
360
365
  3
ACAD_XREC_ROUNDTRIP
360
397
  0
DICTIONARY
  5
36F
330
2F
100
AcDbDictionary
280
     1
281
     1
  3
ACAD_XREC_ROUNDTRIP
360
370
  0
DICTIONARY
  5
375
330
32
100
AcDbDictionary
280
     1
281
     1
  3
ACAD_XREC_ROUNDTRIP
360
376
  0
DICTIONARY
  5
37D
330
36
100
AcDbDictionary
280
     1
281
     1
  3
ACAD_XREC_ROUNDTRIP
360
37E
  0
DICTIONARY
  5
385
330
3A
100
AcDbDictionary
280
     1
281
     1
  3
ACAD_XREC_ROUNDTRIP
360
386
  0
DICTIONARY
  5
379
330
34
100
AcDbDictionary
280
     1
281
     1
  3
ACAD_XREC_ROUNDTRIP
360
37A
  0
DICTIONARY
  5
37B
330
35
100
AcDbDictionary
280
     1
281
     1
  3
ACAD_XREC_ROUNDTRIP
360
37C
  0
DICTIONARY
  5
38B
330
3D
100
AcDbDictionary
280
     1
281
     1
  3
ACAD_XREC_ROUNDTRIP
360
38C
  0
DICTIONARY
  5
383
330
39
100
AcDbDictionary
280
     1
281
     1
  3
ACAD_XREC_ROUNDTRIP
360
384
  0
DICTIONARY
  5
367
330
2B
100
AcDbDictionary
280
     1
281
     1
  3
ACAD_XREC_ROUNDTRIP
360
368
  0
DICTIONARY
  5
369
330
2C
100
AcDbDictionary
280
     1
281
     1
  3
ACAD_XREC_ROUNDTRIP
360
36A
  0
DICTIONARY
  5
36B
330
2D
100
AcDbDictionary
280
     1
281
     1
  3
ACAD_XREC_ROUNDTRIP
360
36C
  0
DICTIONARY
  5
36D
330
2E
100
AcDbDictionary
280
     1
281
     1
  3
ACAD_XREC_ROUNDTRIP
360
36E
  0
DICTIONARY
  5
373
330
31
100
AcDbDictionary
280
     1
281
     1
  3
ACAD_XREC_ROUNDTRIP
360
374
  0
DICTIONARY
  5
387
330
3B
100
AcDbDictionary
280
     1
281
     1
  3
ACAD_XREC_ROUNDTRIP
360
388
  0
DICTIONARY
  5
381
330
38
100
AcDbDictionary
280
     1
281
     1
  3
ACAD_XREC_ROUNDTRIP
360
382
  0
DICTIONARY
  5
389
330
3C
100
AcDbDictionary
280
     1
281
     1
  3
ACAD_XREC_ROUNDTRIP
360
38A
  0
DICTIONARY
  5
377
330
33
100
AcDbDictionary
280
     1
281
     1
  3
ACAD_XREC_ROUNDTRIP
360
378
  0
DICTIONARY
  5
395
330
42
100
AcDbDictionary
280
     1
281
     1
  3
ACAD_XREC_ROUNDTRIP
360
396
  0
DICTIONARY
  5
393
330
41
100
AcDbDictionary
280
     1
281
     1
  3
ACAD_XREC_ROUNDTRIP
360
394
  0
DICTIONARY
  5
38D
330
3E
100
AcDbDictionary
280
     1
281
     1
  3
ACAD_XREC_ROUNDTRIP
360
38E
  0
DICTIONARY
  5
38F
330
3F
100
AcDbDictionary
280
     1
281
     1
  3
ACAD_XREC_ROUNDTRIP
360
390
  0
DICTIONARY
  5
37F
330
37
100
AcDbDictionary
280
     1
281
     1
  3
ACAD_XREC_ROUNDTRIP
360
380
  0
DICTIONARY
  5
371
330
30
100
AcDbDictionary
280
     1
281
     1
  3
ACAD_XREC_ROUNDTRIP
360
372
  0
DICTIONARY
  5
391
330
40
100
AcDbDictionary
280
     1
281
     1
  3
ACAD_XREC_ROUNDTRIP
360
392
  0
XRECORD
  5
39B
102
{ACAD_REACTORS
330
39A
102
}
330
39A
100
AcDbXrecord
280
     1
102
DISPLAYNAME
  1
Metric50
102
FLAGS
 90
        0
  0
XRECORD
  5
2EB
102
{ACAD_REACTORS
330
2EA
102
}
330
2EA
100
AcDbXrecord
280
     1
102
MATERIAL
148
0.0
149
0.0
149
0.0
 93
        0
 94
      127
282
     0
 72
     1
 77
     1
171
     1
175
     1
179
     1
273
     0
  0
XRECORD
  5
2E9
102
{ACAD_REACTORS
330
2E8
102
}
330
2E8
100
AcDbXrecord
280
     1
102
MATERIAL
148
0.0
149
0.0
149
0.0
 93
        0
 94
      127
282
     0
 72
     1
 77
     1
171
     1
175
     1
179
     1
273
     0
  0
XRECORD
  5
2ED
102
{ACAD_REACTORS
330
2EC
102
}
330
2EC
100
AcDbXrecord
280
     1
102
MATERIAL
148
0.0
149
0.0
149
0.0
 93
        0
 94
      127
282
     0
 72
     1
 77
     1
171
     1
175
     1
179
     1
273
     0
  0
XRECORD
  5
399
102
{ACAD_REACTORS
330
398
102
}
330
398
100
AcDbXrecord
280
     1
102
DISPLAYNAME
  1
Metric50
102
FLAGS
 90
        0
  0
CELLSTYLEMAP
  5
365
102
{ACAD_REACTORS
330
2EE
102
}
330
2EE
100
AcDbCellStyleMap
 90
        3
300
CELLSTYLE
  1
TABLEFORMAT_BEGIN
 90
        5
170
     1
 91
        0
 92
    32768
 62
   257
 93
        1
300
CONTENTFORMAT
  1
CONTENTFORMAT_BEGIN
 90
        0
 91
        0
 92
        4
 93
        0
300

 40
0.0
140
1.0
 94
        5
 62
     0
340
11
144
0.25
309
CONTENTFORMAT_END
171
     1
301
MARGIN
  1
CELLMARGIN_BEGIN
 40
0.06
 40
0.06
 40
0.06
 40
0.06
 40
0.18
 40
0.18
309
CELLMARGIN_END
 94
        6
 95
        1
302
GRIDFORMAT
  1
GRIDFORMAT_BEGIN
 90
        0
 91
        1
 62
     0
 92
       -2
340
14
 93
        0
 40
0.045
309
GRIDFORMAT_END
 95
        2
302
GRIDFORMAT
  1
GRIDFORMAT_BEGIN
 90
        0
 91
        1
 62
     0
 92
       -2
340
14
 93
        0
 40
0.045
309
GRIDFORMAT_END
 95
        4
302
GRIDFORMAT
  1
GRIDFORMAT_BEGIN
 90
        0
 91
        1
 62
     0
 92
       -2
340
14
 93
        0
 40
0.045
309
GRIDFORMAT_END
 95
        8
302
GRIDFORMAT
  1
GRIDFORMAT_BEGIN
 90
        0
 91
        1
 62
     0
 92
       -2
340
14
 93
        0
 40
0.045
309
GRIDFORMAT_END
 95
       16
302
GRIDFORMAT
  1
GRIDFORMAT_BEGIN
 90
        0
 91
        1
 62
     0
 92
       -2
340
14
 93
        0
 40
0.045
309
GRIDFORMAT_END
 95
       32
302
GRIDFORMAT
  1
GRIDFORMAT_BEGIN
 90
        0
 91
        1
 62
     0
 92
       -2
340
14
 93
        0
 40
0.045
309
GRIDFORMAT_END
309
TABLEFORMAT_END
  1
CELLSTYLE_BEGIN
 90
        1
 91
        1
300
_TITLE
309
CELLSTYLE_END
300
CELLSTYLE
  1
TABLEFORMAT_BEGIN
 90
        5
170
     1
 91
        0
 92
        0
 62
   257
 93
        1
300
CONTENTFORMAT
  1
CONTENTFORMAT_BEGIN
 90
        0
 91
        0
 92
        4
 93
        0
300

 40
0.0
140
1.0
 94
        5
 62
     0
340
11
144
0.18
309
CONTENTFORMAT_END
171
     1
301
MARGIN
  1
CELLMARGIN_BEGIN
 40
0.06
 40
0.06
 40
0.06
 40
0.06
 40
0.18
 40
0.18
309
CELLMARGIN_END
 94
        6
 95
        1
302
GRIDFORMAT
  1
GRIDFORMAT_BEGIN
 90
        0
 91
        1
 62
     0
 92
       -2
340
14
 93
        0
 40
0.045
309
GRIDFORMAT_END
 95
        2
302
GRIDFORMAT
  1
GRIDFORMAT_BEGIN
 90
        0
 91
        1
 62
     0
 92
       -2
340
14
 93
        0
 40
0.045
309
GRIDFORMAT_END
 95
        4
302
GRIDFORMAT
  1
GRIDFORMAT_BEGIN
 90
        0
 91
        1
 62
     0
 92
       -2
340
14
 93
        0
 40
0.045
309
GRIDFORMAT_END
 95
        8
302
GRIDFORMAT
  1
GRIDFORMAT_BEGIN
 90
        0
 91
        1
 62
     0
 92
       -2
340
14
 93
        0
 40
0.045
309
GRIDFORMAT_END
 95
       16
302
GRIDFORMAT
  1
GRIDFORMAT_BEGIN
 90
        0
 91
        1
 62
     0
 92
       -2
340
14
 93
        0
 40
0.045
309
GRIDFORMAT_END
 95
       32
302
GRIDFORMAT
  1
GRIDFORMAT_BEGIN
 90
        0
 91
        1
 62
     0
 92
       -2
340
14
 93
        0
 40
0.045
309
GRIDFORMAT_END
309
TABLEFORMAT_END
  1
CELLSTYLE_BEGIN
 90
        2
 91
        1
300
_HEADER
309
CELLSTYLE_END
300
CELLSTYLE
  1
TABLEFORMAT_BEGIN
 90
        5
170
     1
 91
        0
 92
        0
 62
   257
 93
        1
300
CONTENTFORMAT
  1
CONTENTFORMAT_BEGIN
 90
        0
 91
        0
 92
        4
 93
        0
300

 40
0.0
140
1.0
 94
        2
 62
     0
340
11
144
0.18
309
CONTENTFORMAT_END
171
     1
301
MARGIN
  1
CELLMARGIN_BEGIN
 40
0.06
 40
0.06
 40
0.06
 40
0.06
 40
0.18
 40
0.18
309
CELLMARGIN_END
 94
        6
 95
        1
302
GRIDFORMAT
  1
GRIDFORMAT_BEGIN
 90
        0
 91
        1
 62
     0
 92
       -2
340
14
 93
        0
 40
0.045
309
GRIDFORMAT_END
 95
        2
302
GRIDFORMAT
  1
GRIDFORMAT_BEGIN
 90
        0
 91
        1
 62
     0
 92
       -2
340
14
 93
        0
 40
0.045
309
GRIDFORMAT_END
 95
        4
302
GRIDFORMAT
  1
GRIDFORMAT_BEGIN
 90
        0
 91
        1
 62
     0
 92
       -2
340
14
 93
        0
 40
0.045
309
GRIDFORMAT_END
 95
        8
302
GRIDFORMAT
  1
GRIDFORMAT_BEGIN
 90
        0
 91
        1
 62
     0
 92
       -2
340
14
 93
        0
 40
0.045
309
GRIDFORMAT_END
 95
       16
302
GRIDFORMAT
  1
GRIDFORMAT_BEGIN
 90
        0
 91
        1
 62
     0
 92
       -2
340
14
 93
        0
 40
0.045
309
GRIDFORMAT_END
 95
       32
302
GRIDFORMAT
  1
GRIDFORMAT_BEGIN
 90
        0
 91
        1
 62
     0
 92
       -2
340
14
 93
        0
 40
0.045
309
GRIDFORMAT_END
309
TABLEFORMAT_END
  1
CELLSTYLE_BEGIN
 90
        3
 91
        2
300
_DATA
309
CELLSTYLE_END
  0
XRECORD
  5
397
102
{ACAD_REACTORS
330
2EE
102
}
330
2EE
100
AcDbXrecord
280
     1
102
ACAD_ROUNDTRIP_PRE2007_TABLESTYLE
 90
        4
 91
        0
  1

 92
        4
 93
        0
  2

 94
        4
 95
        0
  3

  0
XRECORD
  5
370
102
{ACAD_REACTORS
330
36F
102
}
330
36F
100
AcDbXrecord
280
     1
102
RTVSPost2010Prop28
280
     1
102
RTVSPost2010PropOp28
 70
     1
102
RTVSPost2010Prop29
280
     1
102
RTVSPost2010PropOp29
 70
     1
102
RTVSPost2010Prop30
280
     0
102
RTVSPost2010PropOp30
 70
     1
102
RTVSPost2010Prop31
280
     0
102
RTVSPost2010PropOp31
 70
     1
102
RTVSPost2010Prop32
280
     0
102
RTVSPost2010PropOp32
 70
     1
102
RTVSPost2010Prop33
280
     0
102
RTVSPost2010PropOp33
 70
     1
102
RTVSPost2010Prop34
280
     0
102
RTVSPost2010PropOp34
 70
     1
102
RTVSPost2010Prop35
280
     0
102
RTVSPost2010PropOp35
 70
     1
102
RTVSPost2010Prop36
280
     0
102
RTVSPost2010PropOp36
 70
     1
102
RTVSPost2010Prop37
 90
       50
102
RTVSPost2010PropOp37
 70
     1
102
RTVSPost2010Prop38
140
0.0
102
RTVSPost2010PropOp38
 70
     1
102
RTVSPost2010Prop39
140
1.0
102
RTVSPost2010PropOp39
 70
     1
102
RTVSPost2010Prop40
 90
        0
102
RTVSPost2010PropOp40
 70
     1
102
RTVSPost2010Prop41ColorIndex
 90
       18
102
RTVSPost2010Prop41ColorRGB
 90
        0
102
RTVSPost2010PropOp41
 70
     1
102
RTVSPost2010Prop42
 90
       50
102
RTVSPost2010PropOp42
 70
     1
102
RTVSPost2010Prop43
 90
        3
102
RTVSPost2010PropOp43
 70
     1
102
RTVSPost2010Prop44ColorIndex
 90
        5
102
RTVSPost2010Prop44ColorRGB
 90
      255
102
RTVSPost2010PropOp44
 70
     1
102
RTVSPost2010Prop45
280
     0
102
RTVSPost2010PropOp45
 70
     1
102
RTVSPost2010Prop46
 90
       50
102
RTVSPost2010PropOp46
 70
     1
102
RTVSPost2010Prop47
 90
       50
102
RTVSPost2010PropOp47
 70
     1
102
RTVSPost2010Prop48
 90
       50
102
RTVSPost2010PropOp48
 70
     1
102
RTVSPost2010Prop49
280
     0
102
RTVSPost2010PropOp49
 70
     1
102
RTVSPost2010Prop50
 90
       50
102
RTVSPost2010PropOp50
 70
     1
102
RTVSPost2010Prop51ColorIndex
 90
      256
102
RTVSPost2010Prop51ColorRGB
 90
-16777216
102
RTVSPost2010PropOp51
 70
     0
102
RTVSPost2010Prop52
140
1.0
102
RTVSPost2010PropOp52
 70
     0
102
RTVSPost2010Prop53
 90
        2
102
RTVSPost2010PropOp53
 70
     1
102
RTVSPost2010Prop54
  1
strokes_ogs.tif
102
RTVSPost2010PropOp54
 70
     1
102
RTVSPost2010Prop55
280
     0
102
RTVSPost2010PropOp55
 70
     1
102
RTVSPost2010Prop56
140
1.0
102
RTVSPost2010PropOp56
 70
     1
102
RTVSPost2010Prop57
140
1.0
102
RTVSPost2010PropOp57
 70
     1
102
RTVSPropertyOp0
 70
     1
102
RTVSPropertyOp1
 70
     1
102
RTVSPropertyOp2
 70
     1
102
RTVSPropertyOp3
 70
     1
102
RTVSPropertyOp4
 70
     1
102
RTVSPropertyOp5
 70
     1
102
RTVSPropertyOp6
 70
     1
102
RTVSPropertyOp7
 70
     1
102
RTVSPropertyOp8
 70
     1
102
RTVSPropertyOp9
 70
     1
102
RTVSPropertyOp10
 70
     1
102
RTVSPropertyOp11
 70
     1
102
RTVSPropertyOp12
 70
     1
102
RTVSPropertyOp13
 70
     1
102
RTVSPropertyOp14
 70
     1
102
RTVSPropertyOp15
 70
     1
102
RTVSPropertyOp16
 70
     1
102
RTVSPropertyOp17
 70
     1
102
RTVSPropertyOp18
 70
     1
102
RTVSPropertyOp19
 70
     1
102
RTVSPropertyOp20
 70
     1
102
RTVSPropertyOp21
 70
     1
102
RTVSPropertyOp22
 70
     1
102
RTVSPropertyOp23
 70
     1
102
RTVSPropertyOp24
 70
     1
102
RTVSPropertyOp25
 70
     1
102
RTVSPropertyOp26
 70
     1
102
RTVSPropertyOp27
 70
     1
102
RTVSPropertyOp28
 70
     1
102
RTVSPropertyOp29
 70
     1
102
RTVSPropertyOp30
 70
     1
102
RTVSPropertyOp31
 70
     1
102
RTVSPropertyOp32
 70
     1
102
RTVSPropertyOp33
 70
     1
102
RTVSPropertyOp34
 70
     1
102
RTVSPropertyOp35
 70
     1
102
RTVSPropertyOp36
 70
     1
102
RTVSPropertyOp37
 70
     1
102
RTVSPropertyOp38
 70
     1
102
RTVSPropertyOp39
 70
     1
102
RTVSPropertyOp40
 70
     1
102
RTVSPropertyOp41
 70
     1
102
RTVSPropertyOp42
 70
     1
102
RTVSPropertyOp43
 70
     1
102
RTVSPropertyOp44
 70
     1
102
RTVSPropertyOp45
 70
     1
102
RTVSPropertyOp46
 70
     1
102
RTVSPropertyOp47
 70
     1
102
RTVSPropertyOp48
 70
     1
102
RTVSPropertyOp49
 70
     1
102
RTVSPropertyOp50
 70
     1
102
RTVSPropertyOp51
 70
     0
102
RTVSPropertyOp52
 70
     0
102
RTVSPropertyOp53
 70
     1
102
RTVSPropertyOp54
 70
     1
102
RTVSPropertyOp55
 70
     1
102
RTVSPropertyOp56
 70
     1
102
RTVSPropertyOp57
 70
     1
102
RTVSPropertyOp58
 70
     1
102
RTVSPropertyOp59
 70
     1
102
RTVSPropertyOp60
 70
     1
102
RTVSPropertyOp61
 70
     1
102
RTVSPropertyOp62
 70
     1
  0
XRECORD
  5
376
102
{ACAD_REACTORS
330
375
102
}
330
375
100
AcDbXrecord
280
     1
102
RTVSPost2010Prop28
280
     0
102
RTVSPost2010PropOp28
 70
     1
102
RTVSPost2010Prop29
280
     1
102
RTVSPost2010PropOp29
 70
     1
102
RTVSPost2010Prop30
280
     1
102
RTVSPost2010PropOp30
 70
     1
102
RTVSPost2010Prop31
280
     0
102
RTVSPost2010PropOp31
 70
     1
102
RTVSPost2010Prop32
280
     0
102
RTVSPost2010PropOp32
 70
     1
102
RTVSPost2010Prop33
280
     0
102
RTVSPost2010PropOp33
 70
     1
102
RTVSPost2010Prop34
280
     0
102
RTVSPost2010PropOp34
 70
     1
102
RTVSPost2010Prop35
280
     0
102
RTVSPost2010PropOp35
 70
     1
102
RTVSPost2010Prop36
280
     0
102
RTVSPost2010PropOp36
 70
     1
102
RTVSPost2010Prop37
 90
       50
102
RTVSPost2010PropOp37
 70
     1
102
RTVSPost2010Prop38
140
0.0
102
RTVSPost2010PropOp38
 70
     1
102
RTVSPost2010Prop39
140
1.0
102
RTVSPost2010PropOp39
 70
     1
102
RTVSPost2010Prop40
 90
        0
102
RTVSPost2010PropOp40
 70
     1
102
RTVSPost2010Prop41ColorIndex
 90
       18
102
RTVSPost2010Prop41ColorRGB
 90
        0
102
RTVSPost2010PropOp41
 70
     1
102
RTVSPost2010Prop42
 90
       50
102
RTVSPost2010PropOp42
 70
     1
102
RTVSPost2010Prop43
 90
        3
102
RTVSPost2010PropOp43
 70
     1
102
RTVSPost2010Prop44ColorIndex
 90
        5
102
RTVSPost2010Prop44ColorRGB
 90
      255
102
RTVSPost2010PropOp44
 70
     1
102
RTVSPost2010Prop45
280
     0
102
RTVSPost2010PropOp45
 70
     1
102
RTVSPost2010Prop46
 90
       50
102
RTVSPost2010PropOp46
 70
     1
102
RTVSPost2010Prop47
 90
       50
102
RTVSPost2010PropOp47
 70
     1
102
RTVSPost2010Prop48
 90
       50
102
RTVSPost2010PropOp48
 70
     1
102
RTVSPost2010Prop49
280
     0
102
RTVSPost2010PropOp49
 70
     1
102
RTVSPost2010Prop50
 90
       50
102
RTVSPost2010PropOp50
 70
     1
102
RTVSPost2010Prop51ColorIndex
 90
      256
102
RTVSPost2010Prop51ColorRGB
 90
-16777216
102
RTVSPost2010PropOp51
 70
     0
102
RTVSPost2010Prop52
140
1.0
102
RTVSPost2010PropOp52
 70
     0
102
RTVSPost2010Prop53
 90
        2
102
RTVSPost2010PropOp53
 70
     1
102
RTVSPost2010Prop54
  1
strokes_ogs.tif
102
RTVSPost2010PropOp54
 70
     1
102
RTVSPost2010Prop55
280
     0
102
RTVSPost2010PropOp55
 70
     1
102
RTVSPost2010Prop56
140
1.0
102
RTVSPost2010PropOp56
 70
     1
102
RTVSPost2010Prop57
140
1.0
102
RTVSPost2010PropOp57
 70
     1
102
RTVSPropertyOp0
 70
     1
102
RTVSPropertyOp1
 70
     1
102
RTVSPropertyOp2
 70
     1
102
RTVSPropertyOp3
 70
     1
102
RTVSPropertyOp4
 70
     1
102
RTVSPropertyOp5
 70
     1
102
RTVSPropertyOp6
 70
     1
102
RTVSPropertyOp7
 70
     1
102
RTVSPropertyOp8
 70
     1
102
RTVSPropertyOp9
 70
     1
102
RTVSPropertyOp10
 70
     1
102
RTVSPropertyOp11
 70
     1
102
RTVSPropertyOp12
 70
     1
102
RTVSPropertyOp13
 70
     1
102
RTVSPropertyOp14
 70
     1
102
RTVSPropertyOp15
 70
     1
102
RTVSPropertyOp16
 70
     1
102
RTVSPropertyOp17
 70
     1
102
RTVSPropertyOp18
 70
     1
102
RTVSPropertyOp19
 70
     1
102
RTVSPropertyOp20
 70
     1
102
RTVSPropertyOp21
 70
     1
102
RTVSPropertyOp22
 70
     1
102
RTVSPropertyOp23
 70
     1
102
RTVSPropertyOp24
 70
     1
102
RTVSPropertyOp25
 70
     1
102
RTVSPropertyOp26
 70
     1
102
RTVSPropertyOp27
 70
     1
102
RTVSPropertyOp28
 70
     1
102
RTVSPropertyOp29
 70
     1
102
RTVSPropertyOp30
 70
     1
102
RTVSPropertyOp31
 70
     1
102
RTVSPropertyOp32
 70
     1
102
RTVSPropertyOp33
 70
     1
102
RTVSPropertyOp34
 70
     1
102
RTVSPropertyOp35
 70
     1
102
RTVSPropertyOp36
 70
     1
102
RTVSPropertyOp37
 70
     1
102
RTVSPropertyOp38
 70
     1
102
RTVSPropertyOp39
 70
     1
102
RTVSPropertyOp40
 70
     1
102
RTVSPropertyOp41
 70
     1
102
RTVSPropertyOp42
 70
     1
102
RTVSPropertyOp43
 70
     1
102
RTVSPropertyOp44
 70
     1
102
RTVSPropertyOp45
 70
     1
102
RTVSPropertyOp46
 70
     1
102
RTVSPropertyOp47
 70
     1
102
RTVSPropertyOp48
 70
     1
102
RTVSPropertyOp49
 70
     1
102
RTVSPropertyOp50
 70
     1
102
RTVSPropertyOp51
 70
     0
102
RTVSPropertyOp52
 70
     0
102
RTVSPropertyOp53
 70
     1
102
RTVSPropertyOp54
 70
     1
102
RTVSPropertyOp55
 70
     1
102
RTVSPropertyOp56
 70
     1
102
RTVSPropertyOp57
 70
     1
102
RTVSPropertyOp58
 70
     1
102
RTVSPropertyOp59
 70
     1
102
RTVSPropertyOp60
 70
     1
102
RTVSPropertyOp61
 70
     1
102
RTVSPropertyOp62
 70
     1
  0
XRECORD
  5
37E
102
{ACAD_REACTORS
330
37D
102
}
330
37D
100
AcDbXrecord
280
     1
102
RTVSPost2010Prop28
280
     0
102
RTVSPost2010PropOp28
 70
     1
102
RTVSPost2010Prop29
280
     1
102
RTVSPost2010PropOp29
 70
     1
102
RTVSPost2010Prop30
280
     1
102
RTVSPost2010PropOp30
 70
     1
102
RTVSPost2010Prop31
280
     0
102
RTVSPost2010PropOp31
 70
     1
102
RTVSPost2010Prop32
280
     0
102
RTVSPost2010PropOp32
 70
     1
102
RTVSPost2010Prop33
280
     0
102
RTVSPost2010PropOp33
 70
     1
102
RTVSPost2010Prop34
280
     0
102
RTVSPost2010PropOp34
 70
     1
102
RTVSPost2010Prop35
280
     0
102
RTVSPost2010PropOp35
 70
     1
102
RTVSPost2010Prop36
280
     0
102
RTVSPost2010PropOp36
 70
     1
102
RTVSPost2010Prop37
 90
       50
102
RTVSPost2010PropOp37
 70
     1
102
RTVSPost2010Prop38
140
0.0
102
RTVSPost2010PropOp38
 70
     1
102
RTVSPost2010Prop39
140
1.0
102
RTVSPost2010PropOp39
 70
     1
102
RTVSPost2010Prop40
 90
        0
102
RTVSPost2010PropOp40
 70
     1
102
RTVSPost2010Prop41ColorIndex
 90
       18
102
RTVSPost2010Prop41ColorRGB
 90
        0
102
RTVSPost2010PropOp41
 70
     1
102
RTVSPost2010Prop42
 90
       50
102
RTVSPost2010PropOp42
 70
     1
102
RTVSPost2010Prop43
 90
        3
102
RTVSPost2010PropOp43
 70
     1
102
RTVSPost2010Prop44ColorIndex
 90
        5
102
RTVSPost2010Prop44ColorRGB
 90
      255
102
RTVSPost2010PropOp44
 70
     1
102
RTVSPost2010Prop45
280
     0
102
RTVSPost2010PropOp45
 70
     1
102
RTVSPost2010Prop46
 90
       50
102
RTVSPost2010PropOp46
 70
     1
102
RTVSPost2010Prop47
 90
       50
102
RTVSPost2010PropOp47
 70
     1
102
RTVSPost2010Prop48
 90
       50
102
RTVSPost2010PropOp48
 70
     1
102
RTVSPost2010Prop49
280
     0
102
RTVSPost2010PropOp49
 70
     1
102
RTVSPost2010Prop50
 90
       50
102
RTVSPost2010PropOp50
 70
     1
102
RTVSPost2010Prop51ColorIndex
 90
      256
102
RTVSPost2010Prop51ColorRGB
 90
-16777216
102
RTVSPost2010PropOp51
 70
     0
102
RTVSPost2010Prop52
140
1.0
102
RTVSPost2010PropOp52
 70
     0
102
RTVSPost2010Prop53
 90
        2
102
RTVSPost2010PropOp53
 70
     1
102
RTVSPost2010Prop54
  1
strokes_ogs.tif
102
RTVSPost2010PropOp54
 70
     1
102
RTVSPost2010Prop55
280
     0
102
RTVSPost2010PropOp55
 70
     1
102
RTVSPost2010Prop56
140
1.0
102
RTVSPost2010PropOp56
 70
     1
102
RTVSPost2010Prop57
140
1.0
102
RTVSPost2010PropOp57
 70
     1
102
RTVSPropertyOp0
 70
     1
102
RTVSPropertyOp1
 70
     1
102
RTVSPropertyOp2
 70
     1
102
RTVSPropertyOp3
 70
     1
102
RTVSPropertyOp4
 70
     1
102
RTVSPropertyOp5
 70
     1
102
RTVSPropertyOp6
 70
     1
102
RTVSPropertyOp7
 70
     1
102
RTVSPropertyOp8
 70
     1
102
RTVSPropertyOp9
 70
     1
102
RTVSPropertyOp10
 70
     1
102
RTVSPropertyOp11
 70
     1
102
RTVSPropertyOp12
 70
     1
102
RTVSPropertyOp13
 70
     1
102
RTVSPropertyOp14
 70
     1
102
RTVSPropertyOp15
 70
     1
102
RTVSPropertyOp16
 70
     1
102
RTVSPropertyOp17
 70
     1
102
RTVSPropertyOp18
 70
     1
102
RTVSPropertyOp19
 70
     1
102
RTVSPropertyOp20
 70
     1
102
RTVSPropertyOp21
 70
     1
102
RTVSPropertyOp22
 70
     1
102
RTVSPropertyOp23
 70
     1
102
RTVSPropertyOp24
 70
     1
102
RTVSPropertyOp25
 70
     1
102
RTVSPropertyOp26
 70
     1
102
RTVSPropertyOp27
 70
     1
102
RTVSPropertyOp28
 70
     1
102
RTVSPropertyOp29
 70
     1
102
RTVSPropertyOp30
 70
     1
102
RTVSPropertyOp31
 70
     1
102
RTVSPropertyOp32
 70
     1
102
RTVSPropertyOp33
 70
     1
102
RTVSPropertyOp34
 70
     1
102
RTVSPropertyOp35
 70
     1
102
RTVSPropertyOp36
 70
     1
102
RTVSPropertyOp37
 70
     1
102
RTVSPropertyOp38
 70
     1
102
RTVSPropertyOp39
 70
     1
102
RTVSPropertyOp40
 70
     1
102
RTVSPropertyOp41
 70
     1
102
RTVSPropertyOp42
 70
     1
102
RTVSPropertyOp43
 70
     1
102
RTVSPropertyOp44
 70
     1
102
RTVSPropertyOp45
 70
     1
102
RTVSPropertyOp46
 70
     1
102
RTVSPropertyOp47
 70
     1
102
RTVSPropertyOp48
 70
     1
102
RTVSPropertyOp49
 70
     1
102
RTVSPropertyOp50
 70
     1
102
RTVSPropertyOp51
 70
     0
102
RTVSPropertyOp52
 70
     0
102
RTVSPropertyOp53
 70
     1
102
RTVSPropertyOp54
 70
     1
102
RTVSPropertyOp55
 70
     1
102
RTVSPropertyOp56
 70
     1
102
RTVSPropertyOp57
 70
     1
102
RTVSPropertyOp58
 70
     1
102
RTVSPropertyOp59
 70
     1
102
RTVSPropertyOp60
 70
     1
102
RTVSPropertyOp61
 70
     1
102
RTVSPropertyOp62
 70
     1
  0
XRECORD
  5
386
102
{ACAD_REACTORS
330
385
102
}
330
385
100
AcDbXrecord
280
     1
102
RTVSPost2010Prop28
280
     0
102
RTVSPost2010PropOp28
 70
     1
102
RTVSPost2010Prop29
280
     1
102
RTVSPost2010PropOp29
 70
     1
102
RTVSPost2010Prop30
280
     1
102
RTVSPost2010PropOp30
 70
     1
102
RTVSPost2010Prop31
280
     0
102
RTVSPost2010PropOp31
 70
     1
102
RTVSPost2010Prop32
280
     0
102
RTVSPost2010PropOp32
 70
     1
102
RTVSPost2010Prop33
280
     0
102
RTVSPost2010PropOp33
 70
     1
102
RTVSPost2010Prop34
280
     0
102
RTVSPost2010PropOp34
 70
     1
102
RTVSPost2010Prop35
280
     0
102
RTVSPost2010PropOp35
 70
     1
102
RTVSPost2010Prop36
280
     0
102
RTVSPost2010PropOp36
 70
     1
102
RTVSPost2010Prop37
 90
       50
102
RTVSPost2010PropOp37
 70
     1
102
RTVSPost2010Prop38
140
0.0
102
RTVSPost2010PropOp38
 70
     1
102
RTVSPost2010Prop39
140
1.0
102
RTVSPost2010PropOp39
 70
     1
102
RTVSPost2010Prop40
 90
        0
102
RTVSPost2010PropOp40
 70
     1
102
RTVSPost2010Prop41ColorIndex
 90
       18
102
RTVSPost2010Prop41ColorRGB
 90
        0
102
RTVSPost2010PropOp41
 70
     1
102
RTVSPost2010Prop42
 90
       50
102
RTVSPost2010PropOp42
 70
     1
102
RTVSPost2010Prop43
 90
        3
102
RTVSPost2010PropOp43
 70
     1
102
RTVSPost2010Prop44ColorIndex
 90
        5
102
RTVSPost2010Prop44ColorRGB
 90
      255
102
RTVSPost2010PropOp44
 70
     1
102
RTVSPost2010Prop45
280
     0
102
RTVSPost2010PropOp45
 70
     1
102
RTVSPost2010Prop46
 90
       50
102
RTVSPost2010PropOp46
 70
     1
102
RTVSPost2010Prop47
 90
       50
102
RTVSPost2010PropOp47
 70
     1
102
RTVSPost2010Prop48
 90
       50
102
RTVSPost2010PropOp48
 70
     1
102
RTVSPost2010Prop49
280
     0
102
RTVSPost2010PropOp49
 70
     1
102
RTVSPost2010Prop50
 90
       50
102
RTVSPost2010PropOp50
 70
     1
102
RTVSPost2010Prop51ColorIndex
 90
      256
102
RTVSPost2010Prop51ColorRGB
 90
-16777216
102
RTVSPost2010PropOp51
 70
     0
102
RTVSPost2010Prop52
140
1.0
102
RTVSPost2010PropOp52
 70
     0
102
RTVSPost2010Prop53
 90
        2
102
RTVSPost2010PropOp53
 70
     1
102
RTVSPost2010Prop54
  1
strokes_ogs.tif
102
RTVSPost2010PropOp54
 70
     1
102
RTVSPost2010Prop55
280
     0
102
RTVSPost2010PropOp55
 70
     1
102
RTVSPost2010Prop56
140
1.0
102
RTVSPost2010PropOp56
 70
     1
102
RTVSPost2010Prop57
140
1.0
102
RTVSPost2010PropOp57
 70
     1
102
RTVSPropertyOp0
 70
     1
102
RTVSPropertyOp1
 70
     1
102
RTVSPropertyOp2
 70
     1
102
RTVSPropertyOp3
 70
     1
102
RTVSPropertyOp4
 70
     1
102
RTVSPropertyOp5
 70
     1
102
RTVSPropertyOp6
 70
     1
102
RTVSPropertyOp7
 70
     1
102
RTVSPropertyOp8
 70
     1
102
RTVSPropertyOp9
 70
     1
102
RTVSPropertyOp10
 70
     1
102
RTVSPropertyOp11
 70
     1
102
RTVSPropertyOp12
 70
     1
102
RTVSPropertyOp13
 70
     1
102
RTVSPropertyOp14
 70
     1
102
RTVSPropertyOp15
 70
     1
102
RTVSPropertyOp16
 70
     1
102
RTVSPropertyOp17
 70
     1
102
RTVSPropertyOp18
 70
     1
102
RTVSPropertyOp19
 70
     1
102
RTVSPropertyOp20
 70
     1
102
RTVSPropertyOp21
 70
     1
102
RTVSPropertyOp22
 70
     1
102
RTVSPropertyOp23
 70
     1
102
RTVSPropertyOp24
 70
     1
102
RTVSPropertyOp25
 70
     1
102
RTVSPropertyOp26
 70
     1
102
RTVSPropertyOp27
 70
     1
102
RTVSPropertyOp28
 70
     1
102
RTVSPropertyOp29
 70
     1
102
RTVSPropertyOp30
 70
     1
102
RTVSPropertyOp31
 70
     1
102
RTVSPropertyOp32
 70
     1
102
RTVSPropertyOp33
 70
     1
102
RTVSPropertyOp34
 70
     1
102
RTVSPropertyOp35
 70
     1
102
RTVSPropertyOp36
 70
     1
102
RTVSPropertyOp37
 70
     1
102
RTVSPropertyOp38
 70
     1
102
RTVSPropertyOp39
 70
     1
102
RTVSPropertyOp40
 70
     1
102
RTVSPropertyOp41
 70
     1
102
RTVSPropertyOp42
 70
     1
102
RTVSPropertyOp43
 70
     1
102
RTVSPropertyOp44
 70
     1
102
RTVSPropertyOp45
 70
     1
102
RTVSPropertyOp46
 70
     1
102
RTVSPropertyOp47
 70
     1
102
RTVSPropertyOp48
 70
     1
102
RTVSPropertyOp49
 70
     1
102
RTVSPropertyOp50
 70
     1
102
RTVSPropertyOp51
 70
     0
102
RTVSPropertyOp52
 70
     0
102
RTVSPropertyOp53
 70
     1
102
RTVSPropertyOp54
 70
     1
102
RTVSPropertyOp55
 70
     1
102
RTVSPropertyOp56
 70
     1
102
RTVSPropertyOp57
 70
     1
102
RTVSPropertyOp58
 70
     1
102
RTVSPropertyOp59
 70
     1
102
RTVSPropertyOp60
 70
     1
102
RTVSPropertyOp61
 70
     1
102
RTVSPropertyOp62
 70
     1
  0
XRECORD
  5
37A
102
{ACAD_REACTORS
330
379
102
}
330
379
100
AcDbXrecord
280
     1
102
RTVSPost2010Prop28
280
     0
102
RTVSPost2010PropOp28
 70
     1
102
RTVSPost2010Prop29
280
     1
102
RTVSPost2010PropOp29
 70
     1
102
RTVSPost2010Prop30
280
     1
102
RTVSPost2010PropOp30
 70
     1
102
RTVSPost2010Prop31
280
     0
102
RTVSPost2010PropOp31
 70
     1
102
RTVSPost2010Prop32
280
     0
102
RTVSPost2010PropOp32
 70
     1
102
RTVSPost2010Prop33
280
     0
102
RTVSPost2010PropOp33
 70
     1
102
RTVSPost2010Prop34
280
     0
102
RTVSPost2010PropOp34
 70
     1
102
RTVSPost2010Prop35
280
     0
102
RTVSPost2010PropOp35
 70
     1
102
RTVSPost2010Prop36
280
     0
102
RTVSPost2010PropOp36
 70
     1
102
RTVSPost2010Prop37
 90
       50
102
RTVSPost2010PropOp37
 70
     1
102
RTVSPost2010Prop38
140
0.0
102
RTVSPost2010PropOp38
 70
     1
102
RTVSPost2010Prop39
140
1.0
102
RTVSPost2010PropOp39
 70
     1
102
RTVSPost2010Prop40
 90
        0
102
RTVSPost2010PropOp40
 70
     1
102
RTVSPost2010Prop41ColorIndex
 90
       18
102
RTVSPost2010Prop41ColorRGB
 90
        0
102
RTVSPost2010PropOp41
 70
     1
102
RTVSPost2010Prop42
 90
       50
102
RTVSPost2010PropOp42
 70
     1
102
RTVSPost2010Prop43
 90
        3
102
RTVSPost2010PropOp43
 70
     1
102
RTVSPost2010Prop44ColorIndex
 90
        5
102
RTVSPost2010Prop44ColorRGB
 90
      255
102
RTVSPost2010PropOp44
 70
     1
102
RTVSPost2010Prop45
280
     0
102
RTVSPost2010PropOp45
 70
     1
102
RTVSPost2010Prop46
 90
       50
102
RTVSPost2010PropOp46
 70
     1
102
RTVSPost2010Prop47
 90
       50
102
RTVSPost2010PropOp47
 70
     1
102
RTVSPost2010Prop48
 90
       50
102
RTVSPost2010PropOp48
 70
     1
102
RTVSPost2010Prop49
280
     0
102
RTVSPost2010PropOp49
 70
     1
102
RTVSPost2010Prop50
 90
       50
102
RTVSPost2010PropOp50
 70
     1
102
RTVSPost2010Prop51ColorIndex
 90
      256
102
RTVSPost2010Prop51ColorRGB
 90
-16777216
102
RTVSPost2010PropOp51
 70
     0
102
RTVSPost2010Prop52
140
1.0
102
RTVSPost2010PropOp52
 70
     0
102
RTVSPost2010Prop53
 90
        2
102
RTVSPost2010PropOp53
 70
     1
102
RTVSPost2010Prop54
  1
strokes_ogs.tif
102
RTVSPost2010PropOp54
 70
     1
102
RTVSPost2010Prop55
280
     0
102
RTVSPost2010PropOp55
 70
     1
102
RTVSPost2010Prop56
140
1.0
102
RTVSPost2010PropOp56
 70
     1
102
RTVSPost2010Prop57
140
1.0
102
RTVSPost2010PropOp57
 70
     1
102
RTVSPropertyOp0
 70
     1
102
RTVSPropertyOp1
 70
     1
102
RTVSPropertyOp2
 70
     1
102
RTVSPropertyOp3
 70
     1
102
RTVSPropertyOp4
 70
     1
102
RTVSPropertyOp5
 70
     1
102
RTVSPropertyOp6
 70
     1
102
RTVSPropertyOp7
 70
     1
102
RTVSPropertyOp8
 70
     1
102
RTVSPropertyOp9
 70
     1
102
RTVSPropertyOp10
 70
     1
102
RTVSPropertyOp11
 70
     1
102
RTVSPropertyOp12
 70
     1
102
RTVSPropertyOp13
 70
     1
102
RTVSPropertyOp14
 70
     1
102
RTVSPropertyOp15
 70
     1
102
RTVSPropertyOp16
 70
     1
102
RTVSPropertyOp17
 70
     1
102
RTVSPropertyOp18
 70
     1
102
RTVSPropertyOp19
 70
     1
102
RTVSPropertyOp20
 70
     1
102
RTVSPropertyOp21
 70
     1
102
RTVSPropertyOp22
 70
     1
102
RTVSPropertyOp23
 70
     1
102
RTVSPropertyOp24
 70
     1
102
RTVSPropertyOp25
 70
     1
102
RTVSPropertyOp26
 70
     1
102
RTVSPropertyOp27
 70
     1
102
RTVSPropertyOp28
 70
     1
102
RTVSPropertyOp29
 70
     1
102
RTVSPropertyOp30
 70
     1
102
RTVSPropertyOp31
 70
     1
102
RTVSPropertyOp32
 70
     1
102
RTVSPropertyOp33
 70
     1
102
RTVSPropertyOp34
 70
     1
102
RTVSPropertyOp35
 70
     1
102
RTVSPropertyOp36
 70
     1
102
RTVSPropertyOp37
 70
     1
102
RTVSPropertyOp38
 70
     1
102
RTVSPropertyOp39
 70
     1
102
RTVSPropertyOp40
 70
     1
102
RTVSPropertyOp41
 70
     1
102
RTVSPropertyOp42
 70
     1
102
RTVSPropertyOp43
 70
     1
102
RTVSPropertyOp44
 70
     1
102
RTVSPropertyOp45
 70
     1
102
RTVSPropertyOp46
 70
     1
102
RTVSPropertyOp47
 70
     1
102
RTVSPropertyOp48
 70
     1
102
RTVSPropertyOp49
 70
     1
102
RTVSPropertyOp50
 70
     1
102
RTVSPropertyOp51
 70
     0
102
RTVSPropertyOp52
 70
     0
102
RTVSPropertyOp53
 70
     1
102
RTVSPropertyOp54
 70
     1
102
RTVSPropertyOp55
 70
     1
102
RTVSPropertyOp56
 70
     1
102
RTVSPropertyOp57
 70
     1
102
RTVSPropertyOp58
 70
     1
102
RTVSPropertyOp59
 70
     1
102
RTVSPropertyOp60
 70
     1
102
RTVSPropertyOp61
 70
     1
102
RTVSPropertyOp62
 70
     1
  0
XRECORD
  5
37C
102
{ACAD_REACTORS
330
37B
102
}
330
37B
100
AcDbXrecord
280
     1
102
RTVSPost2010Prop28
280
     0
102
RTVSPost2010PropOp28
 70
     1
102
RTVSPost2010Prop29
280
     1
102
RTVSPost2010PropOp29
 70
     1
102
RTVSPost2010Prop30
280
     1
102
RTVSPost2010PropOp30
 70
     1
102
RTVSPost2010Prop31
280
     0
102
RTVSPost2010PropOp31
 70
     1
102
RTVSPost2010Prop32
280
     0
102
RTVSPost2010PropOp32
 70
     1
102
RTVSPost2010Prop33
280
     0
102
RTVSPost2010PropOp33
 70
     1
102
RTVSPost2010Prop34
280
     0
102
RTVSPost2010PropOp34
 70
     1
102
RTVSPost2010Prop35
280
     0
102
RTVSPost2010PropOp35
 70
     1
102
RTVSPost2010Prop36
280
     0
102
RTVSPost2010PropOp36
 70
     1
102
RTVSPost2010Prop37
 90
       50
102
RTVSPost2010PropOp37
 70
     1
102
RTVSPost2010Prop38
140
0.0
102
RTVSPost2010PropOp38
 70
     1
102
RTVSPost2010Prop39
140
1.0
102
RTVSPost2010PropOp39
 70
     1
102
RTVSPost2010Prop40
 90
        0
102
RTVSPost2010PropOp40
 70
     1
102
RTVSPost2010Prop41ColorIndex
 90
       18
102
RTVSPost2010Prop41ColorRGB
 90
        0
102
RTVSPost2010PropOp41
 70
     1
102
RTVSPost2010Prop42
 90
       50
102
RTVSPost2010PropOp42
 70
     1
102
RTVSPost2010Prop43
 90
        3
102
RTVSPost2010PropOp43
 70
     1
102
RTVSPost2010Prop44ColorIndex
 90
        5
102
RTVSPost2010Prop44ColorRGB
 90
      255
102
RTVSPost2010PropOp44
 70
     1
102
RTVSPost2010Prop45
280
     0
102
RTVSPost2010PropOp45
 70
     1
102
RTVSPost2010Prop46
 90
       50
102
RTVSPost2010PropOp46
 70
     1
102
RTVSPost2010Prop47
 90
       50
102
RTVSPost2010PropOp47
 70
     1
102
RTVSPost2010Prop48
 90
       50
102
RTVSPost2010PropOp48
 70
     1
102
RTVSPost2010Prop49
280
     0
102
RTVSPost2010PropOp49
 70
     1
102
RTVSPost2010Prop50
 90
       50
102
RTVSPost2010PropOp50
 70
     1
102
RTVSPost2010Prop51ColorIndex
 90
      256
102
RTVSPost2010Prop51ColorRGB
 90
-16777216
102
RTVSPost2010PropOp51
 70
     0
102
RTVSPost2010Prop52
140
1.0
102
RTVSPost2010PropOp52
 70
     0
102
RTVSPost2010Prop53
 90
        2
102
RTVSPost2010PropOp53
 70
     1
102
RTVSPost2010Prop54
  1
strokes_ogs.tif
102
RTVSPost2010PropOp54
 70
     1
102
RTVSPost2010Prop55
280
     0
102
RTVSPost2010PropOp55
 70
     1
102
RTVSPost2010Prop56
140
1.0
102
RTVSPost2010PropOp56
 70
     1
102
RTVSPost2010Prop57
140
1.0
102
RTVSPost2010PropOp57
 70
     1
102
RTVSPropertyOp0
 70
     1
102
RTVSPropertyOp1
 70
     1
102
RTVSPropertyOp2
 70
     1
102
RTVSPropertyOp3
 70
     1
102
RTVSPropertyOp4
 70
     1
102
RTVSPropertyOp5
 70
     1
102
RTVSPropertyOp6
 70
     1
102
RTVSPropertyOp7
 70
     1
102
RTVSPropertyOp8
 70
     1
102
RTVSPropertyOp9
 70
     1
102
RTVSPropertyOp10
 70
     1
102
RTVSPropertyOp11
 70
     1
102
RTVSPropertyOp12
 70
     1
102
RTVSPropertyOp13
 70
     1
102
RTVSPropertyOp14
 70
     1
102
RTVSPropertyOp15
 70
     1
102
RTVSPropertyOp16
 70
     1
102
RTVSPropertyOp17
 70
     1
102
RTVSPropertyOp18
 70
     1
102
RTVSPropertyOp19
 70
     1
102
RTVSPropertyOp20
 70
     1
102
RTVSPropertyOp21
 70
     1
102
RTVSPropertyOp22
 70
     1
102
RTVSPropertyOp23
 70
     1
102
RTVSPropertyOp24
 70
     1
102
RTVSPropertyOp25
 70
     1
102
RTVSPropertyOp26
 70
     1
102
RTVSPropertyOp27
 70
     1
102
RTVSPropertyOp28
 70
     1
102
RTVSPropertyOp29
 70
     1
102
RTVSPropertyOp30
 70
     1
102
RTVSPropertyOp31
 70
     1
102
RTVSPropertyOp32
 70
     1
102
RTVSPropertyOp33
 70
     1
102
RTVSPropertyOp34
 70
     1
102
RTVSPropertyOp35
 70
     1
102
RTVSPropertyOp36
 70
     1
102
RTVSPropertyOp37
 70
     1
102
RTVSPropertyOp38
 70
     1
102
RTVSPropertyOp39
 70
     1
102
RTVSPropertyOp40
 70
     1
102
RTVSPropertyOp41
 70
     1
102
RTVSPropertyOp42
 70
     1
102
RTVSPropertyOp43
 70
     1
102
RTVSPropertyOp44
 70
     1
102
RTVSPropertyOp45
 70
     1
102
RTVSPropertyOp46
 70
     1
102
RTVSPropertyOp47
 70
     1
102
RTVSPropertyOp48
 70
     1
102
RTVSPropertyOp49
 70
     1
102
RTVSPropertyOp50
 70
     1
102
RTVSPropertyOp51
 70
     0
102
RTVSPropertyOp52
 70
     0
102
RTVSPropertyOp53
 70
     1
102
RTVSPropertyOp54
 70
     1
102
RTVSPropertyOp55
 70
     1
102
RTVSPropertyOp56
 70
     1
102
RTVSPropertyOp57
 70
     1
102
RTVSPropertyOp58
 70
     1
102
RTVSPropertyOp59
 70
     1
102
RTVSPropertyOp60
 70
     1
102
RTVSPropertyOp61
 70
     1
102
RTVSPropertyOp62
 70
     1
  0
XRECORD
  5
38C
102
{ACAD_REACTORS
330
38B
102
}
330
38B
100
AcDbXrecord
280
     1
102
RTVSPost2010Prop28
280
     0
102
RTVSPost2010PropOp28
 70
     0
102
RTVSPost2010Prop29
280
     1
102
RTVSPost2010PropOp29
 70
     0
102
RTVSPost2010Prop30
280
     1
102
RTVSPost2010PropOp30
 70
     0
102
RTVSPost2010Prop31
280
     0
102
RTVSPost2010PropOp31
 70
     0
102
RTVSPost2010Prop32
280
     0
102
RTVSPost2010PropOp32
 70
     0
102
RTVSPost2010Prop33
280
     0
102
RTVSPost2010PropOp33
 70
     0
102
RTVSPost2010Prop34
280
     0
102
RTVSPost2010PropOp34
 70
     0
102
RTVSPost2010Prop35
280
     0
102
RTVSPost2010PropOp35
 70
     0
102
RTVSPost2010Prop36
280
     0
102
RTVSPost2010PropOp36
 70
     0
102
RTVSPost2010Prop37
 90
       50
102
RTVSPost2010PropOp37
 70
     0
102
RTVSPost2010Prop38
140
0.0
102
RTVSPost2010PropOp38
 70
     0
102
RTVSPost2010Prop39
140
1.0
102
RTVSPost2010PropOp39
 70
     0
102
RTVSPost2010Prop40
 90
        0
102
RTVSPost2010PropOp40
 70
     0
102
RTVSPost2010Prop41ColorIndex
 90
       18
102
RTVSPost2010Prop41ColorRGB
 90
        0
102
RTVSPost2010PropOp41
 70
     0
102
RTVSPost2010Prop42
 90
       50
102
RTVSPost2010PropOp42
 70
     0
102
RTVSPost2010Prop43
 90
        3
102
RTVSPost2010PropOp43
 70
     0
102
RTVSPost2010Prop44ColorIndex
 90
        5
102
RTVSPost2010Prop44ColorRGB
 90
      255
102
RTVSPost2010PropOp44
 70
     0
102
RTVSPost2010Prop45
280
     0
102
RTVSPost2010PropOp45
 70
     0
102
RTVSPost2010Prop46
 90
       50
102
RTVSPost2010PropOp46
 70
     0
102
RTVSPost2010Prop47
 90
       50
102
RTVSPost2010PropOp47
 70
     0
102
RTVSPost2010Prop48
 90
       50
102
RTVSPost2010PropOp48
 70
     0
102
RTVSPost2010Prop49
280
     0
102
RTVSPost2010PropOp49
 70
     0
102
RTVSPost2010Prop50
 90
       50
102
RTVSPost2010PropOp50
 70
     0
102
RTVSPost2010Prop51ColorIndex
 90
      256
102
RTVSPost2010Prop51ColorRGB
 90
-16777216
102
RTVSPost2010PropOp51
 70
     0
102
RTVSPost2010Prop52
140
1.0
102
RTVSPost2010PropOp52
 70
     0
102
RTVSPost2010Prop53
 90
        2
102
RTVSPost2010PropOp53
 70
     0
102
RTVSPost2010Prop54
  1
strokes_ogs.tif
102
RTVSPost2010PropOp54
 70
     0
102
RTVSPost2010Prop55
280
     0
102
RTVSPost2010PropOp55
 70
     0
102
RTVSPost2010Prop56
140
1.0
102
RTVSPost2010PropOp56
 70
     0
102
RTVSPost2010Prop57
140
1.0
102
RTVSPost2010PropOp57
 70
     0
102
RTVSPropertyOp0
 70
     0
102
RTVSPropertyOp1
 70
     0
102
RTVSPropertyOp2
 70
     0
102
RTVSPropertyOp3
 70
     0
102
RTVSPropertyOp4
 70
     0
102
RTVSPropertyOp5
 70
     0
102
RTVSPropertyOp6
 70
     0
102
RTVSPropertyOp7
 70
     0
102
RTVSPropertyOp8
 70
     0
102
RTVSPropertyOp9
 70
     0
102
RTVSPropertyOp10
 70
     0
102
RTVSPropertyOp11
 70
     0
102
RTVSPropertyOp12
 70
     0
102
RTVSPropertyOp13
 70
     0
102
RTVSPropertyOp14
 70
     2
102
RTVSPropertyOp15
 70
     0
102
RTVSPropertyOp16
 70
     0
102
RTVSPropertyOp17
 70
     0
102
RTVSPropertyOp18
 70
     0
102
RTVSPropertyOp19
 70
     0
102
RTVSPropertyOp20
 70
     0
102
RTVSPropertyOp21
 70
     0
102
RTVSPropertyOp22
 70
     0
102
RTVSPropertyOp23
 70
     0
102
RTVSPropertyOp24
 70
     0
102
RTVSPropertyOp25
 70
     0
102
RTVSPropertyOp26
 70
     0
102
RTVSPropertyOp27
 70
     0
102
RTVSPropertyOp28
 70
     0
102
RTVSPropertyOp29
 70
     0
102
RTVSPropertyOp30
 70
     0
102
RTVSPropertyOp31
 70
     0
102
RTVSPropertyOp32
 70
     0
102
RTVSPropertyOp33
 70
     0
102
RTVSPropertyOp34
 70
     0
102
RTVSPropertyOp35
 70
     0
102
RTVSPropertyOp36
 70
     0
102
RTVSPropertyOp37
 70
     0
102
RTVSPropertyOp38
 70
     0
102
RTVSPropertyOp39
 70
     0
102
RTVSPropertyOp40
 70
     0
102
RTVSPropertyOp41
 70
     0
102
RTVSPropertyOp42
 70
     0
102
RTVSPropertyOp43
 70
     0
102
RTVSPropertyOp44
 70
     0
102
RTVSPropertyOp45
 70
     0
102
RTVSPropertyOp46
 70
     0
102
RTVSPropertyOp47
 70
     0
102
RTVSPropertyOp48
 70
     0
102
RTVSPropertyOp49
 70
     0
102
RTVSPropertyOp50
 70
     0
102
RTVSPropertyOp51
 70
     0
102
RTVSPropertyOp52
 70
     0
102
RTVSPropertyOp53
 70
     0
102
RTVSPropertyOp54
 70
     0
102
RTVSPropertyOp55
 70
     0
102
RTVSPropertyOp56
 70
     0
102
RTVSPropertyOp57
 70
     0
102
RTVSPropertyOp58
 70
     1
102
RTVSPropertyOp59
 70
     1
102
RTVSPropertyOp60
 70
     1
102
RTVSPropertyOp61
 70
     1
102
RTVSPropertyOp62
 70
     1
  0
XRECORD
  5
384
102
{ACAD_REACTORS
330
383
102
}
330
383
100
AcDbXrecord
280
     1
102
RTVSPost2010Prop28
280
     0
102
RTVSPost2010PropOp28
 70
     1
102
RTVSPost2010Prop29
280
     1
102
RTVSPost2010PropOp29
 70
     1
102
RTVSPost2010Prop30
280
     1
102
RTVSPost2010PropOp30
 70
     1
102
RTVSPost2010Prop31
280
     0
102
RTVSPost2010PropOp31
 70
     1
102
RTVSPost2010Prop32
280
     0
102
RTVSPost2010PropOp32
 70
     1
102
RTVSPost2010Prop33
280
     0
102
RTVSPost2010PropOp33
 70
     1
102
RTVSPost2010Prop34
280
     0
102
RTVSPost2010PropOp34
 70
     1
102
RTVSPost2010Prop35
280
     0
102
RTVSPost2010PropOp35
 70
     1
102
RTVSPost2010Prop36
280
     0
102
RTVSPost2010PropOp36
 70
     1
102
RTVSPost2010Prop37
 90
       50
102
RTVSPost2010PropOp37
 70
     1
102
RTVSPost2010Prop38
140
0.0
102
RTVSPost2010PropOp38
 70
     1
102
RTVSPost2010Prop39
140
1.0
102
RTVSPost2010PropOp39
 70
     1
102
RTVSPost2010Prop40
 90
        0
102
RTVSPost2010PropOp40
 70
     1
102
RTVSPost2010Prop41ColorIndex
 90
       18
102
RTVSPost2010Prop41ColorRGB
 90
        0
102
RTVSPost2010PropOp41
 70
     1
102
RTVSPost2010Prop42
 90
       50
102
RTVSPost2010PropOp42
 70
     1
102
RTVSPost2010Prop43
 90
        3
102
RTVSPost2010PropOp43
 70
     1
102
RTVSPost2010Prop44ColorIndex
 90
        5
102
RTVSPost2010Prop44ColorRGB
 90
      255
102
RTVSPost2010PropOp44
 70
     1
102
RTVSPost2010Prop45
280
     0
102
RTVSPost2010PropOp45
 70
     1
102
RTVSPost2010Prop46
 90
       50
102
RTVSPost2010PropOp46
 70
     1
102
RTVSPost2010Prop47
 90
       50
102
RTVSPost2010PropOp47
 70
     1
102
RTVSPost2010Prop48
 90
       50
102
RTVSPost2010PropOp48
 70
     1
102
RTVSPost2010Prop49
280
     0
102
RTVSPost2010PropOp49
 70
     1
102
RTVSPost2010Prop50
 90
       50
102
RTVSPost2010PropOp50
 70
     1
102
RTVSPost2010Prop51ColorIndex
 90
      256
102
RTVSPost2010Prop51ColorRGB
 90
-16777216
102
RTVSPost2010PropOp51
 70
     0
102
RTVSPost2010Prop52
140
1.0
102
RTVSPost2010PropOp52
 70
     0
102
RTVSPost2010Prop53
 90
        2
102
RTVSPost2010PropOp53
 70
     1
102
RTVSPost2010Prop54
  1
strokes_ogs.tif
102
RTVSPost2010PropOp54
 70
     1
102
RTVSPost2010Prop55
280
     0
102
RTVSPost2010PropOp55
 70
     1
102
RTVSPost2010Prop56
140
1.0
102
RTVSPost2010PropOp56
 70
     1
102
RTVSPost2010Prop57
140
1.0
102
RTVSPost2010PropOp57
 70
     1
102
RTVSPropertyOp0
 70
     1
102
RTVSPropertyOp1
 70
     1
102
RTVSPropertyOp2
 70
     1
102
RTVSPropertyOp3
 70
     1
102
RTVSPropertyOp4
 70
     1
102
RTVSPropertyOp5
 70
     1
102
RTVSPropertyOp6
 70
     1
102
RTVSPropertyOp7
 70
     1
102
RTVSPropertyOp8
 70
     1
102
RTVSPropertyOp9
 70
     1
102
RTVSPropertyOp10
 70
     1
102
RTVSPropertyOp11
 70
     1
102
RTVSPropertyOp12
 70
     1
102
RTVSPropertyOp13
 70
     1
102
RTVSPropertyOp14
 70
     1
102
RTVSPropertyOp15
 70
     1
102
RTVSPropertyOp16
 70
     1
102
RTVSPropertyOp17
 70
     1
102
RTVSPropertyOp18
 70
     1
102
RTVSPropertyOp19
 70
     1
102
RTVSPropertyOp20
 70
     1
102
RTVSPropertyOp21
 70
     1
102
RTVSPropertyOp22
 70
     1
102
RTVSPropertyOp23
 70
     1
102
RTVSPropertyOp24
 70
     1
102
RTVSPropertyOp25
 70
     1
102
RTVSPropertyOp26
 70
     1
102
RTVSPropertyOp27
 70
     1
102
RTVSPropertyOp28
 70
     1
102
RTVSPropertyOp29
 70
     1
102
RTVSPropertyOp30
 70
     1
102
RTVSPropertyOp31
 70
     1
102
RTVSPropertyOp32
 70
     1
102
RTVSPropertyOp33
 70
     1
102
RTVSPropertyOp34
 70
     1
102
RTVSPropertyOp35
 70
     1
102
RTVSPropertyOp36
 70
     1
102
RTVSPropertyOp37
 70
     1
102
RTVSPropertyOp38
 70
     1
102
RTVSPropertyOp39
 70
     1
102
RTVSPropertyOp40
 70
     1
102
RTVSPropertyOp41
 70
     1
102
RTVSPropertyOp42
 70
     1
102
RTVSPropertyOp43
 70
     1
102
RTVSPropertyOp44
 70
     1
102
RTVSPropertyOp45
 70
     1
102
RTVSPropertyOp46
 70
     1
102
RTVSPropertyOp47
 70
     1
102
RTVSPropertyOp48
 70
     1
102
RTVSPropertyOp49
 70
     1
102
RTVSPropertyOp50
 70
     1
102
RTVSPropertyOp51
 70
     0
102
RTVSPropertyOp52
 70
     0
102
RTVSPropertyOp53
 70
     1
102
RTVSPropertyOp54
 70
     1
102
RTVSPropertyOp55
 70
     1
102
RTVSPropertyOp56
 70
     1
102
RTVSPropertyOp57
 70
     1
102
RTVSPropertyOp58
 70
     1
102
RTVSPropertyOp59
 70
     1
102
RTVSPropertyOp60
 70
     1
102
RTVSPropertyOp61
 70
     1
102
RTVSPropertyOp62
 70
     1
  0
XRECORD
  5
368
102
{ACAD_REACTORS
330
367
102
}
330
367
100
AcDbXrecord
280
     1
102
RTVSPost2010Prop28
280
     0
102
RTVSPost2010PropOp28
 70
     1
102
RTVSPost2010Prop29
280
     1
102
RTVSPost2010PropOp29
 70
     1
102
RTVSPost2010Prop30
280
     1
102
RTVSPost2010PropOp30
 70
     1
102
RTVSPost2010Prop31
280
     0
102
RTVSPost2010PropOp31
 70
     1
102
RTVSPost2010Prop32
280
     0
102
RTVSPost2010PropOp32
 70
     1
102
RTVSPost2010Prop33
280
     0
102
RTVSPost2010PropOp33
 70
     1
102
RTVSPost2010Prop34
280
     0
102
RTVSPost2010PropOp34
 70
     1
102
RTVSPost2010Prop35
280
     0
102
RTVSPost2010PropOp35
 70
     1
102
RTVSPost2010Prop36
280
     0
102
RTVSPost2010PropOp36
 70
     1
102
RTVSPost2010Prop37
 90
       50
102
RTVSPost2010PropOp37
 70
     1
102
RTVSPost2010Prop38
140
0.0
102
RTVSPost2010PropOp38
 70
     1
102
RTVSPost2010Prop39
140
1.0
102
RTVSPost2010PropOp39
 70
     1
102
RTVSPost2010Prop40
 90
        0
102
RTVSPost2010PropOp40
 70
     1
102
RTVSPost2010Prop41ColorIndex
 90
       18
102
RTVSPost2010Prop41ColorRGB
 90
        0
102
RTVSPost2010PropOp41
 70
     1
102
RTVSPost2010Prop42
 90
       50
102
RTVSPost2010PropOp42
 70
     1
102
RTVSPost2010Prop43
 90
        3
102
RTVSPost2010PropOp43
 70
     1
102
RTVSPost2010Prop44ColorIndex
 90
        5
102
RTVSPost2010Prop44ColorRGB
 90
      255
102
RTVSPost2010PropOp44
 70
     1
102
RTVSPost2010Prop45
280
     0
102
RTVSPost2010PropOp45
 70
     1
102
RTVSPost2010Prop46
 90
       50
102
RTVSPost2010PropOp46
 70
     1
102
RTVSPost2010Prop47
 90
       50
102
RTVSPost2010PropOp47
 70
     1
102
RTVSPost2010Prop48
 90
       50
102
RTVSPost2010PropOp48
 70
     1
102
RTVSPost2010Prop49
280
     0
102
RTVSPost2010PropOp49
 70
     1
102
RTVSPost2010Prop50
 90
       50
102
RTVSPost2010PropOp50
 70
     1
102
RTVSPost2010Prop51ColorIndex
 90
      256
102
RTVSPost2010Prop51ColorRGB
 90
-16777216
102
RTVSPost2010PropOp51
 70
     0
102
RTVSPost2010Prop52
140
1.0
102
RTVSPost2010PropOp52
 70
     0
102
RTVSPost2010Prop53
 90
        2
102
RTVSPost2010PropOp53
 70
     1
102
RTVSPost2010Prop54
  1
strokes_ogs.tif
102
RTVSPost2010PropOp54
 70
     1
102
RTVSPost2010Prop55
280
     0
102
RTVSPost2010PropOp55
 70
     1
102
RTVSPost2010Prop56
140
1.0
102
RTVSPost2010PropOp56
 70
     1
102
RTVSPost2010Prop57
140
1.0
102
RTVSPost2010PropOp57
 70
     1
102
RTVSPropertyOp0
 70
     1
102
RTVSPropertyOp1
 70
     1
102
RTVSPropertyOp2
 70
     1
102
RTVSPropertyOp3
 70
     1
102
RTVSPropertyOp4
 70
     1
102
RTVSPropertyOp5
 70
     1
102
RTVSPropertyOp6
 70
     1
102
RTVSPropertyOp7
 70
     1
102
RTVSPropertyOp8
 70
     1
102
RTVSPropertyOp9
 70
     1
102
RTVSPropertyOp10
 70
     1
102
RTVSPropertyOp11
 70
     1
102
RTVSPropertyOp12
 70
     1
102
RTVSPropertyOp13
 70
     1
102
RTVSPropertyOp14
 70
     1
102
RTVSPropertyOp15
 70
     1
102
RTVSPropertyOp16
 70
     1
102
RTVSPropertyOp17
 70
     1
102
RTVSPropertyOp18
 70
     1
102
RTVSPropertyOp19
 70
     1
102
RTVSPropertyOp20
 70
     1
102
RTVSPropertyOp21
 70
     1
102
RTVSPropertyOp22
 70
     1
102
RTVSPropertyOp23
 70
     1
102
RTVSPropertyOp24
 70
     1
102
RTVSPropertyOp25
 70
     1
102
RTVSPropertyOp26
 70
     1
102
RTVSPropertyOp27
 70
     1
102
RTVSPropertyOp28
 70
     1
102
RTVSPropertyOp29
 70
     1
102
RTVSPropertyOp30
 70
     1
102
RTVSPropertyOp31
 70
     1
102
RTVSPropertyOp32
 70
     1
102
RTVSPropertyOp33
 70
     1
102
RTVSPropertyOp34
 70
     1
102
RTVSPropertyOp35
 70
     1
102
RTVSPropertyOp36
 70
     1
102
RTVSPropertyOp37
 70
     1
102
RTVSPropertyOp38
 70
     1
102
RTVSPropertyOp39
 70
     1
102
RTVSPropertyOp40
 70
     1
102
RTVSPropertyOp41
 70
     1
102
RTVSPropertyOp42
 70
     1
102
RTVSPropertyOp43
 70
     1
102
RTVSPropertyOp44
 70
     1
102
RTVSPropertyOp45
 70
     1
102
RTVSPropertyOp46
 70
     1
102
RTVSPropertyOp47
 70
     1
102
RTVSPropertyOp48
 70
     1
102
RTVSPropertyOp49
 70
     1
102
RTVSPropertyOp50
 70
     1
102
RTVSPropertyOp51
 70
     0
102
RTVSPropertyOp52
 70
     0
102
RTVSPropertyOp53
 70
     1
102
RTVSPropertyOp54
 70
     1
102
RTVSPropertyOp55
 70
     1
102
RTVSPropertyOp56
 70
     1
102
RTVSPropertyOp57
 70
     1
102
RTVSPropertyOp58
 70
     1
102
RTVSPropertyOp59
 70
     1
102
RTVSPropertyOp60
 70
     1
102
RTVSPropertyOp61
 70
     1
102
RTVSPropertyOp62
 70
     1
  0
XRECORD
  5
36A
102
{ACAD_REACTORS
330
369
102
}
330
369
100
AcDbXrecord
280
     1
102
RTVSPost2010Prop28
280
     0
102
RTVSPost2010PropOp28
 70
     1
102
RTVSPost2010Prop29
280
     1
102
RTVSPost2010PropOp29
 70
     1
102
RTVSPost2010Prop30
280
     1
102
RTVSPost2010PropOp30
 70
     1
102
RTVSPost2010Prop31
280
     0
102
RTVSPost2010PropOp31
 70
     1
102
RTVSPost2010Prop32
280
     0
102
RTVSPost2010PropOp32
 70
     1
102
RTVSPost2010Prop33
280
     0
102
RTVSPost2010PropOp33
 70
     1
102
RTVSPost2010Prop34
280
     0
102
RTVSPost2010PropOp34
 70
     1
102
RTVSPost2010Prop35
280
     0
102
RTVSPost2010PropOp35
 70
     1
102
RTVSPost2010Prop36
280
     0
102
RTVSPost2010PropOp36
 70
     1
102
RTVSPost2010Prop37
 90
       50
102
RTVSPost2010PropOp37
 70
     1
102
RTVSPost2010Prop38
140
0.0
102
RTVSPost2010PropOp38
 70
     1
102
RTVSPost2010Prop39
140
1.0
102
RTVSPost2010PropOp39
 70
     1
102
RTVSPost2010Prop40
 90
        0
102
RTVSPost2010PropOp40
 70
     1
102
RTVSPost2010Prop41ColorIndex
 90
       18
102
RTVSPost2010Prop41ColorRGB
 90
        0
102
RTVSPost2010PropOp41
 70
     1
102
RTVSPost2010Prop42
 90
       50
102
RTVSPost2010PropOp42
 70
     1
102
RTVSPost2010Prop43
 90
        3
102
RTVSPost2010PropOp43
 70
     1
102
RTVSPost2010Prop44ColorIndex
 90
        5
102
RTVSPost2010Prop44ColorRGB
 90
      255
102
RTVSPost2010PropOp44
 70
     1
102
RTVSPost2010Prop45
280
     0
102
RTVSPost2010PropOp45
 70
     1
102
RTVSPost2010Prop46
 90
       50
102
RTVSPost2010PropOp46
 70
     1
102
RTVSPost2010Prop47
 90
       50
102
RTVSPost2010PropOp47
 70
     1
102
RTVSPost2010Prop48
 90
       50
102
RTVSPost2010PropOp48
 70
     1
102
RTVSPost2010Prop49
280
     0
102
RTVSPost2010PropOp49
 70
     1
102
RTVSPost2010Prop50
 90
       50
102
RTVSPost2010PropOp50
 70
     1
102
RTVSPost2010Prop51ColorIndex
 90
      256
102
RTVSPost2010Prop51ColorRGB
 90
-16777216
102
RTVSPost2010PropOp51
 70
     0
102
RTVSPost2010Prop52
140
1.0
102
RTVSPost2010PropOp52
 70
     0
102
RTVSPost2010Prop53
 90
        2
102
RTVSPost2010PropOp53
 70
     1
102
RTVSPost2010Prop54
  1
strokes_ogs.tif
102
RTVSPost2010PropOp54
 70
     1
102
RTVSPost2010Prop55
280
     0
102
RTVSPost2010PropOp55
 70
     1
102
RTVSPost2010Prop56
140
1.0
102
RTVSPost2010PropOp56
 70
     1
102
RTVSPost2010Prop57
140
1.0
102
RTVSPost2010PropOp57
 70
     1
102
RTVSPropertyOp0
 70
     1
102
RTVSPropertyOp1
 70
     1
102
RTVSPropertyOp2
 70
     1
102
RTVSPropertyOp3
 70
     1
102
RTVSPropertyOp4
 70
     1
102
RTVSPropertyOp5
 70
     1
102
RTVSPropertyOp6
 70
     1
102
RTVSPropertyOp7
 70
     1
102
RTVSPropertyOp8
 70
     1
102
RTVSPropertyOp9
 70
     1
102
RTVSPropertyOp10
 70
     1
102
RTVSPropertyOp11
 70
     1
102
RTVSPropertyOp12
 70
     1
102
RTVSPropertyOp13
 70
     1
102
RTVSPropertyOp14
 70
     1
102
RTVSPropertyOp15
 70
     1
102
RTVSPropertyOp16
 70
     1
102
RTVSPropertyOp17
 70
     1
102
RTVSPropertyOp18
 70
     1
102
RTVSPropertyOp19
 70
     1
102
RTVSPropertyOp20
 70
     1
102
RTVSPropertyOp21
 70
     1
102
RTVSPropertyOp22
 70
     1
102
RTVSPropertyOp23
 70
     1
102
RTVSPropertyOp24
 70
     1
102
RTVSPropertyOp25
 70
     1
102
RTVSPropertyOp26
 70
     1
102
RTVSPropertyOp27
 70
     1
102
RTVSPropertyOp28
 70
     1
102
RTVSPropertyOp29
 70
     1
102
RTVSPropertyOp30
 70
     1
102
RTVSPropertyOp31
 70
     1
102
RTVSPropertyOp32
 70
     1
102
RTVSPropertyOp33
 70
     1
102
RTVSPropertyOp34
 70
     1
102
RTVSPropertyOp35
 70
     1
102
RTVSPropertyOp36
 70
     1
102
RTVSPropertyOp37
 70
     1
102
RTVSPropertyOp38
 70
     1
102
RTVSPropertyOp39
 70
     1
102
RTVSPropertyOp40
 70
     1
102
RTVSPropertyOp41
 70
     1
102
RTVSPropertyOp42
 70
     1
102
RTVSPropertyOp43
 70
     1
102
RTVSPropertyOp44
 70
     1
102
RTVSPropertyOp45
 70
     1
102
RTVSPropertyOp46
 70
     1
102
RTVSPropertyOp47
 70
     1
102
RTVSPropertyOp48
 70
     1
102
RTVSPropertyOp49
 70
     1
102
RTVSPropertyOp50
 70
     1
102
RTVSPropertyOp51
 70
     0
102
RTVSPropertyOp52
 70
     0
102
RTVSPropertyOp53
 70
     1
102
RTVSPropertyOp54
 70
     1
102
RTVSPropertyOp55
 70
     1
102
RTVSPropertyOp56
 70
     1
102
RTVSPropertyOp57
 70
     1
102
RTVSPropertyOp58
 70
     1
102
RTVSPropertyOp59
 70
     1
102
RTVSPropertyOp60
 70
     1
102
RTVSPropertyOp61
 70
     1
102
RTVSPropertyOp62
 70
     1
  0
XRECORD
  5
36C
102
{ACAD_REACTORS
330
36B
102
}
330
36B
100
AcDbXrecord
280
     1
102
RTVSPost2010Prop28
280
     0
102
RTVSPost2010PropOp28
 70
     1
102
RTVSPost2010Prop29
280
     1
102
RTVSPost2010PropOp29
 70
     1
102
RTVSPost2010Prop30
280
     1
102
RTVSPost2010PropOp30
 70
     1
102
RTVSPost2010Prop31
280
     0
102
RTVSPost2010PropOp31
 70
     1
102
RTVSPost2010Prop32
280
     0
102
RTVSPost2010PropOp32
 70
     1
102
RTVSPost2010Prop33
280
     0
102
RTVSPost2010PropOp33
 70
     1
102
RTVSPost2010Prop34
280
     0
102
RTVSPost2010PropOp34
 70
     1
102
RTVSPost2010Prop35
280
     0
102
RTVSPost2010PropOp35
 70
     1
102
RTVSPost2010Prop36
280
     0
102
RTVSPost2010PropOp36
 70
     1
102
RTVSPost2010Prop37
 90
       50
102
RTVSPost2010PropOp37
 70
     1
102
RTVSPost2010Prop38
140
0.0
102
RTVSPost2010PropOp38
 70
     1
102
RTVSPost2010Prop39
140
1.0
102
RTVSPost2010PropOp39
 70
     1
102
RTVSPost2010Prop40
 90
        0
102
RTVSPost2010PropOp40
 70
     1
102
RTVSPost2010Prop41ColorIndex
 90
       18
102
RTVSPost2010Prop41ColorRGB
 90
        0
102
RTVSPost2010PropOp41
 70
     1
102
RTVSPost2010Prop42
 90
       50
102
RTVSPost2010PropOp42
 70
     1
102
RTVSPost2010Prop43
 90
        3
102
RTVSPost2010PropOp43
 70
     1
102
RTVSPost2010Prop44ColorIndex
 90
        5
102
RTVSPost2010Prop44ColorRGB
 90
      255
102
RTVSPost2010PropOp44
 70
     1
102
RTVSPost2010Prop45
280
     0
102
RTVSPost2010PropOp45
 70
     1
102
RTVSPost2010Prop46
 90
       50
102
RTVSPost2010PropOp46
 70
     1
102
RTVSPost2010Prop47
 90
       50
102
RTVSPost2010PropOp47
 70
     1
102
RTVSPost2010Prop48
 90
       50
102
RTVSPost2010PropOp48
 70
     1
102
RTVSPost2010Prop49
280
     0
102
RTVSPost2010PropOp49
 70
     1
102
RTVSPost2010Prop50
 90
       50
102
RTVSPost2010PropOp50
 70
     1
102
RTVSPost2010Prop51ColorIndex
 90
      256
102
RTVSPost2010Prop51ColorRGB
 90
-16777216
102
RTVSPost2010PropOp51
 70
     0
102
RTVSPost2010Prop52
140
1.0
102
RTVSPost2010PropOp52
 70
     0
102
RTVSPost2010Prop53
 90
        2
102
RTVSPost2010PropOp53
 70
     1
102
RTVSPost2010Prop54
  1
strokes_ogs.tif
102
RTVSPost2010PropOp54
 70
     1
102
RTVSPost2010Prop55
280
     0
102
RTVSPost2010PropOp55
 70
     1
102
RTVSPost2010Prop56
140
1.0
102
RTVSPost2010PropOp56
 70
     1
102
RTVSPost2010Prop57
140
1.0
102
RTVSPost2010PropOp57
 70
     1
102
RTVSPropertyOp0
 70
     1
102
RTVSPropertyOp1
 70
     1
102
RTVSPropertyOp2
 70
     1
102
RTVSPropertyOp3
 70
     1
102
RTVSPropertyOp4
 70
     1
102
RTVSPropertyOp5
 70
     1
102
RTVSPropertyOp6
 70
     1
102
RTVSPropertyOp7
 70
     1
102
RTVSPropertyOp8
 70
     1
102
RTVSPropertyOp9
 70
     1
102
RTVSPropertyOp10
 70
     1
102
RTVSPropertyOp11
 70
     1
102
RTVSPropertyOp12
 70
     1
102
RTVSPropertyOp13
 70
     1
102
RTVSPropertyOp14
 70
     1
102
RTVSPropertyOp15
 70
     1
102
RTVSPropertyOp16
 70
     1
102
RTVSPropertyOp17
 70
     1
102
RTVSPropertyOp18
 70
     1
102
RTVSPropertyOp19
 70
     1
102
RTVSPropertyOp20
 70
     1
102
RTVSPropertyOp21
 70
     1
102
RTVSPropertyOp22
 70
     1
102
RTVSPropertyOp23
 70
     1
102
RTVSPropertyOp24
 70
     1
102
RTVSPropertyOp25
 70
     1
102
RTVSPropertyOp26
 70
     1
102
RTVSPropertyOp27
 70
     1
102
RTVSPropertyOp28
 70
     1
102
RTVSPropertyOp29
 70
     1
102
RTVSPropertyOp30
 70
     1
102
RTVSPropertyOp31
 70
     1
102
RTVSPropertyOp32
 70
     1
102
RTVSPropertyOp33
 70
     1
102
RTVSPropertyOp34
 70
     1
102
RTVSPropertyOp35
 70
     1
102
RTVSPropertyOp36
 70
     1
102
RTVSPropertyOp37
 70
     1
102
RTVSPropertyOp38
 70
     1
102
RTVSPropertyOp39
 70
     1
102
RTVSPropertyOp40
 70
     1
102
RTVSPropertyOp41
 70
     1
102
RTVSPropertyOp42
 70
     1
102
RTVSPropertyOp43
 70
     1
102
RTVSPropertyOp44
 70
     1
102
RTVSPropertyOp45
 70
     1
102
RTVSPropertyOp46
 70
     1
102
RTVSPropertyOp47
 70
     1
102
RTVSPropertyOp48
 70
     1
102
RTVSPropertyOp49
 70
     1
102
RTVSPropertyOp50
 70
     1
102
RTVSPropertyOp51
 70
     0
102
RTVSPropertyOp52
 70
     0
102
RTVSPropertyOp53
 70
     1
102
RTVSPropertyOp54
 70
     1
102
RTVSPropertyOp55
 70
     1
102
RTVSPropertyOp56
 70
     1
102
RTVSPropertyOp57
 70
     1
102
RTVSPropertyOp58
 70
     1
102
RTVSPropertyOp59
 70
     1
102
RTVSPropertyOp60
 70
     1
102
RTVSPropertyOp61
 70
     1
102
RTVSPropertyOp62
 70
     1
  0
XRECORD
  5
36E
102
{ACAD_REACTORS
330
36D
102
}
330
36D
100
AcDbXrecord
280
     1
102
RTVSPost2010Prop28
280
     0
102
RTVSPost2010PropOp28
 70
     1
102
RTVSPost2010Prop29
280
     1
102
RTVSPost2010PropOp29
 70
     1
102
RTVSPost2010Prop30
280
     1
102
RTVSPost2010PropOp30
 70
     1
102
RTVSPost2010Prop31
280
     0
102
RTVSPost2010PropOp31
 70
     1
102
RTVSPost2010Prop32
280
     0
102
RTVSPost2010PropOp32
 70
     1
102
RTVSPost2010Prop33
280
     0
102
RTVSPost2010PropOp33
 70
     1
102
RTVSPost2010Prop34
280
     0
102
RTVSPost2010PropOp34
 70
     1
102
RTVSPost2010Prop35
280
     0
102
RTVSPost2010PropOp35
 70
     1
102
RTVSPost2010Prop36
280
     0
102
RTVSPost2010PropOp36
 70
     1
102
RTVSPost2010Prop37
 90
       50
102
RTVSPost2010PropOp37
 70
     1
102
RTVSPost2010Prop38
140
0.0
102
RTVSPost2010PropOp38
 70
     1
102
RTVSPost2010Prop39
140
1.0
102
RTVSPost2010PropOp39
 70
     1
102
RTVSPost2010Prop40
 90
        0
102
RTVSPost2010PropOp40
 70
     1
102
RTVSPost2010Prop41ColorIndex
 90
       18
102
RTVSPost2010Prop41ColorRGB
 90
        0
102
RTVSPost2010PropOp41
 70
     1
102
RTVSPost2010Prop42
 90
       50
102
RTVSPost2010PropOp42
 70
     1
102
RTVSPost2010Prop43
 90
        3
102
RTVSPost2010PropOp43
 70
     1
102
RTVSPost2010Prop44ColorIndex
 90
        5
102
RTVSPost2010Prop44ColorRGB
 90
      255
102
RTVSPost2010PropOp44
 70
     1
102
RTVSPost2010Prop45
280
     0
102
RTVSPost2010PropOp45
 70
     1
102
RTVSPost2010Prop46
 90
       50
102
RTVSPost2010PropOp46
 70
     1
102
RTVSPost2010Prop47
 90
       50
102
RTVSPost2010PropOp47
 70
     1
102
RTVSPost2010Prop48
 90
       50
102
RTVSPost2010PropOp48
 70
     1
102
RTVSPost2010Prop49
280
     0
102
RTVSPost2010PropOp49
 70
     1
102
RTVSPost2010Prop50
 90
       50
102
RTVSPost2010PropOp50
 70
     1
102
RTVSPost2010Prop51ColorIndex
 90
      256
102
RTVSPost2010Prop51ColorRGB
 90
-16777216
102
RTVSPost2010PropOp51
 70
     0
102
RTVSPost2010Prop52
140
1.0
102
RTVSPost2010PropOp52
 70
     0
102
RTVSPost2010Prop53
 90
        2
102
RTVSPost2010PropOp53
 70
     1
102
RTVSPost2010Prop54
  1
strokes_ogs.tif
102
RTVSPost2010PropOp54
 70
     1
102
RTVSPost2010Prop55
280
     0
102
RTVSPost2010PropOp55
 70
     1
102
RTVSPost2010Prop56
140
1.0
102
RTVSPost2010PropOp56
 70
     1
102
RTVSPost2010Prop57
140
1.0
102
RTVSPost2010PropOp57
 70
     1
102
RTVSPropertyOp0
 70
     1
102
RTVSPropertyOp1
 70
     1
102
RTVSPropertyOp2
 70
     1
102
RTVSPropertyOp3
 70
     1
102
RTVSPropertyOp4
 70
     1
102
RTVSPropertyOp5
 70
     1
102
RTVSPropertyOp6
 70
     1
102
RTVSPropertyOp7
 70
     1
102
RTVSPropertyOp8
 70
     1
102
RTVSPropertyOp9
 70
     1
102
RTVSPropertyOp10
 70
     1
102
RTVSPropertyOp11
 70
     1
102
RTVSPropertyOp12
 70
     1
102
RTVSPropertyOp13
 70
     1
102
RTVSPropertyOp14
 70
     1
102
RTVSPropertyOp15
 70
     1
102
RTVSPropertyOp16
 70
     1
102
RTVSPropertyOp17
 70
     1
102
RTVSPropertyOp18
 70
     1
102
RTVSPropertyOp19
 70
     1
102
RTVSPropertyOp20
 70
     1
102
RTVSPropertyOp21
 70
     1
102
RTVSPropertyOp22
 70
     1
102
RTVSPropertyOp23
 70
     1
102
RTVSPropertyOp24
 70
     1
102
RTVSPropertyOp25
 70
     1
102
RTVSPropertyOp26
 70
     1
102
RTVSPropertyOp27
 70
     1
102
RTVSPropertyOp28
 70
     1
102
RTVSPropertyOp29
 70
     1
102
RTVSPropertyOp30
 70
     1
102
RTVSPropertyOp31
 70
     1
102
RTVSPropertyOp32
 70
     1
102
RTVSPropertyOp33
 70
     1
102
RTVSPropertyOp34
 70
     1
102
RTVSPropertyOp35
 70
     1
102
RTVSPropertyOp36
 70
     1
102
RTVSPropertyOp37
 70
     1
102
RTVSPropertyOp38
 70
     1
102
RTVSPropertyOp39
 70
     1
102
RTVSPropertyOp40
 70
     1
102
RTVSPropertyOp41
 70
     1
102
RTVSPropertyOp42
 70
     1
102
RTVSPropertyOp43
 70
     1
102
RTVSPropertyOp44
 70
     1
102
RTVSPropertyOp45
 70
     1
102
RTVSPropertyOp46
 70
     1
102
RTVSPropertyOp47
 70
     1
102
RTVSPropertyOp48
 70
     1
102
RTVSPropertyOp49
 70
     1
102
RTVSPropertyOp50
 70
     1
102
RTVSPropertyOp51
 70
     0
102
RTVSPropertyOp52
 70
     0
102
RTVSPropertyOp53
 70
     1
102
RTVSPropertyOp54
 70
     1
102
RTVSPropertyOp55
 70
     1
102
RTVSPropertyOp56
 70
     1
102
RTVSPropertyOp57
 70
     1
102
RTVSPropertyOp58
 70
     1
102
RTVSPropertyOp59
 70
     1
102
RTVSPropertyOp60
 70
     1
102
RTVSPropertyOp61
 70
     1
102
RTVSPropertyOp62
 70
     1
  0
XRECORD
  5
374
102
{ACAD_REACTORS
330
373
102
}
330
373
100
AcDbXrecord
280
     1
102
RTVSPost2010Prop28
280
     0
102
RTVSPost2010PropOp28
 70
     1
102
RTVSPost2010Prop29
280
     1
102
RTVSPost2010PropOp29
 70
     1
102
RTVSPost2010Prop30
280
     1
102
RTVSPost2010PropOp30
 70
     1
102
RTVSPost2010Prop31
280
     0
102
RTVSPost2010PropOp31
 70
     1
102
RTVSPost2010Prop32
280
     0
102
RTVSPost2010PropOp32
 70
     1
102
RTVSPost2010Prop33
280
     0
102
RTVSPost2010PropOp33
 70
     1
102
RTVSPost2010Prop34
280
     0
102
RTVSPost2010PropOp34
 70
     1
102
RTVSPost2010Prop35
280
     0
102
RTVSPost2010PropOp35
 70
     1
102
RTVSPost2010Prop36
280
     0
102
RTVSPost2010PropOp36
 70
     1
102
RTVSPost2010Prop37
 90
       50
102
RTVSPost2010PropOp37
 70
     1
102
RTVSPost2010Prop38
140
0.0
102
RTVSPost2010PropOp38
 70
     1
102
RTVSPost2010Prop39
140
1.0
102
RTVSPost2010PropOp39
 70
     1
102
RTVSPost2010Prop40
 90
        0
102
RTVSPost2010PropOp40
 70
     1
102
RTVSPost2010Prop41ColorIndex
 90
       18
102
RTVSPost2010Prop41ColorRGB
 90
        0
102
RTVSPost2010PropOp41
 70
     1
102
RTVSPost2010Prop42
 90
       50
102
RTVSPost2010PropOp42
 70
     1
102
RTVSPost2010Prop43
 90
        3
102
RTVSPost2010PropOp43
 70
     1
102
RTVSPost2010Prop44ColorIndex
 90
        5
102
RTVSPost2010Prop44ColorRGB
 90
      255
102
RTVSPost2010PropOp44
 70
     1
102
RTVSPost2010Prop45
280
     0
102
RTVSPost2010PropOp45
 70
     1
102
RTVSPost2010Prop46
 90
       50
102
RTVSPost2010PropOp46
 70
     1
102
RTVSPost2010Prop47
 90
       50
102
RTVSPost2010PropOp47
 70
     1
102
RTVSPost2010Prop48
 90
       50
102
RTVSPost2010PropOp48
 70
     1
102
RTVSPost2010Prop49
280
     0
102
RTVSPost2010PropOp49
 70
     1
102
RTVSPost2010Prop50
 90
       50
102
RTVSPost2010PropOp50
 70
     1
102
RTVSPost2010Prop51ColorIndex
 90
      256
102
RTVSPost2010Prop51ColorRGB
 90
-16777216
102
RTVSPost2010PropOp51
 70
     0
102
RTVSPost2010Prop52
140
1.0
102
RTVSPost2010PropOp52
 70
     0
102
RTVSPost2010Prop53
 90
        2
102
RTVSPost2010PropOp53
 70
     1
102
RTVSPost2010Prop54
  1
strokes_ogs.tif
102
RTVSPost2010PropOp54
 70
     1
102
RTVSPost2010Prop55
280
     0
102
RTVSPost2010PropOp55
 70
     1
102
RTVSPost2010Prop56
140
1.0
102
RTVSPost2010PropOp56
 70
     1
102
RTVSPost2010Prop57
140
1.0
102
RTVSPost2010PropOp57
 70
     1
102
RTVSPropertyOp0
 70
     1
102
RTVSPropertyOp1
 70
     1
102
RTVSPropertyOp2
 70
     1
102
RTVSPropertyOp3
 70
     1
102
RTVSPropertyOp4
 70
     1
102
RTVSPropertyOp5
 70
     1
102
RTVSPropertyOp6
 70
     1
102
RTVSPropertyOp7
 70
     1
102
RTVSPropertyOp8
 70
     1
102
RTVSPropertyOp9
 70
     1
102
RTVSPropertyOp10
 70
     1
102
RTVSPropertyOp11
 70
     1
102
RTVSPropertyOp12
 70
     1
102
RTVSPropertyOp13
 70
     1
102
RTVSPropertyOp14
 70
     1
102
RTVSPropertyOp15
 70
     1
102
RTVSPropertyOp16
 70
     1
102
RTVSPropertyOp17
 70
     1
102
RTVSPropertyOp18
 70
     1
102
RTVSPropertyOp19
 70
     1
102
RTVSPropertyOp20
 70
     1
102
RTVSPropertyOp21
 70
     1
102
RTVSPropertyOp22
 70
     1
102
RTVSPropertyOp23
 70
     1
102
RTVSPropertyOp24
 70
     1
102
RTVSPropertyOp25
 70
     1
102
RTVSPropertyOp26
 70
     1
102
RTVSPropertyOp27
 70
     1
102
RTVSPropertyOp28
 70
     1
102
RTVSPropertyOp29
 70
     1
102
RTVSPropertyOp30
 70
     1
102
RTVSPropertyOp31
 70
     1
102
RTVSPropertyOp32
 70
     1
102
RTVSPropertyOp33
 70
     1
102
RTVSPropertyOp34
 70
     1
102
RTVSPropertyOp35
 70
     1
102
RTVSPropertyOp36
 70
     1
102
RTVSPropertyOp37
 70
     1
102
RTVSPropertyOp38
 70
     1
102
RTVSPropertyOp39
 70
     1
102
RTVSPropertyOp40
 70
     1
102
RTVSPropertyOp41
 70
     1
102
RTVSPropertyOp42
 70
     1
102
RTVSPropertyOp43
 70
     1
102
RTVSPropertyOp44
 70
     1
102
RTVSPropertyOp45
 70
     1
102
RTVSPropertyOp46
 70
     1
102
RTVSPropertyOp47
 70
     1
102
RTVSPropertyOp48
 70
     1
102
RTVSPropertyOp49
 70
     1
102
RTVSPropertyOp50
 70
     1
102
RTVSPropertyOp51
 70
     0
102
RTVSPropertyOp52
 70
     0
102
RTVSPropertyOp53
 70
     1
102
RTVSPropertyOp54
 70
     1
102
RTVSPropertyOp55
 70
     1
102
RTVSPropertyOp56
 70
     1
102
RTVSPropertyOp57
 70
     1
102
RTVSPropertyOp58
 70
     1
102
RTVSPropertyOp59
 70
     1
102
RTVSPropertyOp60
 70
     1
102
RTVSPropertyOp61
 70
     1
102
RTVSPropertyOp62
 70
     1
  0
XRECORD
  5
388
102
{ACAD_REACTORS
330
387
102
}
330
387
100
AcDbXrecord
280
     1
102
RTVSPost2010Prop28
280
     0
102
RTVSPost2010PropOp28
 70
     0
102
RTVSPost2010Prop29
280
     1
102
RTVSPost2010PropOp29
 70
     0
102
RTVSPost2010Prop30
280
     1
102
RTVSPost2010PropOp30
 70
     0
102
RTVSPost2010Prop31
280
     0
102
RTVSPost2010PropOp31
 70
     0
102
RTVSPost2010Prop32
280
     0
102
RTVSPost2010PropOp32
 70
     0
102
RTVSPost2010Prop33
280
     0
102
RTVSPost2010PropOp33
 70
     0
102
RTVSPost2010Prop34
280
     0
102
RTVSPost2010PropOp34
 70
     0
102
RTVSPost2010Prop35
280
     0
102
RTVSPost2010PropOp35
 70
     0
102
RTVSPost2010Prop36
280
     0
102
RTVSPost2010PropOp36
 70
     0
102
RTVSPost2010Prop37
 90
       50
102
RTVSPost2010PropOp37
 70
     0
102
RTVSPost2010Prop38
140
0.0
102
RTVSPost2010PropOp38
 70
     0
102
RTVSPost2010Prop39
140
1.0
102
RTVSPost2010PropOp39
 70
     0
102
RTVSPost2010Prop40
 90
        0
102
RTVSPost2010PropOp40
 70
     0
102
RTVSPost2010Prop41ColorIndex
 90
       18
102
RTVSPost2010Prop41ColorRGB
 90
        0
102
RTVSPost2010PropOp41
 70
     0
102
RTVSPost2010Prop42
 90
       50
102
RTVSPost2010PropOp42
 70
     0
102
RTVSPost2010Prop43
 90
        3
102
RTVSPost2010PropOp43
 70
     0
102
RTVSPost2010Prop44ColorIndex
 90
        5
102
RTVSPost2010Prop44ColorRGB
 90
      255
102
RTVSPost2010PropOp44
 70
     0
102
RTVSPost2010Prop45
280
     0
102
RTVSPost2010PropOp45
 70
     0
102
RTVSPost2010Prop46
 90
       50
102
RTVSPost2010PropOp46
 70
     0
102
RTVSPost2010Prop47
 90
       50
102
RTVSPost2010PropOp47
 70
     0
102
RTVSPost2010Prop48
 90
       50
102
RTVSPost2010PropOp48
 70
     0
102
RTVSPost2010Prop49
280
     0
102
RTVSPost2010PropOp49
 70
     0
102
RTVSPost2010Prop50
 90
       50
102
RTVSPost2010PropOp50
 70
     0
102
RTVSPost2010Prop51ColorIndex
 90
      256
102
RTVSPost2010Prop51ColorRGB
 90
-16777216
102
RTVSPost2010PropOp51
 70
     0
102
RTVSPost2010Prop52
140
1.0
102
RTVSPost2010PropOp52
 70
     0
102
RTVSPost2010Prop53
 90
        2
102
RTVSPost2010PropOp53
 70
     0
102
RTVSPost2010Prop54
  1
strokes_ogs.tif
102
RTVSPost2010PropOp54
 70
     0
102
RTVSPost2010Prop55
280
     0
102
RTVSPost2010PropOp55
 70
     0
102
RTVSPost2010Prop56
140
1.0
102
RTVSPost2010PropOp56
 70
     0
102
RTVSPost2010Prop57
140
1.0
102
RTVSPost2010PropOp57
 70
     0
102
RTVSPropertyOp0
 70
     0
102
RTVSPropertyOp1
 70
     0
102
RTVSPropertyOp2
 70
     0
102
RTVSPropertyOp3
 70
     0
102
RTVSPropertyOp4
 70
     0
102
RTVSPropertyOp5
 70
     0
102
RTVSPropertyOp6
 70
     0
102
RTVSPropertyOp7
 70
     0
102
RTVSPropertyOp8
 70
     0
102
RTVSPropertyOp9
 70
     0
102
RTVSPropertyOp10
 70
     0
102
RTVSPropertyOp11
 70
     0
102
RTVSPropertyOp12
 70
     0
102
RTVSPropertyOp13
 70
     0
102
RTVSPropertyOp14
 70
     2
102
RTVSPropertyOp15
 70
     0
102
RTVSPropertyOp16
 70
     0
102
RTVSPropertyOp17
 70
     0
102
RTVSPropertyOp18
 70
     0
102
RTVSPropertyOp19
 70
     0
102
RTVSPropertyOp20
 70
     0
102
RTVSPropertyOp21
 70
     0
102
RTVSPropertyOp22
 70
     0
102
RTVSPropertyOp23
 70
     0
102
RTVSPropertyOp24
 70
     0
102
RTVSPropertyOp25
 70
     0
102
RTVSPropertyOp26
 70
     0
102
RTVSPropertyOp27
 70
     0
102
RTVSPropertyOp28
 70
     0
102
RTVSPropertyOp29
 70
     0
102
RTVSPropertyOp30
 70
     0
102
RTVSPropertyOp31
 70
     0
102
RTVSPropertyOp32
 70
     0
102
RTVSPropertyOp33
 70
     0
102
RTVSPropertyOp34
 70
     0
102
RTVSPropertyOp35
 70
     0
102
RTVSPropertyOp36
 70
     0
102
RTVSPropertyOp37
 70
     0
102
RTVSPropertyOp38
 70
     0
102
RTVSPropertyOp39
 70
     0
102
RTVSPropertyOp40
 70
     0
102
RTVSPropertyOp41
 70
     0
102
RTVSPropertyOp42
 70
     0
102
RTVSPropertyOp43
 70
     0
102
RTVSPropertyOp44
 70
     0
102
RTVSPropertyOp45
 70
     0
102
RTVSPropertyOp46
 70
     0
102
RTVSPropertyOp47
 70
     0
102
RTVSPropertyOp48
 70
     0
102
RTVSPropertyOp49
 70
     0
102
RTVSPropertyOp50
 70
     0
102
RTVSPropertyOp51
 70
     0
102
RTVSPropertyOp52
 70
     0
102
RTVSPropertyOp53
 70
     0
102
RTVSPropertyOp54
 70
     0
102
RTVSPropertyOp55
 70
     0
102
RTVSPropertyOp56
 70
     0
102
RTVSPropertyOp57
 70
     0
102
RTVSPropertyOp58
 70
     1
102
RTVSPropertyOp59
 70
     1
102
RTVSPropertyOp60
 70
     1
102
RTVSPropertyOp61
 70
     1
102
RTVSPropertyOp62
 70
     1
  0
XRECORD
  5
382
102
{ACAD_REACTORS
330
381
102
}
330
381
100
AcDbXrecord
280
     1
102
RTVSPost2010Prop28
280
     0
102
RTVSPost2010PropOp28
 70
     1
102
RTVSPost2010Prop29
280
     1
102
RTVSPost2010PropOp29
 70
     1
102
RTVSPost2010Prop30
280
     1
102
RTVSPost2010PropOp30
 70
     1
102
RTVSPost2010Prop31
280
     0
102
RTVSPost2010PropOp31
 70
     1
102
RTVSPost2010Prop32
280
     0
102
RTVSPost2010PropOp32
 70
     1
102
RTVSPost2010Prop33
280
     0
102
RTVSPost2010PropOp33
 70
     1
102
RTVSPost2010Prop34
280
     0
102
RTVSPost2010PropOp34
 70
     1
102
RTVSPost2010Prop35
280
     0
102
RTVSPost2010PropOp35
 70
     1
102
RTVSPost2010Prop36
280
     0
102
RTVSPost2010PropOp36
 70
     1
102
RTVSPost2010Prop37
 90
       50
102
RTVSPost2010PropOp37
 70
     1
102
RTVSPost2010Prop38
140
0.0
102
RTVSPost2010PropOp38
 70
     1
102
RTVSPost2010Prop39
140
1.0
102
RTVSPost2010PropOp39
 70
     1
102
RTVSPost2010Prop40
 90
        0
102
RTVSPost2010PropOp40
 70
     1
102
RTVSPost2010Prop41ColorIndex
 90
       18
102
RTVSPost2010Prop41ColorRGB
 90
        0
102
RTVSPost2010PropOp41
 70
     1
102
RTVSPost2010Prop42
 90
       50
102
RTVSPost2010PropOp42
 70
     1
102
RTVSPost2010Prop43
 90
        3
102
RTVSPost2010PropOp43
 70
     1
102
RTVSPost2010Prop44ColorIndex
 90
        5
102
RTVSPost2010Prop44ColorRGB
 90
      255
102
RTVSPost2010PropOp44
 70
     1
102
RTVSPost2010Prop45
280
     0
102
RTVSPost2010PropOp45
 70
     1
102
RTVSPost2010Prop46
 90
       50
102
RTVSPost2010PropOp46
 70
     1
102
RTVSPost2010Prop47
 90
       50
102
RTVSPost2010PropOp47
 70
     1
102
RTVSPost2010Prop48
 90
       50
102
RTVSPost2010PropOp48
 70
     1
102
RTVSPost2010Prop49
280
     0
102
RTVSPost2010PropOp49
 70
     1
102
RTVSPost2010Prop50
 90
       50
102
RTVSPost2010PropOp50
 70
     1
102
RTVSPost2010Prop51ColorIndex
 90
      256
102
RTVSPost2010Prop51ColorRGB
 90
-16777216
102
RTVSPost2010PropOp51
 70
     0
102
RTVSPost2010Prop52
140
1.0
102
RTVSPost2010PropOp52
 70
     0
102
RTVSPost2010Prop53
 90
        2
102
RTVSPost2010PropOp53
 70
     1
102
RTVSPost2010Prop54
  1
strokes_ogs.tif
102
RTVSPost2010PropOp54
 70
     1
102
RTVSPost2010Prop55
280
     0
102
RTVSPost2010PropOp55
 70
     1
102
RTVSPost2010Prop56
140
1.0
102
RTVSPost2010PropOp56
 70
     1
102
RTVSPost2010Prop57
140
1.0
102
RTVSPost2010PropOp57
 70
     1
102
RTVSPropertyOp0
 70
     1
102
RTVSPropertyOp1
 70
     1
102
RTVSPropertyOp2
 70
     1
102
RTVSPropertyOp3
 70
     1
102
RTVSPropertyOp4
 70
     1
102
RTVSPropertyOp5
 70
     1
102
RTVSPropertyOp6
 70
     1
102
RTVSPropertyOp7
 70
     1
102
RTVSPropertyOp8
 70
     1
102
RTVSPropertyOp9
 70
     1
102
RTVSPropertyOp10
 70
     1
102
RTVSPropertyOp11
 70
     1
102
RTVSPropertyOp12
 70
     1
102
RTVSPropertyOp13
 70
     1
102
RTVSPropertyOp14
 70
     1
102
RTVSPropertyOp15
 70
     1
102
RTVSPropertyOp16
 70
     1
102
RTVSPropertyOp17
 70
     1
102
RTVSPropertyOp18
 70
     1
102
RTVSPropertyOp19
 70
     1
102
RTVSPropertyOp20
 70
     1
102
RTVSPropertyOp21
 70
     1
102
RTVSPropertyOp22
 70
     1
102
RTVSPropertyOp23
 70
     1
102
RTVSPropertyOp24
 70
     1
102
RTVSPropertyOp25
 70
     1
102
RTVSPropertyOp26
 70
     1
102
RTVSPropertyOp27
 70
     1
102
RTVSPropertyOp28
 70
     1
102
RTVSPropertyOp29
 70
     1
102
RTVSPropertyOp30
 70
     1
102
RTVSPropertyOp31
 70
     1
102
RTVSPropertyOp32
 70
     1
102
RTVSPropertyOp33
 70
     1
102
RTVSPropertyOp34
 70
     1
102
RTVSPropertyOp35
 70
     1
102
RTVSPropertyOp36
 70
     1
102
RTVSPropertyOp37
 70
     1
102
RTVSPropertyOp38
 70
     1
102
RTVSPropertyOp39
 70
     1
102
RTVSPropertyOp40
 70
     1
102
RTVSPropertyOp41
 70
     1
102
RTVSPropertyOp42
 70
     1
102
RTVSPropertyOp43
 70
     1
102
RTVSPropertyOp44
 70
     1
102
RTVSPropertyOp45
 70
     1
102
RTVSPropertyOp46
 70
     1
102
RTVSPropertyOp47
 70
     1
102
RTVSPropertyOp48
 70
     1
102
RTVSPropertyOp49
 70
     1
102
RTVSPropertyOp50
 70
     1
102
RTVSPropertyOp51
 70
     0
102
RTVSPropertyOp52
 70
     0
102
RTVSPropertyOp53
 70
     1
102
RTVSPropertyOp54
 70
     1
102
RTVSPropertyOp55
 70
     1
102
RTVSPropertyOp56
 70
     1
102
RTVSPropertyOp57
 70
     1
102
RTVSPropertyOp58
 70
     1
102
RTVSPropertyOp59
 70
     1
102
RTVSPropertyOp60
 70
     1
102
RTVSPropertyOp61
 70
     1
102
RTVSPropertyOp62
 70
     1
  0
XRECORD
  5
38A
102
{ACAD_REACTORS
330
389
102
}
330
389
100
AcDbXrecord
280
     1
102
RTVSPost2010Prop28
280
     0
102
RTVSPost2010PropOp28
 70
     0
102
RTVSPost2010Prop29
280
     1
102
RTVSPost2010PropOp29
 70
     0
102
RTVSPost2010Prop30
280
     1
102
RTVSPost2010PropOp30
 70
     0
102
RTVSPost2010Prop31
280
     0
102
RTVSPost2010PropOp31
 70
     0
102
RTVSPost2010Prop32
280
     0
102
RTVSPost2010PropOp32
 70
     0
102
RTVSPost2010Prop33
280
     0
102
RTVSPost2010PropOp33
 70
     0
102
RTVSPost2010Prop34
280
     0
102
RTVSPost2010PropOp34
 70
     0
102
RTVSPost2010Prop35
280
     0
102
RTVSPost2010PropOp35
 70
     0
102
RTVSPost2010Prop36
280
     0
102
RTVSPost2010PropOp36
 70
     0
102
RTVSPost2010Prop37
 90
       50
102
RTVSPost2010PropOp37
 70
     0
102
RTVSPost2010Prop38
140
0.0
102
RTVSPost2010PropOp38
 70
     0
102
RTVSPost2010Prop39
140
1.0
102
RTVSPost2010PropOp39
 70
     0
102
RTVSPost2010Prop40
 90
        0
102
RTVSPost2010PropOp40
 70
     0
102
RTVSPost2010Prop41ColorIndex
 90
       18
102
RTVSPost2010Prop41ColorRGB
 90
        0
102
RTVSPost2010PropOp41
 70
     0
102
RTVSPost2010Prop42
 90
       50
102
RTVSPost2010PropOp42
 70
     0
102
RTVSPost2010Prop43
 90
        3
102
RTVSPost2010PropOp43
 70
     0
102
RTVSPost2010Prop44ColorIndex
 90
        5
102
RTVSPost2010Prop44ColorRGB
 90
      255
102
RTVSPost2010PropOp44
 70
     0
102
RTVSPost2010Prop45
280
     0
102
RTVSPost2010PropOp45
 70
     0
102
RTVSPost2010Prop46
 90
       50
102
RTVSPost2010PropOp46
 70
     0
102
RTVSPost2010Prop47
 90
       50
102
RTVSPost2010PropOp47
 70
     0
102
RTVSPost2010Prop48
 90
       50
102
RTVSPost2010PropOp48
 70
     0
102
RTVSPost2010Prop49
280
     0
102
RTVSPost2010PropOp49
 70
     0
102
RTVSPost2010Prop50
 90
       50
102
RTVSPost2010PropOp50
 70
     0
102
RTVSPost2010Prop51ColorIndex
 90
      256
102
RTVSPost2010Prop51ColorRGB
 90
-16777216
102
RTVSPost2010PropOp51
 70
     0
102
RTVSPost2010Prop52
140
1.0
102
RTVSPost2010PropOp52
 70
     0
102
RTVSPost2010Prop53
 90
        2
102
RTVSPost2010PropOp53
 70
     0
102
RTVSPost2010Prop54
  1
strokes_ogs.tif
102
RTVSPost2010PropOp54
 70
     0
102
RTVSPost2010Prop55
280
     0
102
RTVSPost2010PropOp55
 70
     0
102
RTVSPost2010Prop56
140
1.0
102
RTVSPost2010PropOp56
 70
     0
102
RTVSPost2010Prop57
140
1.0
102
RTVSPost2010PropOp57
 70
     0
102
RTVSPropertyOp0
 70
     0
102
RTVSPropertyOp1
 70
     0
102
RTVSPropertyOp2
 70
     0
102
RTVSPropertyOp3
 70
     0
102
RTVSPropertyOp4
 70
     0
102
RTVSPropertyOp5
 70
     0
102
RTVSPropertyOp6
 70
     0
102
RTVSPropertyOp7
 70
     0
102
RTVSPropertyOp8
 70
     0
102
RTVSPropertyOp9
 70
     0
102
RTVSPropertyOp10
 70
     0
102
RTVSPropertyOp11
 70
     0
102
RTVSPropertyOp12
 70
     0
102
RTVSPropertyOp13
 70
     0
102
RTVSPropertyOp14
 70
     2
102
RTVSPropertyOp15
 70
     0
102
RTVSPropertyOp16
 70
     0
102
RTVSPropertyOp17
 70
     0
102
RTVSPropertyOp18
 70
     0
102
RTVSPropertyOp19
 70
     0
102
RTVSPropertyOp20
 70
     0
102
RTVSPropertyOp21
 70
     0
102
RTVSPropertyOp22
 70
     0
102
RTVSPropertyOp23
 70
     0
102
RTVSPropertyOp24
 70
     0
102
RTVSPropertyOp25
 70
     0
102
RTVSPropertyOp26
 70
     0
102
RTVSPropertyOp27
 70
     0
102
RTVSPropertyOp28
 70
     0
102
RTVSPropertyOp29
 70
     0
102
RTVSPropertyOp30
 70
     0
102
RTVSPropertyOp31
 70
     0
102
RTVSPropertyOp32
 70
     0
102
RTVSPropertyOp33
 70
     0
102
RTVSPropertyOp34
 70
     0
102
RTVSPropertyOp35
 70
     0
102
RTVSPropertyOp36
 70
     0
102
RTVSPropertyOp37
 70
     0
102
RTVSPropertyOp38
 70
     0
102
RTVSPropertyOp39
 70
     0
102
RTVSPropertyOp40
 70
     0
102
RTVSPropertyOp41
 70
     0
102
RTVSPropertyOp42
 70
     0
102
RTVSPropertyOp43
 70
     0
102
RTVSPropertyOp44
 70
     0
102
RTVSPropertyOp45
 70
     0
102
RTVSPropertyOp46
 70
     0
102
RTVSPropertyOp47
 70
     0
102
RTVSPropertyOp48
 70
     0
102
RTVSPropertyOp49
 70
     0
102
RTVSPropertyOp50
 70
     0
102
RTVSPropertyOp51
 70
     0
102
RTVSPropertyOp52
 70
     0
102
RTVSPropertyOp53
 70
     0
102
RTVSPropertyOp54
 70
     0
102
RTVSPropertyOp55
 70
     0
102
RTVSPropertyOp56
 70
     0
102
RTVSPropertyOp57
 70
     0
102
RTVSPropertyOp58
 70
     1
102
RTVSPropertyOp59
 70
     1
102
RTVSPropertyOp60
 70
     1
102
RTVSPropertyOp61
 70
     1
102
RTVSPropertyOp62
 70
     1
  0
XRECORD
  5
378
102
{ACAD_REACTORS
330
377
102
}
330
377
100
AcDbXrecord
280
     1
102
RTVSPost2010Prop28
280
     0
102
RTVSPost2010PropOp28
 70
     1
102
RTVSPost2010Prop29
280
     1
102
RTVSPost2010PropOp29
 70
     1
102
RTVSPost2010Prop30
280
     1
102
RTVSPost2010PropOp30
 70
     1
102
RTVSPost2010Prop31
280
     0
102
RTVSPost2010PropOp31
 70
     1
102
RTVSPost2010Prop32
280
     0
102
RTVSPost2010PropOp32
 70
     1
102
RTVSPost2010Prop33
280
     0
102
RTVSPost2010PropOp33
 70
     1
102
RTVSPost2010Prop34
280
     0
102
RTVSPost2010PropOp34
 70
     1
102
RTVSPost2010Prop35
280
     0
102
RTVSPost2010PropOp35
 70
     1
102
RTVSPost2010Prop36
280
     0
102
RTVSPost2010PropOp36
 70
     1
102
RTVSPost2010Prop37
 90
       50
102
RTVSPost2010PropOp37
 70
     1
102
RTVSPost2010Prop38
140
0.0
102
RTVSPost2010PropOp38
 70
     1
102
RTVSPost2010Prop39
140
1.0
102
RTVSPost2010PropOp39
 70
     1
102
RTVSPost2010Prop40
 90
        0
102
RTVSPost2010PropOp40
 70
     1
102
RTVSPost2010Prop41ColorIndex
 90
       18
102
RTVSPost2010Prop41ColorRGB
 90
        0
102
RTVSPost2010PropOp41
 70
     1
102
RTVSPost2010Prop42
 90
       50
102
RTVSPost2010PropOp42
 70
     1
102
RTVSPost2010Prop43
 90
        3
102
RTVSPost2010PropOp43
 70
     1
102
RTVSPost2010Prop44ColorIndex
 90
        5
102
RTVSPost2010Prop44ColorRGB
 90
      255
102
RTVSPost2010PropOp44
 70
     1
102
RTVSPost2010Prop45
280
     0
102
RTVSPost2010PropOp45
 70
     1
102
RTVSPost2010Prop46
 90
       50
102
RTVSPost2010PropOp46
 70
     1
102
RTVSPost2010Prop47
 90
       50
102
RTVSPost2010PropOp47
 70
     1
102
RTVSPost2010Prop48
 90
       50
102
RTVSPost2010PropOp48
 70
     1
102
RTVSPost2010Prop49
280
     0
102
RTVSPost2010PropOp49
 70
     1
102
RTVSPost2010Prop50
 90
       50
102
RTVSPost2010PropOp50
 70
     1
102
RTVSPost2010Prop51ColorIndex
 90
      256
102
RTVSPost2010Prop51ColorRGB
 90
-16777216
102
RTVSPost2010PropOp51
 70
     0
102
RTVSPost2010Prop52
140
1.0
102
RTVSPost2010PropOp52
 70
     0
102
RTVSPost2010Prop53
 90
        2
102
RTVSPost2010PropOp53
 70
     1
102
RTVSPost2010Prop54
  1
strokes_ogs.tif
102
RTVSPost2010PropOp54
 70
     1
102
RTVSPost2010Prop55
280
     0
102
RTVSPost2010PropOp55
 70
     1
102
RTVSPost2010Prop56
140
1.0
102
RTVSPost2010PropOp56
 70
     1
102
RTVSPost2010Prop57
140
1.0
102
RTVSPost2010PropOp57
 70
     1
102
RTVSPropertyOp0
 70
     1
102
RTVSPropertyOp1
 70
     1
102
RTVSPropertyOp2
 70
     1
102
RTVSPropertyOp3
 70
     1
102
RTVSPropertyOp4
 70
     1
102
RTVSPropertyOp5
 70
     1
102
RTVSPropertyOp6
 70
     1
102
RTVSPropertyOp7
 70
     1
102
RTVSPropertyOp8
 70
     1
102
RTVSPropertyOp9
 70
     1
102
RTVSPropertyOp10
 70
     1
102
RTVSPropertyOp11
 70
     1
102
RTVSPropertyOp12
 70
     1
102
RTVSPropertyOp13
 70
     1
102
RTVSPropertyOp14
 70
     1
102
RTVSPropertyOp15
 70
     1
102
RTVSPropertyOp16
 70
     1
102
RTVSPropertyOp17
 70
     1
102
RTVSPropertyOp18
 70
     1
102
RTVSPropertyOp19
 70
     1
102
RTVSPropertyOp20
 70
     1
102
RTVSPropertyOp21
 70
     1
102
RTVSPropertyOp22
 70
     1
102
RTVSPropertyOp23
 70
     1
102
RTVSPropertyOp24
 70
     1
102
RTVSPropertyOp25
 70
     1
102
RTVSPropertyOp26
 70
     1
102
RTVSPropertyOp27
 70
     1
102
RTVSPropertyOp28
 70
     1
102
RTVSPropertyOp29
 70
     1
102
RTVSPropertyOp30
 70
     1
102
RTVSPropertyOp31
 70
     1
102
RTVSPropertyOp32
 70
     1
102
RTVSPropertyOp33
 70
     1
102
RTVSPropertyOp34
 70
     1
102
RTVSPropertyOp35
 70
     1
102
RTVSPropertyOp36
 70
     1
102
RTVSPropertyOp37
 70
     1
102
RTVSPropertyOp38
 70
     1
102
RTVSPropertyOp39
 70
     1
102
RTVSPropertyOp40
 70
     1
102
RTVSPropertyOp41
 70
     1
102
RTVSPropertyOp42
 70
     1
102
RTVSPropertyOp43
 70
     1
102
RTVSPropertyOp44
 70
     1
102
RTVSPropertyOp45
 70
     1
102
RTVSPropertyOp46
 70
     1
102
RTVSPropertyOp47
 70
     1
102
RTVSPropertyOp48
 70
     1
102
RTVSPropertyOp49
 70
     1
102
RTVSPropertyOp50
 70
     1
102
RTVSPropertyOp51
 70
     0
102
RTVSPropertyOp52
 70
     0
102
RTVSPropertyOp53
 70
     1
102
RTVSPropertyOp54
 70
     1
102
RTVSPropertyOp55
 70
     1
102
RTVSPropertyOp56
 70
     1
102
RTVSPropertyOp57
 70
     1
102
RTVSPropertyOp58
 70
     1
102
RTVSPropertyOp59
 70
     1
102
RTVSPropertyOp60
 70
     1
102
RTVSPropertyOp61
 70
     1
102
RTVSPropertyOp62
 70
     1
  0
XRECORD
  5
396
102
{ACAD_REACTORS
330
395
102
}
330
395
100
AcDbXrecord
280
     1
102
RTVSPost2010Prop28
280
     0
102
RTVSPost2010PropOp28
 70
     1
102
RTVSPost2010Prop29
280
     1
102
RTVSPost2010PropOp29
 70
     1
102
RTVSPost2010Prop30
280
     1
102
RTVSPost2010PropOp30
 70
     1
102
RTVSPost2010Prop31
280
     0
102
RTVSPost2010PropOp31
 70
     1
102
RTVSPost2010Prop32
280
     0
102
RTVSPost2010PropOp32
 70
     1
102
RTVSPost2010Prop33
280
     0
102
RTVSPost2010PropOp33
 70
     1
102
RTVSPost2010Prop34
280
     0
102
RTVSPost2010PropOp34
 70
     1
102
RTVSPost2010Prop35
280
     0
102
RTVSPost2010PropOp35
 70
     1
102
RTVSPost2010Prop36
280
     0
102
RTVSPost2010PropOp36
 70
     1
102
RTVSPost2010Prop37
 90
       50
102
RTVSPost2010PropOp37
 70
     1
102
RTVSPost2010Prop38
140
0.0
102
RTVSPost2010PropOp38
 70
     1
102
RTVSPost2010Prop39
140
1.0
102
RTVSPost2010PropOp39
 70
     1
102
RTVSPost2010Prop40
 90
        0
102
RTVSPost2010PropOp40
 70
     1
102
RTVSPost2010Prop41ColorIndex
 90
       18
102
RTVSPost2010Prop41ColorRGB
 90
        0
102
RTVSPost2010PropOp41
 70
     1
102
RTVSPost2010Prop42
 90
       50
102
RTVSPost2010PropOp42
 70
     1
102
RTVSPost2010Prop43
 90
        3
102
RTVSPost2010PropOp43
 70
     1
102
RTVSPost2010Prop44ColorIndex
 90
        5
102
RTVSPost2010Prop44ColorRGB
 90
      255
102
RTVSPost2010PropOp44
 70
     1
102
RTVSPost2010Prop45
280
     0
102
RTVSPost2010PropOp45
 70
     1
102
RTVSPost2010Prop46
 90
       50
102
RTVSPost2010PropOp46
 70
     1
102
RTVSPost2010Prop47
 90
       50
102
RTVSPost2010PropOp47
 70
     1
102
RTVSPost2010Prop48
 90
       50
102
RTVSPost2010PropOp48
 70
     1
102
RTVSPost2010Prop49
280
     0
102
RTVSPost2010PropOp49
 70
     1
102
RTVSPost2010Prop50
 90
       50
102
RTVSPost2010PropOp50
 70
     1
102
RTVSPost2010Prop51ColorIndex
 90
      256
102
RTVSPost2010Prop51ColorRGB
 90
-16777216
102
RTVSPost2010PropOp51
 70
     0
102
RTVSPost2010Prop52
140
1.0
102
RTVSPost2010PropOp52
 70
     0
102
RTVSPost2010Prop53
 90
        2
102
RTVSPost2010PropOp53
 70
     1
102
RTVSPost2010Prop54
  1
strokes_ogs.tif
102
RTVSPost2010PropOp54
 70
     1
102
RTVSPost2010Prop55
280
     0
102
RTVSPost2010PropOp55
 70
     1
102
RTVSPost2010Prop56
140
1.0
102
RTVSPost2010PropOp56
 70
     1
102
RTVSPost2010Prop57
140
1.0
102
RTVSPost2010PropOp57
 70
     1
102
RTVSPropertyOp0
 70
     1
102
RTVSPropertyOp1
 70
     1
102
RTVSPropertyOp2
 70
     1
102
RTVSPropertyOp3
 70
     1
102
RTVSPropertyOp4
 70
     1
102
RTVSPropertyOp5
 70
     1
102
RTVSPropertyOp6
 70
     1
102
RTVSPropertyOp7
 70
     1
102
RTVSPropertyOp8
 70
     1
102
RTVSPropertyOp9
 70
     1
102
RTVSPropertyOp10
 70
     1
102
RTVSPropertyOp11
 70
     1
102
RTVSPropertyOp12
 70
     1
102
RTVSPropertyOp13
 70
     1
102
RTVSPropertyOp14
 70
     1
102
RTVSPropertyOp15
 70
     1
102
RTVSPropertyOp16
 70
     1
102
RTVSPropertyOp17
 70
     1
102
RTVSPropertyOp18
 70
     1
102
RTVSPropertyOp19
 70
     1
102
RTVSPropertyOp20
 70
     1
102
RTVSPropertyOp21
 70
     1
102
RTVSPropertyOp22
 70
     1
102
RTVSPropertyOp23
 70
     1
102
RTVSPropertyOp24
 70
     1
102
RTVSPropertyOp25
 70
     1
102
RTVSPropertyOp26
 70
     1
102
RTVSPropertyOp27
 70
     1
102
RTVSPropertyOp28
 70
     1
102
RTVSPropertyOp29
 70
     1
102
RTVSPropertyOp30
 70
     1
102
RTVSPropertyOp31
 70
     1
102
RTVSPropertyOp32
 70
     1
102
RTVSPropertyOp33
 70
     1
102
RTVSPropertyOp34
 70
     1
102
RTVSPropertyOp35
 70
     1
102
RTVSPropertyOp36
 70
     1
102
RTVSPropertyOp37
 70
     1
102
RTVSPropertyOp38
 70
     1
102
RTVSPropertyOp39
 70
     1
102
RTVSPropertyOp40
 70
     1
102
RTVSPropertyOp41
 70
     1
102
RTVSPropertyOp42
 70
     1
102
RTVSPropertyOp43
 70
     1
102
RTVSPropertyOp44
 70
     1
102
RTVSPropertyOp45
 70
     1
102
RTVSPropertyOp46
 70
     1
102
RTVSPropertyOp47
 70
     1
102
RTVSPropertyOp48
 70
     1
102
RTVSPropertyOp49
 70
     1
102
RTVSPropertyOp50
 70
     1
102
RTVSPropertyOp51
 70
     0
102
RTVSPropertyOp52
 70
     0
102
RTVSPropertyOp53
 70
     1
102
RTVSPropertyOp54
 70
     1
102
RTVSPropertyOp55
 70
     1
102
RTVSPropertyOp56
 70
     1
102
RTVSPropertyOp57
 70
     1
102
RTVSPropertyOp58
 70
     1
102
RTVSPropertyOp59
 70
     1
102
RTVSPropertyOp60
 70
     1
102
RTVSPropertyOp61
 70
     1
102
RTVSPropertyOp62
 70
     1
  0
XRECORD
  5
394
102
{ACAD_REACTORS
330
393
102
}
330
393
100
AcDbXrecord
280
     1
102
RTVSPost2010Prop28
280
     0
102
RTVSPost2010PropOp28
 70
     1
102
RTVSPost2010Prop29
280
     1
102
RTVSPost2010PropOp29
 70
     1
102
RTVSPost2010Prop30
280
     1
102
RTVSPost2010PropOp30
 70
     1
102
RTVSPost2010Prop31
280
     0
102
RTVSPost2010PropOp31
 70
     1
102
RTVSPost2010Prop32
280
     0
102
RTVSPost2010PropOp32
 70
     1
102
RTVSPost2010Prop33
280
     0
102
RTVSPost2010PropOp33
 70
     1
102
RTVSPost2010Prop34
280
     0
102
RTVSPost2010PropOp34
 70
     1
102
RTVSPost2010Prop35
280
     0
102
RTVSPost2010PropOp35
 70
     1
102
RTVSPost2010Prop36
280
     0
102
RTVSPost2010PropOp36
 70
     1
102
RTVSPost2010Prop37
 90
       50
102
RTVSPost2010PropOp37
 70
     1
102
RTVSPost2010Prop38
140
0.0
102
RTVSPost2010PropOp38
 70
     1
102
RTVSPost2010Prop39
140
1.0
102
RTVSPost2010PropOp39
 70
     1
102
RTVSPost2010Prop40
 90
        0
102
RTVSPost2010PropOp40
 70
     1
102
RTVSPost2010Prop41ColorIndex
 90
       18
102
RTVSPost2010Prop41ColorRGB
 90
        0
102
RTVSPost2010PropOp41
 70
     1
102
RTVSPost2010Prop42
 90
       50
102
RTVSPost2010PropOp42
 70
     1
102
RTVSPost2010Prop43
 90
        3
102
RTVSPost2010PropOp43
 70
     1
102
RTVSPost2010Prop44ColorIndex
 90
        5
102
RTVSPost2010Prop44ColorRGB
 90
      255
102
RTVSPost2010PropOp44
 70
     1
102
RTVSPost2010Prop45
280
     0
102
RTVSPost2010PropOp45
 70
     1
102
RTVSPost2010Prop46
 90
       50
102
RTVSPost2010PropOp46
 70
     1
102
RTVSPost2010Prop47
 90
       50
102
RTVSPost2010PropOp47
 70
     1
102
RTVSPost2010Prop48
 90
       50
102
RTVSPost2010PropOp48
 70
     1
102
RTVSPost2010Prop49
280
     0
102
RTVSPost2010PropOp49
 70
     1
102
RTVSPost2010Prop50
 90
       50
102
RTVSPost2010PropOp50
 70
     1
102
RTVSPost2010Prop51ColorIndex
 90
      256
102
RTVSPost2010Prop51ColorRGB
 90
-16777216
102
RTVSPost2010PropOp51
 70
     0
102
RTVSPost2010Prop52
140
1.0
102
RTVSPost2010PropOp52
 70
     0
102
RTVSPost2010Prop53
 90
        2
102
RTVSPost2010PropOp53
 70
     1
102
RTVSPost2010Prop54
  1
strokes_ogs.tif
102
RTVSPost2010PropOp54
 70
     1
102
RTVSPost2010Prop55
280
     0
102
RTVSPost2010PropOp55
 70
     1
102
RTVSPost2010Prop56
140
1.0
102
RTVSPost2010PropOp56
 70
     1
102
RTVSPost2010Prop57
140
1.0
102
RTVSPost2010PropOp57
 70
     1
102
RTVSPropertyOp0
 70
     1
102
RTVSPropertyOp1
 70
     1
102
RTVSPropertyOp2
 70
     1
102
RTVSPropertyOp3
 70
     1
102
RTVSPropertyOp4
 70
     1
102
RTVSPropertyOp5
 70
     1
102
RTVSPropertyOp6
 70
     1
102
RTVSPropertyOp7
 70
     1
102
RTVSPropertyOp8
 70
     1
102
RTVSPropertyOp9
 70
     1
102
RTVSPropertyOp10
 70
     1
102
RTVSPropertyOp11
 70
     1
102
RTVSPropertyOp12
 70
     1
102
RTVSPropertyOp13
 70
     1
102
RTVSPropertyOp14
 70
     1
102
RTVSPropertyOp15
 70
     1
102
RTVSPropertyOp16
 70
     1
102
RTVSPropertyOp17
 70
     1
102
RTVSPropertyOp18
 70
     1
102
RTVSPropertyOp19
 70
     1
102
RTVSPropertyOp20
 70
     1
102
RTVSPropertyOp21
 70
     1
102
RTVSPropertyOp22
 70
     1
102
RTVSPropertyOp23
 70
     1
102
RTVSPropertyOp24
 70
     1
102
RTVSPropertyOp25
 70
     1
102
RTVSPropertyOp26
 70
     1
102
RTVSPropertyOp27
 70
     1
102
RTVSPropertyOp28
 70
     1
102
RTVSPropertyOp29
 70
     1
102
RTVSPropertyOp30
 70
     1
102
RTVSPropertyOp31
 70
     1
102
RTVSPropertyOp32
 70
     1
102
RTVSPropertyOp33
 70
     1
102
RTVSPropertyOp34
 70
     1
102
RTVSPropertyOp35
 70
     1
102
RTVSPropertyOp36
 70
     1
102
RTVSPropertyOp37
 70
     1
102
RTVSPropertyOp38
 70
     1
102
RTVSPropertyOp39
 70
     1
102
RTVSPropertyOp40
 70
     1
102
RTVSPropertyOp41
 70
     1
102
RTVSPropertyOp42
 70
     1
102
RTVSPropertyOp43
 70
     1
102
RTVSPropertyOp44
 70
     1
102
RTVSPropertyOp45
 70
     1
102
RTVSPropertyOp46
 70
     1
102
RTVSPropertyOp47
 70
     1
102
RTVSPropertyOp48
 70
     1
102
RTVSPropertyOp49
 70
     1
102
RTVSPropertyOp50
 70
     1
102
RTVSPropertyOp51
 70
     0
102
RTVSPropertyOp52
 70
     0
102
RTVSPropertyOp53
 70
     1
102
RTVSPropertyOp54
 70
     1
102
RTVSPropertyOp55
 70
     1
102
RTVSPropertyOp56
 70
     1
102
RTVSPropertyOp57
 70
     1
102
RTVSPropertyOp58
 70
     1
102
RTVSPropertyOp59
 70
     1
102
RTVSPropertyOp60
 70
     1
102
RTVSPropertyOp61
 70
     1
102
RTVSPropertyOp62
 70
     1
  0
XRECORD
  5
38E
102
{ACAD_REACTORS
330
38D
102
}
330
38D
100
AcDbXrecord
280
     1
102
RTVSPost2010Prop28
280
     0
102
RTVSPost2010PropOp28
 70
     1
102
RTVSPost2010Prop29
280
     1
102
RTVSPost2010PropOp29
 70
     1
102
RTVSPost2010Prop30
280
     1
102
RTVSPost2010PropOp30
 70
     1
102
RTVSPost2010Prop31
280
     0
102
RTVSPost2010PropOp31
 70
     1
102
RTVSPost2010Prop32
280
     0
102
RTVSPost2010PropOp32
 70
     1
102
RTVSPost2010Prop33
280
     0
102
RTVSPost2010PropOp33
 70
     1
102
RTVSPost2010Prop34
280
     0
102
RTVSPost2010PropOp34
 70
     1
102
RTVSPost2010Prop35
280
     0
102
RTVSPost2010PropOp35
 70
     1
102
RTVSPost2010Prop36
280
     0
102
RTVSPost2010PropOp36
 70
     1
102
RTVSPost2010Prop37
 90
       50
102
RTVSPost2010PropOp37
 70
     1
102
RTVSPost2010Prop38
140
0.0
102
RTVSPost2010PropOp38
 70
     1
102
RTVSPost2010Prop39
140
1.0
102
RTVSPost2010PropOp39
 70
     1
102
RTVSPost2010Prop40
 90
        0
102
RTVSPost2010PropOp40
 70
     1
102
RTVSPost2010Prop41ColorIndex
 90
       18
102
RTVSPost2010Prop41ColorRGB
 90
        0
102
RTVSPost2010PropOp41
 70
     1
102
RTVSPost2010Prop42
 90
       50
102
RTVSPost2010PropOp42
 70
     1
102
RTVSPost2010Prop43
 90
        3
102
RTVSPost2010PropOp43
 70
     1
102
RTVSPost2010Prop44ColorIndex
 90
        5
102
RTVSPost2010Prop44ColorRGB
 90
      255
102
RTVSPost2010PropOp44
 70
     1
102
RTVSPost2010Prop45
280
     0
102
RTVSPost2010PropOp45
 70
     1
102
RTVSPost2010Prop46
 90
       50
102
RTVSPost2010PropOp46
 70
     1
102
RTVSPost2010Prop47
 90
       50
102
RTVSPost2010PropOp47
 70
     1
102
RTVSPost2010Prop48
 90
       50
102
RTVSPost2010PropOp48
 70
     1
102
RTVSPost2010Prop49
280
     0
102
RTVSPost2010PropOp49
 70
     1
102
RTVSPost2010Prop50
 90
       50
102
RTVSPost2010PropOp50
 70
     1
102
RTVSPost2010Prop51ColorIndex
 90
      256
102
RTVSPost2010Prop51ColorRGB
 90
-16777216
102
RTVSPost2010PropOp51
 70
     0
102
RTVSPost2010Prop52
140
1.0
102
RTVSPost2010PropOp52
 70
     0
102
RTVSPost2010Prop53
 90
        2
102
RTVSPost2010PropOp53
 70
     1
102
RTVSPost2010Prop54
  1
strokes_ogs.tif
102
RTVSPost2010PropOp54
 70
     1
102
RTVSPost2010Prop55
280
     0
102
RTVSPost2010PropOp55
 70
     1
102
RTVSPost2010Prop56
140
1.0
102
RTVSPost2010PropOp56
 70
     1
102
RTVSPost2010Prop57
140
1.0
102
RTVSPost2010PropOp57
 70
     1
102
RTVSPropertyOp0
 70
     1
102
RTVSPropertyOp1
 70
     1
102
RTVSPropertyOp2
 70
     1
102
RTVSPropertyOp3
 70
     1
102
RTVSPropertyOp4
 70
     1
102
RTVSPropertyOp5
 70
     1
102
RTVSPropertyOp6
 70
     1
102
RTVSPropertyOp7
 70
     1
102
RTVSPropertyOp8
 70
     1
102
RTVSPropertyOp9
 70
     1
102
RTVSPropertyOp10
 70
     1
102
RTVSPropertyOp11
 70
     1
102
RTVSPropertyOp12
 70
     1
102
RTVSPropertyOp13
 70
     1
102
RTVSPropertyOp14
 70
     1
102
RTVSPropertyOp15
 70
     1
102
RTVSPropertyOp16
 70
     1
102
RTVSPropertyOp17
 70
     1
102
RTVSPropertyOp18
 70
     1
102
RTVSPropertyOp19
 70
     1
102
RTVSPropertyOp20
 70
     1
102
RTVSPropertyOp21
 70
     1
102
RTVSPropertyOp22
 70
     1
102
RTVSPropertyOp23
 70
     1
102
RTVSPropertyOp24
 70
     1
102
RTVSPropertyOp25
 70
     1
102
RTVSPropertyOp26
 70
     1
102
RTVSPropertyOp27
 70
     1
102
RTVSPropertyOp28
 70
     1
102
RTVSPropertyOp29
 70
     1
102
RTVSPropertyOp30
 70
     1
102
RTVSPropertyOp31
 70
     1
102
RTVSPropertyOp32
 70
     1
102
RTVSPropertyOp33
 70
     1
102
RTVSPropertyOp34
 70
     1
102
RTVSPropertyOp35
 70
     1
102
RTVSPropertyOp36
 70
     1
102
RTVSPropertyOp37
 70
     1
102
RTVSPropertyOp38
 70
     1
102
RTVSPropertyOp39
 70
     1
102
RTVSPropertyOp40
 70
     1
102
RTVSPropertyOp41
 70
     1
102
RTVSPropertyOp42
 70
     1
102
RTVSPropertyOp43
 70
     1
102
RTVSPropertyOp44
 70
     1
102
RTVSPropertyOp45
 70
     1
102
RTVSPropertyOp46
 70
     1
102
RTVSPropertyOp47
 70
     1
102
RTVSPropertyOp48
 70
     1
102
RTVSPropertyOp49
 70
     1
102
RTVSPropertyOp50
 70
     1
102
RTVSPropertyOp51
 70
     0
102
RTVSPropertyOp52
 70
     0
102
RTVSPropertyOp53
 70
     1
102
RTVSPropertyOp54
 70
     1
102
RTVSPropertyOp55
 70
     1
102
RTVSPropertyOp56
 70
     1
102
RTVSPropertyOp57
 70
     1
102
RTVSPropertyOp58
 70
     1
102
RTVSPropertyOp59
 70
     1
102
RTVSPropertyOp60
 70
     1
102
RTVSPropertyOp61
 70
     1
102
RTVSPropertyOp62
 70
     1
  0
XRECORD
  5
390
102
{ACAD_REACTORS
330
38F
102
}
330
38F
100
AcDbXrecord
280
     1
102
RTVSPost2010Prop28
280
     0
102
RTVSPost2010PropOp28
 70
     1
102
RTVSPost2010Prop29
280
     1
102
RTVSPost2010PropOp29
 70
     1
102
RTVSPost2010Prop30
280
     1
102
RTVSPost2010PropOp30
 70
     1
102
RTVSPost2010Prop31
280
     0
102
RTVSPost2010PropOp31
 70
     1
102
RTVSPost2010Prop32
280
     0
102
RTVSPost2010PropOp32
 70
     1
102
RTVSPost2010Prop33
280
     0
102
RTVSPost2010PropOp33
 70
     1
102
RTVSPost2010Prop34
280
     0
102
RTVSPost2010PropOp34
 70
     1
102
RTVSPost2010Prop35
280
     0
102
RTVSPost2010PropOp35
 70
     1
102
RTVSPost2010Prop36
280
     0
102
RTVSPost2010PropOp36
 70
     1
102
RTVSPost2010Prop37
 90
       50
102
RTVSPost2010PropOp37
 70
     1
102
RTVSPost2010Prop38
140
0.0
102
RTVSPost2010PropOp38
 70
     1
102
RTVSPost2010Prop39
140
1.0
102
RTVSPost2010PropOp39
 70
     1
102
RTVSPost2010Prop40
 90
        0
102
RTVSPost2010PropOp40
 70
     1
102
RTVSPost2010Prop41ColorIndex
 90
       18
102
RTVSPost2010Prop41ColorRGB
 90
        0
102
RTVSPost2010PropOp41
 70
     1
102
RTVSPost2010Prop42
 90
       50
102
RTVSPost2010PropOp42
 70
     1
102
RTVSPost2010Prop43
 90
        3
102
RTVSPost2010PropOp43
 70
     1
102
RTVSPost2010Prop44ColorIndex
 90
        5
102
RTVSPost2010Prop44ColorRGB
 90
      255
102
RTVSPost2010PropOp44
 70
     1
102
RTVSPost2010Prop45
280
     0
102
RTVSPost2010PropOp45
 70
     1
102
RTVSPost2010Prop46
 90
       50
102
RTVSPost2010PropOp46
 70
     1
102
RTVSPost2010Prop47
 90
       50
102
RTVSPost2010PropOp47
 70
     1
102
RTVSPost2010Prop48
 90
       50
102
RTVSPost2010PropOp48
 70
     1
102
RTVSPost2010Prop49
280
     0
102
RTVSPost2010PropOp49
 70
     1
102
RTVSPost2010Prop50
 90
       50
102
RTVSPost2010PropOp50
 70
     1
102
RTVSPost2010Prop51ColorIndex
 90
      256
102
RTVSPost2010Prop51ColorRGB
 90
-16777216
102
RTVSPost2010PropOp51
 70
     0
102
RTVSPost2010Prop52
140
1.0
102
RTVSPost2010PropOp52
 70
     0
102
RTVSPost2010Prop53
 90
        2
102
RTVSPost2010PropOp53
 70
     1
102
RTVSPost2010Prop54
  1
strokes_ogs.tif
102
RTVSPost2010PropOp54
 70
     1
102
RTVSPost2010Prop55
280
     0
102
RTVSPost2010PropOp55
 70
     1
102
RTVSPost2010Prop56
140
1.0
102
RTVSPost2010PropOp56
 70
     1
102
RTVSPost2010Prop57
140
1.0
102
RTVSPost2010PropOp57
 70
     1
102
RTVSPropertyOp0
 70
     1
102
RTVSPropertyOp1
 70
     1
102
RTVSPropertyOp2
 70
     1
102
RTVSPropertyOp3
 70
     1
102
RTVSPropertyOp4
 70
     1
102
RTVSPropertyOp5
 70
     1
102
RTVSPropertyOp6
 70
     1
102
RTVSPropertyOp7
 70
     1
102
RTVSPropertyOp8
 70
     1
102
RTVSPropertyOp9
 70
     1
102
RTVSPropertyOp10
 70
     1
102
RTVSPropertyOp11
 70
     1
102
RTVSPropertyOp12
 70
     1
102
RTVSPropertyOp13
 70
     1
102
RTVSPropertyOp14
 70
     1
102
RTVSPropertyOp15
 70
     1
102
RTVSPropertyOp16
 70
     1
102
RTVSPropertyOp17
 70
     1
102
RTVSPropertyOp18
 70
     1
102
RTVSPropertyOp19
 70
     1
102
RTVSPropertyOp20
 70
     1
102
RTVSPropertyOp21
 70
     1
102
RTVSPropertyOp22
 70
     1
102
RTVSPropertyOp23
 70
     1
102
RTVSPropertyOp24
 70
     1
102
RTVSPropertyOp25
 70
     1
102
RTVSPropertyOp26
 70
     1
102
RTVSPropertyOp27
 70
     1
102
RTVSPropertyOp28
 70
     1
102
RTVSPropertyOp29
 70
     1
102
RTVSPropertyOp30
 70
     1
102
RTVSPropertyOp31
 70
     1
102
RTVSPropertyOp32
 70
     1
102
RTVSPropertyOp33
 70
     1
102
RTVSPropertyOp34
 70
     1
102
RTVSPropertyOp35
 70
     1
102
RTVSPropertyOp36
 70
     1
102
RTVSPropertyOp37
 70
     1
102
RTVSPropertyOp38
 70
     1
102
RTVSPropertyOp39
 70
     1
102
RTVSPropertyOp40
 70
     1
102
RTVSPropertyOp41
 70
     1
102
RTVSPropertyOp42
 70
     1
102
RTVSPropertyOp43
 70
     1
102
RTVSPropertyOp44
 70
     1
102
RTVSPropertyOp45
 70
     1
102
RTVSPropertyOp46
 70
     1
102
RTVSPropertyOp47
 70
     1
102
RTVSPropertyOp48
 70
     1
102
RTVSPropertyOp49
 70
     1
102
RTVSPropertyOp50
 70
     1
102
RTVSPropertyOp51
 70
     0
102
RTVSPropertyOp52
 70
     0
102
RTVSPropertyOp53
 70
     1
102
RTVSPropertyOp54
 70
     1
102
RTVSPropertyOp55
 70
     1
102
RTVSPropertyOp56
 70
     1
102
RTVSPropertyOp57
 70
     1
102
RTVSPropertyOp58
 70
     1
102
RTVSPropertyOp59
 70
     1
102
RTVSPropertyOp60
 70
     1
102
RTVSPropertyOp61
 70
     1
102
RTVSPropertyOp62
 70
     1
  0
XRECORD
  5
380
102
{ACAD_REACTORS
330
37F
102
}
330
37F
100
AcDbXrecord
280
     1
102
RTVSPost2010Prop28
280
     0
102
RTVSPost2010PropOp28
 70
     1
102
RTVSPost2010Prop29
280
     1
102
RTVSPost2010PropOp29
 70
     1
102
RTVSPost2010Prop30
280
     1
102
RTVSPost2010PropOp30
 70
     1
102
RTVSPost2010Prop31
280
     0
102
RTVSPost2010PropOp31
 70
     1
102
RTVSPost2010Prop32
280
     0
102
RTVSPost2010PropOp32
 70
     1
102
RTVSPost2010Prop33
280
     0
102
RTVSPost2010PropOp33
 70
     1
102
RTVSPost2010Prop34
280
     0
102
RTVSPost2010PropOp34
 70
     1
102
RTVSPost2010Prop35
280
     0
102
RTVSPost2010PropOp35
 70
     1
102
RTVSPost2010Prop36
280
     0
102
RTVSPost2010PropOp36
 70
     1
102
RTVSPost2010Prop37
 90
       50
102
RTVSPost2010PropOp37
 70
     1
102
RTVSPost2010Prop38
140
0.0
102
RTVSPost2010PropOp38
 70
     1
102
RTVSPost2010Prop39
140
1.0
102
RTVSPost2010PropOp39
 70
     1
102
RTVSPost2010Prop40
 90
        0
102
RTVSPost2010PropOp40
 70
     1
102
RTVSPost2010Prop41ColorIndex
 90
       18
102
RTVSPost2010Prop41ColorRGB
 90
        0
102
RTVSPost2010PropOp41
 70
     1
102
RTVSPost2010Prop42
 90
       50
102
RTVSPost2010PropOp42
 70
     1
102
RTVSPost2010Prop43
 90
        3
102
RTVSPost2010PropOp43
 70
     1
102
RTVSPost2010Prop44ColorIndex
 90
        5
102
RTVSPost2010Prop44ColorRGB
 90
      255
102
RTVSPost2010PropOp44
 70
     1
102
RTVSPost2010Prop45
280
     0
102
RTVSPost2010PropOp45
 70
     1
102
RTVSPost2010Prop46
 90
       50
102
RTVSPost2010PropOp46
 70
     1
102
RTVSPost2010Prop47
 90
       50
102
RTVSPost2010PropOp47
 70
     1
102
RTVSPost2010Prop48
 90
       50
102
RTVSPost2010PropOp48
 70
     1
102
RTVSPost2010Prop49
280
     0
102
RTVSPost2010PropOp49
 70
     1
102
RTVSPost2010Prop50
 90
       50
102
RTVSPost2010PropOp50
 70
     1
102
RTVSPost2010Prop51ColorIndex
 90
      256
102
RTVSPost2010Prop51ColorRGB
 90
-16777216
102
RTVSPost2010PropOp51
 70
     0
102
RTVSPost2010Prop52
140
1.0
102
RTVSPost2010PropOp52
 70
     0
102
RTVSPost2010Prop53
 90
        2
102
RTVSPost2010PropOp53
 70
     1
102
RTVSPost2010Prop54
  1
strokes_ogs.tif
102
RTVSPost2010PropOp54
 70
     1
102
RTVSPost2010Prop55
280
     0
102
RTVSPost2010PropOp55
 70
     1
102
RTVSPost2010Prop56
140
1.0
102
RTVSPost2010PropOp56
 70
     1
102
RTVSPost2010Prop57
140
1.0
102
RTVSPost2010PropOp57
 70
     1
102
RTVSPropertyOp0
 70
     1
102
RTVSPropertyOp1
 70
     1
102
RTVSPropertyOp2
 70
     1
102
RTVSPropertyOp3
 70
     1
102
RTVSPropertyOp4
 70
     1
102
RTVSPropertyOp5
 70
     1
102
RTVSPropertyOp6
 70
     1
102
RTVSPropertyOp7
 70
     1
102
RTVSPropertyOp8
 70
     1
102
RTVSPropertyOp9
 70
     1
102
RTVSPropertyOp10
 70
     1
102
RTVSPropertyOp11
 70
     1
102
RTVSPropertyOp12
 70
     1
102
RTVSPropertyOp13
 70
     1
102
RTVSPropertyOp14
 70
     1
102
RTVSPropertyOp15
 70
     1
102
RTVSPropertyOp16
 70
     1
102
RTVSPropertyOp17
 70
     1
102
RTVSPropertyOp18
 70
     1
102
RTVSPropertyOp19
 70
     1
102
RTVSPropertyOp20
 70
     1
102
RTVSPropertyOp21
 70
     1
102
RTVSPropertyOp22
 70
     1
102
RTVSPropertyOp23
 70
     1
102
RTVSPropertyOp24
 70
     1
102
RTVSPropertyOp25
 70
     1
102
RTVSPropertyOp26
 70
     1
102
RTVSPropertyOp27
 70
     1
102
RTVSPropertyOp28
 70
     1
102
RTVSPropertyOp29
 70
     1
102
RTVSPropertyOp30
 70
     1
102
RTVSPropertyOp31
 70
     1
102
RTVSPropertyOp32
 70
     1
102
RTVSPropertyOp33
 70
     1
102
RTVSPropertyOp34
 70
     1
102
RTVSPropertyOp35
 70
     1
102
RTVSPropertyOp36
 70
     1
102
RTVSPropertyOp37
 70
     1
102
RTVSPropertyOp38
 70
     1
102
RTVSPropertyOp39
 70
     1
102
RTVSPropertyOp40
 70
     1
102
RTVSPropertyOp41
 70
     1
102
RTVSPropertyOp42
 70
     1
102
RTVSPropertyOp43
 70
     1
102
RTVSPropertyOp44
 70
     1
102
RTVSPropertyOp45
 70
     1
102
RTVSPropertyOp46
 70
     1
102
RTVSPropertyOp47
 70
     1
102
RTVSPropertyOp48
 70
     1
102
RTVSPropertyOp49
 70
     1
102
RTVSPropertyOp50
 70
     1
102
RTVSPropertyOp51
 70
     0
102
RTVSPropertyOp52
 70
     0
102
RTVSPropertyOp53
 70
     1
102
RTVSPropertyOp54
 70
     1
102
RTVSPropertyOp55
 70
     1
102
RTVSPropertyOp56
 70
     1
102
RTVSPropertyOp57
 70
     1
102
RTVSPropertyOp58
 70
     1
102
RTVSPropertyOp59
 70
     1
102
RTVSPropertyOp60
 70
     1
102
RTVSPropertyOp61
 70
     1
102
RTVSPropertyOp62
 70
     1
  0
XRECORD
  5
372
102
{ACAD_REACTORS
330
371
102
}
330
371
100
AcDbXrecord
280
     1
102
RTVSPost2010Prop28
280
     0
102
RTVSPost2010PropOp28
 70
     1
102
RTVSPost2010Prop29
280
     1
102
RTVSPost2010PropOp29
 70
     1
102
RTVSPost2010Prop30
280
     1
102
RTVSPost2010PropOp30
 70
     1
102
RTVSPost2010Prop31
280
     0
102
RTVSPost2010PropOp31
 70
     1
102
RTVSPost2010Prop32
280
     0
102
RTVSPost2010PropOp32
 70
     1
102
RTVSPost2010Prop33
280
     0
102
RTVSPost2010PropOp33
 70
     1
102
RTVSPost2010Prop34
280
     0
102
RTVSPost2010PropOp34
 70
     1
102
RTVSPost2010Prop35
280
     0
102
RTVSPost2010PropOp35
 70
     1
102
RTVSPost2010Prop36
280
     0
102
RTVSPost2010PropOp36
 70
     1
102
RTVSPost2010Prop37
 90
       50
102
RTVSPost2010PropOp37
 70
     1
102
RTVSPost2010Prop38
140
0.0
102
RTVSPost2010PropOp38
 70
     1
102
RTVSPost2010Prop39
140
1.0
102
RTVSPost2010PropOp39
 70
     1
102
RTVSPost2010Prop40
 90
        0
102
RTVSPost2010PropOp40
 70
     1
102
RTVSPost2010Prop41ColorIndex
 90
       18
102
RTVSPost2010Prop41ColorRGB
 90
        0
102
RTVSPost2010PropOp41
 70
     1
102
RTVSPost2010Prop42
 90
       50
102
RTVSPost2010PropOp42
 70
     1
102
RTVSPost2010Prop43
 90
        3
102
RTVSPost2010PropOp43
 70
     1
102
RTVSPost2010Prop44ColorIndex
 90
        5
102
RTVSPost2010Prop44ColorRGB
 90
      255
102
RTVSPost2010PropOp44
 70
     1
102
RTVSPost2010Prop45
280
     0
102
RTVSPost2010PropOp45
 70
     1
102
RTVSPost2010Prop46
 90
       50
102
RTVSPost2010PropOp46
 70
     1
102
RTVSPost2010Prop47
 90
       50
102
RTVSPost2010PropOp47
 70
     1
102
RTVSPost2010Prop48
 90
       50
102
RTVSPost2010PropOp48
 70
     1
102
RTVSPost2010Prop49
280
     0
102
RTVSPost2010PropOp49
 70
     1
102
RTVSPost2010Prop50
 90
       50
102
RTVSPost2010PropOp50
 70
     1
102
RTVSPost2010Prop51ColorIndex
 90
      256
102
RTVSPost2010Prop51ColorRGB
 90
-16777216
102
RTVSPost2010PropOp51
 70
     0
102
RTVSPost2010Prop52
140
1.0
102
RTVSPost2010PropOp52
 70
     0
102
RTVSPost2010Prop53
 90
        2
102
RTVSPost2010PropOp53
 70
     1
102
RTVSPost2010Prop54
  1
strokes_ogs.tif
102
RTVSPost2010PropOp54
 70
     1
102
RTVSPost2010Prop55
280
     0
102
RTVSPost2010PropOp55
 70
     1
102
RTVSPost2010Prop56
140
1.0
102
RTVSPost2010PropOp56
 70
     1
102
RTVSPost2010Prop57
140
1.0
102
RTVSPost2010PropOp57
 70
     1
102
RTVSPropertyOp0
 70
     1
102
RTVSPropertyOp1
 70
     1
102
RTVSPropertyOp2
 70
     1
102
RTVSPropertyOp3
 70
     1
102
RTVSPropertyOp4
 70
     1
102
RTVSPropertyOp5
 70
     1
102
RTVSPropertyOp6
 70
     1
102
RTVSPropertyOp7
 70
     1
102
RTVSPropertyOp8
 70
     1
102
RTVSPropertyOp9
 70
     1
102
RTVSPropertyOp10
 70
     1
102
RTVSPropertyOp11
 70
     1
102
RTVSPropertyOp12
 70
     1
102
RTVSPropertyOp13
 70
     1
102
RTVSPropertyOp14
 70
     1
102
RTVSPropertyOp15
 70
     1
102
RTVSPropertyOp16
 70
     1
102
RTVSPropertyOp17
 70
     1
102
RTVSPropertyOp18
 70
     1
102
RTVSPropertyOp19
 70
     1
102
RTVSPropertyOp20
 70
     1
102
RTVSPropertyOp21
 70
     1
102
RTVSPropertyOp22
 70
     1
102
RTVSPropertyOp23
 70
     1
102
RTVSPropertyOp24
 70
     1
102
RTVSPropertyOp25
 70
     1
102
RTVSPropertyOp26
 70
     1
102
RTVSPropertyOp27
 70
     1
102
RTVSPropertyOp28
 70
     1
102
RTVSPropertyOp29
 70
     1
102
RTVSPropertyOp30
 70
     1
102
RTVSPropertyOp31
 70
     1
102
RTVSPropertyOp32
 70
     1
102
RTVSPropertyOp33
 70
     1
102
RTVSPropertyOp34
 70
     1
102
RTVSPropertyOp35
 70
     1
102
RTVSPropertyOp36
 70
     1
102
RTVSPropertyOp37
 70
     1
102
RTVSPropertyOp38
 70
     1
102
RTVSPropertyOp39
 70
     1
102
RTVSPropertyOp40
 70
     1
102
RTVSPropertyOp41
 70
     1
102
RTVSPropertyOp42
 70
     1
102
RTVSPropertyOp43
 70
     1
102
RTVSPropertyOp44
 70
     1
102
RTVSPropertyOp45
 70
     1
102
RTVSPropertyOp46
 70
     1
102
RTVSPropertyOp47
 70
     1
102
RTVSPropertyOp48
 70
     1
102
RTVSPropertyOp49
 70
     1
102
RTVSPropertyOp50
 70
     1
102
RTVSPropertyOp51
 70
     0
102
RTVSPropertyOp52
 70
     0
102
RTVSPropertyOp53
 70
     1
102
RTVSPropertyOp54
 70
     1
102
RTVSPropertyOp55
 70
     1
102
RTVSPropertyOp56
 70
     1
102
RTVSPropertyOp57
 70
     1
102
RTVSPropertyOp58
 70
     1
102
RTVSPropertyOp59
 70
     1
102
RTVSPropertyOp60
 70
     1
102
RTVSPropertyOp61
 70
     1
102
RTVSPropertyOp62
 70
     1
  0
XRECORD
  5
392
102
{ACAD_REACTORS
330
391
102
}
330
391
100
AcDbXrecord
280
     1
102
RTVSPost2010Prop28
280
     0
102
RTVSPost2010PropOp28
 70
     1
102
RTVSPost2010Prop29
280
     1
102
RTVSPost2010PropOp29
 70
     1
102
RTVSPost2010Prop30
280
     1
102
RTVSPost2010PropOp30
 70
     1
102
RTVSPost2010Prop31
280
     0
102
RTVSPost2010PropOp31
 70
     1
102
RTVSPost2010Prop32
280
     0
102
RTVSPost2010PropOp32
 70
     1
102
RTVSPost2010Prop33
280
     0
102
RTVSPost2010PropOp33
 70
     1
102
RTVSPost2010Prop34
280
     0
102
RTVSPost2010PropOp34
 70
     1
102
RTVSPost2010Prop35
280
     0
102
RTVSPost2010PropOp35
 70
     1
102
RTVSPost2010Prop36
280
     0
102
RTVSPost2010PropOp36
 70
     1
102
RTVSPost2010Prop37
 90
       50
102
RTVSPost2010PropOp37
 70
     1
102
RTVSPost2010Prop38
140
0.0
102
RTVSPost2010PropOp38
 70
     1
102
RTVSPost2010Prop39
140
1.0
102
RTVSPost2010PropOp39
 70
     1
102
RTVSPost2010Prop40
 90
        0
102
RTVSPost2010PropOp40
 70
     1
102
RTVSPost2010Prop41ColorIndex
 90
       18
102
RTVSPost2010Prop41ColorRGB
 90
        0
102
RTVSPost2010PropOp41
 70
     1
102
RTVSPost2010Prop42
 90
       50
102
RTVSPost2010PropOp42
 70
     1
102
RTVSPost2010Prop43
 90
        3
102
RTVSPost2010PropOp43
 70
     1
102
RTVSPost2010Prop44ColorIndex
 90
        5
102
RTVSPost2010Prop44ColorRGB
 90
      255
102
RTVSPost2010PropOp44
 70
     1
102
RTVSPost2010Prop45
280
     0
102
RTVSPost2010PropOp45
 70
     1
102
RTVSPost2010Prop46
 90
       50
102
RTVSPost2010PropOp46
 70
     1
102
RTVSPost2010Prop47
 90
       50
102
RTVSPost2010PropOp47
 70
     1
102
RTVSPost2010Prop48
 90
       50
102
RTVSPost2010PropOp48
 70
     1
102
RTVSPost2010Prop49
280
     0
102
RTVSPost2010PropOp49
 70
     1
102
RTVSPost2010Prop50
 90
       50
102
RTVSPost2010PropOp50
 70
     1
102
RTVSPost2010Prop51ColorIndex
 90
      256
102
RTVSPost2010Prop51ColorRGB
 90
-16777216
102
RTVSPost2010PropOp51
 70
     0
102
RTVSPost2010Prop52
140
1.0
102
RTVSPost2010PropOp52
 70
     0
102
RTVSPost2010Prop53
 90
        2
102
RTVSPost2010PropOp53
 70
     1
102
RTVSPost2010Prop54
  1
strokes_ogs.tif
102
RTVSPost2010PropOp54
 70
     1
102
RTVSPost2010Prop55
280
     0
102
RTVSPost2010PropOp55
 70
     1
102
RTVSPost2010Prop56
140
1.0
102
RTVSPost2010PropOp56
 70
     1
102
RTVSPost2010Prop57
140
1.0
102
RTVSPost2010PropOp57
 70
     1
102
RTVSPropertyOp0
 70
     1
102
RTVSPropertyOp1
 70
     1
102
RTVSPropertyOp2
 70
     1
102
RTVSPropertyOp3
 70
     1
102
RTVSPropertyOp4
 70
     1
102
RTVSPropertyOp5
 70
     1
102
RTVSPropertyOp6
 70
     1
102
RTVSPropertyOp7
 70
     1
102
RTVSPropertyOp8
 70
     1
102
RTVSPropertyOp9
 70
     1
102
RTVSPropertyOp10
 70
     1
102
RTVSPropertyOp11
 70
     1
102
RTVSPropertyOp12
 70
     1
102
RTVSPropertyOp13
 70
     1
102
RTVSPropertyOp14
 70
     1
102
RTVSPropertyOp15
 70
     1
102
RTVSPropertyOp16
 70
     1
102
RTVSPropertyOp17
 70
     1
102
RTVSPropertyOp18
 70
     1
102
RTVSPropertyOp19
 70
     1
102
RTVSPropertyOp20
 70
     1
102
RTVSPropertyOp21
 70
     1
102
RTVSPropertyOp22
 70
     1
102
RTVSPropertyOp23
 70
     1
102
RTVSPropertyOp24
 70
     1
102
RTVSPropertyOp25
 70
     1
102
RTVSPropertyOp26
 70
     1
102
RTVSPropertyOp27
 70
     1
102
RTVSPropertyOp28
 70
     1
102
RTVSPropertyOp29
 70
     1
102
RTVSPropertyOp30
 70
     1
102
RTVSPropertyOp31
 70
     1
102
RTVSPropertyOp32
 70
     1
102
RTVSPropertyOp33
 70
     1
102
RTVSPropertyOp34
 70
     1
102
RTVSPropertyOp35
 70
     1
102
RTVSPropertyOp36
 70
     1
102
RTVSPropertyOp37
 70
     1
102
RTVSPropertyOp38
 70
     1
102
RTVSPropertyOp39
 70
     1
102
RTVSPropertyOp40
 70
     1
102
RTVSPropertyOp41
 70
     1
102
RTVSPropertyOp42
 70
     1
102
RTVSPropertyOp43
 70
     1
102
RTVSPropertyOp44
 70
     1
102
RTVSPropertyOp45
 70
     1
102
RTVSPropertyOp46
 70
     1
102
RTVSPropertyOp47
 70
     1
102
RTVSPropertyOp48
 70
     1
102
RTVSPropertyOp49
 70
     1
102
RTVSPropertyOp50
 70
     1
102
RTVSPropertyOp51
 70
     0
102
RTVSPropertyOp52
 70
     0
102
RTVSPropertyOp53
 70
     1
102
RTVSPropertyOp54
 70
     1
102
RTVSPropertyOp55
 70
     1
102
RTVSPropertyOp56
 70
     1
102
RTVSPropertyOp57
 70
     1
102
RTVSPropertyOp58
 70
     1
102
RTVSPropertyOp59
 70
     1
102
RTVSPropertyOp60
 70
     1
102
RTVSPropertyOp61
 70
     1
102
RTVSPropertyOp62
 70
     1
  0
ENDSEC
  0
EOF
