  0
SECTION
  2
HEADER
  9
$ACADVER
  1
AC1018
  9
$ACADMAINTVER
 70
   104
  9
$DWGCODEPAGE
  3
ANSI_1250
  9
$LASTSAVEDBY
  1
wq7085
  9
$INSBASE
 10
0.0
 20
0.0
 30
0.0
  9
$EXTMIN
 10
187.2502013333333
 20
118.534924
 30
0.0
  9
$EXTMAX
 10
428.0724499999999
 20
341.6963336666667
 30
0.0
  9
$LIMMIN
 10
-0.5
 20
-0.5
  9
$LIMMAX
 10
5.0
 20
5.0
  9
$ORTHOMODE
 70
     0
  9
$REGENMODE
 70
     1
  9
$FILLMODE
 70
     1
  9
$QTEXTMODE
 70
     0
  9
$MIRRTEXT
 70
     1
  9
$LTSCALE
 40
1.0
  9
$ATTMODE
 70
     1
  9
$TEXTSIZE
 40
0.2
  9
$TRACEWID
 40
0.05
  9
$TEXTSTYLE
  7
Standard
  9
$CLAYER
  8
0
  9
$CELTYPE
  6
ByLayer
  9
$CECOLOR
 62
   256
  9
$CELTSCALE
 40
1.0
  9
$DISPSILH
 70
     0
  9
$DIMSCALE
 40
1.0
  9
$DIMASZ
 40
0.18
  9
$DIMEXO
 40
0.0625
  9
$DIMDLI
 40
0.38
  9
$DIMRND
 40
0.0
  9
$DIMDLE
 40
0.0
  9
$DIMEXE
 40
0.18
  9
$DIMTP
 40
0.0
  9
$DIMTM
 40
0.0
  9
$DIMTXT
 40
0.18
  9
$DIMCEN
 40
0.09
  9
$DIMTSZ
 40
0.0
  9
$DIMTOL
 70
     0
  9
$DIMLIM
 70
     0
  9
$DIMTIH
 70
     1
  9
$DIMTOH
 70
     1
  9
$DIMSE1
 70
     0
  9
$DIMSE2
 70
     0
  9
$DIMTAD
 70
     0
  9
$DIMZIN
 70
     0
  9
$DIMBLK
  1

  9
$DIMASO
 70
     1
  9
$DIMSHO
 70
     1
  9
$DIMPOST
  1

  9
$DIMAPOST
  1

  9
$DIMALT
 70
     0
  9
$DIMALTD
 70
     2
  9
$DIMALTF
 40
25.4
  9
$DIMLFAC
 40
1.0
  9
$DIMTOFL
 70
     0
  9
$DIMTVP
 40
0.0
  9
$DIMTIX
 70
     0
  9
$DIMSOXD
 70
     0
  9
$DIMSAH
 70
     0
  9
$DIMBLK1
  1

  9
$DIMBLK2
  1

  9
$DIMSTYLE
  2
Standard
  9
$DIMCLRD
 70
     0
  9
$DIMCLRE
 70
     0
  9
$DIMCLRT
 70
     0
  9
$DIMTFAC
 40
1.0
  9
$DIMGAP
 40
0.09
  9
$DIMJUST
 70
     0
  9
$DIMSD1
 70
     0
  9
$DIMSD2
 70
     0
  9
$DIMTOLJ
 70
     1
  9
$DIMTZIN
 70
     0
  9
$DIMALTZ
 70
     0
  9
$DIMALTTZ
 70
     0
  9
$DIMUPT
 70
     0
  9
$DIMDEC
 70
     4
  9
$DIMTDEC
 70
     4
  9
$DIMALTU
 70
     2
  9
$DIMALTTD
 70
     2
  9
$DIMTXSTY
  7
Standard
  9
$DIMAUNIT
 70
     0
  9
$DIMADEC
 70
     0
  9
$DIMALTRND
 40
0.0
  9
$DIMAZIN
 70
     0
  9
$DIMDSEP
 70
    46
  9
$DIMATFIT
 70
     3
  9
$DIMFRAC
 70
     0
  9
$DIMLDRBLK
  1

  9
$DIMLUNIT
 70
     2
  9
$DIMLWD
 70
    -2
  9
$DIMLWE
 70
    -2
  9
$DIMTMOVE
 70
     0
  9
$LUNITS
 70
     2
  9
$LUPREC
 70
     4
  9
$SKETCHINC
 40
0.1
  9
$FILLETRAD
 40
0.5
  9
$AUNITS
 70
     0
  9
$AUPREC
 70
     0
  9
$MENU
  1
.
  9
$ELEVATION
 40
0.0
  9
$PELEVATION
 40
0.0
  9
$THICKNESS
 40
0.0
  9
$LIMCHECK
 70
     0
  9
$CHAMFERA
 40
0.0
  9
$CHAMFERB
 40
0.0
  9
$CHAMFERC
 40
0.0
  9
$CHAMFERD
 40
0.0
  9
$SKPOLY
 70
     0
  9
$TDCREATE
 40
2459088.576990741
  9
$TDUCREATE
 40
2459088.493663819
  9
$TDUPDATE
 40
2459088.577372685
  9
$TDUUPDATE
 40
2459088.494039352
  9
$TDINDWG
 40
0.0002430671
  9
$TDUSRTIMER
 40
0.0002430671
  9
$USRTIMER
 70
     1
  9
$ANGBASE
 50
0.0
  9
$ANGDIR
 70
     0
  9
$PDMODE
 70
     0
  9
$PDSIZE
 40
0.0
  9
$PLINEWID
 40
0.0
  9
$SPLFRAME
 70
     0
  9
$SPLINETYPE
 70
     6
  9
$SPLINESEGS
 70
     8
  9
$HANDSEED
  5
39B
  9
$SURFTAB1
 70
     6
  9
$SURFTAB2
 70
     6
  9
$SURFTYPE
 70
     6
  9
$SURFU
 70
     6
  9
$SURFV
 70
     6
  9
$UCSBASE
  2

  9
$UCSNAME
  2

  9
$UCSORG
 10
274.404842
 20
288.907994
 30
0.0
  9
$UCSXDIR
 10
1.0
 20
0.0
 30
0.0
  9
$UCSYDIR
 10
0.0
 20
1.0
 30
0.0
  9
$UCSORTHOREF
  2

  9
$UCSORTHOVIEW
 70
     0
  9
$UCSORGTOP
 10
0.0
 20
0.0
 30
0.0
  9
$UCSORGBOTTOM
 10
0.0
 20
0.0
 30
0.0
  9
$UCSORGLEFT
 10
0.0
 20
0.0
 30
0.0
  9
$UCSORGRIGHT
 10
0.0
 20
0.0
 30
0.0
  9
$UCSORGFRONT
 10
0.0
 20
0.0
 30
0.0
  9
$UCSORGBACK
 10
0.0
 20
0.0
 30
0.0
  9
$PUCSBASE
  2

  9
$PUCSNAME
  2

  9
$PUCSORG
 10
0.0
 20
0.0
 30
0.0
  9
$PUCSXDIR
 10
1.0
 20
0.0
 30
0.0
  9
$PUCSYDIR
 10
0.0
 20
1.0
 30
0.0
  9
$PUCSORTHOREF
  2

  9
$PUCSORTHOVIEW
 70
     0
  9
$PUCSORGTOP
 10
0.0
 20
0.0
 30
0.0
  9
$PUCSORGBOTTOM
 10
0.0
 20
0.0
 30
0.0
  9
$PUCSORGLEFT
 10
0.0
 20
0.0
 30
0.0
  9
$PUCSORGRIGHT
 10
0.0
 20
0.0
 30
0.0
  9
$PUCSORGFRONT
 10
0.0
 20
0.0
 30
0.0
  9
$PUCSORGBACK
 10
0.0
 20
0.0
 30
0.0
  9
$USERI1
 70
     0
  9
$USERI2
 70
     0
  9
$USERI3
 70
     0
  9
$USERI4
 70
     0
  9
$USERI5
 70
     0
  9
$USERR1
 40
0.0
  9
$USERR2
 40
0.0
  9
$USERR3
 40
0.0
  9
$USERR4
 40
0.0
  9
$USERR5
 40
0.0
  9
$WORLDVIEW
 70
     1
  9
$SHADEDGE
 70
     3
  9
$SHADEDIF
 70
    70
  9
$TILEMODE
 70
     1
  9
$MAXACTVP
 70
    64
  9
$PINSBASE
 10
0.0
 20
0.0
 30
0.0
  9
$PLIMCHECK
 70
     0
  9
$PEXTMIN
 10
-0.5
 20
-0.5
 30
-0.5
  9
$PEXTMAX
 10
5.0
 20
5.0
 30
5.0
  9
$PLIMMIN
 10
-0.5
 20
-0.5
  9
$PLIMMAX
 10
5.0
 20
5.0
  9
$UNITMODE
 70
     0
  9
$VISRETAIN
 70
     1
  9
$PLINEGEN
 70
     0
  9
$PSLTSCALE
 70
     1
  9
$TREEDEPTH
 70
  3020
  9
$CMLSTYLE
  2
Standard
  9
$CMLJUST
 70
     0
  9
$CMLSCALE
 40
1.0
  9
$PROXYGRAPHICS
 70
     1
  9
$MEASUREMENT
 70
     1
  9
$CELWEIGHT
370
    13
  9
$ENDCAPS
280
     0
  9
$JOINSTYLE
280
     0
  9
$LWDISPLAY
290
     0
  9
$INSUNITS
 70
     4
  9
$HYPERLINKBASE
  1

  9
$STYLESHEET
  1

  9
$XEDIT
290
     1
  9
$CEPSNTYPE
380
     0
  9
$PSTYLEMODE
290
     1
  9
$FINGERPRINTGUID
  2
{7A41EFB4-FBE0-481E-AD21-6DE466695399}
  9
$VERSIONGUID
  2
{205FCC2D-574D-2E46-8915-B16ED5F43D93}
  9
$EXTNAMES
290
     1
  9
$PSVPSCALE
 40
0.0
  9
$OLESTARTUP
290
     0
  9
$SORTENTS
280
   127
  9
$INDEXCTL
280
     0
  9
$HIDETEXT
280
     1
  9
$XCLIPFRAME
290
     0
  9
$HALOGAP
280
     0
  9
$OBSCOLOR
 70
   257
  9
$OBSLTYPE
280
     0
  9
$INTERSECTIONDISPLAY
280
     0
  9
$INTERSECTIONCOLOR
 70
   257
  9
$DIMASSOC
280
     2
  9
$PROJECTNAME
  1

  0
ENDSEC
  0
SECTION
  2
CLASSES
  0
CLASS
  1
ACDBDICTIONARYWDFLT
  2
AcDbDictionaryWithDefault
  3
ObjectDBX Classes
 90
        0
 91
        1
280
     0
281
     0
  0
CLASS
  1
VISUALSTYLE
  2
AcDbVisualStyle
  3
ObjectDBX Classes
 90
     4095
 91
       24
280
     0
281
     0
  0
CLASS
  1
MATERIAL
  2
AcDbMaterial
  3
ObjectDBX Classes
 90
     1153
 91
        3
280
     0
281
     0
  0
CLASS
  1
SCALE
  2
AcDbScale
  3
ObjectDBX Classes
 90
     1153
 91
       33
280
     0
281
     0
  0
CLASS
  1
TABLESTYLE
  2
AcDbTableStyle
  3
ObjectDBX Classes
 90
     4095
 91
        1
280
     0
281
     0
  0
CLASS
  1
MLEADERSTYLE
  2
AcDbMLeaderStyle
  3
ACDB_MLEADERSTYLE_CLASS
 90
     4095
 91
        1
280
     0
281
     0
  0
CLASS
  1
SUN
  2
AcDbSun
  3
SCENEOE
 90
     1153
 91
        0
280
     0
281
     0
  0
CLASS
  1
DIMASSOC
  2
AcDbDimAssoc
  3
"AcDbDimAssoc|Product Desc:     AcDim ARX App For Dimension|Company:          Autodesk, Inc.|WEB Address:      www.autodesk.com"
 90
        0
 91
        7
280
     0
281
     0
  0
CLASS
  1
DICTIONARYVAR
  2
AcDbDictionaryVar
  3
ObjectDBX Classes
 90
        0
 91
        8
280
     0
281
     0
  0
CLASS
  1
CELLSTYLEMAP
  2
AcDbCellStyleMap
  3
ObjectDBX Classes
 90
     1152
 91
        2
280
     0
281
     0
  0
CLASS
  1
ACDBSECTIONVIEWSTYLE
  2
AcDbSectionViewStyle
  3
ObjectDBX Classes
 90
     1025
 91
        1
280
     0
281
     0
  0
CLASS
  1
ACDBDETAILVIEWSTYLE
  2
AcDbDetailViewStyle
  3
ObjectDBX Classes
 90
     1025
 91
        1
280
     0
281
     0
  0
CLASS
  1
SORTENTSTABLE
  2
AcDbSortentsTable
  3
ObjectDBX Classes
 90
        0
 91
        1
280
     0
281
     0
  0
ENDSEC
  0
SECTION
  2
TABLES
  0
TABLE
  2
VPORT
  5
8
330
0
100
AcDbSymbolTable
 70
    16
  0
VPORT
  5
29
330
8
100
AcDbSymbolTableRecord
100
AcDbViewportTableRecord
  2
*Active
 70
     0
 10
0.0
 20
0.0
 11
1.0
 21
1.0
 12
287.4631877192541
 22
298.1688543162605
 13
0.0
 23
0.0
 14
0.5
 24
0.5
 15
0.5
 25
0.5
 16
0.0
 26
0.0
 36
1.0
 17
0.0
 27
0.0
 37
0.0
 40
202.5677759214199
 41
2.292712066905615
 42
50.0
 43
441.479094
 44
-441.479094
 50
0.0
 51
0.0
 71
     0
 72
   100
 73
     1
 74
     3
 75
     0
 76
     0
 77
     0
 78
     0
281
     0
 65
     1
110
274.404842
120
288.907994
130
0.0
111
1.0
121
0.0
131
0.0
112
0.0
122
1.0
132
0.0
 79
     0
146
0.0
1001
ACAD_NAV_VCDISPLAY
1070
     3
  0
VPORT
  5
29F
330
8
100
AcDbSymbolTableRecord
100
AcDbViewportTableRecord
  2
L1
 70
     0
 10
0.0
 20
0.0
 11
1.0
 21
1.0
 12
307.15712
 22
230.105683
 13
0.0
 23
0.0
 14
0.5
 24
0.5
 15
0.5
 25
0.5
 16
0.0
 26
0.0
 36
1.0
 17
0.0
 27
0.0
 37
0.0
 40
207.433333
 41
0.085602
 42
50.0
 43
441.479094
 44
-441.479094
 50
0.0
 51
0.0
 71
     0
 72
   100
 73
     1
 74
     3
 75
     0
 76
     0
 77
     0
 78
     0
281
     0
 65
     1
110
0.0
120
0.0
130
0.0
111
1.0
121
0.0
131
0.0
112
0.0
122
1.0
132
0.0
 79
     0
146
0.0
  0
VPORT
  5
2A0
330
8
100
AcDbSymbolTableRecord
100
AcDbViewportTableRecord
  2
L2
 70
     0
 10
0.0
 20
0.0
 11
0.5
 21
1.0
 12
0.0
 22
0.0
 13
0.0
 23
0.0
 14
0.5
 24
0.5
 15
0.5
 25
0.5
 16
0.0
 26
-1.0
 36
0.0
 17
0.0
 27
0.0
 37
0.0
 40
1316.18997
 41
0.013491
 42
50.0
 43
678.00864
 44
-678.00864
 50
0.0
 51
0.0
 71
     0
 72
   100
 73
     1
 74
     3
 75
     0
 76
     0
 77
     0
 78
     0
281
     0
 65
     1
110
0.0
120
0.0
130
0.0
111
1.0
121
0.0
131
0.0
112
0.0
122
1.0
132
0.0
 79
     0
146
0.0
  0
VPORT
  5
2A1
330
8
100
AcDbSymbolTableRecord
100
AcDbViewportTableRecord
  2
L2
 70
     0
 10
0.5
 20
0.0
 11
1.0
 21
1.0
 12
0.0
 22
0.0
 13
0.0
 23
0.0
 14
0.5
 24
0.5
 15
0.5
 25
0.5
 16
1.0
 26
0.0
 36
0.0
 17
0.0
 27
0.0
 37
0.0
 40
1316.18997
 41
0.013491
 42
50.0
 43
666.2177989999999
 44
-666.2177989999999
 50
0.0
 51
0.0
 71
     0
 72
   100
 73
     1
 74
     3
 75
     0
 76
     0
 77
     0
 78
     0
281
     0
 65
     1
110
0.0
120
0.0
130
0.0
111
1.0
121
0.0
131
0.0
112
0.0
122
1.0
132
0.0
 79
     0
146
0.0
  0
VPORT
  5
2A2
330
8
100
AcDbSymbolTableRecord
100
AcDbViewportTableRecord
  2
L3
 70
     0
 10
0.0
 20
0.5
 11
1.0
 21
1.0
 12
307.15712
 22
230.105683
 13
0.0
 23
0.0
 14
0.5
 24
0.5
 15
0.5
 25
0.5
 16
0.0
 26
0.0
 36
1.0
 17
0.0
 27
0.0
 37
0.0
 40
207.433333
 41
0.085602
 42
50.0
 43
441.479094
 44
-441.479094
 50
0.0
 51
0.0
 71
     0
 72
   100
 73
     1
 74
     3
 75
     0
 76
     0
 77
     0
 78
     0
281
     0
 65
     1
110
0.0
120
0.0
130
0.0
111
1.0
121
0.0
131
0.0
112
0.0
122
1.0
132
0.0
 79
     0
146
0.0
  0
VPORT
  5
2A3
330
8
100
AcDbSymbolTableRecord
100
AcDbViewportTableRecord
  2
L3
 70
     0
 10
0.0
 20
0.0
 11
1.0
 21
0.5
 12
0.0
 22
0.0
 13
0.0
 23
0.0
 14
0.5
 24
0.5
 15
0.5
 25
0.5
 16
0.0
 26
-1.0
 36
0.0
 17
0.0
 27
0.0
 37
0.0
 40
1316.18997
 41
0.013491
 42
50.0
 43
678.00864
 44
-678.00864
 50
0.0
 51
0.0
 71
     0
 72
   100
 73
     1
 74
     3
 75
     0
 76
     0
 77
     0
 78
     0
281
     0
 65
     1
110
0.0
120
0.0
130
0.0
111
1.0
121
0.0
131
0.0
112
0.0
122
1.0
132
0.0
 79
     0
146
0.0
  0
VPORT
  5
2A4
330
8
100
AcDbSymbolTableRecord
100
AcDbViewportTableRecord
  2
L4
 70
     0
 10
0.0
 20
0.5
 11
0.5
 21
1.0
 12
307.15712
 22
230.105683
 13
0.0
 23
0.0
 14
0.5
 24
0.5
 15
0.5
 25
0.5
 16
0.0
 26
0.0
 36
1.0
 17
0.0
 27
0.0
 37
0.0
 40
207.433333
 41
0.085602
 42
50.0
 43
441.479094
 44
-441.479094
 50
0.0
 51
0.0
 71
     0
 72
   100
 73
     1
 74
     3
 75
     0
 76
     0
 77
     0
 78
     0
281
     0
 65
     1
110
0.0
120
0.0
130
0.0
111
1.0
121
0.0
131
0.0
112
0.0
122
1.0
132
0.0
 79
     0
146
0.0
  0
VPORT
  5
2A5
330
8
100
AcDbSymbolTableRecord
100
AcDbViewportTableRecord
  2
L4
 70
     0
 10
0.0
 20
0.0
 11
0.5
 21
0.5
 12
0.0
 22
0.0
 13
0.0
 23
0.0
 14
0.5
 24
0.5
 15
0.5
 25
0.5
 16
0.0
 26
-1.0
 36
0.0
 17
0.0
 27
0.0
 37
0.0
 40
1316.18997
 41
0.013491
 42
50.0
 43
678.00864
 44
-678.00864
 50
0.0
 51
0.0
 71
     0
 72
   100
 73
     1
 74
     3
 75
     0
 76
     0
 77
     0
 78
     0
281
     0
 65
     1
110
0.0
120
0.0
130
0.0
111
1.0
121
0.0
131
0.0
112
0.0
122
1.0
132
0.0
 79
     0
146
0.0
  0
VPORT
  5
2A6
330
8
100
AcDbSymbolTableRecord
100
AcDbViewportTableRecord
  2
L4
 70
     0
 10
0.5
 20
0.0
 11
1.0
 21
0.5
 12
0.0
 22
0.0
 13
0.0
 23
0.0
 14
0.5
 24
0.5
 15
0.5
 25
0.5
 16
1.0
 26
0.0
 36
0.0
 17
0.0
 27
0.0
 37
0.0
 40
1316.18997
 41
0.013491
 42
50.0
 43
666.2177989999999
 44
-666.2177989999999
 50
0.0
 51
0.0
 71
     0
 72
   100
 73
     1
 74
     3
 75
     0
 76
     0
 77
     0
 78
     0
281
     0
 65
     1
110
0.0
120
0.0
130
0.0
111
1.0
121
0.0
131
0.0
112
0.0
122
1.0
132
0.0
 79
     0
146
0.0
  0
VPORT
  5
2A7
330
8
100
AcDbSymbolTableRecord
100
AcDbViewportTableRecord
  2
L4
 70
     0
 10
0.5
 20
0.5
 11
1.0
 21
1.0
 12
0.0
 22
0.0
 13
0.0
 23
0.0
 14
0.5
 24
0.5
 15
0.5
 25
0.5
 16
0.5773502691896259
 26
-0.5773502691896259
 36
0.5773502691896259
 17
0.0
 27
0.0
 37
0.0
 40
1292.532264
 41
0.013738
 42
50.0
 43
673.245608
 44
-673.245608
 50
0.0
 51
0.0
 71
     0
 72
   100
 73
     1
 74
     3
 75
     0
 76
     0
 77
     0
 78
     0
281
     0
 65
     1
110
0.0
120
0.0
130
0.0
111
1.0
121
0.0
131
0.0
112
0.0
122
1.0
132
0.0
 79
     0
146
0.0
  0
VPORT
  5
2A8
330
8
100
AcDbSymbolTableRecord
100
AcDbViewportTableRecord
  2
L6
 70
     0
 10
0.0
 20
0.5
 11
0.333333
 21
1.0
 12
0.0
 22
0.0
 13
0.0
 23
0.0
 14
0.5
 24
0.5
 15
0.5
 25
0.5
 16
0.7188730927569434
 26
-0.5850486126764433
 36
0.3754192287502549
 17
0.0
 27
0.0
 37
0.0
 40
1364.064247
 41
0.013018
 42
50.0
 43
706.2613849999999
 44
-706.2613849999999
 50
0.0
 51
0.0
 71
     0
 72
   100
 73
     1
 74
     3
 75
     0
 76
     0
 77
     0
 78
     0
281
     0
 65
     1
110
0.0
120
0.0
130
0.0
111
1.0
121
0.0
131
0.0
112
0.0
122
1.0
132
0.0
 79
     0
146
0.0
  0
VPORT
  5
2A9
330
8
100
AcDbSymbolTableRecord
100
AcDbViewportTableRecord
  2
L6
 70
     0
 10
0.0
 20
0.0
 11
0.333333
 21
0.5
 12
0.0
 22
0.0
 13
0.0
 23
0.0
 14
0.5
 24
0.5
 15
0.5
 25
0.5
 16
-1.0
 26
0.0
 36
0.0
 17
0.0
 27
0.0
 37
0.0
 40
1316.18997
 41
0.013491
 42
50.0
 43
666.2177989999999
 44
-666.2177989999999
 50
0.0
 51
0.0
 71
     0
 72
   100
 73
     1
 74
     3
 75
     0
 76
     0
 77
     0
 78
     0
281
     0
 65
     1
110
0.0
120
0.0
130
0.0
111
1.0
121
0.0
131
0.0
112
0.0
122
1.0
132
0.0
 79
     0
146
0.0
  0
VPORT
  5
2AA
330
8
100
AcDbSymbolTableRecord
100
AcDbViewportTableRecord
  2
L6
 70
     0
 10
0.333333
 20
0.5
 11
0.666667
 21
1.0
 12
307.15712
 22
230.105683
 13
0.0
 23
0.0
 14
0.5
 24
0.5
 15
0.5
 25
0.5
 16
0.0
 26
0.0
 36
1.0
 17
0.0
 27
0.0
 37
0.0
 40
207.433333
 41
0.085602
 42
50.0
 43
441.479094
 44
-441.479094
 50
0.0
 51
0.0
 71
     0
 72
   100
 73
     1
 74
     3
 75
     0
 76
     0
 77
     0
 78
     0
281
     0
 65
     1
110
0.0
120
0.0
130
0.0
111
1.0
121
0.0
131
0.0
112
0.0
122
1.0
132
0.0
 79
     0
146
0.0
  0
VPORT
  5
2AB
330
8
100
AcDbSymbolTableRecord
100
AcDbViewportTableRecord
  2
L6
 70
     0
 10
0.333333
 20
0.0
 11
0.666667
 21
0.5
 12
0.0
 22
0.0
 13
0.0
 23
0.0
 14
0.5
 24
0.5
 15
0.5
 25
0.5
 16
0.0
 26
-1.0
 36
0.0
 17
0.0
 27
0.0
 37
0.0
 40
1316.18997
 41
0.013491
 42
50.0
 43
678.00864
 44
-678.00864
 50
0.0
 51
0.0
 71
     0
 72
   100
 73
     1
 74
     3
 75
     0
 76
     0
 77
     0
 78
     0
281
     0
 65
     1
110
0.0
120
0.0
130
0.0
111
1.0
121
0.0
131
0.0
112
0.0
122
1.0
132
0.0
 79
     0
146
0.0
  0
VPORT
  5
2AC
330
8
100
AcDbSymbolTableRecord
100
AcDbViewportTableRecord
  2
L6
 70
     0
 10
0.666667
 20
0.5
 11
1.0
 21
1.0
 12
0.0
 22
0.0
 13
0.0
 23
0.0
 14
0.5
 24
0.5
 15
0.5
 25
0.5
 16
0.5773502691896259
 26
-0.5773502691896259
 36
0.5773502691896259
 17
0.0
 27
0.0
 37
0.0
 40
1292.532264
 41
0.013738
 42
50.0
 43
673.245608
 44
-673.245608
 50
0.0
 51
0.0
 71
     0
 72
   100
 73
     1
 74
     3
 75
     0
 76
     0
 77
     0
 78
     0
281
     0
 65
     1
110
0.0
120
0.0
130
0.0
111
1.0
121
0.0
131
0.0
112
0.0
122
1.0
132
0.0
 79
     0
146
0.0
  0
VPORT
  5
2AD
330
8
100
AcDbSymbolTableRecord
100
AcDbViewportTableRecord
  2
L6
 70
     0
 10
0.666667
 20
0.0
 11
1.0
 21
0.5
 12
0.0
 22
0.0
 13
0.0
 23
0.0
 14
0.5
 24
0.5
 15
0.5
 25
0.5
 16
1.0
 26
0.0
 36
0.0
 17
0.0
 27
0.0
 37
0.0
 40
1316.18997
 41
0.013491
 42
50.0
 43
666.2177989999999
 44
-666.2177989999999
 50
0.0
 51
0.0
 71
     0
 72
   100
 73
     1
 74
     3
 75
     0
 76
     0
 77
     0
 78
     0
281
     0
 65
     1
110
0.0
120
0.0
130
0.0
111
1.0
121
0.0
131
0.0
112
0.0
122
1.0
132
0.0
 79
     0
146
0.0
  0
ENDTAB
  0
TABLE
  2
LTYPE
  5
5
330
0
100
AcDbSymbolTable
 70
     7
  0
LTYPE
  5
14
330
5
100
AcDbSymbolTableRecord
100
AcDbLinetypeTableRecord
  2
ByBlock
 70
     0
  3

 72
    65
 73
     0
 40
0.0
  0
LTYPE
  5
15
330
5
100
AcDbSymbolTableRecord
100
AcDbLinetypeTableRecord
  2
ByLayer
 70
     0
  3

 72
    65
 73
     0
 40
0.0
  0
LTYPE
  5
16
330
5
100
AcDbSymbolTableRecord
100
AcDbLinetypeTableRecord
  2
Continuous
 70
     0
  3
Solid line
 72
    65
 73
     0
 40
0.0
  0
LTYPE
  5
6E
330
5
100
AcDbSymbolTableRecord
100
AcDbLinetypeTableRecord
  2
CENTER
 70
     0
  3
____ _ ____ _ ____ _ ____
 72
    65
 73
     4
 40
47.4
 49
22.0
 74
     4
 75
     0
340
0
 46
0.0
 50
0.0
 44
0.0
 45
0.0
 49
-8.5
 74
     4
 75
     0
340
0
 46
0.0
 50
0.0
 44
0.0
 45
0.0
 49
8.5
 74
     4
 75
     0
340
0
 46
0.0
 50
0.0
 44
0.0
 45
0.0
 49
-8.5
 74
     4
 75
     0
340
0
 46
0.0
 50
0.0
 44
0.0
 45
0.0
  0
LTYPE
  5
6F
330
5
100
AcDbSymbolTableRecord
100
AcDbLinetypeTableRecord
  2
DASHDOT
 70
     0
  3
_._._._._._._._._._._._._._._._.
 72
    65
 73
     4
 40
70.0
 49
31.0
 74
     4
 75
     0
340
0
 46
0.0
 50
0.0
 44
0.0
 45
0.0
 49
-13.0
 74
     4
 75
     0
340
0
 46
0.0
 50
0.0
 44
0.0
 45
0.0
 49
13.0
 74
     4
 75
     0
340
0
 46
0.0
 50
0.0
 44
0.0
 45
0.0
 49
-13.0
 74
     4
 75
     0
340
0
 46
0.0
 50
0.0
 44
0.0
 45
0.0
  0
LTYPE
  5
70
330
5
100
AcDbSymbolTableRecord
100
AcDbLinetypeTableRecord
  2
DASHED
 70
     0
  3
__ __ __ __ __ __ __ __ __
 72
    65
 73
     2
 40
25.72
 49
12.86
 74
     4
 75
     0
340
0
 46
0.0
 50
0.0
 44
0.0
 45
0.0
 49
-12.86
 74
     4
 75
     0
340
0
 46
0.0
 50
0.0
 44
0.0
 45
0.0
  0
LTYPE
  5
71
330
5
100
AcDbSymbolTableRecord
100
AcDbLinetypeTableRecord
  2
DOT
 70
     0
  3
.........................
 72
    65
 73
     2
 40
10.0
 49
0.0
 74
     4
 75
     0
340
0
 46
0.0
 50
0.0
 44
0.0
 45
0.0
 49
-10.0
 74
     4
 75
     0
340
0
 46
0.0
 50
0.0
 44
0.0
 45
0.0
  0
LTYPE
  5
72
330
5
100
AcDbSymbolTableRecord
100
AcDbLinetypeTableRecord
  2
PHANTOM
 70
     0
  3
____ _ _ ____ _ _ _____ _ _ ____
 72
    65
 73
     6
 40
50.5
 49
18.0
 74
     4
 75
     0
340
0
 46
0.0
 50
0.0
 44
0.0
 45
0.0
 49
-6.5
 74
     4
 75
     0
340
0
 46
0.0
 50
0.0
 44
0.0
 45
0.0
 49
6.5
 74
     4
 75
     0
340
0
 46
0.0
 50
0.0
 44
0.0
 45
0.0
 49
-6.5
 74
     4
 75
     0
340
0
 46
0.0
 50
0.0
 44
0.0
 45
0.0
 49
6.5
 74
     4
 75
     0
340
0
 46
0.0
 50
0.0
 44
0.0
 45
0.0
 49
-6.5
 74
     4
 75
     0
340
0
 46
0.0
 50
0.0
 44
0.0
 45
0.0
  0
LTYPE
  5
33D
330
5
100
AcDbSymbolTableRecord
100
AcDbLinetypeTableRecord
  2
CENTER2
 70
     0
  3
Center (.5x) ___ _ ___ _ ___ _ ___ _ ___ _ ___
 72
    65
 73
     4
 40
1.125
 49
0.75
 74
     0
 49
-0.125
 74
     0
 49
0.125
 74
     0
 49
-0.125
 74
     0
  0
ENDTAB
  0
TABLE
  2
LAYER
  5
2
330
0
100
AcDbSymbolTable
 70
    22
  0
LAYER
  5
10
102
{ACAD_XDICTIONARY
360
348
102
}
330
2
100
AcDbSymbolTableRecord
100
AcDbLayerTableRecord
  2
0
 70
     0
 62
     7
  6
Continuous
370
    -3
390
F
  0
LAYER
  5
1F9
330
2
100
AcDbSymbolTableRecord
100
AcDbLayerTableRecord
  2
Defpoints
 70
     0
 62
     7
  6
Continuous
290
     0
370
    -3
390
F
  0
LAYER
  5
33A
102
{ACAD_XDICTIONARY
360
34A
102
}
330
2
100
AcDbSymbolTableRecord
100
AcDbLayerTableRecord
  2
1
 70
     0
 62
     4
  6
Continuous
370
    -3
390
F
  0
LAYER
  5
33B
102
{ACAD_XDICTIONARY
360
34C
102
}
330
2
100
AcDbSymbolTableRecord
100
AcDbLayerTableRecord
  2
2
 70
     0
 62
     7
  6
Continuous
370
    -3
390
F
  0
LAYER
  5
33C
102
{ACAD_XDICTIONARY
360
34E
102
}
330
2
100
AcDbSymbolTableRecord
100
AcDbLayerTableRecord
  2
4
 70
     0
 62
     2
  6
CENTER2
370
    -3
390
F
  0
LAYER
  5
33E
102
{ACAD_XDICTIONARY
360
350
102
}
330
2
100
AcDbSymbolTableRecord
100
AcDbLayerTableRecord
  2
SK1
 70
     0
 62
     4
  6
Continuous
370
    -3
390
F
  0
LAYER
  5
33F
102
{ACAD_XDICTIONARY
360
352
102
}
330
2
100
AcDbSymbolTableRecord
100
AcDbLayerTableRecord
  2
SK2
 70
     0
 62
     7
  6
Continuous
370
    -3
390
F
  0
LAYER
  5
341
102
{ACAD_XDICTIONARY
360
354
102
}
330
2
100
AcDbSymbolTableRecord
100
AcDbLayerTableRecord
  2
SK4
 70
     0
 62
     2
  6
CENTER2
370
    -3
390
F
  0
LAYER
  5
342
102
{ACAD_XDICTIONARY
360
356
102
}
330
2
100
AcDbSymbolTableRecord
100
AcDbLayerTableRecord
  2
SK6
 70
     0
 62
     5
  6
Continuous
370
    -3
390
F
  0
LAYER
  5
343
102
{ACAD_XDICTIONARY
360
358
102
}
330
2
100
AcDbSymbolTableRecord
100
AcDbLayerTableRecord
  2
CUT
 70
     0
 62
     1
  6
Continuous
370
    -3
390
F
  0
LAYER
  5
344
102
{ACAD_XDICTIONARY
360
35A
102
}
330
2
100
AcDbSymbolTableRecord
100
AcDbLayerTableRecord
  2
NOCUT
 70
     0
 62
     7
  6
Continuous
370
    -3
390
F
  0
LAYER
  5
345
102
{ACAD_XDICTIONARY
360
35C
102
}
330
2
100
AcDbSymbolTableRecord
100
AcDbLayerTableRecord
  2
80
 70
     0
 62
     6
  6
Continuous
370
    -3
390
F
  0
LAYER
  5
346
102
{ACAD_XDICTIONARY
360
35E
102
}
330
2
100
AcDbSymbolTableRecord
100
AcDbLayerTableRecord
  2
81
 70
     0
 62
     3
  6
Continuous
370
    -3
390
F
  0
ENDTAB
  0
TABLE
  2
STYLE
  5
3
330
0
100
AcDbSymbolTable
 70
     3
  0
STYLE
  5
11
330
3
100
AcDbSymbolTableRecord
100
AcDbTextStyleTableRecord
  2
Standard
 70
     0
 40
0.0
 41
1.0
 50
0.0
 71
     0
 42
0.2
  3
txt
  4

  0
STYLE
  5
1F2
330
3
100
AcDbSymbolTableRecord
100
AcDbTextStyleTableRecord
  2
cesky
 70
     0
 40
0.0
 41
1.0
 50
0.0
 71
     0
 42
0.2
  3
simplex.shx
  4

  0
STYLE
  5
1F3
330
3
100
AcDbSymbolTableRecord
100
AcDbTextStyleTableRecord
  2
DWGDirectTextStyle
 70
     0
 40
0.0
 41
1.0
 50
0.0
 71
     0
 42
0.2
  3
simplex
  4

  0
ENDTAB
  0
TABLE
  2
VIEW
  5
6
330
0
100
AcDbSymbolTable
 70
     0
  0
ENDTAB
  0
TABLE
  2
UCS
  5
7
330
0
100
AcDbSymbolTable
 70
     0
  0
ENDTAB
  0
TABLE
  2
APPID
  5
9
330
0
100
AcDbSymbolTable
 70
     7
  0
APPID
  5
12
330
9
100
AcDbSymbolTableRecord
100
AcDbRegAppTableRecord
  2
ACAD
 70
     0
  0
APPID
  5
1F5
330
9
100
AcDbSymbolTableRecord
100
AcDbRegAppTableRecord
  2
ACAD_DSTYLE_DIMBREAK
 70
     0
  0
APPID
  5
2AE
330
9
100
AcDbSymbolTableRecord
100
AcDbRegAppTableRecord
  2
ACAD_DSTYLE_DIM_LINETYPE
 70
     0
  0
APPID
  5
2AF
330
9
100
AcDbSymbolTableRecord
100
AcDbRegAppTableRecord
  2
ACAD_DSTYLE_DIM_EXT1_LINETYPE
 70
     0
  0
APPID
  5
2B0
330
9
100
AcDbSymbolTableRecord
100
AcDbRegAppTableRecord
  2
ACAD_DSTYLE_DIM_EXT2_LINETYPE
 70
     0
  0
APPID
  5
2F0
330
9
100
AcDbSymbolTableRecord
100
AcDbRegAppTableRecord
  2
ACAD_MLEADERVER
 70
     0
  0
APPID
  5
363
330
9
100
AcDbSymbolTableRecord
100
AcDbRegAppTableRecord
  2
ACAD_NAV_VCDISPLAY
 70
     0
  0
ENDTAB
  0
TABLE
  2
DIMSTYLE
  5
A
330
0
100
AcDbSymbolTable
 70
     1
100
AcDbDimStyleTable
 71
     0
  0
DIMSTYLE
105
27
330
A
100
AcDbSymbolTableRecord
100
AcDbDimStyleTableRecord
  2
Standard
 70
     0
340
11
1001
ACAD_DSTYLE_DIMBREAK
1070
   391
1040
6.349999999999999
  0
ENDTAB
  0
TABLE
  2
BLOCK_RECORD
  5
1
330
0
100
AcDbSymbolTable
 70
    16
  0
BLOCK_RECORD
  5
1F
102
{ACAD_XDICTIONARY
360
300
102
}
330
1
100
AcDbSymbolTableRecord
100
AcDbBlockTableRecord
  2
*Model_Space
340
22
  0
BLOCK_RECORD
  5
1B
330
1
100
AcDbSymbolTableRecord
100
AcDbBlockTableRecord
  2
*Paper_Space
340
1E
  0
BLOCK_RECORD
  5
23
330
1
100
AcDbSymbolTableRecord
100
AcDbBlockTableRecord
  2
*Paper_Space0
340
26
  0
BLOCK_RECORD
  5
1EC
330
1
100
AcDbSymbolTableRecord
100
AcDbBlockTableRecord
  2
ASSORTED_DRAFT1
340
0
  0
BLOCK_RECORD
  5
1FA
330
1
100
AcDbSymbolTableRecord
100
AcDbBlockTableRecord
  2
*D2
340
0
  0
BLOCK_RECORD
  5
206
330
1
100
AcDbSymbolTableRecord
100
AcDbBlockTableRecord
  2
_U0
340
0
  0
BLOCK_RECORD
  5
212
330
1
100
AcDbSymbolTableRecord
100
AcDbBlockTableRecord
  2
*D4
340
0
  0
BLOCK_RECORD
  5
21E
330
1
100
AcDbSymbolTableRecord
100
AcDbBlockTableRecord
  2
_U1
340
0
  0
BLOCK_RECORD
  5
22A
330
1
100
AcDbSymbolTableRecord
100
AcDbBlockTableRecord
  2
*D6
340
0
  0
BLOCK_RECORD
  5
236
330
1
100
AcDbSymbolTableRecord
100
AcDbBlockTableRecord
  2
_U2
340
0
  0
BLOCK_RECORD
  5
242
330
1
100
AcDbSymbolTableRecord
100
AcDbBlockTableRecord
  2
*D8
340
0
  0
BLOCK_RECORD
  5
24D
330
1
100
AcDbSymbolTableRecord
100
AcDbBlockTableRecord
  2
_U3
340
0
  0
BLOCK_RECORD
  5
258
330
1
100
AcDbSymbolTableRecord
100
AcDbBlockTableRecord
  2
*D10
340
0
  0
BLOCK_RECORD
  5
264
330
1
100
AcDbSymbolTableRecord
100
AcDbBlockTableRecord
  2
_U4
340
0
  0
BLOCK_RECORD
  5
271
330
1
100
AcDbSymbolTableRecord
100
AcDbBlockTableRecord
  2
*D12
340
0
  0
BLOCK_RECORD
  5
27D
330
1
100
AcDbSymbolTableRecord
100
AcDbBlockTableRecord
  2
_U5
340
0
  0
BLOCK_RECORD
  5
28A
330
1
100
AcDbSymbolTableRecord
100
AcDbBlockTableRecord
  2
*D14
340
0
  0
BLOCK_RECORD
  5
296
330
1
100
AcDbSymbolTableRecord
100
AcDbBlockTableRecord
  2
_U6
340
0
  0
ENDTAB
  0
ENDSEC
  0
SECTION
  2
BLOCKS
  0
BLOCK
  5
20
330
1F
100
AcDbEntity
  8
0
100
AcDbBlockBegin
  2
*Model_Space
 70
     0
 10
0.0
 20
0.0
 30
0.0
  3
*Model_Space
  1

  0
ENDBLK
  5
21
330
1F
100
AcDbEntity
  8
0
100
AcDbBlockEnd
  0
BLOCK
  5
1C
330
1B
100
AcDbEntity
 67
     1
  8
0
100
AcDbBlockBegin
  2
*Paper_Space
 70
     0
 10
0.0
 20
0.0
 30
0.0
  3
*Paper_Space
  1

  0
ENDBLK
  5
1D
330
1B
100
AcDbEntity
 67
     1
  8
0
100
AcDbBlockEnd
  0
BLOCK
  5
24
330
23
100
AcDbEntity
 67
     1
  8
0
100
AcDbBlockBegin
  2
*Paper_Space0
 70
     0
 10
0.0
 20
0.0
 30
0.0
  3
*Paper_Space0
  1

  0
ENDBLK
  5
25
330
23
100
AcDbEntity
 67
     1
  8
0
100
AcDbBlockEnd
  0
BLOCK
  5
1EF
330
1EC
100
AcDbEntity
  8
0
100
AcDbBlockBegin
  2
ASSORTED_DRAFT1
 70
     0
 10
0.0
 20
0.0
 30
0.0
  3
ASSORTED_DRAFT1
  1

  0
SOLID
  5
1ED
330
1EC
100
AcDbEntity
  8
0
 62
   254
370
    13
100
AcDbTrace
 10
270.185042
 20
164.534924
 30
0.0
 11
265.185046
 21
163.42645
 31
0.0
 12
265.1850379999999
 22
165.643397
 32
0.0
 13
270.185042
 23
164.534924
 33
0.0
  0
ENDBLK
  5
1F0
330
1EC
100
AcDbEntity
  8
0
100
AcDbBlockEnd
  0
BLOCK
  5
1FB
330
1FA
100
AcDbEntity
  8
0
100
AcDbBlockBegin
  2
*D2
 70
     1
 10
0.0
 20
0.0
 30
0.0
  3
*D2
  1

  0
LINE
  5
1FD
330
1FA
100
AcDbEntity
  8
0
 62
   254
370
    -2
100
AcDbLine
 10
411.4048419999999
 20
304.907994
 30
0.0
 11
411.4048419999999
 21
338.155501
 31
0.0
  0
LINE
  5
1FE
330
1FA
100
AcDbEntity
  8
0
 62
   254
370
    -2
100
AcDbLine
 10
214.404842
 20
302.907994
 30
0.0
 11
214.404842
 21
338.155501
 31
0.0
  0
LINE
  5
1FF
330
1FA
100
AcDbEntity
  8
0
 62
   254
370
    -2
100
AcDbLine
 10
407.9048419999999
 20
337.155501
 30
0.0
 11
217.904842
 21
337.155501
 31
0.0
  0
SOLID
  5
200
330
1FA
100
AcDbEntity
  8
0
 62
   254
100
AcDbTrace
 10
407.9048419999999
 20
336.572167
 30
0.0
 11
407.9048419999999
 21
337.738834
 31
0.0
 12
411.4048419999999
 22
337.155501
 32
0.0
 13
411.4048419999999
 23
337.155501
 33
0.0
  0
SOLID
  5
201
330
1FA
100
AcDbEntity
  8
0
 62
   254
100
AcDbTrace
 10
217.904842
 20
337.738834
 30
0.0
 11
217.904842
 21
336.572167
 31
0.0
 12
214.404842
 22
337.155501
 32
0.0
 13
214.404842
 23
337.155501
 33
0.0
  0
MTEXT
  5
202
330
1FA
100
AcDbEntity
  8
0
 62
   254
370
    13
100
AcDbMText
 10
312.904842
 20
342.405501
 30
0.0
 40
3.5
 41
0.0
 71
     5
 72
     1
  1
\A1;197
  7
cesky
 73
     1
 44
1.0
  0
POINT
  5
203
330
1FA
100
AcDbEntity
  8
Defpoints
 62
     0
100
AcDbPoint
 10
411.4048419999999
 20
304.907994
 30
0.0
  0
POINT
  5
204
330
1FA
100
AcDbEntity
  8
Defpoints
 62
     0
100
AcDbPoint
 10
214.404842
 20
302.907994
 30
0.0
  0
POINT
  5
205
330
1FA
100
AcDbEntity
  8
Defpoints
 62
     0
100
AcDbPoint
 10
214.404842
 20
337.155501
 30
0.0
  0
ENDBLK
  5
1FC
330
1FA
100
AcDbEntity
  8
0
100
AcDbBlockEnd
  0
BLOCK
  5
20D
330
206
100
AcDbEntity
  8
0
100
AcDbBlockBegin
  2
_U0
 70
     0
 10
0.0
 20
0.0
 30
0.0
  3
_U0
  1

  0
ENDBLK
  5
20E
330
206
100
AcDbEntity
  8
0
100
AcDbBlockEnd
  0
BLOCK
  5
213
330
212
100
AcDbEntity
  8
0
100
AcDbBlockBegin
  2
*D4
 70
     1
 10
0.0
 20
0.0
 30
0.0
  3
*D4
  1

  0
LINE
  5
215
330
212
100
AcDbEntity
  8
0
 62
   254
370
    -2
100
AcDbLine
 10
274.404842
 20
288.907994
 30
0.0
 11
274.404842
 21
323.882273
 31
0.0
  0
LINE
  5
216
330
212
100
AcDbEntity
  8
0
 62
   254
370
    -2
100
AcDbLine
 10
214.404842
 20
295.907994
 30
0.0
 11
214.404842
 21
323.882273
 31
0.0
  0
LINE
  5
217
330
212
100
AcDbEntity
  8
0
 62
   254
370
    -2
100
AcDbLine
 10
270.904842
 20
322.882273
 30
0.0
 11
217.904842
 21
322.882273
 31
0.0
  0
SOLID
  5
218
330
212
100
AcDbEntity
  8
0
 62
   254
100
AcDbTrace
 10
270.904842
 20
322.29894
 30
0.0
 11
270.904842
 21
323.465606
 31
0.0
 12
274.404842
 22
322.882273
 32
0.0
 13
274.404842
 23
322.882273
 33
0.0
  0
SOLID
  5
219
330
212
100
AcDbEntity
  8
0
 62
   254
100
AcDbTrace
 10
217.904842
 20
323.465606
 30
0.0
 11
217.904842
 21
322.29894
 31
0.0
 12
214.404842
 22
322.882273
 32
0.0
 13
214.404842
 23
322.882273
 33
0.0
  0
MTEXT
  5
21A
330
212
100
AcDbEntity
  8
0
 62
   254
370
    13
100
AcDbMText
 10
244.404842
 20
328.132273
 30
0.0
 40
3.5
 41
0.0
 71
     5
 72
     1
  1
\A1;60
  7
cesky
 73
     1
 44
1.0
  0
POINT
  5
21B
330
212
100
AcDbEntity
  8
Defpoints
 62
     0
100
AcDbPoint
 10
274.404842
 20
288.907994
 30
0.0
  0
POINT
  5
21C
330
212
100
AcDbEntity
  8
Defpoints
 62
     0
100
AcDbPoint
 10
214.404842
 20
295.907994
 30
0.0
  0
POINT
  5
21D
330
212
100
AcDbEntity
  8
Defpoints
 62
     0
100
AcDbPoint
 10
214.404842
 20
322.882273
 30
0.0
  0
ENDBLK
  5
214
330
212
100
AcDbEntity
  8
0
100
AcDbBlockEnd
  0
BLOCK
  5
225
330
21E
100
AcDbEntity
  8
0
100
AcDbBlockBegin
  2
_U1
 70
     0
 10
0.0
 20
0.0
 30
0.0
  3
_U1
  1

  0
ENDBLK
  5
226
330
21E
100
AcDbEntity
  8
0
100
AcDbBlockEnd
  0
BLOCK
  5
22B
330
22A
100
AcDbEntity
  8
0
100
AcDbBlockBegin
  2
*D6
 70
     1
 10
0.0
 20
0.0
 30
0.0
  3
*D6
  1

  0
LINE
  5
22D
330
22A
100
AcDbEntity
  8
0
 62
   254
370
    -2
100
AcDbLine
 10
411.4048419999999
 20
302.907994
 30
0.0
 11
411.4048419999999
 21
312.553778
 31
0.0
  0
LINE
  5
22E
330
22A
100
AcDbEntity
  8
0
 62
   254
370
    -2
100
AcDbLine
 10
292.890469
 20
302.767411
 30
0.0
 11
292.890469
 21
312.553778
 31
0.0
  0
LINE
  5
22F
330
22A
100
AcDbEntity
  8
0
 62
   254
370
    -2
100
AcDbLine
 10
407.9048419999999
 20
311.553778
 30
0.0
 11
296.390469
 21
311.553778
 31
0.0
  0
SOLID
  5
230
330
22A
100
AcDbEntity
  8
0
 62
   254
100
AcDbTrace
 10
407.9048419999999
 20
310.9704450000001
 30
0.0
 11
407.9048419999999
 21
312.137112
 31
0.0
 12
411.4048419999999
 22
311.553778
 32
0.0
 13
411.4048419999999
 23
311.553778
 33
0.0
  0
SOLID
  5
231
330
22A
100
AcDbEntity
  8
0
 62
   254
100
AcDbTrace
 10
296.390469
 20
312.137112
 30
0.0
 11
296.390469
 21
310.9704450000001
 31
0.0
 12
292.890469
 22
311.553778
 32
0.0
 13
292.890469
 23
311.553778
 33
0.0
  0
MTEXT
  5
232
330
22A
100
AcDbEntity
  8
0
 62
   254
370
    13
100
AcDbMText
 10
352.147656
 20
316.803778
 30
0.0
 40
3.5
 41
0.0
 71
     5
 72
     1
  1
\A1;118.5
  7
cesky
 73
     1
 44
1.0
  0
POINT
  5
233
330
22A
100
AcDbEntity
  8
Defpoints
 62
     0
100
AcDbPoint
 10
411.4048419999999
 20
302.907994
 30
0.0
  0
POINT
  5
234
330
22A
100
AcDbEntity
  8
Defpoints
 62
     0
100
AcDbPoint
 10
292.890469
 20
302.767411
 30
0.0
  0
POINT
  5
235
330
22A
100
AcDbEntity
  8
Defpoints
 62
     0
100
AcDbPoint
 10
292.890469
 20
311.553778
 30
0.0
  0
ENDBLK
  5
22C
330
22A
100
AcDbEntity
  8
0
100
AcDbBlockEnd
  0
BLOCK
  5
23D
330
236
100
AcDbEntity
  8
0
100
AcDbBlockBegin
  2
_U2
 70
     0
 10
0.0
 20
0.0
 30
0.0
  3
_U2
  1

  0
ENDBLK
  5
23E
330
236
100
AcDbEntity
  8
0
100
AcDbBlockEnd
  0
BLOCK
  5
243
330
242
100
AcDbEntity
  8
0
100
AcDbBlockBegin
  2
*D8
 70
     1
 10
0.0
 20
0.0
 30
0.0
  3
*D8
  1

  0
LINE
  5
245
330
242
100
AcDbEntity
  8
0
 62
   254
370
    -2
100
AcDbLine
 10
292.703832
 20
288.907994
 30
0.0
 11
428.0724499999999
 21
288.907994
 31
0.0
  0
LINE
  5
246
330
242
100
AcDbEntity
  8
0
 62
   254
370
    -2
100
AcDbLine
 10
330.83929
 20
302.907994
 30
0.0
 11
428.0724499999999
 21
302.907994
 31
0.0
  0
LINE
  5
247
330
242
100
AcDbEntity
  8
0
 62
   254
370
    -2
100
AcDbLine
 10
427.07245
 20
288.907994
 30
0.0
 11
427.07245
 21
302.907994
 31
0.0
  0
SOLID
  5
248
330
242
100
AcDbEntity
  8
0
 62
   254
100
AcDbTrace
 10
427.6557829999999
 20
299.407994
 30
0.0
 11
426.4891169999999
 21
299.407994
 31
0.0
 12
427.07245
 22
302.907994
 32
0.0
 13
427.07245
 23
302.907994
 33
0.0
  0
MTEXT
  5
249
330
242
100
AcDbEntity
  8
0
 62
   254
370
    13
100
AcDbMText
 10
421.8224499999999
 20
279.07466
 30
0.0
 40
3.5
 41
0.0
 71
     5
 72
     1
  1
\A1;28
  7
cesky
 11
0.0
 21
1.0
 31
0.0
 73
     1
 44
1.0
  0
POINT
  5
24A
330
242
100
AcDbEntity
  8
Defpoints
 62
     0
100
AcDbPoint
 10
292.703832
 20
288.907994
 30
0.0
  0
POINT
  5
24B
330
242
100
AcDbEntity
  8
Defpoints
 62
     0
100
AcDbPoint
 10
330.83929
 20
302.907994
 30
0.0
  0
POINT
  5
24C
330
242
100
AcDbEntity
  8
Defpoints
 62
     0
100
AcDbPoint
 10
427.07245
 20
302.907994
 30
0.0
  0
ENDBLK
  5
244
330
242
100
AcDbEntity
  8
0
100
AcDbBlockEnd
  0
BLOCK
  5
253
330
24D
100
AcDbEntity
  8
0
100
AcDbBlockBegin
  2
_U3
 70
     0
 10
0.0
 20
0.0
 30
0.0
  3
_U3
  1

  0
ENDBLK
  5
254
330
24D
100
AcDbEntity
  8
0
100
AcDbBlockEnd
  0
BLOCK
  5
259
330
258
100
AcDbEntity
  8
0
100
AcDbBlockBegin
  2
*D10
 70
     1
 10
0.0
 20
0.0
 30
0.0
  3
*D10
  1

  0
LINE
  5
25B
330
258
100
AcDbEntity
  8
0
 62
    95
370
    -2
100
AcDbLine
 10
216.404842
 20
304.907994
 30
0.0
 11
203.66833
 21
304.907994
 31
0.0
  0
LINE
  5
25C
330
258
100
AcDbEntity
  8
0
 62
    95
370
    -2
100
AcDbLine
 10
216.404842
 20
272.907994
 30
0.0
 11
203.66833
 21
272.907994
 31
0.0
  0
LINE
  5
25D
330
258
100
AcDbEntity
  8
0
 62
    95
370
    -2
100
AcDbLine
 10
204.66833
 20
301.407994
 30
0.0
 11
204.66833
 21
276.407994
 31
0.0
  0
SOLID
  5
25E
330
258
100
AcDbEntity
  8
0
 62
    95
100
AcDbTrace
 10
205.251663
 20
301.407994
 30
0.0
 11
204.084996
 21
301.407994
 31
0.0
 12
204.66833
 22
304.907994
 32
0.0
 13
204.66833
 23
304.907994
 33
0.0
  0
SOLID
  5
25F
330
258
100
AcDbEntity
  8
0
 62
    95
100
AcDbTrace
 10
204.084996
 20
276.407994
 30
0.0
 11
205.251663
 21
276.407994
 31
0.0
 12
204.66833
 22
272.907994
 32
0.0
 13
204.66833
 23
272.907994
 33
0.0
  0
MTEXT
  5
260
330
258
100
AcDbEntity
  8
0
 62
    95
370
    13
100
AcDbMText
 10
199.41833
 20
288.907994
 30
0.0
 40
3.5
 41
0.0
 71
     5
 72
     1
  1
\A1;32
  7
cesky
 11
0.0
 21
1.0
 31
0.0
 73
     1
 44
1.0
  0
POINT
  5
261
330
258
100
AcDbEntity
  8
Defpoints
 62
     0
100
AcDbPoint
 10
216.404842
 20
304.907994
 30
0.0
  0
POINT
  5
262
330
258
100
AcDbEntity
  8
Defpoints
 62
     0
100
AcDbPoint
 10
216.404842
 20
272.907994
 30
0.0
  0
POINT
  5
263
330
258
100
AcDbEntity
  8
Defpoints
 62
     0
100
AcDbPoint
 10
204.66833
 20
272.907994
 30
0.0
  0
ENDBLK
  5
25A
330
258
100
AcDbEntity
  8
0
100
AcDbBlockEnd
  0
BLOCK
  5
26C
330
264
100
AcDbEntity
  8
0
100
AcDbBlockBegin
  2
_U4
 70
     0
 10
0.0
 20
0.0
 30
0.0
  3
_U4
  1

  0
ENDBLK
  5
26D
330
264
100
AcDbEntity
  8
0
100
AcDbBlockEnd
  0
BLOCK
  5
272
330
271
100
AcDbEntity
  8
0
100
AcDbBlockBegin
  2
*D12
 70
     1
 10
0.0
 20
0.0
 30
0.0
  3
*D12
  1

  0
LINE
  5
274
330
271
100
AcDbEntity
  8
0
 62
    95
370
    -2
100
AcDbLine
 10
277.154842
 20
309.907994
 30
0.0
 11
191.104285
 21
309.907994
 31
0.0
  0
LINE
  5
275
330
271
100
AcDbEntity
  8
0
 62
    95
370
    -2
100
AcDbLine
 10
277.154842
 20
267.907994
 30
0.0
 11
191.104285
 21
267.907994
 31
0.0
  0
LINE
  5
276
330
271
100
AcDbEntity
  8
0
 62
    95
370
    -2
100
AcDbLine
 10
192.104285
 20
306.407994
 30
0.0
 11
192.104285
 21
271.407994
 31
0.0
  0
SOLID
  5
277
330
271
100
AcDbEntity
  8
0
 62
    95
100
AcDbTrace
 10
192.687618
 20
306.407994
 30
0.0
 11
191.520952
 21
306.407994
 31
0.0
 12
192.104285
 22
309.907994
 32
0.0
 13
192.104285
 23
309.907994
 33
0.0
  0
SOLID
  5
278
330
271
100
AcDbEntity
  8
0
 62
    95
100
AcDbTrace
 10
191.520952
 20
271.407994
 30
0.0
 11
192.687618
 21
271.407994
 31
0.0
 12
192.104285
 22
267.907994
 32
0.0
 13
192.104285
 23
267.907994
 33
0.0
  0
MTEXT
  5
279
330
271
100
AcDbEntity
  8
0
 62
    95
370
    13
100
AcDbMText
 10
186.854285
 20
288.907994
 30
0.0
 40
3.5
 41
0.0
 71
     5
 72
     1
  1
\A1;42
  7
cesky
 11
0.0
 21
1.0
 31
0.0
 73
     1
 44
1.0
  0
POINT
  5
27A
330
271
100
AcDbEntity
  8
Defpoints
 62
     0
100
AcDbPoint
 10
277.154842
 20
309.907994
 30
0.0
  0
POINT
  5
27B
330
271
100
AcDbEntity
  8
Defpoints
 62
     0
100
AcDbPoint
 10
277.154842
 20
267.907994
 30
0.0
  0
POINT
  5
27C
330
271
100
AcDbEntity
  8
Defpoints
 62
     0
100
AcDbPoint
 10
192.104285
 20
267.907994
 30
0.0
  0
ENDBLK
  5
273
330
271
100
AcDbEntity
  8
0
100
AcDbBlockEnd
  0
BLOCK
  5
285
330
27D
100
AcDbEntity
  8
0
100
AcDbBlockBegin
  2
_U5
 70
     0
 10
0.0
 20
0.0
 30
0.0
  3
_U5
  1

  0
ENDBLK
  5
286
330
27D
100
AcDbEntity
  8
0
100
AcDbBlockEnd
  0
BLOCK
  5
28B
330
28A
100
AcDbEntity
  8
0
100
AcDbBlockBegin
  2
*D14
 70
     1
 10
0.0
 20
0.0
 30
0.0
  3
*D14
  1

  0
LINE
  5
28D
330
28A
100
AcDbEntity
  8
0
 62
   254
370
    -2
100
AcDbLine
 10
411.4048419999999
 20
302.907994
 30
0.0
 11
411.4048419999999
 21
323.882273
 31
0.0
  0
LINE
  5
28E
330
28A
100
AcDbEntity
  8
0
 62
   254
370
    -2
100
AcDbLine
 10
274.404842
 20
288.907994
 30
0.0
 11
274.404842
 21
323.882273
 31
0.0
  0
LINE
  5
28F
330
28A
100
AcDbEntity
  8
0
 62
   254
370
    -2
100
AcDbLine
 10
407.9048419999999
 20
322.882273
 30
0.0
 11
277.904842
 21
322.882273
 31
0.0
  0
SOLID
  5
290
330
28A
100
AcDbEntity
  8
0
 62
   254
100
AcDbTrace
 10
407.9048419999999
 20
322.29894
 30
0.0
 11
407.9048419999999
 21
323.465606
 31
0.0
 12
411.4048419999999
 22
322.882273
 32
0.0
 13
411.4048419999999
 23
322.882273
 33
0.0
  0
SOLID
  5
291
330
28A
100
AcDbEntity
  8
0
 62
   254
100
AcDbTrace
 10
277.904842
 20
323.465606
 30
0.0
 11
277.904842
 21
322.29894
 31
0.0
 12
274.404842
 22
322.882273
 32
0.0
 13
274.404842
 23
322.882273
 33
0.0
  0
MTEXT
  5
292
330
28A
100
AcDbEntity
  8
0
 62
   254
370
    13
100
AcDbMText
 10
342.904842
 20
328.132273
 30
0.0
 40
3.5
 41
0.0
 71
     5
 72
     1
  1
\A1;137
  7
cesky
 73
     1
 44
1.0
  0
POINT
  5
293
330
28A
100
AcDbEntity
  8
Defpoints
 62
     0
100
AcDbPoint
 10
411.4048419999999
 20
302.907994
 30
0.0
  0
POINT
  5
294
330
28A
100
AcDbEntity
  8
Defpoints
 62
     0
100
AcDbPoint
 10
274.404842
 20
288.907994
 30
0.0
  0
POINT
  5
295
330
28A
100
AcDbEntity
  8
Defpoints
 62
     0
100
AcDbPoint
 10
274.404842
 20
322.882273
 30
0.0
  0
ENDBLK
  5
28C
330
28A
100
AcDbEntity
  8
0
100
AcDbBlockEnd
  0
BLOCK
  5
29D
330
296
100
AcDbEntity
  8
0
100
AcDbBlockBegin
  2
_U6
 70
     0
 10
0.0
 20
0.0
 30
0.0
  3
_U6
  1

  0
ENDBLK
  5
29E
330
296
100
AcDbEntity
  8
0
100
AcDbBlockEnd
  0
ENDSEC
  0
SECTION
  2
ENTITIES
  0
POINT
  5
73
102
{ACAD_REACTORS
330
347
102
}
330
1F
100
AcDbEntity
  8
80
100
AcDbPoint
 10
274.404842
 20
288.907994
 30
0.0
  0
POINT
  5
76
330
1F
100
AcDbEntity
  8
SK4
 60
     1
100
AcDbPoint
 10
216.404842
 20
288.907994
 30
0.0
  0
POINT
  5
78
330
1F
100
AcDbEntity
  8
SK4
 60
     1
100
AcDbPoint
 10
274.404842
 20
288.907994
 30
0.0
  0
POINT
  5
79
330
1F
100
AcDbEntity
  8
4
 60
     1
100
AcDbPoint
 10
292.703832
 20
288.907994
 30
0.0
  0
POINT
  5
7A
330
1F
100
AcDbEntity
  8
4
 60
     1
100
AcDbPoint
 10
410.65852
 20
288.907994
 30
0.0
  0
POINT
  5
7B
330
1F
100
AcDbEntity
  8
SK6
 60
     1
100
AcDbPoint
 10
274.404842
 20
288.907994
 30
0.0
  0
POINT
  5
7C
330
1F
100
AcDbEntity
  8
SK6
 60
     1
100
AcDbPoint
 10
292.890469
 20
302.767411
 30
0.0
  0
LINE
  5
7D
330
1F
100
AcDbEntity
  8
1
100
AcDbLine
 10
405.024705
 20
297.114632
 30
0.0
 11
405.0503729999999
 21
297.197912
 31
0.0
  0
LINE
  5
7F
330
1F
100
AcDbEntity
  8
1
100
AcDbLine
 10
406.566322
 20
296.788214
 30
0.0
 11
406.592054
 21
296.871703
 31
0.0
  0
LINE
  5
80
330
1F
100
AcDbEntity
  8
1
100
AcDbLine
 10
405.346749
 20
298.571074
 30
0.0
 11
405.372481
 21
298.654563
 31
0.0
  0
LINE
  5
81
330
1F
100
AcDbEntity
  8
1
100
AcDbLine
 10
406.9140339999999
 20
298.327936
 30
0.0
 11
406.888366
 21
298.244656
 31
0.0
  0
LINE
  5
82
330
1F
100
AcDbEntity
  8
1
100
AcDbLine
 10
274.404842
 20
309.407994
 30
0.0
 11
274.404842
 21
288.907994
 31
0.0
  0
LINE
  5
84
330
1F
100
AcDbEntity
  8
1
100
AcDbLine
 10
274.404842
 20
288.907994
 30
0.0
 11
274.404842
 21
268.407994
 31
0.0
  0
LINE
  5
85
330
1F
100
AcDbEntity
  8
1
100
AcDbLine
 10
408.8695239999999
 20
284.145494
 30
0.0
 11
409.128233
 21
284.145494
 31
0.0
  0
LINE
  5
86
330
1F
100
AcDbEntity
  8
1
100
AcDbLine
 10
401.4338109999999
 20
302.229008
 30
0.0
 11
401.426248
 21
302.403856
 31
0.0
  0
LINE
  5
87
330
1F
100
AcDbEntity
  8
1
100
AcDbLine
 10
404.2070059999999
 20
292.820248
 30
0.0
 11
410.458967
 21
293.09283
 31
0.0
  0
LINE
  5
88
330
1F
100
AcDbEntity
  8
1
100
AcDbLine
 10
410.6448419999999
 20
289.992741
 30
0.0
 11
410.6448419999999
 21
290.092756
 31
0.0
  0
LINE
  5
89
330
1F
100
AcDbEntity
  8
1
100
AcDbLine
 10
410.4602799999999
 20
292.927466
 30
0.0
 11
410.458967
 21
293.09283
 31
0.0
  0
LINE
  5
8A
330
1F
100
AcDbEntity
  8
1
100
AcDbLine
 10
410.701629
 20
302.055579
 30
0.0
 11
411.0574919999999
 21
294.096893
 31
0.0
  0
LINE
  5
8C
330
1F
100
AcDbEntity
  8
1
100
AcDbLine
 10
401.925172
 20
302.445437
 30
0.0
 11
409.8950639999999
 21
302.792921
 31
0.0
  0
LINE
  5
8D
330
1F
100
AcDbEntity
  8
1
100
AcDbLine
 10
401.54342
 20
293.682084
 30
0.0
 11
401.187556
 21
301.640769
 31
0.0
  0
LINE
  5
8E
330
1F
100
AcDbEntity
  8
1
100
AcDbLine
 10
410.3198759999999
 20
293.292226
 30
0.0
 11
402.349985
 21
292.944742
 31
0.0
  0
LINE
  5
8F
330
1F
100
AcDbEntity
  8
1
100
AcDbLine
 10
402.467825
 20
301.198991
 30
0.0
 11
409.4597939999999
 21
301.503838
 31
0.0
  0
LINE
  5
90
330
1F
100
AcDbEntity
  8
1
100
AcDbLine
 10
402.7800229999999
 20
294.216853
 30
0.0
 11
402.467825
 21
301.198991
 31
0.0
  0
LINE
  5
91
330
1F
100
AcDbEntity
  8
1
100
AcDbLine
 10
409.771993
 20
294.5217
 30
0.0
 11
402.7800229999999
 21
294.216853
 31
0.0
  0
LINE
  5
92
330
1F
100
AcDbEntity
  8
1
100
AcDbLine
 10
409.4597939999999
 20
301.503838
 30
0.0
 11
409.771993
 21
294.5217
 31
0.0
  0
LINE
  5
93
330
1F
100
AcDbEntity
  8
1
100
AcDbLine
 10
410.180548
 20
280.168262
 30
0.0
 11
410.155266
 21
279.930062
 31
0.0
  0
LINE
  5
94
330
1F
100
AcDbEntity
  8
1
100
AcDbLine
 10
410.180548
 20
280.168262
 30
0.0
 11
409.9749979999999
 21
280.502341
 31
0.0
  0
LINE
  5
95
330
1F
100
AcDbEntity
  8
1
100
AcDbLine
 10
409.489263
 20
284.145494
 30
0.0
 11
410.183868
 21
284.145494
 31
0.0
  0
LINE
  5
96
330
1F
100
AcDbEntity
  8
SK1
100
AcDbLine
 10
216.404842
 20
304.907994
 30
0.0
 11
216.404842
 21
272.907994
 31
0.0
  0
LINE
  5
97
330
1F
100
AcDbEntity
  8
SK1
100
AcDbLine
 10
214.404842
 20
302.907994
 30
0.0
 11
214.404842
 21
274.907994
 31
0.0
  0
LINE
  5
98
330
1F
100
AcDbEntity
  8
1
100
AcDbLine
 10
401.2560689999999
 20
295.521648
 30
0.0
 11
401.2508379999999
 21
295.504676
 31
0.0
  0
LINE
  5
99
330
1F
100
AcDbEntity
  8
1
100
AcDbLine
 10
401.2560689999999
 20
295.521648
 30
0.0
 11
400.9612579999999
 21
302.33727
 31
0.0
  0
LINE
  5
9A
330
1F
100
AcDbEntity
  8
1
100
AcDbLine
 10
400.956765
 20
302.303232
 30
0.0
 11
401.2508379999999
 21
295.504676
 31
0.0
  0
LINE
  5
9B
330
1F
100
AcDbEntity
  8
1
100
AcDbLine
 10
409.717469
 20
275.407994
 30
0.0
 11
391.330711
 21
275.407994
 31
0.0
  0
LINE
  5
9C
330
1F
100
AcDbEntity
  8
1
100
AcDbLine
 10
274.904842
 20
267.907994
 30
0.0
 11
274.904842
 21
288.907994
 31
0.0
  0
LINE
  5
9D
330
1F
100
AcDbEntity
  8
1
100
AcDbLine
 10
274.904842
 20
288.907994
 30
0.0
 11
274.904842
 21
309.907994
 31
0.0
  0
LINE
  5
9E
330
1F
100
AcDbEntity
  8
1
100
AcDbLine
 10
279.404842
 20
267.907994
 30
0.0
 11
282.8043370000001
 21
271.307488
 31
0.0
  0
LINE
  5
9F
330
1F
100
AcDbEntity
  8
1
100
AcDbLine
 10
282.8043370000001
 20
306.508499
 30
0.0
 11
279.404842
 21
309.907994
 31
0.0
  0
LINE
  5
A0
330
1F
100
AcDbEntity
  8
SK1
100
AcDbLine
 10
214.404842
 20
274.907994
 30
0.0
 11
216.404842
 21
272.907994
 31
0.0
  0
LINE
  5
A1
330
1F
100
AcDbEntity
  8
SK1
100
AcDbLine
 10
216.404842
 20
304.907994
 30
0.0
 11
214.404842
 21
302.907994
 31
0.0
  0
LINE
  5
A2
330
1F
100
AcDbEntity
  8
SK1
100
AcDbLine
 10
274.404842
 20
304.907994
 30
0.0
 11
216.404842
 21
304.907994
 31
0.0
  0
LINE
  5
A3
330
1F
100
AcDbEntity
  8
1
100
AcDbLine
 10
274.904842
 20
267.907994
 30
0.0
 11
274.404842
 21
268.407994
 31
0.0
  0
LINE
  5
A4
330
1F
100
AcDbEntity
  8
1
100
AcDbLine
 10
274.404842
 20
309.407994
 30
0.0
 11
274.904842
 21
309.907994
 31
0.0
  0
LINE
  5
A5
330
1F
100
AcDbEntity
  8
1
100
AcDbLine
 10
279.404842
 20
309.907994
 30
0.0
 11
274.904842
 21
309.907994
 31
0.0
  0
LINE
  5
A6
330
1F
100
AcDbEntity
  8
1
100
AcDbLine
 10
398.868373
 20
292.413755
 30
0.0
 11
398.892232
 21
291.716394
 31
0.0
  0
LINE
  5
A7
330
1F
100
AcDbEntity
  8
1
100
AcDbLine
 10
398.91964
 20
290.915328
 30
0.0
 11
398.958916
 21
289.76738
 31
0.0
  0
LINE
  5
A8
330
1F
100
AcDbEntity
  8
1
100
AcDbLine
 10
408.9150909999999
 20
292.3604
 30
0.0
 11
402.5182759999999
 21
292.081501
 31
0.0
  0
LINE
  5
A9
330
1F
100
AcDbEntity
  8
1
100
AcDbLine
 10
286.904842
 20
302.165438
 30
0.0
 11
286.904842
 21
287.174037
 31
0.0
  0
LINE
  5
AA
330
1F
100
AcDbEntity
  8
81
100
AcDbLine
 10
411.4048419999999
 20
304.907994
 30
0.0
 11
411.4048419999999
 21
300.907994
 31
0.0
  0
LINE
  5
AB
330
1F
100
AcDbEntity
  8
SK1
100
AcDbLine
 10
216.404842
 20
272.907994
 30
0.0
 11
274.404842
 21
272.907994
 31
0.0
  0
LINE
  5
AC
330
1F
100
AcDbEntity
  8
80
100
AcDbLine
 10
274.404842
 20
287.90842
 30
0.0
 11
274.404842
 21
289.907567
 31
0.0
  0
LINE
  5
AD
330
1F
100
AcDbEntity
  8
81
100
AcDbLine
 10
409.404842
 20
302.907994
 30
0.0
 11
413.404842
 21
302.907994
 31
0.0
  0
LINE
  5
AE
330
1F
100
AcDbEntity
  8
1
100
AcDbLine
 10
274.904842
 20
267.907994
 30
0.0
 11
279.404842
 21
267.907994
 31
0.0
  0
LINE
  5
AF
330
1F
100
AcDbEntity
  8
1
100
AcDbLine
 10
410.4138179999999
 20
288.812185
 30
0.0
 11
410.8874189999999
 21
287.957787
 31
0.0
  0
LINE
  5
B0
330
1F
100
AcDbEntity
  8
1
100
AcDbLine
 10
410.8874189999999
 20
287.957787
 30
0.0
 11
410.2414729999999
 21
287.796734
 31
0.0
  0
LINE
  5
B1
330
1F
100
AcDbEntity
  8
1
100
AcDbLine
 10
410.1448989999999
 20
282.264001
 30
0.0
 11
410.1765349999999
 21
284.076403
 31
0.0
  0
LINE
  5
B2
330
1F
100
AcDbEntity
  8
1
100
AcDbLine
 10
410.183868
 20
284.496545
 30
0.0
 11
410.2414729999999
 21
287.796734
 31
0.0
  0
LINE
  5
B3
330
1F
100
AcDbEntity
  8
1
100
AcDbLine
 10
410.8874189999999
 20
287.957787
 30
0.0
 11
410.7848309999999
 21
282.080503
 31
0.0
  0
LINE
  5
B4
330
1F
100
AcDbEntity
  8
1
100
AcDbLine
 10
410.7848309999999
 20
282.080503
 30
0.0
 11
410.1448989999999
 21
282.264001
 31
0.0
  0
LINE
  5
B5
330
1F
100
AcDbEntity
  8
1
100
AcDbLine
 10
409.94969
 20
281.939119
 30
0.0
 11
410.1448989999999
 21
282.264001
 31
0.0
  0
LINE
  5
B6
330
1F
100
AcDbEntity
  8
1
100
AcDbLine
 10
410.3013999999999
 20
281.275939
 30
0.0
 11
409.9211009999999
 21
281.66975
 31
0.0
  0
LINE
  5
B7
330
1F
100
AcDbEntity
  8
1
100
AcDbLine
 10
410.7848309999999
 20
282.080503
 30
0.0
 11
410.3013999999999
 21
281.275939
 31
0.0
  0
LINE
  5
B8
330
1F
100
AcDbEntity
  8
1
100
AcDbLine
 10
410.4138179999999
 20
288.812185
 30
0.0
 11
410.183867
 21
288.590123
 31
0.0
  0
LINE
  5
B9
330
1F
100
AcDbEntity
  8
1
100
AcDbLine
 10
410.183914
 20
288.950325
 30
0.0
 11
410.4138179999999
 21
288.812185
 31
0.0
  0
LINE
  5
BA
330
1F
100
AcDbEntity
  8
1
100
AcDbLine
 10
398.998924
 20
292.38206
 30
0.0
 11
399.002818
 21
292.394694
 31
0.0
  0
LINE
  5
BB
330
1F
100
AcDbEntity
  8
1
100
AcDbLine
 10
405.3506429999999
 20
298.5968450000001
 30
0.0
 11
405.376243
 21
298.679905
 31
0.0
  0
LINE
  5
BC
330
1F
100
AcDbEntity
  8
1
100
AcDbLine
 10
404.775174
 20
297.722408
 30
0.0
 11
404.750244
 21
297.641519
 31
0.0
  0
LINE
  5
BD
330
1F
100
AcDbEntity
  8
1
100
AcDbLine
 10
404.8596919999999
 20
297.708232
 30
0.0
 11
404.834239
 21
297.625646
 31
0.0
  0
LINE
  5
BE
330
1F
100
AcDbEntity
  8
1
100
AcDbLine
 10
407.0415259999999
 20
297.136756
 30
0.0
 11
407.0664169999999
 21
297.217516
 31
0.0
  0
LINE
  5
BF
330
1F
100
AcDbEntity
  8
1
100
AcDbLine
 10
406.949397
 20
297.157368
 30
0.0
 11
406.9748689999999
 21
297.2400120000001
 31
0.0
  0
LINE
  5
C0
330
1F
100
AcDbEntity
  8
1
100
AcDbLine
 10
406.006385
 20
296.541627
 30
0.0
 11
406.0317379999999
 21
296.623885
 31
0.0
  0
LINE
  5
C1
330
1F
100
AcDbEntity
  8
1
100
AcDbLine
 10
395.176671
 20
294.042478
 30
0.0
 11
395.679313
 21
293.752864
 31
0.0
  0
LINE
  5
C2
330
1F
100
AcDbEntity
  8
1
100
AcDbLine
 10
401.2074759999999
 20
301.83349
 30
0.0
 11
401.1857019999999
 21
302.336869
 31
0.0
  0
LINE
  5
C3
330
1F
100
AcDbEntity
  8
1
100
AcDbLine
 10
410.3815309999999
 20
292.391348
 30
0.0
 11
402.5255249999999
 21
292.04883
 31
0.0
  0
LINE
  5
C4
330
1F
100
AcDbEntity
  8
1
100
AcDbLine
 10
410.3815309999999
 20
292.391348
 30
0.0
 11
408.750597
 21
289.673971
 31
0.0
  0
LINE
  5
C5
330
1F
100
AcDbEntity
  8
1
100
AcDbLine
 10
409.9749979999999
 20
280.502341
 30
0.0
 11
409.867647
 21
280.504059
 31
0.0
  0
LINE
  5
C6
330
1F
100
AcDbEntity
  8
1
100
AcDbLine
 10
409.8504809999999
 20
281.004398
 30
0.0
 11
410.183868
 21
284.145494
 31
0.0
  0
LINE
  5
C7
330
1F
100
AcDbEntity
  8
1
100
AcDbLine
 10
410.183868
 20
284.145494
 30
0.0
 11
410.183868
 21
288.931302
 31
0.0
  0
LINE
  5
C8
330
1F
100
AcDbEntity
  8
1
100
AcDbLine
 10
410.2541379999999
 20
289.430151
 30
0.0
 11
410.3616719999999
 21
289.428274
 31
0.0
  0
LINE
  5
C9
330
1F
100
AcDbEntity
  8
1
100
AcDbLine
 10
279.404842
 20
267.907994
 30
0.0
 11
279.404842
 21
272.445421
 31
0.0
  0
LINE
  5
CA
330
1F
100
AcDbEntity
  8
1
100
AcDbLine
 10
279.404842
 20
309.907994
 30
0.0
 11
279.404842
 21
279.977731
 31
0.0
  0
LINE
  5
CB
330
1F
100
AcDbEntity
  8
1
100
AcDbLine
 10
410.3815309999999
 20
292.391348
 30
0.0
 11
410.3942739999999
 21
292.396985
 31
0.0
  0
LINE
  5
CC
330
1F
100
AcDbEntity
  8
1
100
AcDbLine
 10
410.500952
 20
293.111404
 30
0.0
 11
404.212237
 21
292.837219
 31
0.0
  0
LINE
  5
CD
330
1F
100
AcDbEntity
  8
1
100
AcDbLine
 10
404.2070059999999
 20
292.820248
 30
0.0
 11
404.212237
 21
292.837219
 31
0.0
  0
LINE
  5
CE
330
1F
100
AcDbEntity
  8
1
100
AcDbLine
 10
410.3616719999999
 20
289.428274
 30
0.0
 11
410.6026799999999
 21
289.754866
 31
0.0
  0
LINE
  5
CF
330
1F
100
AcDbEntity
  8
1
100
AcDbLine
 10
410.6026799999999
 20
289.993477
 30
0.0
 11
410.6026799999999
 21
289.754866
 31
0.0
  0
LINE
  5
D0
330
1F
100
AcDbEntity
  8
1
100
AcDbLine
 10
410.6026799999999
 20
289.993477
 30
0.0
 11
410.6448419999999
 21
289.992741
 31
0.0
  0
LINE
  5
D1
330
1F
100
AcDbEntity
  8
1
100
AcDbLine
 10
410.6448419999999
 20
293.392339
 30
0.0
 11
410.6448419999999
 21
290.092756
 31
0.0
  0
LINE
  5
D2
330
1F
100
AcDbEntity
  8
1
100
AcDbLine
 10
410.500952
 20
293.111404
 30
0.0
 11
410.499172
 21
293.335452
 31
0.0
  0
LINE
  5
D3
330
1F
100
AcDbEntity
  8
1
100
AcDbLine
 10
410.500952
 20
293.111404
 30
0.0
 11
410.458967
 21
293.09283
 31
0.0
  0
LINE
  5
D4
330
1F
100
AcDbEntity
  8
1
100
AcDbLine
 10
409.717469
 20
275.407994
 30
0.0
 11
410.197357
 21
279.929388
 31
0.0
  0
LINE
  5
D5
330
1F
100
AcDbEntity
  8
1
100
AcDbLine
 10
410.197357
 20
279.929388
 30
0.0
 11
410.155266
 21
279.930062
 31
0.0
  0
LINE
  5
D6
330
1F
100
AcDbEntity
  8
1
100
AcDbLine
 10
411.2974359999999
 20
281.933516
 30
0.0
 11
410.671836
 21
280.892342
 31
0.0
  0
LINE
  5
D7
330
1F
100
AcDbEntity
  8
1
100
AcDbLine
 10
410.3013999999999
 20
281.275939
 30
0.0
 11
410.671836
 21
280.892342
 31
0.0
  0
LINE
  5
D8
330
1F
100
AcDbEntity
  8
1
100
AcDbLine
 10
410.671836
 20
280.892342
 30
0.0
 11
409.968452
 21
280.50245
 31
0.0
  0
LINE
  5
D9
330
1F
100
AcDbEntity
  8
1
100
AcDbLine
 10
410.369933
 20
289.4394779999999
 30
0.0
 11
410.797416
 21
289.18262
 31
0.0
  0
LINE
  5
DA
330
1F
100
AcDbEntity
  8
1
100
AcDbLine
 10
410.4138179999999
 20
288.812185
 30
0.0
 11
410.797416
 21
289.18262
 31
0.0
  0
LINE
  5
DB
330
1F
100
AcDbEntity
  8
1
100
AcDbLine
 10
410.797416
 20
289.18262
 30
0.0
 11
411.4048419999999
 21
288.086795
 31
0.0
  0
LINE
  5
DC
330
1F
100
AcDbEntity
  8
1
100
AcDbLine
 10
410.8874189999999
 20
287.957787
 30
0.0
 11
411.4048419999999
 21
288.086795
 31
0.0
  0
LINE
  5
DD
330
1F
100
AcDbEntity
  8
1
100
AcDbLine
 10
410.7848309999999
 20
282.080503
 30
0.0
 11
411.2974359999999
 21
281.933516
 31
0.0
  0
LINE
  5
DE
330
1F
100
AcDbEntity
  8
1
100
AcDbLine
 10
411.4048419999999
 20
288.086795
 30
0.0
 11
411.2974359999999
 21
281.933516
 31
0.0
  0
LINE
  5
DF
330
1F
100
AcDbEntity
  8
1
100
AcDbLine
 10
410.3013999999999
 20
281.275939
 30
0.0
 11
409.8529209999999
 21
281.027343
 31
0.0
  0
LINE
  5
E0
330
1F
100
AcDbEntity
  8
1
100
AcDbLine
 10
410.2414729999999
 20
287.796734
 30
0.0
 11
410.183864
 21
287.900664
 31
0.0
  0
LINE
  5
E5
330
1F
100
AcDbEntity
  8
80
100
AcDbLine
 10
275.404416
 20
288.907994
 30
0.0
 11
273.405268
 21
288.907994
 31
0.0
  0
LINE
  5
E6
330
1F
100
AcDbEntity
  8
1
100
AcDbLine
 10
292.703832
 20
275.407994
 30
0.0
 11
303.625701
 21
275.407994
 31
0.0
  0
LINE
  5
E7
330
1F
100
AcDbEntity
  8
1
100
AcDbLine
 10
401.378853
 20
302.407994
 30
0.0
 11
391.922768
 21
302.407994
 31
0.0
  0
LINE
  5
E8
330
1F
100
AcDbEntity
  8
1
100
AcDbLine
 10
305.000792
 20
302.407994
 30
0.0
 11
292.703832
 21
302.407994
 31
0.0
  0
LINE
  5
E9
330
1F
100
AcDbEntity
  8
1
100
AcDbLine
 10
403.354677
 20
298.574473
 30
0.0
 11
403.334232
 21
298.508138
 31
0.0
  0
LINE
  5
EA
330
1F
100
AcDbEntity
  8
1
100
AcDbLine
 10
408.590256
 20
296.888195
 30
0.0
 11
408.610701
 21
296.95453
 31
0.0
  0
LINE
  5
11B
330
1F
100
AcDbEntity
  8
NOCUT
100
AcDbLine
 10
214.404842
 20
302.907994
 30
0.0
 11
214.404842
 21
288.907994
 31
0.0
  0
LINE
  5
11C
330
1F
100
AcDbEntity
  8
NOCUT
100
AcDbLine
 10
279.404842
 20
309.907994
 30
0.0
 11
274.904842
 21
309.907994
 31
0.0
  0
LINE
  5
11D
330
1F
100
AcDbEntity
  8
NOCUT
100
AcDbLine
 10
274.404842
 20
304.907994
 30
0.0
 11
216.404842
 21
304.907994
 31
0.0
  0
LINE
  5
11E
330
1F
100
AcDbEntity
  8
NOCUT
100
AcDbLine
 10
279.404842
 20
309.907994
 30
0.0
 11
282.8043370000001
 21
306.508499
 31
0.0
  0
LINE
  5
11F
330
1F
100
AcDbEntity
  8
NOCUT
100
AcDbLine
 10
292.703832
 20
302.407994
 30
0.0
 11
410.2574979999999
 21
302.407994
 31
0.0
  0
LINE
  5
120
330
1F
100
AcDbEntity
  8
NOCUT
100
AcDbLine
 10
410.2574979999999
 20
302.407994
 30
0.0
 11
410.6448419999999
 21
293.60946
 31
0.0
  0
LINE
  5
121
330
1F
100
AcDbEntity
  8
NOCUT
100
AcDbLine
 10
410.6448419999999
 20
293.60946
 30
0.0
 11
410.6448419999999
 21
288.907994
 31
0.0
  0
LINE
  5
122
330
1F
100
AcDbEntity
  8
NOCUT
100
AcDbLine
 10
410.6448419999999
 20
288.907994
 30
0.0
 11
214.404842
 21
288.907994
 31
0.0
  0
LINE
  5
123
330
1F
100
AcDbEntity
  8
NOCUT
100
AcDbLine
 10
274.404842
 20
304.907994
 30
0.0
 11
274.404842
 21
309.407994
 31
0.0
  0
LINE
  5
124
330
1F
100
AcDbEntity
  8
NOCUT
100
AcDbLine
 10
274.404842
 20
309.407994
 30
0.0
 11
274.904842
 21
309.907994
 31
0.0
  0
LINE
  5
125
330
1F
100
AcDbEntity
  8
NOCUT
100
AcDbLine
 10
214.404842
 20
302.907994
 30
0.0
 11
216.404842
 21
304.907994
 31
0.0
  0
ARC
  5
12E
330
1F
100
AcDbEntity
  8
1
100
AcDbCircle
 10
292.703832
 20
261.407994
 30
0.0
 40
14.0
100
AcDbArc
 50
90.0
 51
135.0
  0
ARC
  5
12F
330
1F
100
AcDbEntity
  8
1
100
AcDbCircle
 10
292.703832
 20
316.407994
 30
0.0
 40
14.0
100
AcDbArc
 50
225.0
 51
270.0
  0
ARC
  5
130
330
1F
100
AcDbEntity
  8
1
100
AcDbCircle
 10
406.402831
 20
285.293558
 30
0.0
 40
1.5
100
AcDbArc
 50
75.0
 51
345.0
  0
CIRCLE
  5
131
330
1F
100
AcDbEntity
  8
1
100
AcDbCircle
 10
406.4224789999999
 20
285.273212
 30
0.0
 40
1.099999999999998
  0
ARC
  5
140
330
1F
100
AcDbEntity
  8
NOCUT
100
AcDbCircle
 10
292.703832
 20
316.407994
 30
0.0
 40
14.0
100
AcDbArc
 50
225.0
 51
270.0
  0
ELLIPSE
  5
141
330
1F
100
AcDbEntity
  8
1
100
AcDbEllipse
 10
405.512852
 20
296.610525
 30
0.0
 11
-0.0954739578056771
 21
0.029425729950703
 31
0.0
210
0.0
220
0.0
230
0.9999999999999998
 40
0.9982459999999999
 41
5.253747950173962
 42
6.102683102584333
  0
ELLIPSE
  5
142
330
1F
100
AcDbEntity
  8
1
100
AcDbEllipse
 10
405.335553
 20
296.70264
 30
0.0
 11
-0.0954739578056772
 21
0.029425729950703
 31
0.0
210
0.0
220
0.0
230
1.0
 40
0.9982459999999999
 41
1.588556520985215
 42
2.961090448994374
  0
ELLIPSE
  5
143
330
1F
100
AcDbEntity
  8
1
100
AcDbEllipse
 10
405.4618839999999
 20
297.140026
 30
0.0
 11
-0.5313079055677018
 21
0.1637527479664109
 31
0.0
210
0.0
220
0.0
230
0.9999999999999998
 40
0.9982459999999999
 41
0.6684329478154261
 42
1.58855652098522
  0
ELLIPSE
  5
144
330
1F
100
AcDbEntity
  8
1
100
AcDbEllipse
 10
405.0367399999999
 20
296.975808
 30
0.0
 11
-0.095473957805677
 21
0.029425729950703
 31
0.0
210
0.0
220
0.0
230
1.0
 40
0.9982459999999999
 41
5.579084326985974
 42
6.951618254994688
  0
ELLIPSE
  5
145
330
1F
100
AcDbEntity
  8
1
100
AcDbEllipse
 10
404.929231
 20
297.144057
 30
0.0
 11
-0.0954739578056771
 21
0.029425729950703
 31
0.0
210
0.0
220
0.0
230
1.0
 40
0.9982459999999999
 41
2.437491673395889
 42
3.286426825806893
  0
ELLIPSE
  5
146
330
1F
100
AcDbEntity
  8
1
100
AcDbEllipse
 10
257.888446
 20
288.907994
 30
0.0
 11
54.12077752398924
 21
-10.59929509904919
 31
0.0
210
0.0
220
0.0
230
0.9999999999999998
 40
0.154486
 41
5.441039358118494
 42
5.528980884162005
  0
ELLIPSE
  5
147
330
1F
100
AcDbEntity
  8
1
100
AcDbEllipse
 10
404.498654
 20
288.907994
 30
0.0
 11
23.1496179007157
 21
-13.31868307942053
 31
0.0
210
0.0
220
0.0
230
1.0
 40
0.095256
 41
4.149277969058731
 42
4.383055274022748
  0
ELLIPSE
  5
148
330
1F
100
AcDbEntity
  8
1
100
AcDbEllipse
 10
401.988396
 20
288.907993
 30
0.0
 11
0.5691812765245052
 21
-13.49999542886173
 31
0.0
210
0.0
220
0.0
230
0.9999999999999998
 40
0.01982
 41
3.000260313854783
 42
3.115999311329708
  0
ELLIPSE
  5
149
330
1F
100
AcDbEntity
  8
1
100
AcDbEllipse
 10
402.8000839999999
 20
294.240615
 30
0.0
 11
1.911281369164172
 21
-0.5890700534621704
 31
0.0
210
0.0
220
0.0
230
1.0
 40
0.9982459999999999
 41
5.657731117003458
 42
5.791270273962454
  0
ELLIPSE
  5
14A
330
1F
100
AcDbEntity
  8
1
100
AcDbEllipse
 10
401.856074
 20
288.907994
 30
0.0
 11
0.4869359629790155
 21
-13.49982490947807
 31
0.0
210
0.0
220
0.0
230
0.9999999999999998
 40
0.141202
 41
3.111741861325629
 42
3.239194406788171
  0
ELLIPSE
  5
14B
330
1F
100
AcDbEntity
  8
1
100
AcDbEllipse
 10
405.962244
 20
297.698166
 30
0.0
 11
2.628011882600738
 21
-0.8099713235104845
 31
0.0
210
0.0
220
0.0
230
1.0
 40
0.9982459999999999
 41
0.0
 42
6.283185307179585
  0
ELLIPSE
  5
14C
330
1F
100
AcDbEntity
  8
1
100
AcDbEllipse
 10
406.142575
 20
297.933889
 30
0.0
 11
2.957951010929479
 21
-0.9116608304033752
 31
0.0
210
0.0
220
0.0
230
1.0
 40
0.9982459999999999
 41
2.062922183040395
 42
6.283185307179585
  0
ELLIPSE
  5
14D
330
1F
100
AcDbEntity
  8
1
100
AcDbEllipse
 10
406.142575
 20
297.933889
 30
0.0
 11
2.957951010929479
 21
-0.9116608304033752
 31
0.0
210
0.0
220
0.0
230
1.0
 40
0.9982459999999999
 41
0.0
 42
1.07872011765702
  0
ELLIPSE
  5
14E
330
1F
100
AcDbEntity
  8
1
100
AcDbEllipse
 10
402.262519
 20
293.620387
 30
0.0
 11
0.9542290187380583
 21
1.042393246259752
 31
0.0
210
0.0
220
0.0
230
1.0
 40
0.017942
 41
0.9781180679378039
 42
1.532929101063654
  0
ELLIPSE
  5
14F
330
1F
100
AcDbEntity
  8
1
100
AcDbEllipse
 10
406.1227859999999
 20
297.86968
 30
0.0
 11
3.014795222820601
 21
-0.9291806071761492
 31
0.0
210
0.0
220
0.0
230
0.9999999999999998
 40
0.9982459999999999
 41
0.0
 42
6.283185307179585
  0
ELLIPSE
  5
150
330
1F
100
AcDbEntity
  8
1
100
AcDbEllipse
 10
410.306845
 20
293.971116
 30
0.0
 11
1.042972539680257
 21
-0.9547593163006022
 31
0.0
210
0.0
220
0.0
230
1.0
 40
0.037843
 41
1.588716764261013
 42
2.143527797118917
  0
ELLIPSE
  5
151
330
1F
100
AcDbEntity
  8
1
100
AcDbEllipse
 10
401.903332
 20
301.653402
 30
0.0
 11
1.042972539668145
 21
-0.9547593162686242
 31
0.0
210
0.0
220
0.0
230
0.9999999999999998
 40
0.037843
 41
1.03390573110678
 42
1.58871676396345
  0
ELLIPSE
  5
152
330
1F
100
AcDbEntity
  8
1
100
AcDbEllipse
 10
409.947658
 20
302.004131
 30
0.0
 11
0.9542290194022545
 21
1.042393246988282
 31
0.0
210
0.0
220
0.0
230
1.0
 40
0.017942
 41
1.53292910100501
 42
2.087740133770098
  0
ELLIPSE
  5
153
330
1F
100
AcDbEntity
  8
1
100
AcDbEllipse
 10
406.119909
 20
297.860346
 30
0.0
 11
-3.105832224891788
 21
0.9572388368760218
 31
0.0
210
0.0
220
0.0
230
1.0
 40
0.9982459999999999
 41
0.0
 42
6.283185307179585
  0
ELLIPSE
  5
154
330
1F
100
AcDbEntity
  8
1
100
AcDbEllipse
 10
411.15032
 20
288.907994
 30
0.0
 11
1.461223387177214
 21
13.49847322036547
 31
0.0
210
0.0
220
0.0
230
1.0
 40
0.138944
 41
1.946374157579375
 42
3.156632395651031
  0
ELLIPSE
  5
155
330
1F
100
AcDbEntity
  8
1
100
AcDbEllipse
 10
410.6448419999999
 20
288.907994
 30
0.0
 11
0.0
 21
13.49999999939979
 31
0.0
210
0.0
220
0.0
230
1.0
 40
0.140541
 41
1.514026731692998
 42
1.931334415533593
  0
ELLIPSE
  5
156
330
1F
100
AcDbEntity
  8
1
100
AcDbEllipse
 10
402.8727909999999
 20
294.47652
 30
0.0
 11
-1.911281369164174
 21
0.5890700534621664
 31
0.0
210
0.0
220
0.0
230
1.0
 40
0.9982459999999999
 41
0.0618257924284806
 42
1.913892621525575
  0
ELLIPSE
  5
157
330
1F
100
AcDbEntity
  8
1
100
AcDbEllipse
 10
402.8727909999999
 20
294.47652
 30
0.0
 11
-1.911281369164174
 21
0.5890700534621664
 31
0.0
210
0.0
220
0.0
230
1.0
 40
0.9982459999999999
 41
1.913893121624749
 42
2.629194719155937
  0
ELLIPSE
  5
158
330
1F
100
AcDbEntity
  8
1
100
AcDbEllipse
 10
402.8053139999999
 20
294.257586
 30
0.0
 11
-1.911281369164174
 21
0.5890700534621664
 31
0.0
210
0.0
220
0.0
230
1.0
 40
0.9982459999999999
 41
5.754285902275963
 42
5.897168805749941
  0
ELLIPSE
  5
159
330
1F
100
AcDbEntity
  8
1
100
AcDbEllipse
 10
402.8000839999999
 20
294.240615
 30
0.0
 11
1.911281369164172
 21
-0.5890700534621704
 31
0.0
210
0.0
220
0.0
230
1.0
 40
0.9982459999999999
 41
2.755576152160156
 42
4.430273445429925
  0
ELLIPSE
  5
15A
330
1F
100
AcDbEntity
  8
1
100
AcDbEllipse
 10
401.5546319999999
 20
288.90806
 30
0.0
 11
0.5691783067418016
 21
-13.49992853748533
 31
0.0
210
0.0
220
0.0
230
0.9999999999999996
 40
0.01982
 41
3.243161876861701
 42
3.265418235300853
  0
ELLIPSE
  5
15B
330
1F
100
AcDbEntity
  8
1
100
AcDbEllipse
 10
348.308454
 20
288.905924
 30
0.0
 11
774.2092727047078
 21
-0.7639891017913277
 31
0.0
210
0.0
220
0.0
230
0.9999999999999998
 40
0.017412
 41
1.502758300778058
 42
1.505789451070635
  0
ELLIPSE
  5
15C
330
1F
100
AcDbEntity
  8
1
100
AcDbEllipse
 10
401.9634869999999
 20
304.649662
 30
0.0
 11
-12.04107262573429
 21
3.711141336811647
 31
0.0
210
0.0
220
0.0
230
1.0
 40
0.9982459999999997
 41
1.347035053137824
 42
1.913323403734243
  0
ELLIPSE
  5
15D
330
1F
100
AcDbEntity
  8
1
100
AcDbEllipse
 10
329.161163
 20
288.907993
 30
0.0
 11
287.6316905167956
 21
13.16536715050497
 31
0.0
210
0.0
220
0.0
230
0.9999999999999998
 40
0.010385
 41
4.970155895360547
 42
4.992278227584485
  0
ELLIPSE
  5
15E
330
1F
100
AcDbEntity
  8
1
100
AcDbEllipse
 10
409.9206319999999
 20
281.003275
 30
0.0
 11
0.0538770024348403
 21
0.4991611425064743
 31
0.0
210
0.0
220
0.0
230
1.0
 40
0.139171
 41
1.58356817924279
 42
3.154364506042896
  0
ELLIPSE
  5
15F
330
1F
100
AcDbEntity
  8
1
100
AcDbEllipse
 10
410.2541379999999
 20
288.930075
 30
0.0
 11
0.0001758288816844
 21
-0.5000776676616129
 31
0.0
210
0.0
220
0.0
230
0.9999999999999998
 40
0.140519
 41
3.139090475969147
 42
4.709886802772846
  0
ELLIPSE
  5
160
330
1F
100
AcDbEntity
  8
1
100
AcDbEllipse
 10
315.758363
 20
288.907994
 30
0.0
 11
54.12077748036047
 21
-10.59929508618893
 31
0.0
210
0.0
220
0.0
230
1.0
 40
0.154486
 41
4.302802370681075
 42
4.439560524269216
  0
ELLIPSE
  5
161
330
1F
100
AcDbEntity
  8
1
100
AcDbEllipse
 10
402.8053139999999
 20
294.257586
 30
0.0
 11
-1.911281369164174
 21
0.5890700534621664
 31
0.0
210
0.0
220
0.0
230
1.0
 40
0.9982459999999999
 41
2.649677620372698
 42
2.781190600162641
  0
ELLIPSE
  5
162
330
1F
100
AcDbEntity
  8
1
100
AcDbEllipse
 10
410.3903049999999
 20
292.896509
 30
0.0
 11
0.0003744272830351
 21
0.5004816776336451
 31
0.0
210
0.0
220
0.0
230
1.0
 40
0.140039
 41
3.203590848632646
 42
4.774387175433756
  0
ELLIPSE
  5
163
330
1F
100
AcDbEntity
  8
1
100
AcDbEllipse
 10
405.982689
 20
297.764502
 30
0.0
 11
-2.628011882600739
 21
0.8099713235104786
 31
0.0
210
0.0
220
0.0
230
0.9999999999999998
 40
0.9982459999999999
 41
3.141666558290522
 42
6.283160900740871
  0
ELLIPSE
  5
164
330
1F
100
AcDbEntity
  8
1
100
AcDbEllipse
 10
404.4786069999999
 20
297.214185
 30
0.0
 11
-0.5313079055677016
 21
0.1637527479664108
 31
0.0
210
0.0
220
0.0
230
0.9999999999999998
 40
0.9982459999999999
 41
3.286426825806901
 42
4.206550398976746
  0
ELLIPSE
  5
165
330
1F
100
AcDbEntity
  8
1
100
AcDbEllipse
 10
404.807085
 20
297.529683
 30
0.0
 11
-0.0954739578056771
 21
0.029425729950703
 31
0.0
210
0.0
220
0.0
230
0.9999999999999998
 40
0.9982459999999999
 41
4.206550398976876
 42
5.05548555138754
  0
ELLIPSE
  5
166
330
1F
100
AcDbEntity
  8
1
100
AcDbEllipse
 10
404.7981739999999
 20
297.728985
 30
0.0
 11
-0.0954739578056772
 21
0.029425729950703
 31
0.0
210
0.0
220
0.0
230
1.0
 40
0.9982459999999999
 41
0.5413589697886403
 42
1.91389289779759
  0
ELLIPSE
  5
167
330
1F
100
AcDbEntity
  8
1
100
AcDbEllipse
 10
405.2407849999999
 20
297.838057
 30
0.0
 11
-0.5313079055677018
 21
0.1637527479664109
 31
0.0
210
0.0
220
0.0
230
0.9999999999999998
 40
0.9982459999999999
 41
5.904420703798412
 42
6.824544276968262
  0
ELLIPSE
  5
168
330
1F
100
AcDbEntity
  8
1
100
AcDbEllipse
 10
404.8854259999999
 20
298.12374
 30
0.0
 11
-0.095473957805677
 21
0.029425729950703
 31
0.0
210
0.0
220
0.0
230
1.0
 40
0.9982459999999999
 41
4.531886775789215
 42
5.904420703798492
  0
ELLIPSE
  5
169
330
1F
100
AcDbEntity
  8
1
100
AcDbEllipse
 10
404.977499
 20
298.300691
 30
0.0
 11
-0.0954739578056771
 21
0.029425729950703
 31
0.0
210
0.0
220
0.0
230
1.0
 40
0.9982459999999999
 41
1.390294122199182
 42
2.239229274610048
  0
ELLIPSE
  5
16A
330
1F
100
AcDbEntity
  8
1
100
AcDbEllipse
 10
404.812622
 20
298.725381
 30
0.0
 11
-0.5313079055677016
 21
0.1637527479664108
 31
0.0
210
0.0
220
0.0
230
0.9999999999999998
 40
0.9982459999999999
 41
2.239229274610203
 42
3.159352847780166
  0
ELLIPSE
  5
16B
330
1F
100
AcDbEntity
  8
1
100
AcDbEllipse
 10
405.2507689999999
 20
298.598802
 30
0.0
 11
-0.0954739578056771
 21
0.029425729950703
 31
0.0
210
0.0
220
0.0
230
0.9999999999999998
 40
0.9982459999999999
 41
3.159352847780086
 42
4.008288000191211
  0
ELLIPSE
  5
16C
330
1F
100
AcDbEntity
  8
1
100
AcDbEllipse
 10
405.4191559999999
 20
298.705989
 30
0.0
 11
-0.0954739578056772
 21
0.029425729950703
 31
0.0
210
0.0
220
0.0
230
1.0
 40
0.9982459999999999
 41
5.777346725771673
 42
7.149880653780707
  0
ELLIPSE
  5
16D
330
1F
100
AcDbEntity
  8
1
100
AcDbEllipse
 10
405.7354369999999
 20
298.377675
 30
0.0
 11
-0.5313079055677018
 21
0.1637527479664109
 31
0.0
210
0.0
220
0.0
230
0.9999999999999998
 40
0.9982459999999999
 41
4.857223152601896
 42
5.777346725771692
  0
ELLIPSE
  5
16E
330
1F
100
AcDbEntity
  8
1
100
AcDbEllipse
 10
405.805221
 20
298.827576
 30
0.0
 11
-0.095473957805677
 21
0.029425729950703
 31
0.0
210
0.0
220
0.0
230
1.0
 40
0.9982459999999999
 41
3.484689224592926
 42
4.857223152602199
  0
ELLIPSE
  5
16F
330
1F
100
AcDbEntity
  8
1
100
AcDbEllipse
 10
406.0048039999999
 20
298.836278
 30
0.0
 11
-0.0954739578056771
 21
0.029425729950703
 31
0.0
210
0.0
220
0.0
230
1.0
 40
0.9982459999999999
 41
0.3430965710029034
 42
1.192031723413866
  0
ELLIPSE
  5
170
330
1F
100
AcDbEntity
  8
1
100
AcDbEllipse
 10
406.29055
 20
299.19084
 30
0.0
 11
-0.5313079055677016
 21
0.1637527479664108
 31
0.0
210
0.0
220
0.0
230
0.9999999999999998
 40
0.9982459999999999
 41
1.192031723413651
 42
2.112155296583534
  0
ELLIPSE
  5
171
330
1F
100
AcDbEntity
  8
1
100
AcDbEllipse
 10
406.400219
 20
298.748763
 30
0.0
 11
-0.0954739578056771
 21
0.029425729950703
 31
0.0
210
0.0
220
0.0
230
0.9999999999999998
 40
0.9982459999999999
 41
2.112155296583523
 42
2.961090448994228
  0
ELLIPSE
  5
172
330
1F
100
AcDbEntity
  8
1
100
AcDbEllipse
 10
406.577518
 20
298.656648
 30
0.0
 11
-0.0954739578056772
 21
0.029425729950703
 31
0.0
210
0.0
220
0.0
230
1.0
 40
0.9982459999999999
 41
4.730149174574866
 42
6.102683102584212
  0
ELLIPSE
  5
173
330
1F
100
AcDbEntity
  8
1
100
AcDbEllipse
 10
406.451187
 20
298.219261
 30
0.0
 11
-0.5313079055677018
 21
0.1637527479664109
 31
0.0
210
0.0
220
0.0
230
0.9999999999999998
 40
0.9982459999999999
 41
3.810025601405189
 42
4.730149174575014
  0
ELLIPSE
  5
174
330
1F
100
AcDbEntity
  8
1
100
AcDbEllipse
 10
406.8763309999999
 20
298.38348
 30
0.0
 11
-0.095473957805677
 21
0.029425729950703
 31
0.0
210
0.0
220
0.0
230
1.0
 40
0.9982459999999999
 41
2.437491673395943
 42
3.810025601405303
  0
ELLIPSE
  5
175
330
1F
100
AcDbEntity
  8
1
100
AcDbEllipse
 10
406.98384
 20
298.21523
 30
0.0
 11
-0.0954739578056771
 21
0.029425729950703
 31
0.0
210
0.0
220
0.0
230
1.0
 40
0.9982459999999999
 41
5.57908432698579
 42
6.428019479396829
  0
ELLIPSE
  5
176
330
1F
100
AcDbEntity
  8
1
100
AcDbEllipse
 10
407.4344639999999
 20
298.145102
 30
0.0
 11
-0.5313079055677016
 21
0.1637527479664108
 31
0.0
210
0.0
220
0.0
230
0.9999999999999998
 40
0.9982459999999999
 41
0.1448341722171095
 42
1.06495774538692
  0
ELLIPSE
  5
177
330
1F
100
AcDbEntity
  8
1
100
AcDbEllipse
 10
407.105985
 20
297.829604
 30
0.0
 11
-0.0954739578056771
 21
0.029425729950703
 31
0.0
210
0.0
220
0.0
230
0.9999999999999998
 40
0.9982459999999999
 41
1.064957745386938
 42
1.913892897797772
  0
ELLIPSE
  5
178
330
1F
100
AcDbEntity
  8
1
100
AcDbEllipse
 10
407.114897
 20
297.630303
 30
0.0
 11
-0.0954739578056772
 21
0.029425729950703
 31
0.0
210
0.0
220
0.0
230
1.0
 40
0.9982459999999999
 41
3.682951623378457
 42
5.055485551387431
  0
ELLIPSE
  5
179
330
1F
100
AcDbEntity
  8
1
100
AcDbEllipse
 10
406.6722859999999
 20
297.52123
 30
0.0
 11
-0.5313079055677018
 21
0.1637527479664109
 31
0.0
210
0.0
220
0.0
230
0.9999999999999998
 40
0.9982459999999999
 41
2.762828050208638
 42
3.682951623378481
  0
ELLIPSE
  5
17A
330
1F
100
AcDbEntity
  8
1
100
AcDbEllipse
 10
407.0276449999999
 20
297.235547
 30
0.0
 11
-0.095473957805677
 21
0.029425729950703
 31
0.0
210
0.0
220
0.0
230
1.0
 40
0.9982459999999999
 41
1.390294122199615
 42
2.762828050208752
  0
ELLIPSE
  5
17B
330
1F
100
AcDbEntity
  8
1
100
AcDbEllipse
 10
406.935572
 20
297.058596
 30
0.0
 11
-0.0954739578056771
 21
0.029425729950703
 31
0.0
210
0.0
220
0.0
230
1.0
 40
0.9982459999999999
 41
4.531886775788847
 42
5.380821928199774
  0
ELLIPSE
  5
17C
330
1F
100
AcDbEntity
  8
1
100
AcDbEllipse
 10
407.1004489999999
 20
296.633906
 30
0.0
 11
-0.5313079055677016
 21
0.1637527479664108
 31
0.0
210
0.0
220
0.0
230
0.9999999999999998
 40
0.9982459999999999
 41
5.380821928200112
 42
6.300945501369946
  0
ELLIPSE
  5
17D
330
1F
100
AcDbEntity
  8
1
100
AcDbEllipse
 10
406.6623019999999
 20
296.760485
 30
0.0
 11
-0.0954739578056771
 21
0.029425729950703
 31
0.0
210
0.0
220
0.0
230
0.9999999999999998
 40
0.9982459999999999
 41
0.0177601941904308
 42
0.8666953466012929
  0
ELLIPSE
  5
17E
330
1F
100
AcDbEntity
  8
1
100
AcDbEllipse
 10
406.4939149999999
 20
296.653299
 30
0.0
 11
-0.0954739578056772
 21
0.029425729950703
 31
0.0
210
0.0
220
0.0
230
1.0
 40
0.9982459999999999
 41
2.635754072182062
 42
4.008288000191223
  0
ELLIPSE
  5
17F
330
1F
100
AcDbEntity
  8
1
100
AcDbEllipse
 10
406.1776339999999
 20
296.981613
 30
0.0
 11
-0.5313079055677018
 21
0.1637527479664109
 31
0.0
210
0.0
220
0.0
230
0.9999999999999998
 40
0.9982459999999999
 41
1.715630499012021
 42
2.635754072181875
  0
ELLIPSE
  5
180
330
1F
100
AcDbEntity
  8
1
100
AcDbEllipse
 10
406.1078499999999
 20
296.531711
 30
0.0
 11
-0.095473957805677
 21
0.029425729950703
 31
0.0
210
0.0
220
0.0
230
1.0
 40
0.9982459999999999
 41
0.3430965710030662
 42
1.715630499012123
  0
ELLIPSE
  5
181
330
1F
100
AcDbEntity
  8
1
100
AcDbEllipse
 10
405.9082669999999
 20
296.52301
 30
0.0
 11
-0.0954739578056771
 21
0.029425729950703
 31
0.0
210
0.0
220
0.0
230
1.0
 40
0.9982459999999999
 41
3.484689224592762
 42
4.333624377003446
  0
ELLIPSE
  5
182
330
1F
100
AcDbEntity
  8
1
100
AcDbEllipse
 10
405.62252
 20
296.168447
 30
0.0
 11
-0.5313079055677016
 21
0.1637527479664108
 31
0.0
210
0.0
220
0.0
230
0.9999999999999998
 40
0.9982459999999999
 41
4.333624377003464
 42
5.25374795017334
  0
ELLIPSE
  5
183
330
1F
100
AcDbEntity
  8
1
100
AcDbEllipse
 10
405.956535
 20
297.679644
 30
0.0
 11
1.720153232247756
 21
-0.5301630481159538
 31
0.0
210
0.0
220
0.0
230
1.0
 40
0.9982459999999999
 41
0.0
 42
6.283185307179585
  0
SPLINE
  5
18A
330
1F
100
AcDbEntity
  8
1
100
AcDbSpline
210
0.0
220
0.0
230
1.0
 70
     8
 71
     3
 72
     8
 73
     4
 74
     0
 42
0.000000001
 43
0.0000000001
 40
0.0
 40
0.0
 40
0.0
 40
0.0
 40
1.0
 40
1.0
 40
1.0
 40
1.0
 10
405.0536767046313
 20
297.2121841633083
 30
0.0
 10
405.0529155625644
 20
297.2073397884758
 30
0.0
 10
405.0518032560075
 20
297.2025649552467
 30
0.0
 10
405.0503767280978
 20
297.1979305872835
 30
0.0
  0
SPLINE
  5
18B
330
1F
100
AcDbEntity
  8
1
100
AcDbSpline
210
0.0
220
0.0
230
1.0
 70
     8
 71
     3
 72
    21
 73
    17
 74
     0
 42
0.000000001
 43
0.0000000001
 40
0.0
 40
0.0
 40
0.0
 40
0.0
 40
0.2500000000000918
 40
0.2500000000000918
 40
0.3125000000001148
 40
0.3125000000001148
 40
0.3750000000001378
 40
0.3750000000001378
 40
0.5000000000001178
 40
0.6250000000000979
 40
0.6250000000000979
 40
0.6875000000000831
 40
0.6875000000000831
 40
0.7500000000000681
 40
0.7500000000000681
 40
1.0
 40
1.0
 40
1.0
 40
1.0
 10
404.9047740371761
 20
297.6822854511116
 30
0.0
 10
404.9342873049146
 20
297.6523817278907
 30
0.0
 10
404.9600403052221
 20
297.6193794692642
 30
0.0
 10
404.9874690282833
 20
297.5740779989322
 30
0.0
 10
404.9927134778916
 20
297.5648127196753
 30
0.0
 10
405.0027047694206
 20
297.5458570304696
 30
0.0
 10
405.0074604938786
 20
297.5361417162591
 30
0.0
 10
405.0207583977409
 20
297.5067807750132
 30
0.0
 10
405.0360548991823
 20
297.4668142153344
 30
0.0
 10
405.0465923508834
 20
297.4252447620046
 30
0.0
 10
405.0526796198425
 20
297.3934569568029
 30
0.0
 10
405.0544099454453
 20
297.3827201422131
 30
0.0
 10
405.0572243557629
 20
297.3612419365282
 30
0.0
 10
405.0583085103609
 20
297.3505217031317
 30
0.0
 10
405.0621675788317
 20
297.2970092892388
 30
0.0
 10
405.0603222665333
 20
297.2544805941932
 30
0.0
 10
405.0536767046313
 20
297.2121841633083
 30
0.0
  0
SPLINE
  5
18C
330
1F
100
AcDbEntity
  8
1
100
AcDbSpline
210
0.0
220
0.0
230
1.0
 70
     8
 71
     3
 72
    14
 73
    10
 74
     0
 42
0.000000001
 43
0.0000000001
 40
0.0
 40
0.0
 40
0.0
 40
0.0
 40
0.25
 40
0.25
 40
0.5
 40
0.5
 40
0.75
 40
0.75
 40
1.0
 40
1.0
 40
1.0
 40
1.0
 10
404.8278891411976
 20
297.7112899898868
 30
0.0
 10
404.8349538089139
 20
297.7117407742237
 30
0.0
 10
404.842045110213
 20
297.7114481394665
 30
0.0
 10
404.8559521518686
 20
297.7094022873432
 30
0.0
 10
404.8627199861672
 20
297.7076678112304
 30
0.0
 10
404.875882721445
 20
297.7027586282638
 30
0.0
 10
404.8822976799206
 20
297.6995503624118
 30
0.0
 10
404.8941611133821
 20
297.6919004982901
 30
0.0
 10
404.8996871834943
 20
297.6874396029973
 30
0.0
 10
404.9047740371761
 20
297.6822854511116
 30
0.0
  0
SPLINE
  5
18D
330
1F
100
AcDbEntity
  8
1
100
AcDbSpline
210
0.0
220
0.0
230
1.0
 70
     8
 71
     3
 72
    22
 73
    18
 74
     0
 42
0.000000001
 43
0.0000000001
 40
0.0
 40
0.0
 40
0.0
 40
0.0
 40
0.125
 40
0.125
 40
0.25
 40
0.25
 40
0.375
 40
0.375
 40
0.5
 40
0.5
 40
0.625
 40
0.625
 40
0.75
 40
0.75
 40
0.875
 40
0.875
 40
1.0
 40
1.0
 40
1.0
 40
1.0
 10
404.8278891411976
 20
297.7112899898868
 30
0.0
 10
404.8222417606446
 20
297.7109296402145
 30
0.0
 10
404.8165927136913
 20
297.7110453999508
 30
0.0
 10
404.8054879559749
 20
297.7121962566549
 30
0.0
 10
404.8000047981668
 20
297.713228687116
 30
0.0
 10
404.7891819606535
 20
297.7162337679305
 30
0.0
 10
404.7838471266104
 20
297.7182163683047
 30
0.0
 10
404.7736958711858
 20
297.7230144436695
 30
0.0
 10
404.7688308533709
 20
297.7258406253945
 30
0.0
 10
404.7595423242336
 20
297.7323840837081
 30
0.0
 10
404.7551436405822
 20
297.7360968400839
 30
0.0
 10
404.7471238446989
 20
297.7441768639022
 30
0.0
 10
404.743460264057
 20
297.7485714496634
 30
0.0
 10
404.7368674371967
 20
297.7581098711693
 30
0.0
 10
404.7339943820976
 20
297.7631854957362
 30
0.0
 10
404.7292117239198
 20
297.773731691346
 30
0.0
 10
404.727279660697
 20
297.7792332420793
 30
0.0
 10
404.725836916964
 20
297.7849776957638
 30
0.0
  0
SPLINE
  5
18E
330
1F
100
AcDbEntity
  8
1
100
AcDbSpline
210
0.0
220
0.0
230
1.0
 70
     8
 71
     3
 72
    21
 73
    17
 74
     0
 42
0.000000001
 43
0.0000000001
 40
0.0
 40
0.0
 40
0.0
 40
0.0
 40
0.2500000000000304
 40
0.2500000000000304
 40
0.312500000000014
 40
0.312500000000014
 40
0.3749999999999976
 40
0.3749999999999976
 40
0.5000000000000667
 40
0.6250000000001359
 40
0.6250000000001359
 40
0.6875000000001133
 40
0.6875000000001133
 40
0.7500000000000906
 40
0.7500000000000906
 40
1.0
 40
1.0
 40
1.0
 40
1.0
 10
406.5920536528661
 20
296.8717030361141
 30
0.0
 10
406.6039445850355
 20
296.9128351695243
 30
0.0
 10
406.6202580713444
 20
296.9521250960579
 30
0.0
 10
406.6463205166242
 20
296.998930405733
 30
0.0
 10
406.6518202295476
 20
297.0081745480726
 30
0.0
 10
406.6634133199026
 20
297.0264222215222
 30
0.0
 10
406.6695238485764
 20
297.0354458418208
 30
0.0
 10
406.6884865205434
 20
297.0617479520547
 30
0.0
 10
406.7155930817942
 20
297.0950229402333
 30
0.0
 10
406.7462625365468
 20
297.1247869717716
 30
0.0
 10
406.7706246384383
 20
297.1457712483265
 30
0.0
 10
406.7790036927362
 20
297.152565471622
 30
0.0
 10
406.7960643220204
 20
297.1655741017857
 30
0.0
 10
406.8047278973838
 20
297.1717783504632
 30
0.0
 10
406.8486938501574
 20
297.2013518146022
 30
0.0
 10
406.885912099409
 20
297.2204367991944
 30
0.0
 10
406.9251858039338
 20
297.2351180149824
 30
0.0
  0
SPLINE
  5
18F
330
1F
100
AcDbEntity
  8
1
100
AcDbSpline
210
0.0
220
0.0
230
1.0
 70
     8
 71
     3
 72
    14
 73
    10
 74
     0
 42
0.000000001
 43
0.0000000001
 40
0.0
 40
0.0
 40
0.0
 40
0.0
 40
0.25
 40
0.25
 40
0.5
 40
0.5
 40
0.75
 40
0.75
 40
1.0
 40
1.0
 40
1.0
 40
1.0
 10
406.9251858039338
 20
297.2351180149824
 30
0.0
 10
406.9319594110188
 20
297.2376501109097
 30
0.0
 10
406.9389775356128
 20
297.2393986537643
 30
0.0
 10
406.9529706102649
 20
297.241318178473
 30
0.0
 10
406.9599622668794
 20
297.2415102600863
 30
0.0
 10
406.9739403527436
 20
297.2404072981527
 30
0.0
 10
406.9809162414929
 20
297.2390907171426
 30
0.0
 10
406.9942407582928
 20
297.2350953920241
 30
0.0
 10
407.0006729219461
 20
297.2324143258308
 30
0.0
 10
407.0068680511466
 20
297.2290276963422
 30
0.0
  0
SPLINE
  5
190
330
1F
100
AcDbEntity
  8
1
100
AcDbSpline
210
0.0
220
0.0
230
1.0
 70
     8
 71
     3
 72
    20
 73
    16
 74
     0
 42
0.000000001
 43
0.0000000001
 40
0.0
 40
0.0
 40
0.0
 40
0.0
 40
0.1249999999999993
 40
0.1249999999999993
 40
0.2499999999999988
 40
0.2499999999999988
 40
0.3749999999999981
 40
0.3749999999999981
 40
0.4999999999999973
 40
0.4999999999999973
 40
0.6249999999999967
 40
0.6249999999999967
 40
0.749999999999996
 40
0.749999999999996
 40
1.0
 40
1.0
 40
1.0
 40
1.0
 10
407.130112125857
 20
297.2528517209511
 30
0.0
 10
407.1263838198277
 20
297.2482452050629
 30
0.0
 10
407.1223101886863
 20
297.2440603732776
 30
0.0
 10
407.1135103796361
 20
297.2364889084172
 30
0.0
 10
407.1087324221403
 20
297.2330751639914
 30
0.0
 10
407.0987830741159
 20
297.2272319769416
 30
0.0
 10
407.0936313041767
 20
297.2247990337111
 30
0.0
 10
407.0829928667033
 20
297.2208623321041
 30
0.0
 10
407.0774545901446
 20
297.2193509928967
 30
0.0
 10
407.0662920227998
 20
297.2173346288659
 30
0.0
 10
407.0607090270066
 20
297.2168262450728
 30
0.0
 10
407.0495416770016
 20
297.2167572051144
 30
0.0
 10
407.0439295453073
 20
297.2172016174385
 30
0.0
 10
407.0272759469258
 20
297.2199710890235
 30
0.0
 10
407.0167738833601
 20
297.2236125738488
 30
0.0
 10
407.0068680511466
 20
297.2290276963422
 30
0.0
  0
SPLINE
  5
191
330
1F
100
AcDbEntity
  8
1
100
AcDbSpline
210
0.0
220
0.0
230
1.0
 70
     8
 71
     3
 72
    14
 73
    10
 74
     0
 42
0.000000001
 43
0.0000000001
 40
0.0
 40
0.0
 40
0.0
 40
0.0
 40
0.5417127619000633
 40
0.5417127619000633
 40
0.6771409523750748
 40
0.6771409523750748
 40
0.8125691428500864
 40
0.8125691428500864
 40
1.0
 40
1.0
 40
1.0
 40
1.0
 10
404.725836916964
 20
297.7849776957638
 30
0.0
 10
404.7154589401806
 20
297.8262988296604
 30
0.0
 10
404.709982212034
 20
297.8683024567968
 30
0.0
 10
404.7092626054292
 20
297.921650986576
 30
0.0
 10
404.7094312959611
 20
297.9323860374523
 30
0.0
 10
404.7103878466623
 20
297.9537007491891
 30
0.0
 10
404.7111740565535
 20
297.9643058514213
 30
0.0
 10
404.7137691470791
 20
297.9894659073155
 30
0.0
 10
404.7158533982337
 20
298.003974105089
 30
0.0
 10
404.7185126640778
 20
298.0183846478889
 30
0.0
  0
SPLINE
  5
192
330
1F
100
AcDbEntity
  8
1
100
AcDbSpline
210
0.0
220
0.0
230
1.0
 70
     8
 71
     3
 72
    10
 73
     6
 74
     0
 42
0.000000001
 43
0.0000000001
 40
0.0
 40
0.0
 40
0.0
 40
0.0
 40
0.1135761307310402
 40
0.1135761307310402
 40
1.0
 40
1.0
 40
1.0
 40
1.0
 10
407.2046383277313
 20
297.3744580141284
 30
0.0
 10
407.2024238551971
 20
297.369493164872
 30
0.0
 10
407.2001396559147
 20
297.364569745262
 30
0.0
 10
407.1794198808876
 20
297.3215821155277
 30
0.0
 10
407.1568974185994
 20
297.2859463423741
 30
0.0
 10
407.130112125857
 20
297.252851720951
 30
0.0
  0
SPLINE
  5
193
330
1F
100
AcDbEntity
  8
1
100
AcDbSpline
210
0.0
220
0.0
230
1.0
 70
     8
 71
     3
 72
    14
 73
    10
 74
     0
 42
0.000000001
 43
0.0000000001
 40
0.0
 40
0.0
 40
0.0
 40
0.0
 40
0.25
 40
0.25
 40
0.5
 40
0.5
 40
0.75
 40
0.75
 40
1.0
 40
1.0
 40
1.0
 40
1.0
 10
405.3602217577092
 20
298.7343514080831
 30
0.0
 10
405.3640480483748
 20
298.7285778505903
 30
0.0
 10
405.3672427095678
 20
298.7224105176803
 30
0.0
 10
405.3722326232746
 20
298.7095790822343
 30
0.0
 10
405.3740205927054
 20
298.7029654478825
 30
0.0
 10
405.3761675165115
 20
298.6893347657132
 30
0.0
 10
405.3765071960109
 20
298.6822834868466
 30
0.0
 10
405.3756487047763
 20
298.6683841000903
 30
0.0
 10
405.3744715650376
 20
298.6614605701795
 30
0.0
 10
405.3724810900261
 20
298.6545626355378
 30
0.0
  0
SPLINE
  5
194
330
1F
100
AcDbEntity
  8
1
100
AcDbSpline
210
0.0
220
0.0
230
1.0
 70
     8
 71
     3
 72
    12
 73
     8
 74
     0
 42
0.000000001
 43
0.0000000001
 40
0.0
 40
0.0
 40
0.0
 40
0.0
 40
0.3933323418454542
 40
0.3933323418454542
 40
0.7866646836909084
 40
0.7866646836909084
 40
1.0
 40
1.0
 40
1.0
 40
1.0
 10
405.3602217577085
 20
298.7343514080843
 30
0.0
 10
405.3571631914368
 20
298.7389665326945
 30
0.0
 10
405.3545166919428
 20
298.7438205877347
 30
0.0
 10
405.3501140787905
 20
298.7538245791474
 30
0.0
 10
405.3483424144172
 20
298.7589963660675
 30
0.0
 10
405.3462921552708
 20
298.7672418593433
 30
0.0
 10
405.3457045896705
 20
298.7701926622365
 30
0.0
 10
405.3452557873455
 20
298.7731650207132
 30
0.0
  0
SPLINE
  5
195
330
1F
100
AcDbEntity
  8
1
100
AcDbSpline
210
0.0
220
0.0
230
1.0
 70
     8
 71
     3
 72
    14
 73
    10
 74
     0
 42
0.000000001
 43
0.0000000001
 40
0.0
 40
0.0
 40
0.0
 40
0.0
 40
0.1006964116157294
 40
0.1006964116157294
 40
0.4004642744104864
 40
0.4004642744104864
 40
0.7002321372052432
 40
0.7002321372052432
 40
1.0
 40
1.0
 40
1.0
 40
1.0
 10
406.9140307811315
 20
298.3279222655677
 30
0.0
 10
406.9147294296666
 20
298.3301920477552
 30
0.0
 10
406.9155078089548
 20
298.3324237170375
 30
0.0
 10
406.9189019421713
 20
298.3411124606432
 30
0.0
 10
406.9220978861876
 20
298.347225863202
 30
0.0
 10
406.9297619723709
 20
298.3586999058427
 30
0.0
 10
406.9342435149135
 20
298.3640406418262
 30
0.0
 10
406.9440732209967
 20
298.373497046547
 30
0.0
 10
406.9494635222305
 20
298.3776834337627
 30
0.0
 10
406.9553450284131
 20
298.3813109066337
 30
0.0
  0
SPLINE
  5
196
330
1F
100
AcDbEntity
  8
1
100
AcDbSpline
210
0.0
220
0.0
230
1.0
 70
     8
 71
     3
 72
     8
 73
     4
 74
     0
 42
0.000000001
 43
0.0000000001
 40
0.0
 40
0.0
 40
0.0
 40
0.0
 40
1.0
 40
1.0
 40
1.0
 40
1.0
 10
406.9741719140585
 20
298.3964853261273
 30
0.0
 10
406.9685755980373
 20
298.3906552364149
 30
0.0
 10
406.9622976748227
 20
298.385599015062
 30
0.0
 10
406.9553450284131
 20
298.3813109066337
 30
0.0
  0
SPLINE
  5
197
330
1F
100
AcDbEntity
  8
1
100
AcDbSpline
210
0.0
220
0.0
230
1.0
 70
     8
 71
     3
 72
     8
 73
     4
 74
     0
 42
0.000000001
 43
0.0000000001
 40
0.0
 40
0.0
 40
0.0
 40
0.0
 40
1.0
 40
1.0
 40
1.0
 40
1.0
 10
299.587061833987
 20
283.6688572865502
 30
0.0
 10
299.5871726063431
 20
283.6842551549878
 30
0.0
 10
299.5872834006462
 20
283.6996530897083
 30
0.0
 10
299.5873942169094
 20
283.7150510907515
 30
0.0
  0
SPLINE
  5
198
330
1F
100
AcDbEntity
  8
1
100
AcDbSpline
210
0.0
220
0.0
230
1.0
 70
     8
 71
     3
 72
    49
 73
    45
 74
     0
 42
0.000000001
 43
0.0000000001
 40
0.0
 40
0.0
 40
0.0
 40
0.0
 40
0.062500000000009
 40
0.062500000000009
 40
0.125000000000018
 40
0.125000000000018
 40
0.1562500000000217
 40
0.1562500000000217
 40
0.1875000000000255
 40
0.1875000000000255
 40
0.2500000000000313
 40
0.3125000000000372
 40
0.3125000000000372
 40
0.3437500000000394
 40
0.3437500000000394
 40
0.3750000000000415
 40
0.3750000000000415
 40
0.437500000000046
 40
0.437500000000046
 40
0.4687500000000482
 40
0.4687500000000482
 40
0.5000000000000505
 40
0.5000000000000505
 40
0.5625000000000492
 40
0.5625000000000492
 40
0.625000000000048
 40
0.625000000000048
 40
0.6875000000000468
 40
0.6875000000000468
 40
0.718750000000043
 40
0.718750000000043
 40
0.7500000000000391
 40
0.7812500000000354
 40
0.7812500000000354
 40
0.8125000000000316
 40
0.8125000000000316
 40
0.8750000000000243
 40
0.8750000000000243
 40
0.9062500000000181
 40
0.9062500000000181
 40
0.9375000000000122
 40
0.968750000000006
 40
0.968750000000006
 40
1.0
 40
1.0
 40
1.0
 40
1.0
 10
409.1282326439771
 20
284.1454935137069
 30
0.0
 10
409.1294017163514
 20
284.1013989914991
 30
0.0
 10
409.1311098073409
 20
284.0594788880791
 30
0.0
 10
409.1356090389963
 20
283.9800247143963
 30
0.0
 10
409.1383815199152
 20
283.9428186764542
 30
0.0
 10
409.1433147762781
 20
283.8907441212405
 30
0.0
 10
409.1450885473084
 20
283.8740096215791
 30
0.0
 10
409.1488963112547
 20
283.8417953093845
 30
0.0
 10
409.1509241620993
 20
283.8263721974893
 30
0.0
 10
409.1573474267731
 20
283.7823083801708
 30
0.0
 10
409.1668354645732
 20
283.7292576663592
 30
0.0
 10
409.1781289364347
 20
283.6873502076742
 30
0.0
 10
409.1872819209531
 20
283.6601343967735
 30
0.0
 10
409.1904469496315
 20
283.6517662839936
 30
0.0
 10
409.1970088088309
 20
283.6364607543137
 30
0.0
 10
409.2004126066262
 20
283.629513953346
 30
0.0
 10
409.2108885542669
 20
283.6110169088607
 30
0.0
 10
409.2182435358802
 20
283.6017445437223
 30
0.0
 10
409.2298268568375
 20
283.5923776926848
 30
0.0
 10
409.2337799558861
 20
283.5900138752936
 30
0.0
 10
409.2418714016843
 20
283.5868135911546
 30
0.0
 10
409.2460161503643
 20
283.5859774465496
 30
0.0
 10
409.2586832685275
 20
283.5857925177451
 30
0.0
 10
409.2674192345462
 20
283.5887503509123
 30
0.0
 10
409.2854709418888
 20
283.6008000506001
 30
0.0
 10
409.2948081249605
 20
283.6099307019545
 30
0.0
 10
409.3138694126695
 20
283.634184221874
 30
0.0
 10
409.3236119186448
 20
283.6493072642344
 30
0.0
 10
409.3385462595268
 20
283.6765256913937
 30
0.0
 10
409.3435734816358
 20
283.6863496527315
 30
0.0
 10
409.3536789794633
 20
283.7074037439529
 30
0.0
 10
409.3638486053611
 20
283.7298872050151
 30
0.0
 10
409.3741463427279
 20
283.7552261811347
 30
0.0
 10
409.3845085821284
 20
283.7820028624897
 30
0.0
 10
409.3897268487991
 20
283.7961254378263
 30
0.0
 10
409.4053927861496
 20
283.8404269004333
 30
0.0
 10
409.4158763927123
 20
283.8725937148487
 30
0.0
 10
409.4316614412371
 20
283.9248037297475
 30
0.0
 10
409.4369407149711
 20
283.9428959972019
 30
0.0
 10
409.4474744780303
 20
283.9802593826044
 30
0.0
 10
409.4579826308859
 20
284.0187939007996
 30
0.0
 10
409.4684397805992
 20
284.0596607492937
 30
0.0
 10
409.4788713298162
 20
284.1016982866859
 30
0.0
 10
409.4840792178525
 20
284.1233235057177
 30
0.0
 10
409.4892630597962
 20
284.1454935136932
 30
0.0
  0
SPLINE
  5
199
330
1F
100
AcDbEntity
  8
1
100
AcDbSpline
210
0.0
220
0.0
230
1.0
 70
     8
 71
     3
 72
   120
 73
   116
 74
     0
 42
0.000000001
 43
0.0000000001
 40
0.0
 40
0.0
 40
0.0
 40
0.0
 40
0.0312499999999972
 40
0.0312499999999972
 40
0.0624999999999944
 40
0.0624999999999944
 40
0.0781249999999927
 40
0.0781249999999927
 40
0.093749999999991
 40
0.093749999999991
 40
0.1093749999999893
 40
0.1093749999999893
 40
0.1249999999999876
 40
0.1249999999999876
 40
0.1406249999999858
 40
0.1406249999999858
 40
0.156249999999984
 40
0.156249999999984
 40
0.1718749999999823
 40
0.1718749999999823
 40
0.1874999999999805
 40
0.2031249999999788
 40
0.2031249999999788
 40
0.2109374999999781
 40
0.2109374999999781
 40
0.2187499999999774
 40
0.2187499999999774
 40
0.2499999999999741
 40
0.2499999999999741
 40
0.2656249999999729
 40
0.2656249999999729
 40
0.2734374999999724
 40
0.2734374999999724
 40
0.2812499999999719
 40
0.2812499999999719
 40
0.3124999999999721
 40
0.3124999999999721
 40
0.3281249999999727
 40
0.3281249999999727
 40
0.3437499999999734
 40
0.3437499999999734
 40
0.359374999999974
 40
0.359374999999974
 40
0.3749999999999746
 40
0.3749999999999746
 40
0.3906249999999752
 40
0.3906249999999752
 40
0.4062499999999759
 40
0.4218749999999764
 40
0.4218749999999764
 40
0.4374999999999769
 40
0.4374999999999769
 40
0.4531249999999776
 40
0.4531249999999776
 40
0.4687499999999781
 40
0.4687499999999781
 40
0.4843749999999787
 40
0.4843749999999787
 40
0.4999999999999793
 40
0.4999999999999793
 40
0.5312499999999812
 40
0.5312499999999812
 40
0.562499999999983
 40
0.562499999999983
 40
0.5781249999999833
 40
0.5781249999999833
 40
0.593749999999984
 40
0.593749999999984
 40
0.6093749999999844
 40
0.6093749999999844
 40
0.6249999999999849
 40
0.6249999999999849
 40
0.6406249999999854
 40
0.6406249999999854
 40
0.6562499999999858
 40
0.6718749999999864
 40
0.6718749999999864
 40
0.6874999999999868
 40
0.6874999999999868
 40
0.7031249999999874
 40
0.7031249999999874
 40
0.7187499999999878
 40
0.7187499999999878
 40
0.7343749999999884
 40
0.7343749999999884
 40
0.7499999999999888
 40
0.7499999999999888
 40
0.7656249999999893
 40
0.7656249999999893
 40
0.7812499999999898
 40
0.7812499999999898
 40
0.8124999999999907
 40
0.8124999999999907
 40
0.8281249999999911
 40
0.8281249999999911
 40
0.8437499999999914
 40
0.8437499999999914
 40
0.8593749999999918
 40
0.8593749999999918
 40
0.8749999999999921
 40
0.8749999999999921
 40
0.8906249999999927
 40
0.8906249999999927
 40
0.9062499999999928
 40
0.9062499999999928
 40
0.9374999999999943
 40
0.9374999999999943
 40
0.9531249999999948
 40
0.9531249999999948
 40
0.9609374999999952
 40
0.9609374999999952
 40
0.9687499999999955
 40
0.9843749999999978
 40
0.9843749999999978
 40
1.0
 40
1.0
 40
1.0
 40
1.0
 10
409.4892630597963
 20
284.1454935136932
 30
0.0
 10
409.4971971149095
 20
284.2081522425754
 30
0.0
 10
409.5044495950581
 20
284.2747099149048
 30
0.0
 10
409.5175843886291
 20
284.4156632859845
 30
0.0
 10
409.5233872747018
 20
284.4892095357557
 30
0.0
 10
409.5309468030039
 20
284.6040690148108
 30
0.0
 10
409.5332715742491
 20
284.6430780527772
 30
0.0
 10
409.5375010529139
 20
284.7219900513825
 30
0.0
 10
409.5394108116458
 20
284.7619669873719
 30
0.0
 10
409.5428201930935
 20
284.8429631770001
 30
0.0
 10
409.544321105776
 20
284.8840461098822
 30
0.0
 10
409.5468888250461
 20
284.9666284274458
 30
0.0
 10
409.5479589346945
 20
285.0081902370137
 30
0.0
 10
409.5496735329344
 20
285.0918527786324
 30
0.0
 10
409.5503186726253
 20
285.1340352858962
 30
0.0
 10
409.5511747573898
 20
285.2185124808757
 30
0.0
 10
409.5513863060337
 20
285.2607663878063
 30
0.0
 10
409.5513802646896
 20
285.3453045483762
 30
0.0
 10
409.5511625721196
 20
285.3875985953171
 30
0.0
 10
409.5502954909846
 20
285.4721774685695
 30
0.0
 10
409.5490016980304
 20
285.5562817916819
 30
0.0
 10
409.5468655387215
 20
285.6394493114219
 30
0.0
 10
409.5449466793144
 20
285.7014727018417
 30
0.0
 10
409.5442534661257
 20
285.7221049441548
 30
0.0
 10
409.5427697421201
 20
285.7630153696881
 30
0.0
 10
409.5419784708466
 20
285.7833212189819
 30
0.0
 10
409.5377788408876
 20
285.8841150530883
 30
0.0
 10
409.5336444080997
 20
285.9624081269446
 30
0.0
 10
409.5263063411193
 20
286.0764123640291
 30
0.0
 10
409.5236701782095
 20
286.1138389843034
 30
0.0
 10
409.5194273215181
 20
286.1691064440456
 30
0.0
 10
409.5179648879558
 20
286.1873833799607
 30
0.0
 10
409.5149425850378
 20
286.2236427048695
 30
0.0
 10
409.5133804013385
 20
286.2416497471245
 30
0.0
 10
409.5053625743068
 20
286.3304976234746
 30
0.0
 10
409.4982781070716
 20
286.3979666504154
 30
0.0
 10
409.4866495434141
 20
286.4937748353438
 30
0.0
 10
409.48261843026
 20
286.5246981377706
 30
0.0
 10
409.4742778293727
 20
286.5843186907866
 30
0.0
 10
409.4699640382289
 20
286.613051687791
 30
0.0
 10
409.4610488731824
 20
286.6683586079903
 30
0.0
 10
409.456442339857
 20
286.6949533291712
 30
0.0
 10
409.447010160642
 20
286.7455784678902
 30
0.0
 10
409.4421769226101
 20
286.769660215034
 30
0.0
 10
409.4322765420265
 20
286.8153661868943
 30
0.0
 10
409.4271999669389
 20
286.8370263053737
 30
0.0
 10
409.4168585729672
 20
286.8776676829698
 30
0.0
 10
409.4063411748352
 20
286.9155967865167
 30
0.0
 10
409.3954736766865
 20
286.94813074946
 30
0.0
 10
409.384429364722
 20
286.9779399613336
 30
0.0
 10
409.3788424002767
 20
286.9914161094532
 30
0.0
 10
409.3675645899514
 20
287.015471164194
 30
0.0
 10
409.3618697805773
 20
287.0260608441904
 30
0.0
 10
409.3503676595185
 20
287.0443466627733
 30
0.0
 10
409.3445567725504
 20
287.0520399366642
 30
0.0
 10
409.3329118511138
 20
287.0643988687334
 30
0.0
 10
409.3270668932192
 20
287.0690845632604
 30
0.0
 10
409.31533188713
 20
287.0754620385435
 30
0.0
 10
409.3094302729122
 20
287.077152648912
 30
0.0
 10
409.2917535577458
 20
287.0776600634327
 30
0.0
 10
409.2800177302283
 20
287.0719656906329
 30
0.0
 10
409.2566444622763
 20
287.0483766616977
 30
0.0
 10
409.2451408896116
 20
287.0306139621757
 30
0.0
 10
409.2281743352979
 20
286.9950147013569
 30
0.0
 10
409.2225676060963
 20
286.9816432579976
 30
0.0
 10
409.2115400408188
 20
286.9521012722579
 30
0.0
 10
409.2061076877188
 20
286.9359085321067
 30
0.0
 10
409.1954065009101
 20
286.9006680282638
 30
0.0
 10
409.1901277197278
 20
286.8815775565784
 30
0.0
 10
409.1798071632704
 20
286.8407756919722
 30
0.0
 10
409.1747609967513
 20
286.8190572889253
 30
0.0
 10
409.1648966994655
 20
286.7729877080406
 30
0.0
 10
409.1600722998899
 20
286.7486019054889
 30
0.0
 10
409.15068330591
 20
286.6973140761171
 30
0.0
 10
409.14158272467
 20
286.6436776262119
 30
0.0
 10
409.1330556219576
 20
286.5853711903451
 30
0.0
 10
409.1248181672648
 20
286.524706074737
 30
0.0
 10
409.1208594702088
 20
286.4933005429073
 30
0.0
 10
409.1132894939915
 20
286.4285916858047
 30
0.0
 10
409.1096733724452
 20
286.3952530265537
 30
0.0
 10
409.1027805748348
 20
286.3265972662592
 30
0.0
 10
409.0995038911851
 20
286.2912648607188
 30
0.0
 10
409.0933445824609
 20
286.2191954893272
 30
0.0
 10
409.0904545807436
 20
286.1823892182248
 30
0.0
 10
409.0850538737915
 20
286.1072335410381
 30
0.0
 10
409.0825389722139
 20
286.068805533982
 30
0.0
 10
409.0779250041451
 20
285.9909270955046
 30
0.0
 10
409.0758230528737
 20
285.9514516458416
 30
0.0
 10
409.0720271504724
 20
285.8714336873505
 30
0.0
 10
409.0703310709612
 20
285.8308306219646
 30
0.0
 10
409.0658762983858
 20
285.7078224724753
 30
0.0
 10
409.063761207416
 20
285.6246771336903
 30
0.0
 10
409.0618657213715
 20
285.4982559157752
 30
0.0
 10
409.0614506073053
 20
285.4560038495112
 30
0.0
 10
409.061051281779
 20
285.3715178952452
 30
0.0
 10
409.0610664850657
 20
285.3292457777567
 30
0.0
 10
409.0615272332898
 20
285.2446431794011
 30
0.0
 10
409.0619738907926
 20
285.2023158614043
 30
0.0
 10
409.0632898316953
 20
285.1182732912698
 30
0.0
 10
409.0641593099339
 20
285.0764732875623
 30
0.0
 10
409.0663201107528
 20
284.9933146175127
 30
0.0
 10
409.0676161795041
 20
284.9518458974515
 30
0.0
 10
409.0706018386746
 20
284.8702009081844
 30
0.0
 10
409.0722918741777
 20
284.8299598224283
 30
0.0
 10
409.0779393436244
 20
284.7109387652821
 30
0.0
 10
409.0824712756244
 20
284.6338525476777
 30
0.0
 10
409.0904169226512
 20
284.5216070521445
 30
0.0
 10
409.0932574812986
 20
284.4847579760046
 30
0.0
 10
409.0978127358338
 20
284.4303523702501
 30
0.0
 10
409.0993798544039
 20
284.41236965252
 30
0.0
 10
409.1025943105289
 20
284.3769038815802
 30
0.0
 10
409.1075428862995
 20
284.3243760995866
 30
0.0
 10
409.1128694780387
 20
284.2738468838998
 30
0.0
 10
409.1203077786951
 20
284.2082519675217
 30
0.0
 10
409.124200485237
 20
284.1763087197723
 30
0.0
 10
409.1282326439756
 20
284.1454935137069
 30
0.0
  0
SPLINE
  5
19A
330
1F
100
AcDbEntity
  8
1
100
AcDbSpline
210
0.0
220
0.0
230
1.0
 70
    12
 71
     2
 72
     6
 73
     3
 74
     0
 42
0.000000001
 43
0.0000000001
 40
0.0
 40
0.0
 40
0.0
 40
1.0
 40
1.0
 40
1.0
 10
299.587061833987
 20
283.6688572865502
 30
0.0
 41
0.5000003816440384
 10
299.5926815745761
 20
283.690598620094
 30
0.0
 41
0.4999996183559617
 10
299.5982952144935
 20
283.7123718161264
 30
0.0
 41
0.5000003816440384
  0
SPLINE
  5
19B
330
1F
100
AcDbEntity
  8
1
100
AcDbSpline
210
0.0
220
0.0
230
1.0
 70
     8
 71
     3
 72
    20
 73
    16
 74
     0
 42
0.000000001
 43
0.0000000001
 40
0.0
 40
0.0
 40
0.0
 40
0.0
 40
0.125
 40
0.125
 40
0.2500000000000001
 40
0.2500000000000001
 40
0.3750000000000001
 40
0.3750000000000001
 40
0.5000000000000001
 40
0.5000000000000001
 40
0.6250000000000001
 40
0.6250000000000001
 40
0.7500000000000002
 40
0.7500000000000002
 40
1.0
 40
1.0
 40
1.0
 40
1.0
 10
395.7915140680707
 20
291.7061374193341
 30
0.0
 10
395.6063302289089
 20
291.7906423876522
 30
0.0
 10
395.4186253216541
 20
291.8785365622813
 30
0.0
 10
395.0390415781058
 20
292.0599361469846
 30
0.0
 10
394.8471586549846
 20
292.1534470511987
 30
0.0
 10
394.4598227164975
 20
292.345268325061
 30
0.0
 10
394.2643674345911
 20
292.4435817417399
 30
0.0
 10
393.8703308367548
 20
292.6444110693786
 30
0.0
 10
393.671748173211
 20
292.7469287920079
 30
0.0
 10
393.2717923820494
 20
292.9557156069638
 30
0.0
 10
393.0717035915598
 20
293.0613137732942
 30
0.0
 10
392.6713828204709
 20
293.2745904466512
 30
0.0
 10
392.471141558531
 20
293.382274639795
 30
0.0
 10
391.8702015476811
 20
293.7081233421898
 30
0.0
 10
391.4692878975952
 20
293.9290668549212
 30
0.0
 10
391.0681357076842
 20
294.1530950553092
 30
0.0
  0
SPLINE
  5
19C
330
1F
100
AcDbEntity
  8
1
100
AcDbSpline
210
0.0
220
0.0
230
1.0
 70
     8
 71
     3
 72
    19
 73
    15
 74
     0
 42
0.000000001
 43
0.0000000001
 40
0.0
 40
0.0
 40
0.0
 40
0.0
 40
0.125
 40
0.125
 40
0.2500000000000001
 40
0.2500000000000001
 40
0.3750000000000001
 40
0.3750000000000001
 40
0.5000000000000001
 40
0.5000000000000001
 40
0.6250000000000001
 40
0.7500000000000002
 40
0.7500000000000002
 40
1.0
 40
1.0
 40
1.0
 40
1.0
 10
292.7038318185191
 20
275.6124505214586
 30
0.0
 10
292.4373099720639
 20
275.6274939819841
 30
0.0
 10
292.1742116840642
 20
275.6366726445935
 30
0.0
 10
291.654102755199
 20
275.644601399456
 30
0.0
 10
291.3970934313163
 20
275.643349235624
 30
0.0
 10
290.8885835953571
 20
275.6314079234832
 30
0.0
 10
290.6370840488293
 20
275.6207171211213
 30
0.0
 10
290.1391582527959
 20
275.5906445995669
 30
0.0
 10
289.8927327228447
 20
275.5712616477268
 30
0.0
 10
289.4046378541953
 20
275.5243480518396
 30
0.0
 10
288.9212998568237
 20
275.4692855988152
 30
0.0
 10
288.4470407760474
 20
275.3986703191579
 30
0.0
 10
287.7422633982257
 20
275.2814218719556
 30
0.0
 10
287.2811929672138
 20
275.1882135019055
 30
0.0
 10
286.8288200613578
 20
275.0801056557493
 30
0.0
  0
SPLINE
  5
19D
330
1F
100
AcDbEntity
  8
1
100
AcDbSpline
210
0.0
220
0.0
230
1.0
 70
     8
 71
     3
 72
    30
 73
    26
 74
     0
 42
0.000000001
 43
0.0000000001
 40
0.0
 40
0.0
 40
0.0
 40
0.0
 40
0.1181333845271488
 40
0.1181333845271488
 40
0.1916222691498864
 40
0.1916222691498864
 40
0.2651111537726241
 40
0.2651111537726241
 40
0.3386000383953617
 40
0.3386000383953617
 40
0.4120889230180991
 40
0.4120889230180991
 40
0.4855778076408367
 40
0.4855778076408367
 40
0.5590666922635745
 40
0.5590666922635745
 40
0.6325555768863121
 40
0.6325555768863121
 40
0.7060444615090497
 40
0.7060444615090497
 40
0.7795333461317874
 40
0.7795333461317874
 40
0.8530222307545246
 40
0.8530222307545246
 40
1.0
 40
1.0
 40
1.0
 40
1.0
 10
341.2873540385027
 20
277.8350288686156
 30
0.0
 10
339.9704618687945
 20
277.6666298468029
 30
0.0
 10
338.653872119768
 20
277.5070239855105
 30
0.0
 10
336.5180234706904
 20
277.263623406891
 30
0.0
 10
335.6988535205376
 20
277.1739412130972
 30
0.0
 10
334.0606054623958
 20
277.0012572272668
 30
0.0
 10
333.2415278580895
 20
276.9182553547561
 30
0.0
 10
331.6036391884852
 20
276.7585071376167
 30
0.0
 10
330.7848285358457
 20
276.6817611719637
 30
0.0
 10
329.1476112361563
 20
276.5343195100914
 30
0.0
 10
328.329204887865
 20
276.4636246365068
 30
0.0
 10
326.6928856792785
 20
276.328281396382
 30
0.0
 10
325.8749729893007
 20
276.2636342444665
 30
0.0
 10
324.239675511598
 20
276.140553383351
 30
0.0
 10
323.4222907612763
 20
276.08212119286
 30
0.0
 10
321.7880253858573
 20
275.9717665109262
 30
0.0
 10
320.971144671302
 20
275.9198457249712
 30
0.0
 10
319.3378062135281
 20
275.8228905838715
 30
0.0
 10
318.5213482696174
 20
275.7778579870538
 30
0.0
 10
316.8887212441387
 20
275.6950839413417
 30
0.0
 10
316.0725518736862
 20
275.6573441688289
 30
0.0
 10
314.4403223706599
 20
275.5895364329334
 30
0.0
 10
313.6242618885524
 20
275.5594699436805
 30
0.0
 10
311.1759211195285
 20
275.4812415351167
 30
0.0
 10
309.5434869404855
 20
275.4451252463267
 30
0.0
 10
307.9098593920562
 20
275.4255457738371
 30
0.0
  0
SPLINE
  5
19E
330
1F
100
AcDbEntity
  8
1
100
AcDbSpline
210
0.0
220
0.0
230
1.0
 70
     8
 71
     3
 72
    26
 73
    22
 74
     0
 42
0.000000001
 43
0.0000000001
 40
0.0
 40
0.0
 40
0.0
 40
0.0
 40
0.1126855770274655
 40
0.1126855770274655
 40
0.2253711540549309
 40
0.2253711540549309
 40
0.3380567310823964
 40
0.3380567310823964
 40
0.4507423081098619
 40
0.4507423081098619
 40
0.5070850966235946
 40
0.5070850966235946
 40
0.5634278851373273
 40
0.5634278851373273
 40
0.676113462164792
 40
0.676113462164792
 40
0.7887990391922566
 40
0.7887990391922566
 40
0.9014846162197212
 40
0.9014846162197212
 40
1.0
 40
1.0
 40
1.0
 40
1.0
 10
310.5438119548801
 20
275.6912772319885
 30
0.0
 10
311.4297610679294
 20
275.7825219936691
 30
0.0
 10
312.3157154374498
 20
275.8794391245797
 30
0.0
 10
314.0882462006343
 20
276.0827868879602
 30
0.0
 10
314.9748240746446
 20
276.1892132102959
 30
0.0
 10
316.749174974671
 20
276.4093069297772
 30
0.0
 10
317.6369496658949
 20
276.5229669605692
 30
0.0
 10
319.4141789806049
 20
276.7549908041518
 30
0.0
 10
320.3036352876298
 20
276.8733437765973
 30
0.0
 10
321.6393387464337
 20
277.0525035902727
 30
0.0
 10
322.0848251458365
 20
277.112496363612
 30
0.0
 10
322.9763276396909
 20
277.2327442340406
 30
0.0
 10
323.4223603377921
 20
277.2930011194505
 30
0.0
 10
324.7610303729634
 20
277.4737617430567
 30
0.0
 10
325.654311527651
 20
277.5942313408017
 30
0.0
 10
327.4425444670297
 20
277.8337858205142
 30
0.0
 10
328.337496043619
 20
277.9528613320351
 30
0.0
 10
330.1288649467238
 20
278.1894632562883
 30
0.0
 10
331.0252807638432
 20
278.3069882289713
 30
0.0
 10
332.7063984510599
 20
278.5269159374724
 30
0.0
 10
333.4909713985541
 20
278.6293671042942
 30
0.0
 10
334.2757859714523
 20
278.7324958657128
 30
0.0
  0
SPLINE
  5
19F
330
1F
100
AcDbEntity
  8
1
100
AcDbSpline
210
0.0
220
0.0
230
1.0
 70
     8
 71
     3
 72
     8
 73
     4
 74
     0
 42
0.000000001
 43
0.0000000001
 40
0.0
 40
0.0
 40
0.0
 40
0.0
 40
1.0
 40
1.0
 40
1.0
 40
1.0
 10
291.0913364149451
 20
285.8272553729269
 30
0.0
 10
291.6291982930525
 20
285.7257439676658
 30
0.0
 10
292.1666883401046
 20
285.6027059394895
 30
0.0
 10
292.7038318185191
 20
285.4596038196477
 30
0.0
  0
SPLINE
  5
1A0
330
1F
100
AcDbEntity
  8
1
100
AcDbSpline
210
0.0
220
0.0
230
1.0
 70
     8
 71
     3
 72
     8
 73
     4
 74
     0
 42
0.000000001
 43
0.0000000001
 40
0.0
 40
0.0
 40
0.0
 40
0.0
 40
1.0
 40
1.0
 40
1.0
 40
1.0
 10
396.1605184824507
 20
293.4222685477966
 30
0.0
 10
395.9935331392823
 20
293.5161055319019
 30
0.0
 10
395.8277855337252
 20
293.6140427018067
 30
0.0
 10
395.6632174320446
 20
293.7162472015239
 30
0.0
  0
SPLINE
  5
1A1
330
1F
100
AcDbEntity
  8
1
100
AcDbSpline
210
0.0
220
0.0
230
1.0
 70
     8
 71
     3
 72
    36
 73
    32
 74
     0
 42
0.000000001
 43
0.0000000001
 40
0.0
 40
0.0
 40
0.0
 40
0.0
 40
0.1249999999999783
 40
0.1249999999999783
 40
0.187499999999957
 40
0.187499999999957
 40
0.2187499999999463
 40
0.2187499999999463
 40
0.2499999999999356
 40
0.2499999999999356
 40
0.3749999999998557
 40
0.3749999999998557
 40
0.4062499999998238
 40
0.4062499999998238
 40
0.4374999999997919
 40
0.4374999999997919
 40
0.4999999999997282
 40
0.4999999999997282
 40
0.6249999999995976
 40
0.6249999999995976
 40
0.6562499999995941
 40
0.6562499999995941
 40
0.6874999999995905
 40
0.7499999999996453
 40
0.8124999999997001
 40
0.8124999999997001
 40
0.8437499999997612
 40
0.8437499999997612
 40
0.8749999999998225
 40
0.8749999999998225
 40
1.0
 40
1.0
 40
1.0
 40
1.0
 10
410.7016286938658
 20
302.0555786786156
 30
0.0
 10
410.6993557885322
 20
302.1064109185622
 30
0.0
 10
410.6919443395961
 20
302.1561354201284
 30
0.0
 10
410.673598125418
 20
302.2291637764533
 30
0.0
 10
410.6662678439693
 20
302.2532446655919
 30
0.0
 10
410.6534240203577
 20
302.2889675312949
 30
0.0
 10
410.6488205737826
 20
302.3008400303518
 30
0.0
 10
410.6390578162544
 20
302.3242781755015
 30
0.0
 10
410.6339051229833
 20
302.3358334073556
 30
0.0
 10
410.6068157707106
 20
302.3928088939795
 30
0.0
 10
410.5809407855177
 20
302.4358508822533
 30
0.0
 10
410.5434212389171
 20
302.4865278094099
 30
0.0
 10
410.5356561043773
 20
302.4965054468138
 30
0.0
 10
410.5195954572161
 20
302.5161404382422
 30
0.0
 10
410.5112845765997
 20
302.525812686614
 30
0.0
 10
410.4858102311133
 20
302.554049159383
 30
0.0
 10
410.4680356428668
 20
302.5719283031323
 30
0.0
 10
410.4124023196952
 20
302.6228084364674
 30
0.0
 10
410.3722570552983
 20
302.6530796215797
 30
0.0
 10
410.318123225479
 20
302.6862001560764
 30
0.0
 10
410.3070830806269
 20
302.69259169701
 30
0.0
 10
410.2848407720926
 20
302.7047574912299
 30
0.0
 10
410.2511500077539
 20
302.7221335474669
 30
0.0
 10
410.1933900878166
 20
302.7468047490681
 30
0.0
 10
410.1454769154992
 20
302.7619952938901
 30
0.0
 10
410.108887052638
 20
302.7716419177214
 30
0.0
 10
410.0965810583928
 20
302.7745658533642
 30
0.0
 10
410.0717450725308
 20
302.7798165139889
 30
0.0
 10
410.0591988289115
 20
302.7821443577515
 30
0.0
 10
409.9964891547241
 20
302.7921614298511
 30
0.0
 10
409.9459619656713
 20
302.7951397286241
 30
0.0
 10
409.895063756893
 20
302.792920589579
 30
0.0
  0
SPLINE
  5
1A2
330
1F
100
AcDbEntity
  8
1
100
AcDbSpline
210
0.0
220
0.0
230
1.0
 70
     8
 71
     3
 72
    36
 73
    32
 74
     0
 42
0.000000001
 43
0.0000000001
 40
0.0
 40
0.0
 40
0.0
 40
0.0
 40
0.1250000000000041
 40
0.1250000000000041
 40
0.1875000000000057
 40
0.1875000000000057
 40
0.2187500000000065
 40
0.2187500000000065
 40
0.2500000000000072
 40
0.2500000000000072
 40
0.3750000000000723
 40
0.3750000000000723
 40
0.4062500000000741
 40
0.4062500000000741
 40
0.4375000000000759
 40
0.4375000000000759
 40
0.5000000000000826
 40
0.5000000000000826
 40
0.6250000000000521
 40
0.6250000000000521
 40
0.6562500000000374
 40
0.6562500000000374
 40
0.6875000000000227
 40
0.7500000000000195
 40
0.8125000000000161
 40
0.8125000000000161
 40
0.8437500000000145
 40
0.8437500000000145
 40
0.8750000000000129
 40
0.8750000000000129
 40
1.0
 40
1.0
 40
1.0
 40
1.0
 10
401.9251718287902
 20
302.4454368806708
 30
0.0
 10
401.8742680125897
 20
302.4432174971447
 30
0.0
 10
401.8244786209604
 20
302.4358659221676
 30
0.0
 10
401.7513623358533
 20
302.417618455305
 30
0.0
 10
401.727253717899
 20
302.4103225914316
 30
0.0
 10
401.6914916640827
 20
302.3975326791346
 30
0.0
 10
401.6796064716714
 20
302.3929476351809
 30
0.0
 10
401.656143934702
 20
302.3832221852426
 30
0.0
 10
401.6445770129682
 20
302.3780883770594
 30
0.0
 10
401.5875455498621
 20
302.3510945805319
 30
0.0
 10
401.5444666203776
 20
302.3252996233823
 30
0.0
 10
401.4937531701462
 20
302.2878845241693
 30
0.0
 10
401.4837687153399
 20
302.2801405017989
 30
0.0
 10
401.4641210783173
 20
302.2641225311192
 30
0.0
 10
401.4544429953087
 20
302.2558332518031
 30
0.0
 10
401.4261906870586
 20
302.230423724252
 30
0.0
 10
401.4083031412456
 20
302.2126925613377
 30
0.0
 10
401.3574040881625
 20
302.1571901366308
 30
0.0
 10
401.3271286091259
 20
302.1171329616279
 30
0.0
 10
401.2940134649473
 20
302.0631103087542
 30
0.0
 10
401.2876235506682
 20
302.0520924787163
 30
0.0
 10
401.2754620663181
 20
302.0298944246573
 30
0.0
 10
401.2580940655984
 20
301.9962696540923
 30
0.0
 10
401.2334441080108
 20
301.9386178171047
 30
0.0
 10
401.2182788459881
 20
301.8907890899892
 30
0.0
 10
401.2086543675307
 20
301.8542617846999
 30
0.0
 10
401.2057383452424
 20
301.8419765133423
 30
0.0
 10
401.2005045999719
 20
301.8171817077589
 30
0.0
 10
401.1981857726432
 20
301.8046559461885
 30
0.0
 10
401.1882161172213
 20
301.7420470481619
 30
0.0
 10
401.1852834196674
 20
301.6915960254506
 30
0.0
 10
401.1875560746241
 20
301.6407693850418
 30
0.0
  0
SPLINE
  5
1A3
330
1F
100
AcDbEntity
  8
1
100
AcDbSpline
210
0.0
220
0.0
230
1.0
 70
     8
 71
     3
 72
    36
 73
    32
 74
     0
 42
0.000000001
 43
0.0000000001
 40
0.0
 40
0.0
 40
0.0
 40
0.0
 40
0.1250000000001729
 40
0.1250000000001729
 40
0.1875000000002678
 40
0.1875000000002678
 40
0.2187500000003162
 40
0.2187500000003162
 40
0.2500000000003647
 40
0.2500000000003647
 40
0.3750000000005271
 40
0.3750000000005271
 40
0.4062500000005573
 40
0.4062500000005573
 40
0.4375000000005877
 40
0.4375000000005877
 40
0.5000000000006468
 40
0.5000000000006468
 40
0.6250000000007128
 40
0.6250000000007128
 40
0.656250000000701
 40
0.656250000000701
 40
0.6875000000006892
 40
0.7500000000006047
 40
0.8125000000005201
 40
0.8125000000005201
 40
0.8437500000004444
 40
0.8437500000004444
 40
0.8750000000003689
 40
0.8750000000003689
 40
1.0
 40
1.0
 40
1.0
 40
1.0
 10
401.5434195682249
 20
293.6820839843102
 30
0.0
 10
401.5456924735583
 20
293.6312517443635
 30
0.0
 10
401.5531039224943
 20
293.5815272427973
 30
0.0
 10
401.5714501366725
 20
293.5084988864724
 30
0.0
 10
401.5787804181213
 20
293.4844179973338
 30
0.0
 10
401.5916242417328
 20
293.4486951316308
 30
0.0
 10
401.596227688308
 20
293.436822632574
 30
0.0
 10
401.605990445836
 20
293.4133844874242
 30
0.0
 10
401.6111431391073
 20
293.4018292555702
 30
0.0
 10
401.6382324913801
 20
293.3448537689463
 30
0.0
 10
401.6641074765727
 20
293.3018117806724
 30
0.0
 10
401.7016270231733
 20
293.2511348535158
 30
0.0
 10
401.7093921577132
 20
293.2411572161118
 30
0.0
 10
401.7254528048745
 20
293.2215222246835
 30
0.0
 10
401.7337636854907
 20
293.2118499763118
 30
0.0
 10
401.7592380309774
 20
293.1836135035427
 30
0.0
 10
401.7770126192237
 20
293.1657343597933
 30
0.0
 10
401.8326459423954
 20
293.1148542264583
 30
0.0
 10
401.8727912067922
 20
293.084583041346
 30
0.0
 10
401.9269250366116
 20
293.0514625068493
 30
0.0
 10
401.9379651814637
 20
293.0450709659157
 30
0.0
 10
401.960207489998
 20
293.0329051716958
 30
0.0
 10
401.9938982543367
 20
293.0155291154589
 30
0.0
 10
402.0516582131316
 20
292.990858017458
 30
0.0
 10
402.0995713465916
 20
292.9756673690356
 30
0.0
 10
402.1361612094525
 20
292.9660207452043
 30
0.0
 10
402.1484672036976
 20
292.9630968095616
 30
0.0
 10
402.1733031895598
 20
292.9578461489369
 30
0.0
 10
402.1858494331791
 20
292.9555183051742
 30
0.0
 10
402.2485591073665
 20
292.9455012330747
 30
0.0
 10
402.2990862964193
 20
292.9425229343017
 30
0.0
 10
402.3499845051976
 20
292.9447420733469
 30
0.0
  0
SPLINE
  5
1A4
330
1F
100
AcDbEntity
  8
1
100
AcDbSpline
210
0.0
220
0.0
230
1.0
 70
     8
 71
     3
 72
    36
 73
    32
 74
     0
 42
0.000000001
 43
0.0000000001
 40
0.0
 40
0.0
 40
0.0
 40
0.0
 40
0.124999999999948
 40
0.124999999999948
 40
0.1874999999999217
 40
0.1874999999999217
 40
0.2187499999999082
 40
0.2187499999999082
 40
0.2499999999998947
 40
0.2499999999998947
 40
0.3749999999999054
 40
0.3749999999999054
 40
0.406249999999894
 40
0.406249999999894
 40
0.4374999999998825
 40
0.4374999999998825
 40
0.4999999999998583
 40
0.4999999999998583
 40
0.6249999999998578
 40
0.6249999999998578
 40
0.6562499999998586
 40
0.6562499999998586
 40
0.6874999999998594
 40
0.7499999999998909
 40
0.8124999999999225
 40
0.8124999999999225
 40
0.8437499999999394
 40
0.8437499999999394
 40
0.8749999999999563
 40
0.8749999999999563
 40
1.0
 40
1.0
 40
1.0
 40
1.0
 10
410.3198764333003
 20
293.2922257822549
 30
0.0
 10
410.3707802495011
 20
293.2944451657812
 30
0.0
 10
410.4205696411302
 20
293.3017967407582
 30
0.0
 10
410.4936859262373
 20
293.3200442076207
 30
0.0
 10
410.5177945441916
 20
293.3273400714942
 30
0.0
 10
410.5535565980079
 20
293.340129983791
 30
0.0
 10
410.5654417904194
 20
293.3447150277448
 30
0.0
 10
410.5889043273887
 20
293.3544404776831
 30
0.0
 10
410.6004712491224
 20
293.3595742858664
 30
0.0
 10
410.6575027122286
 20
293.3865680823938
 30
0.0
 10
410.700581641713
 20
293.4123630395434
 30
0.0
 10
410.7512950919443
 20
293.4497781387565
 30
0.0
 10
410.7612795467507
 20
293.4575221611268
 30
0.0
 10
410.7809271837734
 20
293.4735401318067
 30
0.0
 10
410.790605266782
 20
293.4818294111226
 30
0.0
 10
410.8188575750319
 20
293.5072389386738
 30
0.0
 10
410.836745120845
 20
293.5249701015881
 30
0.0
 10
410.8876441739282
 20
293.5804725262948
 30
0.0
 10
410.9179196529646
 20
293.6205297012979
 30
0.0
 10
410.9510347971433
 20
293.6745523541716
 30
0.0
 10
410.9574247114223
 20
293.6855701842094
 30
0.0
 10
410.9695861957725
 20
293.7077682382683
 30
0.0
 10
410.9869541964923
 20
293.7413930088335
 30
0.0
 10
411.0116040502906
 20
293.7990448847247
 30
0.0
 10
411.0267694161023
 20
293.8468735729367
 30
0.0
 10
411.03639389456
 20
293.8834008782258
 30
0.0
 10
411.0393099168483
 20
293.8956861495833
 30
0.0
 10
411.0445436621185
 20
293.9204809551668
 30
0.0
 10
411.0468624894473
 20
293.9330067167372
 30
0.0
 10
411.0568321448694
 20
293.9956156147638
 30
0.0
 10
411.0597648424231
 20
294.0460666374751
 30
0.0
 10
411.0574921874666
 20
294.0968932778838
 30
0.0
  0
SPLINE
  5
1A5
330
1F
100
AcDbEntity
  8
1
100
AcDbSpline
210
0.0
220
0.0
230
1.0
 70
     9
 71
     3
 72
   127
 73
   123
 74
     0
 42
0.000000001
 43
0.0000000001
 40
0.0
 40
0.0
 40
0.0
 40
0.0
 40
0.0312500000000577
 40
0.0312500000000577
 40
0.0468750000000865
 40
0.0468750000000865
 40
0.054687500000096
 40
0.054687500000096
 40
0.0625000000001055
 40
0.0625000000001055
 40
0.0937500000001341
 40
0.0937500000001341
 40
0.1015625000001413
 40
0.1015625000001413
 40
0.1093750000001484
 40
0.1093750000001484
 40
0.1250000000001551
 40
0.1250000000001551
 40
0.1562500000001754
 40
0.1562500000001754
 40
0.1875000000001958
 40
0.1875000000001958
 40
0.2031250000002042
 40
0.2031250000002042
 40
0.2109375000002069
 40
0.2109375000002069
 40
0.2187500000002097
 40
0.2187500000002097
 40
0.2500000000002229
 40
0.2500000000002229
 40
0.2578125000002259
 40
0.2578125000002259
 40
0.2656250000002289
 40
0.2656250000002289
 40
0.2812500000002349
 40
0.2812500000002349
 40
0.3125000000002446
 40
0.3125000000002446
 40
0.3203125000002453
 40
0.3203125000002453
 40
0.328125000000246
 40
0.3437500000002474
 40
0.3437500000002474
 40
0.3750000000002561
 40
0.3750000000002561
 40
0.3828125000002564
 40
0.3828125000002564
 40
0.3906250000002567
 40
0.4062500000002652
 40
0.4218750000002735
 40
0.4218750000002735
 40
0.4296875000002778
 40
0.4296875000002778
 40
0.4375000000002818
 40
0.4375000000002818
 40
0.4687500000002693
 40
0.4687500000002693
 40
0.4843750000002631
 40
0.4843750000002631
 40
0.4921875000002601
 40
0.4921875000002601
 40
0.5000000000002568
 40
0.5000000000002568
 40
0.531250000000234
 40
0.531250000000234
 40
0.5390625000002283
 40
0.5390625000002283
 40
0.5468750000002226
 40
0.5468750000002226
 40
0.5625000000002211
 40
0.5781250000002194
 40
0.5781250000002194
 40
0.5859375000002187
 40
0.5859375000002187
 40
0.5937500000002181
 40
0.5937500000002181
 40
0.6250000000002324
 40
0.6250000000002324
 40
0.6328125000002326
 40
0.6328125000002326
 40
0.6406250000002327
 40
0.6406250000002327
 40
0.6562500000002271
 40
0.6562500000002271
 40
0.6875000000002106
 40
0.6875000000002106
 40
0.6953125000002083
 40
0.6953125000002083
 40
0.7031250000002061
 40
0.7187500000001981
 40
0.7343750000001901
 40
0.7343750000001901
 40
0.7421875000001864
 40
0.7421875000001864
 40
0.7500000000001826
 40
0.7500000000001826
 40
0.7812500000001674
 40
0.7812500000001674
 40
0.7968750000001608
 40
0.7968750000001608
 40
0.8125000000001541
 40
0.8125000000001541
 40
0.843750000000141
 40
0.843750000000141
 40
0.8593750000001344
 40
0.8593750000001344
 40
0.867187500000128
 40
0.867187500000128
 40
0.8750000000001215
 40
0.8750000000001215
 40
0.9062500000000888
 40
0.9062500000000888
 40
0.9218750000000724
 40
0.9218750000000724
 40
0.9375000000000557
 40
0.9531250000000396
 40
0.9531250000000396
 40
0.9609375000000364
 40
0.9609375000000364
 40
0.9687500000000332
 40
0.9687500000000332
 40
1.0
 40
1.0
 40
1.0
 40
1.0
 10
406.4246469271758
 20
286.5433679557893
 30
0.0
 10
406.5088673741516
 20
286.5418978824191
 30
0.0
 10
406.5914758995003
 20
286.5320273178685
 30
0.0
 10
406.7130711551776
 20
286.5051582482874
 30
0.0
 10
406.7532136223143
 20
286.4941758116103
 30
0.0
 10
406.812828882026
 20
286.4745916059239
 30
0.0
 10
406.8326571126927
 20
286.4675212202245
 30
0.0
 10
406.8717592496978
 20
286.4524568087218
 30
0.0
 10
406.8910395891093
 20
286.4444647727891
 30
0.0
 10
406.986114753464
 20
286.4022539742737
 30
0.0
 10
407.0579686713083
 20
286.361348196621
 30
0.0
 10
407.1425589974393
 20
286.3013941915975
 30
0.0
 10
407.1592133055863
 20
286.2889582784327
 30
0.0
 10
407.191985356964
 20
286.2631823177123
 30
0.0
 10
407.2080915718856
 20
286.2498465729303
 30
0.0
 10
407.2550651785308
 20
286.2089391514319
 30
0.0
 10
407.2847781866553
 20
286.1803262209481
 30
0.0
 10
407.3692530714361
 20
286.0906020709421
 30
0.0
 10
407.4194071456501
 20
286.0256206195874
 30
0.0
 10
407.507002848214
 20
285.885290411993
 30
0.0
 10
407.543040652164
 20
285.8122038917822
 30
0.0
 10
407.5861157482316
 20
285.6985037321614
 30
0.0
 10
407.5986302485659
 20
285.6599199326075
 30
0.0
 10
407.6146012966376
 20
285.6010118760922
 30
0.0
 10
407.6194676005767
 20
285.5811548626299
 30
0.0
 10
407.6281965626252
 20
285.5413397420303
 30
0.0
 10
407.6320545846037
 20
285.5214163310488
 30
0.0
 10
407.64887127039
 20
285.4217238004969
 30
0.0
 10
407.6544773905083
 20
285.3417320068756
 30
0.0
 10
407.6519065856214
 20
285.2414658737399
 30
0.0
 10
407.6509093204488
 20
285.2213985966372
 30
0.0
 10
407.6479374644028
 20
285.1812355346527
 30
0.0
 10
407.6459560954841
 20
285.161089355052
 30
0.0
 10
407.6385727656244
 20
285.1010192681842
 30
0.0
 10
407.6317559175549
 20
285.0615315223187
 30
0.0
 10
407.6058084110108
 20
284.9446832604018
 30
0.0
 10
407.5812322084828
 20
284.8689241428578
 30
0.0
 10
407.5412398608233
 20
284.7769067293074
 30
0.0
 10
407.5327617070511
 20
284.7586144058906
 30
0.0
 10
407.5149005663138
 20
284.7224087699057
 30
0.0
 10
407.4868856154022
 20
284.6689428821759
 30
0.0
 10
407.4552773996064
 20
284.6179442124662
 30
0.0
 10
407.3873219735058
 20
284.5191771026555
 30
0.0
 10
407.3357502864401
 20
284.4576062065087
 30
0.0
 10
407.2629065122852
 20
284.3862619780351
 30
0.0
 10
407.2479434384538
 20
284.3723091669218
 30
0.0
 10
407.2174994093855
 20
284.345279535477
 30
0.0
 10
407.1709422701085
 20
284.3059421954084
 30
0.0
 10
407.0889424558506
 20
284.2463270667503
 30
0.0
 10
407.0186131587631
 20
284.2049814907213
 30
0.0
 10
406.9640262710858
 20
284.1764271836963
 30
0.0
 10
406.9455234124878
 20
284.1673190046142
 30
0.0
 10
406.9078845500299
 20
284.1499452169103
 30
0.0
 10
406.8887160262774
 20
284.1416699028938
 30
0.0
 10
406.7924378757318
 20
284.1029283100606
 30
0.0
 10
406.7131912327687
 20
284.0798678261436
 30
0.0
 10
406.5909840940088
 20
284.0571055321007
 30
0.0
 10
406.5496883079101
 20
284.0515037717123
 30
0.0
 10
406.4868665966086
 20
284.0462092633753
 30
0.0
 10
406.4658233878123
 20
284.044970938576
 30
0.0
 10
406.4239673154696
 20
284.0435616356011
 30
0.0
 10
406.4030927761997
 20
284.0433849083652
 30
0.0
 10
406.2989831883203
 20
284.0450975812487
 30
0.0
 10
406.2165299382353
 20
284.0546986982685
 30
0.0
 10
406.1145133089963
 20
284.0770843306535
 30
0.0
 10
406.0941030810716
 20
284.0821031359359
 30
0.0
 10
406.0537722091225
 20
284.0931023574608
 30
0.0
 10
406.033840595126
 20
284.0990812252344
 30
0.0
 10
405.9747292967735
 20
284.1184212103406
 30
0.0
 10
405.8977330862143
 20
284.1479421030019
 30
0.0
 10
405.8242705429965
 20
284.1847473778234
 30
0.0
 10
405.7704989812086
 20
284.2150967957992
 30
0.0
 10
405.7527807659305
 20
284.2256816167032
 30
0.0
 10
405.7178576545656
 20
284.2477392879631
 30
0.0
 10
405.7007619034838
 20
284.2591420256568
 30
0.0
 10
405.6170584718073
 20
284.3179763415083
 30
0.0
 10
405.5557238659518
 20
284.3708154814121
 30
0.0
 10
405.4857983365762
 20
284.4438763819351
 30
0.0
 10
405.472153595939
 20
284.4588424861292
 30
0.0
 10
405.4455503459293
 20
284.489490734645
 30
0.0
 10
405.4325721509107
 20
284.5052013060563
 30
0.0
 10
405.3950410320434
 20
284.5529518570443
 30
0.0
 10
405.3717700151675
 20
284.5857346587759
 30
0.0
 10
405.3070146811136
 20
284.6868511681252
 30
0.0
 10
405.2705403009166
 20
284.7579275062422
 30
0.0
 10
405.2334379782633
 20
284.8514902389764
 30
0.0
 10
405.22644155227
 20
284.8704615826745
 30
0.0
 10
405.2134460756296
 20
284.9085017877253
 30
0.0
 10
405.1953960931893
 20
284.9658446942303
 30
0.0
 10
405.1723809383957
 20
285.0628089214774
 30
0.0
 10
405.1614236181034
 20
285.1418616110423
 30
0.0
 10
405.1560488466768
 20
285.2017186760451
 30
0.0
 10
405.1547319478228
 20
285.2217657641698
 30
0.0
 10
405.1530658845044
 20
285.2620532224894
 30
0.0
 10
405.152717982803
 20
285.2823483685323
 30
0.0
 10
405.15344788213
 20
285.3834974864737
 30
0.0
 10
405.1618100908284
 20
285.4633840271609
 30
0.0
 10
405.1858225598564
 20
285.5816696209844
 30
0.0
 10
405.1957512387745
 20
285.6208387447624
 30
0.0
 10
405.2195862009946
 20
285.6986333681328
 30
0.0
 10
405.2335739999882
 20
285.7374088173028
 30
0.0
 10
405.2807458807619
 20
285.8504144129227
 30
0.0
 10
405.3192438920807
 20
285.9220708152329
 30
0.0
 10
405.3875987633957
 20
286.0239521489747
 30
0.0
 10
405.4121633823116
 20
286.0569724394425
 30
0.0
 10
405.4517995810598
 20
286.1050196765163
 30
0.0
 10
405.4654073167338
 20
286.120700035231
 30
0.0
 10
405.4932705083719
 20
286.1512449267966
 30
0.0
 10
405.5075463889012
 20
286.1661343454661
 30
0.0
 10
405.5806264654155
 20
286.2386857530462
 30
0.0
 10
405.6444835925836
 20
286.2907154214166
 30
0.0
 10
405.7485509433761
 20
286.3594595885475
 30
0.0
 10
405.7848056036121
 20
286.3808850662003
 30
0.0
 10
405.8585685016149
 20
286.4196192275433
 30
0.0
 10
405.9338745896868
 20
286.4544714909815
 30
0.0
 10
406.0122106641255
 20
286.4816856067302
 30
0.0
 10
406.0721119888612
 20
286.4991940216032
 30
0.0
 10
406.09227099457
 20
286.504545586882
 30
0.0
 10
406.1329794288774
 20
286.5142621503935
 30
0.0
 10
406.1535766428672
 20
286.5186355295234
 30
0.0
 10
406.2569314301929
 20
286.5378598828672
 30
0.0
 10
406.3404264802001
 20
286.5448380291595
 30
0.0
 10
406.4246469271758
 20
286.5433679557893
 30
0.0
  0
SPLINE
  5
1A6
330
1F
100
AcDbEntity
  8
1
100
AcDbSpline
210
0.0
220
0.0
230
1.0
 70
    12
 71
     2
 72
     6
 73
     3
 74
     0
 42
0.000000001
 43
0.0000000001
 40
0.0
 40
0.0
 40
0.0
 40
1.0
 40
1.0
 40
1.0
 10
400.9612578574454
 20
302.3372701095757
 30
0.0
 41
0.499996869348867
 10
401.0734808898791
 20
302.3370698437854
 30
0.0
 41
0.5000031306511331
 10
401.1857024248288
 20
302.3368690124053
 30
0.0
 41
0.499996869348867
  0
SPLINE
  5
1A7
330
1F
100
AcDbEntity
  8
1
100
AcDbSpline
210
0.0
220
0.0
230
1.0
 70
    28
 71
     4
 72
    10
 73
     5
 74
     0
 42
0.000000001
 43
0.0000000001
 40
0.0
 40
0.0
 40
0.0
 40
0.0
 40
0.0
 40
1.0
 40
1.0
 40
1.0
 40
1.0
 40
1.0
 10
297.9048419452959
 20
275.4358664765788
 30
0.0
 41
1.001498006703475
 10
297.9048419452959
 20
275.4819612436299
 30
0.0
 41
1.001498006703475
 10
297.9048419452959
 20
275.5280560106811
 30
0.0
 41
1.001498006703475
 10
297.9048419452959
 20
275.5741507777323
 30
0.0
 41
1.001498006703475
 10
297.9048419452959
 20
275.6202455447834
 30
0.0
 41
1.001498006703475
  0
SPLINE
  5
1A8
330
1F
100
AcDbEntity
  8
1
100
AcDbSpline
210
0.0
220
0.0
230
1.0
 70
     8
 71
     3
 72
     8
 73
     4
 74
     0
 42
0.000000001
 43
0.0000000001
 40
0.0
 40
0.0
 40
0.0
 40
0.0
 40
1.0
 40
1.0
 40
1.0
 40
1.0
 10
307.9098593920563
 20
275.4255457738349
 30
0.0
 10
308.7872563015614
 20
275.5121311370307
 30
0.0
 10
309.6651711263232
 20
275.6009245477942
 30
0.0
 10
310.5438119548801
 20
275.6912772319885
 30
0.0
  0
SPLINE
  5
1A9
330
1F
100
AcDbEntity
  8
1
100
AcDbSpline
210
0.0
220
0.0
230
1.0
 70
     8
 71
     3
 72
    32
 73
    28
 74
     0
 42
0.000000001
 43
0.0000000001
 40
0.0
 40
0.0
 40
0.0
 40
0.0
 40
0.1249999999999979
 40
0.1249999999999979
 40
0.2499999999999957
 40
0.2499999999999957
 40
0.3749999999999933
 40
0.3749999999999933
 40
0.4374999999999923
 40
0.4374999999999923
 40
0.4531249999999922
 40
0.4531249999999922
 40
0.4687499999999922
 40
0.4687499999999922
 40
0.4999999999999928
 40
0.4999999999999928
 40
0.6249999999999954
 40
0.6249999999999954
 40
0.7499999999999979
 40
0.7499999999999979
 40
0.7812499999999984
 40
0.7812499999999984
 40
0.8124999999999985
 40
0.8124999999999985
 40
0.8749999999999992
 40
0.8749999999999992
 40
1.0
 40
1.0
 40
1.0
 40
1.0
 10
282.8043368819074
 20
283.6120672417176
 30
0.0
 10
283.0708186449451
 20
283.8280203782281
 30
0.0
 10
283.3477522155384
 20
284.0313650273395
 30
0.0
 10
283.9230890294087
 20
284.4126212615037
 30
0.0
 10
284.2214875259084
 20
284.5905400732318
 30
0.0
 10
284.8410156519772
 20
284.9197880839416
 30
0.0
 10
285.1621359732881
 20
285.0711322917666
 30
0.0
 10
285.662487692584
 20
285.2763903646915
 30
0.0
 10
285.8323913564681
 20
285.3411721424683
 30
0.0
 10
286.0489124759886
 20
285.4173062470898
 30
0.0
 10
286.0924239962238
 20
285.4322905825672
 30
0.0
 10
286.1798685936408
 20
285.4617654898579
 30
0.0
 10
286.2237916652314
 20
285.4762520756988
 30
0.0
 10
286.3557926334167
 20
285.5188288572893
 30
0.0
 10
286.4442343469688
 20
285.5460813031949
 30
0.0
 10
286.8886639854107
 20
285.6766163734836
 30
0.0
 10
287.251300871746
 20
285.7627943471342
 30
0.0
 10
287.9913941761121
 20
285.8957626622289
 30
0.0
 10
288.3688514906321
 20
285.9425736258273
 30
0.0
 10
288.8505520681682
 20
285.9732638328878
 30
0.0
 10
288.9473869444863
 20
285.9780041824846
 30
0.0
 10
289.1420647402085
 20
285.9845808393512
 30
0.0
 10
289.2400594886381
 20
285.9864137176269
 30
0.0
 10
289.533512325182
 20
285.9873909533102
 30
0.0
 10
289.7289419342654
 20
285.9820520228188
 30
0.0
 10
290.3144363426303
 20
285.9477078517504
 30
0.0
 10
290.7037198273295
 20
285.900410779757
 30
0.0
 10
291.0913364149451
 20
285.8272553729269
 30
0.0
  0
SPLINE
  5
1AA
330
1F
100
AcDbEntity
  8
1
100
AcDbSpline
210
0.0
220
0.0
230
1.0
 70
     8
 71
     3
 72
    28
 73
    24
 74
     0
 42
0.000000001
 43
0.0000000001
 40
0.0
 40
0.0
 40
0.0
 40
0.0
 40
0.1250000000000512
 40
0.1250000000000512
 40
0.2500000000001025
 40
0.2500000000001025
 40
0.3125000000001283
 40
0.3125000000001283
 40
0.3750000000001542
 40
0.3750000000001542
 40
0.5000000000002056
 40
0.5000000000002056
 40
0.6250000000002569
 40
0.6250000000002569
 40
0.6562500000002442
 40
0.6562500000002442
 40
0.6875000000002314
 40
0.6875000000002314
 40
0.7500000000002062
 40
0.7500000000002062
 40
0.8750000000001028
 40
0.8750000000001028
 40
1.0
 40
1.0
 40
1.0
 40
1.0
 10
404.0052789308132
 20
292.6460303546343
 30
0.0
 10
403.9518465801602
 20
292.6057856187512
 30
0.0
 10
403.8970159587867
 20
292.5684929436071
 30
0.0
 10
403.7844884592718
 20
292.4994851765125
 30
0.0
 10
403.7267932330435
 20
292.4677723360833
 30
0.0
 10
403.6379829665731
 20
292.4243531665851
 30
0.0
 10
403.6079591668928
 20
292.4105560183834
 30
0.0
 10
403.5473088693679
 20
292.3844463303142
 30
0.0
 10
403.5167836782276
 20
292.3721746874353
 30
0.0
 10
403.4245598121814
 20
292.3376687336272
 30
0.0
 10
403.3622164158258
 20
292.3177333301145
 30
0.0
 10
403.2354747041172
 20
292.2840290955795
 30
0.0
 10
403.1710752065405
 20
292.2702596318507
 30
0.0
 10
403.0890194113476
 20
292.2571283170528
 30
0.0
 10
403.0724995132673
 20
292.2547030766997
 30
0.0
 10
403.0394783798526
 20
292.2502946140954
 30
0.0
 10
403.0229790304848
 20
292.2483106052752
 30
0.0
 10
402.9735162647479
 20
292.2430136366769
 30
0.0
 10
402.9405883508256
 20
292.2403555798397
 30
0.0
 10
402.8419519883432
 20
292.2349623421883
 30
0.0
 10
402.7763940852788
 20
292.2348048043078
 30
0.0
 10
402.6456261156137
 20
292.2412260138181
 30
0.0
 10
402.5804142045744
 20
292.247801987067
 30
0.0
 10
402.5153115031369
 20
292.25774578856
 30
0.0
  0
SPLINE
  5
1AB
330
1F
100
AcDbEntity
  8
1
100
AcDbSpline
210
0.0
220
0.0
230
1.0
 70
     8
 71
     3
 72
    26
 73
    22
 74
     0
 42
0.000000001
 43
0.0000000001
 40
0.0
 40
0.0
 40
0.0
 40
0.0
 40
0.1250000000000001
 40
0.2500000000000003
 40
0.3750000000000006
 40
0.3750000000000006
 40
0.4375000000000007
 40
0.4375000000000007
 40
0.4687500000000008
 40
0.4687500000000008
 40
0.5000000000000008
 40
0.5000000000000008
 40
0.6249999999999948
 40
0.7499999999999889
 40
0.7499999999999889
 40
0.7812499999999888
 40
0.7812499999999888
 40
0.8124999999999886
 40
0.8749999999999944
 40
0.8749999999999944
 40
1.0
 40
1.0
 40
1.0
 40
1.0
 10
402.5151378434618
 20
292.0483752987146
 30
0.0
 10
402.2397674535015
 20
292.0362913584877
 30
0.0
 10
401.690434548009
 20
292.0300192226378
 30
0.0
 10
400.870584225816
 20
292.0733144538921
 30
0.0
 10
400.3267705267202
 20
292.1371140696029
 30
0.0
 10
399.9199513141215
 20
292.198154948846
 30
0.0
 10
399.7845185616034
 20
292.2207021583744
 30
0.0
 10
399.5816322932995
 20
292.2578504937222
 30
0.0
 10
399.5140135005436
 20
292.270795135394
 30
0.0
 10
399.3791425017289
 20
292.2977424851725
 30
0.0
 10
399.3118673634859
 20
292.3117488083294
 30
0.0
 10
398.9762905489103
 20
292.3844322664363
 30
0.0
 10
398.4444751846579
 20
292.5176810780086
 30
0.0
 10
397.9228100957802
 20
292.6845250758129
 30
0.0
 10
397.5999630514164
 20
292.799332111576
 30
0.0
 10
397.5355329499923
 20
292.8228286079128
 30
0.0
 10
397.4072197816572
 20
292.870792040194
 30
0.0
 10
397.2154981674228
 20
292.9442176820335
 30
0.0
 10
397.0260119771702
 20
293.0220611102249
 30
0.0
 10
396.6500055736677
 20
293.1835917795473
 30
0.0
 10
396.4032860229492
 20
293.2990652587953
 30
0.0
 10
396.1605184824506
 20
293.4222685477966
 30
0.0
  0
SPLINE
  5
1AC
330
1F
100
AcDbEntity
  8
1
100
AcDbSpline
210
0.0
220
0.0
230
1.0
 70
     8
 71
     3
 72
    28
 73
    24
 74
     0
 42
0.000000001
 43
0.0000000001
 40
0.0
 40
0.0
 40
0.0
 40
0.0
 40
0.124999999999996
 40
0.124999999999996
 40
0.2499999999999921
 40
0.2499999999999921
 40
0.2812499999999924
 40
0.2812499999999924
 40
0.3124999999999927
 40
0.3749999999999934
 40
0.3749999999999934
 40
0.4999999999999948
 40
0.4999999999999948
 40
0.5312499999999952
 40
0.5312499999999952
 40
0.5624999999999955
 40
0.5624999999999955
 40
0.6249999999999961
 40
0.6249999999999961
 40
0.7499999999999974
 40
0.8749999999999985
 40
0.8749999999999985
 40
1.0
 40
1.0
 40
1.0
 40
1.0
 10
395.811267680137
 20
291.1287838940934
 30
0.0
 10
396.064284605035
 20
290.9720421890356
 30
0.0
 10
396.3226858000147
 20
290.8252501843668
 30
0.0
 10
396.8501024876869
 20
290.5515415352576
 30
0.0
 10
397.1191176269641
 20
290.4246238973897
 30
0.0
 10
397.4620204890147
 20
290.278542997524
 30
0.0
 10
397.5309708454088
 20
290.24994080838
 30
0.0
 10
397.669324871997
 20
290.194085679473
 30
0.0
 10
397.8775114819877
 20
290.1123339036173
 30
0.0
 10
398.0876531726509
 20
290.036647406267
 30
0.0
 10
398.5105227860038
 20
289.8933185172793
 30
0.0
 10
398.7958803903579
 20
289.8084802970989
 30
0.0
 10
399.1568709182757
 20
289.7158468086427
 30
0.0
 10
399.2292839962922
 20
289.6979916949429
 30
0.0
 10
399.3745409962874
 20
289.6636287070484
 30
0.0
 10
399.4473989371206
 20
289.6471189474568
 30
0.0
 10
399.6660117728375
 20
289.5997439751382
 30
0.0
 10
399.812004319719
 20
289.5709834506815
 30
0.0
 10
400.2507231530059
 20
289.4930559833562
 30
0.0
 10
400.8376557981923
 20
289.4114051731774
 30
0.0
 10
401.4284790905622
 20
289.3736619165845
 30
0.0
 10
402.0212558526766
 20
289.3579769241468
 30
0.0
 10
402.3186208711988
 20
289.3611624773774
 30
0.0
 10
402.6169858072765
 20
289.3756378411291
 30
0.0
  0
SPLINE
  5
1AD
330
1F
100
AcDbEntity
  8
1
100
AcDbSpline
210
0.0
220
0.0
230
1.0
 70
     8
 71
     3
 72
     8
 73
     4
 74
     0
 42
0.000000001
 43
0.0000000001
 40
0.0
 40
0.0
 40
0.0
 40
0.0
 40
1.0
 40
1.0
 40
1.0
 40
1.0
 10
402.5151378434618
 20
292.0483752987146
 30
0.0
 10
402.5185994405132
 20
292.0485272022358
 30
0.0
 10
402.5220618404437
 20
292.048678651382
 30
0.0
 10
402.5255250443747
 20
292.0488296455181
 30
0.0
  0
SPLINE
  5
1AE
330
1F
100
AcDbEntity
  8
1
100
AcDbSpline
210
0.0
220
0.0
230
1.0
 70
     8
 71
     3
 72
    74
 73
    70
 74
     0
 42
0.000000001
 43
0.0000000001
 40
0.0
 40
0.0
 40
0.0
 40
0.0
 40
0.0624999999999956
 40
0.0624999999999956
 40
0.1249999999999911
 40
0.1249999999999911
 40
0.1874999999999867
 40
0.1874999999999867
 40
0.2187499999999857
 40
0.2187499999999857
 40
0.2499999999999846
 40
0.2499999999999846
 40
0.2812499999999835
 40
0.2812499999999835
 40
0.3124999999999824
 40
0.3124999999999824
 40
0.3281249999999828
 40
0.3281249999999828
 40
0.3437499999999833
 40
0.3437499999999833
 40
0.3749999999999843
 40
0.3749999999999843
 40
0.4062499999999856
 40
0.4062499999999856
 40
0.4374999999999865
 40
0.4374999999999865
 40
0.4531249999999857
 40
0.4531249999999857
 40
0.4687499999999849
 40
0.4687499999999849
 40
0.4999999999999812
 40
0.4999999999999812
 40
0.5078124999999804
 40
0.5078124999999804
 40
0.5156249999999795
 40
0.5312499999999777
 40
0.5312499999999777
 40
0.5624999999999736
 40
0.5624999999999736
 40
0.5703124999999734
 40
0.5703124999999734
 40
0.5781249999999732
 40
0.5937499999999725
 40
0.6093749999999718
 40
0.6093749999999718
 40
0.6171874999999721
 40
0.6171874999999721
 40
0.6249999999999723
 40
0.6249999999999723
 40
0.6562499999999751
 40
0.6562499999999751
 40
0.6874999999999778
 40
0.6874999999999778
 40
0.7187499999999806
 40
0.7187499999999806
 40
0.7499999999999833
 40
0.7499999999999833
 40
0.7812499999999863
 40
0.7812499999999863
 40
0.8124999999999889
 40
0.8124999999999889
 40
0.8749999999999918
 40
0.8749999999999918
 40
0.9374999999999944
 40
0.9374999999999944
 40
0.953124999999996
 40
0.953124999999996
 40
0.9687499999999971
 40
1.0
 40
1.0
 40
1.0
 40
1.0
 10
396.1605184824506
 20
293.4222685477966
 30
0.0
 10
396.3347421365996
 20
293.2965551918903
 30
0.0
 10
396.5081545091064
 20
293.1757325970823
 30
0.0
 10
396.8526203011066
 20
292.9431291583703
 30
0.0
 10
397.023679485577
 20
292.8313504169038
 30
0.0
 10
397.3623371102109
 20
292.6161597556349
 30
0.0
 10
397.5299468922554
 20
292.5127503166977
 30
0.0
 10
397.7774793007744
 20
292.3634004004328
 30
0.0
 10
397.8593208775067
 20
292.3145789030328
 30
0.0
 10
398.0215637458237
 20
292.2187460438749
 30
0.0
 10
398.1019522905937
 20
292.1717368148982
 30
0.0
 10
398.2609307579725
 20
292.0794333083263
 30
0.0
 10
398.3395221762433
 20
292.0341392091715
 30
0.0
 10
398.4944621047317
 20
291.9451553192594
 30
0.0
 10
398.5708130896043
 20
291.9014657931016
 30
0.0
 10
398.6831959868609
 20
291.8370382984692
 30
0.0
 10
398.7203227370469
 20
291.8157325226058
 30
0.0
 10
398.7935037532647
 20
291.7736173479585
 30
0.0
 10
398.8295838372384
 20
291.7527932549624
 30
0.0
 10
398.9361096719226
 20
291.6909967585546
 30
0.0
 10
399.0048562223133
 20
291.6507003430188
 30
0.0
 10
399.1365273438652
 20
291.5717734031487
 30
0.0
 10
399.1994616566282
 20
291.5331427179264
 30
0.0
 10
399.3176411044867
 20
291.4574056637784
 30
0.0
 10
399.3729044021225
 20
291.4202985695686
 30
0.0
 10
399.4478852025109
 20
291.3656797268602
 30
0.0
 10
399.4715939645463
 20
291.3476082499273
 30
0.0
 10
399.5154449386861
 20
291.3121339617287
 30
0.0
 10
399.5356301189604
 20
291.29470335142
 30
0.0
 10
399.5902080085392
 20
291.2433548119287
 30
0.0
 10
399.6186746111348
 20
291.2103692254965
 30
0.0
 10
399.6411499632574
 20
291.1708993797514
 30
0.0
 10
399.6449889529712
 20
291.1630860550371
 30
0.0
 10
399.6512369749587
 20
291.1476818908446
 30
0.0
 10
399.6584162927365
 20
291.1250380860767
 30
0.0
 10
399.6588617345929
 20
291.103800296711
 30
0.0
 10
399.6504481739705
 20
291.0632687308396
 30
0.0
 10
399.6324787427138
 20
291.0388137927044
 30
0.0
 10
399.5936893338153
 20
291.0118681055983
 30
0.0
 10
399.5850973270377
 20
291.0066565754386
 30
0.0
 10
399.5663138606852
 20
290.996638938886
 30
0.0
 10
399.5359310695894
 20
290.9823181213144
 30
0.0
 10
399.474856910424
 20
290.9618795063631
 30
0.0
 10
399.416063801564
 20
290.9490186284175
 30
0.0
 10
399.3686545989639
 20
290.9406339467937
 30
0.0
 10
399.3522986944936
 20
290.9380493454138
 30
0.0
 10
399.318544522905
 20
290.9332943264333
 30
0.0
 10
399.3011139826084
 20
290.9311206487426
 30
0.0
 10
399.2119754835513
 20
290.9213229468192
 30
0.0
 10
399.1344421971872
 20
290.916874527698
 30
0.0
 10
398.9706184302268
 20
290.9138141208098
 30
0.0
 10
398.8843042662725
 20
290.9152104894227
 30
0.0
 10
398.7052587661559
 20
290.9233214756373
 30
0.0
 10
398.6125147898084
 20
290.9300401748806
 30
0.0
 10
398.4222007470295
 20
290.9484973493841
 30
0.0
 10
398.3254113145412
 20
290.9601601951501
 30
0.0
 10
398.1297459486362
 20
290.9879734084944
 30
0.0
 10
398.0308326910325
 20
291.0041291780526
 30
0.0
 10
397.8315164148019
 20
291.0407139416567
 30
0.0
 10
397.7311105035611
 20
291.0611441419098
 30
0.0
 10
397.4283663312879
 20
291.1286395324599
 30
0.0
 10
397.2245389095344
 20
291.1818900504779
 30
0.0
 10
396.8153453476606
 20
291.3044329904681
 30
0.0
 10
396.6099368706393
 20
291.3737504175048
 30
0.0
 10
396.3531524552076
 20
291.4704499636299
 30
0.0
 10
396.3018083203957
 20
291.4902855394434
 30
0.0
 10
396.1993114000261
 20
291.5308903719433
 30
0.0
 10
396.0457905018323
 20
291.5932217129745
 30
0.0
 10
395.8930031303338
 20
291.659824900758
 30
0.0
 10
395.7915140680707
 20
291.7061374193341
 30
0.0
  0
SPLINE
  5
1AF
330
1F
100
AcDbEntity
  8
1
100
AcDbSpline
210
0.0
220
0.0
230
1.0
 70
     8
 71
     3
 72
    22
 73
    18
 74
     0
 42
0.000000001
 43
0.0000000001
 40
0.0
 40
0.0
 40
0.0
 40
0.0
 40
0.2500000000000005
 40
0.2500000000000005
 40
0.500000000000001
 40
0.500000000000001
 40
0.6250000000000011
 40
0.6250000000000011
 40
0.7500000000000013
 40
0.7500000000000013
 40
0.8125000000000015
 40
0.8125000000000015
 40
0.8437500000000012
 40
0.8437500000000012
 40
0.875000000000001
 40
0.875000000000001
 40
1.0
 40
1.0
 40
1.0
 40
1.0
 10
282.8043368819074
 20
283.6120672417176
 30
0.0
 10
282.5005854814177
 20
283.365911306289
 30
0.0
 10
282.2012106192744
 20
283.1082880944149
 30
0.0
 10
281.6120305404997
 20
282.5665556005032
 30
0.0
 10
281.3222204381741
 20
282.2824693036762
 30
0.0
 10
280.8953983755098
 20
281.8330069822144
 30
0.0
 10
280.7544413889848
 20
281.6792869325728
 30
0.0
 10
280.4753124684999
 20
281.3632829678392
 30
0.0
 10
280.3371400056876
 20
281.201001489483
 30
0.0
 10
280.1321093780971
 20
280.9504419981225
 30
0.0
 10
280.0641375046006
 20
280.8657309141983
 30
0.0
 10
279.9627583700172
 20
280.7367688465345
 30
0.0
 10
279.9290546024502
 20
280.6934555045231
 30
0.0
 10
279.8620022103908
 20
280.6063844797605
 30
0.0
 10
279.8286344612601
 20
280.5626027210577
 30
0.0
 10
279.6626000923047
 20
280.3424366748968
 30
0.0
 10
279.5323421217616
 20
280.1622892539272
 30
0.0
 10
279.4048419452957
 20
279.977730713084
 30
0.0
  0
SPLINE
  5
1B0
330
1F
100
AcDbEntity
  8
1
100
AcDbSpline
210
0.0
220
0.0
230
1.0
 70
     8
 71
     3
 72
    18
 73
    14
 74
     0
 42
0.000000001
 43
0.0000000001
 40
0.0
 40
0.0
 40
0.0
 40
0.0
 40
0.2499999999999587
 40
0.2499999999999587
 40
0.4999999999999174
 40
0.4999999999999174
 40
0.7499999999998761
 40
0.7499999999998761
 40
0.812499999999907
 40
0.812499999999907
 40
0.874999999999938
 40
0.874999999999938
 40
1.0
 40
1.0
 40
1.0
 40
1.0
 10
402.5153115031389
 20
292.2577457885598
 30
0.0
 10
402.4427270065253
 20
292.2688323611575
 30
0.0
 10
402.3716277823413
 20
292.2838559888879
 30
0.0
 10
402.2318133783485
 20
292.321352803929
 30
0.0
 10
402.1631011424203
 20
292.3438280876758
 30
0.0
 10
402.0276653949635
 20
292.3962567095732
 30
0.0
 10
401.9609456309238
 20
292.4262075400871
 30
0.0
 10
401.8785959340496
 20
292.4686142962622
 30
0.0
 10
401.8621774143336
 20
292.4773471943043
 30
0.0
 10
401.8296648625756
 20
292.4951969199313
 30
0.0
 10
401.8135430086405
 20
292.5043277547638
 30
0.0
 10
401.7655771546533
 20
292.532331290811
 30
0.0
 10
401.7341326172951
 20
292.5518147070065
 30
0.0
 10
401.7032144775437
 20
292.5720985054022
 30
0.0
  0
SPLINE
  5
1B1
330
1F
100
AcDbEntity
  8
1
100
AcDbSpline
210
0.0
220
0.0
230
1.0
 70
     8
 71
     3
 72
    10
 73
     6
 74
     0
 42
0.000000001
 43
0.0000000001
 40
0.0
 40
0.0
 40
0.0
 40
0.0
 40
0.5
 40
0.5
 40
1.0
 40
1.0
 40
1.0
 40
1.0
 10
399.9519943587564
 20
299.1082719493409
 30
0.0
 10
399.6967392161701
 20
299.6281585595781
 30
0.0
 10
399.4595794694156
 20
300.1555403968236
 30
0.0
 10
399.0157293725117
 20
301.2229246874353
 30
0.0
 10
398.8090445268135
 20
301.7629294207802
 30
0.0
 10
398.6152147692654
 20
302.308258812662
 30
0.0
  0
SPLINE
  5
1B2
330
1F
100
AcDbEntity
  8
1
100
AcDbSpline
210
0.0
220
0.0
230
1.0
 70
     8
 71
     3
 72
    42
 73
    38
 74
     0
 42
0.000000001
 43
0.0000000001
 40
0.0
 40
0.0
 40
0.0
 40
0.0
 40
0.059980806720372
 40
0.059980806720372
 40
0.1199616134407439
 40
0.1199616134407439
 40
0.1799424201611159
 40
0.1799424201611159
 40
0.2099328235213023
 40
0.2099328235213023
 40
0.2399232268814886
 40
0.2399232268814886
 40
0.2999040336018606
 40
0.2999040336018606
 40
0.3598848403222327
 40
0.3598848403222327
 40
0.4198656470426047
 40
0.4198656470426047
 40
0.4498560504027906
 40
0.4498560504027906
 40
0.4798464537629766
 40
0.4798464537629766
 40
0.5998080672037198
 40
0.5998080672037198
 40
0.7197696806444629
 40
0.7197696806444629
 40
0.779750487364835
 40
0.779750487364835
 40
0.8397312940852069
 40
0.8397312940852069
 40
0.8997121008055792
 40
0.8997121008055792
 40
0.9297025041657644
 40
0.9297025041657644
 40
0.9596929075259501
 40
0.9596929075259501
 40
1.0
 40
1.0
 40
1.0
 40
1.0
 10
398.6152147692655
 20
302.308258812662
 30
0.0
 10
397.604230512743
 20
302.3416208578996
 30
0.0
 10
396.59074556979
 20
302.365332387716
 30
0.0
 10
394.5582176083032
 20
302.3971438811626
 30
0.0
 10
393.5391769642042
 20
302.4052624878174
 30
0.0
 10
391.4955052178055
 20
302.409552131692
 30
0.0
 10
390.470876746949
 20
302.4057351921835
 30
0.0
 10
388.9300503706594
 20
302.3933964877331
 30
0.0
 10
388.4157975223002
 20
302.3881761303358
 30
0.0
 10
387.3860898286941
 20
302.375836546359
 30
0.0
 10
386.8708311613117
 20
302.3687198342939
 30
0.0
 10
385.324057313827
 20
302.344926627226
 30
0.0
 10
384.2914867268019
 20
302.3258372961801
 30
0.0
 10
382.2242491933025
 20
302.2825922788858
 30
0.0
 10
381.1895838401678
 20
302.2584365938481
 30
0.0
 10
379.1190050878693
 20
302.2054639608926
 30
0.0
 10
378.0830930584782
 20
302.1766468526212
 30
0.0
 10
376.5290155683067
 20
302.1294958789077
 30
0.0
 10
376.0109632720649
 20
302.1131068964489
 30
0.0
 10
374.9748737774707
 20
302.0789020361243
 30
0.0
 10
374.4568290829353
 20
302.0610948389912
 30
0.0
 10
371.8666277371682
 20
301.9684877642352
 30
0.0
 10
369.7947854732133
 20
301.8830187514264
 30
0.0
 10
365.6524087808592
 20
301.6874216345964
 30
0.0
 10
363.5818476490024
 20
301.5772747909749
 30
0.0
 10
360.4771150358112
 20
301.3917407970081
 30
0.0
 10
359.4423255583973
 20
301.3265054659239
 30
0.0
 10
357.3734887945624
 20
301.1889237399316
 30
0.0
 10
356.3394470780496
 20
301.1165821269661
 30
0.0
 10
354.2721905674813
 20
300.9643079774282
 30
0.0
 10
353.2389742602526
 20
300.8843815920532
 30
0.0
 10
351.6898785970091
 20
300.7582272809863
 30
0.0
 10
351.1736355652415
 20
300.715128938758
 30
0.0
 10
350.1414230938422
 20
300.6266980587154
 30
0.0
 10
349.6254557347747
 20
300.5813591774526
 30
0.0
 10
348.4163375830854
 20
300.4724181524747
 30
0.0
 10
347.7232938775808
 20
300.4078955178385
 30
0.0
 10
347.0304671011219
 20
300.3413012543123
 30
0.0
  0
SPLINE
  5
1B3
330
1F
100
AcDbEntity
  8
1
100
AcDbSpline
210
0.0
220
0.0
230
1.0
 70
    28
 71
     4
 72
    13
 73
     8
 74
     0
 42
0.000000001
 43
0.0000000001
 40
0.0
 40
0.0
 40
0.0
 40
0.0
 40
0.0
 40
0.2205008482044809
 40
0.2205008482044809
 40
0.2205008482044809
 40
1.0
 40
1.0
 40
1.0
 40
1.0
 40
1.0
 10
297.9048419452959
 20
284.1306455447718
 30
0.0
 41
0.9985390819907934
 10
297.9048419452957
 20
283.6635051492874
 30
0.0
 41
0.9994349599205557
 10
297.9048419452957
 20
283.1782654608355
 30
0.0
 41
1.000539063294005
 10
297.9048419452959
 20
282.6856045599569
 30
0.0
 41
1.001498006703475
 10
297.9048419452959
 20
280.4746803225134
 30
0.0
 41
1.001498006703475
 10
297.9048419452959
 20
278.4512071659785
 30
0.0
 41
0.9895139530756711
 10
297.9048419452959
 20
276.7451238617348
 30
0.0
 41
1.001498006703475
 10
297.9048419452959
 20
275.6202455447834
 30
0.0
 41
1.001498006703475
  0
SPLINE
  5
1B4
330
1F
100
AcDbEntity
  8
1
100
AcDbSpline
210
0.0
220
0.0
230
1.0
 70
     8
 71
     3
 72
    54
 73
    50
 74
     0
 42
0.000000001
 43
0.0000000001
 40
0.0
 40
0.0
 40
0.0
 40
0.0
 40
0.0624999999999992
 40
0.0624999999999992
 40
0.1249999999999985
 40
0.1249999999999985
 40
0.1562499999999982
 40
0.1562499999999982
 40
0.1874999999999979
 40
0.1874999999999979
 40
0.2499999999999972
 40
0.2499999999999972
 40
0.3124999999999964
 40
0.3124999999999964
 40
0.3749999999999956
 40
0.3749999999999956
 40
0.4062499999999954
 40
0.4062499999999954
 40
0.4218749999999952
 40
0.4218749999999952
 40
0.4374999999999952
 40
0.4374999999999952
 40
0.4687499999999953
 40
0.4687499999999953
 40
0.4999999999999954
 40
0.4999999999999954
 40
0.5312499999999957
 40
0.5312499999999957
 40
0.5468749999999958
 40
0.5468749999999958
 40
0.5624999999999958
 40
0.5624999999999958
 40
0.593749999999996
 40
0.593749999999996
 40
0.6249999999999961
 40
0.6249999999999961
 40
0.6874999999999965
 40
0.6874999999999965
 40
0.7499999999999968
 40
0.7499999999999968
 40
0.7812499999999973
 40
0.7812499999999973
 40
0.8124999999999976
 40
0.8124999999999976
 40
0.8749999999999984
 40
0.8749999999999984
 40
0.9374999999999992
 40
0.9374999999999992
 40
1.0
 40
1.0
 40
1.0
 40
1.0
 10
299.587061833987
 20
283.6688572865502
 30
0.0
 10
301.5043381021998
 20
283.3892735028952
 30
0.0
 10
303.4211321696799
 20
283.1116057247862
 30
0.0
 10
307.2535330541392
 20
282.559391188648
 30
0.0
 10
309.1691379637517
 20
282.2848296622451
 30
0.0
 10
312.0414203931091
 20
281.8746887714971
 30
0.0
 10
312.9987078265894
 20
281.7382523491072
 30
0.0
 10
314.9126446075584
 20
281.4659068974799
 30
0.0
 10
315.8692040022963
 20
281.3300099101886
 30
0.0
 10
318.7375584302121
 20
280.9231126034591
 30
0.0
 10
320.6480245726598
 20
280.652858211977
 30
0.0
 10
324.4649677498415
 20
280.1150974598787
 30
0.0
 10
326.3714380955998
 20
279.8475696805388
 30
0.0
 10
330.1801744655777
 20
279.3177344154309
 30
0.0
 10
332.0824331592497
 20
279.055414732921
 30
0.0
 10
334.9328501175656
 20
278.6694495696218
 30
0.0
 10
335.8824982204601
 20
278.5420663373403
 30
0.0
 10
337.3063033535395
 20
278.3535241976134
 30
0.0
 10
337.7807880137329
 20
278.291080268733
 30
0.0
 10
338.7295860359346
 20
278.1672665573216
 30
0.0
 10
339.2039080868692
 20
278.1059255818702
 30
0.0
 10
340.6268330908696
 20
277.9242587161463
 30
0.0
 10
341.5754012545682
 20
277.8063252094865
 30
0.0
 10
343.4733074715959
 20
277.5794308917487
 30
0.0
 10
344.4227481420402
 20
277.4704539090022
 30
0.0
 10
346.3222052212163
 20
277.263081844454
 30
0.0
 10
347.2722907426681
 20
277.1646678388457
 30
0.0
 10
348.6983409990084
 20
277.0254366451275
 30
0.0
 10
349.1738437925232
 20
276.980418660727
 30
0.0
 10
350.1252106333458
 20
276.8931912382801
 30
0.0
 10
350.6010796770506
 20
276.850994272476
 30
0.0
 10
352.0292658180423
 20
276.7285068237806
 30
0.0
 10
352.9821313445984
 20
276.65222994943
 30
0.0
 10
354.8891074714029
 20
276.5089391340169
 30
0.0
 10
355.8432194450649
 20
276.4419329256041
 30
0.0
 10
358.707221054935
 20
276.2532702449558
 30
0.0
 10
360.6187667583216
 20
276.1439179517261
 30
0.0
 10
364.4457896770384
 20
275.9524420257087
 30
0.0
 10
366.361288841607
 20
275.8703694467637
 30
0.0
 10
369.237196036661
 20
275.7644840376161
 30
0.0
 10
370.1962730138181
 20
275.7320643055749
 30
0.0
 10
372.1152289766834
 20
275.6724938998761
 30
0.0
 10
373.0751605068555
 20
275.6453413439689
 30
0.0
 10
375.9554181438058
 20
275.5711670375942
 30
0.0
 10
377.8763175735524
 20
275.5313801157281
 30
0.0
 10
381.7191416771635
 20
275.4686866165717
 30
0.0
 10
383.6410770118453
 20
275.4457941962445
 30
0.0
 10
387.4855705070465
 20
275.4154518156022
 30
0.0
 10
389.4081286863149
 20
275.4079935137005
 30
0.0
 10
391.3307109891139
 20
275.4079935137005
 30
0.0
  0
SPLINE
  5
1B5
330
1F
100
AcDbEntity
  8
1
100
AcDbSpline
210
0.0
220
0.0
230
1.0
 70
     8
 71
     3
 72
    60
 73
    56
 74
     0
 42
0.000000001
 43
0.0000000001
 40
0.0
 40
0.0
 40
0.0
 40
0.0
 40
0.053270437999675
 40
0.053270437999675
 40
0.0870822080711142
 40
0.0870822080711142
 40
0.1208939781425535
 40
0.1208939781425535
 40
0.188517518285432
 40
0.188517518285432
 40
0.2561410584283105
 40
0.2561410584283105
 40
0.3237645985711889
 40
0.3237645985711889
 40
0.3575763686426282
 40
0.3575763686426282
 40
0.3744822536783478
 40
0.3744822536783478
 40
0.3913881387140676
 40
0.3913881387140676
 40
0.4251999087855084
 40
0.4251999087855084
 40
0.459011678856949
 40
0.459011678856949
 40
0.4928234489283897
 40
0.4928234489283897
 40
0.5266352189998304
 40
0.5266352189998304
 40
0.5604469890712711
 40
0.5604469890712711
 40
0.5942587591427118
 40
0.5942587591427118
 40
0.6280705292141526
 40
0.6280705292141526
 40
0.6618822992855932
 40
0.6618822992855932
 40
0.6956940693570339
 40
0.6956940693570339
 40
0.7295058394284745
 40
0.7295058394284745
 40
0.7633176094999153
 40
0.7633176094999153
 40
0.7971293795713559
 40
0.7971293795713559
 40
0.8309411496427966
 40
0.8309411496427966
 40
0.8647529197142372
 40
0.8647529197142372
 40
0.898564689785678
 40
0.898564689785678
 40
0.9323764598571187
 40
0.9323764598571187
 40
0.9661882299285593
 40
0.9661882299285593
 40
1.0
 40
1.0
 40
1.0
 40
1.0
 10
305.0017482800503
 20
302.4079894383942
 30
0.0
 10
306.5369648087084
 20
302.4080718777323
 30
0.0
 10
308.070954708977
 20
302.4017257610732
 30
0.0
 10
310.5769605218039
 20
302.378858708821
 30
0.0
 10
311.5495965971907
 20
302.366907212205
 30
0.0
 10
313.4937150445467
 20
302.3363647211332
 30
0.0
 10
314.4652580062692
 20
302.3177726016697
 30
0.0
 10
317.3785887047309
 20
302.2514518775563
 30
0.0
 10
319.3190714796005
 20
302.1931051563211
 30
0.0
 10
323.1981185122879
 20
302.0466539014768
 30
0.0
 10
325.1366915756894
 20
301.9585513747673
 30
0.0
 10
329.0135976107887
 20
301.7534199708659
 30
0.0
 10
330.9519400442726
 20
301.6364169975007
 30
0.0
 10
333.8603996942899
 20
301.4412979542867
 30
0.0
 10
334.8300415655758
 20
301.3730015600494
 30
0.0
 10
336.2848487521978
 20
301.2660017929629
 30
0.0
 10
336.7698434437202
 20
301.2295761374815
 30
0.0
 10
337.7398565566724
 20
301.1552725936875
 30
0.0
 10
338.2248924728902
 20
301.1174037106084
 30
0.0
 10
339.6800437751417
 20
301.0015710679074
 30
0.0
 10
340.6501905738814
 20
300.9213590539421
 30
0.0
 10
342.5903462756007
 20
300.7544063910638
 30
0.0
 10
343.5603554181038
 20
300.6676618257077
 30
0.0
 10
345.5001518347832
 20
300.4873090019819
 30
0.0
 10
346.4699397929573
 20
300.3936985442892
 30
0.0
 10
348.4093420971342
 20
300.1995953846836
 30
0.0
 10
349.378993049793
 20
300.0990984669488
 30
0.0
 10
351.3180038898864
 20
299.8915878543279
 30
0.0
 10
352.2873872767865
 20
299.7845826766846
 30
0.0
 10
354.2261849452328
 20
299.5649202762382
 30
0.0
 10
355.1955988493509
 20
299.4522644424615
 30
0.0
 10
357.1346402317319
 20
299.2219813579368
 30
0.0
 10
358.1042671285616
 20
299.1043542182601
 30
0.0
 10
360.0438418511502
 20
298.8646211775265
 30
0.0
 10
361.0137976620351
 20
298.7425140870718
 30
0.0
 10
362.9540439291313
 20
298.4941329738438
 30
0.0
 10
363.9242382262249
 20
298.3678712186872
 30
0.0
 10
365.8647765231652
 20
298.1113328867078
 30
0.0
 10
366.8351203479856
 20
297.9810564826333
 30
0.0
 10
368.7759258699955
 20
297.7164327205534
 30
0.0
 10
369.7463874946131
 20
297.5820858594311
 30
0.0
 10
371.6873618078254
 20
297.3090716991815
 30
0.0
 10
372.6578745006802
 20
297.1704052405112
 30
0.0
 10
374.5988500798436
 20
296.8882890065454
 30
0.0
 10
375.5693189516161
 20
296.7448440719568
 30
0.0
 10
377.5097470722999
 20
296.4524939693821
 30
0.0
 10
378.4797262687691
 20
296.3035041556219
 30
0.0
 10
380.4189228025307
 20
295.9984325329267
 30
0.0
 10
381.3881385951378
 20
295.8423403062502
 30
0.0
 10
383.3257216733784
 20
295.5224057937199
 30
0.0
 10
384.2940867106523
 20
295.3585484371314
 30
0.0
 10
386.2301467836635
 20
295.0236271764419
 30
0.0
 10
387.1978395590572
 20
294.8525461898097
 30
0.0
 10
389.1330692510401
 20
294.5054168393614
 30
0.0
 10
390.1004930767266
 20
294.3293726016174
 30
0.0
 10
391.0681357077042
 20
294.1530950553055
 30
0.0
  0
SPLINE
  5
1B6
330
1F
100
AcDbEntity
  8
1
100
AcDbSpline
210
0.0
220
0.0
230
1.0
 70
     8
 71
     3
 72
    57
 73
    53
 74
     0
 42
0.000000001
 43
0.0000000001
 40
0.0
 40
0.0
 40
0.0
 40
0.0
 40
0.0624999999999999
 40
0.0624999999999999
 40
0.0937500000000025
 40
0.0937500000000025
 40
0.1250000000000052
 40
0.1250000000000052
 40
0.25000000000001
 40
0.25000000000001
 40
0.3125000000000099
 40
0.3125000000000099
 40
0.3750000000000098
 40
0.3750000000000098
 40
0.4375000000000097
 40
0.4375000000000097
 40
0.5000000000000096
 40
0.5000000000000096
 40
0.5625000000000095
 40
0.5625000000000095
 40
0.6250000000000094
 40
0.6250000000000094
 40
0.6406250000000084
 40
0.6406250000000084
 40
0.6562500000000072
 40
0.6562500000000072
 40
0.6875000000000057
 40
0.6875000000000057
 40
0.718750000000004
 40
0.718750000000004
 40
0.7500000000000025
 40
0.7500000000000025
 40
0.7656250000000014
 40
0.7656250000000014
 40
0.7812500000000001
 40
0.7812500000000001
 40
0.8124999999999985
 40
0.8124999999999985
 40
0.8437499999999969
 40
0.8437499999999969
 40
0.8515624999999966
 40
0.8515624999999966
 40
0.8593749999999962
 40
0.8749999999999953
 40
0.9062499999999939
 40
0.9062499999999939
 40
0.9218749999999932
 40
0.9296874999999927
 40
0.9296874999999927
 40
0.9374999999999925
 40
0.9374999999999925
 40
1.0
 40
1.0
 40
1.0
 40
1.0
 10
395.2046202461657
 20
294.6024713051332
 30
0.0
 10
395.3510208701164
 20
294.6459977367137
 30
0.0
 10
395.4969551057591
 20
294.6912134230228
 30
0.0
 10
395.7150821409027
 20
294.7618415272641
 30
0.0
 10
395.78766196596
 20
294.7858521417195
 30
0.0
 10
395.932548950465
 20
294.8348609632918
 30
0.0
 10
396.004860510849
 20
294.8598612742933
 30
0.0
 10
396.3651084217391
 20
294.9872604589178
 30
0.0
 10
396.6496011350803
 20
295.0969453271642
 30
0.0
 10
397.0694123473816
 20
295.2759907098021
 30
0.0
 10
397.2081895410124
 20
295.3381031528632
 30
0.0
 10
397.4831052224851
 20
295.4678577343178
 30
0.0
 10
397.6192450098242
 20
295.5354971494735
 30
0.0
 10
397.8884723979133
 20
295.6771721691621
 30
0.0
 10
398.0215622684858
 20
295.7512030170346
 30
0.0
 10
398.2841288807448
 20
295.906836417826
 30
0.0
 10
398.4136395977607
 20
295.9884501095998
 30
0.0
 10
398.6681260396963
 20
296.1608477896283
 30
0.0
 10
398.7921894362066
 20
296.2510081765497
 30
0.0
 10
399.032584770267
 20
296.4409610976195
 30
0.0
 10
399.1489325473648
 20
296.5407338982538
 30
0.0
 10
399.2882243450234
 20
296.6731029883173
 30
0.0
 10
399.3157718822682
 20
296.6999636952649
 30
0.0
 10
399.3699823286761
 20
296.7542854021687
 30
0.0
 10
399.3966730415785
 20
296.7817723353085
 30
0.0
 10
399.4754300513331
 20
296.865267697287
 30
0.0
 10
399.5261850062168
 20
296.9223077096071
 30
0.0
 10
399.6237350332967
 20
297.0395028252495
 30
0.0
 10
399.6705318974839
 20
297.0996565188801
 30
0.0
 10
399.7595657676122
 20
297.2235509753846
 30
0.0
 10
399.8018057561131
 20
297.2872893919904
 30
0.0
 10
399.8611376672814
 20
297.3860657495455
 30
0.0
 10
399.8802782093568
 20
297.4195895236858
 30
0.0
 10
399.9169058560624
 20
297.4874693147352
 30
0.0
 10
399.9343492185458
 20
297.5217367941338
 30
0.0
 10
399.9839224821601
 20
297.6255767184058
 30
0.0
 10
400.0133038480788
 20
297.6961835300658
 30
0.0
 10
400.0637835685088
 20
297.8405143308025
 30
0.0
 10
400.0848857834181
 20
297.9142368670809
 30
0.0
 10
400.1053036607922
 20
298.0086329461414
 30
0.0
 10
400.1090901793855
 20
298.0276421186395
 30
0.0
 10
400.1159931726446
 20
298.0655997082231
 30
0.0
 10
400.1253665448937
 20
298.1225468110316
 30
0.0
 10
400.140339371252
 20
298.2554987470551
 30
0.0
 10
400.1412310723667
 20
298.3695880139765
 30
0.0
 10
400.1339422198628
 20
298.4837666511349
 30
0.0
 10
400.1282515442298
 20
298.5408783244107
 30
0.0
 10
400.1194401454914
 20
298.5980240907045
 30
0.0
 10
400.11286596899
 20
298.6361289145602
 30
0.0
 10
400.1092259569778
 20
298.6551912668072
 30
0.0
 10
400.0736043528684
 20
298.8254168706761
 30
0.0
 10
400.0213323458718
 20
298.9697386137097
 30
0.0
 10
399.9519943587564
 20
299.1082719493409
 30
0.0
  0
SPLINE
  5
1B7
330
1F
100
AcDbEntity
  8
1
100
AcDbSpline
210
0.0
220
0.0
230
1.0
 70
    12
 71
     3
 72
     9
 73
     5
 74
     0
 42
0.000000001
 43
0.0000000001
 40
0.0
 40
0.0
 40
0.0
 40
0.0
 40
0.3735672068265692
 40
1.0
 40
1.0
 40
1.0
 40
1.0
 10
362.0622363349045
 20
298.6146771810643
 30
0.0
 41
1.00286721726159
 10
366.7983884305241
 20
298.6303823089368
 30
0.0
 41
1.001675730648797
 10
379.5014120141362
 20
298.3450967453459
 30
0.0
 41
0.9988229834498996
 10
392.0704195480809
 20
298.104885025746
 30
0.0
 41
1.003729170819262
 10
399.9519943587576
 20
299.108271949341
 30
0.0
 41
1.002015122774526
  0
SPLINE
  5
1B8
330
1F
100
AcDbEntity
  8
1
100
AcDbSpline
210
0.0
220
0.0
230
1.0
 70
     8
 71
     3
 72
    20
 73
    16
 74
     0
 42
0.000000001
 43
0.0000000001
 40
0.0
 40
0.0
 40
0.0
 40
0.0
 40
0.1250000000000001
 40
0.1250000000000001
 40
0.2500000000000002
 40
0.2500000000000002
 40
0.3750000000000002
 40
0.3750000000000002
 40
0.5000000000000004
 40
0.5000000000000004
 40
0.75
 40
0.75
 40
0.875
 40
0.875
 40
1.0
 40
1.0
 40
1.0
 40
1.0
 10
279.4048419452957
 20
272.4454214466736
 30
0.0
 10
279.535408107556
 20
272.4553308783569
 30
0.0
 10
279.6680012096385
 20
272.4725542984101
 30
0.0
 10
279.9366703780572
 20
272.5192723297332
 30
0.0
 10
280.072748102453
 20
272.5487744056661
 30
0.0
 10
280.3479081037663
 20
272.6182145150574
 30
0.0
 10
280.4869913503198
 20
272.6581569051573
 30
0.0
 10
280.7677331651795
 20
272.7469691738074
 30
0.0
 10
280.9093923026861
 20
272.7958416633795
 30
0.0
 10
281.3376294162044
 20
272.953927787207
 30
0.0
 10
281.62746386215
 20
273.0745486070775
 30
0.0
 10
282.0664265395373
 20
273.2720247391703
 30
0.0
 10
282.2134640793913
 20
273.3406310799205
 30
0.0
 10
282.5085161419656
 20
273.4824967771642
 30
0.0
 10
282.6563460134524
 20
273.5556662960856
 30
0.0
 10
282.8043368819074
 20
273.6306985967011
 30
0.0
  0
SPLINE
  5
1B9
330
1F
100
AcDbEntity
  8
1
100
AcDbSpline
210
0.0
220
0.0
230
1.0
 70
     8
 71
     3
 72
    14
 73
    10
 74
     0
 42
0.000000001
 43
0.0000000001
 40
0.0
 40
0.0
 40
0.0
 40
0.0
 40
0.2500000000000001
 40
0.2500000000000001
 40
0.5000000000000002
 40
0.5000000000000002
 40
0.7500000000000004
 40
0.7500000000000004
 40
1.0
 40
1.0
 40
1.0
 40
1.0
 10
286.8288200613578
 20
275.0801056557493
 30
0.0
 10
286.4527337670356
 20
274.9902287450816
 30
0.0
 10
286.0867851167779
 20
274.8916659049551
 30
0.0
 10
285.3749428196745
 20
274.6788249788291
 30
0.0
 10
285.0290541031106
 20
274.5645430245849
 30
0.0
 10
284.3576366146437
 20
274.3215104792819
 30
0.0
 10
284.0321094088698
 20
274.1927579748346
 30
0.0
 10
283.4021337087713
 20
273.9217169379762
 30
0.0
 10
283.0976843321153
 20
273.7794275980145
 30
0.0
 10
282.8043368819074
 20
273.6306985967011
 30
0.0
  0
SPLINE
  5
1BA
330
1F
100
AcDbEntity
  8
1
100
AcDbSpline
210
0.0
220
0.0
230
1.0
 70
     8
 71
     3
 72
    53
 73
    49
 74
     0
 42
0.000000001
 43
0.0000000001
 40
0.0
 40
0.0
 40
0.0
 40
0.0
 40
0.0625000000000003
 40
0.0625000000000003
 40
0.1250000000000006
 40
0.1250000000000006
 40
0.1875000000000009
 40
0.1875000000000009
 40
0.2031250000000007
 40
0.2031250000000007
 40
0.2187500000000006
 40
0.2187500000000006
 40
0.2500000000000006
 40
0.2500000000000006
 40
0.3125000000000008
 40
0.3125000000000008
 40
0.3750000000000011
 40
0.3750000000000011
 40
0.4062500000000009
 40
0.4062500000000009
 40
0.4218750000000007
 40
0.4218750000000007
 40
0.4375000000000004
 40
0.4375000000000004
 40
0.5000000000000005
 40
0.5000000000000005
 40
0.5625000000000006
 40
0.6250000000000006
 40
0.6250000000000006
 40
0.6406250000000007
 40
0.6406250000000007
 40
0.6562500000000008
 40
0.6562500000000008
 40
0.687500000000001
 40
0.687500000000001
 40
0.7500000000000022
 40
0.7500000000000022
 40
0.8125000000000031
 40
0.8125000000000031
 40
0.8437500000000033
 40
0.8437500000000033
 40
0.8593750000000033
 40
0.8593750000000033
 40
0.8750000000000031
 40
0.8750000000000031
 40
0.9375000000000015
 40
0.9375000000000015
 40
1.0
 40
1.0
 40
1.0
 40
1.0
 10
279.4048419452957
 20
279.977730713084
 30
0.0
 10
279.2487037369291
 20
279.8304200071263
 30
0.0
 10
279.1011939819339
 20
279.6785871049872
 30
0.0
 10
278.8230073992392
 20
279.3665334524155
 30
0.0
 10
278.6923312791018
 20
279.2063115785862
 30
0.0
 10
278.4478686170929
 20
278.8778619421713
 30
0.0
 10
278.3340804949204
 20
278.7096342824939
 30
0.0
 10
278.2027414102933
 20
278.4944255520641
 30
0.0
 10
278.1770196827136
 20
278.4511369565014
 30
0.0
 10
278.1266823192269
 20
278.3640654190501
 30
0.0
 10
278.1020520087222
 20
278.320255555204
 30
0.0
 10
278.0299387445677
 20
278.1882544685037
 30
0.0
 10
277.984517352798
 20
278.1000204088716
 30
0.0
 10
277.8560886752074
 20
277.834700304615
 30
0.0
 10
277.7808987753037
 20
277.6570002193444
 30
0.0
 10
277.6511540550918
 20
277.300294812408
 30
0.0
 10
277.5965987977091
 20
277.1212890415977
 30
0.0
 10
277.5305153928942
 20
276.8519619899494
 30
0.0
 10
277.5111171118407
 20
276.7620490179105
 30
0.0
 10
277.4860422994386
 20
276.6269857662379
 30
0.0
 10
277.4783547844904
 20
276.581932327605
 30
0.0
 10
277.4643383597957
 20
276.4917620801949
 30
0.0
 10
277.4580046479237
 20
276.4466062355058
 30
0.0
 10
277.4298353923136
 20
276.2211002308222
 30
0.0
 10
277.4186992501578
 20
276.0435603104766
 30
0.0
 10
277.4184475918538
 20
275.6940710242902
 30
0.0
 10
277.4402215850997
 20
275.3501727221959
 30
0.0
 10
277.5057773047973
 20
275.0172752605052
 30
0.0
 10
277.5607366527453
 20
274.8126218527826
 30
0.0
 10
277.5724294400482
 20
274.7718616459418
 30
0.0
 10
277.5972309247754
 20
274.6906818204338
 30
0.0
 10
277.6103224324895
 20
274.6503251451953
 30
0.0
 10
277.6514922227596
 20
274.530427453183
 30
0.0
 10
277.681522852861
 20
274.4518641464859
 30
0.0
 10
277.7791903828865
 20
274.220123290361
 30
0.0
 10
277.8543853873463
 20
274.070888348731
 30
0.0
 10
278.0244559029525
 20
273.7822788895147
 30
0.0
 10
278.119332573175
 20
273.642905639595
 30
0.0
 10
278.2764587008702
 20
273.440894721617
 30
0.0
 10
278.3313067726839
 20
273.3747339587595
 30
0.0
 10
278.4173325141464
 20
273.2772254969183
 30
0.0
 10
278.4465891589952
 20
273.2450636438571
 30
0.0
 10
278.5061059885544
 20
273.1815709985521
 30
0.0
 10
278.536388576514
 20
273.150214669128
 30
0.0
 10
278.6903978614556
 20
272.9953395033178
 30
0.0
 10
278.8218952333099
 20
272.8775278383893
 30
0.0
 10
279.1011446002097
 20
272.6531750963155
 30
0.0
 10
279.2488971187018
 20
272.5466355568367
 30
0.0
 10
279.4048419452949
 20
272.4454214466731
 30
0.0
  0
SPLINE
  5
1C1
330
1F
100
AcDbEntity
  8
1
100
AcDbSpline
210
0.0
220
0.0
230
1.0
 70
     8
 71
     3
 72
    10
 73
     6
 74
     0
 42
0.000000001
 43
0.0000000001
 40
0.0
 40
0.0
 40
0.0
 40
0.0
 40
0.5
 40
0.5
 40
1.0
 40
1.0
 40
1.0
 40
1.0
 10
307.9098593920559
 20
275.4255457738373
 30
0.0
 10
306.2451376058168
 20
275.4115134325092
 30
0.0
 10
304.579210365733
 20
275.4062729732934
 30
0.0
 10
301.2443821545883
 20
275.4106894695748
 30
0.0
 10
299.5754804591186
 20
275.4203419045562
 30
0.0
 10
297.9048419452959
 20
275.4358664765786
 30
0.0
  0
SPLINE
  5
1C2
330
1F
100
AcDbEntity
  8
1
100
AcDbSpline
210
0.0
220
0.0
230
1.0
 70
     8
 71
     3
 72
    10
 73
     6
 74
     0
 42
0.000000001
 43
0.0000000001
 40
0.0
 40
0.0
 40
0.0
 40
0.0
 40
0.5
 40
0.5
 40
1.0
 40
1.0
 40
1.0
 40
1.0
 10
296.2113886760981
 20
275.4582562156864
 30
0.0
 10
296.4853559998314
 20
275.4499201111395
 30
0.0
 10
296.7632646408986
 20
275.4445035510282
 30
0.0
 10
297.3275270102642
 20
275.4374823701387
 30
0.0
 10
297.613880800736
 20
275.4358664765788
 30
0.0
 10
297.9048419452959
 20
275.4358664765788
 30
0.0
  0
SPLINE
  5
1C3
330
1F
100
AcDbEntity
  8
1
100
AcDbSpline
210
0.0
220
0.0
230
1.0
 70
    12
 71
     3
 72
     8
 73
     4
 74
     0
 42
0.000000001
 43
0.0000000001
 40
0.0
 40
0.0
 40
0.0
 40
0.0
 40
1.0
 40
1.0
 40
1.0
 40
1.0
 10
297.9048419452959
 20
275.6202455447834
 30
0.0
 41
1.001498006703475
 10
302.288120221691
 20
275.6165381816992
 30
0.0
 41
1.001388247977844
 10
306.4800490034515
 20
275.6324320783316
 30
0.0
 41
1.001384871963914
 10
310.5438119548801
 20
275.6912772319885
 30
0.0
 41
1.001418400430189
  0
SPLINE
  5
1C4
330
1F
100
AcDbEntity
  8
1
100
AcDbSpline
210
0.0
220
0.0
230
1.0
 70
     8
 71
     3
 72
     8
 73
     4
 74
     0
 42
0.000000001
 43
0.0000000001
 40
0.0
 40
0.0
 40
0.0
 40
0.0
 40
1.0
 40
1.0
 40
1.0
 40
1.0
 10
395.6632174320444
 20
293.7162472015235
 30
0.0
 10
395.5678055748474
 20
293.7755024340522
 30
0.0
 10
395.4717720023662
 20
293.8350279198838
 30
0.0
 10
395.3751454985132
 20
293.8948111469444
 30
0.0
  0
SPLINE
  5
1C5
330
1F
100
AcDbEntity
  8
1
100
AcDbSpline
210
0.0
220
0.0
230
1.0
 70
     8
 71
     3
 72
    42
 73
    38
 74
     0
 42
0.000000001
 43
0.0000000001
 40
0.0
 40
0.0
 40
0.0
 40
0.0
 40
0.1249999999999784
 40
0.1249999999999784
 40
0.2499999999999569
 40
0.2499999999999569
 40
0.3749999999999352
 40
0.3749999999999352
 40
0.4374999999999359
 40
0.4374999999999359
 40
0.4999999999999365
 40
0.4999999999999365
 40
0.5624999999999372
 40
0.5624999999999372
 40
0.5937499999999427
 40
0.5937499999999427
 40
0.6249999999999482
 40
0.6249999999999482
 40
0.6874999999999572
 40
0.6874999999999572
 40
0.7187499999999615
 40
0.7187499999999615
 40
0.7499999999999658
 40
0.7499999999999658
 40
0.7812499999999703
 40
0.7812499999999703
 40
0.8124999999999745
 40
0.8124999999999745
 40
0.843749999999979
 40
0.843749999999979
 40
0.8749999999999833
 40
0.8749999999999833
 40
0.9062499999999877
 40
0.9062499999999877
 40
0.937499999999992
 40
0.937499999999992
 40
1.0
 40
1.0
 40
1.0
 40
1.0
 10
395.3751454985132
 20
293.8948111469444
 30
0.0
 10
395.3406851572827
 20
293.9161319059725
 30
0.0
 10
395.3073739124395
 20
293.9384763631258
 30
0.0
 10
395.2433541675588
 20
293.9855063816052
 30
0.0
 10
395.2126396895325
 20
294.0101866826465
 30
0.0
 10
395.1543785034413
 20
294.0624102043647
 30
0.0
 10
395.1268142756884
 20
294.0899380904335
 30
0.0
 10
395.0886978589868
 20
294.1341456859139
 30
0.0
 10
395.0765360617448
 20
294.1493722079964
 30
0.0
 10
395.0535762024725
 20
294.181051932816
 30
0.0
 10
395.0427444098394
 20
294.1975743417022
 30
0.0
 10
395.0233046711383
 20
294.2314696832529
 30
0.0
 10
395.0146382757956
 20
294.2489016505288
 30
0.0
 10
395.0037054973052
 20
294.2759907073076
 30
0.0
 10
395.0004081588998
 20
294.2851783116105
 30
0.0
 10
394.9946353263857
 20
294.3039255359279
 30
0.0
 10
394.9921533985811
 20
294.3135250053115
 30
0.0
 10
394.986289172186
 20
294.3425480823862
 30
0.0
 10
394.9844165270638
 20
294.3622566022138
 30
0.0
 10
394.9858779434951
 20
294.3925513626088
 30
0.0
 10
394.9870980235368
 20
294.4027442173586
 30
0.0
 10
394.991128807484
 20
294.4228201009424
 30
0.0
 10
394.9939401041303
 20
294.4327689977789
 30
0.0
 10
395.001338398888
 20
294.4524637001121
 30
0.0
 10
395.0059753466917
 20
294.4622657647652
 30
0.0
 10
395.0167866070218
 20
294.4809153988028
 30
0.0
 10
395.0229813260058
 20
294.489849048683
 30
0.0
 10
395.0369008278088
 20
294.5069542676378
 30
0.0
 10
395.0446989494245
 20
294.5151876565423
 30
0.0
 10
395.0613748063753
 20
294.5305334249855
 30
0.0
 10
395.0702352733862
 20
294.5376553518512
 30
0.0
 10
395.0888607689973
 20
294.5509435365435
 30
0.0
 10
395.0986816760786
 20
294.5571388863081
 30
0.0
 10
395.1188262168192
 20
294.5685185374406
 30
0.0
 10
395.1291276371722
 20
294.5737004194833
 30
0.0
 10
395.1605998338695
 20
294.5879866232942
 30
0.0
 10
395.1823324769972
 20
294.5958449190318
 30
0.0
 10
395.2046202461657
 20
294.6024713051332
 30
0.0
  0
SPLINE
  5
1C6
330
1F
100
AcDbEntity
  8
1
100
AcDbSpline
210
0.0
220
0.0
230
1.0
 70
     8
 71
     3
 72
    22
 73
    18
 74
     0
 42
0.000000001
 43
0.0000000001
 40
0.0
 40
0.0
 40
0.0
 40
0.0
 40
0.125
 40
0.125
 40
0.2500000000000001
 40
0.2500000000000001
 40
0.3750000000000001
 40
0.3750000000000001
 40
0.5000000000000001
 40
0.5000000000000001
 40
0.6250000000000001
 40
0.6250000000000001
 40
0.75
 40
0.75
 40
0.875
 40
0.875
 40
1.0
 40
1.0
 40
1.0
 40
1.0
 10
405.4494622508429
 20
296.7385383431487
 30
0.0
 10
405.4468376914766
 20
296.7334471828777
 30
0.0
 10
405.4437999531593
 20
296.7285934193571
 30
0.0
 10
405.4370283316661
 20
296.7195143091313
 30
0.0
 10
405.4332825227259
 20
296.7152638554502
 30
0.0
 10
405.4250505508518
 20
296.7073586680522
 30
0.0
 10
405.4205585434831
 20
296.7037133562755
 30
0.0
 10
405.4111218856546
 20
296.6972905571844
 30
0.0
 10
405.4061426857846
 20
296.6944761995796
 30
0.0
 10
405.3956407515571
 20
296.6896776287643
 30
0.0
 10
405.3901352183071
 20
296.687712882317
 30
0.0
 10
405.3789599143875
 20
296.6847870269479
 30
0.0
 10
405.3732444456433
 20
296.6838027207542
 30
0.0
 10
405.361544294077
 20
296.6828476866317
 30
0.0
 10
405.3556485451266
 20
296.6828916514544
 30
0.0
 10
405.3440134618086
 20
296.6840147671031
 30
0.0
 10
405.3382357993931
 20
296.6850899307095
 30
0.0
 10
405.3325009247523
 20
296.6867120833885
 30
0.0
  0
SPLINE
  5
1C7
330
1F
100
AcDbEntity
  8
1
100
AcDbSpline
210
0.0
220
0.0
230
1.0
 70
     8
 71
     3
 72
    20
 73
    16
 74
     0
 42
0.000000001
 43
0.0000000001
 40
0.0
 40
0.0
 40
0.0
 40
0.0
 40
0.124999999999977
 40
0.124999999999977
 40
0.249999999999954
 40
0.249999999999954
 40
0.3749999999999309
 40
0.3749999999999309
 40
0.499999999999908
 40
0.499999999999908
 40
0.6249999999998851
 40
0.6249999999998851
 40
0.7499999999998619
 40
0.7499999999998619
 40
1.0
 40
1.0
 40
1.0
 40
1.0
 10
406.1171841308491
 20
296.5130421497556
 30
0.0
 10
406.111299185138
 20
296.5139913540603
 30
0.0
 10
406.1056005284128
 20
296.5154566452871
 30
0.0
 10
406.0945561930961
 20
296.5193632542837
 30
0.0
 10
406.0891606161684
 20
296.5218362500329
 30
0.0
 10
406.0790132784515
 20
296.5276264662713
 30
0.0
 10
406.0742701233557
 20
296.5309238997587
 30
0.0
 10
406.0654127327601
 20
296.5382821665202
 30
0.0
 10
406.0612657246925
 20
296.542384108407
 30
0.0
 10
406.053792007542
 20
296.5511749075573
 30
0.0
 10
406.0504850190898
 20
296.5558243513385
 30
0.0
 10
406.0446865968603
 20
296.5656033997041
 30
0.0
 10
406.0421855806244
 20
296.5707590703154
 30
0.0
 10
406.0360103057651
 20
296.5867980552125
 30
0.0
 10
406.0337479727608
 20
296.5978708171732
 30
0.0
 10
406.0333178900888
 20
296.6093165510543
 30
0.0
  0
SPLINE
  5
1C8
330
1F
100
AcDbEntity
  8
1
100
AcDbSpline
210
0.0
220
0.0
230
1.0
 70
     8
 71
     3
 72
    14
 73
    10
 74
     0
 42
0.000000001
 43
0.0000000001
 40
0.0
 40
0.0
 40
0.0
 40
0.0
 40
0.25
 40
0.25
 40
0.5
 40
0.5
 40
0.75
 40
0.75
 40
1.0
 40
1.0
 40
1.0
 40
1.0
 10
405.4494622508435
 20
296.7385383431496
 30
0.0
 10
405.4527456000799
 20
296.7449074340543
 30
0.0
 10
405.4566865434318
 20
296.7509265719357
 30
0.0
 10
405.4656911378771
 20
296.7619943877468
 30
0.0
 10
405.4707131198736
 20
296.767010013065
 30
0.0
 10
405.4818096931373
 20
296.7759948834813
 30
0.0
 10
405.487924385426
 20
296.7799651968117
 30
0.0
 10
405.5007180658954
 20
296.7864469135618
 30
0.0
 10
405.5074539416079
 20
296.7890160637788
 30
0.0
 10
405.5145603185961
 20
296.7908556513997
 30
0.0
  0
SPLINE
  5
1C9
330
1F
100
AcDbEntity
  8
1
100
AcDbSpline
210
0.0
220
0.0
230
1.0
 70
     8
 71
     3
 72
    14
 73
    10
 74
     0
 42
0.000000001
 43
0.0000000001
 40
0.0
 40
0.0
 40
0.0
 40
0.0
 40
0.25
 40
0.25
 40
0.5
 40
0.5
 40
0.75
 40
0.75
 40
1.0
 40
1.0
 40
1.0
 40
1.0
 10
405.9965951371192
 20
296.6841693424648
 30
0.0
 10
406.0022521580278
 20
296.6795020859172
 30
0.0
 10
406.0073613505879
 20
296.6742223101764
 30
0.0
 10
406.0162017030188
 20
296.6628996760264
 30
0.0
 10
406.0199588709245
 20
296.6568536828049
 30
0.0
 10
406.0261910148637
 20
296.6440137381283
 30
0.0
 10
406.0286427075883
 20
296.6372164773783
 30
0.0
 10
406.0320511307677
 20
296.6234842255931
 30
0.0
 10
406.0330489199151
 20
296.6164746190897
 30
0.0
 10
406.0333178900888
 20
296.6093165510543
 30
0.0
  0
SPLINE
  5
1CA
330
1F
100
AcDbEntity
  8
1
100
AcDbSpline
210
0.0
220
0.0
230
1.0
 70
     8
 71
     3
 72
    21
 73
    17
 74
     0
 42
0.000000001
 43
0.0000000001
 40
0.0
 40
0.0
 40
0.0
 40
0.0
 40
0.2500000000000003
 40
0.2500000000000003
 40
0.3124999999999293
 40
0.3124999999999293
 40
0.3749999999998582
 40
0.3749999999998582
 40
0.4999999999998482
 40
0.6249999999998382
 40
0.6249999999998382
 40
0.6874999999998332
 40
0.6874999999998332
 40
0.7499999999998282
 40
0.7499999999998282
 40
1.0
 40
1.0
 40
1.0
 40
1.0
 10
405.3325009247523
 20
296.6867120833885
 30
0.0
 10
405.291249794809
 20
296.6983802775757
 30
0.0
 10
405.2519131590932
 20
296.7146423590937
 30
0.0
 10
405.2051389395918
 20
296.7407064122867
 30
0.0
 10
405.1958869560505
 20
296.7462231251232
 30
0.0
 10
405.1778344418103
 20
296.7577159750353
 30
0.0
 10
405.1690109887021
 20
296.7637033746913
 30
0.0
 10
405.1431379854647
 20
296.7823753065894
 30
0.0
 10
405.1102297514559
 20
296.8091592535158
 30
0.0
 10
405.0804782443046
 20
296.8396935252315
 30
0.0
 10
405.0593879276738
 20
296.864047666901
 30
0.0
 10
405.0525778186345
 20
296.8723942221745
 30
0.0
 10
405.0395430165156
 20
296.8893528096032
 30
0.0
 10
405.0332958687103
 20
296.8979902123546
 30
0.0
 10
405.0033871267276
 20
296.9419535079617
 30
0.0
 10
404.9836542750991
 20
296.9795777634886
 30
0.0
 10
404.9682289973808
 20
297.0197205576305
 30
0.0
  0
SPLINE
  5
1CB
330
1F
100
AcDbEntity
  8
1
100
AcDbSpline
210
0.0
220
0.0
230
1.0
 70
     8
 71
     3
 72
    21
 73
    17
 74
     0
 42
0.000000001
 43
0.0000000001
 40
0.0
 40
0.0
 40
0.0
 40
0.0
 40
0.2499999999997613
 40
0.2499999999997613
 40
0.3124999999997818
 40
0.3124999999997818
 40
0.3749999999998024
 40
0.3749999999998024
 40
0.4999999999998447
 40
0.6249999999998868
 40
0.6249999999998868
 40
0.6874999999999078
 40
0.6874999999999078
 40
0.7499999999999291
 40
0.7499999999999291
 40
1.0
 40
1.0
 40
1.0
 40
1.0
 10
405.5145603185961
 20
296.7908556513997
 30
0.0
 10
405.5557930533599
 20
296.8015293362565
 30
0.0
 10
405.5977227534746
 20
296.8073736507424
 30
0.0
 10
405.6510957296883
 20
296.8084931443848
 30
0.0
 10
405.6618189183026
 20
296.8084037106129
 30
0.0
 10
405.6833670178902
 20
296.8075773334606
 30
0.0
 10
405.6942178235928
 20
296.806835612623
 30
0.0
 10
405.7264413533111
 20
296.8036574828839
 30
0.0
 10
405.7688198302753
 20
296.7968865425643
 30
0.0
 10
405.8100512934183
 20
296.7851602888235
 30
0.0
 10
405.8405375304423
 20
296.7744755142962
 30
0.0
 10
405.8506623770919
 20
296.7705825938212
 30
0.0
 10
405.8705737396618
 20
296.7622315040022
 30
0.0
 10
405.8803424764309
 20
296.757783909735
 30
0.0
 10
405.9282858700168
 20
296.7342298315802
 30
0.0
 10
405.9637957793576
 20
296.7112300551165
 30
0.0
 10
405.9965951371192
 20
296.6841693424648
 30
0.0
  0
SPLINE
  5
1CC
330
1F
100
AcDbEntity
  8
1
100
AcDbSpline
210
0.0
220
0.0
230
1.0
 70
     8
 71
     3
 72
    10
 73
     6
 74
     0
 42
0.000000001
 43
0.0000000001
 40
0.0
 40
0.0
 40
0.0
 40
0.0
 40
0.7930309521494833
 40
0.7930309521494833
 40
1.0
 40
1.0
 40
1.0
 40
1.0
 10
404.9682289973808
 20
297.0197205576305
 30
0.0
 10
404.966081974079
 20
297.0253079782265
 30
0.0
 10
404.9644692607317
 20
297.0309990939797
 30
0.0
 10
404.9630729549791
 20
297.0382989279744
 30
0.0
 10
404.9628185261938
 20
297.0398204971696
 30
0.0
 10
404.9625989203346
 20
297.0413488697708
 30
0.0
  0
SPLINE
  5
1CD
330
1F
100
AcDbEntity
  8
1
100
AcDbSpline
210
0.0
220
0.0
230
1.0
 70
     8
 71
     3
 72
    21
 73
    17
 74
     0
 42
0.000000001
 43
0.0000000001
 40
0.0
 40
0.0
 40
0.0
 40
0.0
 40
0.2500000000004626
 40
0.2500000000004626
 40
0.3125000000004734
 40
0.3125000000004734
 40
0.3750000000004841
 40
0.3750000000004841
 40
0.5000000000003549
 40
0.6250000000002256
 40
0.6250000000002256
 40
0.6875000000001612
 40
0.6875000000001612
 40
0.7500000000000965
 40
0.7500000000000965
 40
1.0
 40
1.0
 40
1.0
 40
1.0
 10
406.587821000177
 20
296.6612645164504
 30
0.0
 10
406.5568772178616
 20
296.631382468465
 30
0.0
 10
406.5229647321556
 20
296.6054706759863
 30
0.0
 10
406.4768659251416
 20
296.5780426874782
 30
0.0
 10
406.4674374512688
 20
296.5727990367222
 30
0.0
 10
406.4484150329127
 20
296.5629339696823
 30
0.0
 10
406.4387998348292
 20
296.5582983735115
 30
0.0
 10
406.4096479257222
 20
296.5452661623166
 30
0.0
 10
406.3699638412344
 20
296.5302164453163
 30
0.0
 10
406.328660964718
 20
296.5197881808062
 30
0.0
 10
406.2970565211704
 20
296.513757965566
 30
0.0
 10
406.2864369803492
 20
296.5120534247306
 30
0.0
 10
406.2652670189282
 20
296.5092851924421
 30
0.0
 10
406.2546834006273
 20
296.5082147923637
 30
0.0
 10
406.2017722075579
 20
296.5044031937931
 30
0.0
 10
406.1594647922616
 20
296.5062225480478
 30
0.0
 10
406.1171841308491
 20
296.5130421497556
 30
0.0
  0
LINE
  5
1EA
330
1F
100
AcDbEntity
  8
SK4
100
AcDbLine
 10
210.904842
 20
288.907994
 30
0.0
 11
277.404842
 21
288.907994
 31
0.0
  0
LINE
  5
1EB
330
1F
100
AcDbEntity
  8
4
100
AcDbLine
 10
269.703832
 20
288.907994
 30
0.0
 11
415.45852
 21
288.907994
 31
0.0
  0
MTEXT
  5
1F1
330
1F
100
AcDbEntity
  8
SK6
100
AcDbMText
 10
278.633586
 20
248.640145
 30
0.0
 40
3.5
 41
0.0
 71
     7
 72
     5
  1
\W0.7240;804D-28-112-S32
  7
cesky
 73
     2
 44
0.8433729999999998
  0
MTEXT
  5
302
330
1F
100
AcDbEntity
  8
2
100
AcDbMText
 10
309.827842
 20
337.029667
 30
0.0
 40
3.5
 41
0.0
 71
     7
 72
     5
  1
\W0.7809;197
  7
cesky
 73
     2
 44
0.8433729999999998
  0
LINE
  5
303
330
1F
100
AcDbEntity
  8
2
100
AcDbLine
 10
411.4048419999999
 20
304.907994
 30
0.0
 11
411.4048419999999
 21
338.155501
 31
0.0
  0
LINE
  5
304
330
1F
100
AcDbEntity
  8
2
100
AcDbLine
 10
214.404842
 20
302.907994
 30
0.0
 11
214.404842
 21
338.155501
 31
0.0
  0
LINE
  5
305
330
1F
100
AcDbEntity
  8
2
100
AcDbLine
 10
411.4048419999999
 20
337.155501
 30
0.0
 11
214.404842
 21
337.155501
 31
0.0
  0
SOLID
  5
306
330
1F
100
AcDbEntity
  8
2
100
AcDbTrace
 10
411.4048419999999
 20
337.155501
 30
0.0
 11
407.9048439999999
 21
336.538356
 31
0.0
 12
407.9048399999999
 22
337.772645
 32
0.0
 13
407.9048399999999
 23
337.772645
 33
0.0
  0
SOLID
  5
307
330
1F
100
AcDbEntity
  8
2
100
AcDbTrace
 10
214.404842
 20
337.155501
 30
0.0
 11
217.90484
 21
337.772645
 31
0.0
 12
217.904844
 22
336.538356
 32
0.0
 13
217.904844
 23
336.538356
 33
0.0
  0
MTEXT
  5
308
330
1F
100
AcDbEntity
  8
2
100
AcDbMText
 10
242.590342
 20
322.75644
 30
0.0
 40
3.5
 41
0.0
 71
     7
 72
     5
  1
\W0.7045;60
  7
cesky
 73
     2
 44
0.8433729999999998
  0
LINE
  5
309
330
1F
100
AcDbEntity
  8
2
100
AcDbLine
 10
274.404842
 20
288.907994
 30
0.0
 11
274.404842
 21
323.882273
 31
0.0
  0
LINE
  5
30A
330
1F
100
AcDbEntity
  8
2
100
AcDbLine
 10
214.404842
 20
302.907994
 30
0.0
 11
214.404842
 21
323.882273
 31
0.0
  0
LINE
  5
30B
330
1F
100
AcDbEntity
  8
2
100
AcDbLine
 10
274.404842
 20
322.882273
 30
0.0
 11
214.404842
 21
322.882273
 31
0.0
  0
SOLID
  5
30C
330
1F
100
AcDbEntity
  8
2
100
AcDbTrace
 10
274.404842
 20
322.882273
 30
0.0
 11
270.904844
 21
322.265129
 31
0.0
 12
270.90484
 22
323.499418
 32
0.0
 13
270.90484
 23
323.499418
 33
0.0
  0
SOLID
  5
30D
330
1F
100
AcDbEntity
  8
2
100
AcDbTrace
 10
214.404842
 20
322.882273
 30
0.0
 11
217.90484
 21
323.499418
 31
0.0
 12
217.904844
 22
322.265129
 32
0.0
 13
217.904844
 23
322.265129
 33
0.0
  0
MTEXT
  5
30E
330
1F
100
AcDbEntity
  8
2
100
AcDbMText
 10
346.545656
 20
311.427945
 30
0.0
 40
3.5
 41
0.0
 71
     7
 72
     5
  1
\W0.9110;118,5
  7
cesky
 73
     2
 44
0.8433729999999998
  0
LINE
  5
30F
330
1F
100
AcDbEntity
  8
2
100
AcDbLine
 10
411.4048419999999
 20
304.907994
 30
0.0
 11
411.4048419999999
 21
312.553778
 31
0.0
  0
LINE
  5
310
330
1F
100
AcDbEntity
  8
2
100
AcDbLine
 10
292.890469
 20
302.767411
 30
0.0
 11
292.890469
 21
312.553778
 31
0.0
  0
LINE
  5
311
330
1F
100
AcDbEntity
  8
2
100
AcDbLine
 10
411.4048419999999
 20
311.553778
 30
0.0
 11
292.890469
 21
311.553778
 31
0.0
  0
SOLID
  5
312
330
1F
100
AcDbEntity
  8
2
100
AcDbTrace
 10
411.4048419999999
 20
311.553778
 30
0.0
 11
407.9048439999999
 21
310.936634
 31
0.0
 12
407.9048399999999
 22
312.170923
 32
0.0
 13
407.9048399999999
 23
312.170923
 33
0.0
  0
SOLID
  5
313
330
1F
100
AcDbEntity
  8
2
100
AcDbTrace
 10
292.890469
 20
311.553778
 30
0.0
 11
296.390467
 21
312.170923
 31
0.0
 12
296.390472
 22
310.936634
 32
0.0
 13
296.390472
 23
310.936634
 33
0.0
  0
MTEXT
  5
314
330
1F
100
AcDbEntity
  8
2
100
AcDbMText
 10
426.885033
 20
287.953179
 30
0.0
 40
3.5
 41
0.0
 71
     7
 72
     5
  1
\W0.7045;28
  7
cesky
 11
0.0000000000000001
 21
1.0
 31
0.0
 73
     2
 44
0.8433729999999998
  0
MTEXT
  5
315
330
1F
100
AcDbEntity
  8
2
100
AcDbMText
 10
426.885033
 20
281.215679
 30
0.0
 40
3.5
 41
0.0
 71
     7
 72
     5
  1
\W3.0115;\H2.63;%%c\H3.50;
  7
cesky
 11
0.0000000000000001
 21
1.0
 31
0.0
 73
     2
 44
0.8433729999999998
  0
LINE
  5
316
330
1F
100
AcDbEntity
  8
2
100
AcDbLine
 10
413.404842
 20
302.907994
 30
0.0
 11
428.0724499999999
 21
302.907994
 31
0.0
  0
LINE
  5
317
330
1F
100
AcDbEntity
  8
2
100
AcDbLine
 10
427.07245
 20
302.907994
 30
0.0
 11
427.07245
 21
281.058179
 31
0.0
  0
SOLID
  5
318
330
1F
100
AcDbEntity
  8
2
100
AcDbTrace
 10
427.07245
 20
302.907994
 30
0.0
 11
427.6895940000001
 21
299.407996
 31
0.0
 12
426.4553059999999
 22
299.407991
 32
0.0
 13
426.4553059999999
 23
299.407991
 33
0.0
  0
MTEXT
  5
319
330
1F
100
AcDbEntity
  8
2
100
AcDbMText
 10
339.827842
 20
322.75644
 30
0.0
 40
3.5
 41
0.0
 71
     7
 72
     5
  1
\W0.7809;137
  7
cesky
 73
     2
 44
0.8433729999999998
  0
LINE
  5
31A
330
1F
100
AcDbEntity
  8
2
100
AcDbLine
 10
411.4048419999999
 20
302.907994
 30
0.0
 11
411.4048419999999
 21
323.882273
 31
0.0
  0
LINE
  5
31B
330
1F
100
AcDbEntity
  8
2
100
AcDbLine
 10
274.404842
 20
289.907567
 30
0.0
 11
274.404842
 21
323.882273
 31
0.0
  0
LINE
  5
31C
330
1F
100
AcDbEntity
  8
2
100
AcDbLine
 10
411.4048419999999
 20
322.882273
 30
0.0
 11
274.404842
 21
322.882273
 31
0.0
  0
SOLID
  5
31D
330
1F
100
AcDbEntity
  8
2
100
AcDbTrace
 10
411.4048419999999
 20
322.882273
 30
0.0
 11
407.9048439999999
 21
322.265129
 31
0.0
 12
407.9048399999999
 22
323.499418
 32
0.0
 13
407.9048399999999
 23
323.499418
 33
0.0
  0
SOLID
  5
31E
330
1F
100
AcDbEntity
  8
2
100
AcDbTrace
 10
274.404842
 20
322.882273
 30
0.0
 11
277.90484
 21
323.499418
 31
0.0
 12
277.904844
 22
322.265129
 32
0.0
 13
277.904844
 23
322.265129
 33
0.0
  0
MTEXT
  5
31F
330
1F
100
AcDbEntity
  8
SK2
100
AcDbMText
 10
204.480913
 20
290.434244
 30
0.0
 40
3.5
 41
0.0
 71
     7
 72
     5
  1
\W0.7045;32
  7
cesky
 11
0.0000000000000001
 21
1.0
 31
0.0
 73
     2
 44
0.8433729999999998
  0
MTEXT
  5
320
330
1F
100
AcDbEntity
  8
SK2
100
AcDbMText
 10
204.480913
 20
283.696744
 30
0.0
 40
3.5
 41
0.0
 71
     7
 72
     5
  1
\W3.0115;\H2.63;%%c\H3.50;
  7
cesky
 11
0.0000000000000001
 21
1.0
 31
0.0
 73
     2
 44
0.8433729999999998
  0
LINE
  5
321
330
1F
100
AcDbEntity
  8
SK2
100
AcDbLine
 10
216.404842
 20
304.907994
 30
0.0
 11
203.66833
 21
304.907994
 31
0.0
  0
LINE
  5
322
330
1F
100
AcDbEntity
  8
SK2
100
AcDbLine
 10
216.404842
 20
272.907994
 30
0.0
 11
203.66833
 21
272.907994
 31
0.0
  0
LINE
  5
323
330
1F
100
AcDbEntity
  8
SK2
100
AcDbLine
 10
204.66833
 20
304.907994
 30
0.0
 11
204.66833
 21
272.907994
 31
0.0
  0
SOLID
  5
324
330
1F
100
AcDbEntity
  8
SK2
100
AcDbTrace
 10
204.66833
 20
304.907994
 30
0.0
 11
205.285474
 21
301.407996
 31
0.0
 12
204.051185
 22
301.407991
 32
0.0
 13
204.051185
 23
301.407991
 33
0.0
  0
SOLID
  5
325
330
1F
100
AcDbEntity
  8
SK2
100
AcDbTrace
 10
204.66833
 20
272.907994
 30
0.0
 11
204.051185
 21
276.407991
 31
0.0
 12
205.285474
 22
276.407996
 32
0.0
 13
205.285474
 23
276.407996
 33
0.0
  0
MTEXT
  5
326
330
1F
100
AcDbEntity
  8
SK2
100
AcDbMText
 10
191.916868
 20
290.434244
 30
0.0
 40
3.5
 41
0.0
 71
     7
 72
     5
  1
\W0.7045;42
  7
cesky
 11
0.0000000000000001
 21
1.0
 31
0.0
 73
     2
 44
0.8433729999999998
  0
MTEXT
  5
327
330
1F
100
AcDbEntity
  8
SK2
100
AcDbMText
 10
191.916868
 20
283.696744
 30
0.0
 40
3.5
 41
0.0
 71
     7
 72
     5
  1
\W3.0115;\H2.63;%%c\H3.50;
  7
cesky
 11
0.0000000000000001
 21
1.0
 31
0.0
 73
     2
 44
0.8433729999999998
  0
LINE
  5
328
330
1F
100
AcDbEntity
  8
SK2
100
AcDbLine
 10
274.904842
 20
309.907994
 30
0.0
 11
191.104285
 21
309.907994
 31
0.0
  0
LINE
  5
329
330
1F
100
AcDbEntity
  8
SK2
100
AcDbLine
 10
274.904842
 20
267.907994
 30
0.0
 11
191.104285
 21
267.907994
 31
0.0
  0
LINE
  5
32A
330
1F
100
AcDbEntity
  8
SK2
100
AcDbLine
 10
192.104285
 20
309.907994
 30
0.0
 11
192.104285
 21
267.907994
 31
0.0
  0
SOLID
  5
32B
330
1F
100
AcDbEntity
  8
SK2
100
AcDbTrace
 10
192.104285
 20
309.907994
 30
0.0
 11
192.721429
 21
306.407996
 31
0.0
 12
191.48714
 22
306.407991
 32
0.0
 13
191.48714
 23
306.407991
 33
0.0
  0
SOLID
  5
32C
330
1F
100
AcDbEntity
  8
SK2
100
AcDbTrace
 10
192.104285
 20
267.907994
 30
0.0
 11
191.48714
 21
271.4079910000001
 31
0.0
 12
192.721429
 22
271.407996
 32
0.0
 13
192.721429
 23
271.407996
 33
0.0
  0
LINE
  5
32D
330
1F
100
AcDbEntity
  8
CUT
100
AcDbLine
 10
411.2974360653502
 20
295.8831879626113
 30
0.0
 11
411.4048419452957
 21
289.7352586122853
 31
0.0
  0
LINE
  5
32F
330
1F
100
AcDbEntity
  8
CUT
100
AcDbLine
 10
410.958369314307
 20
296.4474361449547
 30
0.0
 11
411.2974360653502
 21
295.8831879626113
 31
0.0
  0
LINE
  5
330
330
1F
100
AcDbEntity
  8
CUT
100
AcDbLine
 10
410.7016286938658
 20
302.1695058807888
 30
0.0
 11
410.958369314307
 21
296.4474361449547
 31
0.0
  0
LINE
  5
332
330
1F
100
AcDbEntity
  8
CUT
100
AcDbLine
 10
401.9251718287902
 20
302.5400568597496
 30
0.0
 11
409.895063756893
 21
302.9043062618901
 31
0.0
  0
LINE
  5
333
330
1F
100
AcDbEntity
  8
CUT
100
AcDbLine
 10
411.4048419999999
 20
289.735259
 30
0.0
 11
411.4048419999999
 21
288.907994
 31
0.0
  0
LINE
  5
334
330
1F
100
AcDbEntity
  8
CUT
100
AcDbLine
 10
401.187556
 20
288.907994
 30
0.0
 11
401.187556
 21
301.734148
 31
0.0
  0
LINE
  5
335
330
1F
100
AcDbEntity
  8
CUT
100
AcDbLine
 10
411.4048419999999
 20
288.907994
 30
0.0
 11
401.187556
 21
288.907994
 31
0.0
  0
ARC
  5
336
330
1F
100
AcDbEntity
  8
CUT
100
AcDbCircle
 10
401.9695030901335
 20
301.75931083475
 30
0.0
 40
0.7823517831130649
100
AcDbArc
 50
96.01455363893858
 51
181.8431394334638
  0
ARC
  5
337
330
1F
100
AcDbEntity
  8
CUT
100
AcDbCircle
 10
401.9582365473071
 20
301.8155059046642
 30
0.0
 40
0.7253050131673624
100
AcDbArc
 50
92.61286711675236
 51
95.59458300716718
  0
ARC
  5
338
330
1F
100
AcDbEntity
  8
CUT
100
AcDbCircle
 10
409.9227310101861
 20
302.1239683329183
 30
0.0
 40
0.780828252752654
100
AcDbArc
 50
7.497429971794345
 51
92.03059858081175
  0
ARC
  5
339
330
1F
100
AcDbEntity
  8
CUT
100
AcDbCircle
 10
409.9810979079889
 20
302.1372024564429
 30
0.0
 40
0.7212545491161872
100
AcDbArc
 50
2.567012195020582
 51
7.060100384350628
  0
ENDSEC
  0
SECTION
  2
OBJECTS
  0
DICTIONARY
  5
C
330
0
100
AcDbDictionary
281
     1
  3
ACAD_CIP_PREVIOUS_PRODUCT_INFO
350
2FF
  3
ACAD_COLOR
350
2FA
  3
ACAD_DETAILVIEWSTYLE
350
2F6
  3
ACAD_GROUP
350
D
  3
ACAD_LAYOUT
350
1A
  3
ACAD_MATERIAL
350
43
  3
ACAD_MLEADERSTYLE
350
6B
  3
ACAD_MLINESTYLE
350
17
  3
ACAD_PLOTSETTINGS
350
19
  3
ACAD_PLOTSTYLENAME
350
E
  3
ACAD_SCALELIST
350
47
  3
ACAD_SECTIONVIEWSTYLE
350
2F7
  3
ACAD_TABLESTYLE
350
69
  3
ACAD_VISUALSTYLE
350
2A
  3
ACDB_RECOMPOSE_DATA
350
365
  3
AcDbVariableDictionary
350
2B3
  0
DICTIONARY
  5
348
330
10
100
AcDbDictionary
280
     1
281
     1
  3
ADSK_XREC_LAYER_RECONCILED
360
349
  0
DICTIONARY
  5
34A
330
33A
100
AcDbDictionary
280
     1
281
     1
  3
ADSK_XREC_LAYER_RECONCILED
360
34B
  0
DICTIONARY
  5
34C
330
33B
100
AcDbDictionary
280
     1
281
     1
  3
ADSK_XREC_LAYER_RECONCILED
360
34D
  0
DICTIONARY
  5
34E
330
33C
100
AcDbDictionary
280
     1
281
     1
  3
ADSK_XREC_LAYER_RECONCILED
360
34F
  0
DICTIONARY
  5
350
330
33E
100
AcDbDictionary
280
     1
281
     1
  3
ADSK_XREC_LAYER_RECONCILED
360
351
  0
DICTIONARY
  5
352
330
33F
100
AcDbDictionary
280
     1
281
     1
  3
ADSK_XREC_LAYER_RECONCILED
360
353
  0
DICTIONARY
  5
354
330
341
100
AcDbDictionary
280
     1
281
     1
  3
ADSK_XREC_LAYER_RECONCILED
360
355
  0
DICTIONARY
  5
356
330
342
100
AcDbDictionary
280
     1
281
     1
  3
ADSK_XREC_LAYER_RECONCILED
360
357
  0
DICTIONARY
  5
358
330
343
100
AcDbDictionary
280
     1
281
     1
  3
ADSK_XREC_LAYER_RECONCILED
360
359
  0
DICTIONARY
  5
35A
330
344
100
AcDbDictionary
280
     1
281
     1
  3
ADSK_XREC_LAYER_RECONCILED
360
35B
  0
DICTIONARY
  5
35C
330
345
100
AcDbDictionary
280
     1
281
     1
  3
ADSK_XREC_LAYER_RECONCILED
360
35D
  0
DICTIONARY
  5
35E
330
346
100
AcDbDictionary
280
     1
281
     1
  3
ADSK_XREC_LAYER_RECONCILED
360
35F
  0
DICTIONARY
  5
300
330
1F
100
AcDbDictionary
280
     1
281
     1
  3
ACAD_SORTENTS
360
301
  0
XRECORD
  5
2FF
102
{ACAD_REACTORS
330
C
102
}
330
C
100
AcDbXrecord
280
     1
300
ACD
300
2019
300
87084ACD_2019_0F
  0
DICTIONARY
  5
2FA
102
{ACAD_REACTORS
330
C
102
}
330
C
100
AcDbDictionary
281
     1
  0
DICTIONARY
  5
2F6
102
{ACAD_REACTORS
330
C
102
}
330
C
100
AcDbDictionary
281
     1
  3
Metric50
350
2FC
  0
DICTIONARY
  5
D
102
{ACAD_REACTORS
330
C
102
}
330
C
100
AcDbDictionary
281
     1
  3
NULOVY_BOD
350
347
  0
DICTIONARY
  5
1A
102
{ACAD_REACTORS
330
C
102
}
330
C
100
AcDbDictionary
281
     1
  3
Layout1
350
1E
  3
Layout2
350
26
  3
Model
350
22
  0
DICTIONARY
  5
43
102
{ACAD_REACTORS
330
C
102
}
330
C
100
AcDbDictionary
281
     1
  3
ByBlock
350
45
  3
ByLayer
350
44
  3
Global
350
46
  0
DICTIONARY
  5
6B
102
{ACAD_REACTORS
330
C
102
}
330
C
100
AcDbDictionary
281
     1
  3
Standard
350
6C
  0
DICTIONARY
  5
17
102
{ACAD_REACTORS
330
C
102
}
330
C
100
AcDbDictionary
281
     1
  3
Standard
350
18
  0
DICTIONARY
  5
19
102
{ACAD_REACTORS
330
C
102
}
330
C
100
AcDbDictionary
281
     1
  0
ACDBDICTIONARYWDFLT
  5
E
102
{ACAD_REACTORS
330
C
102
}
330
C
100
AcDbDictionary
281
     1
  3
Normal
350
F
100
AcDbDictionaryWithDefault
340
F
  0
DICTIONARY
  5
47
102
{ACAD_REACTORS
330
C
102
}
330
C
100
AcDbDictionary
281
     1
  3
A0
350
48
  3
A1
350
49
  3
A2
350
4A
  3
A3
350
4B
  3
A4
350
4C
  3
A5
350
4D
  3
A6
350
4E
  3
A7
350
4F
  3
A8
350
50
  3
A9
350
51
  3
B0
350
52
  3
B1
350
53
  3
B2
350
54
  3
B3
350
55
  3
B4
350
56
  3
B5
350
57
  3
B6
350
58
  3
B7
350
59
  3
B8
350
5A
  3
B9
350
5B
  3
C0
350
5C
  3
C1
350
5D
  3
C2
350
5E
  3
C3
350
5F
  3
C4
350
60
  3
C5
350
61
  3
C6
350
62
  3
C7
350
63
  3
C8
350
64
  3
C9
350
65
  3
D0
350
66
  3
D1
350
67
  3
D2
350
68
  0
DICTIONARY
  5
2F7
102
{ACAD_REACTORS
330
C
102
}
330
C
100
AcDbDictionary
281
     1
  3
Metric50
350
2FB
  0
DICTIONARY
  5
69
102
{ACAD_REACTORS
330
C
102
}
330
C
100
AcDbDictionary
281
     1
  3
Standard
350
6A
  0
DICTIONARY
  5
2A
102
{ACAD_REACTORS
330
C
102
}
330
C
100
AcDbDictionary
281
     1
  3
2dWireframe
350
2F
  3
Basic
350
32
  3
Brighten
350
36
  3
ColorChange
350
3A
  3
Conceptual
350
34
  3
Dim
350
35
  3
EdgeColorOff
350
3D
  3
Facepattern
350
39
  3
Flat
350
2B
  3
FlatWithEdges
350
2C
  3
Gouraud
350
2D
  3
GouraudWithEdges
350
2E
  3
Hidden
350
31
  3
JitterOff
350
3B
  3
Linepattern
350
38
  3
OverhangOff
350
3C
  3
Realistic
350
33
  3
Shaded
350
42
  3
Shaded with edges
350
41
  3
Shades of Gray
350
3E
  3
Sketchy
350
3F
  3
Thicken
350
37
  3
Wireframe
350
30
  3
X-Ray
350
40
  0
XRECORD
  5
365
102
{ACAD_REACTORS
330
C
102
}
330
C
100
AcDbXrecord
280
     1
 90
        1
330
6A
  0
DICTIONARY
  5
2B3
102
{ACAD_REACTORS
330
C
102
}
330
C
100
AcDbDictionary
281
     1
  3
CANNOSCALE
350
2B4
  3
CMLEADERSTYLE
350
2F5
  3
CTABLESTYLE
350
2F4
  3
CVIEWDETAILSTYLE
350
360
  3
CVIEWSECTIONSTYLE
350
361
  3
MSLTSCALE
350
2B5
  3
XCLIPFRAME
350
362
  0
XRECORD
  5
349
102
{ACAD_REACTORS
330
348
102
}
330
348
100
AcDbXrecord
280
     1
290
     1
  0
XRECORD
  5
34B
102
{ACAD_REACTORS
330
34A
102
}
330
34A
100
AcDbXrecord
280
     1
290
     1
  0
XRECORD
  5
34D
102
{ACAD_REACTORS
330
34C
102
}
330
34C
100
AcDbXrecord
280
     1
290
     1
  0
XRECORD
  5
34F
102
{ACAD_REACTORS
330
34E
102
}
330
34E
100
AcDbXrecord
280
     1
290
     1
  0
XRECORD
  5
351
102
{ACAD_REACTORS
330
350
102
}
330
350
100
AcDbXrecord
280
     1
290
     1
  0
XRECORD
  5
353
102
{ACAD_REACTORS
330
352
102
}
330
352
100
AcDbXrecord
280
     1
290
     1
  0
XRECORD
  5
355
102
{ACAD_REACTORS
330
354
102
}
330
354
100
AcDbXrecord
280
     1
290
     1
  0
XRECORD
  5
357
102
{ACAD_REACTORS
330
356
102
}
330
356
100
AcDbXrecord
280
     1
290
     1
  0
XRECORD
  5
359
102
{ACAD_REACTORS
330
358
102
}
330
358
100
AcDbXrecord
280
     1
290
     1
  0
XRECORD
  5
35B
102
{ACAD_REACTORS
330
35A
102
}
330
35A
100
AcDbXrecord
280
     1
290
     1
  0
XRECORD
  5
35D
102
{ACAD_REACTORS
330
35C
102
}
330
35C
100
AcDbXrecord
280
     1
290
     1
  0
XRECORD
  5
35F
102
{ACAD_REACTORS
330
35E
102
}
330
35E
100
AcDbXrecord
280
     1
290
     1
  0
SORTENTSTABLE
  5
301
102
{ACAD_REACTORS
330
300
102
}
330
300
100
AcDbSortentsTable
330
1F
331
302
  5
255
331
303
  5
26E
331
304
  5
302
331
305
  5
303
331
306
  5
304
331
307
  5
305
331
308
  5
306
331
309
  5
307
331
30A
  5
308
331
30B
  5
309
331
30C
  5
30A
331
30D
  5
30B
331
30E
  5
30C
331
30F
  5
30D
331
310
  5
30E
331
311
  5
30F
331
312
  5
310
331
313
  5
311
331
314
  5
312
331
315
  5
313
331
316
  5
314
331
317
  5
315
331
318
  5
316
331
319
  5
327
331
31A
  5
328
331
31B
  5
329
331
31C
  5
32A
331
31D
  5
32B
331
31E
  5
32C
331
31F
  5
319
331
320
  5
31A
331
321
  5
31B
331
322
  5
31C
331
323
  5
31D
331
324
  5
31E
331
325
  5
31F
331
326
  5
320
331
327
  5
321
331
328
  5
322
331
329
  5
323
331
32A
  5
324
331
32B
  5
325
331
32C
  5
326
331
32F
  5
332
331
330
  5
333
331
332
  5
336
331
333
  5
337
331
334
  5
338
331
335
  5
339
331
336
  5
32F
331
337
  5
330
331
338
  5
334
331
339
  5
335
  0
ACDBDETAILVIEWSTYLE
  5
2FC
102
{ACAD_XDICTIONARY
360
399
102
}
102
{ACAD_REACTORS
330
2F6
102
}
330
2F6
100
AcDbModelDocViewStyle
 70
     0
  3
Metric50
290
     0
100
AcDbDetailViewStyle
 70
     0
 71
     0
 90
        3
 71
     1
340
11
 62
   256
 40
5.0
340
0
 62
   256
 40
5.0
300

 40
0.0
280
     1
 71
     2
340
16
 90
       25
 62
   256
 71
     3
340
11
 62
   256
 40
5.0
 90
        0
 40
15.0
 90
        1
300
%<\AcVar ViewDetailId>% (%<\AcVar ViewScale \f "%sn">%)
 71
     4
340
16
 90
       25
 62
   256
340
16
 90
       25
 62
   256
280
     0
  0
GROUP
  5
347
102
{ACAD_REACTORS
330
D
102
}
330
D
100
AcDbGroup
300

 70
     0
 71
     1
340
73
  0
LAYOUT
  5
1E
102
{ACAD_REACTORS
330
1A
102
}
330
1A
100
AcDbPlotSettings
  1

  2
none_device
  4

  6

 40
0.0
 41
0.0
 42
0.0
 43
0.0
 44
0.0
 45
0.0
 46
0.0
 47
0.0
 48
0.0
 49
0.0
140
0.0
141
0.0
142
1.0
143
1.0
 70
   688
 72
     0
 73
     0
 74
     5
  7

 75
    16
147
1.0
 76
     0
 77
     2
 78
   300
148
0.0
149
0.0
100
AcDbLayout
  1
Layout1
 70
     1
 71
     1
 10
-0.5
 20
-0.5
 11
5.0
 21
5.0
 12
0.0
 22
0.0
 32
0.0
 14
-0.5
 24
-0.5
 34
-0.5
 15
5.0
 25
5.0
 35
5.0
146
0.0
 13
0.0
 23
0.0
 33
0.0
 16
1.0
 26
0.0
 36
0.0
 17
0.0
 27
1.0
 37
0.0
 76
     0
330
1B
  0
LAYOUT
  5
26
102
{ACAD_REACTORS
330
1A
102
}
330
1A
100
AcDbPlotSettings
  1

  2
none_device
  4

  6

 40
0.0
 41
0.0
 42
0.0
 43
0.0
 44
0.0
 45
0.0
 46
0.0
 47
0.0
 48
0.0
 49
0.0
140
0.0
141
0.0
142
1.0
143
1.0
 70
   688
 72
     0
 73
     0
 74
     5
  7

 75
    16
147
1.0
 76
     0
 77
     2
 78
   300
148
0.0
149
0.0
100
AcDbLayout
  1
Layout2
 70
     1
 71
     2
 10
0.0
 20
0.0
 11
0.0
 21
0.0
 12
0.0
 22
0.0
 32
0.0
 14
0.0
 24
0.0
 34
0.0
 15
0.0
 25
0.0
 35
0.0
146
0.0
 13
0.0
 23
0.0
 33
0.0
 16
1.0
 26
0.0
 36
0.0
 17
0.0
 27
1.0
 37
0.0
 76
     0
330
23
  0
LAYOUT
  5
22
102
{ACAD_REACTORS
330
1A
102
}
330
1A
100
AcDbPlotSettings
  1

  2
none_device
  4
Letter_(8.50_x_11.00_Inches)
  6

 40
6.349999999999999
 41
6.349999999999999
 42
6.350005
 43
6.350005
 44
215.9
 45
279.4
 46
0.0
 47
0.0
 48
0.0
 49
0.0
140
0.0
141
0.0
142
1.0
143
1.0
 70
  1712
 72
     0
 73
     0
 74
     0
  7

 75
     0
147
1.0
 76
     0
 77
     2
 78
   300
148
0.0
149
0.0
100
AcDbLayout
  1
Model
 70
     1
 71
     0
 10
-0.5
 20
-0.5
 11
5.0
 21
5.0
 12
0.0
 22
0.0
 32
0.0
 14
-0.5
 24
-0.5
 34
-0.5
 15
5.0
 25
5.0
 35
5.0
146
0.0
 13
0.0
 23
0.0
 33
0.0
 16
1.0
 26
0.0
 36
0.0
 17
0.0
 27
1.0
 37
0.0
 76
     0
330
1F
331
29
  0
MATERIAL
  5
45
102
{ACAD_XDICTIONARY
360
2E9
102
}
102
{ACAD_REACTORS
330
43
102
}
330
43
100
AcDbMaterial
  1
ByBlock
  0
MATERIAL
  5
44
102
{ACAD_XDICTIONARY
360
2E7
102
}
102
{ACAD_REACTORS
330
43
102
}
330
43
100
AcDbMaterial
  1
ByLayer
  0
MATERIAL
  5
46
102
{ACAD_XDICTIONARY
360
2EB
102
}
102
{ACAD_REACTORS
330
43
102
}
330
43
100
AcDbMaterial
  1
Global
  0
MLEADERSTYLE
  5
6C
102
{ACAD_REACTORS
330
6B
102
}
330
6B
100
AcDbMLeaderStyle
170
     2
171
     1
172
     0
 90
        2
 40
0.0
 41
0.0
173
     1
 91
-1056964608
340
14
 92
       -2
290
     1
 42
0.09
291
     1
 43
0.36
  3
Standard
 44
0.18
300

342
11
174
     1
178
     6
175
     1
176
     0
 93
-1056964608
 45
0.18
292
     0
297
     0
 46
0.18
 94
-1056964608
 47
1.0
 49
1.0
140
1.0
293
     1
141
0.0
294
     1
177
     0
142
1.0
295
     0
296
     0
143
0.125
1001
ACAD_MLEADERVER
1070
     2
  0
MLINESTYLE
  5
18
102
{ACAD_REACTORS
330
17
102
}
330
17
100
AcDbMlineStyle
  2
STANDARD
 70
     0
  3

 62
   256
 51
90.0
 52
90.0
 71
     2
 49
0.5
 62
   256
  6
BYLAYER
 49
-0.5
 62
   256
  6
BYLAYER
  0
ACDBPLACEHOLDER
  5
F
102
{ACAD_REACTORS
330
E
102
}
330
E
  0
SCALE
  5
48
102
{ACAD_REACTORS
330
47
102
}
330
47
100
AcDbScale
 70
     0
300
1:1
140
1.0
141
1.0
290
     1
  0
SCALE
  5
49
102
{ACAD_REACTORS
330
47
102
}
330
47
100
AcDbScale
 70
     0
300
1:2
140
1.0
141
2.0
290
     0
  0
SCALE
  5
4A
102
{ACAD_REACTORS
330
47
102
}
330
47
100
AcDbScale
 70
     0
300
1:4
140
1.0
141
4.0
290
     0
  0
SCALE
  5
4B
102
{ACAD_REACTORS
330
47
102
}
330
47
100
AcDbScale
 70
     0
300
1:5
140
1.0
141
5.0
290
     0
  0
SCALE
  5
4C
102
{ACAD_REACTORS
330
47
102
}
330
47
100
AcDbScale
 70
     0
300
1:8
140
1.0
141
8.0
290
     0
  0
SCALE
  5
4D
102
{ACAD_REACTORS
330
47
102
}
330
47
100
AcDbScale
 70
     0
300
1:10
140
1.0
141
10.0
290
     0
  0
SCALE
  5
4E
102
{ACAD_REACTORS
330
47
102
}
330
47
100
AcDbScale
 70
     0
300
1:16
140
1.0
141
16.0
290
     0
  0
SCALE
  5
4F
102
{ACAD_REACTORS
330
47
102
}
330
47
100
AcDbScale
 70
     0
300
1:20
140
1.0
141
20.0
290
     0
  0
SCALE
  5
50
102
{ACAD_REACTORS
330
47
102
}
330
47
100
AcDbScale
 70
     0
300
1:30
140
1.0
141
30.0
290
     0
  0
SCALE
  5
51
102
{ACAD_REACTORS
330
47
102
}
330
47
100
AcDbScale
 70
     0
300
1:40
140
1.0
141
40.0
290
     0
  0
SCALE
  5
52
102
{ACAD_REACTORS
330
47
102
}
330
47
100
AcDbScale
 70
     0
300
1:50
140
1.0
141
50.0
290
     0
  0
SCALE
  5
53
102
{ACAD_REACTORS
330
47
102
}
330
47
100
AcDbScale
 70
     0
300
1:100
140
1.0
141
100.0
290
     0
  0
SCALE
  5
54
102
{ACAD_REACTORS
330
47
102
}
330
47
100
AcDbScale
 70
     0
300
2:1
140
2.0
141
1.0
290
     0
  0
SCALE
  5
55
102
{ACAD_REACTORS
330
47
102
}
330
47
100
AcDbScale
 70
     0
300
4:1
140
4.0
141
1.0
290
     0
  0
SCALE
  5
56
102
{ACAD_REACTORS
330
47
102
}
330
47
100
AcDbScale
 70
     0
300
8:1
140
8.0
141
1.0
290
     0
  0
SCALE
  5
57
102
{ACAD_REACTORS
330
47
102
}
330
47
100
AcDbScale
 70
     0
300
10:1
140
10.0
141
1.0
290
     0
  0
SCALE
  5
58
102
{ACAD_REACTORS
330
47
102
}
330
47
100
AcDbScale
 70
     0
300
100:1
140
100.0
141
1.0
290
     0
  0
SCALE
  5
59
102
{ACAD_REACTORS
330
47
102
}
330
47
100
AcDbScale
 70
     0
300
1/128" = 1'-0"
140
0.007812
141
12.0
290
     0
  0
SCALE
  5
5A
102
{ACAD_REACTORS
330
47
102
}
330
47
100
AcDbScale
 70
     0
300
1/64" = 1'-0"
140
0.015625
141
12.0
290
     0
  0
SCALE
  5
5B
102
{ACAD_REACTORS
330
47
102
}
330
47
100
AcDbScale
 70
     0
300
1/32" = 1'-0"
140
0.03125
141
12.0
290
     0
  0
SCALE
  5
5C
102
{ACAD_REACTORS
330
47
102
}
330
47
100
AcDbScale
 70
     0
300
1/16" = 1'-0"
140
0.0625
141
12.0
290
     0
  0
SCALE
  5
5D
102
{ACAD_REACTORS
330
47
102
}
330
47
100
AcDbScale
 70
     0
300
3/32" = 1'-0"
140
0.09375
141
12.0
290
     0
  0
SCALE
  5
5E
102
{ACAD_REACTORS
330
47
102
}
330
47
100
AcDbScale
 70
     0
300
1/8" = 1'-0"
140
0.125
141
12.0
290
     0
  0
SCALE
  5
5F
102
{ACAD_REACTORS
330
47
102
}
330
47
100
AcDbScale
 70
     0
300
3/16" = 1'-0"
140
0.1875
141
12.0
290
     0
  0
SCALE
  5
60
102
{ACAD_REACTORS
330
47
102
}
330
47
100
AcDbScale
 70
     0
300
1/4" = 1'-0"
140
0.25
141
12.0
290
     0
  0
SCALE
  5
61
102
{ACAD_REACTORS
330
47
102
}
330
47
100
AcDbScale
 70
     0
300
3/8" = 1'-0"
140
0.375
141
12.0
290
     0
  0
SCALE
  5
62
102
{ACAD_REACTORS
330
47
102
}
330
47
100
AcDbScale
 70
     0
300
1/2" = 1'-0"
140
0.5
141
12.0
290
     0
  0
SCALE
  5
63
102
{ACAD_REACTORS
330
47
102
}
330
47
100
AcDbScale
 70
     0
300
3/4" = 1'-0"
140
0.75
141
12.0
290
     0
  0
SCALE
  5
64
102
{ACAD_REACTORS
330
47
102
}
330
47
100
AcDbScale
 70
     0
300
1" = 1'-0"
140
1.0
141
12.0
290
     0
  0
SCALE
  5
65
102
{ACAD_REACTORS
330
47
102
}
330
47
100
AcDbScale
 70
     0
300
1-1/2" = 1'-0"
140
1.5
141
12.0
290
     0
  0
SCALE
  5
66
102
{ACAD_REACTORS
330
47
102
}
330
47
100
AcDbScale
 70
     0
300
3" = 1'-0"
140
3.0
141
12.0
290
     0
  0
SCALE
  5
67
102
{ACAD_REACTORS
330
47
102
}
330
47
100
AcDbScale
 70
     0
300
6" = 1'-0"
140
6.0
141
12.0
290
     0
  0
SCALE
  5
68
102
{ACAD_REACTORS
330
47
102
}
330
47
100
AcDbScale
 70
     0
300
1'-0" = 1'-0"
140
12.0
141
12.0
290
     0
  0
ACDBSECTIONVIEWSTYLE
  5
2FB
102
{ACAD_XDICTIONARY
360
397
102
}
102
{ACAD_REACTORS
330
2F7
102
}
330
2F7
100
AcDbModelDocViewStyle
 70
     0
  3
Metric50
290
     0
100
AcDbSectionViewStyle
 70
     0
 71
     0
 90
      102
 71
     1
340
11
 62
   256
 40
5.0
340
0
340
0
 62
   256
 40
5.0
300
I, O, Q, S, X, Z
 40
10.0
 90
        0
 40
2.5
 90
        0
 71
     2
340
16
 90
       25
 62
   256
340
16
 90
       50
 62
   256
 40
5.0
 40
2.5
 40
5.0
 71
     3
340
11
 62
   256
 40
5.0
 90
        0
 40
15.0
 90
        1
300
%<\AcVar ViewSectionStartId>%-%<\AcVar ViewSectionEndId>% (%<\AcVar ViewScale \f "%sn">%)
 71
     4
 62
   256
 62
   257
300
ANSI31
 40
1.0
 90
        0
290
     0
290
     0
 90
        6
 40
0.0
 40
1.570796326794896
 40
0.2617993877991494
 40
1.308996938995747
 40
-0.2617993877991494
 40
1.832595714594046
  0
TABLESTYLE
  5
6A
102
{ACAD_XDICTIONARY
360
2ED
102
}
102
{ACAD_REACTORS
330
69
102
}
330
69
100
AcDbTableStyle
  3
Standard
 70
     0
 71
     0
 40
0.06
 41
0.06
280
     0
281
     0
  7
Standard
140
0.18
170
     2
 62
     0
 63
     7
283
     0
274
    -2
284
     1
 64
     0
275
    -2
285
     1
 65
     0
276
    -2
286
     1
 66
     0
277
    -2
287
     1
 67
     0
278
    -2
288
     1
 68
     0
279
    -2
289
     1
 69
     0
  7
Standard
140
0.25
170
     5
 62
     0
 63
     7
283
     0
274
    -2
284
     1
 64
     0
275
    -2
285
     1
 65
     0
276
    -2
286
     1
 66
     0
277
    -2
287
     1
 67
     0
278
    -2
288
     1
 68
     0
279
    -2
289
     1
 69
     0
  7
Standard
140
0.18
170
     5
 62
     0
 63
     7
283
     0
274
    -2
284
     1
 64
     0
275
    -2
285
     1
 65
     0
276
    -2
286
     1
 66
     0
277
    -2
287
     1
 67
     0
278
    -2
288
     1
 68
     0
279
    -2
289
     1
 69
     0
  0
VISUALSTYLE
  5
2F
102
{ACAD_XDICTIONARY
360
36E
102
}
102
{ACAD_REACTORS
330
2A
102
}
330
2A
100
AcDbVisualStyle
  2

 70
     4
 71
     0
 72
     2
 73
     0
 90
        0
 40
-0.6
 41
-30.0
 62
     5
 63
     7
421
 16777215
 74
     1
 91
        4
 64
     7
 65
   257
 75
     1
175
     1
 42
1.0
 92
        0
 66
   257
 43
1.0
 76
     1
 77
     6
 78
     2
 67
     7
 79
     5
170
     0
171
     0
290
     0
174
     0
 93
        1
 44
0.0
173
     0
291
     0
 45
0.0
1001
ACAD
1000
AcDbSavedByObjectVersion
1070
     0
  0
VISUALSTYLE
  5
32
102
{ACAD_XDICTIONARY
360
374
102
}
102
{ACAD_REACTORS
330
2A
102
}
330
2A
100
AcDbVisualStyle
  2

 70
     7
 71
     1
 72
     0
 73
     1
 90
        0
 40
-0.6
 41
-30.0
 62
     5
 63
     7
421
 16777215
 74
     0
 91
        4
 64
     7
 65
   257
 75
     1
175
     1
 42
1.0
 92
        8
 66
     7
 43
1.0
 76
     1
 77
     6
 78
     2
 67
     7
 79
     5
170
     0
171
     0
290
     0
174
     0
 93
        1
 44
0.0
173
     0
291
     1
 45
0.0
1001
ACAD
1000
AcDbSavedByObjectVersion
1070
     0
  0
VISUALSTYLE
  5
36
102
{ACAD_XDICTIONARY
360
37C
102
}
102
{ACAD_REACTORS
330
2A
102
}
330
2A
100
AcDbVisualStyle
  2

 70
    12
 71
     2
 72
     2
 73
     0
 90
        0
 40
-0.6
 41
-30.0
 62
     5
 63
     7
421
 16777215
 74
     1
 91
        4
 64
     7
 65
   257
 75
     1
175
     1
 42
1.0
 92
        8
 66
     7
 43
1.0
 76
     1
 77
     6
 78
     2
 67
     7
 79
     5
170
     0
171
     0
290
     0
174
     0
 93
        1
 44
50.0
173
     0
291
     1
 45
0.0
1001
ACAD
1000
AcDbSavedByObjectVersion
1070
     0
  0
VISUALSTYLE
  5
3A
102
{ACAD_XDICTIONARY
360
384
102
}
102
{ACAD_REACTORS
330
2A
102
}
330
2A
100
AcDbVisualStyle
  2

 70
    16
 71
     2
 72
     2
 73
     3
 90
        0
 40
-0.6
 41
-30.0
 62
     5
 63
     8
421
  8421504
 74
     1
 91
        4
 64
     7
 65
   257
 75
     1
175
     1
 42
1.0
 92
        8
 66
     8
424
  8421504
 43
1.0
 76
     1
 77
     6
 78
     2
 67
     7
 79
     5
170
     0
171
     0
290
     0
174
     0
 93
        1
 44
0.0
173
     0
291
     1
 45
0.0
1001
ACAD
1000
AcDbSavedByObjectVersion
1070
     0
  0
VISUALSTYLE
  5
34
102
{ACAD_XDICTIONARY
360
378
102
}
102
{ACAD_REACTORS
330
2A
102
}
330
2A
100
AcDbVisualStyle
  2

 70
     9
 71
     3
 72
     2
 73
     0
 90
        0
 40
-0.6
 41
-30.0
 62
     5
 63
     7
421
 16777215
 74
     2
 91
        2
 64
     7
 65
   257
 75
     1
175
     1
 42
179.0
 92
        8
 66
     7
 43
1.0
 76
     1
 77
     6
 78
     2
 67
     7
 79
     3
170
     0
171
     0
290
     0
174
     0
 93
        1
 44
0.0
173
     0
291
     0
 45
0.0
1001
ACAD
1000
AcDbSavedByObjectVersion
1070
     0
  0
VISUALSTYLE
  5
35
102
{ACAD_XDICTIONARY
360
37A
102
}
102
{ACAD_REACTORS
330
2A
102
}
330
2A
100
AcDbVisualStyle
  2

 70
    11
 71
     2
 72
     2
 73
     0
 90
        0
 40
-0.6
 41
-30.0
 62
     5
 63
     7
421
 16777215
 74
     1
 91
        4
 64
     7
 65
   257
 75
     1
175
     1
 42
1.0
 92
        8
 66
     7
 43
1.0
 76
     1
 77
     6
 78
     2
 67
     7
 79
     5
170
     0
171
     0
290
     0
174
     0
 93
        1
 44
-50.0
173
     0
291
     1
 45
0.0
1001
ACAD
1000
AcDbSavedByObjectVersion
1070
     0
  0
VISUALSTYLE
  5
3D
102
{ACAD_XDICTIONARY
360
38A
102
}
102
{ACAD_REACTORS
330
2A
102
}
330
2A
100
AcDbVisualStyle
  2

 70
    22
 71
     2
 72
     2
 73
     0
 90
        0
 40
-0.6
 41
-30.0
 62
     5
 63
     7
421
 16777215
 74
     1
 91
        4
 64
     7
 65
   257
 75
     1
175
     1
 42
1.0
 92
        8
 66
     7
 43
1.0
 76
     1
 77
     6
 78
     2
 67
     7
 79
     5
170
     0
171
     0
290
     0
174
     0
 93
        1
 44
0.0
173
     0
291
     1
 45
0.0
1001
ACAD
1000
AcDbSavedByObjectVersion
1070
     0
  0
VISUALSTYLE
  5
39
102
{ACAD_XDICTIONARY
360
382
102
}
102
{ACAD_REACTORS
330
2A
102
}
330
2A
100
AcDbVisualStyle
  2

 70
    15
 71
     2
 72
     2
 73
     0
 90
        0
 40
-0.6
 41
-30.0
 62
     5
 63
     7
421
 16777215
 74
     1
 91
        4
 64
     7
 65
   257
 75
     1
175
     1
 42
1.0
 92
        8
 66
     7
 43
1.0
 76
     1
 77
     6
 78
     2
 67
     7
 79
     5
170
     0
171
     0
290
     0
174
     0
 93
        1
 44
0.0
173
     0
291
     1
 45
0.0
1001
ACAD
1000
AcDbSavedByObjectVersion
1070
     0
  0
VISUALSTYLE
  5
2B
102
{ACAD_XDICTIONARY
360
366
102
}
102
{ACAD_REACTORS
330
2A
102
}
330
2A
100
AcDbVisualStyle
  2

 70
     0
 71
     2
 72
     1
 73
     1
 90
        2
 40
-0.6
 41
30.0
 62
     5
 63
     7
421
 16777215
 74
     0
 91
        0
 64
     7
 65
   257
 75
     1
175
     1
 42
1.0
 92
        8
 66
     7
 43
1.0
 76
     1
 77
     6
 78
     2
 67
     7
 79
     5
170
     0
171
     0
290
     0
174
     0
 93
       13
 44
0.0
173
     0
291
     1
 45
0.0
1001
ACAD
1000
AcDbSavedByObjectVersion
1070
     0
  0
VISUALSTYLE
  5
2C
102
{ACAD_XDICTIONARY
360
368
102
}
102
{ACAD_REACTORS
330
2A
102
}
330
2A
100
AcDbVisualStyle
  2

 70
     1
 71
     2
 72
     1
 73
     1
 90
        2
 40
-0.6
 41
30.0
 62
     5
 63
     7
421
 16777215
 74
     1
 91
        0
 64
     7
 65
   257
 75
     1
175
     1
 42
1.0
 92
        0
 66
   257
 43
1.0
 76
     1
 77
     6
 78
     2
 67
     7
 79
     5
170
     0
171
     0
290
     0
174
     0
 93
       13
 44
0.0
173
     0
291
     1
 45
0.0
1001
ACAD
1000
AcDbSavedByObjectVersion
1070
     0
  0
VISUALSTYLE
  5
2D
102
{ACAD_XDICTIONARY
360
36A
102
}
102
{ACAD_REACTORS
330
2A
102
}
330
2A
100
AcDbVisualStyle
  2

 70
     2
 71
     2
 72
     2
 73
     1
 90
        2
 40
-0.6
 41
30.0
 62
     5
 63
     7
421
 16777215
 74
     0
 91
        0
 64
     7
 65
   257
 75
     1
175
     1
 42
1.0
 92
        0
 66
     7
 43
1.0
 76
     1
 77
     6
 78
     2
 67
     7
 79
     5
170
     0
171
     0
290
     0
174
     0
 93
       13
 44
0.0
173
     0
291
     1
 45
0.0
1001
ACAD
1000
AcDbSavedByObjectVersion
1070
     0
  0
VISUALSTYLE
  5
2E
102
{ACAD_XDICTIONARY
360
36C
102
}
102
{ACAD_REACTORS
330
2A
102
}
330
2A
100
AcDbVisualStyle
  2

 70
     3
 71
     2
 72
     2
 73
     1
 90
        2
 40
-0.6
 41
30.0
 62
     5
 63
     7
421
 16777215
 74
     1
 91
        0
 64
     7
 65
   257
 75
     1
175
     1
 42
1.0
 92
        0
 66
   257
 43
1.0
 76
     1
 77
     6
 78
     2
 67
     7
 79
     5
170
     0
171
     0
290
     0
174
     0
 93
       13
 44
0.0
173
     0
291
     1
 45
0.0
1001
ACAD
1000
AcDbSavedByObjectVersion
1070
     0
  0
VISUALSTYLE
  5
31
102
{ACAD_XDICTIONARY
360
372
102
}
102
{ACAD_REACTORS
330
2A
102
}
330
2A
100
AcDbVisualStyle
  2

 70
     6
 71
     1
 72
     2
 73
     2
 90
        0
 40
-0.6
 41
-30.0
 62
     5
 63
     7
421
 16777215
 74
     2
 91
        2
 64
     7
 65
   257
 75
     2
175
     1
 42
40.0
 92
        0
 66
   257
 43
1.0
 76
     1
 77
     6
 78
     2
 67
     7
 79
     3
170
     0
171
     0
290
     0
174
     0
 93
        1
 44
0.0
173
     0
291
     0
 45
0.0
1001
ACAD
1000
AcDbSavedByObjectVersion
1070
     0
  0
VISUALSTYLE
  5
3B
102
{ACAD_XDICTIONARY
360
386
102
}
102
{ACAD_REACTORS
330
2A
102
}
330
2A
100
AcDbVisualStyle
  2

 70
    20
 71
     2
 72
     2
 73
     0
 90
        0
 40
-0.6
 41
-30.0
 62
     5
 63
     7
421
 16777215
 74
     1
 91
        4
 64
     7
 65
   257
 75
     1
175
     1
 42
1.0
 92
       10
 66
     7
 43
1.0
 76
     1
 77
     6
 78
     2
 67
     7
 79
     5
170
     0
171
     0
290
     0
174
     0
 93
        1
 44
0.0
173
     0
291
     1
 45
0.0
1001
ACAD
1000
AcDbSavedByObjectVersion
1070
     0
  0
VISUALSTYLE
  5
38
102
{ACAD_XDICTIONARY
360
380
102
}
102
{ACAD_REACTORS
330
2A
102
}
330
2A
100
AcDbVisualStyle
  2

 70
    14
 71
     2
 72
     2
 73
     0
 90
        0
 40
-0.6
 41
-30.0
 62
     5
 63
     7
421
 16777215
 74
     1
 91
        4
 64
     7
 65
   257
 75
     7
175
     7
 42
1.0
 92
        8
 66
     7
 43
1.0
 76
     1
 77
     6
 78
     2
 67
     7
 79
     5
170
     0
171
     0
290
     0
174
     0
 93
        1
 44
0.0
173
     0
291
     1
 45
0.0
1001
ACAD
1000
AcDbSavedByObjectVersion
1070
     0
  0
VISUALSTYLE
  5
3C
102
{ACAD_XDICTIONARY
360
388
102
}
102
{ACAD_REACTORS
330
2A
102
}
330
2A
100
AcDbVisualStyle
  2

 70
    21
 71
     2
 72
     2
 73
     0
 90
        0
 40
-0.6
 41
-30.0
 62
     5
 63
     7
421
 16777215
 74
     1
 91
        4
 64
     7
 65
   257
 75
     1
175
     1
 42
1.0
 92
        9
 66
     7
 43
1.0
 76
     1
 77
     6
 78
     2
 67
     7
 79
     5
170
     0
171
     0
290
     0
174
     0
 93
        1
 44
0.0
173
     0
291
     1
 45
0.0
1001
ACAD
1000
AcDbSavedByObjectVersion
1070
     0
  0
VISUALSTYLE
  5
33
102
{ACAD_XDICTIONARY
360
376
102
}
102
{ACAD_REACTORS
330
2A
102
}
330
2A
100
AcDbVisualStyle
  2

 70
     8
 71
     2
 72
     3
 73
     0
 90
        2
 40
-0.6
 41
30.0
 62
     5
 63
     7
421
 16777215
 74
     0
 91
        0
 64
     7
 65
   257
 75
     1
175
     1
 42
1.0
 92
        8
 66
   257
 43
1.0
 76
     1
 77
     6
 78
     2
 67
     7
 79
     3
170
     0
171
     0
290
     0
174
     0
 93
       13
 44
0.0
173
     0
291
     0
 45
0.0
1001
ACAD
1000
AcDbSavedByObjectVersion
1070
     0
  0
VISUALSTYLE
  5
42
102
{ACAD_XDICTIONARY
360
394
102
}
102
{ACAD_REACTORS
330
2A
102
}
330
2A
100
AcDbVisualStyle
  2

 70
    27
 71
     2
 72
     2
 73
     1
 90
        2
 40
-0.6
 41
30.0
 62
     5
 63
     7
421
 16777215
 74
     0
 91
        4
 64
     7
 65
   257
 75
     1
175
     1
 42
1.0
 92
        8
 66
   257
 43
1.0
 76
     1
 77
     6
 78
     2
 67
     8
425
  7895160
 79
     3
170
     0
171
     0
290
     0
174
     0
 93
        5
 44
0.0
173
     0
291
     0
 45
0.0
1001
ACAD
1000
AcDbSavedByObjectVersion
1070
     0
  0
VISUALSTYLE
  5
41
102
{ACAD_XDICTIONARY
360
392
102
}
102
{ACAD_REACTORS
330
2A
102
}
330
2A
100
AcDbVisualStyle
  2

 70
    26
 71
     2
 72
     2
 73
     1
 90
        2
 40
-0.6
 41
30.0
 62
     5
 63
     7
421
 16777215
 74
     1
 91
       10
 64
     7
 65
   257
 75
     2
175
     1
 42
1.0
 92
        8
 66
   257
 43
1.0
 76
     1
 77
     6
 78
     2
 67
     7
 79
     3
170
     0
171
     0
290
     0
174
     0
 93
        5
 44
0.0
173
     0
291
     0
 45
0.0
1001
ACAD
1000
AcDbSavedByObjectVersion
1070
     0
  0
VISUALSTYLE
  5
3E
102
{ACAD_XDICTIONARY
360
38C
102
}
102
{ACAD_REACTORS
330
2A
102
}
330
2A
100
AcDbVisualStyle
  2

 70
    23
 71
     2
 72
     2
 73
     3
 90
        0
 40
-0.6
 41
-30.0
 62
     5
 63
     7
421
 16777215
 74
     2
 91
        2
 64
     7
 65
     7
 75
     1
175
     1
 42
40.0
 92
        8
 66
     7
 43
1.0
 76
     1
 77
     6
 78
     2
 67
     7
 79
     3
170
     0
171
     0
290
     0
174
     0
 93
        1
 44
0.0
173
     0
291
     0
 45
0.0
1001
ACAD
1000
AcDbSavedByObjectVersion
1070
     0
  0
VISUALSTYLE
  5
3F
102
{ACAD_XDICTIONARY
360
38E
102
}
102
{ACAD_REACTORS
330
2A
102
}
330
2A
100
AcDbVisualStyle
  2

 70
    24
 71
     1
 72
     2
 73
     2
 90
        0
 40
-0.6
 41
-30.0
 62
     5
 63
     7
421
 16777215
 74
     2
 91
        2
 64
     7
 65
     7
 75
     1
175
     1
 42
40.0
 92
       11
 66
     7
 43
1.0
 76
     1
 77
     6
 78
     2
 67
     7
 79
     6
170
     0
171
     0
290
     0
174
     0
 93
        1
 44
0.0
173
     0
291
     0
 45
0.0
1001
ACAD
1000
AcDbSavedByObjectVersion
1070
     0
  0
VISUALSTYLE
  5
37
102
{ACAD_XDICTIONARY
360
37E
102
}
102
{ACAD_REACTORS
330
2A
102
}
330
2A
100
AcDbVisualStyle
  2

 70
    13
 71
     2
 72
     2
 73
     0
 90
        0
 40
-0.6
 41
-30.0
 62
     5
 63
     7
421
 16777215
 74
     1
 91
        4
 64
     7
 65
   257
 75
     1
175
     1
 42
1.0
 92
       12
 66
     7
 43
1.0
 76
     1
 77
     6
 78
     2
 67
     7
 79
     5
170
     0
171
     0
290
     0
174
     0
 93
        1
 44
0.0
173
     0
291
     1
 45
0.0
1001
ACAD
1000
AcDbSavedByObjectVersion
1070
     0
  0
VISUALSTYLE
  5
30
102
{ACAD_XDICTIONARY
360
370
102
}
102
{ACAD_REACTORS
330
2A
102
}
330
2A
100
AcDbVisualStyle
  2

 70
     5
 71
     0
 72
     2
 73
     0
 90
        0
 40
-0.6
 41
-30.0
 62
     5
 63
     7
421
 16777215
 74
     1
 91
        4
 64
     7
 65
   257
 75
     1
175
     1
 42
1.0
 92
        0
 66
   257
 43
1.0
 76
     1
 77
     6
 78
     2
 67
     7
 79
     3
170
     0
171
     0
290
     0
174
     0
 93
        1
 44
0.0
173
     0
291
     0
 45
0.0
1001
ACAD
1000
AcDbSavedByObjectVersion
1070
     0
  0
VISUALSTYLE
  5
40
102
{ACAD_XDICTIONARY
360
390
102
}
102
{ACAD_REACTORS
330
2A
102
}
330
2A
100
AcDbVisualStyle
  2

 70
    25
 71
     2
 72
     2
 73
     1
 90
        1
 40
0.5
 41
-30.0
 62
     5
 63
     7
421
 16777215
 74
     1
 91
        0
 64
     7
 65
   257
 75
     1
175
     1
 42
1.0
 92
        8
 66
     7
 43
1.0
 76
     1
 77
     6
 78
     2
 67
     7
 79
     3
170
     0
171
     0
290
     0
174
     0
 93
       13
 44
0.0
173
     0
291
     0
 45
0.0
1001
ACAD
1000
AcDbSavedByObjectVersion
1070
     0
  0
DICTIONARYVAR
  5
2B4
102
{ACAD_REACTORS
330
2B3
102
}
330
2B3
100
DictionaryVariables
280
     0
  1
1:1
  0
DICTIONARYVAR
  5
2F5
102
{ACAD_REACTORS
330
2B3
102
}
330
2B3
100
DictionaryVariables
280
     0
  1
STANDARD
  0
DICTIONARYVAR
  5
2F4
102
{ACAD_REACTORS
330
2B3
102
}
330
2B3
100
DictionaryVariables
280
     0
  1
STANDARD
  0
DICTIONARYVAR
  5
360
102
{ACAD_REACTORS
330
2B3
102
}
330
2B3
100
DictionaryVariables
280
     0
  1
Metric50
  0
DICTIONARYVAR
  5
361
102
{ACAD_REACTORS
330
2B3
102
}
330
2B3
100
DictionaryVariables
280
     0
  1
Metric50
  0
DICTIONARYVAR
  5
2B5
102
{ACAD_REACTORS
330
2B3
102
}
330
2B3
100
DictionaryVariables
280
     0
  1
1
  0
DICTIONARYVAR
  5
362
102
{ACAD_REACTORS
330
2B3
102
}
330
2B3
100
DictionaryVariables
280
     0
  1
2
  0
DICTIONARY
  5
399
330
2FC
100
AcDbDictionary
280
     1
281
     1
  3
ACAD_XREC_ROUNDTRIP
360
39A
  0
DICTIONARY
  5
2E9
330
45
100
AcDbDictionary
280
     1
281
     1
  3
ACAD_XREC_ROUNDTRIP
360
2EA
  0
DICTIONARY
  5
2E7
330
44
100
AcDbDictionary
280
     1
281
     1
  3
ACAD_XREC_ROUNDTRIP
360
2E8
  0
DICTIONARY
  5
2EB
330
46
100
AcDbDictionary
280
     1
281
     1
  3
ACAD_XREC_ROUNDTRIP
360
2EC
  0
DICTIONARY
  5
397
330
2FB
100
AcDbDictionary
280
     1
281
     1
  3
ACAD_XREC_ROUNDTRIP
360
398
  0
DICTIONARY
  5
2ED
330
6A
100
AcDbDictionary
280
     1
281
     1
  3
ACAD_ROUNDTRIP_2008_TABLESTYLE_CELLSTYLEMAP
360
364
  3
ACAD_XREC_ROUNDTRIP
360
396
  0
DICTIONARY
  5
36E
330
2F
100
AcDbDictionary
280
     1
281
     1
  3
ACAD_XREC_ROUNDTRIP
360
36F
  0
DICTIONARY
  5
374
330
32
100
AcDbDictionary
280
     1
281
     1
  3
ACAD_XREC_ROUNDTRIP
360
375
  0
DICTIONARY
  5
37C
330
36
100
AcDbDictionary
280
     1
281
     1
  3
ACAD_XREC_ROUNDTRIP
360
37D
  0
DICTIONARY
  5
384
330
3A
100
AcDbDictionary
280
     1
281
     1
  3
ACAD_XREC_ROUNDTRIP
360
385
  0
DICTIONARY
  5
378
330
34
100
AcDbDictionary
280
     1
281
     1
  3
ACAD_XREC_ROUNDTRIP
360
379
  0
DICTIONARY
  5
37A
330
35
100
AcDbDictionary
280
     1
281
     1
  3
ACAD_XREC_ROUNDTRIP
360
37B
  0
DICTIONARY
  5
38A
330
3D
100
AcDbDictionary
280
     1
281
     1
  3
ACAD_XREC_ROUNDTRIP
360
38B
  0
DICTIONARY
  5
382
330
39
100
AcDbDictionary
280
     1
281
     1
  3
ACAD_XREC_ROUNDTRIP
360
383
  0
DICTIONARY
  5
366
330
2B
100
AcDbDictionary
280
     1
281
     1
  3
ACAD_XREC_ROUNDTRIP
360
367
  0
DICTIONARY
  5
368
330
2C
100
AcDbDictionary
280
     1
281
     1
  3
ACAD_XREC_ROUNDTRIP
360
369
  0
DICTIONARY
  5
36A
330
2D
100
AcDbDictionary
280
     1
281
     1
  3
ACAD_XREC_ROUNDTRIP
360
36B
  0
DICTIONARY
  5
36C
330
2E
100
AcDbDictionary
280
     1
281
     1
  3
ACAD_XREC_ROUNDTRIP
360
36D
  0
DICTIONARY
  5
372
330
31
100
AcDbDictionary
280
     1
281
     1
  3
ACAD_XREC_ROUNDTRIP
360
373
  0
DICTIONARY
  5
386
330
3B
100
AcDbDictionary
280
     1
281
     1
  3
ACAD_XREC_ROUNDTRIP
360
387
  0
DICTIONARY
  5
380
330
38
100
AcDbDictionary
280
     1
281
     1
  3
ACAD_XREC_ROUNDTRIP
360
381
  0
DICTIONARY
  5
388
330
3C
100
AcDbDictionary
280
     1
281
     1
  3
ACAD_XREC_ROUNDTRIP
360
389
  0
DICTIONARY
  5
376
330
33
100
AcDbDictionary
280
     1
281
     1
  3
ACAD_XREC_ROUNDTRIP
360
377
  0
DICTIONARY
  5
394
330
42
100
AcDbDictionary
280
     1
281
     1
  3
ACAD_XREC_ROUNDTRIP
360
395
  0
DICTIONARY
  5
392
330
41
100
AcDbDictionary
280
     1
281
     1
  3
ACAD_XREC_ROUNDTRIP
360
393
  0
DICTIONARY
  5
38C
330
3E
100
AcDbDictionary
280
     1
281
     1
  3
ACAD_XREC_ROUNDTRIP
360
38D
  0
DICTIONARY
  5
38E
330
3F
100
AcDbDictionary
280
     1
281
     1
  3
ACAD_XREC_ROUNDTRIP
360
38F
  0
DICTIONARY
  5
37E
330
37
100
AcDbDictionary
280
     1
281
     1
  3
ACAD_XREC_ROUNDTRIP
360
37F
  0
DICTIONARY
  5
370
330
30
100
AcDbDictionary
280
     1
281
     1
  3
ACAD_XREC_ROUNDTRIP
360
371
  0
DICTIONARY
  5
390
330
40
100
AcDbDictionary
280
     1
281
     1
  3
ACAD_XREC_ROUNDTRIP
360
391
  0
XRECORD
  5
39A
102
{ACAD_REACTORS
330
399
102
}
330
399
100
AcDbXrecord
280
     1
102
DISPLAYNAME
  1
Metric50
102
FLAGS
 90
        0
  0
XRECORD
  5
2EA
102
{ACAD_REACTORS
330
2E9
102
}
330
2E9
100
AcDbXrecord
280
     1
102
MATERIAL
148
0.0
149
0.0
149
0.0
 93
        0
 94
      127
282
     0
 72
     1
 77
     1
171
     1
175
     1
179
     1
273
     0
  0
XRECORD
  5
2E8
102
{ACAD_REACTORS
330
2E7
102
}
330
2E7
100
AcDbXrecord
280
     1
102
MATERIAL
148
0.0
149
0.0
149
0.0
 93
        0
 94
      127
282
     0
 72
     1
 77
     1
171
     1
175
     1
179
     1
273
     0
  0
XRECORD
  5
2EC
102
{ACAD_REACTORS
330
2EB
102
}
330
2EB
100
AcDbXrecord
280
     1
102
MATERIAL
148
0.0
149
0.0
149
0.0
 93
        0
 94
      127
282
     0
 72
     1
 77
     1
171
     1
175
     1
179
     1
273
     0
  0
XRECORD
  5
398
102
{ACAD_REACTORS
330
397
102
}
330
397
100
AcDbXrecord
280
     1
102
DISPLAYNAME
  1
Metric50
102
FLAGS
 90
        0
  0
CELLSTYLEMAP
  5
364
102
{ACAD_REACTORS
330
2ED
102
}
330
2ED
100
AcDbCellStyleMap
 90
        3
300
CELLSTYLE
  1
TABLEFORMAT_BEGIN
 90
        5
170
     1
 91
        0
 92
    32768
 62
   257
 93
        1
300
CONTENTFORMAT
  1
CONTENTFORMAT_BEGIN
 90
        0
 91
        0
 92
        4
 93
        0
300

 40
0.0
140
1.0
 94
        5
 62
     0
340
11
144
0.25
309
CONTENTFORMAT_END
171
     1
301
MARGIN
  1
CELLMARGIN_BEGIN
 40
0.06
 40
0.06
 40
0.06
 40
0.06
 40
0.18
 40
0.18
309
CELLMARGIN_END
 94
        6
 95
        1
302
GRIDFORMAT
  1
GRIDFORMAT_BEGIN
 90
        0
 91
        1
 62
     0
 92
       -2
340
14
 93
        0
 40
0.045
309
GRIDFORMAT_END
 95
        2
302
GRIDFORMAT
  1
GRIDFORMAT_BEGIN
 90
        0
 91
        1
 62
     0
 92
       -2
340
14
 93
        0
 40
0.045
309
GRIDFORMAT_END
 95
        4
302
GRIDFORMAT
  1
GRIDFORMAT_BEGIN
 90
        0
 91
        1
 62
     0
 92
       -2
340
14
 93
        0
 40
0.045
309
GRIDFORMAT_END
 95
        8
302
GRIDFORMAT
  1
GRIDFORMAT_BEGIN
 90
        0
 91
        1
 62
     0
 92
       -2
340
14
 93
        0
 40
0.045
309
GRIDFORMAT_END
 95
       16
302
GRIDFORMAT
  1
GRIDFORMAT_BEGIN
 90
        0
 91
        1
 62
     0
 92
       -2
340
14
 93
        0
 40
0.045
309
GRIDFORMAT_END
 95
       32
302
GRIDFORMAT
  1
GRIDFORMAT_BEGIN
 90
        0
 91
        1
 62
     0
 92
       -2
340
14
 93
        0
 40
0.045
309
GRIDFORMAT_END
309
TABLEFORMAT_END
  1
CELLSTYLE_BEGIN
 90
        1
 91
        1
300
_TITLE
309
CELLSTYLE_END
300
CELLSTYLE
  1
TABLEFORMAT_BEGIN
 90
        5
170
     1
 91
        0
 92
        0
 62
   257
 93
        1
300
CONTENTFORMAT
  1
CONTENTFORMAT_BEGIN
 90
        0
 91
        0
 92
        4
 93
        0
300

 40
0.0
140
1.0
 94
        5
 62
     0
340
11
144
0.18
309
CONTENTFORMAT_END
171
     1
301
MARGIN
  1
CELLMARGIN_BEGIN
 40
0.06
 40
0.06
 40
0.06
 40
0.06
 40
0.18
 40
0.18
309
CELLMARGIN_END
 94
        6
 95
        1
302
GRIDFORMAT
  1
GRIDFORMAT_BEGIN
 90
        0
 91
        1
 62
     0
 92
       -2
340
14
 93
        0
 40
0.045
309
GRIDFORMAT_END
 95
        2
302
GRIDFORMAT
  1
GRIDFORMAT_BEGIN
 90
        0
 91
        1
 62
     0
 92
       -2
340
14
 93
        0
 40
0.045
309
GRIDFORMAT_END
 95
        4
302
GRIDFORMAT
  1
GRIDFORMAT_BEGIN
 90
        0
 91
        1
 62
     0
 92
       -2
340
14
 93
        0
 40
0.045
309
GRIDFORMAT_END
 95
        8
302
GRIDFORMAT
  1
GRIDFORMAT_BEGIN
 90
        0
 91
        1
 62
     0
 92
       -2
340
14
 93
        0
 40
0.045
309
GRIDFORMAT_END
 95
       16
302
GRIDFORMAT
  1
GRIDFORMAT_BEGIN
 90
        0
 91
        1
 62
     0
 92
       -2
340
14
 93
        0
 40
0.045
309
GRIDFORMAT_END
 95
       32
302
GRIDFORMAT
  1
GRIDFORMAT_BEGIN
 90
        0
 91
        1
 62
     0
 92
       -2
340
14
 93
        0
 40
0.045
309
GRIDFORMAT_END
309
TABLEFORMAT_END
  1
CELLSTYLE_BEGIN
 90
        2
 91
        1
300
_HEADER
309
CELLSTYLE_END
300
CELLSTYLE
  1
TABLEFORMAT_BEGIN
 90
        5
170
     1
 91
        0
 92
        0
 62
   257
 93
        1
300
CONTENTFORMAT
  1
CONTENTFORMAT_BEGIN
 90
        0
 91
        0
 92
        4
 93
        0
300

 40
0.0
140
1.0
 94
        2
 62
     0
340
11
144
0.18
309
CONTENTFORMAT_END
171
     1
301
MARGIN
  1
CELLMARGIN_BEGIN
 40
0.06
 40
0.06
 40
0.06
 40
0.06
 40
0.18
 40
0.18
309
CELLMARGIN_END
 94
        6
 95
        1
302
GRIDFORMAT
  1
GRIDFORMAT_BEGIN
 90
        0
 91
        1
 62
     0
 92
       -2
340
14
 93
        0
 40
0.045
309
GRIDFORMAT_END
 95
        2
302
GRIDFORMAT
  1
GRIDFORMAT_BEGIN
 90
        0
 91
        1
 62
     0
 92
       -2
340
14
 93
        0
 40
0.045
309
GRIDFORMAT_END
 95
        4
302
GRIDFORMAT
  1
GRIDFORMAT_BEGIN
 90
        0
 91
        1
 62
     0
 92
       -2
340
14
 93
        0
 40
0.045
309
GRIDFORMAT_END
 95
        8
302
GRIDFORMAT
  1
GRIDFORMAT_BEGIN
 90
        0
 91
        1
 62
     0
 92
       -2
340
14
 93
        0
 40
0.045
309
GRIDFORMAT_END
 95
       16
302
GRIDFORMAT
  1
GRIDFORMAT_BEGIN
 90
        0
 91
        1
 62
     0
 92
       -2
340
14
 93
        0
 40
0.045
309
GRIDFORMAT_END
 95
       32
302
GRIDFORMAT
  1
GRIDFORMAT_BEGIN
 90
        0
 91
        1
 62
     0
 92
       -2
340
14
 93
        0
 40
0.045
309
GRIDFORMAT_END
309
TABLEFORMAT_END
  1
CELLSTYLE_BEGIN
 90
        3
 91
        2
300
_DATA
309
CELLSTYLE_END
  0
XRECORD
  5
396
102
{ACAD_REACTORS
330
2ED
102
}
330
2ED
100
AcDbXrecord
280
     1
102
ACAD_ROUNDTRIP_PRE2007_TABLESTYLE
 90
        4
 91
        0
  1

 92
        4
 93
        0
  2

 94
        4
 95
        0
  3

  0
XRECORD
  5
36F
102
{ACAD_REACTORS
330
36E
102
}
330
36E
100
AcDbXrecord
280
     1
102
RTVSPost2010Prop28
280
     1
102
RTVSPost2010PropOp28
 70
     1
102
RTVSPost2010Prop29
280
     1
102
RTVSPost2010PropOp29
 70
     1
102
RTVSPost2010Prop30
280
     0
102
RTVSPost2010PropOp30
 70
     1
102
RTVSPost2010Prop31
280
     0
102
RTVSPost2010PropOp31
 70
     1
102
RTVSPost2010Prop32
280
     0
102
RTVSPost2010PropOp32
 70
     1
102
RTVSPost2010Prop33
280
     0
102
RTVSPost2010PropOp33
 70
     1
102
RTVSPost2010Prop34
280
     0
102
RTVSPost2010PropOp34
 70
     1
102
RTVSPost2010Prop35
280
     0
102
RTVSPost2010PropOp35
 70
     1
102
RTVSPost2010Prop36
280
     0
102
RTVSPost2010PropOp36
 70
     1
102
RTVSPost2010Prop37
 90
       50
102
RTVSPost2010PropOp37
 70
     1
102
RTVSPost2010Prop38
140
0.0
102
RTVSPost2010PropOp38
 70
     1
102
RTVSPost2010Prop39
140
1.0
102
RTVSPost2010PropOp39
 70
     1
102
RTVSPost2010Prop40
 90
        0
102
RTVSPost2010PropOp40
 70
     1
102
RTVSPost2010Prop41ColorIndex
 90
       18
102
RTVSPost2010Prop41ColorRGB
 90
        0
102
RTVSPost2010PropOp41
 70
     1
102
RTVSPost2010Prop42
 90
       50
102
RTVSPost2010PropOp42
 70
     1
102
RTVSPost2010Prop43
 90
        3
102
RTVSPost2010PropOp43
 70
     1
102
RTVSPost2010Prop44ColorIndex
 90
        5
102
RTVSPost2010Prop44ColorRGB
 90
      255
102
RTVSPost2010PropOp44
 70
     1
102
RTVSPost2010Prop45
280
     0
102
RTVSPost2010PropOp45
 70
     1
102
RTVSPost2010Prop46
 90
       50
102
RTVSPost2010PropOp46
 70
     1
102
RTVSPost2010Prop47
 90
       50
102
RTVSPost2010PropOp47
 70
     1
102
RTVSPost2010Prop48
 90
       50
102
RTVSPost2010PropOp48
 70
     1
102
RTVSPost2010Prop49
280
     0
102
RTVSPost2010PropOp49
 70
     1
102
RTVSPost2010Prop50
 90
       50
102
RTVSPost2010PropOp50
 70
     1
102
RTVSPost2010Prop51ColorIndex
 90
      256
102
RTVSPost2010Prop51ColorRGB
 90
-16777216
102
RTVSPost2010PropOp51
 70
     0
102
RTVSPost2010Prop52
140
1.0
102
RTVSPost2010PropOp52
 70
     0
102
RTVSPost2010Prop53
 90
        2
102
RTVSPost2010PropOp53
 70
     1
102
RTVSPost2010Prop54
  1
strokes_ogs.tif
102
RTVSPost2010PropOp54
 70
     1
102
RTVSPost2010Prop55
280
     0
102
RTVSPost2010PropOp55
 70
     1
102
RTVSPost2010Prop56
140
1.0
102
RTVSPost2010PropOp56
 70
     1
102
RTVSPost2010Prop57
140
1.0
102
RTVSPost2010PropOp57
 70
     1
102
RTVSPropertyOp0
 70
     1
102
RTVSPropertyOp1
 70
     1
102
RTVSPropertyOp2
 70
     1
102
RTVSPropertyOp3
 70
     1
102
RTVSPropertyOp4
 70
     1
102
RTVSPropertyOp5
 70
     1
102
RTVSPropertyOp6
 70
     1
102
RTVSPropertyOp7
 70
     1
102
RTVSPropertyOp8
 70
     1
102
RTVSPropertyOp9
 70
     1
102
RTVSPropertyOp10
 70
     1
102
RTVSPropertyOp11
 70
     1
102
RTVSPropertyOp12
 70
     1
102
RTVSPropertyOp13
 70
     1
102
RTVSPropertyOp14
 70
     1
102
RTVSPropertyOp15
 70
     1
102
RTVSPropertyOp16
 70
     1
102
RTVSPropertyOp17
 70
     1
102
RTVSPropertyOp18
 70
     1
102
RTVSPropertyOp19
 70
     1
102
RTVSPropertyOp20
 70
     1
102
RTVSPropertyOp21
 70
     1
102
RTVSPropertyOp22
 70
     1
102
RTVSPropertyOp23
 70
     1
102
RTVSPropertyOp24
 70
     1
102
RTVSPropertyOp25
 70
     1
102
RTVSPropertyOp26
 70
     1
102
RTVSPropertyOp27
 70
     1
102
RTVSPropertyOp28
 70
     1
102
RTVSPropertyOp29
 70
     1
102
RTVSPropertyOp30
 70
     1
102
RTVSPropertyOp31
 70
     1
102
RTVSPropertyOp32
 70
     1
102
RTVSPropertyOp33
 70
     1
102
RTVSPropertyOp34
 70
     1
102
RTVSPropertyOp35
 70
     1
102
RTVSPropertyOp36
 70
     1
102
RTVSPropertyOp37
 70
     1
102
RTVSPropertyOp38
 70
     1
102
RTVSPropertyOp39
 70
     1
102
RTVSPropertyOp40
 70
     1
102
RTVSPropertyOp41
 70
     1
102
RTVSPropertyOp42
 70
     1
102
RTVSPropertyOp43
 70
     1
102
RTVSPropertyOp44
 70
     1
102
RTVSPropertyOp45
 70
     1
102
RTVSPropertyOp46
 70
     1
102
RTVSPropertyOp47
 70
     1
102
RTVSPropertyOp48
 70
     1
102
RTVSPropertyOp49
 70
     1
102
RTVSPropertyOp50
 70
     1
102
RTVSPropertyOp51
 70
     0
102
RTVSPropertyOp52
 70
     0
102
RTVSPropertyOp53
 70
     1
102
RTVSPropertyOp54
 70
     1
102
RTVSPropertyOp55
 70
     1
102
RTVSPropertyOp56
 70
     1
102
RTVSPropertyOp57
 70
     1
102
RTVSPropertyOp58
 70
     1
102
RTVSPropertyOp59
 70
     1
102
RTVSPropertyOp60
 70
     1
102
RTVSPropertyOp61
 70
     1
102
RTVSPropertyOp62
 70
     1
  0
XRECORD
  5
375
102
{ACAD_REACTORS
330
374
102
}
330
374
100
AcDbXrecord
280
     1
102
RTVSPost2010Prop28
280
     0
102
RTVSPost2010PropOp28
 70
     1
102
RTVSPost2010Prop29
280
     1
102
RTVSPost2010PropOp29
 70
     1
102
RTVSPost2010Prop30
280
     1
102
RTVSPost2010PropOp30
 70
     1
102
RTVSPost2010Prop31
280
     0
102
RTVSPost2010PropOp31
 70
     1
102
RTVSPost2010Prop32
280
     0
102
RTVSPost2010PropOp32
 70
     1
102
RTVSPost2010Prop33
280
     0
102
RTVSPost2010PropOp33
 70
     1
102
RTVSPost2010Prop34
280
     0
102
RTVSPost2010PropOp34
 70
     1
102
RTVSPost2010Prop35
280
     0
102
RTVSPost2010PropOp35
 70
     1
102
RTVSPost2010Prop36
280
     0
102
RTVSPost2010PropOp36
 70
     1
102
RTVSPost2010Prop37
 90
       50
102
RTVSPost2010PropOp37
 70
     1
102
RTVSPost2010Prop38
140
0.0
102
RTVSPost2010PropOp38
 70
     1
102
RTVSPost2010Prop39
140
1.0
102
RTVSPost2010PropOp39
 70
     1
102
RTVSPost2010Prop40
 90
        0
102
RTVSPost2010PropOp40
 70
     1
102
RTVSPost2010Prop41ColorIndex
 90
       18
102
RTVSPost2010Prop41ColorRGB
 90
        0
102
RTVSPost2010PropOp41
 70
     1
102
RTVSPost2010Prop42
 90
       50
102
RTVSPost2010PropOp42
 70
     1
102
RTVSPost2010Prop43
 90
        3
102
RTVSPost2010PropOp43
 70
     1
102
RTVSPost2010Prop44ColorIndex
 90
        5
102
RTVSPost2010Prop44ColorRGB
 90
      255
102
RTVSPost2010PropOp44
 70
     1
102
RTVSPost2010Prop45
280
     0
102
RTVSPost2010PropOp45
 70
     1
102
RTVSPost2010Prop46
 90
       50
102
RTVSPost2010PropOp46
 70
     1
102
RTVSPost2010Prop47
 90
       50
102
RTVSPost2010PropOp47
 70
     1
102
RTVSPost2010Prop48
 90
       50
102
RTVSPost2010PropOp48
 70
     1
102
RTVSPost2010Prop49
280
     0
102
RTVSPost2010PropOp49
 70
     1
102
RTVSPost2010Prop50
 90
       50
102
RTVSPost2010PropOp50
 70
     1
102
RTVSPost2010Prop51ColorIndex
 90
      256
102
RTVSPost2010Prop51ColorRGB
 90
-16777216
102
RTVSPost2010PropOp51
 70
     0
102
RTVSPost2010Prop52
140
1.0
102
RTVSPost2010PropOp52
 70
     0
102
RTVSPost2010Prop53
 90
        2
102
RTVSPost2010PropOp53
 70
     1
102
RTVSPost2010Prop54
  1
strokes_ogs.tif
102
RTVSPost2010PropOp54
 70
     1
102
RTVSPost2010Prop55
280
     0
102
RTVSPost2010PropOp55
 70
     1
102
RTVSPost2010Prop56
140
1.0
102
RTVSPost2010PropOp56
 70
     1
102
RTVSPost2010Prop57
140
1.0
102
RTVSPost2010PropOp57
 70
     1
102
RTVSPropertyOp0
 70
     1
102
RTVSPropertyOp1
 70
     1
102
RTVSPropertyOp2
 70
     1
102
RTVSPropertyOp3
 70
     1
102
RTVSPropertyOp4
 70
     1
102
RTVSPropertyOp5
 70
     1
102
RTVSPropertyOp6
 70
     1
102
RTVSPropertyOp7
 70
     1
102
RTVSPropertyOp8
 70
     1
102
RTVSPropertyOp9
 70
     1
102
RTVSPropertyOp10
 70
     1
102
RTVSPropertyOp11
 70
     1
102
RTVSPropertyOp12
 70
     1
102
RTVSPropertyOp13
 70
     1
102
RTVSPropertyOp14
 70
     1
102
RTVSPropertyOp15
 70
     1
102
RTVSPropertyOp16
 70
     1
102
RTVSPropertyOp17
 70
     1
102
RTVSPropertyOp18
 70
     1
102
RTVSPropertyOp19
 70
     1
102
RTVSPropertyOp20
 70
     1
102
RTVSPropertyOp21
 70
     1
102
RTVSPropertyOp22
 70
     1
102
RTVSPropertyOp23
 70
     1
102
RTVSPropertyOp24
 70
     1
102
RTVSPropertyOp25
 70
     1
102
RTVSPropertyOp26
 70
     1
102
RTVSPropertyOp27
 70
     1
102
RTVSPropertyOp28
 70
     1
102
RTVSPropertyOp29
 70
     1
102
RTVSPropertyOp30
 70
     1
102
RTVSPropertyOp31
 70
     1
102
RTVSPropertyOp32
 70
     1
102
RTVSPropertyOp33
 70
     1
102
RTVSPropertyOp34
 70
     1
102
RTVSPropertyOp35
 70
     1
102
RTVSPropertyOp36
 70
     1
102
RTVSPropertyOp37
 70
     1
102
RTVSPropertyOp38
 70
     1
102
RTVSPropertyOp39
 70
     1
102
RTVSPropertyOp40
 70
     1
102
RTVSPropertyOp41
 70
     1
102
RTVSPropertyOp42
 70
     1
102
RTVSPropertyOp43
 70
     1
102
RTVSPropertyOp44
 70
     1
102
RTVSPropertyOp45
 70
     1
102
RTVSPropertyOp46
 70
     1
102
RTVSPropertyOp47
 70
     1
102
RTVSPropertyOp48
 70
     1
102
RTVSPropertyOp49
 70
     1
102
RTVSPropertyOp50
 70
     1
102
RTVSPropertyOp51
 70
     0
102
RTVSPropertyOp52
 70
     0
102
RTVSPropertyOp53
 70
     1
102
RTVSPropertyOp54
 70
     1
102
RTVSPropertyOp55
 70
     1
102
RTVSPropertyOp56
 70
     1
102
RTVSPropertyOp57
 70
     1
102
RTVSPropertyOp58
 70
     1
102
RTVSPropertyOp59
 70
     1
102
RTVSPropertyOp60
 70
     1
102
RTVSPropertyOp61
 70
     1
102
RTVSPropertyOp62
 70
     1
  0
XRECORD
  5
37D
102
{ACAD_REACTORS
330
37C
102
}
330
37C
100
AcDbXrecord
280
     1
102
RTVSPost2010Prop28
280
     0
102
RTVSPost2010PropOp28
 70
     1
102
RTVSPost2010Prop29
280
     1
102
RTVSPost2010PropOp29
 70
     1
102
RTVSPost2010Prop30
280
     1
102
RTVSPost2010PropOp30
 70
     1
102
RTVSPost2010Prop31
280
     0
102
RTVSPost2010PropOp31
 70
     1
102
RTVSPost2010Prop32
280
     0
102
RTVSPost2010PropOp32
 70
     1
102
RTVSPost2010Prop33
280
     0
102
RTVSPost2010PropOp33
 70
     1
102
RTVSPost2010Prop34
280
     0
102
RTVSPost2010PropOp34
 70
     1
102
RTVSPost2010Prop35
280
     0
102
RTVSPost2010PropOp35
 70
     1
102
RTVSPost2010Prop36
280
     0
102
RTVSPost2010PropOp36
 70
     1
102
RTVSPost2010Prop37
 90
       50
102
RTVSPost2010PropOp37
 70
     1
102
RTVSPost2010Prop38
140
0.0
102
RTVSPost2010PropOp38
 70
     1
102
RTVSPost2010Prop39
140
1.0
102
RTVSPost2010PropOp39
 70
     1
102
RTVSPost2010Prop40
 90
        0
102
RTVSPost2010PropOp40
 70
     1
102
RTVSPost2010Prop41ColorIndex
 90
       18
102
RTVSPost2010Prop41ColorRGB
 90
        0
102
RTVSPost2010PropOp41
 70
     1
102
RTVSPost2010Prop42
 90
       50
102
RTVSPost2010PropOp42
 70
     1
102
RTVSPost2010Prop43
 90
        3
102
RTVSPost2010PropOp43
 70
     1
102
RTVSPost2010Prop44ColorIndex
 90
        5
102
RTVSPost2010Prop44ColorRGB
 90
      255
102
RTVSPost2010PropOp44
 70
     1
102
RTVSPost2010Prop45
280
     0
102
RTVSPost2010PropOp45
 70
     1
102
RTVSPost2010Prop46
 90
       50
102
RTVSPost2010PropOp46
 70
     1
102
RTVSPost2010Prop47
 90
       50
102
RTVSPost2010PropOp47
 70
     1
102
RTVSPost2010Prop48
 90
       50
102
RTVSPost2010PropOp48
 70
     1
102
RTVSPost2010Prop49
280
     0
102
RTVSPost2010PropOp49
 70
     1
102
RTVSPost2010Prop50
 90
       50
102
RTVSPost2010PropOp50
 70
     1
102
RTVSPost2010Prop51ColorIndex
 90
      256
102
RTVSPost2010Prop51ColorRGB
 90
-16777216
102
RTVSPost2010PropOp51
 70
     0
102
RTVSPost2010Prop52
140
1.0
102
RTVSPost2010PropOp52
 70
     0
102
RTVSPost2010Prop53
 90
        2
102
RTVSPost2010PropOp53
 70
     1
102
RTVSPost2010Prop54
  1
strokes_ogs.tif
102
RTVSPost2010PropOp54
 70
     1
102
RTVSPost2010Prop55
280
     0
102
RTVSPost2010PropOp55
 70
     1
102
RTVSPost2010Prop56
140
1.0
102
RTVSPost2010PropOp56
 70
     1
102
RTVSPost2010Prop57
140
1.0
102
RTVSPost2010PropOp57
 70
     1
102
RTVSPropertyOp0
 70
     1
102
RTVSPropertyOp1
 70
     1
102
RTVSPropertyOp2
 70
     1
102
RTVSPropertyOp3
 70
     1
102
RTVSPropertyOp4
 70
     1
102
RTVSPropertyOp5
 70
     1
102
RTVSPropertyOp6
 70
     1
102
RTVSPropertyOp7
 70
     1
102
RTVSPropertyOp8
 70
     1
102
RTVSPropertyOp9
 70
     1
102
RTVSPropertyOp10
 70
     1
102
RTVSPropertyOp11
 70
     1
102
RTVSPropertyOp12
 70
     1
102
RTVSPropertyOp13
 70
     1
102
RTVSPropertyOp14
 70
     1
102
RTVSPropertyOp15
 70
     1
102
RTVSPropertyOp16
 70
     1
102
RTVSPropertyOp17
 70
     1
102
RTVSPropertyOp18
 70
     1
102
RTVSPropertyOp19
 70
     1
102
RTVSPropertyOp20
 70
     1
102
RTVSPropertyOp21
 70
     1
102
RTVSPropertyOp22
 70
     1
102
RTVSPropertyOp23
 70
     1
102
RTVSPropertyOp24
 70
     1
102
RTVSPropertyOp25
 70
     1
102
RTVSPropertyOp26
 70
     1
102
RTVSPropertyOp27
 70
     1
102
RTVSPropertyOp28
 70
     1
102
RTVSPropertyOp29
 70
     1
102
RTVSPropertyOp30
 70
     1
102
RTVSPropertyOp31
 70
     1
102
RTVSPropertyOp32
 70
     1
102
RTVSPropertyOp33
 70
     1
102
RTVSPropertyOp34
 70
     1
102
RTVSPropertyOp35
 70
     1
102
RTVSPropertyOp36
 70
     1
102
RTVSPropertyOp37
 70
     1
102
RTVSPropertyOp38
 70
     1
102
RTVSPropertyOp39
 70
     1
102
RTVSPropertyOp40
 70
     1
102
RTVSPropertyOp41
 70
     1
102
RTVSPropertyOp42
 70
     1
102
RTVSPropertyOp43
 70
     1
102
RTVSPropertyOp44
 70
     1
102
RTVSPropertyOp45
 70
     1
102
RTVSPropertyOp46
 70
     1
102
RTVSPropertyOp47
 70
     1
102
RTVSPropertyOp48
 70
     1
102
RTVSPropertyOp49
 70
     1
102
RTVSPropertyOp50
 70
     1
102
RTVSPropertyOp51
 70
     0
102
RTVSPropertyOp52
 70
     0
102
RTVSPropertyOp53
 70
     1
102
RTVSPropertyOp54
 70
     1
102
RTVSPropertyOp55
 70
     1
102
RTVSPropertyOp56
 70
     1
102
RTVSPropertyOp57
 70
     1
102
RTVSPropertyOp58
 70
     1
102
RTVSPropertyOp59
 70
     1
102
RTVSPropertyOp60
 70
     1
102
RTVSPropertyOp61
 70
     1
102
RTVSPropertyOp62
 70
     1
  0
XRECORD
  5
385
102
{ACAD_REACTORS
330
384
102
}
330
384
100
AcDbXrecord
280
     1
102
RTVSPost2010Prop28
280
     0
102
RTVSPost2010PropOp28
 70
     1
102
RTVSPost2010Prop29
280
     1
102
RTVSPost2010PropOp29
 70
     1
102
RTVSPost2010Prop30
280
     1
102
RTVSPost2010PropOp30
 70
     1
102
RTVSPost2010Prop31
280
     0
102
RTVSPost2010PropOp31
 70
     1
102
RTVSPost2010Prop32
280
     0
102
RTVSPost2010PropOp32
 70
     1
102
RTVSPost2010Prop33
280
     0
102
RTVSPost2010PropOp33
 70
     1
102
RTVSPost2010Prop34
280
     0
102
RTVSPost2010PropOp34
 70
     1
102
RTVSPost2010Prop35
280
     0
102
RTVSPost2010PropOp35
 70
     1
102
RTVSPost2010Prop36
280
     0
102
RTVSPost2010PropOp36
 70
     1
102
RTVSPost2010Prop37
 90
       50
102
RTVSPost2010PropOp37
 70
     1
102
RTVSPost2010Prop38
140
0.0
102
RTVSPost2010PropOp38
 70
     1
102
RTVSPost2010Prop39
140
1.0
102
RTVSPost2010PropOp39
 70
     1
102
RTVSPost2010Prop40
 90
        0
102
RTVSPost2010PropOp40
 70
     1
102
RTVSPost2010Prop41ColorIndex
 90
       18
102
RTVSPost2010Prop41ColorRGB
 90
        0
102
RTVSPost2010PropOp41
 70
     1
102
RTVSPost2010Prop42
 90
       50
102
RTVSPost2010PropOp42
 70
     1
102
RTVSPost2010Prop43
 90
        3
102
RTVSPost2010PropOp43
 70
     1
102
RTVSPost2010Prop44ColorIndex
 90
        5
102
RTVSPost2010Prop44ColorRGB
 90
      255
102
RTVSPost2010PropOp44
 70
     1
102
RTVSPost2010Prop45
280
     0
102
RTVSPost2010PropOp45
 70
     1
102
RTVSPost2010Prop46
 90
       50
102
RTVSPost2010PropOp46
 70
     1
102
RTVSPost2010Prop47
 90
       50
102
RTVSPost2010PropOp47
 70
     1
102
RTVSPost2010Prop48
 90
       50
102
RTVSPost2010PropOp48
 70
     1
102
RTVSPost2010Prop49
280
     0
102
RTVSPost2010PropOp49
 70
     1
102
RTVSPost2010Prop50
 90
       50
102
RTVSPost2010PropOp50
 70
     1
102
RTVSPost2010Prop51ColorIndex
 90
      256
102
RTVSPost2010Prop51ColorRGB
 90
-16777216
102
RTVSPost2010PropOp51
 70
     0
102
RTVSPost2010Prop52
140
1.0
102
RTVSPost2010PropOp52
 70
     0
102
RTVSPost2010Prop53
 90
        2
102
RTVSPost2010PropOp53
 70
     1
102
RTVSPost2010Prop54
  1
strokes_ogs.tif
102
RTVSPost2010PropOp54
 70
     1
102
RTVSPost2010Prop55
280
     0
102
RTVSPost2010PropOp55
 70
     1
102
RTVSPost2010Prop56
140
1.0
102
RTVSPost2010PropOp56
 70
     1
102
RTVSPost2010Prop57
140
1.0
102
RTVSPost2010PropOp57
 70
     1
102
RTVSPropertyOp0
 70
     1
102
RTVSPropertyOp1
 70
     1
102
RTVSPropertyOp2
 70
     1
102
RTVSPropertyOp3
 70
     1
102
RTVSPropertyOp4
 70
     1
102
RTVSPropertyOp5
 70
     1
102
RTVSPropertyOp6
 70
     1
102
RTVSPropertyOp7
 70
     1
102
RTVSPropertyOp8
 70
     1
102
RTVSPropertyOp9
 70
     1
102
RTVSPropertyOp10
 70
     1
102
RTVSPropertyOp11
 70
     1
102
RTVSPropertyOp12
 70
     1
102
RTVSPropertyOp13
 70
     1
102
RTVSPropertyOp14
 70
     1
102
RTVSPropertyOp15
 70
     1
102
RTVSPropertyOp16
 70
     1
102
RTVSPropertyOp17
 70
     1
102
RTVSPropertyOp18
 70
     1
102
RTVSPropertyOp19
 70
     1
102
RTVSPropertyOp20
 70
     1
102
RTVSPropertyOp21
 70
     1
102
RTVSPropertyOp22
 70
     1
102
RTVSPropertyOp23
 70
     1
102
RTVSPropertyOp24
 70
     1
102
RTVSPropertyOp25
 70
     1
102
RTVSPropertyOp26
 70
     1
102
RTVSPropertyOp27
 70
     1
102
RTVSPropertyOp28
 70
     1
102
RTVSPropertyOp29
 70
     1
102
RTVSPropertyOp30
 70
     1
102
RTVSPropertyOp31
 70
     1
102
RTVSPropertyOp32
 70
     1
102
RTVSPropertyOp33
 70
     1
102
RTVSPropertyOp34
 70
     1
102
RTVSPropertyOp35
 70
     1
102
RTVSPropertyOp36
 70
     1
102
RTVSPropertyOp37
 70
     1
102
RTVSPropertyOp38
 70
     1
102
RTVSPropertyOp39
 70
     1
102
RTVSPropertyOp40
 70
     1
102
RTVSPropertyOp41
 70
     1
102
RTVSPropertyOp42
 70
     1
102
RTVSPropertyOp43
 70
     1
102
RTVSPropertyOp44
 70
     1
102
RTVSPropertyOp45
 70
     1
102
RTVSPropertyOp46
 70
     1
102
RTVSPropertyOp47
 70
     1
102
RTVSPropertyOp48
 70
     1
102
RTVSPropertyOp49
 70
     1
102
RTVSPropertyOp50
 70
     1
102
RTVSPropertyOp51
 70
     0
102
RTVSPropertyOp52
 70
     0
102
RTVSPropertyOp53
 70
     1
102
RTVSPropertyOp54
 70
     1
102
RTVSPropertyOp55
 70
     1
102
RTVSPropertyOp56
 70
     1
102
RTVSPropertyOp57
 70
     1
102
RTVSPropertyOp58
 70
     1
102
RTVSPropertyOp59
 70
     1
102
RTVSPropertyOp60
 70
     1
102
RTVSPropertyOp61
 70
     1
102
RTVSPropertyOp62
 70
     1
  0
XRECORD
  5
379
102
{ACAD_REACTORS
330
378
102
}
330
378
100
AcDbXrecord
280
     1
102
RTVSPost2010Prop28
280
     0
102
RTVSPost2010PropOp28
 70
     1
102
RTVSPost2010Prop29
280
     1
102
RTVSPost2010PropOp29
 70
     1
102
RTVSPost2010Prop30
280
     1
102
RTVSPost2010PropOp30
 70
     1
102
RTVSPost2010Prop31
280
     0
102
RTVSPost2010PropOp31
 70
     1
102
RTVSPost2010Prop32
280
     0
102
RTVSPost2010PropOp32
 70
     1
102
RTVSPost2010Prop33
280
     0
102
RTVSPost2010PropOp33
 70
     1
102
RTVSPost2010Prop34
280
     0
102
RTVSPost2010PropOp34
 70
     1
102
RTVSPost2010Prop35
280
     0
102
RTVSPost2010PropOp35
 70
     1
102
RTVSPost2010Prop36
280
     0
102
RTVSPost2010PropOp36
 70
     1
102
RTVSPost2010Prop37
 90
       50
102
RTVSPost2010PropOp37
 70
     1
102
RTVSPost2010Prop38
140
0.0
102
RTVSPost2010PropOp38
 70
     1
102
RTVSPost2010Prop39
140
1.0
102
RTVSPost2010PropOp39
 70
     1
102
RTVSPost2010Prop40
 90
        0
102
RTVSPost2010PropOp40
 70
     1
102
RTVSPost2010Prop41ColorIndex
 90
       18
102
RTVSPost2010Prop41ColorRGB
 90
        0
102
RTVSPost2010PropOp41
 70
     1
102
RTVSPost2010Prop42
 90
       50
102
RTVSPost2010PropOp42
 70
     1
102
RTVSPost2010Prop43
 90
        3
102
RTVSPost2010PropOp43
 70
     1
102
RTVSPost2010Prop44ColorIndex
 90
        5
102
RTVSPost2010Prop44ColorRGB
 90
      255
102
RTVSPost2010PropOp44
 70
     1
102
RTVSPost2010Prop45
280
     0
102
RTVSPost2010PropOp45
 70
     1
102
RTVSPost2010Prop46
 90
       50
102
RTVSPost2010PropOp46
 70
     1
102
RTVSPost2010Prop47
 90
       50
102
RTVSPost2010PropOp47
 70
     1
102
RTVSPost2010Prop48
 90
       50
102
RTVSPost2010PropOp48
 70
     1
102
RTVSPost2010Prop49
280
     0
102
RTVSPost2010PropOp49
 70
     1
102
RTVSPost2010Prop50
 90
       50
102
RTVSPost2010PropOp50
 70
     1
102
RTVSPost2010Prop51ColorIndex
 90
      256
102
RTVSPost2010Prop51ColorRGB
 90
-16777216
102
RTVSPost2010PropOp51
 70
     0
102
RTVSPost2010Prop52
140
1.0
102
RTVSPost2010PropOp52
 70
     0
102
RTVSPost2010Prop53
 90
        2
102
RTVSPost2010PropOp53
 70
     1
102
RTVSPost2010Prop54
  1
strokes_ogs.tif
102
RTVSPost2010PropOp54
 70
     1
102
RTVSPost2010Prop55
280
     0
102
RTVSPost2010PropOp55
 70
     1
102
RTVSPost2010Prop56
140
1.0
102
RTVSPost2010PropOp56
 70
     1
102
RTVSPost2010Prop57
140
1.0
102
RTVSPost2010PropOp57
 70
     1
102
RTVSPropertyOp0
 70
     1
102
RTVSPropertyOp1
 70
     1
102
RTVSPropertyOp2
 70
     1
102
RTVSPropertyOp3
 70
     1
102
RTVSPropertyOp4
 70
     1
102
RTVSPropertyOp5
 70
     1
102
RTVSPropertyOp6
 70
     1
102
RTVSPropertyOp7
 70
     1
102
RTVSPropertyOp8
 70
     1
102
RTVSPropertyOp9
 70
     1
102
RTVSPropertyOp10
 70
     1
102
RTVSPropertyOp11
 70
     1
102
RTVSPropertyOp12
 70
     1
102
RTVSPropertyOp13
 70
     1
102
RTVSPropertyOp14
 70
     1
102
RTVSPropertyOp15
 70
     1
102
RTVSPropertyOp16
 70
     1
102
RTVSPropertyOp17
 70
     1
102
RTVSPropertyOp18
 70
     1
102
RTVSPropertyOp19
 70
     1
102
RTVSPropertyOp20
 70
     1
102
RTVSPropertyOp21
 70
     1
102
RTVSPropertyOp22
 70
     1
102
RTVSPropertyOp23
 70
     1
102
RTVSPropertyOp24
 70
     1
102
RTVSPropertyOp25
 70
     1
102
RTVSPropertyOp26
 70
     1
102
RTVSPropertyOp27
 70
     1
102
RTVSPropertyOp28
 70
     1
102
RTVSPropertyOp29
 70
     1
102
RTVSPropertyOp30
 70
     1
102
RTVSPropertyOp31
 70
     1
102
RTVSPropertyOp32
 70
     1
102
RTVSPropertyOp33
 70
     1
102
RTVSPropertyOp34
 70
     1
102
RTVSPropertyOp35
 70
     1
102
RTVSPropertyOp36
 70
     1
102
RTVSPropertyOp37
 70
     1
102
RTVSPropertyOp38
 70
     1
102
RTVSPropertyOp39
 70
     1
102
RTVSPropertyOp40
 70
     1
102
RTVSPropertyOp41
 70
     1
102
RTVSPropertyOp42
 70
     1
102
RTVSPropertyOp43
 70
     1
102
RTVSPropertyOp44
 70
     1
102
RTVSPropertyOp45
 70
     1
102
RTVSPropertyOp46
 70
     1
102
RTVSPropertyOp47
 70
     1
102
RTVSPropertyOp48
 70
     1
102
RTVSPropertyOp49
 70
     1
102
RTVSPropertyOp50
 70
     1
102
RTVSPropertyOp51
 70
     0
102
RTVSPropertyOp52
 70
     0
102
RTVSPropertyOp53
 70
     1
102
RTVSPropertyOp54
 70
     1
102
RTVSPropertyOp55
 70
     1
102
RTVSPropertyOp56
 70
     1
102
RTVSPropertyOp57
 70
     1
102
RTVSPropertyOp58
 70
     1
102
RTVSPropertyOp59
 70
     1
102
RTVSPropertyOp60
 70
     1
102
RTVSPropertyOp61
 70
     1
102
RTVSPropertyOp62
 70
     1
  0
XRECORD
  5
37B
102
{ACAD_REACTORS
330
37A
102
}
330
37A
100
AcDbXrecord
280
     1
102
RTVSPost2010Prop28
280
     0
102
RTVSPost2010PropOp28
 70
     1
102
RTVSPost2010Prop29
280
     1
102
RTVSPost2010PropOp29
 70
     1
102
RTVSPost2010Prop30
280
     1
102
RTVSPost2010PropOp30
 70
     1
102
RTVSPost2010Prop31
280
     0
102
RTVSPost2010PropOp31
 70
     1
102
RTVSPost2010Prop32
280
     0
102
RTVSPost2010PropOp32
 70
     1
102
RTVSPost2010Prop33
280
     0
102
RTVSPost2010PropOp33
 70
     1
102
RTVSPost2010Prop34
280
     0
102
RTVSPost2010PropOp34
 70
     1
102
RTVSPost2010Prop35
280
     0
102
RTVSPost2010PropOp35
 70
     1
102
RTVSPost2010Prop36
280
     0
102
RTVSPost2010PropOp36
 70
     1
102
RTVSPost2010Prop37
 90
       50
102
RTVSPost2010PropOp37
 70
     1
102
RTVSPost2010Prop38
140
0.0
102
RTVSPost2010PropOp38
 70
     1
102
RTVSPost2010Prop39
140
1.0
102
RTVSPost2010PropOp39
 70
     1
102
RTVSPost2010Prop40
 90
        0
102
RTVSPost2010PropOp40
 70
     1
102
RTVSPost2010Prop41ColorIndex
 90
       18
102
RTVSPost2010Prop41ColorRGB
 90
        0
102
RTVSPost2010PropOp41
 70
     1
102
RTVSPost2010Prop42
 90
       50
102
RTVSPost2010PropOp42
 70
     1
102
RTVSPost2010Prop43
 90
        3
102
RTVSPost2010PropOp43
 70
     1
102
RTVSPost2010Prop44ColorIndex
 90
        5
102
RTVSPost2010Prop44ColorRGB
 90
      255
102
RTVSPost2010PropOp44
 70
     1
102
RTVSPost2010Prop45
280
     0
102
RTVSPost2010PropOp45
 70
     1
102
RTVSPost2010Prop46
 90
       50
102
RTVSPost2010PropOp46
 70
     1
102
RTVSPost2010Prop47
 90
       50
102
RTVSPost2010PropOp47
 70
     1
102
RTVSPost2010Prop48
 90
       50
102
RTVSPost2010PropOp48
 70
     1
102
RTVSPost2010Prop49
280
     0
102
RTVSPost2010PropOp49
 70
     1
102
RTVSPost2010Prop50
 90
       50
102
RTVSPost2010PropOp50
 70
     1
102
RTVSPost2010Prop51ColorIndex
 90
      256
102
RTVSPost2010Prop51ColorRGB
 90
-16777216
102
RTVSPost2010PropOp51
 70
     0
102
RTVSPost2010Prop52
140
1.0
102
RTVSPost2010PropOp52
 70
     0
102
RTVSPost2010Prop53
 90
        2
102
RTVSPost2010PropOp53
 70
     1
102
RTVSPost2010Prop54
  1
strokes_ogs.tif
102
RTVSPost2010PropOp54
 70
     1
102
RTVSPost2010Prop55
280
     0
102
RTVSPost2010PropOp55
 70
     1
102
RTVSPost2010Prop56
140
1.0
102
RTVSPost2010PropOp56
 70
     1
102
RTVSPost2010Prop57
140
1.0
102
RTVSPost2010PropOp57
 70
     1
102
RTVSPropertyOp0
 70
     1
102
RTVSPropertyOp1
 70
     1
102
RTVSPropertyOp2
 70
     1
102
RTVSPropertyOp3
 70
     1
102
RTVSPropertyOp4
 70
     1
102
RTVSPropertyOp5
 70
     1
102
RTVSPropertyOp6
 70
     1
102
RTVSPropertyOp7
 70
     1
102
RTVSPropertyOp8
 70
     1
102
RTVSPropertyOp9
 70
     1
102
RTVSPropertyOp10
 70
     1
102
RTVSPropertyOp11
 70
     1
102
RTVSPropertyOp12
 70
     1
102
RTVSPropertyOp13
 70
     1
102
RTVSPropertyOp14
 70
     1
102
RTVSPropertyOp15
 70
     1
102
RTVSPropertyOp16
 70
     1
102
RTVSPropertyOp17
 70
     1
102
RTVSPropertyOp18
 70
     1
102
RTVSPropertyOp19
 70
     1
102
RTVSPropertyOp20
 70
     1
102
RTVSPropertyOp21
 70
     1
102
RTVSPropertyOp22
 70
     1
102
RTVSPropertyOp23
 70
     1
102
RTVSPropertyOp24
 70
     1
102
RTVSPropertyOp25
 70
     1
102
RTVSPropertyOp26
 70
     1
102
RTVSPropertyOp27
 70
     1
102
RTVSPropertyOp28
 70
     1
102
RTVSPropertyOp29
 70
     1
102
RTVSPropertyOp30
 70
     1
102
RTVSPropertyOp31
 70
     1
102
RTVSPropertyOp32
 70
     1
102
RTVSPropertyOp33
 70
     1
102
RTVSPropertyOp34
 70
     1
102
RTVSPropertyOp35
 70
     1
102
RTVSPropertyOp36
 70
     1
102
RTVSPropertyOp37
 70
     1
102
RTVSPropertyOp38
 70
     1
102
RTVSPropertyOp39
 70
     1
102
RTVSPropertyOp40
 70
     1
102
RTVSPropertyOp41
 70
     1
102
RTVSPropertyOp42
 70
     1
102
RTVSPropertyOp43
 70
     1
102
RTVSPropertyOp44
 70
     1
102
RTVSPropertyOp45
 70
     1
102
RTVSPropertyOp46
 70
     1
102
RTVSPropertyOp47
 70
     1
102
RTVSPropertyOp48
 70
     1
102
RTVSPropertyOp49
 70
     1
102
RTVSPropertyOp50
 70
     1
102
RTVSPropertyOp51
 70
     0
102
RTVSPropertyOp52
 70
     0
102
RTVSPropertyOp53
 70
     1
102
RTVSPropertyOp54
 70
     1
102
RTVSPropertyOp55
 70
     1
102
RTVSPropertyOp56
 70
     1
102
RTVSPropertyOp57
 70
     1
102
RTVSPropertyOp58
 70
     1
102
RTVSPropertyOp59
 70
     1
102
RTVSPropertyOp60
 70
     1
102
RTVSPropertyOp61
 70
     1
102
RTVSPropertyOp62
 70
     1
  0
XRECORD
  5
38B
102
{ACAD_REACTORS
330
38A
102
}
330
38A
100
AcDbXrecord
280
     1
102
RTVSPost2010Prop28
280
     0
102
RTVSPost2010PropOp28
 70
     0
102
RTVSPost2010Prop29
280
     1
102
RTVSPost2010PropOp29
 70
     0
102
RTVSPost2010Prop30
280
     1
102
RTVSPost2010PropOp30
 70
     0
102
RTVSPost2010Prop31
280
     0
102
RTVSPost2010PropOp31
 70
     0
102
RTVSPost2010Prop32
280
     0
102
RTVSPost2010PropOp32
 70
     0
102
RTVSPost2010Prop33
280
     0
102
RTVSPost2010PropOp33
 70
     0
102
RTVSPost2010Prop34
280
     0
102
RTVSPost2010PropOp34
 70
     0
102
RTVSPost2010Prop35
280
     0
102
RTVSPost2010PropOp35
 70
     0
102
RTVSPost2010Prop36
280
     0
102
RTVSPost2010PropOp36
 70
     0
102
RTVSPost2010Prop37
 90
       50
102
RTVSPost2010PropOp37
 70
     0
102
RTVSPost2010Prop38
140
0.0
102
RTVSPost2010PropOp38
 70
     0
102
RTVSPost2010Prop39
140
1.0
102
RTVSPost2010PropOp39
 70
     0
102
RTVSPost2010Prop40
 90
        0
102
RTVSPost2010PropOp40
 70
     0
102
RTVSPost2010Prop41ColorIndex
 90
       18
102
RTVSPost2010Prop41ColorRGB
 90
        0
102
RTVSPost2010PropOp41
 70
     0
102
RTVSPost2010Prop42
 90
       50
102
RTVSPost2010PropOp42
 70
     0
102
RTVSPost2010Prop43
 90
        3
102
RTVSPost2010PropOp43
 70
     0
102
RTVSPost2010Prop44ColorIndex
 90
        5
102
RTVSPost2010Prop44ColorRGB
 90
      255
102
RTVSPost2010PropOp44
 70
     0
102
RTVSPost2010Prop45
280
     0
102
RTVSPost2010PropOp45
 70
     0
102
RTVSPost2010Prop46
 90
       50
102
RTVSPost2010PropOp46
 70
     0
102
RTVSPost2010Prop47
 90
       50
102
RTVSPost2010PropOp47
 70
     0
102
RTVSPost2010Prop48
 90
       50
102
RTVSPost2010PropOp48
 70
     0
102
RTVSPost2010Prop49
280
     0
102
RTVSPost2010PropOp49
 70
     0
102
RTVSPost2010Prop50
 90
       50
102
RTVSPost2010PropOp50
 70
     0
102
RTVSPost2010Prop51ColorIndex
 90
      256
102
RTVSPost2010Prop51ColorRGB
 90
-16777216
102
RTVSPost2010PropOp51
 70
     0
102
RTVSPost2010Prop52
140
1.0
102
RTVSPost2010PropOp52
 70
     0
102
RTVSPost2010Prop53
 90
        2
102
RTVSPost2010PropOp53
 70
     0
102
RTVSPost2010Prop54
  1
strokes_ogs.tif
102
RTVSPost2010PropOp54
 70
     0
102
RTVSPost2010Prop55
280
     0
102
RTVSPost2010PropOp55
 70
     0
102
RTVSPost2010Prop56
140
1.0
102
RTVSPost2010PropOp56
 70
     0
102
RTVSPost2010Prop57
140
1.0
102
RTVSPost2010PropOp57
 70
     0
102
RTVSPropertyOp0
 70
     0
102
RTVSPropertyOp1
 70
     0
102
RTVSPropertyOp2
 70
     0
102
RTVSPropertyOp3
 70
     0
102
RTVSPropertyOp4
 70
     0
102
RTVSPropertyOp5
 70
     0
102
RTVSPropertyOp6
 70
     0
102
RTVSPropertyOp7
 70
     0
102
RTVSPropertyOp8
 70
     0
102
RTVSPropertyOp9
 70
     0
102
RTVSPropertyOp10
 70
     0
102
RTVSPropertyOp11
 70
     0
102
RTVSPropertyOp12
 70
     0
102
RTVSPropertyOp13
 70
     0
102
RTVSPropertyOp14
 70
     2
102
RTVSPropertyOp15
 70
     0
102
RTVSPropertyOp16
 70
     0
102
RTVSPropertyOp17
 70
     0
102
RTVSPropertyOp18
 70
     0
102
RTVSPropertyOp19
 70
     0
102
RTVSPropertyOp20
 70
     0
102
RTVSPropertyOp21
 70
     0
102
RTVSPropertyOp22
 70
     0
102
RTVSPropertyOp23
 70
     0
102
RTVSPropertyOp24
 70
     0
102
RTVSPropertyOp25
 70
     0
102
RTVSPropertyOp26
 70
     0
102
RTVSPropertyOp27
 70
     0
102
RTVSPropertyOp28
 70
     0
102
RTVSPropertyOp29
 70
     0
102
RTVSPropertyOp30
 70
     0
102
RTVSPropertyOp31
 70
     0
102
RTVSPropertyOp32
 70
     0
102
RTVSPropertyOp33
 70
     0
102
RTVSPropertyOp34
 70
     0
102
RTVSPropertyOp35
 70
     0
102
RTVSPropertyOp36
 70
     0
102
RTVSPropertyOp37
 70
     0
102
RTVSPropertyOp38
 70
     0
102
RTVSPropertyOp39
 70
     0
102
RTVSPropertyOp40
 70
     0
102
RTVSPropertyOp41
 70
     0
102
RTVSPropertyOp42
 70
     0
102
RTVSPropertyOp43
 70
     0
102
RTVSPropertyOp44
 70
     0
102
RTVSPropertyOp45
 70
     0
102
RTVSPropertyOp46
 70
     0
102
RTVSPropertyOp47
 70
     0
102
RTVSPropertyOp48
 70
     0
102
RTVSPropertyOp49
 70
     0
102
RTVSPropertyOp50
 70
     0
102
RTVSPropertyOp51
 70
     0
102
RTVSPropertyOp52
 70
     0
102
RTVSPropertyOp53
 70
     0
102
RTVSPropertyOp54
 70
     0
102
RTVSPropertyOp55
 70
     0
102
RTVSPropertyOp56
 70
     0
102
RTVSPropertyOp57
 70
     0
102
RTVSPropertyOp58
 70
     1
102
RTVSPropertyOp59
 70
     1
102
RTVSPropertyOp60
 70
     1
102
RTVSPropertyOp61
 70
     1
102
RTVSPropertyOp62
 70
     1
  0
XRECORD
  5
383
102
{ACAD_REACTORS
330
382
102
}
330
382
100
AcDbXrecord
280
     1
102
RTVSPost2010Prop28
280
     0
102
RTVSPost2010PropOp28
 70
     1
102
RTVSPost2010Prop29
280
     1
102
RTVSPost2010PropOp29
 70
     1
102
RTVSPost2010Prop30
280
     1
102
RTVSPost2010PropOp30
 70
     1
102
RTVSPost2010Prop31
280
     0
102
RTVSPost2010PropOp31
 70
     1
102
RTVSPost2010Prop32
280
     0
102
RTVSPost2010PropOp32
 70
     1
102
RTVSPost2010Prop33
280
     0
102
RTVSPost2010PropOp33
 70
     1
102
RTVSPost2010Prop34
280
     0
102
RTVSPost2010PropOp34
 70
     1
102
RTVSPost2010Prop35
280
     0
102
RTVSPost2010PropOp35
 70
     1
102
RTVSPost2010Prop36
280
     0
102
RTVSPost2010PropOp36
 70
     1
102
RTVSPost2010Prop37
 90
       50
102
RTVSPost2010PropOp37
 70
     1
102
RTVSPost2010Prop38
140
0.0
102
RTVSPost2010PropOp38
 70
     1
102
RTVSPost2010Prop39
140
1.0
102
RTVSPost2010PropOp39
 70
     1
102
RTVSPost2010Prop40
 90
        0
102
RTVSPost2010PropOp40
 70
     1
102
RTVSPost2010Prop41ColorIndex
 90
       18
102
RTVSPost2010Prop41ColorRGB
 90
        0
102
RTVSPost2010PropOp41
 70
     1
102
RTVSPost2010Prop42
 90
       50
102
RTVSPost2010PropOp42
 70
     1
102
RTVSPost2010Prop43
 90
        3
102
RTVSPost2010PropOp43
 70
     1
102
RTVSPost2010Prop44ColorIndex
 90
        5
102
RTVSPost2010Prop44ColorRGB
 90
      255
102
RTVSPost2010PropOp44
 70
     1
102
RTVSPost2010Prop45
280
     0
102
RTVSPost2010PropOp45
 70
     1
102
RTVSPost2010Prop46
 90
       50
102
RTVSPost2010PropOp46
 70
     1
102
RTVSPost2010Prop47
 90
       50
102
RTVSPost2010PropOp47
 70
     1
102
RTVSPost2010Prop48
 90
       50
102
RTVSPost2010PropOp48
 70
     1
102
RTVSPost2010Prop49
280
     0
102
RTVSPost2010PropOp49
 70
     1
102
RTVSPost2010Prop50
 90
       50
102
RTVSPost2010PropOp50
 70
     1
102
RTVSPost2010Prop51ColorIndex
 90
      256
102
RTVSPost2010Prop51ColorRGB
 90
-16777216
102
RTVSPost2010PropOp51
 70
     0
102
RTVSPost2010Prop52
140
1.0
102
RTVSPost2010PropOp52
 70
     0
102
RTVSPost2010Prop53
 90
        2
102
RTVSPost2010PropOp53
 70
     1
102
RTVSPost2010Prop54
  1
strokes_ogs.tif
102
RTVSPost2010PropOp54
 70
     1
102
RTVSPost2010Prop55
280
     0
102
RTVSPost2010PropOp55
 70
     1
102
RTVSPost2010Prop56
140
1.0
102
RTVSPost2010PropOp56
 70
     1
102
RTVSPost2010Prop57
140
1.0
102
RTVSPost2010PropOp57
 70
     1
102
RTVSPropertyOp0
 70
     1
102
RTVSPropertyOp1
 70
     1
102
RTVSPropertyOp2
 70
     1
102
RTVSPropertyOp3
 70
     1
102
RTVSPropertyOp4
 70
     1
102
RTVSPropertyOp5
 70
     1
102
RTVSPropertyOp6
 70
     1
102
RTVSPropertyOp7
 70
     1
102
RTVSPropertyOp8
 70
     1
102
RTVSPropertyOp9
 70
     1
102
RTVSPropertyOp10
 70
     1
102
RTVSPropertyOp11
 70
     1
102
RTVSPropertyOp12
 70
     1
102
RTVSPropertyOp13
 70
     1
102
RTVSPropertyOp14
 70
     1
102
RTVSPropertyOp15
 70
     1
102
RTVSPropertyOp16
 70
     1
102
RTVSPropertyOp17
 70
     1
102
RTVSPropertyOp18
 70
     1
102
RTVSPropertyOp19
 70
     1
102
RTVSPropertyOp20
 70
     1
102
RTVSPropertyOp21
 70
     1
102
RTVSPropertyOp22
 70
     1
102
RTVSPropertyOp23
 70
     1
102
RTVSPropertyOp24
 70
     1
102
RTVSPropertyOp25
 70
     1
102
RTVSPropertyOp26
 70
     1
102
RTVSPropertyOp27
 70
     1
102
RTVSPropertyOp28
 70
     1
102
RTVSPropertyOp29
 70
     1
102
RTVSPropertyOp30
 70
     1
102
RTVSPropertyOp31
 70
     1
102
RTVSPropertyOp32
 70
     1
102
RTVSPropertyOp33
 70
     1
102
RTVSPropertyOp34
 70
     1
102
RTVSPropertyOp35
 70
     1
102
RTVSPropertyOp36
 70
     1
102
RTVSPropertyOp37
 70
     1
102
RTVSPropertyOp38
 70
     1
102
RTVSPropertyOp39
 70
     1
102
RTVSPropertyOp40
 70
     1
102
RTVSPropertyOp41
 70
     1
102
RTVSPropertyOp42
 70
     1
102
RTVSPropertyOp43
 70
     1
102
RTVSPropertyOp44
 70
     1
102
RTVSPropertyOp45
 70
     1
102
RTVSPropertyOp46
 70
     1
102
RTVSPropertyOp47
 70
     1
102
RTVSPropertyOp48
 70
     1
102
RTVSPropertyOp49
 70
     1
102
RTVSPropertyOp50
 70
     1
102
RTVSPropertyOp51
 70
     0
102
RTVSPropertyOp52
 70
     0
102
RTVSPropertyOp53
 70
     1
102
RTVSPropertyOp54
 70
     1
102
RTVSPropertyOp55
 70
     1
102
RTVSPropertyOp56
 70
     1
102
RTVSPropertyOp57
 70
     1
102
RTVSPropertyOp58
 70
     1
102
RTVSPropertyOp59
 70
     1
102
RTVSPropertyOp60
 70
     1
102
RTVSPropertyOp61
 70
     1
102
RTVSPropertyOp62
 70
     1
  0
XRECORD
  5
367
102
{ACAD_REACTORS
330
366
102
}
330
366
100
AcDbXrecord
280
     1
102
RTVSPost2010Prop28
280
     0
102
RTVSPost2010PropOp28
 70
     1
102
RTVSPost2010Prop29
280
     1
102
RTVSPost2010PropOp29
 70
     1
102
RTVSPost2010Prop30
280
     1
102
RTVSPost2010PropOp30
 70
     1
102
RTVSPost2010Prop31
280
     0
102
RTVSPost2010PropOp31
 70
     1
102
RTVSPost2010Prop32
280
     0
102
RTVSPost2010PropOp32
 70
     1
102
RTVSPost2010Prop33
280
     0
102
RTVSPost2010PropOp33
 70
     1
102
RTVSPost2010Prop34
280
     0
102
RTVSPost2010PropOp34
 70
     1
102
RTVSPost2010Prop35
280
     0
102
RTVSPost2010PropOp35
 70
     1
102
RTVSPost2010Prop36
280
     0
102
RTVSPost2010PropOp36
 70
     1
102
RTVSPost2010Prop37
 90
       50
102
RTVSPost2010PropOp37
 70
     1
102
RTVSPost2010Prop38
140
0.0
102
RTVSPost2010PropOp38
 70
     1
102
RTVSPost2010Prop39
140
1.0
102
RTVSPost2010PropOp39
 70
     1
102
RTVSPost2010Prop40
 90
        0
102
RTVSPost2010PropOp40
 70
     1
102
RTVSPost2010Prop41ColorIndex
 90
       18
102
RTVSPost2010Prop41ColorRGB
 90
        0
102
RTVSPost2010PropOp41
 70
     1
102
RTVSPost2010Prop42
 90
       50
102
RTVSPost2010PropOp42
 70
     1
102
RTVSPost2010Prop43
 90
        3
102
RTVSPost2010PropOp43
 70
     1
102
RTVSPost2010Prop44ColorIndex
 90
        5
102
RTVSPost2010Prop44ColorRGB
 90
      255
102
RTVSPost2010PropOp44
 70
     1
102
RTVSPost2010Prop45
280
     0
102
RTVSPost2010PropOp45
 70
     1
102
RTVSPost2010Prop46
 90
       50
102
RTVSPost2010PropOp46
 70
     1
102
RTVSPost2010Prop47
 90
       50
102
RTVSPost2010PropOp47
 70
     1
102
RTVSPost2010Prop48
 90
       50
102
RTVSPost2010PropOp48
 70
     1
102
RTVSPost2010Prop49
280
     0
102
RTVSPost2010PropOp49
 70
     1
102
RTVSPost2010Prop50
 90
       50
102
RTVSPost2010PropOp50
 70
     1
102
RTVSPost2010Prop51ColorIndex
 90
      256
102
RTVSPost2010Prop51ColorRGB
 90
-16777216
102
RTVSPost2010PropOp51
 70
     0
102
RTVSPost2010Prop52
140
1.0
102
RTVSPost2010PropOp52
 70
     0
102
RTVSPost2010Prop53
 90
        2
102
RTVSPost2010PropOp53
 70
     1
102
RTVSPost2010Prop54
  1
strokes_ogs.tif
102
RTVSPost2010PropOp54
 70
     1
102
RTVSPost2010Prop55
280
     0
102
RTVSPost2010PropOp55
 70
     1
102
RTVSPost2010Prop56
140
1.0
102
RTVSPost2010PropOp56
 70
     1
102
RTVSPost2010Prop57
140
1.0
102
RTVSPost2010PropOp57
 70
     1
102
RTVSPropertyOp0
 70
     1
102
RTVSPropertyOp1
 70
     1
102
RTVSPropertyOp2
 70
     1
102
RTVSPropertyOp3
 70
     1
102
RTVSPropertyOp4
 70
     1
102
RTVSPropertyOp5
 70
     1
102
RTVSPropertyOp6
 70
     1
102
RTVSPropertyOp7
 70
     1
102
RTVSPropertyOp8
 70
     1
102
RTVSPropertyOp9
 70
     1
102
RTVSPropertyOp10
 70
     1
102
RTVSPropertyOp11
 70
     1
102
RTVSPropertyOp12
 70
     1
102
RTVSPropertyOp13
 70
     1
102
RTVSPropertyOp14
 70
     1
102
RTVSPropertyOp15
 70
     1
102
RTVSPropertyOp16
 70
     1
102
RTVSPropertyOp17
 70
     1
102
RTVSPropertyOp18
 70
     1
102
RTVSPropertyOp19
 70
     1
102
RTVSPropertyOp20
 70
     1
102
RTVSPropertyOp21
 70
     1
102
RTVSPropertyOp22
 70
     1
102
RTVSPropertyOp23
 70
     1
102
RTVSPropertyOp24
 70
     1
102
RTVSPropertyOp25
 70
     1
102
RTVSPropertyOp26
 70
     1
102
RTVSPropertyOp27
 70
     1
102
RTVSPropertyOp28
 70
     1
102
RTVSPropertyOp29
 70
     1
102
RTVSPropertyOp30
 70
     1
102
RTVSPropertyOp31
 70
     1
102
RTVSPropertyOp32
 70
     1
102
RTVSPropertyOp33
 70
     1
102
RTVSPropertyOp34
 70
     1
102
RTVSPropertyOp35
 70
     1
102
RTVSPropertyOp36
 70
     1
102
RTVSPropertyOp37
 70
     1
102
RTVSPropertyOp38
 70
     1
102
RTVSPropertyOp39
 70
     1
102
RTVSPropertyOp40
 70
     1
102
RTVSPropertyOp41
 70
     1
102
RTVSPropertyOp42
 70
     1
102
RTVSPropertyOp43
 70
     1
102
RTVSPropertyOp44
 70
     1
102
RTVSPropertyOp45
 70
     1
102
RTVSPropertyOp46
 70
     1
102
RTVSPropertyOp47
 70
     1
102
RTVSPropertyOp48
 70
     1
102
RTVSPropertyOp49
 70
     1
102
RTVSPropertyOp50
 70
     1
102
RTVSPropertyOp51
 70
     0
102
RTVSPropertyOp52
 70
     0
102
RTVSPropertyOp53
 70
     1
102
RTVSPropertyOp54
 70
     1
102
RTVSPropertyOp55
 70
     1
102
RTVSPropertyOp56
 70
     1
102
RTVSPropertyOp57
 70
     1
102
RTVSPropertyOp58
 70
     1
102
RTVSPropertyOp59
 70
     1
102
RTVSPropertyOp60
 70
     1
102
RTVSPropertyOp61
 70
     1
102
RTVSPropertyOp62
 70
     1
  0
XRECORD
  5
369
102
{ACAD_REACTORS
330
368
102
}
330
368
100
AcDbXrecord
280
     1
102
RTVSPost2010Prop28
280
     0
102
RTVSPost2010PropOp28
 70
     1
102
RTVSPost2010Prop29
280
     1
102
RTVSPost2010PropOp29
 70
     1
102
RTVSPost2010Prop30
280
     1
102
RTVSPost2010PropOp30
 70
     1
102
RTVSPost2010Prop31
280
     0
102
RTVSPost2010PropOp31
 70
     1
102
RTVSPost2010Prop32
280
     0
102
RTVSPost2010PropOp32
 70
     1
102
RTVSPost2010Prop33
280
     0
102
RTVSPost2010PropOp33
 70
     1
102
RTVSPost2010Prop34
280
     0
102
RTVSPost2010PropOp34
 70
     1
102
RTVSPost2010Prop35
280
     0
102
RTVSPost2010PropOp35
 70
     1
102
RTVSPost2010Prop36
280
     0
102
RTVSPost2010PropOp36
 70
     1
102
RTVSPost2010Prop37
 90
       50
102
RTVSPost2010PropOp37
 70
     1
102
RTVSPost2010Prop38
140
0.0
102
RTVSPost2010PropOp38
 70
     1
102
RTVSPost2010Prop39
140
1.0
102
RTVSPost2010PropOp39
 70
     1
102
RTVSPost2010Prop40
 90
        0
102
RTVSPost2010PropOp40
 70
     1
102
RTVSPost2010Prop41ColorIndex
 90
       18
102
RTVSPost2010Prop41ColorRGB
 90
        0
102
RTVSPost2010PropOp41
 70
     1
102
RTVSPost2010Prop42
 90
       50
102
RTVSPost2010PropOp42
 70
     1
102
RTVSPost2010Prop43
 90
        3
102
RTVSPost2010PropOp43
 70
     1
102
RTVSPost2010Prop44ColorIndex
 90
        5
102
RTVSPost2010Prop44ColorRGB
 90
      255
102
RTVSPost2010PropOp44
 70
     1
102
RTVSPost2010Prop45
280
     0
102
RTVSPost2010PropOp45
 70
     1
102
RTVSPost2010Prop46
 90
       50
102
RTVSPost2010PropOp46
 70
     1
102
RTVSPost2010Prop47
 90
       50
102
RTVSPost2010PropOp47
 70
     1
102
RTVSPost2010Prop48
 90
       50
102
RTVSPost2010PropOp48
 70
     1
102
RTVSPost2010Prop49
280
     0
102
RTVSPost2010PropOp49
 70
     1
102
RTVSPost2010Prop50
 90
       50
102
RTVSPost2010PropOp50
 70
     1
102
RTVSPost2010Prop51ColorIndex
 90
      256
102
RTVSPost2010Prop51ColorRGB
 90
-16777216
102
RTVSPost2010PropOp51
 70
     0
102
RTVSPost2010Prop52
140
1.0
102
RTVSPost2010PropOp52
 70
     0
102
RTVSPost2010Prop53
 90
        2
102
RTVSPost2010PropOp53
 70
     1
102
RTVSPost2010Prop54
  1
strokes_ogs.tif
102
RTVSPost2010PropOp54
 70
     1
102
RTVSPost2010Prop55
280
     0
102
RTVSPost2010PropOp55
 70
     1
102
RTVSPost2010Prop56
140
1.0
102
RTVSPost2010PropOp56
 70
     1
102
RTVSPost2010Prop57
140
1.0
102
RTVSPost2010PropOp57
 70
     1
102
RTVSPropertyOp0
 70
     1
102
RTVSPropertyOp1
 70
     1
102
RTVSPropertyOp2
 70
     1
102
RTVSPropertyOp3
 70
     1
102
RTVSPropertyOp4
 70
     1
102
RTVSPropertyOp5
 70
     1
102
RTVSPropertyOp6
 70
     1
102
RTVSPropertyOp7
 70
     1
102
RTVSPropertyOp8
 70
     1
102
RTVSPropertyOp9
 70
     1
102
RTVSPropertyOp10
 70
     1
102
RTVSPropertyOp11
 70
     1
102
RTVSPropertyOp12
 70
     1
102
RTVSPropertyOp13
 70
     1
102
RTVSPropertyOp14
 70
     1
102
RTVSPropertyOp15
 70
     1
102
RTVSPropertyOp16
 70
     1
102
RTVSPropertyOp17
 70
     1
102
RTVSPropertyOp18
 70
     1
102
RTVSPropertyOp19
 70
     1
102
RTVSPropertyOp20
 70
     1
102
RTVSPropertyOp21
 70
     1
102
RTVSPropertyOp22
 70
     1
102
RTVSPropertyOp23
 70
     1
102
RTVSPropertyOp24
 70
     1
102
RTVSPropertyOp25
 70
     1
102
RTVSPropertyOp26
 70
     1
102
RTVSPropertyOp27
 70
     1
102
RTVSPropertyOp28
 70
     1
102
RTVSPropertyOp29
 70
     1
102
RTVSPropertyOp30
 70
     1
102
RTVSPropertyOp31
 70
     1
102
RTVSPropertyOp32
 70
     1
102
RTVSPropertyOp33
 70
     1
102
RTVSPropertyOp34
 70
     1
102
RTVSPropertyOp35
 70
     1
102
RTVSPropertyOp36
 70
     1
102
RTVSPropertyOp37
 70
     1
102
RTVSPropertyOp38
 70
     1
102
RTVSPropertyOp39
 70
     1
102
RTVSPropertyOp40
 70
     1
102
RTVSPropertyOp41
 70
     1
102
RTVSPropertyOp42
 70
     1
102
RTVSPropertyOp43
 70
     1
102
RTVSPropertyOp44
 70
     1
102
RTVSPropertyOp45
 70
     1
102
RTVSPropertyOp46
 70
     1
102
RTVSPropertyOp47
 70
     1
102
RTVSPropertyOp48
 70
     1
102
RTVSPropertyOp49
 70
     1
102
RTVSPropertyOp50
 70
     1
102
RTVSPropertyOp51
 70
     0
102
RTVSPropertyOp52
 70
     0
102
RTVSPropertyOp53
 70
     1
102
RTVSPropertyOp54
 70
     1
102
RTVSPropertyOp55
 70
     1
102
RTVSPropertyOp56
 70
     1
102
RTVSPropertyOp57
 70
     1
102
RTVSPropertyOp58
 70
     1
102
RTVSPropertyOp59
 70
     1
102
RTVSPropertyOp60
 70
     1
102
RTVSPropertyOp61
 70
     1
102
RTVSPropertyOp62
 70
     1
  0
XRECORD
  5
36B
102
{ACAD_REACTORS
330
36A
102
}
330
36A
100
AcDbXrecord
280
     1
102
RTVSPost2010Prop28
280
     0
102
RTVSPost2010PropOp28
 70
     1
102
RTVSPost2010Prop29
280
     1
102
RTVSPost2010PropOp29
 70
     1
102
RTVSPost2010Prop30
280
     1
102
RTVSPost2010PropOp30
 70
     1
102
RTVSPost2010Prop31
280
     0
102
RTVSPost2010PropOp31
 70
     1
102
RTVSPost2010Prop32
280
     0
102
RTVSPost2010PropOp32
 70
     1
102
RTVSPost2010Prop33
280
     0
102
RTVSPost2010PropOp33
 70
     1
102
RTVSPost2010Prop34
280
     0
102
RTVSPost2010PropOp34
 70
     1
102
RTVSPost2010Prop35
280
     0
102
RTVSPost2010PropOp35
 70
     1
102
RTVSPost2010Prop36
280
     0
102
RTVSPost2010PropOp36
 70
     1
102
RTVSPost2010Prop37
 90
       50
102
RTVSPost2010PropOp37
 70
     1
102
RTVSPost2010Prop38
140
0.0
102
RTVSPost2010PropOp38
 70
     1
102
RTVSPost2010Prop39
140
1.0
102
RTVSPost2010PropOp39
 70
     1
102
RTVSPost2010Prop40
 90
        0
102
RTVSPost2010PropOp40
 70
     1
102
RTVSPost2010Prop41ColorIndex
 90
       18
102
RTVSPost2010Prop41ColorRGB
 90
        0
102
RTVSPost2010PropOp41
 70
     1
102
RTVSPost2010Prop42
 90
       50
102
RTVSPost2010PropOp42
 70
     1
102
RTVSPost2010Prop43
 90
        3
102
RTVSPost2010PropOp43
 70
     1
102
RTVSPost2010Prop44ColorIndex
 90
        5
102
RTVSPost2010Prop44ColorRGB
 90
      255
102
RTVSPost2010PropOp44
 70
     1
102
RTVSPost2010Prop45
280
     0
102
RTVSPost2010PropOp45
 70
     1
102
RTVSPost2010Prop46
 90
       50
102
RTVSPost2010PropOp46
 70
     1
102
RTVSPost2010Prop47
 90
       50
102
RTVSPost2010PropOp47
 70
     1
102
RTVSPost2010Prop48
 90
       50
102
RTVSPost2010PropOp48
 70
     1
102
RTVSPost2010Prop49
280
     0
102
RTVSPost2010PropOp49
 70
     1
102
RTVSPost2010Prop50
 90
       50
102
RTVSPost2010PropOp50
 70
     1
102
RTVSPost2010Prop51ColorIndex
 90
      256
102
RTVSPost2010Prop51ColorRGB
 90
-16777216
102
RTVSPost2010PropOp51
 70
     0
102
RTVSPost2010Prop52
140
1.0
102
RTVSPost2010PropOp52
 70
     0
102
RTVSPost2010Prop53
 90
        2
102
RTVSPost2010PropOp53
 70
     1
102
RTVSPost2010Prop54
  1
strokes_ogs.tif
102
RTVSPost2010PropOp54
 70
     1
102
RTVSPost2010Prop55
280
     0
102
RTVSPost2010PropOp55
 70
     1
102
RTVSPost2010Prop56
140
1.0
102
RTVSPost2010PropOp56
 70
     1
102
RTVSPost2010Prop57
140
1.0
102
RTVSPost2010PropOp57
 70
     1
102
RTVSPropertyOp0
 70
     1
102
RTVSPropertyOp1
 70
     1
102
RTVSPropertyOp2
 70
     1
102
RTVSPropertyOp3
 70
     1
102
RTVSPropertyOp4
 70
     1
102
RTVSPropertyOp5
 70
     1
102
RTVSPropertyOp6
 70
     1
102
RTVSPropertyOp7
 70
     1
102
RTVSPropertyOp8
 70
     1
102
RTVSPropertyOp9
 70
     1
102
RTVSPropertyOp10
 70
     1
102
RTVSPropertyOp11
 70
     1
102
RTVSPropertyOp12
 70
     1
102
RTVSPropertyOp13
 70
     1
102
RTVSPropertyOp14
 70
     1
102
RTVSPropertyOp15
 70
     1
102
RTVSPropertyOp16
 70
     1
102
RTVSPropertyOp17
 70
     1
102
RTVSPropertyOp18
 70
     1
102
RTVSPropertyOp19
 70
     1
102
RTVSPropertyOp20
 70
     1
102
RTVSPropertyOp21
 70
     1
102
RTVSPropertyOp22
 70
     1
102
RTVSPropertyOp23
 70
     1
102
RTVSPropertyOp24
 70
     1
102
RTVSPropertyOp25
 70
     1
102
RTVSPropertyOp26
 70
     1
102
RTVSPropertyOp27
 70
     1
102
RTVSPropertyOp28
 70
     1
102
RTVSPropertyOp29
 70
     1
102
RTVSPropertyOp30
 70
     1
102
RTVSPropertyOp31
 70
     1
102
RTVSPropertyOp32
 70
     1
102
RTVSPropertyOp33
 70
     1
102
RTVSPropertyOp34
 70
     1
102
RTVSPropertyOp35
 70
     1
102
RTVSPropertyOp36
 70
     1
102
RTVSPropertyOp37
 70
     1
102
RTVSPropertyOp38
 70
     1
102
RTVSPropertyOp39
 70
     1
102
RTVSPropertyOp40
 70
     1
102
RTVSPropertyOp41
 70
     1
102
RTVSPropertyOp42
 70
     1
102
RTVSPropertyOp43
 70
     1
102
RTVSPropertyOp44
 70
     1
102
RTVSPropertyOp45
 70
     1
102
RTVSPropertyOp46
 70
     1
102
RTVSPropertyOp47
 70
     1
102
RTVSPropertyOp48
 70
     1
102
RTVSPropertyOp49
 70
     1
102
RTVSPropertyOp50
 70
     1
102
RTVSPropertyOp51
 70
     0
102
RTVSPropertyOp52
 70
     0
102
RTVSPropertyOp53
 70
     1
102
RTVSPropertyOp54
 70
     1
102
RTVSPropertyOp55
 70
     1
102
RTVSPropertyOp56
 70
     1
102
RTVSPropertyOp57
 70
     1
102
RTVSPropertyOp58
 70
     1
102
RTVSPropertyOp59
 70
     1
102
RTVSPropertyOp60
 70
     1
102
RTVSPropertyOp61
 70
     1
102
RTVSPropertyOp62
 70
     1
  0
XRECORD
  5
36D
102
{ACAD_REACTORS
330
36C
102
}
330
36C
100
AcDbXrecord
280
     1
102
RTVSPost2010Prop28
280
     0
102
RTVSPost2010PropOp28
 70
     1
102
RTVSPost2010Prop29
280
     1
102
RTVSPost2010PropOp29
 70
     1
102
RTVSPost2010Prop30
280
     1
102
RTVSPost2010PropOp30
 70
     1
102
RTVSPost2010Prop31
280
     0
102
RTVSPost2010PropOp31
 70
     1
102
RTVSPost2010Prop32
280
     0
102
RTVSPost2010PropOp32
 70
     1
102
RTVSPost2010Prop33
280
     0
102
RTVSPost2010PropOp33
 70
     1
102
RTVSPost2010Prop34
280
     0
102
RTVSPost2010PropOp34
 70
     1
102
RTVSPost2010Prop35
280
     0
102
RTVSPost2010PropOp35
 70
     1
102
RTVSPost2010Prop36
280
     0
102
RTVSPost2010PropOp36
 70
     1
102
RTVSPost2010Prop37
 90
       50
102
RTVSPost2010PropOp37
 70
     1
102
RTVSPost2010Prop38
140
0.0
102
RTVSPost2010PropOp38
 70
     1
102
RTVSPost2010Prop39
140
1.0
102
RTVSPost2010PropOp39
 70
     1
102
RTVSPost2010Prop40
 90
        0
102
RTVSPost2010PropOp40
 70
     1
102
RTVSPost2010Prop41ColorIndex
 90
       18
102
RTVSPost2010Prop41ColorRGB
 90
        0
102
RTVSPost2010PropOp41
 70
     1
102
RTVSPost2010Prop42
 90
       50
102
RTVSPost2010PropOp42
 70
     1
102
RTVSPost2010Prop43
 90
        3
102
RTVSPost2010PropOp43
 70
     1
102
RTVSPost2010Prop44ColorIndex
 90
        5
102
RTVSPost2010Prop44ColorRGB
 90
      255
102
RTVSPost2010PropOp44
 70
     1
102
RTVSPost2010Prop45
280
     0
102
RTVSPost2010PropOp45
 70
     1
102
RTVSPost2010Prop46
 90
       50
102
RTVSPost2010PropOp46
 70
     1
102
RTVSPost2010Prop47
 90
       50
102
RTVSPost2010PropOp47
 70
     1
102
RTVSPost2010Prop48
 90
       50
102
RTVSPost2010PropOp48
 70
     1
102
RTVSPost2010Prop49
280
     0
102
RTVSPost2010PropOp49
 70
     1
102
RTVSPost2010Prop50
 90
       50
102
RTVSPost2010PropOp50
 70
     1
102
RTVSPost2010Prop51ColorIndex
 90
      256
102
RTVSPost2010Prop51ColorRGB
 90
-16777216
102
RTVSPost2010PropOp51
 70
     0
102
RTVSPost2010Prop52
140
1.0
102
RTVSPost2010PropOp52
 70
     0
102
RTVSPost2010Prop53
 90
        2
102
RTVSPost2010PropOp53
 70
     1
102
RTVSPost2010Prop54
  1
strokes_ogs.tif
102
RTVSPost2010PropOp54
 70
     1
102
RTVSPost2010Prop55
280
     0
102
RTVSPost2010PropOp55
 70
     1
102
RTVSPost2010Prop56
140
1.0
102
RTVSPost2010PropOp56
 70
     1
102
RTVSPost2010Prop57
140
1.0
102
RTVSPost2010PropOp57
 70
     1
102
RTVSPropertyOp0
 70
     1
102
RTVSPropertyOp1
 70
     1
102
RTVSPropertyOp2
 70
     1
102
RTVSPropertyOp3
 70
     1
102
RTVSPropertyOp4
 70
     1
102
RTVSPropertyOp5
 70
     1
102
RTVSPropertyOp6
 70
     1
102
RTVSPropertyOp7
 70
     1
102
RTVSPropertyOp8
 70
     1
102
RTVSPropertyOp9
 70
     1
102
RTVSPropertyOp10
 70
     1
102
RTVSPropertyOp11
 70
     1
102
RTVSPropertyOp12
 70
     1
102
RTVSPropertyOp13
 70
     1
102
RTVSPropertyOp14
 70
     1
102
RTVSPropertyOp15
 70
     1
102
RTVSPropertyOp16
 70
     1
102
RTVSPropertyOp17
 70
     1
102
RTVSPropertyOp18
 70
     1
102
RTVSPropertyOp19
 70
     1
102
RTVSPropertyOp20
 70
     1
102
RTVSPropertyOp21
 70
     1
102
RTVSPropertyOp22
 70
     1
102
RTVSPropertyOp23
 70
     1
102
RTVSPropertyOp24
 70
     1
102
RTVSPropertyOp25
 70
     1
102
RTVSPropertyOp26
 70
     1
102
RTVSPropertyOp27
 70
     1
102
RTVSPropertyOp28
 70
     1
102
RTVSPropertyOp29
 70
     1
102
RTVSPropertyOp30
 70
     1
102
RTVSPropertyOp31
 70
     1
102
RTVSPropertyOp32
 70
     1
102
RTVSPropertyOp33
 70
     1
102
RTVSPropertyOp34
 70
     1
102
RTVSPropertyOp35
 70
     1
102
RTVSPropertyOp36
 70
     1
102
RTVSPropertyOp37
 70
     1
102
RTVSPropertyOp38
 70
     1
102
RTVSPropertyOp39
 70
     1
102
RTVSPropertyOp40
 70
     1
102
RTVSPropertyOp41
 70
     1
102
RTVSPropertyOp42
 70
     1
102
RTVSPropertyOp43
 70
     1
102
RTVSPropertyOp44
 70
     1
102
RTVSPropertyOp45
 70
     1
102
RTVSPropertyOp46
 70
     1
102
RTVSPropertyOp47
 70
     1
102
RTVSPropertyOp48
 70
     1
102
RTVSPropertyOp49
 70
     1
102
RTVSPropertyOp50
 70
     1
102
RTVSPropertyOp51
 70
     0
102
RTVSPropertyOp52
 70
     0
102
RTVSPropertyOp53
 70
     1
102
RTVSPropertyOp54
 70
     1
102
RTVSPropertyOp55
 70
     1
102
RTVSPropertyOp56
 70
     1
102
RTVSPropertyOp57
 70
     1
102
RTVSPropertyOp58
 70
     1
102
RTVSPropertyOp59
 70
     1
102
RTVSPropertyOp60
 70
     1
102
RTVSPropertyOp61
 70
     1
102
RTVSPropertyOp62
 70
     1
  0
XRECORD
  5
373
102
{ACAD_REACTORS
330
372
102
}
330
372
100
AcDbXrecord
280
     1
102
RTVSPost2010Prop28
280
     0
102
RTVSPost2010PropOp28
 70
     1
102
RTVSPost2010Prop29
280
     1
102
RTVSPost2010PropOp29
 70
     1
102
RTVSPost2010Prop30
280
     1
102
RTVSPost2010PropOp30
 70
     1
102
RTVSPost2010Prop31
280
     0
102
RTVSPost2010PropOp31
 70
     1
102
RTVSPost2010Prop32
280
     0
102
RTVSPost2010PropOp32
 70
     1
102
RTVSPost2010Prop33
280
     0
102
RTVSPost2010PropOp33
 70
     1
102
RTVSPost2010Prop34
280
     0
102
RTVSPost2010PropOp34
 70
     1
102
RTVSPost2010Prop35
280
     0
102
RTVSPost2010PropOp35
 70
     1
102
RTVSPost2010Prop36
280
     0
102
RTVSPost2010PropOp36
 70
     1
102
RTVSPost2010Prop37
 90
       50
102
RTVSPost2010PropOp37
 70
     1
102
RTVSPost2010Prop38
140
0.0
102
RTVSPost2010PropOp38
 70
     1
102
RTVSPost2010Prop39
140
1.0
102
RTVSPost2010PropOp39
 70
     1
102
RTVSPost2010Prop40
 90
        0
102
RTVSPost2010PropOp40
 70
     1
102
RTVSPost2010Prop41ColorIndex
 90
       18
102
RTVSPost2010Prop41ColorRGB
 90
        0
102
RTVSPost2010PropOp41
 70
     1
102
RTVSPost2010Prop42
 90
       50
102
RTVSPost2010PropOp42
 70
     1
102
RTVSPost2010Prop43
 90
        3
102
RTVSPost2010PropOp43
 70
     1
102
RTVSPost2010Prop44ColorIndex
 90
        5
102
RTVSPost2010Prop44ColorRGB
 90
      255
102
RTVSPost2010PropOp44
 70
     1
102
RTVSPost2010Prop45
280
     0
102
RTVSPost2010PropOp45
 70
     1
102
RTVSPost2010Prop46
 90
       50
102
RTVSPost2010PropOp46
 70
     1
102
RTVSPost2010Prop47
 90
       50
102
RTVSPost2010PropOp47
 70
     1
102
RTVSPost2010Prop48
 90
       50
102
RTVSPost2010PropOp48
 70
     1
102
RTVSPost2010Prop49
280
     0
102
RTVSPost2010PropOp49
 70
     1
102
RTVSPost2010Prop50
 90
       50
102
RTVSPost2010PropOp50
 70
     1
102
RTVSPost2010Prop51ColorIndex
 90
      256
102
RTVSPost2010Prop51ColorRGB
 90
-16777216
102
RTVSPost2010PropOp51
 70
     0
102
RTVSPost2010Prop52
140
1.0
102
RTVSPost2010PropOp52
 70
     0
102
RTVSPost2010Prop53
 90
        2
102
RTVSPost2010PropOp53
 70
     1
102
RTVSPost2010Prop54
  1
strokes_ogs.tif
102
RTVSPost2010PropOp54
 70
     1
102
RTVSPost2010Prop55
280
     0
102
RTVSPost2010PropOp55
 70
     1
102
RTVSPost2010Prop56
140
1.0
102
RTVSPost2010PropOp56
 70
     1
102
RTVSPost2010Prop57
140
1.0
102
RTVSPost2010PropOp57
 70
     1
102
RTVSPropertyOp0
 70
     1
102
RTVSPropertyOp1
 70
     1
102
RTVSPropertyOp2
 70
     1
102
RTVSPropertyOp3
 70
     1
102
RTVSPropertyOp4
 70
     1
102
RTVSPropertyOp5
 70
     1
102
RTVSPropertyOp6
 70
     1
102
RTVSPropertyOp7
 70
     1
102
RTVSPropertyOp8
 70
     1
102
RTVSPropertyOp9
 70
     1
102
RTVSPropertyOp10
 70
     1
102
RTVSPropertyOp11
 70
     1
102
RTVSPropertyOp12
 70
     1
102
RTVSPropertyOp13
 70
     1
102
RTVSPropertyOp14
 70
     1
102
RTVSPropertyOp15
 70
     1
102
RTVSPropertyOp16
 70
     1
102
RTVSPropertyOp17
 70
     1
102
RTVSPropertyOp18
 70
     1
102
RTVSPropertyOp19
 70
     1
102
RTVSPropertyOp20
 70
     1
102
RTVSPropertyOp21
 70
     1
102
RTVSPropertyOp22
 70
     1
102
RTVSPropertyOp23
 70
     1
102
RTVSPropertyOp24
 70
     1
102
RTVSPropertyOp25
 70
     1
102
RTVSPropertyOp26
 70
     1
102
RTVSPropertyOp27
 70
     1
102
RTVSPropertyOp28
 70
     1
102
RTVSPropertyOp29
 70
     1
102
RTVSPropertyOp30
 70
     1
102
RTVSPropertyOp31
 70
     1
102
RTVSPropertyOp32
 70
     1
102
RTVSPropertyOp33
 70
     1
102
RTVSPropertyOp34
 70
     1
102
RTVSPropertyOp35
 70
     1
102
RTVSPropertyOp36
 70
     1
102
RTVSPropertyOp37
 70
     1
102
RTVSPropertyOp38
 70
     1
102
RTVSPropertyOp39
 70
     1
102
RTVSPropertyOp40
 70
     1
102
RTVSPropertyOp41
 70
     1
102
RTVSPropertyOp42
 70
     1
102
RTVSPropertyOp43
 70
     1
102
RTVSPropertyOp44
 70
     1
102
RTVSPropertyOp45
 70
     1
102
RTVSPropertyOp46
 70
     1
102
RTVSPropertyOp47
 70
     1
102
RTVSPropertyOp48
 70
     1
102
RTVSPropertyOp49
 70
     1
102
RTVSPropertyOp50
 70
     1
102
RTVSPropertyOp51
 70
     0
102
RTVSPropertyOp52
 70
     0
102
RTVSPropertyOp53
 70
     1
102
RTVSPropertyOp54
 70
     1
102
RTVSPropertyOp55
 70
     1
102
RTVSPropertyOp56
 70
     1
102
RTVSPropertyOp57
 70
     1
102
RTVSPropertyOp58
 70
     1
102
RTVSPropertyOp59
 70
     1
102
RTVSPropertyOp60
 70
     1
102
RTVSPropertyOp61
 70
     1
102
RTVSPropertyOp62
 70
     1
  0
XRECORD
  5
387
102
{ACAD_REACTORS
330
386
102
}
330
386
100
AcDbXrecord
280
     1
102
RTVSPost2010Prop28
280
     0
102
RTVSPost2010PropOp28
 70
     0
102
RTVSPost2010Prop29
280
     1
102
RTVSPost2010PropOp29
 70
     0
102
RTVSPost2010Prop30
280
     1
102
RTVSPost2010PropOp30
 70
     0
102
RTVSPost2010Prop31
280
     0
102
RTVSPost2010PropOp31
 70
     0
102
RTVSPost2010Prop32
280
     0
102
RTVSPost2010PropOp32
 70
     0
102
RTVSPost2010Prop33
280
     0
102
RTVSPost2010PropOp33
 70
     0
102
RTVSPost2010Prop34
280
     0
102
RTVSPost2010PropOp34
 70
     0
102
RTVSPost2010Prop35
280
     0
102
RTVSPost2010PropOp35
 70
     0
102
RTVSPost2010Prop36
280
     0
102
RTVSPost2010PropOp36
 70
     0
102
RTVSPost2010Prop37
 90
       50
102
RTVSPost2010PropOp37
 70
     0
102
RTVSPost2010Prop38
140
0.0
102
RTVSPost2010PropOp38
 70
     0
102
RTVSPost2010Prop39
140
1.0
102
RTVSPost2010PropOp39
 70
     0
102
RTVSPost2010Prop40
 90
        0
102
RTVSPost2010PropOp40
 70
     0
102
RTVSPost2010Prop41ColorIndex
 90
       18
102
RTVSPost2010Prop41ColorRGB
 90
        0
102
RTVSPost2010PropOp41
 70
     0
102
RTVSPost2010Prop42
 90
       50
102
RTVSPost2010PropOp42
 70
     0
102
RTVSPost2010Prop43
 90
        3
102
RTVSPost2010PropOp43
 70
     0
102
RTVSPost2010Prop44ColorIndex
 90
        5
102
RTVSPost2010Prop44ColorRGB
 90
      255
102
RTVSPost2010PropOp44
 70
     0
102
RTVSPost2010Prop45
280
     0
102
RTVSPost2010PropOp45
 70
     0
102
RTVSPost2010Prop46
 90
       50
102
RTVSPost2010PropOp46
 70
     0
102
RTVSPost2010Prop47
 90
       50
102
RTVSPost2010PropOp47
 70
     0
102
RTVSPost2010Prop48
 90
       50
102
RTVSPost2010PropOp48
 70
     0
102
RTVSPost2010Prop49
280
     0
102
RTVSPost2010PropOp49
 70
     0
102
RTVSPost2010Prop50
 90
       50
102
RTVSPost2010PropOp50
 70
     0
102
RTVSPost2010Prop51ColorIndex
 90
      256
102
RTVSPost2010Prop51ColorRGB
 90
-16777216
102
RTVSPost2010PropOp51
 70
     0
102
RTVSPost2010Prop52
140
1.0
102
RTVSPost2010PropOp52
 70
     0
102
RTVSPost2010Prop53
 90
        2
102
RTVSPost2010PropOp53
 70
     0
102
RTVSPost2010Prop54
  1
strokes_ogs.tif
102
RTVSPost2010PropOp54
 70
     0
102
RTVSPost2010Prop55
280
     0
102
RTVSPost2010PropOp55
 70
     0
102
RTVSPost2010Prop56
140
1.0
102
RTVSPost2010PropOp56
 70
     0
102
RTVSPost2010Prop57
140
1.0
102
RTVSPost2010PropOp57
 70
     0
102
RTVSPropertyOp0
 70
     0
102
RTVSPropertyOp1
 70
     0
102
RTVSPropertyOp2
 70
     0
102
RTVSPropertyOp3
 70
     0
102
RTVSPropertyOp4
 70
     0
102
RTVSPropertyOp5
 70
     0
102
RTVSPropertyOp6
 70
     0
102
RTVSPropertyOp7
 70
     0
102
RTVSPropertyOp8
 70
     0
102
RTVSPropertyOp9
 70
     0
102
RTVSPropertyOp10
 70
     0
102
RTVSPropertyOp11
 70
     0
102
RTVSPropertyOp12
 70
     0
102
RTVSPropertyOp13
 70
     0
102
RTVSPropertyOp14
 70
     2
102
RTVSPropertyOp15
 70
     0
102
RTVSPropertyOp16
 70
     0
102
RTVSPropertyOp17
 70
     0
102
RTVSPropertyOp18
 70
     0
102
RTVSPropertyOp19
 70
     0
102
RTVSPropertyOp20
 70
     0
102
RTVSPropertyOp21
 70
     0
102
RTVSPropertyOp22
 70
     0
102
RTVSPropertyOp23
 70
     0
102
RTVSPropertyOp24
 70
     0
102
RTVSPropertyOp25
 70
     0
102
RTVSPropertyOp26
 70
     0
102
RTVSPropertyOp27
 70
     0
102
RTVSPropertyOp28
 70
     0
102
RTVSPropertyOp29
 70
     0
102
RTVSPropertyOp30
 70
     0
102
RTVSPropertyOp31
 70
     0
102
RTVSPropertyOp32
 70
     0
102
RTVSPropertyOp33
 70
     0
102
RTVSPropertyOp34
 70
     0
102
RTVSPropertyOp35
 70
     0
102
RTVSPropertyOp36
 70
     0
102
RTVSPropertyOp37
 70
     0
102
RTVSPropertyOp38
 70
     0
102
RTVSPropertyOp39
 70
     0
102
RTVSPropertyOp40
 70
     0
102
RTVSPropertyOp41
 70
     0
102
RTVSPropertyOp42
 70
     0
102
RTVSPropertyOp43
 70
     0
102
RTVSPropertyOp44
 70
     0
102
RTVSPropertyOp45
 70
     0
102
RTVSPropertyOp46
 70
     0
102
RTVSPropertyOp47
 70
     0
102
RTVSPropertyOp48
 70
     0
102
RTVSPropertyOp49
 70
     0
102
RTVSPropertyOp50
 70
     0
102
RTVSPropertyOp51
 70
     0
102
RTVSPropertyOp52
 70
     0
102
RTVSPropertyOp53
 70
     0
102
RTVSPropertyOp54
 70
     0
102
RTVSPropertyOp55
 70
     0
102
RTVSPropertyOp56
 70
     0
102
RTVSPropertyOp57
 70
     0
102
RTVSPropertyOp58
 70
     1
102
RTVSPropertyOp59
 70
     1
102
RTVSPropertyOp60
 70
     1
102
RTVSPropertyOp61
 70
     1
102
RTVSPropertyOp62
 70
     1
  0
XRECORD
  5
381
102
{ACAD_REACTORS
330
380
102
}
330
380
100
AcDbXrecord
280
     1
102
RTVSPost2010Prop28
280
     0
102
RTVSPost2010PropOp28
 70
     1
102
RTVSPost2010Prop29
280
     1
102
RTVSPost2010PropOp29
 70
     1
102
RTVSPost2010Prop30
280
     1
102
RTVSPost2010PropOp30
 70
     1
102
RTVSPost2010Prop31
280
     0
102
RTVSPost2010PropOp31
 70
     1
102
RTVSPost2010Prop32
280
     0
102
RTVSPost2010PropOp32
 70
     1
102
RTVSPost2010Prop33
280
     0
102
RTVSPost2010PropOp33
 70
     1
102
RTVSPost2010Prop34
280
     0
102
RTVSPost2010PropOp34
 70
     1
102
RTVSPost2010Prop35
280
     0
102
RTVSPost2010PropOp35
 70
     1
102
RTVSPost2010Prop36
280
     0
102
RTVSPost2010PropOp36
 70
     1
102
RTVSPost2010Prop37
 90
       50
102
RTVSPost2010PropOp37
 70
     1
102
RTVSPost2010Prop38
140
0.0
102
RTVSPost2010PropOp38
 70
     1
102
RTVSPost2010Prop39
140
1.0
102
RTVSPost2010PropOp39
 70
     1
102
RTVSPost2010Prop40
 90
        0
102
RTVSPost2010PropOp40
 70
     1
102
RTVSPost2010Prop41ColorIndex
 90
       18
102
RTVSPost2010Prop41ColorRGB
 90
        0
102
RTVSPost2010PropOp41
 70
     1
102
RTVSPost2010Prop42
 90
       50
102
RTVSPost2010PropOp42
 70
     1
102
RTVSPost2010Prop43
 90
        3
102
RTVSPost2010PropOp43
 70
     1
102
RTVSPost2010Prop44ColorIndex
 90
        5
102
RTVSPost2010Prop44ColorRGB
 90
      255
102
RTVSPost2010PropOp44
 70
     1
102
RTVSPost2010Prop45
280
     0
102
RTVSPost2010PropOp45
 70
     1
102
RTVSPost2010Prop46
 90
       50
102
RTVSPost2010PropOp46
 70
     1
102
RTVSPost2010Prop47
 90
       50
102
RTVSPost2010PropOp47
 70
     1
102
RTVSPost2010Prop48
 90
       50
102
RTVSPost2010PropOp48
 70
     1
102
RTVSPost2010Prop49
280
     0
102
RTVSPost2010PropOp49
 70
     1
102
RTVSPost2010Prop50
 90
       50
102
RTVSPost2010PropOp50
 70
     1
102
RTVSPost2010Prop51ColorIndex
 90
      256
102
RTVSPost2010Prop51ColorRGB
 90
-16777216
102
RTVSPost2010PropOp51
 70
     0
102
RTVSPost2010Prop52
140
1.0
102
RTVSPost2010PropOp52
 70
     0
102
RTVSPost2010Prop53
 90
        2
102
RTVSPost2010PropOp53
 70
     1
102
RTVSPost2010Prop54
  1
strokes_ogs.tif
102
RTVSPost2010PropOp54
 70
     1
102
RTVSPost2010Prop55
280
     0
102
RTVSPost2010PropOp55
 70
     1
102
RTVSPost2010Prop56
140
1.0
102
RTVSPost2010PropOp56
 70
     1
102
RTVSPost2010Prop57
140
1.0
102
RTVSPost2010PropOp57
 70
     1
102
RTVSPropertyOp0
 70
     1
102
RTVSPropertyOp1
 70
     1
102
RTVSPropertyOp2
 70
     1
102
RTVSPropertyOp3
 70
     1
102
RTVSPropertyOp4
 70
     1
102
RTVSPropertyOp5
 70
     1
102
RTVSPropertyOp6
 70
     1
102
RTVSPropertyOp7
 70
     1
102
RTVSPropertyOp8
 70
     1
102
RTVSPropertyOp9
 70
     1
102
RTVSPropertyOp10
 70
     1
102
RTVSPropertyOp11
 70
     1
102
RTVSPropertyOp12
 70
     1
102
RTVSPropertyOp13
 70
     1
102
RTVSPropertyOp14
 70
     1
102
RTVSPropertyOp15
 70
     1
102
RTVSPropertyOp16
 70
     1
102
RTVSPropertyOp17
 70
     1
102
RTVSPropertyOp18
 70
     1
102
RTVSPropertyOp19
 70
     1
102
RTVSPropertyOp20
 70
     1
102
RTVSPropertyOp21
 70
     1
102
RTVSPropertyOp22
 70
     1
102
RTVSPropertyOp23
 70
     1
102
RTVSPropertyOp24
 70
     1
102
RTVSPropertyOp25
 70
     1
102
RTVSPropertyOp26
 70
     1
102
RTVSPropertyOp27
 70
     1
102
RTVSPropertyOp28
 70
     1
102
RTVSPropertyOp29
 70
     1
102
RTVSPropertyOp30
 70
     1
102
RTVSPropertyOp31
 70
     1
102
RTVSPropertyOp32
 70
     1
102
RTVSPropertyOp33
 70
     1
102
RTVSPropertyOp34
 70
     1
102
RTVSPropertyOp35
 70
     1
102
RTVSPropertyOp36
 70
     1
102
RTVSPropertyOp37
 70
     1
102
RTVSPropertyOp38
 70
     1
102
RTVSPropertyOp39
 70
     1
102
RTVSPropertyOp40
 70
     1
102
RTVSPropertyOp41
 70
     1
102
RTVSPropertyOp42
 70
     1
102
RTVSPropertyOp43
 70
     1
102
RTVSPropertyOp44
 70
     1
102
RTVSPropertyOp45
 70
     1
102
RTVSPropertyOp46
 70
     1
102
RTVSPropertyOp47
 70
     1
102
RTVSPropertyOp48
 70
     1
102
RTVSPropertyOp49
 70
     1
102
RTVSPropertyOp50
 70
     1
102
RTVSPropertyOp51
 70
     0
102
RTVSPropertyOp52
 70
     0
102
RTVSPropertyOp53
 70
     1
102
RTVSPropertyOp54
 70
     1
102
RTVSPropertyOp55
 70
     1
102
RTVSPropertyOp56
 70
     1
102
RTVSPropertyOp57
 70
     1
102
RTVSPropertyOp58
 70
     1
102
RTVSPropertyOp59
 70
     1
102
RTVSPropertyOp60
 70
     1
102
RTVSPropertyOp61
 70
     1
102
RTVSPropertyOp62
 70
     1
  0
XRECORD
  5
389
102
{ACAD_REACTORS
330
388
102
}
330
388
100
AcDbXrecord
280
     1
102
RTVSPost2010Prop28
280
     0
102
RTVSPost2010PropOp28
 70
     0
102
RTVSPost2010Prop29
280
     1
102
RTVSPost2010PropOp29
 70
     0
102
RTVSPost2010Prop30
280
     1
102
RTVSPost2010PropOp30
 70
     0
102
RTVSPost2010Prop31
280
     0
102
RTVSPost2010PropOp31
 70
     0
102
RTVSPost2010Prop32
280
     0
102
RTVSPost2010PropOp32
 70
     0
102
RTVSPost2010Prop33
280
     0
102
RTVSPost2010PropOp33
 70
     0
102
RTVSPost2010Prop34
280
     0
102
RTVSPost2010PropOp34
 70
     0
102
RTVSPost2010Prop35
280
     0
102
RTVSPost2010PropOp35
 70
     0
102
RTVSPost2010Prop36
280
     0
102
RTVSPost2010PropOp36
 70
     0
102
RTVSPost2010Prop37
 90
       50
102
RTVSPost2010PropOp37
 70
     0
102
RTVSPost2010Prop38
140
0.0
102
RTVSPost2010PropOp38
 70
     0
102
RTVSPost2010Prop39
140
1.0
102
RTVSPost2010PropOp39
 70
     0
102
RTVSPost2010Prop40
 90
        0
102
RTVSPost2010PropOp40
 70
     0
102
RTVSPost2010Prop41ColorIndex
 90
       18
102
RTVSPost2010Prop41ColorRGB
 90
        0
102
RTVSPost2010PropOp41
 70
     0
102
RTVSPost2010Prop42
 90
       50
102
RTVSPost2010PropOp42
 70
     0
102
RTVSPost2010Prop43
 90
        3
102
RTVSPost2010PropOp43
 70
     0
102
RTVSPost2010Prop44ColorIndex
 90
        5
102
RTVSPost2010Prop44ColorRGB
 90
      255
102
RTVSPost2010PropOp44
 70
     0
102
RTVSPost2010Prop45
280
     0
102
RTVSPost2010PropOp45
 70
     0
102
RTVSPost2010Prop46
 90
       50
102
RTVSPost2010PropOp46
 70
     0
102
RTVSPost2010Prop47
 90
       50
102
RTVSPost2010PropOp47
 70
     0
102
RTVSPost2010Prop48
 90
       50
102
RTVSPost2010PropOp48
 70
     0
102
RTVSPost2010Prop49
280
     0
102
RTVSPost2010PropOp49
 70
     0
102
RTVSPost2010Prop50
 90
       50
102
RTVSPost2010PropOp50
 70
     0
102
RTVSPost2010Prop51ColorIndex
 90
      256
102
RTVSPost2010Prop51ColorRGB
 90
-16777216
102
RTVSPost2010PropOp51
 70
     0
102
RTVSPost2010Prop52
140
1.0
102
RTVSPost2010PropOp52
 70
     0
102
RTVSPost2010Prop53
 90
        2
102
RTVSPost2010PropOp53
 70
     0
102
RTVSPost2010Prop54
  1
strokes_ogs.tif
102
RTVSPost2010PropOp54
 70
     0
102
RTVSPost2010Prop55
280
     0
102
RTVSPost2010PropOp55
 70
     0
102
RTVSPost2010Prop56
140
1.0
102
RTVSPost2010PropOp56
 70
     0
102
RTVSPost2010Prop57
140
1.0
102
RTVSPost2010PropOp57
 70
     0
102
RTVSPropertyOp0
 70
     0
102
RTVSPropertyOp1
 70
     0
102
RTVSPropertyOp2
 70
     0
102
RTVSPropertyOp3
 70
     0
102
RTVSPropertyOp4
 70
     0
102
RTVSPropertyOp5
 70
     0
102
RTVSPropertyOp6
 70
     0
102
RTVSPropertyOp7
 70
     0
102
RTVSPropertyOp8
 70
     0
102
RTVSPropertyOp9
 70
     0
102
RTVSPropertyOp10
 70
     0
102
RTVSPropertyOp11
 70
     0
102
RTVSPropertyOp12
 70
     0
102
RTVSPropertyOp13
 70
     0
102
RTVSPropertyOp14
 70
     2
102
RTVSPropertyOp15
 70
     0
102
RTVSPropertyOp16
 70
     0
102
RTVSPropertyOp17
 70
     0
102
RTVSPropertyOp18
 70
     0
102
RTVSPropertyOp19
 70
     0
102
RTVSPropertyOp20
 70
     0
102
RTVSPropertyOp21
 70
     0
102
RTVSPropertyOp22
 70
     0
102
RTVSPropertyOp23
 70
     0
102
RTVSPropertyOp24
 70
     0
102
RTVSPropertyOp25
 70
     0
102
RTVSPropertyOp26
 70
     0
102
RTVSPropertyOp27
 70
     0
102
RTVSPropertyOp28
 70
     0
102
RTVSPropertyOp29
 70
     0
102
RTVSPropertyOp30
 70
     0
102
RTVSPropertyOp31
 70
     0
102
RTVSPropertyOp32
 70
     0
102
RTVSPropertyOp33
 70
     0
102
RTVSPropertyOp34
 70
     0
102
RTVSPropertyOp35
 70
     0
102
RTVSPropertyOp36
 70
     0
102
RTVSPropertyOp37
 70
     0
102
RTVSPropertyOp38
 70
     0
102
RTVSPropertyOp39
 70
     0
102
RTVSPropertyOp40
 70
     0
102
RTVSPropertyOp41
 70
     0
102
RTVSPropertyOp42
 70
     0
102
RTVSPropertyOp43
 70
     0
102
RTVSPropertyOp44
 70
     0
102
RTVSPropertyOp45
 70
     0
102
RTVSPropertyOp46
 70
     0
102
RTVSPropertyOp47
 70
     0
102
RTVSPropertyOp48
 70
     0
102
RTVSPropertyOp49
 70
     0
102
RTVSPropertyOp50
 70
     0
102
RTVSPropertyOp51
 70
     0
102
RTVSPropertyOp52
 70
     0
102
RTVSPropertyOp53
 70
     0
102
RTVSPropertyOp54
 70
     0
102
RTVSPropertyOp55
 70
     0
102
RTVSPropertyOp56
 70
     0
102
RTVSPropertyOp57
 70
     0
102
RTVSPropertyOp58
 70
     1
102
RTVSPropertyOp59
 70
     1
102
RTVSPropertyOp60
 70
     1
102
RTVSPropertyOp61
 70
     1
102
RTVSPropertyOp62
 70
     1
  0
XRECORD
  5
377
102
{ACAD_REACTORS
330
376
102
}
330
376
100
AcDbXrecord
280
     1
102
RTVSPost2010Prop28
280
     0
102
RTVSPost2010PropOp28
 70
     1
102
RTVSPost2010Prop29
280
     1
102
RTVSPost2010PropOp29
 70
     1
102
RTVSPost2010Prop30
280
     1
102
RTVSPost2010PropOp30
 70
     1
102
RTVSPost2010Prop31
280
     0
102
RTVSPost2010PropOp31
 70
     1
102
RTVSPost2010Prop32
280
     0
102
RTVSPost2010PropOp32
 70
     1
102
RTVSPost2010Prop33
280
     0
102
RTVSPost2010PropOp33
 70
     1
102
RTVSPost2010Prop34
280
     0
102
RTVSPost2010PropOp34
 70
     1
102
RTVSPost2010Prop35
280
     0
102
RTVSPost2010PropOp35
 70
     1
102
RTVSPost2010Prop36
280
     0
102
RTVSPost2010PropOp36
 70
     1
102
RTVSPost2010Prop37
 90
       50
102
RTVSPost2010PropOp37
 70
     1
102
RTVSPost2010Prop38
140
0.0
102
RTVSPost2010PropOp38
 70
     1
102
RTVSPost2010Prop39
140
1.0
102
RTVSPost2010PropOp39
 70
     1
102
RTVSPost2010Prop40
 90
        0
102
RTVSPost2010PropOp40
 70
     1
102
RTVSPost2010Prop41ColorIndex
 90
       18
102
RTVSPost2010Prop41ColorRGB
 90
        0
102
RTVSPost2010PropOp41
 70
     1
102
RTVSPost2010Prop42
 90
       50
102
RTVSPost2010PropOp42
 70
     1
102
RTVSPost2010Prop43
 90
        3
102
RTVSPost2010PropOp43
 70
     1
102
RTVSPost2010Prop44ColorIndex
 90
        5
102
RTVSPost2010Prop44ColorRGB
 90
      255
102
RTVSPost2010PropOp44
 70
     1
102
RTVSPost2010Prop45
280
     0
102
RTVSPost2010PropOp45
 70
     1
102
RTVSPost2010Prop46
 90
       50
102
RTVSPost2010PropOp46
 70
     1
102
RTVSPost2010Prop47
 90
       50
102
RTVSPost2010PropOp47
 70
     1
102
RTVSPost2010Prop48
 90
       50
102
RTVSPost2010PropOp48
 70
     1
102
RTVSPost2010Prop49
280
     0
102
RTVSPost2010PropOp49
 70
     1
102
RTVSPost2010Prop50
 90
       50
102
RTVSPost2010PropOp50
 70
     1
102
RTVSPost2010Prop51ColorIndex
 90
      256
102
RTVSPost2010Prop51ColorRGB
 90
-16777216
102
RTVSPost2010PropOp51
 70
     0
102
RTVSPost2010Prop52
140
1.0
102
RTVSPost2010PropOp52
 70
     0
102
RTVSPost2010Prop53
 90
        2
102
RTVSPost2010PropOp53
 70
     1
102
RTVSPost2010Prop54
  1
strokes_ogs.tif
102
RTVSPost2010PropOp54
 70
     1
102
RTVSPost2010Prop55
280
     0
102
RTVSPost2010PropOp55
 70
     1
102
RTVSPost2010Prop56
140
1.0
102
RTVSPost2010PropOp56
 70
     1
102
RTVSPost2010Prop57
140
1.0
102
RTVSPost2010PropOp57
 70
     1
102
RTVSPropertyOp0
 70
     1
102
RTVSPropertyOp1
 70
     1
102
RTVSPropertyOp2
 70
     1
102
RTVSPropertyOp3
 70
     1
102
RTVSPropertyOp4
 70
     1
102
RTVSPropertyOp5
 70
     1
102
RTVSPropertyOp6
 70
     1
102
RTVSPropertyOp7
 70
     1
102
RTVSPropertyOp8
 70
     1
102
RTVSPropertyOp9
 70
     1
102
RTVSPropertyOp10
 70
     1
102
RTVSPropertyOp11
 70
     1
102
RTVSPropertyOp12
 70
     1
102
RTVSPropertyOp13
 70
     1
102
RTVSPropertyOp14
 70
     1
102
RTVSPropertyOp15
 70
     1
102
RTVSPropertyOp16
 70
     1
102
RTVSPropertyOp17
 70
     1
102
RTVSPropertyOp18
 70
     1
102
RTVSPropertyOp19
 70
     1
102
RTVSPropertyOp20
 70
     1
102
RTVSPropertyOp21
 70
     1
102
RTVSPropertyOp22
 70
     1
102
RTVSPropertyOp23
 70
     1
102
RTVSPropertyOp24
 70
     1
102
RTVSPropertyOp25
 70
     1
102
RTVSPropertyOp26
 70
     1
102
RTVSPropertyOp27
 70
     1
102
RTVSPropertyOp28
 70
     1
102
RTVSPropertyOp29
 70
     1
102
RTVSPropertyOp30
 70
     1
102
RTVSPropertyOp31
 70
     1
102
RTVSPropertyOp32
 70
     1
102
RTVSPropertyOp33
 70
     1
102
RTVSPropertyOp34
 70
     1
102
RTVSPropertyOp35
 70
     1
102
RTVSPropertyOp36
 70
     1
102
RTVSPropertyOp37
 70
     1
102
RTVSPropertyOp38
 70
     1
102
RTVSPropertyOp39
 70
     1
102
RTVSPropertyOp40
 70
     1
102
RTVSPropertyOp41
 70
     1
102
RTVSPropertyOp42
 70
     1
102
RTVSPropertyOp43
 70
     1
102
RTVSPropertyOp44
 70
     1
102
RTVSPropertyOp45
 70
     1
102
RTVSPropertyOp46
 70
     1
102
RTVSPropertyOp47
 70
     1
102
RTVSPropertyOp48
 70
     1
102
RTVSPropertyOp49
 70
     1
102
RTVSPropertyOp50
 70
     1
102
RTVSPropertyOp51
 70
     0
102
RTVSPropertyOp52
 70
     0
102
RTVSPropertyOp53
 70
     1
102
RTVSPropertyOp54
 70
     1
102
RTVSPropertyOp55
 70
     1
102
RTVSPropertyOp56
 70
     1
102
RTVSPropertyOp57
 70
     1
102
RTVSPropertyOp58
 70
     1
102
RTVSPropertyOp59
 70
     1
102
RTVSPropertyOp60
 70
     1
102
RTVSPropertyOp61
 70
     1
102
RTVSPropertyOp62
 70
     1
  0
XRECORD
  5
395
102
{ACAD_REACTORS
330
394
102
}
330
394
100
AcDbXrecord
280
     1
102
RTVSPost2010Prop28
280
     0
102
RTVSPost2010PropOp28
 70
     1
102
RTVSPost2010Prop29
280
     1
102
RTVSPost2010PropOp29
 70
     1
102
RTVSPost2010Prop30
280
     1
102
RTVSPost2010PropOp30
 70
     1
102
RTVSPost2010Prop31
280
     0
102
RTVSPost2010PropOp31
 70
     1
102
RTVSPost2010Prop32
280
     0
102
RTVSPost2010PropOp32
 70
     1
102
RTVSPost2010Prop33
280
     0
102
RTVSPost2010PropOp33
 70
     1
102
RTVSPost2010Prop34
280
     0
102
RTVSPost2010PropOp34
 70
     1
102
RTVSPost2010Prop35
280
     0
102
RTVSPost2010PropOp35
 70
     1
102
RTVSPost2010Prop36
280
     0
102
RTVSPost2010PropOp36
 70
     1
102
RTVSPost2010Prop37
 90
       50
102
RTVSPost2010PropOp37
 70
     1
102
RTVSPost2010Prop38
140
0.0
102
RTVSPost2010PropOp38
 70
     1
102
RTVSPost2010Prop39
140
1.0
102
RTVSPost2010PropOp39
 70
     1
102
RTVSPost2010Prop40
 90
        0
102
RTVSPost2010PropOp40
 70
     1
102
RTVSPost2010Prop41ColorIndex
 90
       18
102
RTVSPost2010Prop41ColorRGB
 90
        0
102
RTVSPost2010PropOp41
 70
     1
102
RTVSPost2010Prop42
 90
       50
102
RTVSPost2010PropOp42
 70
     1
102
RTVSPost2010Prop43
 90
        3
102
RTVSPost2010PropOp43
 70
     1
102
RTVSPost2010Prop44ColorIndex
 90
        5
102
RTVSPost2010Prop44ColorRGB
 90
      255
102
RTVSPost2010PropOp44
 70
     1
102
RTVSPost2010Prop45
280
     0
102
RTVSPost2010PropOp45
 70
     1
102
RTVSPost2010Prop46
 90
       50
102
RTVSPost2010PropOp46
 70
     1
102
RTVSPost2010Prop47
 90
       50
102
RTVSPost2010PropOp47
 70
     1
102
RTVSPost2010Prop48
 90
       50
102
RTVSPost2010PropOp48
 70
     1
102
RTVSPost2010Prop49
280
     0
102
RTVSPost2010PropOp49
 70
     1
102
RTVSPost2010Prop50
 90
       50
102
RTVSPost2010PropOp50
 70
     1
102
RTVSPost2010Prop51ColorIndex
 90
      256
102
RTVSPost2010Prop51ColorRGB
 90
-16777216
102
RTVSPost2010PropOp51
 70
     0
102
RTVSPost2010Prop52
140
1.0
102
RTVSPost2010PropOp52
 70
     0
102
RTVSPost2010Prop53
 90
        2
102
RTVSPost2010PropOp53
 70
     1
102
RTVSPost2010Prop54
  1
strokes_ogs.tif
102
RTVSPost2010PropOp54
 70
     1
102
RTVSPost2010Prop55
280
     0
102
RTVSPost2010PropOp55
 70
     1
102
RTVSPost2010Prop56
140
1.0
102
RTVSPost2010PropOp56
 70
     1
102
RTVSPost2010Prop57
140
1.0
102
RTVSPost2010PropOp57
 70
     1
102
RTVSPropertyOp0
 70
     1
102
RTVSPropertyOp1
 70
     1
102
RTVSPropertyOp2
 70
     1
102
RTVSPropertyOp3
 70
     1
102
RTVSPropertyOp4
 70
     1
102
RTVSPropertyOp5
 70
     1
102
RTVSPropertyOp6
 70
     1
102
RTVSPropertyOp7
 70
     1
102
RTVSPropertyOp8
 70
     1
102
RTVSPropertyOp9
 70
     1
102
RTVSPropertyOp10
 70
     1
102
RTVSPropertyOp11
 70
     1
102
RTVSPropertyOp12
 70
     1
102
RTVSPropertyOp13
 70
     1
102
RTVSPropertyOp14
 70
     1
102
RTVSPropertyOp15
 70
     1
102
RTVSPropertyOp16
 70
     1
102
RTVSPropertyOp17
 70
     1
102
RTVSPropertyOp18
 70
     1
102
RTVSPropertyOp19
 70
     1
102
RTVSPropertyOp20
 70
     1
102
RTVSPropertyOp21
 70
     1
102
RTVSPropertyOp22
 70
     1
102
RTVSPropertyOp23
 70
     1
102
RTVSPropertyOp24
 70
     1
102
RTVSPropertyOp25
 70
     1
102
RTVSPropertyOp26
 70
     1
102
RTVSPropertyOp27
 70
     1
102
RTVSPropertyOp28
 70
     1
102
RTVSPropertyOp29
 70
     1
102
RTVSPropertyOp30
 70
     1
102
RTVSPropertyOp31
 70
     1
102
RTVSPropertyOp32
 70
     1
102
RTVSPropertyOp33
 70
     1
102
RTVSPropertyOp34
 70
     1
102
RTVSPropertyOp35
 70
     1
102
RTVSPropertyOp36
 70
     1
102
RTVSPropertyOp37
 70
     1
102
RTVSPropertyOp38
 70
     1
102
RTVSPropertyOp39
 70
     1
102
RTVSPropertyOp40
 70
     1
102
RTVSPropertyOp41
 70
     1
102
RTVSPropertyOp42
 70
     1
102
RTVSPropertyOp43
 70
     1
102
RTVSPropertyOp44
 70
     1
102
RTVSPropertyOp45
 70
     1
102
RTVSPropertyOp46
 70
     1
102
RTVSPropertyOp47
 70
     1
102
RTVSPropertyOp48
 70
     1
102
RTVSPropertyOp49
 70
     1
102
RTVSPropertyOp50
 70
     1
102
RTVSPropertyOp51
 70
     0
102
RTVSPropertyOp52
 70
     0
102
RTVSPropertyOp53
 70
     1
102
RTVSPropertyOp54
 70
     1
102
RTVSPropertyOp55
 70
     1
102
RTVSPropertyOp56
 70
     1
102
RTVSPropertyOp57
 70
     1
102
RTVSPropertyOp58
 70
     1
102
RTVSPropertyOp59
 70
     1
102
RTVSPropertyOp60
 70
     1
102
RTVSPropertyOp61
 70
     1
102
RTVSPropertyOp62
 70
     1
  0
XRECORD
  5
393
102
{ACAD_REACTORS
330
392
102
}
330
392
100
AcDbXrecord
280
     1
102
RTVSPost2010Prop28
280
     0
102
RTVSPost2010PropOp28
 70
     1
102
RTVSPost2010Prop29
280
     1
102
RTVSPost2010PropOp29
 70
     1
102
RTVSPost2010Prop30
280
     1
102
RTVSPost2010PropOp30
 70
     1
102
RTVSPost2010Prop31
280
     0
102
RTVSPost2010PropOp31
 70
     1
102
RTVSPost2010Prop32
280
     0
102
RTVSPost2010PropOp32
 70
     1
102
RTVSPost2010Prop33
280
     0
102
RTVSPost2010PropOp33
 70
     1
102
RTVSPost2010Prop34
280
     0
102
RTVSPost2010PropOp34
 70
     1
102
RTVSPost2010Prop35
280
     0
102
RTVSPost2010PropOp35
 70
     1
102
RTVSPost2010Prop36
280
     0
102
RTVSPost2010PropOp36
 70
     1
102
RTVSPost2010Prop37
 90
       50
102
RTVSPost2010PropOp37
 70
     1
102
RTVSPost2010Prop38
140
0.0
102
RTVSPost2010PropOp38
 70
     1
102
RTVSPost2010Prop39
140
1.0
102
RTVSPost2010PropOp39
 70
     1
102
RTVSPost2010Prop40
 90
        0
102
RTVSPost2010PropOp40
 70
     1
102
RTVSPost2010Prop41ColorIndex
 90
       18
102
RTVSPost2010Prop41ColorRGB
 90
        0
102
RTVSPost2010PropOp41
 70
     1
102
RTVSPost2010Prop42
 90
       50
102
RTVSPost2010PropOp42
 70
     1
102
RTVSPost2010Prop43
 90
        3
102
RTVSPost2010PropOp43
 70
     1
102
RTVSPost2010Prop44ColorIndex
 90
        5
102
RTVSPost2010Prop44ColorRGB
 90
      255
102
RTVSPost2010PropOp44
 70
     1
102
RTVSPost2010Prop45
280
     0
102
RTVSPost2010PropOp45
 70
     1
102
RTVSPost2010Prop46
 90
       50
102
RTVSPost2010PropOp46
 70
     1
102
RTVSPost2010Prop47
 90
       50
102
RTVSPost2010PropOp47
 70
     1
102
RTVSPost2010Prop48
 90
       50
102
RTVSPost2010PropOp48
 70
     1
102
RTVSPost2010Prop49
280
     0
102
RTVSPost2010PropOp49
 70
     1
102
RTVSPost2010Prop50
 90
       50
102
RTVSPost2010PropOp50
 70
     1
102
RTVSPost2010Prop51ColorIndex
 90
      256
102
RTVSPost2010Prop51ColorRGB
 90
-16777216
102
RTVSPost2010PropOp51
 70
     0
102
RTVSPost2010Prop52
140
1.0
102
RTVSPost2010PropOp52
 70
     0
102
RTVSPost2010Prop53
 90
        2
102
RTVSPost2010PropOp53
 70
     1
102
RTVSPost2010Prop54
  1
strokes_ogs.tif
102
RTVSPost2010PropOp54
 70
     1
102
RTVSPost2010Prop55
280
     0
102
RTVSPost2010PropOp55
 70
     1
102
RTVSPost2010Prop56
140
1.0
102
RTVSPost2010PropOp56
 70
     1
102
RTVSPost2010Prop57
140
1.0
102
RTVSPost2010PropOp57
 70
     1
102
RTVSPropertyOp0
 70
     1
102
RTVSPropertyOp1
 70
     1
102
RTVSPropertyOp2
 70
     1
102
RTVSPropertyOp3
 70
     1
102
RTVSPropertyOp4
 70
     1
102
RTVSPropertyOp5
 70
     1
102
RTVSPropertyOp6
 70
     1
102
RTVSPropertyOp7
 70
     1
102
RTVSPropertyOp8
 70
     1
102
RTVSPropertyOp9
 70
     1
102
RTVSPropertyOp10
 70
     1
102
RTVSPropertyOp11
 70
     1
102
RTVSPropertyOp12
 70
     1
102
RTVSPropertyOp13
 70
     1
102
RTVSPropertyOp14
 70
     1
102
RTVSPropertyOp15
 70
     1
102
RTVSPropertyOp16
 70
     1
102
RTVSPropertyOp17
 70
     1
102
RTVSPropertyOp18
 70
     1
102
RTVSPropertyOp19
 70
     1
102
RTVSPropertyOp20
 70
     1
102
RTVSPropertyOp21
 70
     1
102
RTVSPropertyOp22
 70
     1
102
RTVSPropertyOp23
 70
     1
102
RTVSPropertyOp24
 70
     1
102
RTVSPropertyOp25
 70
     1
102
RTVSPropertyOp26
 70
     1
102
RTVSPropertyOp27
 70
     1
102
RTVSPropertyOp28
 70
     1
102
RTVSPropertyOp29
 70
     1
102
RTVSPropertyOp30
 70
     1
102
RTVSPropertyOp31
 70
     1
102
RTVSPropertyOp32
 70
     1
102
RTVSPropertyOp33
 70
     1
102
RTVSPropertyOp34
 70
     1
102
RTVSPropertyOp35
 70
     1
102
RTVSPropertyOp36
 70
     1
102
RTVSPropertyOp37
 70
     1
102
RTVSPropertyOp38
 70
     1
102
RTVSPropertyOp39
 70
     1
102
RTVSPropertyOp40
 70
     1
102
RTVSPropertyOp41
 70
     1
102
RTVSPropertyOp42
 70
     1
102
RTVSPropertyOp43
 70
     1
102
RTVSPropertyOp44
 70
     1
102
RTVSPropertyOp45
 70
     1
102
RTVSPropertyOp46
 70
     1
102
RTVSPropertyOp47
 70
     1
102
RTVSPropertyOp48
 70
     1
102
RTVSPropertyOp49
 70
     1
102
RTVSPropertyOp50
 70
     1
102
RTVSPropertyOp51
 70
     0
102
RTVSPropertyOp52
 70
     0
102
RTVSPropertyOp53
 70
     1
102
RTVSPropertyOp54
 70
     1
102
RTVSPropertyOp55
 70
     1
102
RTVSPropertyOp56
 70
     1
102
RTVSPropertyOp57
 70
     1
102
RTVSPropertyOp58
 70
     1
102
RTVSPropertyOp59
 70
     1
102
RTVSPropertyOp60
 70
     1
102
RTVSPropertyOp61
 70
     1
102
RTVSPropertyOp62
 70
     1
  0
XRECORD
  5
38D
102
{ACAD_REACTORS
330
38C
102
}
330
38C
100
AcDbXrecord
280
     1
102
RTVSPost2010Prop28
280
     0
102
RTVSPost2010PropOp28
 70
     1
102
RTVSPost2010Prop29
280
     1
102
RTVSPost2010PropOp29
 70
     1
102
RTVSPost2010Prop30
280
     1
102
RTVSPost2010PropOp30
 70
     1
102
RTVSPost2010Prop31
280
     0
102
RTVSPost2010PropOp31
 70
     1
102
RTVSPost2010Prop32
280
     0
102
RTVSPost2010PropOp32
 70
     1
102
RTVSPost2010Prop33
280
     0
102
RTVSPost2010PropOp33
 70
     1
102
RTVSPost2010Prop34
280
     0
102
RTVSPost2010PropOp34
 70
     1
102
RTVSPost2010Prop35
280
     0
102
RTVSPost2010PropOp35
 70
     1
102
RTVSPost2010Prop36
280
     0
102
RTVSPost2010PropOp36
 70
     1
102
RTVSPost2010Prop37
 90
       50
102
RTVSPost2010PropOp37
 70
     1
102
RTVSPost2010Prop38
140
0.0
102
RTVSPost2010PropOp38
 70
     1
102
RTVSPost2010Prop39
140
1.0
102
RTVSPost2010PropOp39
 70
     1
102
RTVSPost2010Prop40
 90
        0
102
RTVSPost2010PropOp40
 70
     1
102
RTVSPost2010Prop41ColorIndex
 90
       18
102
RTVSPost2010Prop41ColorRGB
 90
        0
102
RTVSPost2010PropOp41
 70
     1
102
RTVSPost2010Prop42
 90
       50
102
RTVSPost2010PropOp42
 70
     1
102
RTVSPost2010Prop43
 90
        3
102
RTVSPost2010PropOp43
 70
     1
102
RTVSPost2010Prop44ColorIndex
 90
        5
102
RTVSPost2010Prop44ColorRGB
 90
      255
102
RTVSPost2010PropOp44
 70
     1
102
RTVSPost2010Prop45
280
     0
102
RTVSPost2010PropOp45
 70
     1
102
RTVSPost2010Prop46
 90
       50
102
RTVSPost2010PropOp46
 70
     1
102
RTVSPost2010Prop47
 90
       50
102
RTVSPost2010PropOp47
 70
     1
102
RTVSPost2010Prop48
 90
       50
102
RTVSPost2010PropOp48
 70
     1
102
RTVSPost2010Prop49
280
     0
102
RTVSPost2010PropOp49
 70
     1
102
RTVSPost2010Prop50
 90
       50
102
RTVSPost2010PropOp50
 70
     1
102
RTVSPost2010Prop51ColorIndex
 90
      256
102
RTVSPost2010Prop51ColorRGB
 90
-16777216
102
RTVSPost2010PropOp51
 70
     0
102
RTVSPost2010Prop52
140
1.0
102
RTVSPost2010PropOp52
 70
     0
102
RTVSPost2010Prop53
 90
        2
102
RTVSPost2010PropOp53
 70
     1
102
RTVSPost2010Prop54
  1
strokes_ogs.tif
102
RTVSPost2010PropOp54
 70
     1
102
RTVSPost2010Prop55
280
     0
102
RTVSPost2010PropOp55
 70
     1
102
RTVSPost2010Prop56
140
1.0
102
RTVSPost2010PropOp56
 70
     1
102
RTVSPost2010Prop57
140
1.0
102
RTVSPost2010PropOp57
 70
     1
102
RTVSPropertyOp0
 70
     1
102
RTVSPropertyOp1
 70
     1
102
RTVSPropertyOp2
 70
     1
102
RTVSPropertyOp3
 70
     1
102
RTVSPropertyOp4
 70
     1
102
RTVSPropertyOp5
 70
     1
102
RTVSPropertyOp6
 70
     1
102
RTVSPropertyOp7
 70
     1
102
RTVSPropertyOp8
 70
     1
102
RTVSPropertyOp9
 70
     1
102
RTVSPropertyOp10
 70
     1
102
RTVSPropertyOp11
 70
     1
102
RTVSPropertyOp12
 70
     1
102
RTVSPropertyOp13
 70
     1
102
RTVSPropertyOp14
 70
     1
102
RTVSPropertyOp15
 70
     1
102
RTVSPropertyOp16
 70
     1
102
RTVSPropertyOp17
 70
     1
102
RTVSPropertyOp18
 70
     1
102
RTVSPropertyOp19
 70
     1
102
RTVSPropertyOp20
 70
     1
102
RTVSPropertyOp21
 70
     1
102
RTVSPropertyOp22
 70
     1
102
RTVSPropertyOp23
 70
     1
102
RTVSPropertyOp24
 70
     1
102
RTVSPropertyOp25
 70
     1
102
RTVSPropertyOp26
 70
     1
102
RTVSPropertyOp27
 70
     1
102
RTVSPropertyOp28
 70
     1
102
RTVSPropertyOp29
 70
     1
102
RTVSPropertyOp30
 70
     1
102
RTVSPropertyOp31
 70
     1
102
RTVSPropertyOp32
 70
     1
102
RTVSPropertyOp33
 70
     1
102
RTVSPropertyOp34
 70
     1
102
RTVSPropertyOp35
 70
     1
102
RTVSPropertyOp36
 70
     1
102
RTVSPropertyOp37
 70
     1
102
RTVSPropertyOp38
 70
     1
102
RTVSPropertyOp39
 70
     1
102
RTVSPropertyOp40
 70
     1
102
RTVSPropertyOp41
 70
     1
102
RTVSPropertyOp42
 70
     1
102
RTVSPropertyOp43
 70
     1
102
RTVSPropertyOp44
 70
     1
102
RTVSPropertyOp45
 70
     1
102
RTVSPropertyOp46
 70
     1
102
RTVSPropertyOp47
 70
     1
102
RTVSPropertyOp48
 70
     1
102
RTVSPropertyOp49
 70
     1
102
RTVSPropertyOp50
 70
     1
102
RTVSPropertyOp51
 70
     0
102
RTVSPropertyOp52
 70
     0
102
RTVSPropertyOp53
 70
     1
102
RTVSPropertyOp54
 70
     1
102
RTVSPropertyOp55
 70
     1
102
RTVSPropertyOp56
 70
     1
102
RTVSPropertyOp57
 70
     1
102
RTVSPropertyOp58
 70
     1
102
RTVSPropertyOp59
 70
     1
102
RTVSPropertyOp60
 70
     1
102
RTVSPropertyOp61
 70
     1
102
RTVSPropertyOp62
 70
     1
  0
XRECORD
  5
38F
102
{ACAD_REACTORS
330
38E
102
}
330
38E
100
AcDbXrecord
280
     1
102
RTVSPost2010Prop28
280
     0
102
RTVSPost2010PropOp28
 70
     1
102
RTVSPost2010Prop29
280
     1
102
RTVSPost2010PropOp29
 70
     1
102
RTVSPost2010Prop30
280
     1
102
RTVSPost2010PropOp30
 70
     1
102
RTVSPost2010Prop31
280
     0
102
RTVSPost2010PropOp31
 70
     1
102
RTVSPost2010Prop32
280
     0
102
RTVSPost2010PropOp32
 70
     1
102
RTVSPost2010Prop33
280
     0
102
RTVSPost2010PropOp33
 70
     1
102
RTVSPost2010Prop34
280
     0
102
RTVSPost2010PropOp34
 70
     1
102
RTVSPost2010Prop35
280
     0
102
RTVSPost2010PropOp35
 70
     1
102
RTVSPost2010Prop36
280
     0
102
RTVSPost2010PropOp36
 70
     1
102
RTVSPost2010Prop37
 90
       50
102
RTVSPost2010PropOp37
 70
     1
102
RTVSPost2010Prop38
140
0.0
102
RTVSPost2010PropOp38
 70
     1
102
RTVSPost2010Prop39
140
1.0
102
RTVSPost2010PropOp39
 70
     1
102
RTVSPost2010Prop40
 90
        0
102
RTVSPost2010PropOp40
 70
     1
102
RTVSPost2010Prop41ColorIndex
 90
       18
102
RTVSPost2010Prop41ColorRGB
 90
        0
102
RTVSPost2010PropOp41
 70
     1
102
RTVSPost2010Prop42
 90
       50
102
RTVSPost2010PropOp42
 70
     1
102
RTVSPost2010Prop43
 90
        3
102
RTVSPost2010PropOp43
 70
     1
102
RTVSPost2010Prop44ColorIndex
 90
        5
102
RTVSPost2010Prop44ColorRGB
 90
      255
102
RTVSPost2010PropOp44
 70
     1
102
RTVSPost2010Prop45
280
     0
102
RTVSPost2010PropOp45
 70
     1
102
RTVSPost2010Prop46
 90
       50
102
RTVSPost2010PropOp46
 70
     1
102
RTVSPost2010Prop47
 90
       50
102
RTVSPost2010PropOp47
 70
     1
102
RTVSPost2010Prop48
 90
       50
102
RTVSPost2010PropOp48
 70
     1
102
RTVSPost2010Prop49
280
     0
102
RTVSPost2010PropOp49
 70
     1
102
RTVSPost2010Prop50
 90
       50
102
RTVSPost2010PropOp50
 70
     1
102
RTVSPost2010Prop51ColorIndex
 90
      256
102
RTVSPost2010Prop51ColorRGB
 90
-16777216
102
RTVSPost2010PropOp51
 70
     0
102
RTVSPost2010Prop52
140
1.0
102
RTVSPost2010PropOp52
 70
     0
102
RTVSPost2010Prop53
 90
        2
102
RTVSPost2010PropOp53
 70
     1
102
RTVSPost2010Prop54
  1
strokes_ogs.tif
102
RTVSPost2010PropOp54
 70
     1
102
RTVSPost2010Prop55
280
     0
102
RTVSPost2010PropOp55
 70
     1
102
RTVSPost2010Prop56
140
1.0
102
RTVSPost2010PropOp56
 70
     1
102
RTVSPost2010Prop57
140
1.0
102
RTVSPost2010PropOp57
 70
     1
102
RTVSPropertyOp0
 70
     1
102
RTVSPropertyOp1
 70
     1
102
RTVSPropertyOp2
 70
     1
102
RTVSPropertyOp3
 70
     1
102
RTVSPropertyOp4
 70
     1
102
RTVSPropertyOp5
 70
     1
102
RTVSPropertyOp6
 70
     1
102
RTVSPropertyOp7
 70
     1
102
RTVSPropertyOp8
 70
     1
102
RTVSPropertyOp9
 70
     1
102
RTVSPropertyOp10
 70
     1
102
RTVSPropertyOp11
 70
     1
102
RTVSPropertyOp12
 70
     1
102
RTVSPropertyOp13
 70
     1
102
RTVSPropertyOp14
 70
     1
102
RTVSPropertyOp15
 70
     1
102
RTVSPropertyOp16
 70
     1
102
RTVSPropertyOp17
 70
     1
102
RTVSPropertyOp18
 70
     1
102
RTVSPropertyOp19
 70
     1
102
RTVSPropertyOp20
 70
     1
102
RTVSPropertyOp21
 70
     1
102
RTVSPropertyOp22
 70
     1
102
RTVSPropertyOp23
 70
     1
102
RTVSPropertyOp24
 70
     1
102
RTVSPropertyOp25
 70
     1
102
RTVSPropertyOp26
 70
     1
102
RTVSPropertyOp27
 70
     1
102
RTVSPropertyOp28
 70
     1
102
RTVSPropertyOp29
 70
     1
102
RTVSPropertyOp30
 70
     1
102
RTVSPropertyOp31
 70
     1
102
RTVSPropertyOp32
 70
     1
102
RTVSPropertyOp33
 70
     1
102
RTVSPropertyOp34
 70
     1
102
RTVSPropertyOp35
 70
     1
102
RTVSPropertyOp36
 70
     1
102
RTVSPropertyOp37
 70
     1
102
RTVSPropertyOp38
 70
     1
102
RTVSPropertyOp39
 70
     1
102
RTVSPropertyOp40
 70
     1
102
RTVSPropertyOp41
 70
     1
102
RTVSPropertyOp42
 70
     1
102
RTVSPropertyOp43
 70
     1
102
RTVSPropertyOp44
 70
     1
102
RTVSPropertyOp45
 70
     1
102
RTVSPropertyOp46
 70
     1
102
RTVSPropertyOp47
 70
     1
102
RTVSPropertyOp48
 70
     1
102
RTVSPropertyOp49
 70
     1
102
RTVSPropertyOp50
 70
     1
102
RTVSPropertyOp51
 70
     0
102
RTVSPropertyOp52
 70
     0
102
RTVSPropertyOp53
 70
     1
102
RTVSPropertyOp54
 70
     1
102
RTVSPropertyOp55
 70
     1
102
RTVSPropertyOp56
 70
     1
102
RTVSPropertyOp57
 70
     1
102
RTVSPropertyOp58
 70
     1
102
RTVSPropertyOp59
 70
     1
102
RTVSPropertyOp60
 70
     1
102
RTVSPropertyOp61
 70
     1
102
RTVSPropertyOp62
 70
     1
  0
XRECORD
  5
37F
102
{ACAD_REACTORS
330
37E
102
}
330
37E
100
AcDbXrecord
280
     1
102
RTVSPost2010Prop28
280
     0
102
RTVSPost2010PropOp28
 70
     1
102
RTVSPost2010Prop29
280
     1
102
RTVSPost2010PropOp29
 70
     1
102
RTVSPost2010Prop30
280
     1
102
RTVSPost2010PropOp30
 70
     1
102
RTVSPost2010Prop31
280
     0
102
RTVSPost2010PropOp31
 70
     1
102
RTVSPost2010Prop32
280
     0
102
RTVSPost2010PropOp32
 70
     1
102
RTVSPost2010Prop33
280
     0
102
RTVSPost2010PropOp33
 70
     1
102
RTVSPost2010Prop34
280
     0
102
RTVSPost2010PropOp34
 70
     1
102
RTVSPost2010Prop35
280
     0
102
RTVSPost2010PropOp35
 70
     1
102
RTVSPost2010Prop36
280
     0
102
RTVSPost2010PropOp36
 70
     1
102
RTVSPost2010Prop37
 90
       50
102
RTVSPost2010PropOp37
 70
     1
102
RTVSPost2010Prop38
140
0.0
102
RTVSPost2010PropOp38
 70
     1
102
RTVSPost2010Prop39
140
1.0
102
RTVSPost2010PropOp39
 70
     1
102
RTVSPost2010Prop40
 90
        0
102
RTVSPost2010PropOp40
 70
     1
102
RTVSPost2010Prop41ColorIndex
 90
       18
102
RTVSPost2010Prop41ColorRGB
 90
        0
102
RTVSPost2010PropOp41
 70
     1
102
RTVSPost2010Prop42
 90
       50
102
RTVSPost2010PropOp42
 70
     1
102
RTVSPost2010Prop43
 90
        3
102
RTVSPost2010PropOp43
 70
     1
102
RTVSPost2010Prop44ColorIndex
 90
        5
102
RTVSPost2010Prop44ColorRGB
 90
      255
102
RTVSPost2010PropOp44
 70
     1
102
RTVSPost2010Prop45
280
     0
102
RTVSPost2010PropOp45
 70
     1
102
RTVSPost2010Prop46
 90
       50
102
RTVSPost2010PropOp46
 70
     1
102
RTVSPost2010Prop47
 90
       50
102
RTVSPost2010PropOp47
 70
     1
102
RTVSPost2010Prop48
 90
       50
102
RTVSPost2010PropOp48
 70
     1
102
RTVSPost2010Prop49
280
     0
102
RTVSPost2010PropOp49
 70
     1
102
RTVSPost2010Prop50
 90
       50
102
RTVSPost2010PropOp50
 70
     1
102
RTVSPost2010Prop51ColorIndex
 90
      256
102
RTVSPost2010Prop51ColorRGB
 90
-16777216
102
RTVSPost2010PropOp51
 70
     0
102
RTVSPost2010Prop52
140
1.0
102
RTVSPost2010PropOp52
 70
     0
102
RTVSPost2010Prop53
 90
        2
102
RTVSPost2010PropOp53
 70
     1
102
RTVSPost2010Prop54
  1
strokes_ogs.tif
102
RTVSPost2010PropOp54
 70
     1
102
RTVSPost2010Prop55
280
     0
102
RTVSPost2010PropOp55
 70
     1
102
RTVSPost2010Prop56
140
1.0
102
RTVSPost2010PropOp56
 70
     1
102
RTVSPost2010Prop57
140
1.0
102
RTVSPost2010PropOp57
 70
     1
102
RTVSPropertyOp0
 70
     1
102
RTVSPropertyOp1
 70
     1
102
RTVSPropertyOp2
 70
     1
102
RTVSPropertyOp3
 70
     1
102
RTVSPropertyOp4
 70
     1
102
RTVSPropertyOp5
 70
     1
102
RTVSPropertyOp6
 70
     1
102
RTVSPropertyOp7
 70
     1
102
RTVSPropertyOp8
 70
     1
102
RTVSPropertyOp9
 70
     1
102
RTVSPropertyOp10
 70
     1
102
RTVSPropertyOp11
 70
     1
102
RTVSPropertyOp12
 70
     1
102
RTVSPropertyOp13
 70
     1
102
RTVSPropertyOp14
 70
     1
102
RTVSPropertyOp15
 70
     1
102
RTVSPropertyOp16
 70
     1
102
RTVSPropertyOp17
 70
     1
102
RTVSPropertyOp18
 70
     1
102
RTVSPropertyOp19
 70
     1
102
RTVSPropertyOp20
 70
     1
102
RTVSPropertyOp21
 70
     1
102
RTVSPropertyOp22
 70
     1
102
RTVSPropertyOp23
 70
     1
102
RTVSPropertyOp24
 70
     1
102
RTVSPropertyOp25
 70
     1
102
RTVSPropertyOp26
 70
     1
102
RTVSPropertyOp27
 70
     1
102
RTVSPropertyOp28
 70
     1
102
RTVSPropertyOp29
 70
     1
102
RTVSPropertyOp30
 70
     1
102
RTVSPropertyOp31
 70
     1
102
RTVSPropertyOp32
 70
     1
102
RTVSPropertyOp33
 70
     1
102
RTVSPropertyOp34
 70
     1
102
RTVSPropertyOp35
 70
     1
102
RTVSPropertyOp36
 70
     1
102
RTVSPropertyOp37
 70
     1
102
RTVSPropertyOp38
 70
     1
102
RTVSPropertyOp39
 70
     1
102
RTVSPropertyOp40
 70
     1
102
RTVSPropertyOp41
 70
     1
102
RTVSPropertyOp42
 70
     1
102
RTVSPropertyOp43
 70
     1
102
RTVSPropertyOp44
 70
     1
102
RTVSPropertyOp45
 70
     1
102
RTVSPropertyOp46
 70
     1
102
RTVSPropertyOp47
 70
     1
102
RTVSPropertyOp48
 70
     1
102
RTVSPropertyOp49
 70
     1
102
RTVSPropertyOp50
 70
     1
102
RTVSPropertyOp51
 70
     0
102
RTVSPropertyOp52
 70
     0
102
RTVSPropertyOp53
 70
     1
102
RTVSPropertyOp54
 70
     1
102
RTVSPropertyOp55
 70
     1
102
RTVSPropertyOp56
 70
     1
102
RTVSPropertyOp57
 70
     1
102
RTVSPropertyOp58
 70
     1
102
RTVSPropertyOp59
 70
     1
102
RTVSPropertyOp60
 70
     1
102
RTVSPropertyOp61
 70
     1
102
RTVSPropertyOp62
 70
     1
  0
XRECORD
  5
371
102
{ACAD_REACTORS
330
370
102
}
330
370
100
AcDbXrecord
280
     1
102
RTVSPost2010Prop28
280
     0
102
RTVSPost2010PropOp28
 70
     1
102
RTVSPost2010Prop29
280
     1
102
RTVSPost2010PropOp29
 70
     1
102
RTVSPost2010Prop30
280
     1
102
RTVSPost2010PropOp30
 70
     1
102
RTVSPost2010Prop31
280
     0
102
RTVSPost2010PropOp31
 70
     1
102
RTVSPost2010Prop32
280
     0
102
RTVSPost2010PropOp32
 70
     1
102
RTVSPost2010Prop33
280
     0
102
RTVSPost2010PropOp33
 70
     1
102
RTVSPost2010Prop34
280
     0
102
RTVSPost2010PropOp34
 70
     1
102
RTVSPost2010Prop35
280
     0
102
RTVSPost2010PropOp35
 70
     1
102
RTVSPost2010Prop36
280
     0
102
RTVSPost2010PropOp36
 70
     1
102
RTVSPost2010Prop37
 90
       50
102
RTVSPost2010PropOp37
 70
     1
102
RTVSPost2010Prop38
140
0.0
102
RTVSPost2010PropOp38
 70
     1
102
RTVSPost2010Prop39
140
1.0
102
RTVSPost2010PropOp39
 70
     1
102
RTVSPost2010Prop40
 90
        0
102
RTVSPost2010PropOp40
 70
     1
102
RTVSPost2010Prop41ColorIndex
 90
       18
102
RTVSPost2010Prop41ColorRGB
 90
        0
102
RTVSPost2010PropOp41
 70
     1
102
RTVSPost2010Prop42
 90
       50
102
RTVSPost2010PropOp42
 70
     1
102
RTVSPost2010Prop43
 90
        3
102
RTVSPost2010PropOp43
 70
     1
102
RTVSPost2010Prop44ColorIndex
 90
        5
102
RTVSPost2010Prop44ColorRGB
 90
      255
102
RTVSPost2010PropOp44
 70
     1
102
RTVSPost2010Prop45
280
     0
102
RTVSPost2010PropOp45
 70
     1
102
RTVSPost2010Prop46
 90
       50
102
RTVSPost2010PropOp46
 70
     1
102
RTVSPost2010Prop47
 90
       50
102
RTVSPost2010PropOp47
 70
     1
102
RTVSPost2010Prop48
 90
       50
102
RTVSPost2010PropOp48
 70
     1
102
RTVSPost2010Prop49
280
     0
102
RTVSPost2010PropOp49
 70
     1
102
RTVSPost2010Prop50
 90
       50
102
RTVSPost2010PropOp50
 70
     1
102
RTVSPost2010Prop51ColorIndex
 90
      256
102
RTVSPost2010Prop51ColorRGB
 90
-16777216
102
RTVSPost2010PropOp51
 70
     0
102
RTVSPost2010Prop52
140
1.0
102
RTVSPost2010PropOp52
 70
     0
102
RTVSPost2010Prop53
 90
        2
102
RTVSPost2010PropOp53
 70
     1
102
RTVSPost2010Prop54
  1
strokes_ogs.tif
102
RTVSPost2010PropOp54
 70
     1
102
RTVSPost2010Prop55
280
     0
102
RTVSPost2010PropOp55
 70
     1
102
RTVSPost2010Prop56
140
1.0
102
RTVSPost2010PropOp56
 70
     1
102
RTVSPost2010Prop57
140
1.0
102
RTVSPost2010PropOp57
 70
     1
102
RTVSPropertyOp0
 70
     1
102
RTVSPropertyOp1
 70
     1
102
RTVSPropertyOp2
 70
     1
102
RTVSPropertyOp3
 70
     1
102
RTVSPropertyOp4
 70
     1
102
RTVSPropertyOp5
 70
     1
102
RTVSPropertyOp6
 70
     1
102
RTVSPropertyOp7
 70
     1
102
RTVSPropertyOp8
 70
     1
102
RTVSPropertyOp9
 70
     1
102
RTVSPropertyOp10
 70
     1
102
RTVSPropertyOp11
 70
     1
102
RTVSPropertyOp12
 70
     1
102
RTVSPropertyOp13
 70
     1
102
RTVSPropertyOp14
 70
     1
102
RTVSPropertyOp15
 70
     1
102
RTVSPropertyOp16
 70
     1
102
RTVSPropertyOp17
 70
     1
102
RTVSPropertyOp18
 70
     1
102
RTVSPropertyOp19
 70
     1
102
RTVSPropertyOp20
 70
     1
102
RTVSPropertyOp21
 70
     1
102
RTVSPropertyOp22
 70
     1
102
RTVSPropertyOp23
 70
     1
102
RTVSPropertyOp24
 70
     1
102
RTVSPropertyOp25
 70
     1
102
RTVSPropertyOp26
 70
     1
102
RTVSPropertyOp27
 70
     1
102
RTVSPropertyOp28
 70
     1
102
RTVSPropertyOp29
 70
     1
102
RTVSPropertyOp30
 70
     1
102
RTVSPropertyOp31
 70
     1
102
RTVSPropertyOp32
 70
     1
102
RTVSPropertyOp33
 70
     1
102
RTVSPropertyOp34
 70
     1
102
RTVSPropertyOp35
 70
     1
102
RTVSPropertyOp36
 70
     1
102
RTVSPropertyOp37
 70
     1
102
RTVSPropertyOp38
 70
     1
102
RTVSPropertyOp39
 70
     1
102
RTVSPropertyOp40
 70
     1
102
RTVSPropertyOp41
 70
     1
102
RTVSPropertyOp42
 70
     1
102
RTVSPropertyOp43
 70
     1
102
RTVSPropertyOp44
 70
     1
102
RTVSPropertyOp45
 70
     1
102
RTVSPropertyOp46
 70
     1
102
RTVSPropertyOp47
 70
     1
102
RTVSPropertyOp48
 70
     1
102
RTVSPropertyOp49
 70
     1
102
RTVSPropertyOp50
 70
     1
102
RTVSPropertyOp51
 70
     0
102
RTVSPropertyOp52
 70
     0
102
RTVSPropertyOp53
 70
     1
102
RTVSPropertyOp54
 70
     1
102
RTVSPropertyOp55
 70
     1
102
RTVSPropertyOp56
 70
     1
102
RTVSPropertyOp57
 70
     1
102
RTVSPropertyOp58
 70
     1
102
RTVSPropertyOp59
 70
     1
102
RTVSPropertyOp60
 70
     1
102
RTVSPropertyOp61
 70
     1
102
RTVSPropertyOp62
 70
     1
  0
XRECORD
  5
391
102
{ACAD_REACTORS
330
390
102
}
330
390
100
AcDbXrecord
280
     1
102
RTVSPost2010Prop28
280
     0
102
RTVSPost2010PropOp28
 70
     1
102
RTVSPost2010Prop29
280
     1
102
RTVSPost2010PropOp29
 70
     1
102
RTVSPost2010Prop30
280
     1
102
RTVSPost2010PropOp30
 70
     1
102
RTVSPost2010Prop31
280
     0
102
RTVSPost2010PropOp31
 70
     1
102
RTVSPost2010Prop32
280
     0
102
RTVSPost2010PropOp32
 70
     1
102
RTVSPost2010Prop33
280
     0
102
RTVSPost2010PropOp33
 70
     1
102
RTVSPost2010Prop34
280
     0
102
RTVSPost2010PropOp34
 70
     1
102
RTVSPost2010Prop35
280
     0
102
RTVSPost2010PropOp35
 70
     1
102
RTVSPost2010Prop36
280
     0
102
RTVSPost2010PropOp36
 70
     1
102
RTVSPost2010Prop37
 90
       50
102
RTVSPost2010PropOp37
 70
     1
102
RTVSPost2010Prop38
140
0.0
102
RTVSPost2010PropOp38
 70
     1
102
RTVSPost2010Prop39
140
1.0
102
RTVSPost2010PropOp39
 70
     1
102
RTVSPost2010Prop40
 90
        0
102
RTVSPost2010PropOp40
 70
     1
102
RTVSPost2010Prop41ColorIndex
 90
       18
102
RTVSPost2010Prop41ColorRGB
 90
        0
102
RTVSPost2010PropOp41
 70
     1
102
RTVSPost2010Prop42
 90
       50
102
RTVSPost2010PropOp42
 70
     1
102
RTVSPost2010Prop43
 90
        3
102
RTVSPost2010PropOp43
 70
     1
102
RTVSPost2010Prop44ColorIndex
 90
        5
102
RTVSPost2010Prop44ColorRGB
 90
      255
102
RTVSPost2010PropOp44
 70
     1
102
RTVSPost2010Prop45
280
     0
102
RTVSPost2010PropOp45
 70
     1
102
RTVSPost2010Prop46
 90
       50
102
RTVSPost2010PropOp46
 70
     1
102
RTVSPost2010Prop47
 90
       50
102
RTVSPost2010PropOp47
 70
     1
102
RTVSPost2010Prop48
 90
       50
102
RTVSPost2010PropOp48
 70
     1
102
RTVSPost2010Prop49
280
     0
102
RTVSPost2010PropOp49
 70
     1
102
RTVSPost2010Prop50
 90
       50
102
RTVSPost2010PropOp50
 70
     1
102
RTVSPost2010Prop51ColorIndex
 90
      256
102
RTVSPost2010Prop51ColorRGB
 90
-16777216
102
RTVSPost2010PropOp51
 70
     0
102
RTVSPost2010Prop52
140
1.0
102
RTVSPost2010PropOp52
 70
     0
102
RTVSPost2010Prop53
 90
        2
102
RTVSPost2010PropOp53
 70
     1
102
RTVSPost2010Prop54
  1
strokes_ogs.tif
102
RTVSPost2010PropOp54
 70
     1
102
RTVSPost2010Prop55
280
     0
102
RTVSPost2010PropOp55
 70
     1
102
RTVSPost2010Prop56
140
1.0
102
RTVSPost2010PropOp56
 70
     1
102
RTVSPost2010Prop57
140
1.0
102
RTVSPost2010PropOp57
 70
     1
102
RTVSPropertyOp0
 70
     1
102
RTVSPropertyOp1
 70
     1
102
RTVSPropertyOp2
 70
     1
102
RTVSPropertyOp3
 70
     1
102
RTVSPropertyOp4
 70
     1
102
RTVSPropertyOp5
 70
     1
102
RTVSPropertyOp6
 70
     1
102
RTVSPropertyOp7
 70
     1
102
RTVSPropertyOp8
 70
     1
102
RTVSPropertyOp9
 70
     1
102
RTVSPropertyOp10
 70
     1
102
RTVSPropertyOp11
 70
     1
102
RTVSPropertyOp12
 70
     1
102
RTVSPropertyOp13
 70
     1
102
RTVSPropertyOp14
 70
     1
102
RTVSPropertyOp15
 70
     1
102
RTVSPropertyOp16
 70
     1
102
RTVSPropertyOp17
 70
     1
102
RTVSPropertyOp18
 70
     1
102
RTVSPropertyOp19
 70
     1
102
RTVSPropertyOp20
 70
     1
102
RTVSPropertyOp21
 70
     1
102
RTVSPropertyOp22
 70
     1
102
RTVSPropertyOp23
 70
     1
102
RTVSPropertyOp24
 70
     1
102
RTVSPropertyOp25
 70
     1
102
RTVSPropertyOp26
 70
     1
102
RTVSPropertyOp27
 70
     1
102
RTVSPropertyOp28
 70
     1
102
RTVSPropertyOp29
 70
     1
102
RTVSPropertyOp30
 70
     1
102
RTVSPropertyOp31
 70
     1
102
RTVSPropertyOp32
 70
     1
102
RTVSPropertyOp33
 70
     1
102
RTVSPropertyOp34
 70
     1
102
RTVSPropertyOp35
 70
     1
102
RTVSPropertyOp36
 70
     1
102
RTVSPropertyOp37
 70
     1
102
RTVSPropertyOp38
 70
     1
102
RTVSPropertyOp39
 70
     1
102
RTVSPropertyOp40
 70
     1
102
RTVSPropertyOp41
 70
     1
102
RTVSPropertyOp42
 70
     1
102
RTVSPropertyOp43
 70
     1
102
RTVSPropertyOp44
 70
     1
102
RTVSPropertyOp45
 70
     1
102
RTVSPropertyOp46
 70
     1
102
RTVSPropertyOp47
 70
     1
102
RTVSPropertyOp48
 70
     1
102
RTVSPropertyOp49
 70
     1
102
RTVSPropertyOp50
 70
     1
102
RTVSPropertyOp51
 70
     0
102
RTVSPropertyOp52
 70
     0
102
RTVSPropertyOp53
 70
     1
102
RTVSPropertyOp54
 70
     1
102
RTVSPropertyOp55
 70
     1
102
RTVSPropertyOp56
 70
     1
102
RTVSPropertyOp57
 70
     1
102
RTVSPropertyOp58
 70
     1
102
RTVSPropertyOp59
 70
     1
102
RTVSPropertyOp60
 70
     1
102
RTVSPropertyOp61
 70
     1
102
RTVSPropertyOp62
 70
     1
  0
ENDSEC
  0
EOF
