  0
SECTION
  2
HEADER
  9
$ACADVER
  1
AC1018
  9
$ACADMAINTVER
 70
   104
  9
$DWGCODEPAGE
  3
ANSI_1250
  9
$LASTSAVEDBY
  1
wq7085
  9
$INSBASE
 10
0.0
 20
0.0
 30
0.0
  9
$EXTMIN
 10
187.2502013333333
 20
249.8068116666666
 30
0.0
  9
$EXTMAX
 10
418.887885
 20
341.6963336666667
 30
0.0
  9
$LIMMIN
 10
-0.5
 20
-0.5
  9
$LIMMAX
 10
5.0
 20
5.0
  9
$ORTHOMODE
 70
     0
  9
$REGENMODE
 70
     1
  9
$FILLMODE
 70
     1
  9
$QTEXTMODE
 70
     0
  9
$MIRRTEXT
 70
     1
  9
$LTSCALE
 40
1.0
  9
$ATTMODE
 70
     1
  9
$TEXTSIZE
 40
0.2
  9
$TRACEWID
 40
0.05
  9
$TEXTSTYLE
  7
Standard
  9
$CLAYER
  8
0
  9
$CELTYPE
  6
ByLayer
  9
$CECOLOR
 62
   256
  9
$CELTSCALE
 40
1.0
  9
$DISPSILH
 70
     0
  9
$DIMSCALE
 40
1.0
  9
$DIMASZ
 40
0.18
  9
$DIMEXO
 40
0.0625
  9
$DIMDLI
 40
0.38
  9
$DIMRND
 40
0.0
  9
$DIMDLE
 40
0.0
  9
$DIMEXE
 40
0.18
  9
$DIMTP
 40
0.0
  9
$DIMTM
 40
0.0
  9
$DIMTXT
 40
0.18
  9
$DIMCEN
 40
0.09
  9
$DIMTSZ
 40
0.0
  9
$DIMTOL
 70
     0
  9
$DIMLIM
 70
     0
  9
$DIMTIH
 70
     1
  9
$DIMTOH
 70
     1
  9
$DIMSE1
 70
     0
  9
$DIMSE2
 70
     0
  9
$DIMTAD
 70
     0
  9
$DIMZIN
 70
     0
  9
$DIMBLK
  1

  9
$DIMASO
 70
     1
  9
$DIMSHO
 70
     1
  9
$DIMPOST
  1

  9
$DIMAPOST
  1

  9
$DIMALT
 70
     0
  9
$DIMALTD
 70
     2
  9
$DIMALTF
 40
25.4
  9
$DIMLFAC
 40
1.0
  9
$DIMTOFL
 70
     0
  9
$DIMTVP
 40
0.0
  9
$DIMTIX
 70
     0
  9
$DIMSOXD
 70
     0
  9
$DIMSAH
 70
     0
  9
$DIMBLK1
  1

  9
$DIMBLK2
  1

  9
$DIMSTYLE
  2
Standard
  9
$DIMCLRD
 70
     0
  9
$DIMCLRE
 70
     0
  9
$DIMCLRT
 70
     0
  9
$DIMTFAC
 40
1.0
  9
$DIMGAP
 40
0.09
  9
$DIMJUST
 70
     0
  9
$DIMSD1
 70
     0
  9
$DIMSD2
 70
     0
  9
$DIMTOLJ
 70
     1
  9
$DIMTZIN
 70
     0
  9
$DIMALTZ
 70
     0
  9
$DIMALTTZ
 70
     0
  9
$DIMUPT
 70
     0
  9
$DIMDEC
 70
     4
  9
$DIMTDEC
 70
     4
  9
$DIMALTU
 70
     2
  9
$DIMALTTD
 70
     2
  9
$DIMTXSTY
  7
Standard
  9
$DIMAUNIT
 70
     0
  9
$DIMADEC
 70
     0
  9
$DIMALTRND
 40
0.0
  9
$DIMAZIN
 70
     0
  9
$DIMDSEP
 70
    46
  9
$DIMATFIT
 70
     3
  9
$DIMFRAC
 70
     0
  9
$DIMLDRBLK
  1

  9
$DIMLUNIT
 70
     2
  9
$DIMLWD
 70
    -2
  9
$DIMLWE
 70
    -2
  9
$DIMTMOVE
 70
     0
  9
$LUNITS
 70
     2
  9
$LUPREC
 70
     4
  9
$SKETCHINC
 40
0.1
  9
$FILLETRAD
 40
0.5
  9
$AUNITS
 70
     0
  9
$AUPREC
 70
     0
  9
$MENU
  1
.
  9
$ELEVATION
 40
0.0
  9
$PELEVATION
 40
0.0
  9
$THICKNESS
 40
0.0
  9
$LIMCHECK
 70
     0
  9
$CHAMFERA
 40
0.0
  9
$CHAMFERB
 40
0.0
  9
$CHAMFERC
 40
0.0
  9
$CHAMFERD
 40
0.0
  9
$SKPOLY
 70
     0
  9
$TDCREATE
 40
2459088.539016204
  9
$TDUCREATE
 40
2459088.455686354
  9
$TDUPDATE
 40
2459088.540416667
  9
$TDUUPDATE
 40
2459088.457083333
  9
$TDINDWG
 40
0.0004051042
  9
$TDUSRTIMER
 40
0.0004051042
  9
$USRTIMER
 70
     1
  9
$ANGBASE
 50
0.0
  9
$ANGDIR
 70
     0
  9
$PDMODE
 70
     0
  9
$PDSIZE
 40
0.0
  9
$PLINEWID
 40
0.0
  9
$SPLFRAME
 70
     0
  9
$SPLINETYPE
 70
     6
  9
$SPLINESEGS
 70
     8
  9
$HANDSEED
  5
399
  9
$SURFTAB1
 70
     6
  9
$SURFTAB2
 70
     6
  9
$SURFTYPE
 70
     6
  9
$SURFU
 70
     6
  9
$SURFV
 70
     6
  9
$UCSBASE
  2

  9
$UCSNAME
  2

  9
$UCSORG
 10
274.404842
 20
288.907994
 30
0.0
  9
$UCSXDIR
 10
1.0
 20
0.0
 30
0.0
  9
$UCSYDIR
 10
0.0
 20
1.0
 30
0.0
  9
$UCSORTHOREF
  2

  9
$UCSORTHOVIEW
 70
     0
  9
$UCSORGTOP
 10
0.0
 20
0.0
 30
0.0
  9
$UCSORGBOTTOM
 10
0.0
 20
0.0
 30
0.0
  9
$UCSORGLEFT
 10
0.0
 20
0.0
 30
0.0
  9
$UCSORGRIGHT
 10
0.0
 20
0.0
 30
0.0
  9
$UCSORGFRONT
 10
0.0
 20
0.0
 30
0.0
  9
$UCSORGBACK
 10
0.0
 20
0.0
 30
0.0
  9
$PUCSBASE
  2

  9
$PUCSNAME
  2

  9
$PUCSORG
 10
0.0
 20
0.0
 30
0.0
  9
$PUCSXDIR
 10
1.0
 20
0.0
 30
0.0
  9
$PUCSYDIR
 10
0.0
 20
1.0
 30
0.0
  9
$PUCSORTHOREF
  2

  9
$PUCSORTHOVIEW
 70
     0
  9
$PUCSORGTOP
 10
0.0
 20
0.0
 30
0.0
  9
$PUCSORGBOTTOM
 10
0.0
 20
0.0
 30
0.0
  9
$PUCSORGLEFT
 10
0.0
 20
0.0
 30
0.0
  9
$PUCSORGRIGHT
 10
0.0
 20
0.0
 30
0.0
  9
$PUCSORGFRONT
 10
0.0
 20
0.0
 30
0.0
  9
$PUCSORGBACK
 10
0.0
 20
0.0
 30
0.0
  9
$USERI1
 70
     0
  9
$USERI2
 70
     0
  9
$USERI3
 70
     0
  9
$USERI4
 70
     0
  9
$USERI5
 70
     0
  9
$USERR1
 40
0.0
  9
$USERR2
 40
0.0
  9
$USERR3
 40
0.0
  9
$USERR4
 40
0.0
  9
$USERR5
 40
0.0
  9
$WORLDVIEW
 70
     1
  9
$SHADEDGE
 70
     3
  9
$SHADEDIF
 70
    70
  9
$TILEMODE
 70
     1
  9
$MAXACTVP
 70
    64
  9
$PINSBASE
 10
0.0
 20
0.0
 30
0.0
  9
$PLIMCHECK
 70
     0
  9
$PEXTMIN
 10
-0.5
 20
-0.5
 30
-0.5
  9
$PEXTMAX
 10
5.0
 20
5.0
 30
5.0
  9
$PLIMMIN
 10
-0.5
 20
-0.5
  9
$PLIMMAX
 10
5.0
 20
5.0
  9
$UNITMODE
 70
     0
  9
$VISRETAIN
 70
     1
  9
$PLINEGEN
 70
     0
  9
$PSLTSCALE
 70
     1
  9
$TREEDEPTH
 70
  3020
  9
$CMLSTYLE
  2
Standard
  9
$CMLJUST
 70
     0
  9
$CMLSCALE
 40
1.0
  9
$PROXYGRAPHICS
 70
     1
  9
$MEASUREMENT
 70
     1
  9
$CELWEIGHT
370
    13
  9
$ENDCAPS
280
     0
  9
$JOINSTYLE
280
     0
  9
$LWDISPLAY
290
     0
  9
$INSUNITS
 70
     4
  9
$HYPERLINKBASE
  1

  9
$STYLESHEET
  1

  9
$XEDIT
290
     1
  9
$CEPSNTYPE
380
     0
  9
$PSTYLEMODE
290
     1
  9
$FINGERPRINTGUID
  2
{9F28F7C4-ACEA-4E52-AD90-53DFCD4493D7}
  9
$VERSIONGUID
  2
{FD9A85FF-35A3-8548-A43C-6088556D3145}
  9
$EXTNAMES
290
     1
  9
$PSVPSCALE
 40
0.0
  9
$OLESTARTUP
290
     0
  9
$SORTENTS
280
   127
  9
$INDEXCTL
280
     0
  9
$HIDETEXT
280
     1
  9
$XCLIPFRAME
290
     0
  9
$HALOGAP
280
     0
  9
$OBSCOLOR
 70
   257
  9
$OBSLTYPE
280
     0
  9
$INTERSECTIONDISPLAY
280
     0
  9
$INTERSECTIONCOLOR
 70
   257
  9
$DIMASSOC
280
     2
  9
$PROJECTNAME
  1

  0
ENDSEC
  0
SECTION
  2
CLASSES
  0
CLASS
  1
ACDBDICTIONARYWDFLT
  2
AcDbDictionaryWithDefault
  3
ObjectDBX Classes
 90
        0
 91
        1
280
     0
281
     0
  0
CLASS
  1
VISUALSTYLE
  2
AcDbVisualStyle
  3
ObjectDBX Classes
 90
     4095
 91
       24
280
     0
281
     0
  0
CLASS
  1
MATERIAL
  2
AcDbMaterial
  3
ObjectDBX Classes
 90
     1153
 91
        3
280
     0
281
     0
  0
CLASS
  1
SCALE
  2
AcDbScale
  3
ObjectDBX Classes
 90
     1153
 91
       33
280
     0
281
     0
  0
CLASS
  1
TABLESTYLE
  2
AcDbTableStyle
  3
ObjectDBX Classes
 90
     4095
 91
        1
280
     0
281
     0
  0
CLASS
  1
MLEADERSTYLE
  2
AcDbMLeaderStyle
  3
ACDB_MLEADERSTYLE_CLASS
 90
     4095
 91
        1
280
     0
281
     0
  0
CLASS
  1
SUN
  2
AcDbSun
  3
SCENEOE
 90
     1153
 91
        0
280
     0
281
     0
  0
CLASS
  1
DIMASSOC
  2
AcDbDimAssoc
  3
"AcDbDimAssoc|Product Desc:     AcDim ARX App For Dimension|Company:          Autodesk, Inc.|WEB Address:      www.autodesk.com"
 90
        0
 91
        7
280
     0
281
     0
  0
CLASS
  1
DICTIONARYVAR
  2
AcDbDictionaryVar
  3
ObjectDBX Classes
 90
        0
 91
        8
280
     0
281
     0
  0
CLASS
  1
CELLSTYLEMAP
  2
AcDbCellStyleMap
  3
ObjectDBX Classes
 90
     1152
 91
        2
280
     0
281
     0
  0
CLASS
  1
ACDBSECTIONVIEWSTYLE
  2
AcDbSectionViewStyle
  3
ObjectDBX Classes
 90
     1025
 91
        1
280
     0
281
     0
  0
CLASS
  1
ACDBDETAILVIEWSTYLE
  2
AcDbDetailViewStyle
  3
ObjectDBX Classes
 90
     1025
 91
        1
280
     0
281
     0
  0
CLASS
  1
SORTENTSTABLE
  2
AcDbSortentsTable
  3
ObjectDBX Classes
 90
        0
 91
        1
280
     0
281
     0
  0
ENDSEC
  0
SECTION
  2
TABLES
  0
TABLE
  2
VPORT
  5
8
330
0
100
AcDbSymbolTable
 70
    16
  0
VPORT
  5
29
330
8
100
AcDbSymbolTableRecord
100
AcDbViewportTableRecord
  2
*Active
 70
     0
 10
0.0
 20
0.0
 11
1.0
 21
1.0
 12
277.06188012748
 22
280.5501885848973
 13
0.0
 23
0.0
 14
0.5
 24
0.5
 15
0.5
 25
0.5
 16
0.0
 26
0.0
 36
1.0
 17
0.0
 27
0.0
 37
0.0
 40
219.940577027708
 41
2.292712066905615
 42
50.0
 43
432.3998759999999
 44
-432.3998759999999
 50
0.0
 51
0.0
 71
     0
 72
   100
 73
     1
 74
     3
 75
     0
 76
     0
 77
     0
 78
     0
281
     0
 65
     1
110
274.404842
120
288.907994
130
0.0
111
1.0
121
0.0
131
0.0
112
0.0
122
1.0
132
0.0
 79
     0
146
0.0
1001
ACAD_NAV_VCDISPLAY
1070
     3
  0
VPORT
  5
29D
330
8
100
AcDbSymbolTableRecord
100
AcDbViewportTableRecord
  2
L1
 70
     0
 10
0.0
 20
0.0
 11
1.0
 21
1.0
 12
302.564835
 22
230.041653
 13
0.0
 23
0.0
 14
0.5
 24
0.5
 15
0.5
 25
0.5
 16
0.0
 26
0.0
 36
1.0
 17
0.0
 27
0.0
 37
0.0
 40
207.433333
 41
0.085602
 42
50.0
 43
432.3998759999999
 44
-432.3998759999999
 50
0.0
 51
0.0
 71
     0
 72
   100
 73
     1
 74
     3
 75
     0
 76
     0
 77
     0
 78
     0
281
     0
 65
     1
110
0.0
120
0.0
130
0.0
111
1.0
121
0.0
131
0.0
112
0.0
122
1.0
132
0.0
 79
     0
146
0.0
  0
VPORT
  5
29E
330
8
100
AcDbSymbolTableRecord
100
AcDbViewportTableRecord
  2
L2
 70
     0
 10
0.0
 20
0.0
 11
0.5
 21
1.0
 12
0.0
 22
0.0
 13
0.0
 23
0.0
 14
0.5
 24
0.5
 15
0.5
 25
0.5
 16
0.0
 26
-1.0
 36
0.0
 17
0.0
 27
0.0
 37
0.0
 40
1316.18997
 41
0.013491
 42
50.0
 43
678.00864
 44
-678.00864
 50
0.0
 51
0.0
 71
     0
 72
   100
 73
     1
 74
     3
 75
     0
 76
     0
 77
     0
 78
     0
281
     0
 65
     1
110
0.0
120
0.0
130
0.0
111
1.0
121
0.0
131
0.0
112
0.0
122
1.0
132
0.0
 79
     0
146
0.0
  0
VPORT
  5
29F
330
8
100
AcDbSymbolTableRecord
100
AcDbViewportTableRecord
  2
L2
 70
     0
 10
0.5
 20
0.0
 11
1.0
 21
1.0
 12
0.0
 22
0.0
 13
0.0
 23
0.0
 14
0.5
 24
0.5
 15
0.5
 25
0.5
 16
1.0
 26
0.0
 36
0.0
 17
0.0
 27
0.0
 37
0.0
 40
1316.18997
 41
0.013491
 42
50.0
 43
666.2177989999999
 44
-666.2177989999999
 50
0.0
 51
0.0
 71
     0
 72
   100
 73
     1
 74
     3
 75
     0
 76
     0
 77
     0
 78
     0
281
     0
 65
     1
110
0.0
120
0.0
130
0.0
111
1.0
121
0.0
131
0.0
112
0.0
122
1.0
132
0.0
 79
     0
146
0.0
  0
VPORT
  5
2A0
330
8
100
AcDbSymbolTableRecord
100
AcDbViewportTableRecord
  2
L3
 70
     0
 10
0.0
 20
0.5
 11
1.0
 21
1.0
 12
302.564835
 22
230.041653
 13
0.0
 23
0.0
 14
0.5
 24
0.5
 15
0.5
 25
0.5
 16
0.0
 26
0.0
 36
1.0
 17
0.0
 27
0.0
 37
0.0
 40
207.433333
 41
0.085602
 42
50.0
 43
432.3998759999999
 44
-432.3998759999999
 50
0.0
 51
0.0
 71
     0
 72
   100
 73
     1
 74
     3
 75
     0
 76
     0
 77
     0
 78
     0
281
     0
 65
     1
110
0.0
120
0.0
130
0.0
111
1.0
121
0.0
131
0.0
112
0.0
122
1.0
132
0.0
 79
     0
146
0.0
  0
VPORT
  5
2A1
330
8
100
AcDbSymbolTableRecord
100
AcDbViewportTableRecord
  2
L3
 70
     0
 10
0.0
 20
0.0
 11
1.0
 21
0.5
 12
0.0
 22
0.0
 13
0.0
 23
0.0
 14
0.5
 24
0.5
 15
0.5
 25
0.5
 16
0.0
 26
-1.0
 36
0.0
 17
0.0
 27
0.0
 37
0.0
 40
1316.18997
 41
0.013491
 42
50.0
 43
678.00864
 44
-678.00864
 50
0.0
 51
0.0
 71
     0
 72
   100
 73
     1
 74
     3
 75
     0
 76
     0
 77
     0
 78
     0
281
     0
 65
     1
110
0.0
120
0.0
130
0.0
111
1.0
121
0.0
131
0.0
112
0.0
122
1.0
132
0.0
 79
     0
146
0.0
  0
VPORT
  5
2A2
330
8
100
AcDbSymbolTableRecord
100
AcDbViewportTableRecord
  2
L4
 70
     0
 10
0.0
 20
0.5
 11
0.5
 21
1.0
 12
302.564835
 22
230.041653
 13
0.0
 23
0.0
 14
0.5
 24
0.5
 15
0.5
 25
0.5
 16
0.0
 26
0.0
 36
1.0
 17
0.0
 27
0.0
 37
0.0
 40
207.433333
 41
0.085602
 42
50.0
 43
432.3998759999999
 44
-432.3998759999999
 50
0.0
 51
0.0
 71
     0
 72
   100
 73
     1
 74
     3
 75
     0
 76
     0
 77
     0
 78
     0
281
     0
 65
     1
110
0.0
120
0.0
130
0.0
111
1.0
121
0.0
131
0.0
112
0.0
122
1.0
132
0.0
 79
     0
146
0.0
  0
VPORT
  5
2A3
330
8
100
AcDbSymbolTableRecord
100
AcDbViewportTableRecord
  2
L4
 70
     0
 10
0.0
 20
0.0
 11
0.5
 21
0.5
 12
0.0
 22
0.0
 13
0.0
 23
0.0
 14
0.5
 24
0.5
 15
0.5
 25
0.5
 16
0.0
 26
-1.0
 36
0.0
 17
0.0
 27
0.0
 37
0.0
 40
1316.18997
 41
0.013491
 42
50.0
 43
678.00864
 44
-678.00864
 50
0.0
 51
0.0
 71
     0
 72
   100
 73
     1
 74
     3
 75
     0
 76
     0
 77
     0
 78
     0
281
     0
 65
     1
110
0.0
120
0.0
130
0.0
111
1.0
121
0.0
131
0.0
112
0.0
122
1.0
132
0.0
 79
     0
146
0.0
  0
VPORT
  5
2A4
330
8
100
AcDbSymbolTableRecord
100
AcDbViewportTableRecord
  2
L4
 70
     0
 10
0.5
 20
0.0
 11
1.0
 21
0.5
 12
0.0
 22
0.0
 13
0.0
 23
0.0
 14
0.5
 24
0.5
 15
0.5
 25
0.5
 16
1.0
 26
0.0
 36
0.0
 17
0.0
 27
0.0
 37
0.0
 40
1316.18997
 41
0.013491
 42
50.0
 43
666.2177989999999
 44
-666.2177989999999
 50
0.0
 51
0.0
 71
     0
 72
   100
 73
     1
 74
     3
 75
     0
 76
     0
 77
     0
 78
     0
281
     0
 65
     1
110
0.0
120
0.0
130
0.0
111
1.0
121
0.0
131
0.0
112
0.0
122
1.0
132
0.0
 79
     0
146
0.0
  0
VPORT
  5
2A5
330
8
100
AcDbSymbolTableRecord
100
AcDbViewportTableRecord
  2
L4
 70
     0
 10
0.5
 20
0.5
 11
1.0
 21
1.0
 12
0.0
 22
0.0
 13
0.0
 23
0.0
 14
0.5
 24
0.5
 15
0.5
 25
0.5
 16
0.5773502691896259
 26
-0.5773502691896259
 36
0.5773502691896259
 17
0.0
 27
0.0
 37
0.0
 40
1292.532264
 41
0.013738
 42
50.0
 43
673.245608
 44
-673.245608
 50
0.0
 51
0.0
 71
     0
 72
   100
 73
     1
 74
     3
 75
     0
 76
     0
 77
     0
 78
     0
281
     0
 65
     1
110
0.0
120
0.0
130
0.0
111
1.0
121
0.0
131
0.0
112
0.0
122
1.0
132
0.0
 79
     0
146
0.0
  0
VPORT
  5
2A6
330
8
100
AcDbSymbolTableRecord
100
AcDbViewportTableRecord
  2
L6
 70
     0
 10
0.0
 20
0.5
 11
0.333333
 21
1.0
 12
0.0
 22
0.0
 13
0.0
 23
0.0
 14
0.5
 24
0.5
 15
0.5
 25
0.5
 16
0.7188730927569434
 26
-0.5850486126764433
 36
0.3754192287502549
 17
0.0
 27
0.0
 37
0.0
 40
1364.064247
 41
0.013018
 42
50.0
 43
706.2613849999999
 44
-706.2613849999999
 50
0.0
 51
0.0
 71
     0
 72
   100
 73
     1
 74
     3
 75
     0
 76
     0
 77
     0
 78
     0
281
     0
 65
     1
110
0.0
120
0.0
130
0.0
111
1.0
121
0.0
131
0.0
112
0.0
122
1.0
132
0.0
 79
     0
146
0.0
  0
VPORT
  5
2A7
330
8
100
AcDbSymbolTableRecord
100
AcDbViewportTableRecord
  2
L6
 70
     0
 10
0.0
 20
0.0
 11
0.333333
 21
0.5
 12
0.0
 22
0.0
 13
0.0
 23
0.0
 14
0.5
 24
0.5
 15
0.5
 25
0.5
 16
-1.0
 26
0.0
 36
0.0
 17
0.0
 27
0.0
 37
0.0
 40
1316.18997
 41
0.013491
 42
50.0
 43
666.2177989999999
 44
-666.2177989999999
 50
0.0
 51
0.0
 71
     0
 72
   100
 73
     1
 74
     3
 75
     0
 76
     0
 77
     0
 78
     0
281
     0
 65
     1
110
0.0
120
0.0
130
0.0
111
1.0
121
0.0
131
0.0
112
0.0
122
1.0
132
0.0
 79
     0
146
0.0
  0
VPORT
  5
2A8
330
8
100
AcDbSymbolTableRecord
100
AcDbViewportTableRecord
  2
L6
 70
     0
 10
0.333333
 20
0.5
 11
0.666667
 21
1.0
 12
302.564835
 22
230.041653
 13
0.0
 23
0.0
 14
0.5
 24
0.5
 15
0.5
 25
0.5
 16
0.0
 26
0.0
 36
1.0
 17
0.0
 27
0.0
 37
0.0
 40
207.433333
 41
0.085602
 42
50.0
 43
432.3998759999999
 44
-432.3998759999999
 50
0.0
 51
0.0
 71
     0
 72
   100
 73
     1
 74
     3
 75
     0
 76
     0
 77
     0
 78
     0
281
     0
 65
     1
110
0.0
120
0.0
130
0.0
111
1.0
121
0.0
131
0.0
112
0.0
122
1.0
132
0.0
 79
     0
146
0.0
  0
VPORT
  5
2A9
330
8
100
AcDbSymbolTableRecord
100
AcDbViewportTableRecord
  2
L6
 70
     0
 10
0.333333
 20
0.0
 11
0.666667
 21
0.5
 12
0.0
 22
0.0
 13
0.0
 23
0.0
 14
0.5
 24
0.5
 15
0.5
 25
0.5
 16
0.0
 26
-1.0
 36
0.0
 17
0.0
 27
0.0
 37
0.0
 40
1316.18997
 41
0.013491
 42
50.0
 43
678.00864
 44
-678.00864
 50
0.0
 51
0.0
 71
     0
 72
   100
 73
     1
 74
     3
 75
     0
 76
     0
 77
     0
 78
     0
281
     0
 65
     1
110
0.0
120
0.0
130
0.0
111
1.0
121
0.0
131
0.0
112
0.0
122
1.0
132
0.0
 79
     0
146
0.0
  0
VPORT
  5
2AA
330
8
100
AcDbSymbolTableRecord
100
AcDbViewportTableRecord
  2
L6
 70
     0
 10
0.666667
 20
0.5
 11
1.0
 21
1.0
 12
0.0
 22
0.0
 13
0.0
 23
0.0
 14
0.5
 24
0.5
 15
0.5
 25
0.5
 16
0.5773502691896259
 26
-0.5773502691896259
 36
0.5773502691896259
 17
0.0
 27
0.0
 37
0.0
 40
1292.532264
 41
0.013738
 42
50.0
 43
673.245608
 44
-673.245608
 50
0.0
 51
0.0
 71
     0
 72
   100
 73
     1
 74
     3
 75
     0
 76
     0
 77
     0
 78
     0
281
     0
 65
     1
110
0.0
120
0.0
130
0.0
111
1.0
121
0.0
131
0.0
112
0.0
122
1.0
132
0.0
 79
     0
146
0.0
  0
VPORT
  5
2AB
330
8
100
AcDbSymbolTableRecord
100
AcDbViewportTableRecord
  2
L6
 70
     0
 10
0.666667
 20
0.0
 11
1.0
 21
0.5
 12
0.0
 22
0.0
 13
0.0
 23
0.0
 14
0.5
 24
0.5
 15
0.5
 25
0.5
 16
1.0
 26
0.0
 36
0.0
 17
0.0
 27
0.0
 37
0.0
 40
1316.18997
 41
0.013491
 42
50.0
 43
666.2177989999999
 44
-666.2177989999999
 50
0.0
 51
0.0
 71
     0
 72
   100
 73
     1
 74
     3
 75
     0
 76
     0
 77
     0
 78
     0
281
     0
 65
     1
110
0.0
120
0.0
130
0.0
111
1.0
121
0.0
131
0.0
112
0.0
122
1.0
132
0.0
 79
     0
146
0.0
  0
ENDTAB
  0
TABLE
  2
LTYPE
  5
5
330
0
100
AcDbSymbolTable
 70
     7
  0
LTYPE
  5
14
330
5
100
AcDbSymbolTableRecord
100
AcDbLinetypeTableRecord
  2
ByBlock
 70
     0
  3

 72
    65
 73
     0
 40
0.0
  0
LTYPE
  5
15
330
5
100
AcDbSymbolTableRecord
100
AcDbLinetypeTableRecord
  2
ByLayer
 70
     0
  3

 72
    65
 73
     0
 40
0.0
  0
LTYPE
  5
16
330
5
100
AcDbSymbolTableRecord
100
AcDbLinetypeTableRecord
  2
Continuous
 70
     0
  3
Solid line
 72
    65
 73
     0
 40
0.0
  0
LTYPE
  5
6E
330
5
100
AcDbSymbolTableRecord
100
AcDbLinetypeTableRecord
  2
CENTER
 70
     0
  3
____ _ ____ _ ____ _ ____
 72
    65
 73
     4
 40
47.4
 49
22.0
 74
     4
 75
     0
340
0
 46
0.0
 50
0.0
 44
0.0
 45
0.0
 49
-8.5
 74
     4
 75
     0
340
0
 46
0.0
 50
0.0
 44
0.0
 45
0.0
 49
8.5
 74
     4
 75
     0
340
0
 46
0.0
 50
0.0
 44
0.0
 45
0.0
 49
-8.5
 74
     4
 75
     0
340
0
 46
0.0
 50
0.0
 44
0.0
 45
0.0
  0
LTYPE
  5
6F
330
5
100
AcDbSymbolTableRecord
100
AcDbLinetypeTableRecord
  2
DASHDOT
 70
     0
  3
_._._._._._._._._._._._._._._._.
 72
    65
 73
     4
 40
70.0
 49
31.0
 74
     4
 75
     0
340
0
 46
0.0
 50
0.0
 44
0.0
 45
0.0
 49
-13.0
 74
     4
 75
     0
340
0
 46
0.0
 50
0.0
 44
0.0
 45
0.0
 49
13.0
 74
     4
 75
     0
340
0
 46
0.0
 50
0.0
 44
0.0
 45
0.0
 49
-13.0
 74
     4
 75
     0
340
0
 46
0.0
 50
0.0
 44
0.0
 45
0.0
  0
LTYPE
  5
70
330
5
100
AcDbSymbolTableRecord
100
AcDbLinetypeTableRecord
  2
DASHED
 70
     0
  3
__ __ __ __ __ __ __ __ __
 72
    65
 73
     2
 40
25.72
 49
12.86
 74
     4
 75
     0
340
0
 46
0.0
 50
0.0
 44
0.0
 45
0.0
 49
-12.86
 74
     4
 75
     0
340
0
 46
0.0
 50
0.0
 44
0.0
 45
0.0
  0
LTYPE
  5
71
330
5
100
AcDbSymbolTableRecord
100
AcDbLinetypeTableRecord
  2
DOT
 70
     0
  3
.........................
 72
    65
 73
     2
 40
10.0
 49
0.0
 74
     4
 75
     0
340
0
 46
0.0
 50
0.0
 44
0.0
 45
0.0
 49
-10.0
 74
     4
 75
     0
340
0
 46
0.0
 50
0.0
 44
0.0
 45
0.0
  0
LTYPE
  5
72
330
5
100
AcDbSymbolTableRecord
100
AcDbLinetypeTableRecord
  2
PHANTOM
 70
     0
  3
____ _ _ ____ _ _ _____ _ _ ____
 72
    65
 73
     6
 40
50.5
 49
18.0
 74
     4
 75
     0
340
0
 46
0.0
 50
0.0
 44
0.0
 45
0.0
 49
-6.5
 74
     4
 75
     0
340
0
 46
0.0
 50
0.0
 44
0.0
 45
0.0
 49
6.5
 74
     4
 75
     0
340
0
 46
0.0
 50
0.0
 44
0.0
 45
0.0
 49
-6.5
 74
     4
 75
     0
340
0
 46
0.0
 50
0.0
 44
0.0
 45
0.0
 49
6.5
 74
     4
 75
     0
340
0
 46
0.0
 50
0.0
 44
0.0
 45
0.0
 49
-6.5
 74
     4
 75
     0
340
0
 46
0.0
 50
0.0
 44
0.0
 45
0.0
  0
LTYPE
  5
33B
330
5
100
AcDbSymbolTableRecord
100
AcDbLinetypeTableRecord
  2
CENTER2
 70
     0
  3
Center (.5x) ___ _ ___ _ ___ _ ___ _ ___ _ ___
 72
    65
 73
     4
 40
1.125
 49
0.75
 74
     0
 49
-0.125
 74
     0
 49
0.125
 74
     0
 49
-0.125
 74
     0
  0
ENDTAB
  0
TABLE
  2
LAYER
  5
2
330
0
100
AcDbSymbolTable
 70
    22
  0
LAYER
  5
10
102
{ACAD_XDICTIONARY
360
346
102
}
330
2
100
AcDbSymbolTableRecord
100
AcDbLayerTableRecord
  2
0
 70
     0
 62
     7
  6
Continuous
370
    -3
390
F
  0
LAYER
  5
1F7
330
2
100
AcDbSymbolTableRecord
100
AcDbLayerTableRecord
  2
Defpoints
 70
     0
 62
     7
  6
Continuous
290
     0
370
    -3
390
F
  0
LAYER
  5
338
102
{ACAD_XDICTIONARY
360
348
102
}
330
2
100
AcDbSymbolTableRecord
100
AcDbLayerTableRecord
  2
1
 70
     0
 62
     4
  6
Continuous
370
    -3
390
F
  0
LAYER
  5
339
102
{ACAD_XDICTIONARY
360
34A
102
}
330
2
100
AcDbSymbolTableRecord
100
AcDbLayerTableRecord
  2
2
 70
     0
 62
     7
  6
Continuous
370
    -3
390
F
  0
LAYER
  5
33A
102
{ACAD_XDICTIONARY
360
34C
102
}
330
2
100
AcDbSymbolTableRecord
100
AcDbLayerTableRecord
  2
4
 70
     0
 62
     2
  6
CENTER2
370
    -3
390
F
  0
LAYER
  5
33C
102
{ACAD_XDICTIONARY
360
34E
102
}
330
2
100
AcDbSymbolTableRecord
100
AcDbLayerTableRecord
  2
SK1
 70
     0
 62
     4
  6
Continuous
370
    -3
390
F
  0
LAYER
  5
33D
102
{ACAD_XDICTIONARY
360
350
102
}
330
2
100
AcDbSymbolTableRecord
100
AcDbLayerTableRecord
  2
SK2
 70
     0
 62
     7
  6
Continuous
370
    -3
390
F
  0
LAYER
  5
33F
102
{ACAD_XDICTIONARY
360
352
102
}
330
2
100
AcDbSymbolTableRecord
100
AcDbLayerTableRecord
  2
SK4
 70
     0
 62
     2
  6
CENTER2
370
    -3
390
F
  0
LAYER
  5
340
102
{ACAD_XDICTIONARY
360
354
102
}
330
2
100
AcDbSymbolTableRecord
100
AcDbLayerTableRecord
  2
SK6
 70
     0
 62
     5
  6
Continuous
370
    -3
390
F
  0
LAYER
  5
341
102
{ACAD_XDICTIONARY
360
356
102
}
330
2
100
AcDbSymbolTableRecord
100
AcDbLayerTableRecord
  2
CUT
 70
     0
 62
     1
  6
Continuous
370
    -3
390
F
  0
LAYER
  5
342
102
{ACAD_XDICTIONARY
360
358
102
}
330
2
100
AcDbSymbolTableRecord
100
AcDbLayerTableRecord
  2
NOCUT
 70
     0
 62
     7
  6
Continuous
370
    -3
390
F
  0
LAYER
  5
343
102
{ACAD_XDICTIONARY
360
35A
102
}
330
2
100
AcDbSymbolTableRecord
100
AcDbLayerTableRecord
  2
80
 70
     0
 62
     6
  6
Continuous
370
    -3
390
F
  0
LAYER
  5
344
102
{ACAD_XDICTIONARY
360
35C
102
}
330
2
100
AcDbSymbolTableRecord
100
AcDbLayerTableRecord
  2
81
 70
     0
 62
     3
  6
Continuous
370
    -3
390
F
  0
ENDTAB
  0
TABLE
  2
STYLE
  5
3
330
0
100
AcDbSymbolTable
 70
     3
  0
STYLE
  5
11
330
3
100
AcDbSymbolTableRecord
100
AcDbTextStyleTableRecord
  2
Standard
 70
     0
 40
0.0
 41
1.0
 50
0.0
 71
     0
 42
0.2
  3
txt
  4

  0
STYLE
  5
1EB
330
3
100
AcDbSymbolTableRecord
100
AcDbTextStyleTableRecord
  2
cesky
 70
     0
 40
0.0
 41
1.0
 50
0.0
 71
     0
 42
0.2
  3
simplex.shx
  4

  0
STYLE
  5
1EC
330
3
100
AcDbSymbolTableRecord
100
AcDbTextStyleTableRecord
  2
DWGDirectTextStyle
 70
     0
 40
0.0
 41
1.0
 50
0.0
 71
     0
 42
0.2
  3
simplex
  4

  0
ENDTAB
  0
TABLE
  2
VIEW
  5
6
330
0
100
AcDbSymbolTable
 70
     0
  0
ENDTAB
  0
TABLE
  2
UCS
  5
7
330
0
100
AcDbSymbolTable
 70
     0
  0
ENDTAB
  0
TABLE
  2
APPID
  5
9
330
0
100
AcDbSymbolTable
 70
     7
  0
APPID
  5
12
330
9
100
AcDbSymbolTableRecord
100
AcDbRegAppTableRecord
  2
ACAD
 70
     0
  0
APPID
  5
1F3
330
9
100
AcDbSymbolTableRecord
100
AcDbRegAppTableRecord
  2
ACAD_DSTYLE_DIMBREAK
 70
     0
  0
APPID
  5
2AC
330
9
100
AcDbSymbolTableRecord
100
AcDbRegAppTableRecord
  2
ACAD_DSTYLE_DIM_LINETYPE
 70
     0
  0
APPID
  5
2AD
330
9
100
AcDbSymbolTableRecord
100
AcDbRegAppTableRecord
  2
ACAD_DSTYLE_DIM_EXT1_LINETYPE
 70
     0
  0
APPID
  5
2AE
330
9
100
AcDbSymbolTableRecord
100
AcDbRegAppTableRecord
  2
ACAD_DSTYLE_DIM_EXT2_LINETYPE
 70
     0
  0
APPID
  5
2EE
330
9
100
AcDbSymbolTableRecord
100
AcDbRegAppTableRecord
  2
ACAD_MLEADERVER
 70
     0
  0
APPID
  5
361
330
9
100
AcDbSymbolTableRecord
100
AcDbRegAppTableRecord
  2
ACAD_NAV_VCDISPLAY
 70
     0
  0
ENDTAB
  0
TABLE
  2
DIMSTYLE
  5
A
330
0
100
AcDbSymbolTable
 70
     1
100
AcDbDimStyleTable
 71
     0
  0
DIMSTYLE
105
27
330
A
100
AcDbSymbolTableRecord
100
AcDbDimStyleTableRecord
  2
Standard
 70
     0
340
11
1001
ACAD_DSTYLE_DIMBREAK
1070
   391
1040
6.349999999999999
  0
ENDTAB
  0
TABLE
  2
BLOCK_RECORD
  5
1
330
0
100
AcDbSymbolTable
 70
    16
  0
BLOCK_RECORD
  5
1F
102
{ACAD_XDICTIONARY
360
2FE
102
}
330
1
100
AcDbSymbolTableRecord
100
AcDbBlockTableRecord
  2
*Model_Space
340
22
  0
BLOCK_RECORD
  5
1B
330
1
100
AcDbSymbolTableRecord
100
AcDbBlockTableRecord
  2
*Paper_Space
340
1E
  0
BLOCK_RECORD
  5
23
330
1
100
AcDbSymbolTableRecord
100
AcDbBlockTableRecord
  2
*Paper_Space0
340
26
  0
BLOCK_RECORD
  5
1EE
330
1
100
AcDbSymbolTableRecord
100
AcDbBlockTableRecord
  2
ASSORTED_DRAFT1
340
0
  0
BLOCK_RECORD
  5
1F8
330
1
100
AcDbSymbolTableRecord
100
AcDbBlockTableRecord
  2
*D2
340
0
  0
BLOCK_RECORD
  5
203
330
1
100
AcDbSymbolTableRecord
100
AcDbBlockTableRecord
  2
_U0
340
0
  0
BLOCK_RECORD
  5
20E
330
1
100
AcDbSymbolTableRecord
100
AcDbBlockTableRecord
  2
*D4
340
0
  0
BLOCK_RECORD
  5
21A
330
1
100
AcDbSymbolTableRecord
100
AcDbBlockTableRecord
  2
_U1
340
0
  0
BLOCK_RECORD
  5
227
330
1
100
AcDbSymbolTableRecord
100
AcDbBlockTableRecord
  2
*D6
340
0
  0
BLOCK_RECORD
  5
233
330
1
100
AcDbSymbolTableRecord
100
AcDbBlockTableRecord
  2
_U2
340
0
  0
BLOCK_RECORD
  5
240
330
1
100
AcDbSymbolTableRecord
100
AcDbBlockTableRecord
  2
*D8
340
0
  0
BLOCK_RECORD
  5
24C
330
1
100
AcDbSymbolTableRecord
100
AcDbBlockTableRecord
  2
_U3
340
0
  0
BLOCK_RECORD
  5
258
330
1
100
AcDbSymbolTableRecord
100
AcDbBlockTableRecord
  2
*D10
340
0
  0
BLOCK_RECORD
  5
264
330
1
100
AcDbSymbolTableRecord
100
AcDbBlockTableRecord
  2
_U4
340
0
  0
BLOCK_RECORD
  5
270
330
1
100
AcDbSymbolTableRecord
100
AcDbBlockTableRecord
  2
*D12
340
0
  0
BLOCK_RECORD
  5
27C
330
1
100
AcDbSymbolTableRecord
100
AcDbBlockTableRecord
  2
_U5
340
0
  0
BLOCK_RECORD
  5
288
330
1
100
AcDbSymbolTableRecord
100
AcDbBlockTableRecord
  2
*D14
340
0
  0
BLOCK_RECORD
  5
294
330
1
100
AcDbSymbolTableRecord
100
AcDbBlockTableRecord
  2
_U6
340
0
  0
ENDTAB
  0
ENDSEC
  0
SECTION
  2
BLOCKS
  0
BLOCK
  5
20
330
1F
100
AcDbEntity
  8
0
100
AcDbBlockBegin
  2
*Model_Space
 70
     0
 10
0.0
 20
0.0
 30
0.0
  3
*Model_Space
  1

  0
ENDBLK
  5
21
330
1F
100
AcDbEntity
  8
0
100
AcDbBlockEnd
  0
BLOCK
  5
1C
330
1B
100
AcDbEntity
 67
     1
  8
0
100
AcDbBlockBegin
  2
*Paper_Space
 70
     0
 10
0.0
 20
0.0
 30
0.0
  3
*Paper_Space
  1

  0
ENDBLK
  5
1D
330
1B
100
AcDbEntity
 67
     1
  8
0
100
AcDbBlockEnd
  0
BLOCK
  5
24
330
23
100
AcDbEntity
 67
     1
  8
0
100
AcDbBlockBegin
  2
*Paper_Space0
 70
     0
 10
0.0
 20
0.0
 30
0.0
  3
*Paper_Space0
  1

  0
ENDBLK
  5
25
330
23
100
AcDbEntity
 67
     1
  8
0
100
AcDbBlockEnd
  0
BLOCK
  5
1F1
330
1EE
100
AcDbEntity
  8
0
100
AcDbBlockBegin
  2
ASSORTED_DRAFT1
 70
     0
 10
0.0
 20
0.0
 30
0.0
  3
ASSORTED_DRAFT1
  1

  0
SOLID
  5
1EF
330
1EE
100
AcDbEntity
  8
0
 62
   254
370
    13
100
AcDbTrace
 10
270.185042
 20
164.534924
 30
0.0
 11
265.185046
 21
163.42645
 31
0.0
 12
265.1850379999999
 22
165.643397
 32
0.0
 13
270.185042
 23
164.534924
 33
0.0
  0
ENDBLK
  5
1F2
330
1EE
100
AcDbEntity
  8
0
100
AcDbBlockEnd
  0
BLOCK
  5
1F9
330
1F8
100
AcDbEntity
  8
0
100
AcDbBlockBegin
  2
*D2
 70
     1
 10
0.0
 20
0.0
 30
0.0
  3
*D2
  1

  0
LINE
  5
1FB
330
1F8
100
AcDbEntity
  8
0
 62
   254
370
    -2
100
AcDbLine
 10
293.703832
 20
288.907994
 30
0.0
 11
418.887885
 21
288.907994
 31
0.0
  0
LINE
  5
1FC
330
1F8
100
AcDbEntity
  8
0
 62
   254
370
    -2
100
AcDbLine
 10
330.83929
 20
301.907994
 30
0.0
 11
418.887885
 21
301.907994
 31
0.0
  0
LINE
  5
1FD
330
1F8
100
AcDbEntity
  8
0
 62
   254
370
    -2
100
AcDbLine
 10
417.887885
 20
305.407994
 30
0.0
 11
417.887885
 21
308.907994
 31
0.0
  0
SOLID
  5
1FE
330
1F8
100
AcDbEntity
  8
0
 62
   254
100
AcDbTrace
 10
417.304552
 20
305.407994
 30
0.0
 11
418.4712189999999
 21
305.407994
 31
0.0
 12
417.887885
 22
301.907994
 32
0.0
 13
417.887885
 23
301.907994
 33
0.0
  0
MTEXT
  5
1FF
330
1F8
100
AcDbEntity
  8
0
 62
   254
370
    13
100
AcDbMText
 10
412.637885
 20
275.657994
 30
0.0
 40
3.5
 41
0.0
 71
     5
 72
     1
  1
\A1;26
  7
cesky
 11
0.0
 21
1.0
 31
0.0
 73
     1
 44
1.0
  0
POINT
  5
200
330
1F8
100
AcDbEntity
  8
Defpoints
 62
     0
100
AcDbPoint
 10
293.703832
 20
288.907994
 30
0.0
  0
POINT
  5
201
330
1F8
100
AcDbEntity
  8
Defpoints
 62
     0
100
AcDbPoint
 10
330.83929
 20
301.907994
 30
0.0
  0
POINT
  5
202
330
1F8
100
AcDbEntity
  8
Defpoints
 62
     0
100
AcDbPoint
 10
417.887885
 20
301.907994
 30
0.0
  0
ENDBLK
  5
1FA
330
1F8
100
AcDbEntity
  8
0
100
AcDbBlockEnd
  0
BLOCK
  5
209
330
203
100
AcDbEntity
  8
0
100
AcDbBlockBegin
  2
_U0
 70
     0
 10
0.0
 20
0.0
 30
0.0
  3
_U0
  1

  0
ENDBLK
  5
20A
330
203
100
AcDbEntity
  8
0
100
AcDbBlockEnd
  0
BLOCK
  5
20F
330
20E
100
AcDbEntity
  8
0
100
AcDbBlockBegin
  2
*D4
 70
     1
 10
0.0
 20
0.0
 30
0.0
  3
*D4
  1

  0
LINE
  5
211
330
20E
100
AcDbEntity
  8
0
 62
    95
370
    -2
100
AcDbLine
 10
216.404842
 20
304.907994
 30
0.0
 11
203.66833
 21
304.907994
 31
0.0
  0
LINE
  5
212
330
20E
100
AcDbEntity
  8
0
 62
    95
370
    -2
100
AcDbLine
 10
216.404842
 20
272.907994
 30
0.0
 11
203.66833
 21
272.907994
 31
0.0
  0
LINE
  5
213
330
20E
100
AcDbEntity
  8
0
 62
    95
370
    -2
100
AcDbLine
 10
204.66833
 20
301.407994
 30
0.0
 11
204.66833
 21
276.407994
 31
0.0
  0
SOLID
  5
214
330
20E
100
AcDbEntity
  8
0
 62
    95
100
AcDbTrace
 10
205.251663
 20
301.407994
 30
0.0
 11
204.084996
 21
301.407994
 31
0.0
 12
204.66833
 22
304.907994
 32
0.0
 13
204.66833
 23
304.907994
 33
0.0
  0
SOLID
  5
215
330
20E
100
AcDbEntity
  8
0
 62
    95
100
AcDbTrace
 10
204.084996
 20
276.407994
 30
0.0
 11
205.251663
 21
276.407994
 31
0.0
 12
204.66833
 22
272.907994
 32
0.0
 13
204.66833
 23
272.907994
 33
0.0
  0
MTEXT
  5
216
330
20E
100
AcDbEntity
  8
0
 62
    95
370
    13
100
AcDbMText
 10
199.41833
 20
288.907994
 30
0.0
 40
3.5
 41
0.0
 71
     5
 72
     1
  1
\A1;32
  7
cesky
 11
0.0
 21
1.0
 31
0.0
 73
     1
 44
1.0
  0
POINT
  5
217
330
20E
100
AcDbEntity
  8
Defpoints
 62
     0
100
AcDbPoint
 10
216.404842
 20
304.907994
 30
0.0
  0
POINT
  5
218
330
20E
100
AcDbEntity
  8
Defpoints
 62
     0
100
AcDbPoint
 10
216.404842
 20
272.907994
 30
0.0
  0
POINT
  5
219
330
20E
100
AcDbEntity
  8
Defpoints
 62
     0
100
AcDbPoint
 10
204.66833
 20
272.907994
 30
0.0
  0
ENDBLK
  5
210
330
20E
100
AcDbEntity
  8
0
100
AcDbBlockEnd
  0
BLOCK
  5
222
330
21A
100
AcDbEntity
  8
0
100
AcDbBlockBegin
  2
_U1
 70
     0
 10
0.0
 20
0.0
 30
0.0
  3
_U1
  1

  0
ENDBLK
  5
223
330
21A
100
AcDbEntity
  8
0
100
AcDbBlockEnd
  0
BLOCK
  5
228
330
227
100
AcDbEntity
  8
0
100
AcDbBlockBegin
  2
*D6
 70
     1
 10
0.0
 20
0.0
 30
0.0
  3
*D6
  1

  0
LINE
  5
22A
330
227
100
AcDbEntity
  8
0
 62
    95
370
    -2
100
AcDbLine
 10
277.154842
 20
309.907994
 30
0.0
 11
191.104285
 21
309.907994
 31
0.0
  0
LINE
  5
22B
330
227
100
AcDbEntity
  8
0
 62
    95
370
    -2
100
AcDbLine
 10
277.154842
 20
267.907994
 30
0.0
 11
191.104285
 21
267.907994
 31
0.0
  0
LINE
  5
22C
330
227
100
AcDbEntity
  8
0
 62
    95
370
    -2
100
AcDbLine
 10
192.104285
 20
306.407994
 30
0.0
 11
192.104285
 21
271.407994
 31
0.0
  0
SOLID
  5
22D
330
227
100
AcDbEntity
  8
0
 62
    95
100
AcDbTrace
 10
192.687618
 20
306.407994
 30
0.0
 11
191.520952
 21
306.407994
 31
0.0
 12
192.104285
 22
309.907994
 32
0.0
 13
192.104285
 23
309.907994
 33
0.0
  0
SOLID
  5
22E
330
227
100
AcDbEntity
  8
0
 62
    95
100
AcDbTrace
 10
191.520952
 20
271.407994
 30
0.0
 11
192.687618
 21
271.407994
 31
0.0
 12
192.104285
 22
267.907994
 32
0.0
 13
192.104285
 23
267.907994
 33
0.0
  0
MTEXT
  5
22F
330
227
100
AcDbEntity
  8
0
 62
    95
370
    13
100
AcDbMText
 10
186.854285
 20
288.907994
 30
0.0
 40
3.5
 41
0.0
 71
     5
 72
     1
  1
\A1;42
  7
cesky
 11
0.0
 21
1.0
 31
0.0
 73
     1
 44
1.0
  0
POINT
  5
230
330
227
100
AcDbEntity
  8
Defpoints
 62
     0
100
AcDbPoint
 10
277.154842
 20
309.907994
 30
0.0
  0
POINT
  5
231
330
227
100
AcDbEntity
  8
Defpoints
 62
     0
100
AcDbPoint
 10
277.154842
 20
267.907994
 30
0.0
  0
POINT
  5
232
330
227
100
AcDbEntity
  8
Defpoints
 62
     0
100
AcDbPoint
 10
192.104285
 20
267.907994
 30
0.0
  0
ENDBLK
  5
229
330
227
100
AcDbEntity
  8
0
100
AcDbBlockEnd
  0
BLOCK
  5
23B
330
233
100
AcDbEntity
  8
0
100
AcDbBlockBegin
  2
_U2
 70
     0
 10
0.0
 20
0.0
 30
0.0
  3
_U2
  1

  0
ENDBLK
  5
23C
330
233
100
AcDbEntity
  8
0
100
AcDbBlockEnd
  0
BLOCK
  5
241
330
240
100
AcDbEntity
  8
0
100
AcDbBlockBegin
  2
*D8
 70
     1
 10
0.0
 20
0.0
 30
0.0
  3
*D8
  1

  0
LINE
  5
243
330
240
100
AcDbEntity
  8
0
 62
   254
370
    -2
100
AcDbLine
 10
403.4048419999999
 20
301.907994
 30
0.0
 11
403.4048419999999
 21
323.882273
 31
0.0
  0
LINE
  5
244
330
240
100
AcDbEntity
  8
0
 62
   254
370
    -2
100
AcDbLine
 10
274.404842
 20
288.907994
 30
0.0
 11
274.404842
 21
323.882273
 31
0.0
  0
LINE
  5
245
330
240
100
AcDbEntity
  8
0
 62
   254
370
    -2
100
AcDbLine
 10
399.904842
 20
322.882273
 30
0.0
 11
277.904842
 21
322.882273
 31
0.0
  0
SOLID
  5
246
330
240
100
AcDbEntity
  8
0
 62
   254
100
AcDbTrace
 10
399.904842
 20
322.29894
 30
0.0
 11
399.904842
 21
323.465606
 31
0.0
 12
403.4048419999999
 22
322.882273
 32
0.0
 13
403.4048419999999
 23
322.882273
 33
0.0
  0
SOLID
  5
247
330
240
100
AcDbEntity
  8
0
 62
   254
100
AcDbTrace
 10
277.904842
 20
323.465606
 30
0.0
 11
277.904842
 21
322.29894
 31
0.0
 12
274.404842
 22
322.882273
 32
0.0
 13
274.404842
 23
322.882273
 33
0.0
  0
MTEXT
  5
248
330
240
100
AcDbEntity
  8
0
 62
   254
370
    13
100
AcDbMText
 10
338.904842
 20
328.132273
 30
0.0
 40
3.5
 41
0.0
 71
     5
 72
     1
  1
\A1;129
  7
cesky
 73
     1
 44
1.0
  0
POINT
  5
249
330
240
100
AcDbEntity
  8
Defpoints
 62
     0
100
AcDbPoint
 10
403.4048419999999
 20
301.907994
 30
0.0
  0
POINT
  5
24A
330
240
100
AcDbEntity
  8
Defpoints
 62
     0
100
AcDbPoint
 10
274.404842
 20
288.907994
 30
0.0
  0
POINT
  5
24B
330
240
100
AcDbEntity
  8
Defpoints
 62
     0
100
AcDbPoint
 10
274.404842
 20
322.882273
 30
0.0
  0
ENDBLK
  5
242
330
240
100
AcDbEntity
  8
0
100
AcDbBlockEnd
  0
BLOCK
  5
253
330
24C
100
AcDbEntity
  8
0
100
AcDbBlockBegin
  2
_U3
 70
     0
 10
0.0
 20
0.0
 30
0.0
  3
_U3
  1

  0
ENDBLK
  5
254
330
24C
100
AcDbEntity
  8
0
100
AcDbBlockEnd
  0
BLOCK
  5
259
330
258
100
AcDbEntity
  8
0
100
AcDbBlockBegin
  2
*D10
 70
     1
 10
0.0
 20
0.0
 30
0.0
  3
*D10
  1

  0
LINE
  5
25B
330
258
100
AcDbEntity
  8
0
 62
   254
370
    -2
100
AcDbLine
 10
403.4048419999999
 20
303.907994
 30
0.0
 11
403.4048419999999
 21
338.155501
 31
0.0
  0
LINE
  5
25C
330
258
100
AcDbEntity
  8
0
 62
   254
370
    -2
100
AcDbLine
 10
214.404842
 20
302.907994
 30
0.0
 11
214.404842
 21
338.155501
 31
0.0
  0
LINE
  5
25D
330
258
100
AcDbEntity
  8
0
 62
   254
370
    -2
100
AcDbLine
 10
399.904842
 20
337.155501
 30
0.0
 11
217.904842
 21
337.155501
 31
0.0
  0
SOLID
  5
25E
330
258
100
AcDbEntity
  8
0
 62
   254
100
AcDbTrace
 10
399.904842
 20
336.572167
 30
0.0
 11
399.904842
 21
337.738834
 31
0.0
 12
403.4048419999999
 22
337.155501
 32
0.0
 13
403.4048419999999
 23
337.155501
 33
0.0
  0
SOLID
  5
25F
330
258
100
AcDbEntity
  8
0
 62
   254
100
AcDbTrace
 10
217.904842
 20
337.738834
 30
0.0
 11
217.904842
 21
336.572167
 31
0.0
 12
214.404842
 22
337.155501
 32
0.0
 13
214.404842
 23
337.155501
 33
0.0
  0
MTEXT
  5
260
330
258
100
AcDbEntity
  8
0
 62
   254
370
    13
100
AcDbMText
 10
308.904842
 20
342.405501
 30
0.0
 40
3.5
 41
0.0
 71
     5
 72
     1
  1
\A1;189
  7
cesky
 73
     1
 44
1.0
  0
POINT
  5
261
330
258
100
AcDbEntity
  8
Defpoints
 62
     0
100
AcDbPoint
 10
403.4048419999999
 20
303.907994
 30
0.0
  0
POINT
  5
262
330
258
100
AcDbEntity
  8
Defpoints
 62
     0
100
AcDbPoint
 10
214.404842
 20
302.907994
 30
0.0
  0
POINT
  5
263
330
258
100
AcDbEntity
  8
Defpoints
 62
     0
100
AcDbPoint
 10
214.404842
 20
337.155501
 30
0.0
  0
ENDBLK
  5
25A
330
258
100
AcDbEntity
  8
0
100
AcDbBlockEnd
  0
BLOCK
  5
26B
330
264
100
AcDbEntity
  8
0
100
AcDbBlockBegin
  2
_U4
 70
     0
 10
0.0
 20
0.0
 30
0.0
  3
_U4
  1

  0
ENDBLK
  5
26C
330
264
100
AcDbEntity
  8
0
100
AcDbBlockEnd
  0
BLOCK
  5
271
330
270
100
AcDbEntity
  8
0
100
AcDbBlockBegin
  2
*D12
 70
     1
 10
0.0
 20
0.0
 30
0.0
  3
*D12
  1

  0
LINE
  5
273
330
270
100
AcDbEntity
  8
0
 62
   254
370
    -2
100
AcDbLine
 10
274.404842
 20
288.907994
 30
0.0
 11
274.404842
 21
323.882273
 31
0.0
  0
LINE
  5
274
330
270
100
AcDbEntity
  8
0
 62
   254
370
    -2
100
AcDbLine
 10
214.404842
 20
295.907994
 30
0.0
 11
214.404842
 21
323.882273
 31
0.0
  0
LINE
  5
275
330
270
100
AcDbEntity
  8
0
 62
   254
370
    -2
100
AcDbLine
 10
270.904842
 20
322.882273
 30
0.0
 11
217.904842
 21
322.882273
 31
0.0
  0
SOLID
  5
276
330
270
100
AcDbEntity
  8
0
 62
   254
100
AcDbTrace
 10
270.904842
 20
322.29894
 30
0.0
 11
270.904842
 21
323.465606
 31
0.0
 12
274.404842
 22
322.882273
 32
0.0
 13
274.404842
 23
322.882273
 33
0.0
  0
SOLID
  5
277
330
270
100
AcDbEntity
  8
0
 62
   254
100
AcDbTrace
 10
217.904842
 20
323.465606
 30
0.0
 11
217.904842
 21
322.29894
 31
0.0
 12
214.404842
 22
322.882273
 32
0.0
 13
214.404842
 23
322.882273
 33
0.0
  0
MTEXT
  5
278
330
270
100
AcDbEntity
  8
0
 62
   254
370
    13
100
AcDbMText
 10
244.404842
 20
328.132273
 30
0.0
 40
3.5
 41
0.0
 71
     5
 72
     1
  1
\A1;60
  7
cesky
 73
     1
 44
1.0
  0
POINT
  5
279
330
270
100
AcDbEntity
  8
Defpoints
 62
     0
100
AcDbPoint
 10
274.404842
 20
288.907994
 30
0.0
  0
POINT
  5
27A
330
270
100
AcDbEntity
  8
Defpoints
 62
     0
100
AcDbPoint
 10
214.404842
 20
295.907994
 30
0.0
  0
POINT
  5
27B
330
270
100
AcDbEntity
  8
Defpoints
 62
     0
100
AcDbPoint
 10
214.404842
 20
322.882273
 30
0.0
  0
ENDBLK
  5
272
330
270
100
AcDbEntity
  8
0
100
AcDbBlockEnd
  0
BLOCK
  5
283
330
27C
100
AcDbEntity
  8
0
100
AcDbBlockBegin
  2
_U5
 70
     0
 10
0.0
 20
0.0
 30
0.0
  3
_U5
  1

  0
ENDBLK
  5
284
330
27C
100
AcDbEntity
  8
0
100
AcDbBlockEnd
  0
BLOCK
  5
289
330
288
100
AcDbEntity
  8
0
100
AcDbBlockBegin
  2
*D14
 70
     1
 10
0.0
 20
0.0
 30
0.0
  3
*D14
  1

  0
LINE
  5
28B
330
288
100
AcDbEntity
  8
0
 62
   254
370
    -2
100
AcDbLine
 10
403.4048419999999
 20
301.907994
 30
0.0
 11
403.4048419999999
 21
312.553778
 31
0.0
  0
LINE
  5
28C
330
288
100
AcDbEntity
  8
0
 62
   254
370
    -2
100
AcDbLine
 10
293.918134
 20
301.786726
 30
0.0
 11
293.918134
 21
312.553778
 31
0.0
  0
LINE
  5
28D
330
288
100
AcDbEntity
  8
0
 62
   254
370
    -2
100
AcDbLine
 10
399.904842
 20
311.553778
 30
0.0
 11
297.418134
 21
311.553778
 31
0.0
  0
SOLID
  5
28E
330
288
100
AcDbEntity
  8
0
 62
   254
100
AcDbTrace
 10
399.904842
 20
310.9704450000001
 30
0.0
 11
399.904842
 21
312.137112
 31
0.0
 12
403.4048419999999
 22
311.553778
 32
0.0
 13
403.4048419999999
 23
311.553778
 33
0.0
  0
SOLID
  5
28F
330
288
100
AcDbEntity
  8
0
 62
   254
100
AcDbTrace
 10
297.418134
 20
312.137112
 30
0.0
 11
297.418134
 21
310.9704450000001
 31
0.0
 12
293.918134
 22
311.553778
 32
0.0
 13
293.918134
 23
311.553778
 33
0.0
  0
MTEXT
  5
290
330
288
100
AcDbEntity
  8
0
 62
   254
370
    13
100
AcDbMText
 10
348.661488
 20
316.803778
 30
0.0
 40
3.5
 41
0.0
 71
     5
 72
     1
  1
\A1;109.5
  7
cesky
 73
     1
 44
1.0
  0
POINT
  5
291
330
288
100
AcDbEntity
  8
Defpoints
 62
     0
100
AcDbPoint
 10
403.4048419999999
 20
301.907994
 30
0.0
  0
POINT
  5
292
330
288
100
AcDbEntity
  8
Defpoints
 62
     0
100
AcDbPoint
 10
293.918134
 20
301.786726
 30
0.0
  0
POINT
  5
293
330
288
100
AcDbEntity
  8
Defpoints
 62
     0
100
AcDbPoint
 10
293.918134
 20
311.553778
 30
0.0
  0
ENDBLK
  5
28A
330
288
100
AcDbEntity
  8
0
100
AcDbBlockEnd
  0
BLOCK
  5
29B
330
294
100
AcDbEntity
  8
0
100
AcDbBlockBegin
  2
_U6
 70
     0
 10
0.0
 20
0.0
 30
0.0
  3
_U6
  1

  0
ENDBLK
  5
29C
330
294
100
AcDbEntity
  8
0
100
AcDbBlockEnd
  0
ENDSEC
  0
SECTION
  2
ENTITIES
  0
POINT
  5
73
102
{ACAD_REACTORS
330
345
102
}
330
1F
100
AcDbEntity
  8
80
100
AcDbPoint
 10
274.404842
 20
288.907994
 30
0.0
  0
POINT
  5
76
330
1F
100
AcDbEntity
  8
4
 60
     1
100
AcDbPoint
 10
293.703832
 20
288.907994
 30
0.0
  0
POINT
  5
78
330
1F
100
AcDbEntity
  8
4
 60
     1
100
AcDbPoint
 10
402.5699419999999
 20
288.907994
 30
0.0
  0
POINT
  5
79
330
1F
100
AcDbEntity
  8
SK4
 60
     1
100
AcDbPoint
 10
216.404842
 20
288.907994
 30
0.0
  0
POINT
  5
7A
330
1F
100
AcDbEntity
  8
SK4
 60
     1
100
AcDbPoint
 10
274.404842
 20
288.907994
 30
0.0
  0
POINT
  5
7B
330
1F
100
AcDbEntity
  8
SK6
 60
     1
100
AcDbPoint
 10
274.404842
 20
288.907994
 30
0.0
  0
POINT
  5
7C
330
1F
100
AcDbEntity
  8
SK6
 60
     1
100
AcDbPoint
 10
293.918134
 20
301.786726
 30
0.0
  0
LINE
  5
81
330
1F
100
AcDbEntity
  8
80
100
AcDbLine
 10
275.404416
 20
288.907994
 30
0.0
 11
273.405268
 21
288.907994
 31
0.0
  0
LINE
  5
82
330
1F
100
AcDbEntity
  8
1
100
AcDbLine
 10
396.150339
 20
300.082678
 30
0.0
 11
401.14463
 21
300.300506
 31
0.0
  0
LINE
  5
84
330
1F
100
AcDbEntity
  8
1
100
AcDbLine
 10
396.372729
 20
295.093585
 30
0.0
 11
396.150339
 21
300.082678
 31
0.0
  0
LINE
  5
85
330
1F
100
AcDbEntity
  8
1
100
AcDbLine
 10
401.3670199999999
 20
295.311414
 30
0.0
 11
396.372729
 21
295.093585
 31
0.0
  0
LINE
  5
86
330
1F
100
AcDbEntity
  8
1
100
AcDbLine
 10
401.14463
 20
300.300506
 30
0.0
 11
401.3670199999999
 21
295.311414
 31
0.0
  0
LINE
  5
87
330
1F
100
AcDbEntity
  8
1
100
AcDbLine
 10
402.582931
 20
301.070484
 30
0.0
 11
402.867597
 21
294.68427
 31
0.0
  0
LINE
  5
88
330
1F
100
AcDbEntity
  8
1
100
AcDbLine
 10
395.38835
 20
301.524915
 30
0.0
 11
401.7812189999999
 21
301.803743
 31
0.0
  0
LINE
  5
89
330
1F
100
AcDbEntity
  8
1
100
AcDbLine
 10
394.939659
 20
294.338489
 30
0.0
 11
394.654993
 21
300.724703
 31
0.0
  0
LINE
  5
8A
330
1F
100
AcDbEntity
  8
1
100
AcDbLine
 10
402.134239
 20
293.884058
 30
0.0
 11
395.741371
 21
293.605229
 31
0.0
  0
LINE
  5
8B
330
1F
100
AcDbEntity
  8
1
100
AcDbLine
 10
401.785688
 20
282.978124
 30
0.0
 11
401.918712
 21
283.051861
 31
0.0
  0
LINE
  5
8C
330
1F
100
AcDbEntity
  8
1
100
AcDbLine
 10
403.323222
 20
283.237809
 30
0.0
 11
402.715638
 21
282.2266200000001
 31
0.0
  0
LINE
  5
8D
330
1F
100
AcDbEntity
  8
1
100
AcDbLine
 10
402.801122
 20
283.387519
 30
0.0
 11
403.323222
 21
283.237809
 31
0.0
  0
LINE
  5
8E
330
1F
100
AcDbEntity
  8
1
100
AcDbLine
 10
402.877836
 20
287.782412
 30
0.0
 11
403.4048419999999
 21
287.91381
 31
0.0
  0
LINE
  5
8F
330
1F
100
AcDbEntity
  8
1
100
AcDbLine
 10
402.819673
 20
288.969483
 30
0.0
 11
403.4048419999999
 21
287.91381
 31
0.0
  0
LINE
  5
90
330
1F
100
AcDbEntity
  8
1
100
AcDbLine
 10
402.4289709999999
 20
288.592186
 30
0.0
 11
402.819673
 21
288.969483
 31
0.0
  0
LINE
  5
91
330
1F
100
AcDbEntity
  8
1
100
AcDbLine
 10
402.252206
 20
289.310452
 30
0.0
 11
402.819673
 21
288.969483
 31
0.0
  0
LINE
  5
92
330
1F
100
AcDbEntity
  8
1
100
AcDbLine
 10
402.338341
 20
282.617322
 30
0.0
 11
402.715638
 21
282.2266200000001
 31
0.0
  0
LINE
  5
93
330
1F
100
AcDbEntity
  8
1
100
AcDbLine
 10
402.715638
 20
282.2266200000001
 30
0.0
 11
401.898745
 21
281.773808
 31
0.0
  0
LINE
  5
94
330
1F
100
AcDbEntity
  8
1
100
AcDbLine
 10
274.404842
 20
309.407994
 30
0.0
 11
274.404842
 21
288.907994
 31
0.0
  0
LINE
  5
96
330
1F
100
AcDbEntity
  8
1
100
AcDbLine
 10
274.404842
 20
288.907994
 30
0.0
 11
274.404842
 21
268.407994
 31
0.0
  0
LINE
  5
97
330
1F
100
AcDbEntity
  8
1
100
AcDbLine
 10
398.696019
 20
296.415964
 30
0.0
 11
398.720381
 21
296.485268
 31
0.0
  0
LINE
  5
99
330
1F
100
AcDbEntity
  8
1
100
AcDbLine
 10
402.801122
 20
283.387519
 30
0.0
 11
402.338341
 21
282.617322
 31
0.0
  0
LINE
  5
9A
330
1F
100
AcDbEntity
  8
1
100
AcDbLine
 10
402.4289709999999
 20
288.592186
 30
0.0
 11
402.877836
 21
287.782412
 31
0.0
  0
LINE
  5
9B
330
1F
100
AcDbEntity
  8
1
100
AcDbLine
 10
402.338341
 20
282.617322
 30
0.0
 11
401.918712
 21
283.051861
 31
0.0
  0
LINE
  5
9C
330
1F
100
AcDbEntity
  8
1
100
AcDbLine
 10
402.338341
 20
282.617322
 30
0.0
 11
401.710463
 21
282.269283
 31
0.0
  0
LINE
  5
9D
330
1F
100
AcDbEntity
  8
1
100
AcDbLine
 10
402.877836
 20
287.782412
 30
0.0
 11
402.2916989999999
 21
287.636272
 31
0.0
  0
LINE
  5
9E
330
1F
100
AcDbEntity
  8
1
100
AcDbLine
 10
402.801122
 20
283.387519
 30
0.0
 11
402.220443
 21
283.554026
 31
0.0
  0
LINE
  5
9F
330
1F
100
AcDbEntity
  8
1
100
AcDbLine
 10
402.877836
 20
287.782412
 30
0.0
 11
402.801122
 21
283.387519
 31
0.0
  0
LINE
  5
A0
330
1F
100
AcDbEntity
  8
1
100
AcDbLine
 10
401.918712
 20
283.051861
 30
0.0
 11
402.220443
 21
283.554026
 31
0.0
  0
LINE
  5
A1
330
1F
100
AcDbEntity
  8
1
100
AcDbLine
 10
402.220443
 20
283.554026
 30
0.0
 11
402.2916989999999
 21
287.636272
 31
0.0
  0
LINE
  5
A2
330
1F
100
AcDbEntity
  8
1
100
AcDbLine
 10
402.2916989999999
 20
287.636272
 30
0.0
 11
401.9944319999999
 21
288.172557
 31
0.0
  0
LINE
  5
A3
330
1F
100
AcDbEntity
  8
1
100
AcDbLine
 10
402.4289709999999
 20
288.592186
 30
0.0
 11
401.9944319999999
 21
288.172557
 31
0.0
  0
LINE
  5
A4
330
1F
100
AcDbEntity
  8
1
100
AcDbLine
 10
401.993869
 20
288.853621
 30
0.0
 11
402.4289709999999
 21
288.592186
 31
0.0
  0
LINE
  5
A5
330
1F
100
AcDbEntity
  8
1
100
AcDbLine
 10
403.4048419999999
 20
287.91381
 30
0.0
 11
403.323222
 21
283.237809
 31
0.0
  0
LINE
  5
A6
330
1F
100
AcDbEntity
  8
1
100
AcDbLine
 10
401.9944319999999
 20
288.172557
 30
0.0
 11
401.993867
 21
288.1728970000001
 31
0.0
  0
LINE
  5
A7
330
1F
100
AcDbEntity
  8
1
100
AcDbLine
 10
293.703832
 20
276.407994
 30
0.0
 11
296.833486
 21
276.407994
 31
0.0
  0
LINE
  5
A8
330
1F
100
AcDbEntity
  8
1
100
AcDbLine
 10
394.832841
 20
301.407994
 30
0.0
 11
386.645
 21
301.407994
 31
0.0
  0
LINE
  5
A9
330
1F
100
AcDbEntity
  8
1
100
AcDbLine
 10
299.127681
 20
301.407994
 30
0.0
 11
293.703832
 21
301.407994
 31
0.0
  0
LINE
  5
AA
330
1F
100
AcDbEntity
  8
1
100
AcDbLine
 10
397.711259
 20
297.003797
 30
0.0
 11
397.736034
 21
297.074277
 31
0.0
  0
LINE
  5
AB
330
1F
100
AcDbEntity
  8
1
100
AcDbLine
 10
399.288602
 20
296.781935
 30
0.0
 11
399.263654
 21
296.710961
 31
0.0
  0
LINE
  5
AC
330
1F
100
AcDbEntity
  8
1
100
AcDbLine
 10
398.0251
 20
298.4344660000001
 30
0.0
 11
398.050048
 21
298.50544
 31
0.0
  0
LINE
  5
AD
330
1F
100
AcDbEntity
  8
1
100
AcDbLine
 10
399.6022700000001
 20
298.21211
 30
0.0
 11
399.577495
 21
298.14163
 31
0.0
  0
LINE
  5
AE
330
1F
100
AcDbEntity
  8
1
100
AcDbLine
 10
401.844954
 20
281.86123
 30
0.0
 11
401.709542
 21
281.863396
 31
0.0
  0
LINE
  5
AF
330
1F
100
AcDbEntity
  8
1
100
AcDbLine
 10
401.699243
 20
282.1636
 30
0.0
 11
401.993868
 21
284.939494
 31
0.0
  0
LINE
  5
B0
330
1F
100
AcDbEntity
  8
1
100
AcDbLine
 10
401.993868
 20
284.939494
 30
0.0
 11
401.993868
 21
288.904407
 31
0.0
  0
LINE
  5
B1
330
1F
100
AcDbEntity
  8
1
100
AcDbLine
 10
402.03603
 20
289.203716
 30
0.0
 11
402.1716719999999
 21
289.201349
 31
0.0
  0
LINE
  5
B2
330
1F
100
AcDbEntity
  8
1
100
AcDbLine
 10
279.404842
 20
267.907994
 30
0.0
 11
279.404842
 21
272.979385
 31
0.0
  0
LINE
  5
B3
330
1F
100
AcDbEntity
  8
1
100
AcDbLine
 10
279.404842
 20
309.907994
 30
0.0
 11
279.404842
 21
280.387496
 31
0.0
  0
LINE
  5
B4
330
1F
100
AcDbEntity
  8
1
100
AcDbLine
 10
402.19406
 20
293.083588
 30
0.0
 11
402.2034389999999
 21
293.087269
 31
0.0
  0
LINE
  5
B5
330
1F
100
AcDbEntity
  8
1
100
AcDbLine
 10
402.311474
 20
293.7016040000001
 30
0.0
 11
396.335595
 21
293.440963
 31
0.0
  0
LINE
  5
B6
330
1F
100
AcDbEntity
  8
1
100
AcDbLine
 10
396.330365
 20
293.426083
 30
0.0
 11
396.335595
 21
293.440963
 31
0.0
  0
LINE
  5
B7
330
1F
100
AcDbEntity
  8
1
100
AcDbLine
 10
402.1716719999999
 20
289.201349
 30
0.0
 11
402.4126799999999
 21
289.527941
 31
0.0
  0
LINE
  5
B8
330
1F
100
AcDbEntity
  8
1
100
AcDbLine
 10
402.4126799999999
 20
289.766551
 30
0.0
 11
402.4126799999999
 21
289.527941
 31
0.0
  0
LINE
  5
B9
330
1F
100
AcDbEntity
  8
1
100
AcDbLine
 10
402.4126799999999
 20
289.766551
 30
0.0
 11
402.454842
 21
289.765815
 31
0.0
  0
LINE
  5
BA
330
1F
100
AcDbEntity
  8
1
100
AcDbLine
 10
402.454842
 20
293.982727
 30
0.0
 11
402.454842
 21
289.865831
 31
0.0
  0
LINE
  5
BB
330
1F
100
AcDbEntity
  8
1
100
AcDbLine
 10
402.311474
 20
293.7016040000001
 30
0.0
 11
402.309913
 21
293.925744
 31
0.0
  0
LINE
  5
BC
330
1F
100
AcDbEntity
  8
1
100
AcDbLine
 10
402.311474
 20
293.7016040000001
 30
0.0
 11
402.269471
 21
293.68512
 31
0.0
  0
LINE
  5
BD
330
1F
100
AcDbEntity
  8
1
100
AcDbLine
 10
401.5493329999999
 20
276.407994
 30
0.0
 11
402.067312
 21
281.288276
 31
0.0
  0
LINE
  5
BE
330
1F
100
AcDbEntity
  8
1
100
AcDbLine
 10
402.067312
 20
281.288276
 30
0.0
 11
402.0252209999999
 21
281.28895
 31
0.0
  0
LINE
  5
BF
330
1F
100
AcDbEntity
  8
1
100
AcDbLine
 10
402.0505029999999
 20
281.52715
 30
0.0
 11
402.0252209999999
 21
281.28895
 31
0.0
  0
LINE
  5
C0
330
1F
100
AcDbEntity
  8
1
100
AcDbLine
 10
402.0505029999999
 20
281.52715
 30
0.0
 11
401.844954
 21
281.86123
 31
0.0
  0
LINE
  5
C1
330
1F
100
AcDbEntity
  8
1
100
AcDbLine
 10
400.7889679999999
 20
284.939494
 30
0.0
 11
401.993868
 21
284.939494
 31
0.0
  0
LINE
  5
C2
330
1F
100
AcDbEntity
  8
1
100
AcDbLine
 10
394.900897
 20
301.309226
 30
0.0
 11
394.896992
 21
301.399802
 31
0.0
  0
LINE
  5
C3
330
1F
100
AcDbEntity
  8
1
100
AcDbLine
 10
396.330365
 20
293.426083
 30
0.0
 11
402.269471
 21
293.68512
 31
0.0
  0
LINE
  5
C4
330
1F
100
AcDbEntity
  8
1
100
AcDbLine
 10
402.454842
 20
289.765815
 30
0.0
 11
402.454842
 21
289.865831
 31
0.0
  0
LINE
  5
C5
330
1F
100
AcDbEntity
  8
1
100
AcDbLine
 10
402.2699629999999
 20
293.61447
 30
0.0
 11
402.269471
 21
293.68512
 31
0.0
  0
LINE
  5
C6
330
1F
100
AcDbEntity
  8
1
100
AcDbLine
 10
394.674923
 20
300.916377
 30
0.0
 11
394.656498
 21
301.343713
 31
0.0
  0
LINE
  5
C7
330
1F
100
AcDbEntity
  8
1
100
AcDbLine
 10
402.19406
 20
293.083588
 30
0.0
 11
396.113124
 21
292.818365
 31
0.0
  0
LINE
  5
C8
330
1F
100
AcDbEntity
  8
1
100
AcDbLine
 10
402.19406
 20
293.083588
 30
0.0
 11
400.7146109999999
 21
290.618693
 31
0.0
  0
LINE
  5
C9
330
1F
100
AcDbEntity
  8
SK1
100
AcDbLine
 10
216.404842
 20
304.907994
 30
0.0
 11
216.404842
 21
272.907994
 31
0.0
  0
LINE
  5
CA
330
1F
100
AcDbEntity
  8
SK1
100
AcDbLine
 10
214.404842
 20
302.907994
 30
0.0
 11
214.404842
 21
274.907994
 31
0.0
  0
LINE
  5
CB
330
1F
100
AcDbEntity
  8
1
100
AcDbLine
 10
394.709449
 20
294.910557
 30
0.0
 11
394.704218
 21
294.895676
 31
0.0
  0
LINE
  5
CC
330
1F
100
AcDbEntity
  8
1
100
AcDbLine
 10
394.709449
 20
294.910557
 30
0.0
 11
394.432054
 21
301.344109
 31
0.0
  0
LINE
  5
CD
330
1F
100
AcDbEntity
  8
1
100
AcDbLine
 10
394.4276450000001
 20
301.310166
 30
0.0
 11
394.704218
 21
294.895676
 31
0.0
  0
LINE
  5
CE
330
1F
100
AcDbEntity
  8
1
100
AcDbLine
 10
401.5493329999999
 20
276.407994
 30
0.0
 11
386.817769
 21
276.407994
 31
0.0
  0
LINE
  5
CF
330
1F
100
AcDbEntity
  8
1
100
AcDbLine
 10
274.904842
 20
267.907994
 30
0.0
 11
274.904842
 21
288.907994
 31
0.0
  0
LINE
  5
D0
330
1F
100
AcDbEntity
  8
1
100
AcDbLine
 10
274.904842
 20
288.907994
 30
0.0
 11
274.904842
 21
309.907994
 31
0.0
  0
LINE
  5
D1
330
1F
100
AcDbEntity
  8
1
100
AcDbLine
 10
400.6283269999999
 20
296.88423
 30
0.0
 11
400.6429769999999
 21
296.925904
 31
0.0
  0
LINE
  5
D2
330
1F
100
AcDbEntity
  8
1
100
AcDbLine
 10
279.404842
 20
267.907994
 30
0.0
 11
283.804337
 21
272.307488
 31
0.0
  0
LINE
  5
D3
330
1F
100
AcDbEntity
  8
1
100
AcDbLine
 10
283.804337
 20
305.508499
 30
0.0
 11
279.404842
 21
309.907994
 31
0.0
  0
LINE
  5
D4
330
1F
100
AcDbEntity
  8
SK1
100
AcDbLine
 10
214.404842
 20
274.907994
 30
0.0
 11
216.404842
 21
272.907994
 31
0.0
  0
LINE
  5
D5
330
1F
100
AcDbEntity
  8
SK1
100
AcDbLine
 10
216.404842
 20
304.907994
 30
0.0
 11
214.404842
 21
302.907994
 31
0.0
  0
LINE
  5
D6
330
1F
100
AcDbEntity
  8
SK1
100
AcDbLine
 10
274.404842
 20
304.907994
 30
0.0
 11
216.404842
 21
304.907994
 31
0.0
  0
LINE
  5
D7
330
1F
100
AcDbEntity
  8
1
100
AcDbLine
 10
274.904842
 20
267.907994
 30
0.0
 11
274.404842
 21
268.407994
 31
0.0
  0
LINE
  5
D8
330
1F
100
AcDbEntity
  8
1
100
AcDbLine
 10
274.404842
 20
309.407994
 30
0.0
 11
274.904842
 21
309.907994
 31
0.0
  0
LINE
  5
D9
330
1F
100
AcDbEntity
  8
1
100
AcDbLine
 10
279.404842
 20
309.907994
 30
0.0
 11
274.904842
 21
309.907994
 31
0.0
  0
LINE
  5
DA
330
1F
100
AcDbEntity
  8
80
100
AcDbLine
 10
274.404842
 20
287.90842
 30
0.0
 11
274.404842
 21
289.907567
 31
0.0
  0
LINE
  5
DB
330
1F
100
AcDbEntity
  8
81
100
AcDbLine
 10
401.4048419999999
 20
301.907994
 30
0.0
 11
405.4048419999999
 21
301.907994
 31
0.0
  0
LINE
  5
DC
330
1F
100
AcDbEntity
  8
81
100
AcDbLine
 10
403.4048419999999
 20
303.907994
 30
0.0
 11
403.4048419999999
 21
299.907994
 31
0.0
  0
LINE
  5
DD
330
1F
100
AcDbEntity
  8
SK1
100
AcDbLine
 10
216.404842
 20
272.907994
 30
0.0
 11
274.404842
 21
272.907994
 31
0.0
  0
LINE
  5
DE
330
1F
100
AcDbEntity
  8
1
100
AcDbLine
 10
274.904842
 20
267.907994
 30
0.0
 11
279.404842
 21
267.907994
 31
0.0
  0
LINE
  5
DF
330
1F
100
AcDbEntity
  8
1
100
AcDbLine
 10
398.038599
 20
298.493849
 30
0.0
 11
398.063307
 21
298.564138
 31
0.0
  0
LINE
  5
E0
330
1F
100
AcDbEntity
  8
1
100
AcDbLine
 10
397.463596
 20
297.602266
 30
0.0
 11
397.439528
 21
297.533798
 31
0.0
  0
LINE
  5
E1
330
1F
100
AcDbEntity
  8
1
100
AcDbLine
 10
397.5461870000001
 20
297.588746
 30
0.0
 11
397.521609
 21
297.518826
 31
0.0
  0
LINE
  5
E2
330
1F
100
AcDbEntity
  8
1
100
AcDbLine
 10
399.731218
 20
297.029911
 30
0.0
 11
399.755227
 21
297.098212
 31
0.0
  0
LINE
  5
E3
330
1F
100
AcDbEntity
  8
1
100
AcDbLine
 10
399.636683
 20
297.050312
 30
0.0
 11
399.6612859999999
 21
297.120301
 31
0.0
  0
LINE
  5
E4
330
1F
100
AcDbEntity
  8
1
100
AcDbLine
 10
398.69375
 20
296.435962
 30
0.0
 11
398.718241
 21
296.505637
 31
0.0
  0
LINE
  5
E5
330
1F
100
AcDbEntity
  8
1
100
AcDbLine
 10
400.723315
 20
293.0471330000001
 30
0.0
 11
396.106009
 21
292.845747
 31
0.0
  0
LINE
  5
E6
330
1F
100
AcDbEntity
  8
1
100
AcDbLine
 10
287.904842
 20
301.165345
 30
0.0
 11
287.904842
 21
288.241162
 31
0.0
  0
LINE
  5
E7
330
1F
100
AcDbEntity
  8
1
100
AcDbLine
 10
399.280445
 20
296.5476779999999
 30
0.0
 11
399.274656
 21
296.541604
 31
0.0
  0
LINE
  5
119
330
1F
100
AcDbEntity
  8
NOCUT
100
AcDbLine
 10
279.404842
 20
309.907994
 30
0.0
 11
283.804337
 21
305.508499
 31
0.0
  0
LINE
  5
11A
330
1F
100
AcDbEntity
  8
NOCUT
100
AcDbLine
 10
402.137059
 20
301.407994
 30
0.0
 11
402.454842
 21
294.192109
 31
0.0
  0
LINE
  5
11B
330
1F
100
AcDbEntity
  8
NOCUT
100
AcDbLine
 10
402.454842
 20
294.192109
 30
0.0
 11
402.454842
 21
288.907994
 31
0.0
  0
LINE
  5
11C
330
1F
100
AcDbEntity
  8
NOCUT
100
AcDbLine
 10
402.454842
 20
288.907994
 30
0.0
 11
214.404842
 21
288.907994
 31
0.0
  0
LINE
  5
11D
330
1F
100
AcDbEntity
  8
NOCUT
100
AcDbLine
 10
274.404842
 20
304.907994
 30
0.0
 11
216.404842
 21
304.907994
 31
0.0
  0
LINE
  5
11E
330
1F
100
AcDbEntity
  8
NOCUT
100
AcDbLine
 10
279.404842
 20
309.907994
 30
0.0
 11
274.904842
 21
309.907994
 31
0.0
  0
LINE
  5
11F
330
1F
100
AcDbEntity
  8
NOCUT
100
AcDbLine
 10
214.404842
 20
302.907994
 30
0.0
 11
214.404842
 21
288.907994
 31
0.0
  0
LINE
  5
120
330
1F
100
AcDbEntity
  8
NOCUT
100
AcDbLine
 10
274.404842
 20
304.907994
 30
0.0
 11
274.404842
 21
309.407994
 31
0.0
  0
LINE
  5
121
330
1F
100
AcDbEntity
  8
NOCUT
100
AcDbLine
 10
274.404842
 20
309.407994
 30
0.0
 11
274.904842
 21
309.907994
 31
0.0
  0
LINE
  5
122
330
1F
100
AcDbEntity
  8
NOCUT
100
AcDbLine
 10
214.404842
 20
302.907994
 30
0.0
 11
216.404842
 21
304.907994
 31
0.0
  0
LINE
  5
123
330
1F
100
AcDbEntity
  8
NOCUT
100
AcDbLine
 10
293.703832
 20
301.407994
 30
0.0
 11
402.137059
 21
301.407994
 31
0.0
  0
CIRCLE
  5
12C
330
1F
100
AcDbEntity
  8
1
100
AcDbCircle
 10
399.278336
 20
285.772145
 30
0.0
 40
0.8499999999999991
  0
ARC
  5
12D
330
1F
100
AcDbEntity
  8
1
100
AcDbCircle
 10
293.703832
 20
262.407994
 30
0.0
 40
14.0
100
AcDbArc
 50
90.0
 51
135.0
  0
ARC
  5
12E
330
1F
100
AcDbEntity
  8
1
100
AcDbCircle
 10
293.703832
 20
315.407994
 30
0.0
 40
14.0
100
AcDbArc
 50
225.0
 51
270.0
  0
ARC
  5
12F
330
1F
100
AcDbEntity
  8
1
100
AcDbCircle
 10
399.278336
 20
285.772145
 30
0.0
 40
1.25
100
AcDbArc
 50
75.0
 51
345.0
  0
ARC
  5
13E
330
1F
100
AcDbEntity
  8
NOCUT
100
AcDbCircle
 10
293.703832
 20
315.407994
 30
0.0
 40
14.0
100
AcDbArc
 50
225.0
 51
270.0
  0
ELLIPSE
  5
13F
330
1F
100
AcDbEntity
  8
1
100
AcDbEllipse
 10
398.781346
 20
297.761528
 30
0.0
 11
1.976686973435236
 21
-0.6948377577586041
 31
0.0
210
0.0
220
0.0
230
0.9999999999999996
 40
0.9986169999999999
 41
1.952887808078919
 42
2.788649820988448
  0
ELLIPSE
  5
140
330
1F
100
AcDbEntity
  8
1
100
AcDbEllipse
 10
398.781346
 20
297.761528
 30
0.0
 11
1.976686973435236
 21
-0.6948377577586041
 31
0.0
210
0.0
220
0.0
230
0.9999999999999996
 40
0.9986169999999999
 41
5.950564527487067
 42
6.283185307179585
  0
ELLIPSE
  5
141
330
1F
100
AcDbEntity
  8
1
100
AcDbEllipse
 10
398.781346
 20
297.761528
 30
0.0
 11
1.976686973435236
 21
-0.6948377577586041
 31
0.0
210
0.0
220
0.0
230
0.9999999999999996
 40
0.9986169999999999
 41
0.0
 42
1.474776942467219
  0
ELLIPSE
  5
142
330
1F
100
AcDbEntity
  8
1
100
AcDbEllipse
 10
398.781346
 20
297.761528
 30
0.0
 11
1.976686973435236
 21
-0.6948377577586041
 31
0.0
210
0.0
220
0.0
230
0.9999999999999996
 40
0.9986169999999999
 41
1.666708498140599
 42
1.952887808078918
  0
ELLIPSE
  5
143
330
1F
100
AcDbEntity
  8
1
100
AcDbEllipse
 10
395.855157
 20
294.502841
 30
0.0
 11
0.9544181520557883
 21
1.042471549729844
 31
0.0
210
0.0
220
0.0
230
0.9999999999999996
 40
0.014608
 41
0.9817638394499708
 42
1.53657487209842
  0
ELLIPSE
  5
144
330
1F
100
AcDbEntity
  8
1
100
AcDbEllipse
 10
398.761556
 20
297.70523
 30
0.0
 11
2.032803755974808
 21
-0.7145637234155027
 31
0.0
210
0.0
220
0.0
230
0.9999999999999998
 40
0.9986169999999997
 41
0.0
 42
6.283185307179585
  0
ELLIPSE
  5
145
330
1F
100
AcDbEntity
  8
1
100
AcDbEllipse
 10
395.585908
 20
300.5432
 30
0.0
 11
1.042970519071345
 21
-0.95487497544283
 31
0.0
210
0.0
220
0.0
230
1.0
 40
0.034202
 41
1.030578139255386
 42
1.585389171878523
  0
ELLIPSE
  5
146
330
1F
100
AcDbEntity
  8
1
100
AcDbEllipse
 10
401.6325609999999
 20
300.806928
 30
0.0
 11
0.9544181513729315
 21
1.042471548975914
 31
0.0
210
0.0
220
0.0
230
0.9999999999999998
 40
0.014608
 41
1.53657487234122
 42
2.091385905367549
  0
ELLIPSE
  5
147
330
1F
100
AcDbEntity
  8
1
100
AcDbEllipse
 10
401.90181
 20
294.766569
 30
0.0
 11
1.04297051870269
 21
-0.9548749751373227
 31
0.0
210
0.0
220
0.0
230
1.0
 40
0.034202
 41
1.585389172378872
 42
2.140200205182926
  0
ELLIPSE
  5
148
330
1F
100
AcDbEntity
  8
1
100
AcDbEllipse
 10
398.758679
 20
297.697046
 30
0.0
 11
-2.122675767184465
 21
0.7461552032974451
 31
0.0
210
0.0
220
0.0
230
1.0
 40
0.9986169999999999
 41
0.0
 42
6.283185307179585
  0
ELLIPSE
  5
149
330
1F
100
AcDbEntity
  8
1
100
AcDbEllipse
 10
397.938722
 20
298.492213
 30
0.0
 11
-0.0942521876921315
 21
0.0331311834599842
 31
0.0
210
0.0
220
0.0
230
0.9999999999999996
 40
0.9986169999999999
 41
3.198347799122583
 42
4.047282951533337
  0
ELLIPSE
  5
14A
330
1F
100
AcDbEntity
  8
1
100
AcDbEllipse
 10
398.107123
 20
298.59944
 30
0.0
 11
-0.0942521876921316
 21
0.0331311834599843
 31
0.0
210
0.0
220
0.0
230
1.0
 40
0.9986169999999999
 41
5.816341677114023
 42
7.188875605123267
  0
ELLIPSE
  5
14B
330
1F
100
AcDbEntity
  8
1
100
AcDbEllipse
 10
398.423364
 20
298.271003
 30
0.0
 11
-0.5245088146424637
 21
0.184373415512233
 31
0.0
210
0.0
220
0.0
230
0.9999999999999998
 40
0.9986169999999999
 41
4.896218103944201
 42
5.816341677114044
  0
ELLIPSE
  5
14C
330
1F
100
AcDbEntity
  8
1
100
AcDbEllipse
 10
398.493203
 20
298.721072
 30
0.0
 11
-0.0942521876921314
 21
0.0331311834599842
 31
0.0
210
0.0
220
0.0
230
0.9999999999999998
 40
0.9986169999999999
 41
3.523684175935049
 42
4.896218103944103
  0
ELLIPSE
  5
14D
330
1F
100
AcDbEntity
  8
1
100
AcDbEllipse
 10
398.692786
 20
298.729777
 30
0.0
 11
-0.0942521876921315
 21
0.0331311834599842
 31
0.0
210
0.0
220
0.0
230
0.9999999999999996
 40
0.9986169999999999
 41
0.3820915223451913
 42
1.231026674755952
  0
ELLIPSE
  5
14E
330
1F
100
AcDbEntity
  8
1
100
AcDbEllipse
 10
398.978576
 20
299.084471
 30
0.0
 11
-0.5245088146424635
 21
0.184373415512233
 31
0.0
210
0.0
220
0.0
230
1.0
 40
0.9986169999999999
 41
1.23102667475609
 42
2.151150247925931
  0
ELLIPSE
  5
14F
330
1F
100
AcDbEntity
  8
1
100
AcDbEllipse
 10
399.08819
 20
298.642229
 30
0.0
 11
-0.0942521876921315
 21
0.0331311834599842
 31
0.0
210
0.0
220
0.0
230
0.9999999999999996
 40
0.9986169999999999
 41
2.151150247925887
 42
3.000085400336741
  0
ELLIPSE
  5
150
330
1F
100
AcDbEntity
  8
1
100
AcDbEllipse
 10
399.265478
 20
298.55008
 30
0.0
 11
-0.0942521876921316
 21
0.0331311834599843
 31
0.0
210
0.0
220
0.0
230
1.0
 40
0.9986169999999999
 41
4.76914412591751
 42
6.141678053926584
  0
ELLIPSE
  5
151
330
1F
100
AcDbEntity
  8
1
100
AcDbEllipse
 10
399.139095
 20
298.112531
 30
0.0
 11
-0.5245088146424637
 21
0.184373415512233
 31
0.0
210
0.0
220
0.0
230
0.9999999999999998
 40
0.9986169999999999
 41
3.849020552747573
 42
4.769144125917379
  0
ELLIPSE
  5
152
330
1F
100
AcDbEntity
  8
1
100
AcDbEllipse
 10
399.564259
 20
298.276811
 30
0.0
 11
-0.0942521876921314
 21
0.0331311834599842
 31
0.0
210
0.0
220
0.0
230
0.9999999999999998
 40
0.9986169999999999
 41
2.476486624738694
 42
3.849020552747563
  0
ELLIPSE
  5
153
330
1F
100
AcDbEntity
  8
1
100
AcDbEllipse
 10
399.671747
 20
298.108499
 30
0.0
 11
-0.0942521876921315
 21
0.0331311834599842
 31
0.0
210
0.0
220
0.0
230
0.9999999999999996
 40
0.9986169999999999
 41
5.618079278328143
 42
6.467014430739045
  0
ELLIPSE
  5
154
330
1F
100
AcDbEntity
  8
1
100
AcDbEllipse
 10
400.122362
 20
298.038345
 30
0.0
 11
-0.5245088146424635
 21
0.184373415512233
 31
0.0
210
0.0
220
0.0
230
1.0
 40
0.9986169999999999
 41
0.1838291235594827
 42
1.103952696729275
  0
ELLIPSE
  5
155
330
1F
100
AcDbEntity
  8
1
100
AcDbEllipse
 10
399.793845
 20
297.72273
 30
0.0
 11
-0.0942521876921315
 21
0.0331311834599842
 31
0.0
210
0.0
220
0.0
230
0.9999999999999996
 40
0.9986169999999999
 41
1.103952696729366
 42
1.952887849140164
  0
ELLIPSE
  5
156
330
1F
100
AcDbEntity
  8
1
100
AcDbEllipse
 10
399.802732
 20
297.523354
 30
0.0
 11
-0.0942521876921316
 21
0.0331311834599843
 31
0.0
210
0.0
220
0.0
230
1.0
 40
0.9986169999999999
 41
3.721946574720873
 42
5.094480502729798
  0
ELLIPSE
  5
157
330
1F
100
AcDbEntity
  8
1
100
AcDbEllipse
 10
399.360108
 20
297.414241
 30
0.0
 11
-0.5245088146424637
 21
0.184373415512233
 31
0.0
210
0.0
220
0.0
230
0.9999999999999998
 40
0.9986169999999999
 41
2.801823001550983
 42
3.721946574720843
  0
ELLIPSE
  5
158
330
1F
100
AcDbEntity
  8
1
100
AcDbEllipse
 10
399.715432
 20
297.128452
 30
0.0
 11
-0.0942521876921314
 21
0.0331311834599842
 31
0.0
210
0.0
220
0.0
230
0.9999999999999998
 40
0.9986169999999999
 41
1.429289073541944
 42
2.801823001550939
  0
ELLIPSE
  5
159
330
1F
100
AcDbEntity
  8
1
100
AcDbEllipse
 10
399.623337
 20
296.951436
 30
0.0
 11
-0.0942521876921315
 21
0.0331311834599842
 31
0.0
210
0.0
220
0.0
230
0.9999999999999996
 40
0.9986169999999999
 41
4.570881727131465
 42
5.419816879542451
  0
ELLIPSE
  5
15A
330
1F
100
AcDbEntity
  8
1
100
AcDbEllipse
 10
399.788162
 20
296.526588
 30
0.0
 11
-0.5245088146424635
 21
0.184373415512233
 31
0.0
210
0.0
220
0.0
230
1.0
 40
0.9986169999999999
 41
5.419816879542504
 42
6.339940452712296
  0
ELLIPSE
  5
15B
330
1F
100
AcDbEntity
  8
1
100
AcDbEllipse
 10
399.350031
 20
296.653214
 30
0.0
 11
-0.0942521876921315
 21
0.0331311834599842
 31
0.0
210
0.0
220
0.0
230
0.9999999999999996
 40
0.9986169999999999
 41
0.0567551455328613
 42
0.9056902979437008
  0
ELLIPSE
  5
15C
330
1F
100
AcDbEntity
  8
1
100
AcDbEllipse
 10
399.181631
 20
296.545988
 30
0.0
 11
-0.0942521876921316
 21
0.0331311834599843
 31
0.0
210
0.0
220
0.0
230
1.0
 40
0.9986169999999999
 41
2.674749023524356
 42
4.047282951533138
  0
ELLIPSE
  5
15D
330
1F
100
AcDbEntity
  8
1
100
AcDbEllipse
 10
398.86539
 20
296.874424
 30
0.0
 11
-0.5245088146424637
 21
0.184373415512233
 31
0.0
210
0.0
220
0.0
230
0.9999999999999998
 40
0.9986169999999999
 41
1.75462545035438
 42
2.67474902352425
  0
ELLIPSE
  5
15E
330
1F
100
AcDbEntity
  8
1
100
AcDbEllipse
 10
398.79555
 20
296.424355
 30
0.0
 11
-0.0942521876921314
 21
0.0331311834599842
 31
0.0
210
0.0
220
0.0
230
0.9999999999999998
 40
0.9986169999999999
 41
0.3820915223454025
 42
1.754625450354311
  0
ELLIPSE
  5
15F
330
1F
100
AcDbEntity
  8
1
100
AcDbEllipse
 10
398.595967
 20
296.4156500000001
 30
0.0
 11
-0.0942521876921315
 21
0.0331311834599842
 31
0.0
210
0.0
220
0.0
230
0.9999999999999996
 40
0.9986169999999999
 41
3.523684175934984
 42
4.372619328345745
  0
ELLIPSE
  5
160
330
1F
100
AcDbEntity
  8
1
100
AcDbEllipse
 10
398.310177
 20
296.060956
 30
0.0
 11
-0.5245088146424635
 21
0.184373415512233
 31
0.0
210
0.0
220
0.0
230
1.0
 40
0.9986169999999999
 41
4.372619328345838
 42
5.292742901515717
  0
ELLIPSE
  5
161
330
1F
100
AcDbEntity
  8
1
100
AcDbEllipse
 10
398.644377
 20
297.572714
 30
0.0
 11
1.415117178122975
 21
-0.4974368021982956
 31
0.0
210
0.0
220
0.0
230
0.9999999999999998
 40
0.9986169999999999
 41
0.0
 42
6.283185307179585
  0
ELLIPSE
  5
162
330
1F
100
AcDbEntity
  8
1
100
AcDbEllipse
 10
401.741333
 20
282.162926
 30
0.0
 11
0.0323262014611233
 21
0.2994966855051533
 31
0.0
210
0.0
220
0.0
230
1.0
 40
0.139171
 41
1.583568179247035
 42
3.154364506043106
  0
ELLIPSE
  5
163
330
1F
100
AcDbEntity
  8
1
100
AcDbEllipse
 10
402.03603
 20
288.903671
 30
0.0
 11
0.0001054973293689
 21
-0.3000466005998807
 31
0.0
210
0.0
220
0.0
230
1.0
 40
0.140519
 41
3.139090475970026
 42
4.709886802762991
  0
ELLIPSE
  5
164
330
1F
100
AcDbEntity
  8
1
100
AcDbEllipse
 10
313.230749
 20
288.907994
 30
0.0
 11
40.84358455416364
 21
-9.863485821783863
 31
0.0
210
0.0
220
0.0
230
1.0
 40
0.188001
 41
4.259840089835673
 42
4.425457568730193
  0
ELLIPSE
  5
165
330
1F
100
AcDbEntity
  8
1
100
AcDbEllipse
 10
395.584291
 20
294.243973
 30
0.0
 11
-1.037752597290181
 21
0.3647869882787507
 31
0.0
210
0.0
220
0.0
230
1.0
 40
0.9986169999999999
 41
2.660398593174658
 42
2.896276136521336
  0
ELLIPSE
  5
166
330
1F
100
AcDbEntity
  8
1
100
AcDbEllipse
 10
402.199959
 20
293.586996
 30
0.0
 11
0.0003755628771343
 21
0.5004820718028884
 31
0.0
210
0.0
220
0.0
230
0.9999999999999998
 40
0.140044
 41
3.196620263475868
 42
4.767416590273652
  0
ELLIPSE
  5
167
330
1F
100
AcDbEntity
  8
1
100
AcDbEllipse
 10
402.8760469999999
 20
288.907994
 30
0.0
 11
1.352984617754122
 21
12.49858631514006
 31
0.0
210
0.0
220
0.0
230
0.9999999999999998
 40
0.138944
 41
1.908906884668131
 42
3.156632395651083
  0
ELLIPSE
  5
168
330
1F
100
AcDbEntity
  8
1
100
AcDbEllipse
 10
402.454842
 20
288.907994
 30
0.0
 11
0.0
 21
12.49999999980524
 31
0.0
210
0.0
220
0.0
230
1.0
 40
0.140541
 41
1.433509486425213
 42
1.893867142611978
  0
ELLIPSE
  5
169
330
1F
100
AcDbEntity
  8
1
100
AcDbEllipse
 10
395.759348
 20
291.465498
 30
0.0
 11
-3.198251734246605
 21
-0.1537670528332109
 31
0.0
210
0.0
220
0.0
230
0.9999999999999998
 40
0.221493
 41
1.692939269778004
 42
4.584114412043487
  0
ELLIPSE
  5
16A
330
1F
100
AcDbEntity
  8
1
100
AcDbEllipse
 10
395.414804
 20
288.907993
 30
0.0
 11
0.5272062896786033
 21
-12.49999594558394
 31
0.0
210
0.0
220
0.0
230
1.0
 40
0.019519
 41
3.027416963253981
 42
3.104564556431686
  0
ELLIPSE
  5
16B
330
1F
100
AcDbEntity
  8
1
100
AcDbEllipse
 10
395.57906
 20
294.229093
 30
0.0
 11
1.037752597290181
 21
-0.3647869882787502
 31
0.0
210
0.0
220
0.0
230
1.0
 40
0.9986169999999999
 41
5.696411014012047
 42
5.801991246764427
  0
ELLIPSE
  5
16C
330
1F
100
AcDbEntity
  8
1
100
AcDbEllipse
 10
395.28551
 20
288.907994
 30
0.0
 11
0.4618480839799655
 21
-12.49983052560294
 31
0.0
210
0.0
220
0.0
230
1.0
 40
0.140936
 41
3.100180497575066
 42
3.237843326104056
  0
ELLIPSE
  5
16D
330
1F
100
AcDbEntity
  8
1
100
AcDbEllipse
 10
306.568085
 20
288.907991
 30
0.0
 11
266.6291074893239
 21
12.19015678198408
 31
0.0
210
0.0
220
0.0
230
0.9999999999999998
 40
0.010374
 41
5.054742996098278
 42
5.072796282615254
  0
ELLIPSE
  5
16E
330
1F
100
AcDbEntity
  8
1
100
AcDbEllipse
 10
395.637993
 20
294.396747
 30
0.0
 11
-1.037752597290181
 21
0.3647869882787505
 31
0.0
210
0.0
220
0.0
230
1.0
 40
0.9986169999999999
 41
0.0808915618592316
 42
1.952888276015089
  0
ELLIPSE
  5
16F
330
1F
100
AcDbEntity
  8
1
100
AcDbEllipse
 10
395.637993
 20
294.396747
 30
0.0
 11
-1.037752597290181
 21
0.3647869882787505
 31
0.0
210
0.0
220
0.0
230
1.0
 40
0.9986169999999999
 41
1.952888276015091
 42
2.71442964307429
  0
ELLIPSE
  5
170
330
1F
100
AcDbEntity
  8
1
100
AcDbEllipse
 10
395.584291
 20
294.243973
 30
0.0
 11
-1.037752597290181
 21
0.3647869882787507
 31
0.0
210
0.0
220
0.0
230
1.0
 40
0.9986169999999999
 41
5.715339719273451
 42
5.969700832071128
  0
ELLIPSE
  5
171
330
1F
100
AcDbEntity
  8
1
100
AcDbEllipse
 10
395.57906
 20
294.229093
 30
0.0
 11
1.037752597290181
 21
-0.3647869882787502
 31
0.0
210
0.0
220
0.0
230
1.0
 40
0.9986169999999999
 41
2.828108178481332
 42
4.406708292281308
  0
ELLIPSE
  5
172
330
1F
100
AcDbEntity
  8
1
100
AcDbEllipse
 10
394.981044
 20
288.908029
 30
0.0
 11
0.5272046920121787
 21
-12.49995994289048
 31
0.0
210
0.0
220
0.0
230
1.0
 40
0.019519
 41
3.241913992092059
 42
3.265960625975524
  0
ELLIPSE
  5
173
330
1F
100
AcDbEntity
  8
1
100
AcDbEllipse
 10
340.416747
 20
288.931398
 30
0.0
 11
716.1250534796607
 21
-0.6214577424207171
 31
0.0
210
0.0
220
0.0
230
0.9999999999999998
 40
0.017401
 41
1.495318697673706
 42
1.497758261514188
  0
ELLIPSE
  5
174
330
1F
100
AcDbEntity
  8
1
100
AcDbEllipse
 10
395.544071
 20
305.393773
 30
0.0
 11
-11.886984296233
 21
4.178469138465691
 31
0.0
210
0.0
220
0.0
230
0.9999999999999998
 40
0.9986169999999999
 41
1.484012314877394
 42
1.952887849140188
  0
ELLIPSE
  5
175
330
1F
100
AcDbEntity
  8
1
100
AcDbEllipse
 10
398.661812
 20
297.622315
 30
0.0
 11
-1.981164049372166
 21
0.6964115230776154
 31
0.0
210
0.0
220
0.0
230
1.0
 40
0.9986169999999999
 41
3.141686055608166
 42
6.283185307179585
  0
ELLIPSE
  5
176
330
1F
100
AcDbEntity
  8
1
100
AcDbEllipse
 10
398.647163
 20
297.580641
 30
0.0
 11
1.981164049372166
 21
-0.696411523077614
 31
0.0
210
0.0
220
0.0
230
0.9999999999999998
 40
0.9986169999999999
 41
0.0000933414325877
 42
3.141587824503793
  0
ELLIPSE
  5
177
330
1F
100
AcDbEntity
  8
1
100
AcDbEllipse
 10
398.200563
 20
296.503198
 30
0.0
 11
-0.0942521876921315
 21
0.0331311834599842
 31
0.0
210
0.0
220
0.0
230
0.9999999999999996
 40
0.9986169999999999
 41
5.292742901515639
 42
6.141678053926512
  0
ELLIPSE
  5
178
330
1F
100
AcDbEntity
  8
1
100
AcDbEllipse
 10
398.023275
 20
296.595347
 30
0.0
 11
-0.0942521876921316
 21
0.0331311834599843
 31
0.0
210
0.0
220
0.0
230
1.0
 40
0.9986169999999999
 41
1.627551472327722
 42
3.000085400336881
  0
ELLIPSE
  5
179
330
1F
100
AcDbEntity
  8
1
100
AcDbEllipse
 10
398.149659
 20
297.032896
 30
0.0
 11
-0.5245088146424637
 21
0.184373415512233
 31
0.0
210
0.0
220
0.0
230
0.9999999999999998
 40
0.9986169999999999
 41
0.707427899157797
 42
1.627551472327612
  0
ELLIPSE
  5
17A
330
1F
100
AcDbEntity
  8
1
100
AcDbEllipse
 10
397.724495
 20
296.868617
 30
0.0
 11
-0.0942521876921314
 21
0.0331311834599842
 31
0.0
210
0.0
220
0.0
230
0.9999999999999998
 40
0.9986169999999999
 41
5.618079278328087
 42
6.990613206337487
  0
ELLIPSE
  5
17B
330
1F
100
AcDbEntity
  8
1
100
AcDbEllipse
 10
397.617007
 20
297.036928
 30
0.0
 11
-0.0942521876921315
 21
0.0331311834599842
 31
0.0
210
0.0
220
0.0
230
0.9999999999999996
 40
0.9986169999999999
 41
2.476486624738495
 42
3.325421777149296
  0
ELLIPSE
  5
17C
330
1F
100
AcDbEntity
  8
1
100
AcDbEllipse
 10
397.1663910000001
 20
297.107082
 30
0.0
 11
-0.5245088146424635
 21
0.184373415512233
 31
0.0
210
0.0
220
0.0
230
1.0
 40
0.9986169999999999
 41
3.325421777149268
 42
4.245545350319171
  0
ELLIPSE
  5
17D
330
1F
100
AcDbEntity
  8
1
100
AcDbEllipse
 10
397.494908
 20
297.422697
 30
0.0
 11
-0.0942521876921315
 21
0.0331311834599842
 31
0.0
210
0.0
220
0.0
230
0.9999999999999996
 40
0.9986169999999999
 41
4.245545350319158
 42
5.094480502729851
  0
ELLIPSE
  5
17E
330
1F
100
AcDbEntity
  8
1
100
AcDbEllipse
 10
397.486021
 20
297.622073
 30
0.0
 11
-0.0942521876921316
 21
0.0331311834599843
 31
0.0
210
0.0
220
0.0
230
1.0
 40
0.9986169999999999
 41
0.5803539211311412
 42
1.952887849140138
  0
ELLIPSE
  5
17F
330
1F
100
AcDbEntity
  8
1
100
AcDbEllipse
 10
397.928646
 20
297.731186
 30
0.0
 11
-0.5245088146424637
 21
0.184373415512233
 31
0.0
210
0.0
220
0.0
230
0.9999999999999998
 40
0.9986169999999999
 41
5.943415655140802
 42
6.863539228310647
  0
ELLIPSE
  5
180
330
1F
100
AcDbEntity
  8
1
100
AcDbEllipse
 10
397.573321
 20
298.016975
 30
0.0
 11
-0.0942521876921314
 21
0.0331311834599842
 31
0.0
210
0.0
220
0.0
230
0.9999999999999998
 40
0.9986169999999999
 41
4.570881727131716
 42
5.943415655140847
  0
ELLIPSE
  5
181
330
1F
100
AcDbEntity
  8
1
100
AcDbEllipse
 10
397.665416
 20
298.193992
 30
0.0
 11
-0.0942521876921315
 21
0.0331311834599842
 31
0.0
210
0.0
220
0.0
230
0.9999999999999996
 40
0.9986169999999999
 41
1.429289073541793
 42
2.278224225952905
  0
ELLIPSE
  5
182
330
1F
100
AcDbEntity
  8
1
100
AcDbEllipse
 10
397.5005910000001
 20
298.618839
 30
0.0
 11
-0.5245088146424635
 21
0.184373415512233
 31
0.0
210
0.0
220
0.0
230
1.0
 40
0.9986169999999999
 41
2.278224225952689
 42
3.198347799122542
  0
SPLINE
  5
190
330
1F
100
AcDbEntity
  8
1
100
AcDbSpline
210
0.0
220
0.0
230
1.0
 70
     8
 71
     3
 72
    36
 73
    32
 74
     0
 42
0.000000001
 43
0.0000000001
 40
0.0
 40
0.0
 40
0.0
 40
0.0
 40
0.1249999999999791
 40
0.1249999999999791
 40
0.187499999999975
 40
0.187499999999975
 40
0.218749999999975
 40
0.218749999999975
 40
0.249999999999975
 40
0.249999999999975
 40
0.3750000000000048
 40
0.3750000000000048
 40
0.4062500000000141
 40
0.4062500000000141
 40
0.4375000000000232
 40
0.4375000000000232
 40
0.5000000000000384
 40
0.5000000000000384
 40
0.6250000000000177
 40
0.6250000000000177
 40
0.6562500000000114
 40
0.6562500000000114
 40
0.6875000000000052
 40
0.7499999999999904
 40
0.8124999999999758
 40
0.8124999999999758
 40
0.8437499999999683
 40
0.8437499999999683
 40
0.874999999999961
 40
0.874999999999961
 40
1.0
 40
1.0
 40
1.0
 40
1.0
 10
402.582930655959
 20
301.0704835357927
 30
0.0
 10
402.5806783585894
 20
301.1210117178804
 30
0.0
 10
402.5732631734335
 20
301.1704262323271
 30
0.0
 10
402.5549268721264
 20
301.2429920012103
 30
0.0
 10
402.5476021378437
 20
301.2669190180261
 30
0.0
 10
402.5347746794016
 20
301.3024125665686
 30
0.0
 10
402.5301776432167
 20
301.3142092495054
 30
0.0
 10
402.5204396044871
 20
301.3374784647702
 30
0.0
 10
402.5153010890671
 20
301.348950952885
 30
0.0
 10
402.4882924348046
 20
301.405521686899
 30
0.0
 10
402.4625135931969
 20
301.4482685922321
 30
0.0
 10
402.4251621738696
 20
301.498617476051
 30
0.0
 10
402.4174330527301
 20
301.5085315452517
 30
0.0
 10
402.4014493961412
 20
301.5280436125534
 30
0.0
 10
402.3931885465266
 20
301.5376457546779
 30
0.0
 10
402.3678784630694
 20
301.5656758362754
 30
0.0
 10
402.3502209360506
 20
301.5834338267865
 30
0.0
 10
402.294958254157
 20
301.633995410335
 30
0.0
 10
402.2550862025859
 20
301.664114098296
 30
0.0
 10
402.2013153716597
 20
301.6971068712297
 30
0.0
 10
402.1903598392017
 20
301.7034695494191
 30
0.0
 10
402.1682899622531
 20
301.715584189878
 30
0.0
 10
402.1348583400452
 20
301.7328951853558
 30
0.0
 10
402.0775306577153
 20
301.7575097823158
 30
0.0
 10
402.0299589544992
 20
301.7726976690398
 30
0.0
 10
401.9936213326622
 20
301.78235287309
 30
0.0
 10
401.9813987750744
 20
301.7852814371632
 30
0.0
 10
401.9567279233966
 20
301.7905438675133
 30
0.0
 10
401.9442665127685
 20
301.7928782256151
 30
0.0
 10
401.8819851897982
 20
301.8029301076353
 30
0.0
 10
401.8317929392323
 20
301.8059485807157
 30
0.0
 10
401.7812187842227
 20
301.8037427639066
 30
0.0
  0
SPLINE
  5
191
330
1F
100
AcDbEntity
  8
1
100
AcDbSpline
210
0.0
220
0.0
230
1.0
 70
     8
 71
     3
 72
    36
 73
    32
 74
     0
 42
0.000000001
 43
0.0000000001
 40
0.0
 40
0.0
 40
0.0
 40
0.0
 40
0.1249999999999714
 40
0.1249999999999714
 40
0.1874999999999739
 40
0.1874999999999739
 40
0.2187499999999752
 40
0.2187499999999752
 40
0.2499999999999764
 40
0.2499999999999764
 40
0.374999999999987
 40
0.374999999999987
 40
0.4062499999999815
 40
0.4062499999999815
 40
0.4374999999999759
 40
0.4374999999999759
 40
0.4999999999999646
 40
0.4999999999999646
 40
0.6249999999999689
 40
0.6249999999999689
 40
0.6562499999999798
 40
0.6562499999999798
 40
0.6874999999999907
 40
0.7499999999999974
 40
0.812500000000004
 40
0.812500000000004
 40
0.843750000000003
 40
0.843750000000003
 40
0.8750000000000021
 40
0.8750000000000021
 40
1.0
 40
1.0
 40
1.0
 40
1.0
 10
395.3883503602069
 20
301.5249146426214
 30
0.0
 10
395.3377695271926
 20
301.522708534548
 30
0.0
 10
395.2883080365653
 20
301.5153441434049
 30
0.0
 10
395.2156797320964
 20
301.4970904667711
 30
0.0
 10
395.1917332029422
 20
301.4897943555792
 30
0.0
 10
395.1562124087051
 20
301.4770114731658
 30
0.0
 10
395.1444069593398
 20
301.4724296122748
 30
0.0
 10
395.1211210326001
 20
301.4627222301799
 30
0.0
 10
395.1096405973327
 20
301.4575991933795
 30
0.0
 10
395.0530321228697
 20
301.4306686662124
 30
0.0
 10
395.0102613502518
 20
301.4049546530261
 30
0.0
 10
394.9598904067229
 20
301.3676871291189
 30
0.0
 10
394.9499723180053
 20
301.3599749314213
 30
0.0
 10
394.9304530082538
 20
301.3440254147478
 30
0.0
 10
394.9208476441871
 20
301.3357817920069
 30
0.0
 10
394.8928091925617
 20
301.3105232858715
 30
0.0
 10
394.8750473047321
 20
301.2929001852595
 30
0.0
 10
394.8244789436094
 20
301.2377409038637
 30
0.0
 10
394.7943622399793
 20
301.1979379464317
 30
0.0
 10
394.7613803825825
 20
301.1442536913412
 30
0.0
 10
394.7550203167848
 20
301.1333154869841
 30
0.0
 10
394.7429116985965
 20
301.1112799086396
 30
0.0
 10
394.7256109499262
 20
301.0778993412285
 30
0.0
 10
394.7010192629903
 20
301.0206548685589
 30
0.0
 10
394.6858563027974
 20
300.9731475813883
 30
0.0
 10
394.6762221352495
 20
300.9368575187787
 30
0.0
 10
394.6733009918261
 20
300.9246506819293
 30
0.0
 10
394.6680542409131
 20
300.9000110001947
 30
0.0
 10
394.6657281524269
 20
300.887565053346
 30
0.0
 10
394.6557193466988
 20
300.8253596186015
 30
0.0
 10
394.6527410806227
 20
300.7752241245274
 30
0.0
 10
394.6549930806297
 20
300.7247026134932
 30
0.0
  0
SPLINE
  5
192
330
1F
100
AcDbEntity
  8
1
100
AcDbSpline
210
0.0
220
0.0
230
1.0
 70
     8
 71
     3
 72
    36
 73
    32
 74
     0
 42
0.000000001
 43
0.0000000001
 40
0.0
 40
0.0
 40
0.0
 40
0.0
 40
0.1250000000000407
 40
0.1250000000000407
 40
0.1875000000000622
 40
0.1875000000000622
 40
0.2187500000000739
 40
0.2187500000000739
 40
0.2500000000000856
 40
0.2500000000000856
 40
0.3750000000001157
 40
0.3750000000001157
 40
0.4062500000001227
 40
0.4062500000001227
 40
0.4375000000001298
 40
0.4375000000001298
 40
0.5000000000001209
 40
0.5000000000001209
 40
0.6250000000001017
 40
0.6250000000001017
 40
0.6562500000000967
 40
0.6562500000000967
 40
0.6875000000000914
 40
0.7500000000000803
 40
0.8125000000000691
 40
0.8125000000000691
 40
0.8437500000000632
 40
0.8437500000000632
 40
0.8750000000000573
 40
0.8750000000000573
 40
1.0
 40
1.0
 40
1.0
 40
1.0
 10
394.9396590277482
 20
294.3384886952664
 30
0.0
 10
394.9419113251179
 20
294.2879605131787
 30
0.0
 10
394.9493265102739
 20
294.2385459987321
 30
0.0
 10
394.9676628115808
 20
294.1659802298488
 30
0.0
 10
394.9749875458637
 20
294.1420532130329
 30
0.0
 10
394.9878150043057
 20
294.1065596644905
 30
0.0
 10
394.9924120404907
 20
294.0947629815537
 30
0.0
 10
395.0021500792203
 20
294.0714937662889
 30
0.0
 10
395.0072885946402
 20
294.0600212781741
 30
0.0
 10
395.0342972489025
 20
294.0034505441601
 30
0.0
 10
395.0600760905103
 20
293.9607036388271
 30
0.0
 10
395.0974275098378
 20
293.9103547550081
 30
0.0
 10
395.105156630977
 20
293.9004406858073
 30
0.0
 10
395.121140287566
 20
293.8809286185055
 30
0.0
 10
395.1294011371807
 20
293.8713264763812
 30
0.0
 10
395.1547112206379
 20
293.8432963947837
 30
0.0
 10
395.1723687476567
 20
293.8255384042725
 30
0.0
 10
395.2276314295503
 20
293.7749768207241
 30
0.0
 10
395.2675034811213
 20
293.7448581327631
 30
0.0
 10
395.3212743120474
 20
293.7118653598293
 30
0.0
 10
395.3322298445054
 20
293.70550268164
 30
0.0
 10
395.3542997214541
 20
293.6933880411811
 30
0.0
 10
395.3877313436622
 20
293.6760770457033
 30
0.0
 10
395.4450590259918
 20
293.6514624487434
 30
0.0
 10
395.492630729208
 20
293.6362745620193
 30
0.0
 10
395.528968351045
 20
293.6266193579692
 30
0.0
 10
395.5411909086329
 20
293.6236907938959
 30
0.0
 10
395.5658617603108
 20
293.6184283635458
 30
0.0
 10
395.5783231709387
 20
293.6160940054439
 30
0.0
 10
395.640604493909
 20
293.6060421234238
 30
0.0
 10
395.6907967444751
 20
293.6030236503435
 30
0.0
 10
395.7413708994845
 20
293.6052294671524
 30
0.0
  0
SPLINE
  5
193
330
1F
100
AcDbEntity
  8
1
100
AcDbSpline
210
0.0
220
0.0
230
1.0
 70
     8
 71
     3
 72
    36
 73
    32
 74
     0
 42
0.000000001
 43
0.0000000001
 40
0.0
 40
0.0
 40
0.0
 40
0.0
 40
0.1250000000000047
 40
0.1250000000000047
 40
0.1875000000000073
 40
0.1875000000000073
 40
0.2187499999999766
 40
0.2187499999999766
 40
0.2499999999999458
 40
0.2499999999999458
 40
0.3749999999999477
 40
0.3749999999999477
 40
0.4062499999999213
 40
0.4062499999999213
 40
0.4374999999998951
 40
0.4374999999998951
 40
0.4999999999998423
 40
0.4999999999998423
 40
0.6249999999997839
 40
0.6249999999997839
 40
0.6562499999997958
 40
0.6562499999997958
 40
0.6874999999998077
 40
0.7499999999998638
 40
0.8124999999999198
 40
0.8124999999999198
 40
0.843749999999939
 40
0.843749999999939
 40
0.8749999999999582
 40
0.8749999999999582
 40
1.0
 40
1.0
 40
1.0
 40
1.0
 10
402.1342393235003
 20
293.8840575884377
 30
0.0
 10
402.1848201565147
 20
293.8862636965111
 30
0.0
 10
402.2342816471418
 20
293.8936280876542
 30
0.0
 10
402.3069099516107
 20
293.9118817642881
 30
0.0
 10
402.3308564807651
 20
293.9191778754799
 30
0.0
 10
402.3663772750022
 20
293.9319607578933
 30
0.0
 10
402.3781827243674
 20
293.9365426187844
 30
0.0
 10
402.4014686511071
 20
293.9462500008793
 30
0.0
 10
402.4129490863745
 20
293.9513730376796
 30
0.0
 10
402.4695575608374
 20
293.9783035648467
 30
0.0
 10
402.5123283334552
 20
294.004017578033
 30
0.0
 10
402.5626992769843
 20
294.0412851019402
 30
0.0
 10
402.572617365702
 20
294.0489972996378
 30
0.0
 10
402.5921366754535
 20
294.0649468163114
 30
0.0
 10
402.6017420395203
 20
294.0731904390522
 30
0.0
 10
402.6297804911456
 20
294.0984489451876
 30
0.0
 10
402.6475423789752
 20
294.1160720457996
 30
0.0
 10
402.6981107400978
 20
294.1712313271955
 30
0.0
 10
402.7282274437281
 20
294.2110342846273
 30
0.0
 10
402.7612093011247
 20
294.2647185397179
 30
0.0
 10
402.7675693669225
 20
294.2756567440749
 30
0.0
 10
402.7796779851108
 20
294.2976923224195
 30
0.0
 10
402.7969787337809
 20
294.3310728898307
 30
0.0
 10
402.8215704207171
 20
294.3883173625001
 30
0.0
 10
402.8367333809098
 20
294.4358246496708
 30
0.0
 10
402.8463675484577
 20
294.4721147122805
 30
0.0
 10
402.8492886918813
 20
294.4843215491299
 30
0.0
 10
402.854535442794
 20
294.5089612308645
 30
0.0
 10
402.8568615312805
 20
294.5214071777132
 30
0.0
 10
402.8668703370085
 20
294.5836126124576
 30
0.0
 10
402.8698486030846
 20
294.6337481065317
 30
0.0
 10
402.8675966030776
 20
294.6842696175659
 30
0.0
  0
SPLINE
  5
194
330
1F
100
AcDbEntity
  8
1
100
AcDbSpline
210
0.0
220
0.0
230
1.0
 70
     8
 71
     3
 72
    26
 73
    22
 74
     0
 42
0.000000001
 43
0.0000000001
 40
0.0
 40
0.0
 40
0.0
 40
0.0
 40
0.1250000000000001
 40
0.1250000000000001
 40
0.2500000000000003
 40
0.2500000000000003
 40
0.3750000000000004
 40
0.3750000000000004
 40
0.5000000000000006
 40
0.5000000000000006
 40
0.6250000000000007
 40
0.6250000000000007
 40
0.6562500000000006
 40
0.6562500000000006
 40
0.6875000000000004
 40
0.6875000000000004
 40
0.75
 40
0.75
 40
0.8750000000000001
 40
0.8750000000000001
 40
1.0
 40
1.0
 40
1.0
 40
1.0
 10
293.1273427905593
 20
276.4827838776066
 30
0.0
 10
292.8043536915441
 20
276.4868114730456
 30
0.0
 10
292.4859038068969
 20
276.4831922569106
 30
0.0
 10
291.8568151475232
 20
276.4627951410215
 30
0.0
 10
291.5461806292915
 20
276.4460100707282
 30
0.0
 10
290.9319002034316
 20
276.4006668381222
 30
0.0
 10
290.6282571981174
 20
276.372103786539
 30
0.0
 10
290.0274645462985
 20
276.3040388980947
 30
0.0
 10
289.7303168674517
 20
276.2645337464951
 30
0.0
 10
289.1422752710614
 20
276.1749882866727
 30
0.0
 10
288.8513826394849
 20
276.1249458120947
 30
0.0
 10
288.4916555326917
 20
276.0558418003004
 30
0.0
 10
288.4199050070841
 20
276.0416926743674
 30
0.0
 10
288.2767950023315
 20
276.0127356612329
 30
0.0
 10
288.2054021906439
 20
275.9979205191834
 30
0.0
 10
287.9921530358142
 20
275.952555339329
 30
0.0
 10
287.8511826670397
 20
275.92107894414
 30
0.0
 10
287.4318488208018
 20
275.8229611853677
 30
0.0
 10
287.1570566422527
 20
275.7526373952437
 30
0.0
 10
286.6171062713825
 20
275.6020560493183
 30
0.0
 10
286.3519491189094
 20
275.5217974213119
 30
0.0
 10
286.0917529760444
 20
275.4364234126307
 30
0.0
  0
SPLINE
  5
195
330
1F
100
AcDbEntity
  8
1
100
AcDbSpline
210
0.0
220
0.0
230
1.0
 70
     8
 71
     3
 72
    33
 73
    29
 74
     0
 42
0.000000001
 43
0.0000000001
 40
0.0
 40
0.0
 40
0.0
 40
0.0
 40
0.1249999999999995
 40
0.1249999999999995
 40
0.2499999999999991
 40
0.2499999999999991
 40
0.3749999999999986
 40
0.3749999999999986
 40
0.4062499999999984
 40
0.4062499999999984
 40
0.4218749999999984
 40
0.4218749999999984
 40
0.4374999999999984
 40
0.4999999999999994
 40
0.4999999999999994
 40
0.6250000000000018
 40
0.6250000000000018
 40
0.6875000000000031
 40
0.6875000000000031
 40
0.7187500000000036
 40
0.7187500000000036
 40
0.7343750000000037
 40
0.7343750000000037
 40
0.7500000000000038
 40
0.7500000000000038
 40
0.8750000000000019
 40
0.8750000000000019
 40
1.0
 40
1.0
 40
1.0
 40
1.0
 10
283.8043368819075
 20
284.9392532841512
 30
0.0
 10
284.100922174465
 20
285.1530460394897
 30
0.0
 10
284.4101829379948
 20
285.3522951989574
 30
0.0
 10
285.054770083673
 20
285.7212006325099
 30
0.0
 10
285.3900890414569
 20
285.8908698242511
 30
0.0
 10
286.0885566151252
 20
286.198774342215
 30
0.0
 10
286.4516897162797
 20
286.337036837221
 30
0.0
 10
286.924967428677
 20
286.4878699490666
 30
0.0
 10
287.020595185492
 20
286.5169307861625
 30
0.0
 10
287.1655459936002
 20
286.5587984931805
 30
0.0
 10
287.2141457032132
 20
286.5724751072188
 30
0.0
 10
287.3115419475826
 20
286.5991569714897
 30
0.0
 10
287.5556803758731
 20
286.6642288904655
 30
0.0
 10
287.8030635826885
 20
286.7211042756472
 30
0.0
 10
288.4031093687813
 20
286.8413462517624
 30
0.0
 10
288.8115625168268
 20
286.8999233079632
 30
0.0
 10
289.4375046394235
 20
286.9517869605068
 30
0.0
 10
289.648365663403
 20
286.963052118965
 30
0.0
 10
289.9680807520182
 20
286.9702331812764
 30
0.0
 10
290.0752231849797
 20
286.9710056766757
 30
0.0
 10
290.2368068863714
 20
286.9696305490009
 30
0.0
 10
290.2908598776841
 20
286.9687479107906
 30
0.0
 10
290.3988068624387
 20
286.9661329637203
 30
0.0
 10
290.4527445350085
 20
286.9644010097335
 30
0.0
 10
290.9378519374802
 20
286.9449847111755
 30
0.0
 10
291.36671912673
 20
286.9005597637283
 30
0.0
 10
292.2184558821879
 20
286.7555153915903
 30
0.0
 10
292.6413213744118
 20
286.6548554607923
 30
0.0
 10
293.060320121217
 20
286.524725142077
 30
0.0
  0
SPLINE
  5
196
330
1F
100
AcDbEntity
  8
1
100
AcDbSpline
210
0.0
220
0.0
230
1.0
 70
     8
 71
     3
 72
     8
 73
     4
 74
     0
 42
0.000000001
 43
0.0000000001
 40
0.0
 40
0.0
 40
0.0
 40
0.0
 40
1.0
 40
1.0
 40
1.0
 40
1.0
 10
398.0595593675895
 20
298.5351967540628
 30
0.0
 10
398.0567510524307
 20
298.5254485194264
 30
0.0
 10
398.0536774117353
 20
298.5157968123486
 30
0.0
 10
398.0503365907454
 20
298.5062410161392
 30
0.0
  0
SPLINE
  5
197
330
1F
100
AcDbEntity
  8
1
100
AcDbSpline
210
0.0
220
0.0
230
1.0
 70
     8
 71
     3
 72
    22
 73
    18
 74
     0
 42
0.000000001
 43
0.0000000001
 40
0.0
 40
0.0
 40
0.0
 40
0.0
 40
0.2500000000000334
 40
0.2500000000000334
 40
0.5000000000000667
 40
0.5000000000000667
 40
0.5625000000000712
 40
0.5625000000000712
 40
0.5937500000000695
 40
0.5937500000000695
 40
0.6250000000000677
 40
0.6250000000000677
 40
0.7500000000000452
 40
0.8750000000000223
 40
0.9375000000000111
 40
0.9375000000000111
 40
1.0
 40
1.0
 40
1.0
 40
1.0
 10
396.1033236838497
 20
292.8179365079416
 30
0.0
 10
395.669851414392
 20
292.7989331398318
 30
0.0
 10
395.2381166079156
 20
292.8021121608688
 30
0.0
 10
394.3780458597901
 20
292.8518180071094
 30
0.0
 10
393.9497100258643
 20
292.8983466575541
 30
0.0
 10
393.4164364420259
 20
292.9838271462985
 30
0.0
 10
393.3098893066277
 20
293.00229256948
 30
0.0
 10
393.1502312125842
 20
293.0320590989802
 30
0.0
 10
393.0970235111685
 20
293.0423294043126
 30
0.0
 10
392.9908469213929
 20
293.0635246195428
 30
0.0
 10
392.9378578221139
 20
293.0744530896193
 30
0.0
 10
392.6734068265798
 20
293.1307440992063
 30
0.0
 10
392.2534480115634
 20
293.231354697573
 30
0.0
 10
391.7363528359987
 20
293.383249034823
 30
0.0
 10
391.4296346919156
 20
293.4861319633374
 30
0.0
 10
391.2259459203312
 20
293.5573387516823
 30
0.0
 10
391.1244322895365
 20
293.5942763687261
 30
0.0
 10
391.0235791433444
 20
293.6324259101353
 30
0.0
  0
SPLINE
  5
198
330
1F
100
AcDbEntity
  8
1
100
AcDbSpline
210
0.0
220
0.0
230
1.0
 70
     8
 71
     3
 72
    24
 73
    20
 74
     0
 42
0.000000001
 43
0.0000000001
 40
0.0
 40
0.0
 40
0.0
 40
0.0
 40
0.1250000000000159
 40
0.1250000000000159
 40
0.2500000000000318
 40
0.2500000000000318
 40
0.3750000000000476
 40
0.3750000000000476
 40
0.5000000000000635
 40
0.5000000000000635
 40
0.5312500000000632
 40
0.5312500000000632
 40
0.5625000000000627
 40
0.6250000000000563
 40
0.6250000000000563
 40
0.7500000000000375
 40
0.8750000000000188
 40
0.8750000000000188
 40
1.0
 40
1.0
 40
1.0
 40
1.0
 10
389.5510988831481
 20
292.0869130805702
 30
0.0
 10
389.7981887183572
 20
291.9356443658673
 30
0.0
 10
390.0499595407214
 20
291.794236251551
 30
0.0
 10
390.5625717133252
 20
291.5309458296927
 30
0.0
 10
390.8234130713178
 20
291.4090628480768
 30
0.0
 10
391.3540116245207
 20
291.1848509487007
 30
0.0
 10
391.6237685142753
 20
291.0825208943437
 30
0.0
 10
392.1721839315434
 20
290.8976939867382
 30
0.0
 10
392.4508417657621
 20
290.8151953070495
 30
0.0
 10
392.8048156557161
 20
290.7248261256379
 30
0.0
 10
392.8759659978987
 20
290.7073742048011
 30
0.0
 10
393.0184024884963
 20
290.6738600133618
 30
0.0
 10
393.2322581427602
 20
290.6256684891273
 30
0.0
 10
393.4467106978762
 20
290.5836652909966
 30
0.0
 10
393.876399935575
 20
290.5078098467821
 30
0.0
 10
394.4514073564047
 20
290.4283811656054
 30
0.0
 10
395.0305301099676
 20
290.3918992589363
 30
0.0
 10
395.6117210841266
 20
290.3770385233948
 30
0.0
 10
395.9033505625998
 20
290.3804176038656
 30
0.0
 10
396.1960409468133
 20
290.3948838060046
 30
0.0
  0
SPLINE
  5
199
330
1F
100
AcDbEntity
  8
1
100
AcDbSpline
210
0.0
220
0.0
230
1.0
 70
     8
 71
     3
 72
     8
 73
     4
 74
     0
 42
0.000000001
 43
0.0000000001
 40
0.0
 40
0.0
 40
0.0
 40
0.0
 40
1.0
 40
1.0
 40
1.0
 40
1.0
 10
396.1033236838497
 20
292.8179365079416
 30
0.0
 10
396.1065897821574
 20
292.8180796932681
 30
0.0
 10
396.1098564866132
 20
292.8182225388217
 30
0.0
 10
396.1131237978976
 20
292.818365044221
 30
0.0
  0
SPLINE
  5
19A
330
1F
100
AcDbEntity
  8
1
100
AcDbSpline
210
0.0
220
0.0
230
1.0
 70
     8
 71
     3
 72
    25
 73
    21
 74
     0
 42
0.000000001
 43
0.0000000001
 40
0.0
 40
0.0
 40
0.0
 40
0.0
 40
0.1250000000000086
 40
0.1250000000000086
 40
0.2500000000000172
 40
0.2500000000000172
 40
0.3750000000000258
 40
0.3750000000000258
 40
0.5000000000000345
 40
0.5000000000000345
 40
0.5312500000000349
 40
0.5312500000000349
 40
0.5625000000000355
 40
0.6250000000000302
 40
0.6250000000000302
 40
0.7500000000000203
 40
0.7500000000000203
 40
0.8750000000000101
 40
0.8750000000000101
 40
1.0
 40
1.0
 40
1.0
 40
1.0
 10
395.4678419452958
 20
290.7564923262603
 30
0.0
 10
395.2029354576329
 20
290.7603866032682
 30
0.0
 10
394.9405743964252
 20
290.7700048597125
 30
0.0
 10
394.4201991377217
 20
290.8012318032343
 30
0.0
 10
394.1621852546225
 20
290.8228427878272
 30
0.0
 10
393.6499277070259
 20
290.8787060397197
 30
0.0
 10
393.3956849902913
 20
290.9129581919976
 30
0.0
 10
392.8905403961916
 20
290.9948243316687
 30
0.0
 10
392.6396394704146
 20
291.0424371052234
 30
0.0
 10
392.3279059803065
 20
291.110813252231
 30
0.0
 10
392.2656170070064
 20
291.124942033085
 30
0.0
 10
392.1415629036941
 20
291.1540238404878
 30
0.0
 10
391.9561694465071
 20
291.1989019302542
 30
0.0
 10
391.7727812057324
 20
291.2475664170336
 30
0.0
 10
391.4085478495638
 20
291.3500082272217
 30
0.0
 10
391.1691102935514
 20
291.4251156052703
 30
0.0
 10
390.6964813649281
 20
291.5893946141809
 30
0.0
 10
390.4632916616066
 20
291.6785651272963
 30
0.0
 10
390.0028169167343
 20
291.8715576226611
 30
0.0
 10
389.7755329211366
 20
291.9753779749279
 30
0.0
 10
389.5510988831481
 20
292.0869130805703
 30
0.0
  0
SPLINE
  5
19B
330
1F
100
AcDbEntity
  8
1
100
AcDbSpline
210
0.0
220
0.0
230
1.0
 70
     8
 71
     3
 72
    22
 73
    18
 74
     0
 42
0.000000001
 43
0.0000000001
 40
0.0
 40
0.0
 40
0.0
 40
0.0
 40
0.2500000000000001
 40
0.2500000000000001
 40
0.3750000000000002
 40
0.3750000000000002
 40
0.5000000000000004
 40
0.5000000000000004
 40
0.6250000000000005
 40
0.6250000000000005
 40
0.6875000000000005
 40
0.6875000000000005
 40
0.7500000000000006
 40
0.7500000000000006
 40
0.8750000000000003
 40
0.8750000000000003
 40
1.0
 40
1.0
 40
1.0
 40
1.0
 10
283.8043368819075
 20
284.9392532841512
 30
0.0
 10
283.4074611159523
 20
284.6531663956242
 30
0.0
 10
283.0166596588802
 20
284.348758781759
 30
0.0
 10
282.4404198320569
 20
283.8596273184775
 30
0.0
 10
282.2500014518496
 20
283.6911487513354
 30
0.0
 10
281.8726513800992
 20
283.3422399539323
 30
0.0
 10
281.6857192132358
 20
283.1618129097188
 30
0.0
 10
281.3155309240794
 20
282.7876809314293
 30
0.0
 10
281.1322739715492
 20
282.5939813713611
 30
0.0
 10
280.8603215375138
 20
282.2921999364718
 30
0.0
 10
280.7701599865272
 20
282.1897307233865
 30
0.0
 10
280.5908517513294
 20
281.9807764450027
 30
0.0
 10
280.5015981437521
 20
281.8741533472449
 30
0.0
 10
280.2371190983727
 20
281.5499166062744
 30
0.0
 10
280.0647047173571
 20
281.3274349362064
 30
0.0
 10
279.7282679294569
 20
280.8684552052868
 30
0.0
 10
279.5642401946338
 20
280.6319676552877
 30
0.0
 10
279.4048419452955
 20
280.3874960441318
 30
0.0
  0
SPLINE
  5
19C
330
1F
100
AcDbEntity
  8
1
100
AcDbSpline
210
0.0
220
0.0
230
1.0
 70
     8
 71
     3
 72
    30
 73
    26
 74
     0
 42
0.000000001
 43
0.0000000001
 40
0.0
 40
0.0
 40
0.0
 40
0.0
 40
0.124999999999988
 40
0.124999999999988
 40
0.2499999999999759
 40
0.2499999999999759
 40
0.3124999999999859
 40
0.3124999999999859
 40
0.3749999999999959
 40
0.3749999999999959
 40
0.5000000000000496
 40
0.5000000000000496
 40
0.5625000000000595
 40
0.5625000000000595
 40
0.6250000000000694
 40
0.6250000000000694
 40
0.7500000000000572
 40
0.7500000000000572
 40
0.8125000000000509
 40
0.8125000000000509
 40
0.8437500000000328
 40
0.8437500000000328
 40
0.8750000000000145
 40
0.8750000000000145
 40
1.0
 40
1.0
 40
1.0
 40
1.0
 10
396.0947019183747
 20
293.2579227501227
 30
0.0
 10
396.0485221190568
 20
293.2333098252481
 30
0.0
 10
396.0011799269194
 20
293.2122205628398
 30
0.0
 10
395.9041407233397
 20
293.1768403243463
 30
0.0
 10
395.854443690309
 20
293.1625505526145
 30
0.0
 10
395.7780023507538
 20
293.1463965648131
 30
0.0
 10
395.7520938951294
 20
293.1418844619857
 30
0.0
 10
395.7003745144082
 20
293.1347946668573
 30
0.0
 10
395.6745270424621
 20
293.1322001987597
 30
0.0
 10
395.5970231045947
 20
293.1272104543826
 30
0.0
 10
395.5454055783997
 20
293.1275968503959
 30
0.0
 10
395.4680559397035
 20
293.1337417271681
 30
0.0
 10
395.4422853861665
 20
293.1367205602074
 30
0.0
 10
395.3907680659153
 20
293.1445765147508
 30
0.0
 10
395.3649940802255
 20
293.1494689448138
 30
0.0
 10
395.288964859412
 20
293.166750046265
 30
0.0
 10
395.2395680440006
 20
293.1817790840541
 30
0.0
 10
395.1672388275256
 20
293.2094370317623
 30
0.0
 10
395.1434244559655
 20
293.2195124781944
 30
0.0
 10
395.1081339535367
 20
293.2359256699878
 30
0.0
 10
395.0964423562587
 20
293.2416136474742
 30
0.0
 10
395.0732016984819
 20
293.253429147399
 30
0.0
 10
395.0616310525045
 20
293.2595689210994
 30
0.0
 10
395.0044510057227
 20
293.2912070015523
 30
0.0
 10
394.9608638853093
 20
293.3194818862482
 30
0.0
 10
394.9193609848483
 20
293.3505965877367
 30
0.0
  0
SPLINE
  5
19D
330
1F
100
AcDbEntity
  8
1
100
AcDbSpline
210
0.0
220
0.0
230
1.0
 70
     8
 71
     3
 72
    10
 73
     6
 74
     0
 42
0.000000001
 43
0.0000000001
 40
0.0
 40
0.0
 40
0.0
 40
0.0
 40
0.5
 40
0.5
 40
1.0
 40
1.0
 40
1.0
 40
1.0
 10
393.1504170103923
 20
298.0622768017572
 30
0.0
 10
393.0625539776674
 20
298.6027531181956
 30
0.0
 10
392.9804690824584
 20
299.1440469519156
 30
0.0
 10
392.8260265357134
 20
300.2280108742099
 30
0.0
 10
392.7536709389763
 20
300.7706812535065
 30
0.0
 10
392.6854288337868
 20
301.3139336283714
 30
0.0
  0
SPLINE
  5
19E
330
1F
100
AcDbEntity
  8
1
100
AcDbSpline
210
0.0
220
0.0
230
1.0
 70
     8
 71
     3
 72
    39
 73
    35
 74
     0
 42
0.000000001
 43
0.0000000001
 40
0.0
 40
0.0
 40
0.0
 40
0.0
 40
0.0575291240205233
 40
0.0575291240205233
 40
0.1150582480410467
 40
0.17258737206157
 40
0.17258737206157
 40
0.2013519340718316
 40
0.2013519340718316
 40
0.2301164960820933
 40
0.2301164960820933
 40
0.2876456201026175
 40
0.2876456201026175
 40
0.3451747441231416
 40
0.3451747441231416
 40
0.4027038681436658
 40
0.4027038681436658
 40
0.4314684301539283
 40
0.4314684301539283
 40
0.4602329921641907
 40
0.4602329921641907
 40
0.5752912402052398
 40
0.5752912402052398
 40
0.690349488246289
 40
0.690349488246289
 40
0.7478786122668139
 40
0.7478786122668139
 40
0.8054077362873389
 40
0.8054077362873389
 40
0.9204659843283888
 40
0.9204659843283888
 40
0.9779951083489139
 40
0.9779951083489139
 40
1.0
 40
1.0
 40
1.0
 40
1.0
 10
392.685428833787
 20
301.3139336283406
 30
0.0
 10
391.7409121288345
 20
301.3470233965987
 30
0.0
 10
390.7931383604529
 20
301.369753107645
 30
0.0
 10
388.8913658451309
 20
301.3995218697585
 30
0.0
 10
386.9833681282221
 20
301.4135979949752
 30
0.0
 10
385.0638714275238
 20
301.4044636724994
 30
0.0
 10
383.6204341664771
 20
301.3912821769746
 30
0.0
 10
383.1386540875673
 20
301.3858260218379
 30
0.0
 10
382.1739255204772
 20
301.3730982474855
 30
0.0
 10
381.690929300295
 20
301.3658258178639
 30
0.0
 10
380.2406827723107
 20
301.3416683054947
 30
0.0
 10
379.2725575658929
 20
301.3224796929791
 30
0.0
 10
377.3343574721168
 20
301.2792718230122
 30
0.0
 10
376.3642829697216
 20
301.2552522094757
 30
0.0
 10
374.4229532095957
 20
301.2027866261266
 30
0.0
 10
373.4516984329858
 20
301.174341254156
 30
0.0
 10
371.9945948925388
 20
301.1279576655687
 30
0.0
 10
371.508860889371
 20
301.1118654560705
 30
0.0
 10
370.5374258188767
 20
301.0782923759509
 30
0.0
 10
370.0517165001714
 20
301.0608211016411
 30
0.0
 10
367.6232263704715
 20
300.9699931533614
 30
0.0
 10
365.6805773673651
 20
300.8862459631637
 30
0.0
 10
361.7968720141662
 20
300.6948180098363
 30
0.0
 10
359.8557171520509
 20
300.5871114363042
 30
0.0
 10
356.9450931775914
 20
300.4060695870356
 30
0.0
 10
355.975067141634
 20
300.3424772294769
 30
0.0
 10
354.0353796949981
 20
300.2085278278889
 30
0.0
 10
353.0656558646462
 20
300.1381697913028
 30
0.0
 10
350.1575786005455
 20
299.9164251585198
 30
0.0
 10
348.2203583954298
 20
299.7545256151064
 30
0.0
 10
345.3176499287927
 20
299.4859355947883
 30
0.0
 10
344.3505804205967
 20
299.3921503017718
 30
0.0
 10
343.0142302031095
 20
299.2564940675321
 30
0.0
 10
342.6445648477927
 20
299.2183255986582
 30
0.0
 10
342.2749605034723
 20
299.1795259069928
 30
0.0
  0
SPLINE
  5
19F
330
1F
100
AcDbEntity
  8
1
100
AcDbSpline
210
0.0
220
0.0
230
1.0
 70
    28
 71
     4
 72
    13
 73
     8
 74
     0
 42
0.000000001
 43
0.0000000001
 40
0.0
 40
0.0
 40
0.0
 40
0.0
 40
0.0
 40
0.3014264382857276
 40
0.3014264382857276
 40
0.3014264382857276
 40
1.0
 40
1.0
 40
1.0
 40
1.0
 40
1.0
 10
297.9048419452957
 20
284.9492235761227
 30
0.0
 41
0.9975159322786961
 10
297.9048419452957
 20
284.35667719991
 30
0.0
 41
0.9982924471087779
 10
297.9048419452957
 20
283.7179043096187
 30
0.0
 41
0.9997776952578941
 10
297.9048419452957
 20
283.0569099885388
 30
0.0
 41
1.001498006703475
 10
297.9048419452957
 20
280.8940694699869
 30
0.0
 41
1.001498006703475
 10
297.9048419452957
 20
279.1527029705445
 30
0.0
 41
0.9922580766080359
 10
297.9048419452957
 20
277.5796432684637
 30
0.0
 41
0.998118319388857
 10
297.9048419452957
 20
276.4085415761222
 30
0.0
 41
1.000673881684734
  0
SPLINE
  5
1A0
330
1F
100
AcDbEntity
  8
1
100
AcDbSpline
210
0.0
220
0.0
230
1.0
 70
     8
 71
     3
 72
    52
 73
    48
 74
     0
 42
0.000000001
 43
0.0000000001
 40
0.0
 40
0.0
 40
0.0
 40
0.0
 40
0.0624999999999997
 40
0.0624999999999997
 40
0.1249999999999995
 40
0.1249999999999995
 40
0.1562499999999994
 40
0.1562499999999994
 40
0.1874999999999994
 40
0.1874999999999994
 40
0.2499999999999992
 40
0.2499999999999992
 40
0.3124999999999989
 40
0.3124999999999989
 40
0.3749999999999986
 40
0.3749999999999986
 40
0.4062499999999986
 40
0.4062499999999986
 40
0.4374999999999986
 40
0.4374999999999986
 40
0.4687499999999986
 40
0.4687499999999986
 40
0.4999999999999986
 40
0.4999999999999986
 40
0.5312499999999986
 40
0.5312499999999986
 40
0.5468749999999986
 40
0.5468749999999986
 40
0.5624999999999986
 40
0.5624999999999986
 40
0.5937499999999984
 40
0.5937499999999984
 40
0.6249999999999984
 40
0.6249999999999984
 40
0.6874999999999984
 40
0.6874999999999984
 40
0.7499999999999984
 40
0.7499999999999984
 40
0.7812499999999986
 40
0.7812499999999986
 40
0.8124999999999987
 40
0.8124999999999987
 40
0.8749999999999992
 40
0.8749999999999992
 40
0.9374999999999996
 40
0.9374999999999996
 40
1.0
 40
1.0
 40
1.0
 40
1.0
 10
299.8930516135827
 20
284.3347415363525
 30
0.0
 10
301.7104740817731
 20
284.0735445178871
 30
0.0
 10
303.5273633090231
 20
283.8133689181014
 30
0.0
 10
307.1598307669848
 20
283.2942409761853
 30
0.0
 10
308.9754068956652
 20
283.0352732605846
 30
0.0
 10
311.6975583497903
 20
282.6471234382287
 30
0.0
 10
312.6047397810834
 20
282.5177920839103
 30
0.0
 10
314.4186610898889
 20
282.2591797034168
 30
0.0
 10
315.3252715562789
 20
282.1299163900034
 30
0.0
 10
318.0436217075104
 20
281.7423143385204
 30
0.0
 10
319.8540162452632
 20
281.484090917445
 30
0.0
 10
323.4707498896474
 20
280.9690780821579
 30
0.0
 10
325.2770822254403
 20
280.7122695257315
 30
0.0
 10
328.8855992621098
 20
280.2030291296933
 30
0.0
 10
330.6877769859839
 20
279.9505899097062
 30
0.0
 10
333.3882442275433
 20
279.5791764838316
 30
0.0
 10
334.2879380677471
 20
279.4565986466929
 30
0.0
 10
336.0865188933908
 20
279.2147758749323
 30
0.0
 10
336.9854076647629
 20
279.0955596720099
 30
0.0
 10
338.7832918964469
 20
278.8637666136643
 30
0.0
 10
339.6822880869129
 20
278.7511869058062
 30
0.0
 10
341.4810952684963
 20
278.5347464662792
 30
0.0
 10
342.3809055741178
 20
278.4308779940065
 30
0.0
 10
344.1818429908191
 20
278.2329315502583
 30
0.0
 10
345.083006641603
 20
278.13884030836
 30
0.0
 10
346.4353281684521
 20
278.0053694718925
 30
0.0
 10
346.8862248889392
 20
277.9621496026297
 30
0.0
 10
347.7883026714276
 20
277.8782507883624
 30
0.0
 10
348.2394809520208
 20
277.8375628089053
 30
0.0
 10
349.5933903015114
 20
277.7190086864425
 30
0.0
 10
350.4964924779584
 20
277.6446385261324
 30
0.0
 10
352.3035534231716
 20
277.5042006007579
 30
0.0
 10
353.2075136993279
 20
277.4381404253467
 30
0.0
 10
355.9206168259466
 20
277.2514254657796
 30
0.0
 10
357.730978434533
 20
277.1422239959576
 30
0.0
 10
361.3550582107816
 20
276.9506020050964
 30
0.0
 10
363.1687954246592
 20
276.8682158338143
 30
0.0
 10
365.8919566481859
 20
276.7621004773491
 30
0.0
 10
366.8001002157573
 20
276.7296376864651
 30
0.0
 10
368.6172029497547
 20
276.6700866419777
 30
0.0
 10
369.5262120510337
 20
276.6429962132426
 30
0.0
 10
372.2540120979746
 20
276.5691747161588
 30
0.0
 10
374.0734582103599
 20
276.5298750988212
 30
0.0
 10
377.7135238275489
 20
276.4680183045299
 30
0.0
 10
379.5341450502136
 20
276.4454642766662
 30
0.0
 10
383.1758364530353
 20
276.4154556186651
 30
0.0
 10
384.9969048067319
 20
276.4079935137005
 30
0.0
 10
386.817768615217
 20
276.4079935137005
 30
0.0
  0
SPLINE
  5
1A1
330
1F
100
AcDbEntity
  8
1
100
AcDbSpline
210
0.0
220
0.0
230
1.0
 70
     8
 71
     3
 72
    68
 73
    64
 74
     0
 42
0.000000001
 43
0.0000000001
 40
0.0
 40
0.0
 40
0.0
 40
0.0
 40
0.0498962790060176
 40
0.0498962790060176
 40
0.0815664030391503
 40
0.0815664030391503
 40
0.1132365270722831
 40
0.1132365270722831
 40
0.144906651105416
 40
0.144906651105416
 40
0.1765767751385488
 40
0.1765767751385488
 40
0.2399170232048145
 40
0.2399170232048145
 40
0.2715871472379471
 40
0.2715871472379471
 40
0.3032572712710799
 40
0.3032572712710799
 40
0.3349273953042126
 40
0.3349273953042126
 40
0.3665975193373453
 40
0.3665975193373453
 40
0.3982676433704779
 40
0.3982676433704779
 40
0.4299377674036108
 40
0.4299377674036108
 40
0.4616078914367435
 40
0.4616078914367435
 40
0.4932780154698763
 40
0.4932780154698763
 40
0.5249481395030089
 40
0.5249481395030089
 40
0.5566182635361416
 40
0.5566182635361416
 40
0.5882883875692743
 40
0.5882883875692743
 40
0.6199585116024071
 40
0.6199585116024071
 40
0.6516286356355399
 40
0.6516286356355399
 40
0.6832987596686725
 40
0.6832987596686725
 40
0.7149688837018053
 40
0.7149688837018053
 40
0.746639007734938
 40
0.746639007734938
 40
0.7783091317680708
 40
0.7783091317680708
 40
0.8099792558012033
 40
0.8099792558012033
 40
0.841649379834336
 40
0.841649379834336
 40
0.8733195038674688
 40
0.8733195038674688
 40
0.9049896279006015
 40
0.9049896279006015
 40
0.9366597519337341
 40
0.9366597519337341
 40
0.9524948139503004
 40
0.9524948139503004
 40
0.9683298759668668
 40
0.9683298759668668
 40
1.0
 40
1.0
 40
1.0
 40
1.0
 10
299.1290076984248
 20
301.4079925562136
 30
0.0
 10
300.6430509174432
 20
301.4080464046612
 30
0.0
 10
302.1555365507629
 20
301.4027048970993
 30
0.0
 10
304.6257126680188
 20
301.3827213313161
 30
0.0
 10
305.584251717702
 20
301.3721900184748
 30
0.0
 10
307.5003143654656
 20
301.3448782990271
 30
0.0
 10
308.4578380162362
 20
301.3280966277882
 30
0.0
 10
310.37201664437
 20
301.2876622502961
 30
0.0
 10
311.3286792289499
 20
301.2640076489629
 30
0.0
 10
313.2408969104314
 20
301.2093417195111
 30
0.0
 10
314.1965045802652
 20
301.1783285004155
 30
0.0
 10
317.0621421332758
 20
301.0737451651847
 30
0.0
 10
318.9709818888668
 20
300.9885360604621
 30
0.0
 10
321.8332983624861
 20
300.8371036266652
 30
0.0
 10
322.7872897593938
 20
300.7827109070709
 30
0.0
 10
324.6949797970454
 20
300.6663217454339
 30
0.0
 10
325.6486637243912
 20
300.6043277274121
 30
0.0
 10
327.5559472914132
 20
300.4731086063991
 30
0.0
 10
328.5095473128718
 20
300.4038849871736
 30
0.0
 10
330.4168820024717
 20
300.2586928961591
 30
0.0
 10
331.3706169785439
 20
300.182726152395
 30
0.0
 10
333.2784102395328
 20
300.0246014920088
 30
0.0
 10
334.2324687377309
 20
299.9424453719269
 30
0.0
 10
336.1410595463996
 20
299.772509533477
 30
0.0
 10
337.0954600842302
 20
299.6847568519121
 30
0.0
 10
339.003912416778
 20
299.5027045300982
 30
0.0
 10
339.9579911082328
 20
299.4083948928184
 30
0.0
 10
341.8656788437145
 20
299.2125871090011
 30
0.0
 10
342.8192887762901
 20
299.1110857038091
 30
0.0
 10
344.7260682153457
 20
298.900793055613
 30
0.0
 10
345.6792394710711
 20
298.7920026162693
 30
0.0
 10
347.5853349005864
 20
298.5676034933875
 30
0.0
 10
348.5382576017226
 20
298.4519846494522
 30
0.0
 10
350.4442167870345
 20
298.215127226717
 30
0.0
 10
351.3972560357532
 20
298.0939021662172
 30
0.0
 10
353.3036928420263
 20
297.8468217264888
 30
0.0
 10
354.2570893194975
 20
297.7209657519216
 30
0.0
 10
356.16436126306
 20
297.4652482831937
 30
0.0
 10
357.1182358195919
 20
297.3353857435595
 30
0.0
 10
359.0264986275692
 20
297.0719677387535
 30
0.0
 10
359.9809351945643
 20
296.9384042108026
 30
0.0
 10
361.8900601245964
 20
296.6676519174569
 30
0.0
 10
362.8446853505392
 20
296.5304717383132
 30
0.0
 10
364.7539962997748
 20
296.2522901064588
 30
0.0
 10
365.708681991127
 20
296.1112893776175
 30
0.0
 10
367.6180061330201
 20
295.8250007666151
 30
0.0
 10
368.5726449254832
 20
295.6797154711168
 30
0.0
 10
370.4817210617473
 20
295.384092919942
 30
0.0
 10
371.4361607061541
 20
295.2337681609476
 30
0.0
 10
373.3446135484326
 20
294.9268522078551
 30
0.0
 10
374.2985580758782
 20
294.7701960727045
 30
0.0
 10
376.2055134597448
 20
294.4496888208265
 30
0.0
 10
377.1585555142414
 20
294.2858132370417
 30
0.0
 10
379.0639376230345
 20
293.9514036558991
 30
0.0
 10
380.0162741467615
 20
293.7808463987096
 30
0.0
 10
381.9208184889675
 20
293.4356761414818
 30
0.0
 10
382.8730238013414
 20
293.2610428677099
 30
0.0
 10
384.3020456397412
 20
293.0000595480773
 30
0.0
 10
384.778497426712
 20
292.9132520177957
 30
0.0
 10
385.731678199926
 20
292.7410005719051
 30
0.0
 10
386.2084214790484
 20
292.6555543452865
 30
0.0
 10
387.639383001877
 20
292.403005657035
 30
0.0
 10
388.5943232435712
 20
292.2396199659157
 30
0.0
 10
389.551098883148
 20
292.0869130805704
 30
0.0
  0
SPLINE
  5
1A2
330
1F
100
AcDbEntity
  8
1
100
AcDbSpline
210
0.0
220
0.0
230
1.0
 70
     8
 71
     3
 72
    40
 73
    36
 74
     0
 42
0.000000001
 43
0.0000000001
 40
0.0
 40
0.0
 40
0.0
 40
0.0
 40
0.1250000000000012
 40
0.1250000000000012
 40
0.2500000000000025
 40
0.2500000000000025
 40
0.2812500000000012
 40
0.2812500000000012
 40
0.3124999999999999
 40
0.3749999999999972
 40
0.3749999999999972
 40
0.4999999999999988
 40
0.4999999999999988
 40
0.5624999999999996
 40
0.5624999999999996
 40
0.6250000000000004
 40
0.6250000000000004
 40
0.6562500000000006
 40
0.6562500000000006
 40
0.6875000000000008
 40
0.6875000000000008
 40
0.7499999999999964
 40
0.7499999999999964
 40
0.7812499999999958
 40
0.7812499999999958
 40
0.8124999999999952
 40
0.8124999999999952
 40
0.8749999999999971
 40
0.8749999999999971
 40
0.9374999999999987
 40
0.9374999999999987
 40
0.9531249999999992
 40
0.9531249999999992
 40
0.9687499999999994
 40
1.0
 40
1.0
 40
1.0
 40
1.0
 10
389.969082073031
 20
294.7024364127024
 30
0.0
 10
390.159641271692
 20
294.7817724388282
 30
0.0
 10
390.3480094843047
 20
294.8656239009295
 30
0.0
 10
390.7195033385704
 20
295.0441313181744
 30
0.0
 10
390.9026367846516
 20
295.1387711890548
 30
0.0
 10
391.1274915342691
 20
295.2654425838184
 30
0.0
 10
391.1722893740135
 20
295.2912168786285
 30
0.0
 10
391.261289713236
 20
295.3435675455635
 30
0.0
 10
391.3938279368215
 20
295.4232554076521
 30
0.0
 10
391.5233354580201
 20
295.506602535006
 30
0.0
 10
391.7778297901441
 20
295.6787550881434
 30
0.0
 10
391.9415317050733
 20
295.8007207264531
 30
0.0
 10
392.1753182529129
 20
295.9978758255632
 30
0.0
 10
392.251272410988
 20
296.0659784309687
 30
0.0
 10
392.3984998147076
 20
296.2078353680402
 30
0.0
 10
392.4697782276603
 20
296.2815834607065
 30
0.0
 10
392.5724113512335
 20
296.3973786932216
 30
0.0
 10
392.6059054784851
 20
296.4368427048158
 30
0.0
 10
392.6712841838141
 20
296.51771409513
 30
0.0
 10
392.7032435029507
 20
296.5592326199391
 30
0.0
 10
392.7953535821692
 20
296.6856351845897
 30
0.0
 10
392.8520276083193
 20
296.7726508769854
 30
0.0
 10
392.9286174859294
 20
296.9080628776273
 30
0.0
 10
392.9527393550665
 20
296.9540176037344
 30
0.0
 10
392.9978752603699
 20
297.0477311447698
 30
0.0
 10
393.018911811153
 20
297.0955452080938
 30
0.0
 10
393.0766866423926
 20
297.2416581837923
 30
0.0
 10
393.1073211197995
 20
297.3406216072599
 30
0.0
 10
393.1513594045447
 20
297.5419472767983
 30
0.0
 10
393.164769624726
 20
297.6443082579089
 30
0.0
 10
393.1695005660094
 20
297.7746328144692
 30
0.0
 10
393.1698431039988
 20
297.800845529942
 30
0.0
 10
393.1692842842801
 20
297.8533913905696
 30
0.0
 10
393.1665874488953
 20
297.9320651280432
 30
0.0
 10
393.1583496524822
 20
298.0103064254536
 30
0.0
 10
393.1504170103923
 20
298.0622768017572
 30
0.0
  0
SPLINE
  5
1A3
330
1F
100
AcDbEntity
  8
1
100
AcDbSpline
210
0.0
220
0.0
230
1.0
 70
    12
 71
     3
 72
     9
 73
     5
 74
     0
 42
0.000000001
 43
0.0000000001
 40
0.0
 40
0.0
 40
0.0
 40
0.0
 40
0.4547044115107213
 40
1.0
 40
1.0
 40
1.0
 40
1.0
 10
353.3026851949475
 20
297.8508265208832
 30
0.0
 41
1.001006854486534
 10
359.3581428139524
 20
297.999530142286
 30
0.0
 41
1.000858191474819
 10
372.5779019006674
 20
297.6501820381887
 30
0.0
 41
1.003089305879982
 10
386.0097281958858
 20
297.3637032954713
 30
0.0
 41
1.00050627442904
 10
393.1504170103923
 20
298.0622768017572
 30
0.0
 41
1.001194776767094
  0
SPLINE
  5
1A4
330
1F
100
AcDbEntity
  8
1
100
AcDbSpline
210
0.0
220
0.0
230
1.0
 70
     8
 71
     3
 72
    22
 73
    18
 74
     0
 42
0.000000001
 43
0.0000000001
 40
0.0
 40
0.0
 40
0.0
 40
0.0
 40
0.125
 40
0.125
 40
0.25
 40
0.25
 40
0.375
 40
0.375
 40
0.5
 40
0.5
 40
0.625
 40
0.625
 40
0.75
 40
0.75
 40
0.875
 40
0.875
 40
1.0
 40
1.0
 40
1.0
 40
1.0
 10
279.4048419453026
 20
272.9793854699505
 30
0.0
 10
279.5699796518151
 20
272.9780825253395
 30
0.0
 10
279.7389406384853
 20
272.9901293777017
 30
0.0
 10
280.0831299726154
 20
273.0353814984884
 30
0.0
 10
280.2583649945634
 20
273.0686155083847
 30
0.0
 10
280.6140073624969
 20
273.1522344757486
 30
0.0
 10
280.7944180664057
 20
273.202633788232
 30
0.0
 10
281.1594352719542
 20
273.3173985871209
 30
0.0
 10
281.3440434334765
 20
273.3817714374006
 30
0.0
 10
281.7165273301227
 20
273.5218188111357
 30
0.0
 10
281.9044036563841
 20
273.5974967700549
 30
0.0
 10
282.2825121907621
 20
273.7578580812349
 30
0.0
 10
282.472284883307
 20
273.8423450879584
 30
0.0
 10
282.8524538337829
 20
274.0178918877837
 30
0.0
 10
283.0428742987266
 20
274.1089628685432
 30
0.0
 10
283.4237404897556
 20
274.2960888673042
 30
0.0
 10
283.6141853476208
 20
274.3921433614332
 30
0.0
 10
283.8043368819074
 20
274.4900654689035
 30
0.0
  0
SPLINE
  5
1A5
330
1F
100
AcDbEntity
  8
1
100
AcDbSpline
210
0.0
220
0.0
230
1.0
 70
     8
 71
     3
 72
    10
 73
     6
 74
     0
 42
0.000000001
 43
0.0000000001
 40
0.0
 40
0.0
 40
0.0
 40
0.0
 40
0.5
 40
0.5
 40
1.0
 40
1.0
 40
1.0
 40
1.0
 10
286.0917529760444
 20
275.4364234126307
 30
0.0
 10
285.6836663648367
 20
275.3025244643054
 30
0.0
 10
285.2882206474503
 20
275.156686184323
 30
0.0
 10
284.5248922155272
 20
274.841260164666
 30
0.0
 10
284.157008000032
 20
274.671680091474
 30
0.0
 10
283.8043368819074
 20
274.4900654689035
 30
0.0
  0
SPLINE
  5
1A6
330
1F
100
AcDbEntity
  8
1
100
AcDbSpline
210
0.0
220
0.0
230
1.0
 70
     8
 71
     3
 72
    51
 73
    47
 74
     0
 42
0.000000001
 43
0.0000000001
 40
0.0
 40
0.0
 40
0.0
 40
0.0
 40
0.0625000000000009
 40
0.0625000000000009
 40
0.1250000000000017
 40
0.1250000000000017
 40
0.1875000000000026
 40
0.1875000000000026
 40
0.2187500000000028
 40
0.2187500000000028
 40
0.2343750000000031
 40
0.2343750000000031
 40
0.2500000000000035
 40
0.2500000000000035
 40
0.3125000000000041
 40
0.3750000000000047
 40
0.3750000000000047
 40
0.4375000000000053
 40
0.4375000000000053
 40
0.4531250000000053
 40
0.4531250000000053
 40
0.4687500000000053
 40
0.4687500000000053
 40
0.5000000000000055
 40
0.5000000000000055
 40
0.5625000000000061
 40
0.6250000000000063
 40
0.6250000000000063
 40
0.6562500000000059
 40
0.6562500000000059
 40
0.6718750000000061
 40
0.6718750000000061
 40
0.6875000000000062
 40
0.6875000000000062
 40
0.7500000000000055
 40
0.7500000000000055
 40
0.8125000000000047
 40
0.8750000000000039
 40
0.8750000000000039
 40
0.8906250000000033
 40
0.8906250000000033
 40
0.9062500000000028
 40
0.9062500000000028
 40
0.9375000000000017
 40
0.9375000000000017
 40
1.0
 40
1.0
 40
1.0
 40
1.0
 10
279.4048419452957
 20
280.3874960441314
 30
0.0
 10
279.2629897684264
 20
280.2406728380489
 30
0.0
 10
279.129082204584
 20
280.0900755825852
 30
0.0
 10
278.8767815260247
 20
279.7818607441013
 30
0.0
 10
278.7583890230951
 20
279.624242316914
 30
0.0
 10
278.5371431929279
 20
279.3022994499414
 30
0.0
 10
278.4342887837797
 20
279.1379750219769
 30
0.0
 10
278.291981470166
 20
278.8865463382648
 30
0.0
 10
278.2465446592326
 20
278.8019115546184
 30
0.0
 10
278.1814598320605
 20
278.6737178182701
 30
0.0
 10
278.1602493607267
 20
278.6307211370596
 30
0.0
 10
278.1190249613198
 20
278.5446448868422
 30
0.0
 10
278.099013756578
 20
278.5015754618188
 30
0.0
 10
278.0019387603044
 20
278.2860844591891
 30
0.0
 10
277.8656588595683
 20
277.9403858030913
 30
0.0
 10
277.7668600943634
 20
277.593381903597
 30
0.0
 10
277.6869832455791
 20
277.2458999403974
 30
0.0
 10
277.6565039227735
 20
277.0719198990357
 30
0.0
 10
277.630658233588
 20
276.8542049526184
 30
0.0
 10
277.6261030988569
 20
276.8106497705172
 30
0.0
 10
277.6182371187646
 20
276.7235156860357
 30
0.0
 10
277.6149258970657
 20
276.6799023710025
 30
0.0
 10
277.6069223470408
 20
276.549776368735
 30
0.0
 10
277.604133845429
 20
276.4637460460669
 30
0.0
 10
277.6032726638288
 20
276.2077799178186
 30
0.0
 10
277.6221038551941
 20
275.8721543004689
 30
0.0
 10
277.6802368393747
 20
275.5475598475841
 30
0.0
 10
277.7387055626903
 20
275.3081797090014
 30
0.0
 10
277.7606771742775
 20
275.2290643355129
 30
0.0
 10
277.7974100228739
 20
275.1114028156687
 30
0.0
 10
277.8102838013925
 20
275.0723509223985
 30
0.0
 10
277.8373022657815
 20
274.9945837305609
 30
0.0
 10
277.8514616337867
 20
274.9558344582069
 30
0.0
 10
277.9250643586094
 20
274.7639457390546
 30
0.0
 10
277.9931387114587
 20
274.6156395999073
 30
0.0
 10
278.1469853999381
 20
274.3287081083683
 30
0.0
 10
278.3185340908125
 20
274.051459763505
 30
0.0
 10
278.5250574131401
 20
273.7925239370241
 30
0.0
 10
278.6652039255374
 20
273.6361848685569
 30
0.0
 10
278.6937877795966
 20
273.6051922233135
 30
0.0
 10
278.7520724828387
 20
273.5437530850938
 30
0.0
 10
278.7817340093374
 20
273.5133491867585
 30
0.0
 10
278.8720895418596
 20
273.4232492301771
 30
0.0
 10
278.9342254126385
 20
273.3645884445563
 30
0.0
 10
279.1262715754781
 20
273.1926723309052
 30
0.0
 10
279.2618086709018
 20
273.0834759132928
 30
0.0
 10
279.4048419453063
 20
272.9793854699426
 30
0.0
  0
SPLINE
  5
1A7
330
1F
100
AcDbEntity
  8
1
100
AcDbSpline
210
0.0
220
0.0
230
1.0
 70
     9
 71
     3
 72
   122
 73
   118
 74
     0
 42
0.000000001
 43
0.0000000001
 40
0.0
 40
0.0
 40
0.0
 40
0.0
 40
0.031250000000013
 40
0.031250000000013
 40
0.0468750000000257
 40
0.0468750000000257
 40
0.0546875000000321
 40
0.0546875000000321
 40
0.0625000000000385
 40
0.0625000000000385
 40
0.0937500000000296
 40
0.0937500000000296
 40
0.1015625000000299
 40
0.1015625000000299
 40
0.1093750000000301
 40
0.1093750000000301
 40
0.1250000000000307
 40
0.1250000000000307
 40
0.156250000000032
 40
0.156250000000032
 40
0.1718750000000327
 40
0.1718750000000327
 40
0.1875000000000334
 40
0.203125000000034
 40
0.203125000000034
 40
0.2109375000000361
 40
0.2109375000000361
 40
0.2187500000000381
 40
0.2187500000000381
 40
0.2500000000000442
 40
0.2500000000000442
 40
0.2578125000000458
 40
0.2578125000000458
 40
0.2656250000000474
 40
0.2656250000000474
 40
0.2812500000000523
 40
0.2812500000000523
 40
0.3125000000000651
 40
0.3125000000000651
 40
0.3281250000000715
 40
0.3281250000000715
 40
0.3437500000000779
 40
0.3437500000000779
 40
0.3750000000000908
 40
0.3750000000000908
 40
0.3828125000000963
 40
0.3828125000000963
 40
0.3906250000001018
 40
0.4062500000001127
 40
0.4218750000001237
 40
0.4218750000001237
 40
0.4296875000001292
 40
0.4296875000001292
 40
0.4375000000001347
 40
0.4375000000001347
 40
0.4687500000001449
 40
0.4687500000001449
 40
0.4843750000001502
 40
0.4843750000001502
 40
0.4921875000001527
 40
0.4921875000001527
 40
0.5000000000001554
 40
0.5000000000001554
 40
0.5312500000001657
 40
0.5312500000001657
 40
0.5390625000001683
 40
0.5390625000001683
 40
0.546875000000171
 40
0.5625000000001705
 40
0.5781250000001698
 40
0.5781250000001698
 40
0.5937500000001692
 40
0.5937500000001692
 40
0.6250000000001679
 40
0.6250000000001679
 40
0.6328125000001644
 40
0.6328125000001644
 40
0.6406250000001608
 40
0.6406250000001608
 40
0.6562500000001537
 40
0.6562500000001537
 40
0.6875000000001395
 40
0.6875000000001395
 40
0.6953125000001358
 40
0.6953125000001358
 40
0.7031250000001319
 40
0.7187500000001247
 40
0.7343750000001174
 40
0.7343750000001174
 40
0.7421875000001138
 40
0.7421875000001138
 40
0.7500000000001102
 40
0.7500000000001102
 40
0.781250000000096
 40
0.781250000000096
 40
0.7968750000000881
 40
0.7968750000000881
 40
0.8125000000000804
 40
0.8125000000000804
 40
0.843750000000065
 40
0.843750000000065
 40
0.8593750000000589
 40
0.8593750000000589
 40
0.8750000000000531
 40
0.8750000000000531
 40
0.9062500000000413
 40
0.9062500000000413
 40
0.9218750000000353
 40
0.9218750000000353
 40
0.9375000000000296
 40
0.9531250000000236
 40
0.9531250000000236
 40
0.9609375000000175
 40
0.9609375000000175
 40
0.9687500000000115
 40
0.9687500000000115
 40
1.0
 40
1.0
 40
1.0
 40
1.0
 10
399.2962249652844
 20
286.7969886193043
 30
0.0
 10
399.3651069407324
 20
286.7957862799504
 30
0.0
 10
399.4326755126172
 20
286.7877307867857
 30
0.0
 10
399.5321401739527
 20
286.7658052514653
 30
0.0
 10
399.5649779105445
 20
286.7568437364264
 30
0.0
 10
399.6137471405083
 20
286.7408640805324
 30
0.0
 10
399.6299682470116
 20
286.7350953033922
 30
0.0
 10
399.6619721288525
 20
286.722798389567
 30
0.0
 10
399.6777533315487
 20
286.7162743604837
 30
0.0
 10
399.7555778848894
 20
286.6818158872218
 30
0.0
 10
399.8144082913058
 20
286.6484193462063
 30
0.0
 10
399.8836879016612
 20
286.5994670485926
 30
0.0
 10
399.8973289512298
 20
286.5893129764296
 30
0.0
 10
399.924174034991
 20
286.5682662423847
 30
0.0
 10
399.9373799616063
 20
286.5573679060191
 30
0.0
 10
399.9758983616262
 20
286.523934791737
 30
0.0
 10
400.0002687564511
 20
286.5005470275287
 30
0.0
 10
400.0695728136379
 20
286.4271985457613
 30
0.0
 10
400.1107348118164
 20
286.3740822316716
 30
0.0
 10
400.1647294049924
 20
286.2879741152632
 30
0.0
 10
400.1811595423052
 20
286.2586130125517
 30
0.0
 10
400.2109232509806
 20
286.1987859819267
 30
0.0
 10
400.2376211200018
 20
286.1378036509955
 30
0.0
 10
400.2582775312476
 20
286.0745581654222
 30
0.0
 10
400.2714749660956
 20
286.0262685962776
 30
0.0
 10
400.2754974766191
 20
286.009999227959
 30
0.0
 10
400.2827333285883
 20
285.9773075493906
 30
0.0
 10
400.2859345272388
 20
285.9609477897768
 30
0.0
 10
400.2999053966528
 20
285.8790823135981
 30
0.0
 10
400.3046257512023
 20
285.8133795520214
 30
0.0
 10
400.3026428323835
 20
285.7310033483394
 30
0.0
 10
400.3018486208413
 20
285.7145155360259
 30
0.0
 10
400.2994556564206
 20
285.6815144095541
 30
0.0
 10
400.2978524424987
 20
285.6649661336223
 30
0.0
 10
400.2918449821173
 20
285.6155333252673
 30
0.0
 10
400.2862755968626
 20
285.5830403056894
 30
0.0
 10
400.2650314255451
 20
285.486896625335
 30
0.0
 10
400.2448629344404
 20
285.4245699139462
 30
0.0
 10
400.2054391151069
 20
285.3337447464366
 30
0.0
 10
400.1906865981531
 20
285.3038150394402
 30
0.0
 10
400.1586436694196
 20
285.2460509132435
 30
0.0
 10
400.1413068381023
 20
285.2180805379163
 30
0.0
 10
400.0854001156266
 20
285.1368539392147
 30
0.0
 10
400.0429749627524
 20
285.0862548864117
 30
0.0
 10
399.9830818087797
 20
285.0276721260159
 30
0.0
 10
399.9707812346879
 20
285.0162184667572
 30
0.0
 10
399.9457573586315
 20
284.9940347449636
 30
0.0
 10
399.9074940863271
 20
284.9617574310201
 30
0.0
 10
399.8401306757072
 20
284.9128771738932
 30
0.0
 10
399.7823932250942
 20
284.8790118974015
 30
0.0
 10
399.7375976146431
 20
284.8556363185167
 30
0.0
 10
399.7224165273348
 20
284.8481823225321
 30
0.0
 10
399.6915414862028
 20
284.8339681709573
 30
0.0
 10
399.6758348915988
 20
284.8272062686336
 30
0.0
 10
399.5969669580548
 20
284.7955581279663
 30
0.0
 10
399.5320709935145
 20
284.776732776859
 30
0.0
 10
399.4320302745819
 20
284.7581657050718
 30
0.0
 10
399.3982307641529
 20
284.7536001187982
 30
0.0
 10
399.346822769049
 20
284.7492907331986
 30
0.0
 10
399.3296283814465
 20
284.748285768043
 30
0.0
 10
399.2954094067223
 20
284.7471439670083
 30
0.0
 10
399.2783420639201
 20
284.7470032976488
 30
0.0
 10
399.1932127453777
 20
284.7484170585445
 30
0.0
 10
399.1257670034549
 20
284.7562601337977
 30
0.0
 10
399.0422894340913
 20
284.7745481101296
 30
0.0
 10
399.0255869483927
 20
284.7786481188336
 30
0.0
 10
398.9925697322705
 20
284.7876363140566
 30
0.0
 10
398.9436115269417
 20
284.802298899626
 30
0.0
 10
398.8647695348591
 20
284.8324726143556
 30
0.0
 10
398.804556500385
 20
284.8625867380522
 30
0.0
 10
398.7457769085446
 20
284.8957067459068
 30
0.0
 10
398.7169901517583
 20
284.9138647552745
 30
0.0
 10
398.6344839519953
 20
284.9717729091789
 30
0.0
 10
398.5840946337558
 20
285.0151325350986
 30
0.0
 10
398.5266480309184
 20
285.0751040649983
 30
0.0
 10
398.5154383439434
 20
285.0873896925948
 30
0.0
 10
398.4935829769861
 20
285.1125501750211
 30
0.0
 10
398.482911866605
 20
285.1254588614287
 30
0.0
 10
398.4520170270542
 20
285.1647471733364
 30
0.0
 10
398.4328691601024
 20
285.1917186971693
 30
0.0
 10
398.3796097486546
 20
285.2749007310831
 30
0.0
 10
398.3496431302132
 20
285.3333578783622
 30
0.0
 10
398.3191960537414
 20
285.4102762133399
 30
0.0
 10
398.3134496883198
 20
285.4258893883539
 30
0.0
 10
398.3027745884079
 20
285.457216669632
 30
0.0
 10
398.287958209362
 20
285.5044314250313
 30
0.0
 10
398.2691159643778
 20
285.5842235622017
 30
0.0
 10
398.2602008586588
 20
285.6492244250749
 30
0.0
 10
398.2558584537059
 20
285.6984210766225
 30
0.0
 10
398.2548023172275
 20
285.7148944084054
 30
0.0
 10
398.2534869951441
 20
285.747992798372
 30
0.0
 10
398.253228619246
 20
285.7646608206875
 30
0.0
 10
398.253970907099
 20
285.8478231351709
 30
0.0
 10
398.2609745473376
 20
285.9134389141754
 30
0.0
 10
398.2808896843486
 20
286.0105064749858
 30
0.0
 10
398.2891071480977
 20
286.0426345568305
 30
0.0
 10
398.3087993578058
 20
286.1064158434956
 30
0.0
 10
398.3203422445709
 20
286.1381955216149
 30
0.0
 10
398.3592323350489
 20
286.2307903101924
 30
0.0
 10
398.3909221119007
 20
286.2894575011034
 30
0.0
 10
398.4471075462053
 20
286.3728165906428
 30
0.0
 10
398.4672874292328
 20
286.3998241121101
 30
0.0
 10
398.510677197575
 20
286.4522044153918
 30
0.0
 10
398.533580319716
 20
286.4771984293876
 30
0.0
 10
398.6055065006415
 20
286.5483364421043
 30
0.0
 10
398.6578451823034
 20
286.590829769559
 30
0.0
 10
398.7430869764437
 20
286.6469535995822
 30
0.0
 10
398.7727723143325
 20
286.6644403251338
 30
0.0
 10
398.8331554346617
 20
286.6960496499808
 30
0.0
 10
398.8947906532157
 20
286.7244875365257
 30
0.0
 10
398.9588842817403
 20
286.7466873431634
 30
0.0
 10
399.0078868084821
 20
286.760968055445
 30
0.0
 10
399.0243766527269
 20
286.7653327218059
 30
0.0
 10
399.0576730036473
 20
286.7732569094106
 30
0.0
 10
399.0745174788988
 20
286.7768231078068
 30
0.0
 10
399.1590598578927
 20
286.7925024267604
 30
0.0
 10
399.2273429898366
 20
286.7981909586582
 30
0.0
 10
399.2962249652844
 20
286.7969886193043
 30
0.0
  0
SPLINE
  5
1A8
330
1F
100
AcDbEntity
  8
1
100
AcDbSpline
210
0.0
220
0.0
230
1.0
 70
     8
 71
     3
 72
    28
 73
    24
 74
     0
 42
0.000000001
 43
0.0000000001
 40
0.0
 40
0.0
 40
0.0
 40
0.0
 40
0.0893223031227365
 40
0.0893223031227365
 40
0.1652121111958417
 40
0.1652121111958417
 40
0.2411019192689468
 40
0.2411019192689468
 40
0.316991727342052
 40
0.316991727342052
 40
0.3928815354151572
 40
0.3928815354151572
 40
0.4687713434882628
 40
0.4687713434882628
 40
0.5446611515613679
 40
0.5446611515613679
 40
0.6205509596344731
 40
0.6205509596344731
 40
0.6964407677075783
 40
0.6964407677075783
 40
0.8482203838537889
 40
0.8482203838537889
 40
1.0
 40
1.0
 40
1.0
 40
1.0
 10
338.8483651735866
 20
278.8519834717402
 30
0.0
 10
337.9241627889865
 20
278.7393340773167
 30
0.0
 10
336.9998508786257
 20
278.6312167747741
 30
0.0
 10
335.2898746162543
 20
278.4396321486897
 30
0.0
 10
334.5042375464826
 20
278.3549658703089
 30
0.0
 10
332.9327287878387
 20
278.1917663342199
 30
0.0
 10
332.146873557131
 20
278.1131867902427
 30
0.0
 10
330.5751621622919
 20
277.9613940867236
 30
0.0
 10
329.7893064225022
 20
277.888180808829
 30
0.0
 10
328.217772962368
 20
277.746660303413
 30
0.0
 10
327.4320955695747
 20
277.6783533845427
 30
0.0
 10
325.8610635793628
 20
277.546397209299
 30
0.0
 10
325.0757091964293
 20
277.4827486618815
 30
0.0
 10
323.5054256392885
 20
277.3600573859697
 30
0.0
 10
322.7204965598477
 20
277.3010157055535
 30
0.0
 10
321.1511190054086
 20
277.187656235541
 30
0.0
 10
320.3666705089641
 20
277.1333397401194
 30
0.0
 10
318.7982614221072
 20
277.0296831021436
 30
0.0
 10
318.0143007068802
 20
276.9803443844299
 30
0.0
 10
315.6630926099518
 20
276.8403111604586
 30
0.0
 10
314.0965354263451
 20
276.7575998531464
 30
0.0
 10
310.9644827934066
 20
276.6166548582071
 30
0.0
 10
309.3989778926241
 20
276.5584565964314
 30
0.0
 10
307.8334121588004
 20
276.5139110296122
 30
0.0
  0
SPLINE
  5
1A9
330
1F
100
AcDbEntity
  8
1
100
AcDbSpline
210
0.0
220
0.0
230
1.0
 70
     8
 71
     3
 72
    28
 73
    24
 74
     0
 42
0.000000001
 43
0.0000000001
 40
0.0
 40
0.0
 40
0.0
 40
0.0
 40
0.1359434460090888
 40
0.1359434460090888
 40
0.2718868920181775
 40
0.2718868920181775
 40
0.3398586150227219
 40
0.3398586150227219
 40
0.4078303380272664
 40
0.4078303380272664
 40
0.4758020610318108
 40
0.4758020610318108
 40
0.5437737840363549
 40
0.5437737840363549
 40
0.6117455070408994
 40
0.6117455070408994
 40
0.6797172300454438
 40
0.6797172300454438
 40
0.8156606760545324
 40
0.8156606760545324
 40
0.9516041220636212
 40
0.9516041220636212
 40
1.0
 40
1.0
 40
1.0
 40
1.0
 10
307.8334121588005
 20
276.5139110296102
 30
0.0
 10
309.1074842818498
 20
276.6324957810506
 30
0.0
 10
310.3824255137818
 20
276.7560494212988
 30
0.0
 10
312.9349681402716
 20
277.0072104328654
 30
0.0
 10
314.2125770681143
 20
277.1347608565998
 30
0.0
 10
316.1313867989645
 20
277.3247822156541
 30
0.0
 10
316.771385521241
 20
277.3879123164064
 30
0.0
 10
318.0521856827455
 20
277.5132119958575
 30
0.0
 10
318.6929912016104
 20
277.5753800293505
 30
0.0
 10
319.9752281025218
 20
277.6983910108023
 30
0.0
 10
320.6166787019971
 20
277.7592345383272
 30
0.0
 10
321.900189278916
 20
277.8794949110764
 30
0.0
 10
322.5422491059067
 20
277.9389112250003
 30
0.0
 10
323.8268908487591
 20
278.0564839087161
 30
0.0
 10
324.4694725353678
 20
278.114640619354
 30
0.0
 10
325.755044229643
 20
278.2301359799148
 30
0.0
 10
326.3980339607319
 20
278.2874757465361
 30
0.0
 10
328.3274168427541
 20
278.4593098907925
 30
0.0
 10
329.6142236171997
 20
278.5735461062965
 30
0.0
 10
332.1877936512206
 20
278.8092351730349
 30
0.0
 10
333.4744668022735
 20
278.9307393142953
 30
0.0
 10
335.2182213167298
 20
279.1068548070174
 30
0.0
 10
335.6759259015514
 20
279.154216806134
 30
0.0
 10
336.1335403374628
 20
279.2026072054202
 30
0.0
  0
SPLINE
  5
1AA
330
1F
100
AcDbEntity
  8
1
100
AcDbSpline
210
0.0
220
0.0
230
1.0
 70
     8
 71
     3
 72
     8
 73
     4
 74
     0
 42
0.000000001
 43
0.0000000001
 40
0.0
 40
0.0
 40
0.0
 40
0.0
 40
1.0
 40
1.0
 40
1.0
 40
1.0
 10
293.0603201212159
 20
286.5247251420774
 30
0.0
 10
293.2753470581411
 20
286.4579432625426
 30
0.0
 10
293.4898427377605
 20
286.3880577195915
 30
0.0
 10
293.7038318185191
 20
286.3152125705631
 30
0.0
  0
SPLINE
  5
1AB
330
1F
100
AcDbEntity
  8
1
100
AcDbSpline
210
0.0
220
0.0
230
1.0
 70
     8
 71
     3
 72
     8
 73
     4
 74
     0
 42
0.000000001
 43
0.0000000001
 40
0.0
 40
0.0
 40
0.0
 40
0.0
 40
1.0
 40
1.0
 40
1.0
 40
1.0
 10
396.1347001047735
 20
292.1877382608902
 30
0.0
 10
395.9132934516197
 20
292.1834246053824
 30
0.0
 10
395.6910025138285
 20
292.1823171441062
 30
0.0
 10
395.4678419452956
 20
292.1846078628572
 30
0.0
  0
SPLINE
  5
1AC
330
1F
100
AcDbEntity
  8
1
100
AcDbSpline
210
0.0
220
0.0
230
1.0
 70
     9
 71
     3
 72
   168
 73
   164
 74
     0
 42
0.000000001
 43
0.0000000001
 40
0.0
 40
0.0
 40
0.0
 40
0.0
 40
0.0156249999999997
 40
0.0156249999999997
 40
0.0234374999999997
 40
0.0234374999999997
 40
0.0312499999999996
 40
0.0312499999999996
 40
0.0468749999999982
 40
0.0468749999999982
 40
0.0624999999999967
 40
0.0624999999999967
 40
0.0781249999999953
 40
0.0781249999999953
 40
0.0859374999999953
 40
0.0859374999999953
 40
0.0937499999999954
 40
0.1015624999999955
 40
0.1015624999999955
 40
0.1093749999999956
 40
0.1093749999999956
 40
0.1249999999999961
 40
0.1249999999999961
 40
0.1406249999999967
 40
0.1406249999999967
 40
0.1562499999999972
 40
0.1562499999999972
 40
0.1640624999999968
 40
0.1640624999999968
 40
0.1718749999999964
 40
0.1718749999999964
 40
0.1874999999999958
 40
0.2031249999999951
 40
0.2031249999999951
 40
0.2109374999999949
 40
0.2109374999999949
 40
0.2187499999999946
 40
0.2187499999999946
 40
0.2343749999999938
 40
0.2343749999999938
 40
0.2421874999999934
 40
0.2421874999999934
 40
0.2499999999999931
 40
0.2578124999999928
 40
0.2578124999999928
 40
0.2656249999999926
 40
0.2656249999999926
 40
0.281249999999992
 40
0.281249999999992
 40
0.2968749999999914
 40
0.2968749999999914
 40
0.3124999999999908
 40
0.3124999999999908
 40
0.3203124999999905
 40
0.3203124999999905
 40
0.3281249999999901
 40
0.3359374999999898
 40
0.3359374999999898
 40
0.3437499999999895
 40
0.3437499999999895
 40
0.3593749999999885
 40
0.3593749999999885
 40
0.3749999999999876
 40
0.3749999999999876
 40
0.3906249999999867
 40
0.3906249999999867
 40
0.4062499999999857
 40
0.4062499999999857
 40
0.4140624999999852
 40
0.4140624999999852
 40
0.4218749999999847
 40
0.4218749999999847
 40
0.437499999999984
 40
0.437499999999984
 40
0.4453124999999835
 40
0.4453124999999835
 40
0.4531249999999832
 40
0.4609374999999827
 40
0.4609374999999827
 40
0.4687499999999824
 40
0.4687499999999824
 40
0.49999999999998
 40
0.49999999999998
 40
0.5156249999999784
 40
0.5156249999999784
 40
0.5234374999999784
 40
0.5234374999999784
 40
0.5312499999999783
 40
0.5312499999999783
 40
0.5468749999999782
 40
0.5468749999999782
 40
0.5624999999999778
 40
0.5624999999999778
 40
0.5703124999999775
 40
0.5703124999999775
 40
0.578124999999977
 40
0.578124999999977
 40
0.5937499999999779
 40
0.5937499999999779
 40
0.6093749999999787
 40
0.6093749999999787
 40
0.6249999999999795
 40
0.6249999999999795
 40
0.6328124999999789
 40
0.6328124999999789
 40
0.6406249999999785
 40
0.6484374999999779
 40
0.6484374999999779
 40
0.6562499999999775
 40
0.6562499999999775
 40
0.6718749999999762
 40
0.6718749999999762
 40
0.6874999999999751
 40
0.6874999999999751
 40
0.7031249999999738
 40
0.7031249999999738
 40
0.7187499999999726
 40
0.7187499999999726
 40
0.7265624999999722
 40
0.7265624999999722
 40
0.7343749999999716
 40
0.7343749999999716
 40
0.7499999999999706
 40
0.7499999999999706
 40
0.7578124999999706
 40
0.7578124999999706
 40
0.7656249999999706
 40
0.7656249999999706
 40
0.7812499999999715
 40
0.7812499999999715
 40
0.7968749999999725
 40
0.7968749999999725
 40
0.8046874999999733
 40
0.8046874999999733
 40
0.8124999999999744
 40
0.8124999999999744
 40
0.8437499999999781
 40
0.8437499999999781
 40
0.851562499999979
 40
0.851562499999979
 40
0.8593749999999797
 40
0.8593749999999797
 40
0.8749999999999817
 40
0.8749999999999817
 40
0.8828124999999827
 40
0.8828124999999827
 40
0.8906249999999838
 40
0.8906249999999838
 40
0.9062499999999864
 40
0.9062499999999864
 40
0.9140624999999875
 40
0.9140624999999875
 40
0.9218749999999889
 40
0.9218749999999889
 40
0.9374999999999912
 40
0.9374999999999912
 40
0.9531249999999936
 40
0.9531249999999936
 40
0.9609374999999944
 40
0.9609374999999944
 40
0.9687499999999955
 40
0.9687499999999955
 40
1.0
 40
1.0
 40
1.0
 40
1.0
 10
401.0818706087238
 20
281.7903332967825
 30
0.0
 10
401.0886060467092
 20
281.7892247054463
 30
0.0
 10
401.0955643098242
 20
281.7904443962623
 30
0.0
 10
401.1063334742807
 20
281.7957405687133
 30
0.0
 10
401.109978588798
 20
281.7980847569356
 30
0.0
 10
401.1173803748241
 20
281.8039387835641
 30
0.0
 10
401.1211404045516
 20
281.8074534078621
 30
0.0
 10
401.1325315447855
 20
281.8197003807728
 30
0.0
 10
401.1402894973217
 20
281.8301407693115
 30
0.0
 10
401.1561337813366
 20
281.855582204378
 30
0.0
 10
401.1642350045594
 20
281.8706232732523
 30
0.0
 10
401.1806040349081
 20
281.9050105216766
 30
0.0
 10
401.1888891948158
 20
281.924377451946
 30
0.0
 10
401.2014696079502
 20
281.9567246492462
 30
0.0
 10
401.2056899060328
 20
281.9680627830734
 30
0.0
 10
401.2141363081466
 20
281.9917231327248
 30
0.0
 10
401.2225996887409
 20
282.0163952178177
 30
0.0
 10
401.2310970039687
 20
282.0430894433118
 30
0.0
 10
401.2396113985451
 20
282.0708014149306
 30
0.0
 10
401.2438824288338
 20
282.0851849010566
 30
0.0
 10
401.2566813685887
 20
282.1297423372065
 30
0.0
 10
401.2651784437451
 20
282.1612560662238
 30
0.0
 10
401.2821014644964
 20
282.2279024344175
 30
0.0
 10
401.2905482466226
 20
282.2631330549588
 30
0.0
 10
401.3072056777671
 20
282.3365783609964
 30
0.0
 10
401.315429020669
 20
282.3748327104424
 30
0.0
 10
401.3276045136121
 20
282.4345330367495
 30
0.0
 10
401.3316410792949
 20
282.4548466578471
 30
0.0
 10
401.3395946544574
 20
282.4959143525766
 30
0.0
 10
401.3435194317874
 20
282.5167051953754
 30
0.0
 10
401.3551400841255
 20
282.579837092704
 30
0.0
 10
401.370225129636
 20
282.6660347041073
 30
0.0
 10
401.3844987067343
 20
282.7562419803753
 30
0.0
 10
401.3948931866139
 20
282.8254326971876
 30
0.0
 10
401.3983061360394
 20
282.8487526074591
 30
0.0
 10
401.4050260123345
 20
282.8959163115096
 30
0.0
 10
401.4083242308136
 20
282.9197014127593
 30
0.0
 10
401.4179785274238
 20
282.9912628867979
 30
0.0
 10
401.4241175780965
 20
283.0394035160237
 30
0.0
 10
401.4328791432116
 20
283.1122658097777
 30
0.0
 10
401.4357272152996
 20
283.1366833021586
 30
0.0
 10
401.4412426413829
 20
283.1854694739964
 30
0.0
 10
401.4465848019746
 20
283.2342662055186
 30
0.0
 10
401.4515823201316
 20
283.2830839413119
 30
0.0
 10
401.4564071835836
 20
283.3319121995651
 30
0.0
 10
401.4587362779732
 20
283.3563647928978
 30
0.0
 10
401.4654378963016
 20
283.4294703953292
 30
0.0
 10
401.469521688914
 20
283.4778179800812
 30
0.0
 10
401.4769287147914
 20
283.5737416348694
 30
0.0
 10
401.4802563620047
 20
283.621412695681
 30
0.0
 10
401.4860813753505
 20
283.7149966377739
 30
0.0
 10
401.488588186435
 20
283.7610134486203
 30
0.0
 10
401.4917401240628
 20
283.8288764297471
 30
0.0
 10
401.4926882372781
 20
283.8512888833474
 30
0.0
 10
401.4943718412196
 20
283.8954864759679
 30
0.0
 10
401.4958456943976
 20
283.9391163127018
 30
0.0
 10
401.4969026825847
 20
283.981617774272
 30
0.0
 10
401.4977510355792
 20
284.0235544995958
 30
0.0
 10
401.4980709543944
 20
284.0442628255284
 30
0.0
 10
401.4987131378298
 20
284.1052410968331
 30
0.0
 10
401.4987209914321
 20
284.1444412803841
 30
0.0
 10
401.4979040962018
 20
284.2199650674868
 30
0.0
 10
401.4970758430711
 20
284.2563131192808
 30
0.0
 10
401.4946052829078
 20
284.3253956957848
 30
0.0
 10
401.4929629557446
 20
284.3582289805116
 30
0.0
 10
401.4888629463964
 20
284.4204742522484
 30
0.0
 10
401.4864183433853
 20
284.4496795725133
 30
0.0
 10
401.4821734212198
 20
284.4905829956626
 30
0.0
 10
401.4806616725553
 20
284.503736519085
 30
0.0
 10
401.477444051545
 20
284.5290788090429
 30
0.0
 10
401.4757377993291
 20
284.541266379827
 30
0.0
 10
401.4703538051302
 20
284.5762017332043
 30
0.0
 10
401.4664037045567
 20
284.5973912242916
 30
0.0
 10
401.4599392326711
 20
284.6260350329615
 30
0.0
 10
401.4576914727877
 20
284.6350681644371
 30
0.0
 10
401.4530338658166
 20
284.6520088733318
 30
0.0
 10
401.4482128641728
 20
284.6678348665427
 30
0.0
 10
401.4430670712494
 20
284.6814450596398
 30
0.0
 10
401.4377587305928
 20
284.6939463150667
 30
0.0
 10
401.4350200313273
 20
284.6996482890681
 30
0.0
 10
401.4209532628672
 20
284.7252984399727
 30
0.0
 10
401.4086539322201
 20
284.7365242495936
 30
0.0
 10
401.3886838705702
 20
284.7398463343315
 30
0.0
 10
401.3817718869178
 20
284.7386850579219
 30
0.0
 10
401.3710106375208
 20
284.7334483974867
 30
0.0
 10
401.3673517607563
 20
284.7311131560583
 30
0.0
 10
401.3599523745825
 20
284.72529423758
 30
0.0
 10
401.3562075587801
 20
284.7218102661738
 30
0.0
 10
401.3448381955821
 20
284.7096405749544
 30
0.0
 10
401.3370790577753
 20
284.6992412209332
 30
0.0
 10
401.3211963506023
 20
284.673802491513
 30
0.0
 10
401.3131322364093
 20
284.6588572357153
 30
0.0
 10
401.3008622276474
 20
284.633131736429
 30
0.0
 10
401.2967426792281
 20
284.6240034867184
 30
0.0
 10
401.2884439980322
 20
284.6046315851838
 30
0.0
 10
401.2842609345026
 20
284.5943767815673
 30
0.0
 10
401.2716861548883
 20
284.5620868430767
 30
0.0
 10
401.2632509509006
 20
284.5384915341967
 30
0.0
 10
401.2462760678904
 20
284.4871460564992
 30
0.0
 10
401.2377232863505
 20
284.4593407492935
 30
0.0
 10
401.2206928139444
 20
284.4001111880714
 30
0.0
 10
401.2121944535588
 20
284.3686306374821
 30
0.0
 10
401.1994725648724
 20
284.3185737694441
 30
0.0
 10
401.1952393622937
 20
284.3014254325548
 30
0.0
 10
401.1868275753845
 20
284.2663652785945
 30
0.0
 10
401.178459321862
 20
284.2304985430245
 30
0.0
 10
401.1701781447091
 20
284.1930184664483
 30
0.0
 10
401.1619408311576
 20
284.1547256900848
 30
0.0
 10
401.1578388098701
 20
284.1351462589304
 30
0.0
 10
401.1456578933344
 20
284.0754611977532
 30
0.0
 10
401.1376934743498
 20
284.0343687393174
 30
0.0
 10
401.1220775254754
 20
283.9495747760262
 30
0.0
 10
401.114415506078
 20
283.905798385401
 30
0.0
 10
401.0995745479191
 20
283.8165660250849
 30
0.0
 10
401.0923751948583
 20
283.7710062707044
 30
0.0
 10
401.078423307577
 20
283.6779801263418
 30
0.0
 10
401.0717129731498
 20
283.6307890879698
 30
0.0
 10
401.0620802076301
 20
283.5592529202823
 30
0.0
 10
401.0589394701258
 20
283.5352686038923
 30
0.0
 10
401.052799168049
 20
283.4870205247872
 30
0.0
 10
401.0497978956631
 20
283.462740460962
 30
0.0
 10
401.0410561837578
 20
283.3898842167684
 30
0.0
 10
401.0355605645796
 20
283.3411654580841
 30
0.0
 10
401.0278142832061
 20
283.2678659319906
 30
0.0
 10
401.0253118816961
 20
283.2433613905422
 30
0.0
 10
401.0204940250834
 20
283.1944759363095
 30
0.0
 10
401.0181786823003
 20
283.1700993786311
 30
0.0
 10
401.0115112014346
 20
283.0971666519801
 30
0.0
 10
401.0074355070488
 20
283.0487884572781
 30
0.0
 10
401.0000360981237
 20
282.9526349883947
 30
0.0
 10
400.9967400690461
 20
282.9052231094077
 30
0.0
 10
400.9923930873872
 20
282.8350886550714
 30
0.0
 10
400.991043789977
 20
282.8118747042394
 30
0.0
 10
400.9885453923721
 20
282.7657765284293
 30
0.0
 10
400.9873988630831
 20
282.7429327384841
 30
0.0
 10
400.9822063903659
 20
282.6304362085243
 30
0.0
 10
400.9797283462498
 20
282.5452312396733
 30
0.0
 10
400.9786648528752
 20
282.4445413331864
 30
0.0
 10
400.9785547839771
 20
282.4246968169394
 30
0.0
 10
400.9785420882259
 20
282.3856009552791
 30
0.0
 10
400.978639716377
 20
282.366327200858
 30
0.0
 10
400.979247665735
 20
282.3095608104983
 30
0.0
 10
400.9800684659357
 20
282.2733756428628
 30
0.0
 10
400.9819137473754
 20
282.2215499153187
 30
0.0
 10
400.9826313757468
 20
282.2046840929469
 30
0.0
 10
400.9842723996695
 20
282.171774075858
 30
0.0
 10
400.9851953693143
 20
282.1557454586784
 30
0.0
 10
400.9882575914966
 20
282.109133953485
 30
0.0
 10
400.9906932501758
 20
282.0799417299733
 30
0.0
 10
400.994935328782
 20
282.0389637908819
 30
0.0
 10
400.9964497268368
 20
282.0257587499682
 30
0.0
 10
400.9996621561779
 20
282.0004037903693
 30
0.0
 10
401.0013606492346
 20
281.98824555674
 30
0.0
 10
401.0067308734224
 20
281.9533168332445
 30
0.0
 10
401.0106783228578
 20
281.932081503801
 30
0.0
 10
401.0193024991626
 20
281.8937809273752
 30
0.0
 10
401.0239493816195
 20
281.8768453830315
 30
0.0
 10
401.0314163495314
 20
281.8547274860776
 30
0.0
 10
401.0339882608346
 20
281.8479034024871
 30
0.0
 10
401.039298771863
 20
281.8353579188211
 30
0.0
 10
401.0420369388974
 20
281.8296404130707
 30
0.0
 10
401.0560610595192
 20
281.803974303374
 30
0.0
 10
401.0683997327528
 20
281.7925504794553
 30
0.0
 10
401.0818706087238
 20
281.7903332967826
 30
0.0
  0
SPLINE
  5
1AD
330
1F
100
AcDbEntity
  8
1
100
AcDbSpline
210
0.0
220
0.0
230
1.0
 70
     8
 71
     3
 72
     8
 73
     4
 74
     0
 42
0.000000001
 43
0.0000000001
 40
0.0
 40
0.0
 40
0.0
 40
0.0
 40
1.0
 40
1.0
 40
1.0
 40
1.0
 10
395.4678419452958
 20
290.7564923262603
 30
0.0
 10
395.707313202323
 20
290.7550070155963
 30
0.0
 10
395.9456482838027
 20
290.7632459665654
 30
0.0
 10
396.1828261967178
 20
290.7811211446393
 30
0.0
  0
SPLINE
  5
1AE
330
1F
100
AcDbEntity
  8
1
100
AcDbSpline
210
0.0
220
0.0
230
1.0
 70
    24
 71
     3
 72
    22
 73
    18
 74
     0
 42
0.000000001
 43
0.0000000001
 40
0.0
 40
0.0
 40
0.0
 40
0.0
 40
0.1255886371970461
 40
0.1255886371970461
 40
0.2511772743940922
 40
0.2511772743940922
 40
0.3767659115911383
 40
0.3767659115911383
 40
0.5023545487881844
 40
0.5023545487881844
 40
0.6279431859852305
 40
0.6279431859852305
 40
0.7535318231822767
 40
0.7535318231822767
 40
0.8791204603793227
 40
0.8791204603793227
 40
1.0
 40
1.0
 40
1.0
 40
1.0
 10
395.4678419452958
 20
292.1846078628698
 30
0.0
 10
395.4678419452958
 20
292.0041300492935
 30
0.0
 10
395.4678419452958
 20
291.8364412470052
 30
0.0
 10
395.4678419452958
 20
291.5290413338119
 30
0.0
 10
395.4678419452958
 20
291.389331275879
 30
0.0
 10
395.4678419452958
 20
291.1398902433004
 30
0.0
 10
395.4678419452958
 20
291.0301601230935
 30
0.0
 10
395.4678419452958
 20
290.8422509403789
 30
0.0
 10
395.4678419452958
 20
290.7640725215378
 30
0.0
 10
395.4678419452958
 20
290.6403867816642
 30
0.0
 10
395.4678419452958
 20
290.5948798843066
 30
0.0
 10
395.4678419452958
 20
290.5371892498614
 30
0.0
 10
395.4678419452958
 20
290.5250057103881
 30
0.0
 10
395.4678419452958
 20
290.5341365364449
 30
0.0
 10
395.4678419452958
 20
290.5554508706982
 30
0.0
 10
395.4678419452958
 20
290.6298508588926
 30
0.0
 10
395.4678419452958
 20
290.681715001016
 30
0.0
 10
395.4678419452958
 20
290.7486062886313
 30
0.0
  0
SPLINE
  5
1AF
330
1F
100
AcDbEntity
  8
1
100
AcDbSpline
210
0.0
220
0.0
230
1.0
 70
     8
 71
     3
 72
    18
 73
    14
 74
     0
 42
0.000000001
 43
0.0000000001
 40
0.0
 40
0.0
 40
0.0
 40
0.0
 40
0.25
 40
0.25
 40
0.5
 40
0.5
 40
0.625
 40
0.625
 40
0.75
 40
0.75
 40
0.875
 40
0.875
 40
1.0
 40
1.0
 40
1.0
 40
1.0
 10
391.0235791433444
 20
293.6324259101353
 30
0.0
 10
391.3758947685289
 20
293.4453866250854
 30
0.0
 10
391.730586603857
 20
293.2749239427126
 30
0.0
 10
392.4471399922601
 20
292.9659762344487
 30
0.0
 10
392.8089777775788
 20
292.827481272352
 30
0.0
 10
393.3597726550985
 20
292.644310502344
 30
0.0
 10
393.5447218009617
 20
292.5873649094991
 30
0.0
 10
393.9179532205118
 20
292.4820284137909
 30
0.0
 10
394.1062337014041
 20
292.433635739644
 30
0.0
 10
394.4869335056516
 20
292.345938946132
 30
0.0
 10
394.6793503812959
 20
292.3066321069418
 30
0.0
 10
395.0693685247077
 20
292.2379109932206
 30
0.0
 10
395.2669665408479
 20
292.2084926097005
 30
0.0
 10
395.4678419452916
 20
292.1846078628575
 30
0.0
  0
SPLINE
  5
1B0
330
1F
100
AcDbEntity
  8
1
100
AcDbSpline
210
0.0
220
0.0
230
1.0
 70
     8
 71
     3
 72
     8
 73
     4
 74
     0
 42
0.000000001
 43
0.0000000001
 40
0.0
 40
0.0
 40
0.0
 40
0.0
 40
1.0
 40
1.0
 40
1.0
 40
1.0
 10
391.0235791433448
 20
293.6324259101357
 30
0.0
 10
390.7987573313349
 20
293.7251429689497
 30
0.0
 10
390.576575736666
 20
293.8243223682866
 30
0.0
 10
390.3567792864434
 20
293.9300726546113
 30
0.0
  0
SPLINE
  5
1B1
330
1F
100
AcDbEntity
  8
1
100
AcDbSpline
210
0.0
220
0.0
230
1.0
 70
     8
 71
     3
 72
    42
 73
    38
 74
     0
 42
0.000000001
 43
0.0000000001
 40
0.0
 40
0.0
 40
0.0
 40
0.0
 40
0.1249999999999715
 40
0.1249999999999715
 40
0.2499999999999429
 40
0.2499999999999429
 40
0.3749999999999144
 40
0.3749999999999144
 40
0.4374999999999111
 40
0.4374999999999111
 40
0.4999999999999078
 40
0.4999999999999078
 40
0.5624999999999045
 40
0.5624999999999045
 40
0.6249999999999013
 40
0.6249999999999013
 40
0.6562499999998996
 40
0.6562499999998996
 40
0.6874999999998978
 40
0.6874999999998978
 40
0.7499999999999058
 40
0.7499999999999058
 40
0.7812499999999087
 40
0.7812499999999087
 40
0.8124999999999115
 40
0.8124999999999115
 40
0.8437499999999145
 40
0.8437499999999145
 40
0.8749999999999175
 40
0.8749999999999175
 40
0.9062499999999205
 40
0.9062499999999205
 40
0.9218749999999344
 40
0.9218749999999344
 40
0.9374999999999483
 40
0.9374999999999483
 40
1.0
 40
1.0
 40
1.0
 40
1.0
 10
390.3567792864462
 20
293.9300726546104
 30
0.0
 10
390.3153795358786
 20
293.9499912450693
 30
0.0
 10
390.2750050840383
 20
293.9711613631327
 30
0.0
 10
390.1965311167026
 20
294.0163094255456
 30
0.0
 10
390.1584279100613
 20
294.0402827979213
 30
0.0
 10
390.0848898018907
 20
294.0915526978378
 30
0.0
 10
390.0494448711675
 20
294.1188368597664
 30
0.0
 10
389.9988400834566
 20
294.1629723362351
 30
0.0
 10
389.9823503901604
 20
294.1782766991016
 30
0.0
 10
389.9506793762619
 20
294.209895094903
 30
0.0
 10
389.9355199941852
 20
294.2261779503431
 30
0.0
 10
389.906791897546
 20
294.2598569388922
 30
0.0
 10
389.8932200547071
 20
294.277250955266
 30
0.0
 10
389.8680470601064
 20
294.3134142844729
 30
0.0
 10
389.8564379868899
 20
294.3321782442792
 30
0.0
 10
389.8410076920683
 20
294.3617013479015
 30
0.0
 10
389.8361976192902
 20
294.3717738098818
 30
0.0
 10
389.8273892209878
 20
294.3924803272845
 30
0.0
 10
389.8234030397425
 20
294.4031017305917
 30
0.0
 10
389.8131589334525
 20
294.4353137786404
 30
0.0
 10
389.8084713556498
 20
294.4574228457713
 30
0.0
 10
389.8062978444252
 20
294.492001383341
 30
0.0
 10
389.8064173493182
 20
294.5036479495026
 30
0.0
 10
389.8086310615674
 20
294.5268137510604
 30
0.0
 10
389.810719098277
 20
294.538388460377
 30
0.0
 10
389.8172399699517
 20
294.5615129901217
 30
0.0
 10
389.821610927205
 20
294.5727845526329
 30
0.0
 10
389.8324929377818
 20
294.5943948900616
 30
0.0
 10
389.8390189671571
 20
294.6047882710157
 30
0.0
 10
389.854294109825
 20
294.6247271358789
 30
0.0
 10
389.8628239147921
 20
294.6339822825514
 30
0.0
 10
389.8766834302999
 20
294.6468426358302
 30
0.0
 10
389.8814862360618
 20
294.6509647094556
 30
0.0
 10
389.8914337872668
 20
294.6589007977022
 30
0.0
 10
389.8965934838225
 20
294.6627237660634
 30
0.0
 10
389.9228356580996
 20
294.680878936327
 30
0.0
 10
389.9454294780592
 20
294.6925890639213
 30
0.0
 10
389.9690820730311
 20
294.7024364127024
 30
0.0
  0
SPLINE
  5
1B2
330
1F
100
AcDbEntity
  8
1
100
AcDbSpline
210
0.0
220
0.0
230
1.0
 70
     8
 71
     3
 72
    17
 73
    13
 74
     0
 42
0.000000001
 43
0.0000000001
 40
0.0
 40
0.0
 40
0.0
 40
0.0
 40
0.25
 40
0.5
 40
0.5
 40
0.75
 40
0.75
 40
0.8125
 40
0.8125
 40
0.875
 40
0.875
 40
1.0
 40
1.0
 40
1.0
 40
1.0
 10
295.8645536803259
 20
276.4115860461715
 30
0.0
 10
296.0269430181352
 20
276.4099529158625
 30
0.0
 10
296.3556189288079
 20
276.4081770663991
 30
0.0
 10
296.6921093587223
 20
276.4079688055963
 30
0.0
 10
297.0325927471667
 20
276.4080267413269
 30
0.0
 10
297.2048305004053
 20
276.4081885856363
 30
0.0
 10
297.4227286740454
 20
276.4083501426075
 30
0.0
 10
297.4664385821264
 20
276.4083808872015
 30
0.0
 10
297.5541225314762
 20
276.4084360003287
 30
0.0
 10
297.5981491564094
 20
276.4084603824352
 30
0.0
 10
297.7299073481756
 20
276.4085200591136
 30
0.0
 10
297.8174968851293
 20
276.4085415761222
 30
0.0
 10
297.9048419452957
 20
276.4085415761222
 30
0.0
  0
SPLINE
  5
1B3
330
1F
100
AcDbEntity
  8
1
100
AcDbSpline
210
0.0
220
0.0
230
1.0
 70
     8
 71
     3
 72
    10
 73
     6
 74
     0
 42
0.000000001
 43
0.0000000001
 40
0.0
 40
0.0
 40
0.0
 40
0.0
 40
0.5
 40
0.5
 40
1.0
 40
1.0
 40
1.0
 40
1.0
 10
307.8334121588002
 20
276.5139110296124
 30
0.0
 10
306.1814894511296
 20
276.4789208715778
 30
0.0
 10
304.5283468591715
 20
276.4536000782494
 30
0.0
 10
301.2190103131527
 20
276.4195031778199
 30
0.0
 10
299.5628151955202
 20
276.4107195591104
 30
0.0
 10
297.9048419452957
 20
276.4085415761222
 30
0.0
  0
SPLINE
  5
1B4
330
1F
100
AcDbEntity
  8
1
100
AcDbSpline
210
0.0
220
0.0
230
1.0
 70
     8
 71
     3
 72
    10
 73
     6
 74
     0
 42
0.000000001
 43
0.0000000001
 40
0.0
 40
0.0
 40
0.0
 40
0.0
 40
0.5
 40
0.5
 40
1.0
 40
1.0
 40
1.0
 40
1.0
 10
293.7038318185192
 20
276.4674042843235
 30
0.0
 10
294.0644208601453
 20
276.45256387851
 30
0.0
 10
294.4243069572269
 20
276.4403609670084
 30
0.0
 10
295.143993466453
 20
276.4216802305413
 30
0.0
 10
295.5038065403386
 20
276.4152140373695
 30
0.0
 10
295.8645536803255
 20
276.4115860461715
 30
0.0
  0
SPLINE
  5
1B5
330
1F
100
AcDbEntity
  8
1
100
AcDbSpline
210
0.0
220
0.0
230
1.0
 70
     8
 71
     3
 72
     8
 73
     4
 74
     0
 42
0.000000001
 43
0.0000000001
 40
0.0
 40
0.0
 40
0.0
 40
0.0
 40
1.0
 40
1.0
 40
1.0
 40
1.0
 10
293.7038318185192
 20
276.4674042843235
 30
0.0
 10
293.5098840909313
 20
276.47538639873
 30
0.0
 10
293.3177863674703
 20
276.4804090925625
 30
0.0
 10
293.1273427905592
 20
276.4827838776067
 30
0.0
  0
SPLINE
  5
1B6
330
1F
100
AcDbEntity
  8
1
100
AcDbSpline
210
0.0
220
0.0
230
1.0
 70
     8
 71
     3
 72
     8
 73
     4
 74
     0
 42
0.000000001
 43
0.0000000001
 40
0.0
 40
0.0
 40
0.0
 40
0.0
 40
1.0
 40
1.0
 40
1.0
 40
1.0
 10
396.2415335555833
 20
293.351537464024
 30
0.0
 10
396.1950166025807
 20
293.3165145477279
 30
0.0
 10
396.1460775425758
 20
293.2853049474801
 30
0.0
 10
396.0947019183747
 20
293.2579227501227
 30
0.0
  0
SPLINE
  5
1B7
330
1F
100
AcDbEntity
  8
1
100
AcDbSpline
210
0.0
220
0.0
230
1.0
 70
    12
 71
     2
 72
     6
 73
     3
 74
     0
 42
0.000000001
 43
0.0000000001
 40
0.0
 40
0.0
 40
0.0
 40
1.0
 40
1.0
 40
1.0
 10
394.4320535153987
 20
301.3441092486538
 30
0.0
 41
0.5000012876991294
 10
394.5442765906446
 20
301.3439113837354
 30
0.0
 41
0.4999987123008707
 10
394.6564978477114
 20
301.3437129075587
 30
0.0
 41
0.5000012876991294
  0
SPLINE
  5
1B8
330
1F
100
AcDbEntity
  8
1
100
AcDbSpline
210
0.0
220
0.0
230
1.0
 70
     8
 71
     3
 72
    21
 73
    17
 74
     0
 42
0.000000001
 43
0.0000000001
 40
0.0
 40
0.0
 40
0.0
 40
0.0
 40
0.2499999999999007
 40
0.2499999999999007
 40
0.312499999999893
 40
0.312499999999893
 40
0.3749999999998852
 40
0.3749999999998852
 40
0.4999999999998667
 40
0.6249999999998482
 40
0.6249999999998482
 40
0.6874999999998673
 40
0.6874999999998673
 40
0.7499999999998864
 40
0.7499999999998864
 40
1.0
 40
1.0
 40
1.0
 40
1.0
 10
398.0193390836876
 20
296.5670610724778
 30
0.0
 10
397.9780894034419
 20
296.5787618686647
 30
0.0
 10
397.9387547720417
 20
296.5950510252067
 30
0.0
 10
397.8919837509966
 20
296.6211425271092
 30
0.0
 10
397.8827324438825
 20
296.6266644131156
 30
0.0
 10
397.8646813377852
 20
296.638166847679
 30
0.0
 10
397.8558586177771
 20
296.6441586733278
 30
0.0
 10
397.8299878993445
 20
296.662842812133
 30
0.0
 10
397.7970830783598
 20
296.6896403530376
 30
0.0
 10
397.7673351577771
 20
296.7201822656352
 30
0.0
 10
397.746247810543
 20
296.7445400700407
 30
0.0
 10
397.7394387188084
 20
296.7528874744409
 30
0.0
 10
397.7264059829689
 20
296.7698470022233
 30
0.0
 10
397.7201598872319
 20
296.7784845004894
 30
0.0
 10
397.6902564985096
 20
296.8224464155313
 30
0.0
 10
397.6705282232014
 20
296.8600637171057
 30
0.0
 10
397.6551078228771
 20
296.9001931397109
 30
0.0
  0
SPLINE
  5
1B9
330
1F
100
AcDbEntity
  8
1
100
AcDbSpline
210
0.0
220
0.0
230
1.0
 70
     8
 71
     3
 72
    14
 73
    10
 74
     0
 42
0.000000001
 43
0.0000000001
 40
0.0
 40
0.0
 40
0.0
 40
0.0
 40
0.25
 40
0.25
 40
0.5
 40
0.5
 40
0.75
 40
0.75
 40
1.0
 40
1.0
 40
1.0
 40
1.0
 10
398.6834326192135
 20
296.5640721678856
 30
0.0
 10
398.689089081949
 20
296.5594150069162
 30
0.0
 10
398.6941976430062
 20
296.5541467218851
 30
0.0
 10
398.7030366409186
 20
296.5428487279309
 30
0.0
 10
398.7067930854359
 20
296.536815890724
 30
0.0
 10
398.7130236928107
 20
296.5240037864693
 30
0.0
 10
398.7154745719589
 20
296.5172212154818
 30
0.0
 10
398.7188813511762
 20
296.5035184912289
 30
0.0
 10
398.7198783010105
 20
296.4965238851144
 30
0.0
 10
398.7201464139269
 20
296.4893810518069
 30
0.0
  0
SPLINE
  5
1BA
330
1F
100
AcDbEntity
  8
1
100
AcDbSpline
210
0.0
220
0.0
230
1.0
 70
     8
 71
     3
 72
     8
 73
     4
 74
     0
 42
0.000000001
 43
0.0000000001
 40
0.0
 40
0.0
 40
0.0
 40
0.0
 40
1.0
 40
1.0
 40
1.0
 40
1.0
 10
397.7405786257879
 20
297.0922829565081
 30
0.0
 10
397.7396112837667
 20
297.0861386141715
 30
0.0
 10
397.7380776227036
 20
297.0801076195664
 30
0.0
 10
397.7360533217706
 20
297.0743348908722
 30
0.0
  0
SPLINE
  5
1BB
330
1F
100
AcDbEntity
  8
1
100
AcDbSpline
210
0.0
220
0.0
230
1.0
 70
     8
 71
     3
 72
    21
 73
    17
 74
     0
 42
0.000000001
 43
0.0000000001
 40
0.0
 40
0.0
 40
0.0
 40
0.0
 40
0.249999999999968
 40
0.249999999999968
 40
0.3124999999999539
 40
0.3124999999999539
 40
0.3749999999999399
 40
0.3749999999999399
 40
0.4999999999999539
 40
0.6249999999999679
 40
0.6249999999999679
 40
0.6874999999999672
 40
0.6874999999999672
 40
0.7499999999999666
 40
0.7499999999999666
 40
1.0
 40
1.0
 40
1.0
 40
1.0
 10
397.591733407909
 20
297.5625587180224
 30
0.0
 10
397.621242955513
 20
297.5325753245418
 30
0.0
 10
397.646991870127
 20
297.4995060075388
 30
0.0
 10
397.6744150114505
 20
297.4541402332837
 30
0.0
 10
397.6796583206776
 20
297.4448630781616
 30
0.0
 10
397.6896472816562
 20
297.4258857369317
 30
0.0
 10
397.6944018128981
 20
297.4161606336533
 30
0.0
 10
397.7076961144764
 20
297.3867740349615
 30
0.0
 10
397.722987722297
 20
297.3467828214263
 30
0.0
 10
397.7335201033355
 20
297.3052077317337
 30
0.0
 10
397.7396035017274
 20
297.2734228284571
 30
0.0
 10
397.7413325211293
 20
297.2626881834552
 30
0.0
 10
397.7441443207062
 20
297.2412166295308
 30
0.0
 10
397.7452271733263
 20
297.2305008612321
 30
0.0
 10
397.7490797478462
 20
297.1770161194748
 30
0.0
 10
397.7472292909009
 20
297.1345265087615
 30
0.0
 10
397.7405786257879
 20
297.0922829565081
 30
0.0
  0
SPLINE
  5
1BC
330
1F
100
AcDbEntity
  8
1
100
AcDbSpline
210
0.0
220
0.0
230
1.0
 70
     8
 71
     3
 72
    22
 73
    18
 74
     0
 42
0.000000001
 43
0.0000000001
 40
0.0
 40
0.0
 40
0.0
 40
0.0
 40
0.125
 40
0.125
 40
0.25
 40
0.25
 40
0.375
 40
0.375
 40
0.5
 40
0.5
 40
0.625
 40
0.625
 40
0.75
 40
0.75
 40
0.875
 40
0.875
 40
1.0
 40
1.0
 40
1.0
 40
1.0
 10
397.514852236596
 20
297.5917634778095
 30
0.0
 10
397.5092048255226
 20
297.5914172901595
 30
0.0
 10
397.5035558061998
 20
297.5915473384144
 30
0.0
 10
397.4924512155689
 20
297.5927265285443
 30
0.0
 10
397.4869681969557
 20
297.5937730724875
 30
0.0
 10
397.4761457523499
 20
297.5968062918139
 30
0.0
 10
397.4708111732238
 20
297.5988029081146
 30
0.0
 10
397.4606605281792
 20
297.6036279874896
 30
0.0
 10
397.4557958672512
 20
297.6064672826383
 30
0.0
 10
397.446508159776
 20
297.6130361973577
 30
0.0
 10
397.4421099402897
 20
297.6167612337637
 30
0.0
 10
397.4340911509654
 20
297.6248641760882
 30
0.0
 10
397.4304281161565
 20
297.6292695154792
 30
0.0
 10
397.4238364709259
 20
297.6388279969987
 30
0.0
 10
397.420964043153
 20
297.6439127630797
 30
0.0
 10
397.4161826857789
 20
297.654475130978
 30
0.0
 10
397.4142512998735
 20
297.6599837799387
 30
0.0
 10
397.4128092620901
 20
297.665734295898
 30
0.0
  0
SPLINE
  5
1BD
330
1F
100
AcDbEntity
  8
1
100
AcDbSpline
210
0.0
220
0.0
230
1.0
 70
     8
 71
     3
 72
    15
 73
    11
 74
     0
 42
0.000000001
 43
0.0000000001
 40
0.0
 40
0.0
 40
0.0
 40
0.0
 40
0.4990953852065183
 40
0.4990953852065183
 40
0.6238692315081518
 40
0.6238692315081518
 40
0.7486430778097853
 40
0.7486430778097853
 40
0.9981907704130355
 40
1.0
 40
1.0
 40
1.0
 40
1.0
 10
397.4128092620901
 20
297.665734295898
 30
0.0
 10
397.4024363633603
 20
297.707099037085
 30
0.0
 10
397.3969647900847
 20
297.7491392930397
 30
0.0
 10
397.3962517224865
 20
297.8025253979835
 30
0.0
 10
397.3964217284173
 20
297.8132675587584
 30
0.0
 10
397.3973808900677
 20
297.8345955004093
 30
0.0
 10
397.3981683986289
 20
297.8452067424455
 30
0.0
 10
397.401437926432
 20
297.876885086845
 30
0.0
 10
397.4048485772467
 20
297.8979489131262
 30
0.0
 10
397.4094749448874
 20
297.9188043879619
 30
0.0
 10
397.4095083077912
 20
297.918954491758
 30
0.0
  0
SPLINE
  5
1BE
330
1F
100
AcDbEntity
  8
1
100
AcDbSpline
210
0.0
220
0.0
230
1.0
 70
     8
 71
     3
 72
    14
 73
    10
 74
     0
 42
0.000000001
 43
0.0000000001
 40
0.0
 40
0.0
 40
0.0
 40
0.0
 40
0.25
 40
0.25
 40
0.5
 40
0.5
 40
0.75
 40
0.75
 40
1.0
 40
1.0
 40
1.0
 40
1.0
 10
398.0473099752677
 20
298.6152045957148
 30
0.0
 10
398.0511355428647
 20
298.6094110110153
 30
0.0
 10
398.0543294327975
 20
298.6032235209584
 30
0.0
 10
398.0593177439678
 20
298.5903524637694
 30
0.0
 10
398.0611048884098
 20
298.5837195034293
 30
0.0
 10
398.0632501139382
 20
298.5700512064169
 30
0.0
 10
398.0635889159169
 20
298.5629815802688
 30
0.0
 10
398.0627286970367
 20
298.5490483328103
 30
0.0
 10
398.0615506977632
 20
298.5421090672019
 30
0.0
 10
398.0595593675895
 20
298.5351967540628
 30
0.0
  0
SPLINE
  5
1BF
330
1F
100
AcDbEntity
  8
1
100
AcDbSpline
210
0.0
220
0.0
230
1.0
 70
     8
 71
     3
 72
    14
 73
    10
 74
     0
 42
0.000000001
 43
0.0000000001
 40
0.0
 40
0.0
 40
0.0
 40
0.0
 40
0.2859791793205404
 40
0.2859791793205404
 40
0.5719583586410808
 40
0.5719583586410808
 40
0.8579375379616212
 40
0.8579375379616212
 40
1.0
 40
1.0
 40
1.0
 40
1.0
 10
398.0473099752671
 20
298.615204595716
 30
0.0
 10
398.044251986984
 20
298.6198357291829
 30
0.0
 10
398.0416060946818
 20
298.6247058301523
 30
0.0
 10
398.0372047316058
 20
298.6347414401907
 30
0.0
 10
398.0354337128543
 20
298.6399288770666
 30
0.0
 10
398.0327764796004
 20
298.6506517836214
 30
0.0
 10
398.0319013897963
 20
298.6561873408265
 30
0.0
 10
398.0313205939629
 20
298.6644538532619
 30
0.0
 10
398.0312444941738
 20
298.6672058417216
 30
0.0
 10
398.0312876436934
 20
298.6699663060872
 30
0.0
  0
SPLINE
  5
1C0
330
1F
100
AcDbEntity
  8
1
100
AcDbSpline
210
0.0
220
0.0
230
1.0
 70
     8
 71
     3
 72
     8
 73
     4
 74
     0
 42
0.000000001
 43
0.0000000001
 40
0.0
 40
0.0
 40
0.0
 40
0.0
 40
1.0
 40
1.0
 40
1.0
 40
1.0
 10
399.8818144167611
 20
297.234434665228
 30
0.0
 10
399.8639872044362
 20
297.1985218744639
 30
0.0
 10
399.8424193238363
 20
297.1648270628396
 30
0.0
 10
399.8170196950443
 20
297.1334108274896
 30
0.0
  0
SPLINE
  5
1C1
330
1F
100
AcDbEntity
  8
1
100
AcDbSpline
210
0.0
220
0.0
230
1.0
 70
     8
 71
     3
 72
    20
 73
    16
 74
     0
 42
0.000000001
 43
0.0000000001
 40
0.0
 40
0.0
 40
0.0
 40
0.0
 40
0.125
 40
0.125
 40
0.25
 40
0.25
 40
0.375
 40
0.375
 40
0.5
 40
0.5
 40
0.625
 40
0.625
 40
0.75
 40
0.75
 40
1.0
 40
1.0
 40
1.0
 40
1.0
 10
399.8170196950443
 20
297.1334108274896
 30
0.0
 10
399.813290821579
 20
297.1287986669208
 30
0.0
 10
399.8092166733863
 20
297.1246072131267
 30
0.0
 10
399.8004159255768
 20
297.1170206246225
 30
0.0
 10
399.7956375429649
 20
297.1135982797447
 30
0.0
 10
399.7856874631816
 20
297.1077364350828
 30
0.0
 10
399.7805353862201
 20
297.1052934799955
 30
0.0
 10
399.7698964465781
 20
297.1013354127257
 30
0.0
 10
399.7643579738333
 20
297.0998126087131
 30
0.0
 10
399.7531951358773
 20
297.0977724334598
 30
0.0
 10
399.7476120653483
 20
297.0972517983186
 30
0.0
 10
399.7364446806871
 20
297.0971575608589
 30
0.0
 10
399.7308325896213
 20
297.0975889606311
 30
0.0
 10
399.7141792875034
 20
297.1003187053906
 30
0.0
 10
399.7036776402716
 20
297.103933675936
 30
0.0
 10
399.6937724405351
 20
297.1093221971098
 30
0.0
  0
SPLINE
  5
1C2
330
1F
100
AcDbEntity
  8
1
100
AcDbSpline
210
0.0
220
0.0
230
1.0
 70
     8
 71
     3
 72
    14
 73
    10
 74
     0
 42
0.000000001
 43
0.0000000001
 40
0.0
 40
0.0
 40
0.0
 40
0.0
 40
0.25
 40
0.25
 40
0.5
 40
0.5
 40
0.75
 40
0.75
 40
1.0
 40
1.0
 40
1.0
 40
1.0
 10
399.6120907407698
 20
297.1152253198675
 30
0.0
 10
399.6188646698765
 20
297.1177701831483
 30
0.0
 10
399.6258830223449
 20
297.1195328253012
 30
0.0
 10
399.6398763618176
 20
297.1214819026944
 30
0.0
 10
399.6468680579695
 20
297.1216894553653
 30
0.0
 10
399.6608460429107
 20
297.1206186922465
 30
0.0
 10
399.6678217885678
 20
297.1193188333746
 30
0.0
 10
399.6811458527974
 20
297.115356648656
 30
0.0
 10
399.687577706887
 20
297.1126921900748
 30
0.0
 10
399.6937724405351
 20
297.1093221971098
 30
0.0
  0
SPLINE
  5
1C3
330
1F
100
AcDbEntity
  8
1
100
AcDbSpline
210
0.0
220
0.0
230
1.0
 70
     8
 71
     3
 72
    21
 73
    17
 74
     0
 42
0.000000001
 43
0.0000000001
 40
0.0
 40
0.0
 40
0.0
 40
0.0
 40
0.2014772452741399
 40
0.2014772452741399
 40
0.2680208081679193
 40
0.2680208081679193
 40
0.334564371061699
 40
0.334564371061699
 40
0.4676514968491996
 40
0.6007386226367583
 40
0.6007386226367583
 40
0.6672821855306056
 40
0.6672821855306056
 40
0.7338257484244528
 40
0.7338257484244528
 40
1.0
 40
1.0
 40
1.0
 40
1.0
 10
399.2883739120868
 20
296.7813054456672
 30
0.0
 10
399.299010726668
 20
296.8117264701092
 30
0.0
 10
399.3121972061004
 20
296.841099429105
 30
0.0
 10
399.3331963802607
 20
296.8787791796702
 30
0.0
 10
399.3386972154737
 20
296.8880183156948
 30
0.0
 10
399.3502925232998
 20
296.9062581447042
 30
0.0
 10
399.3564041496096
 20
296.9152789307138
 30
0.0
 10
399.3753700243372
 20
296.9415760423288
 30
0.0
 10
399.4024806465519
 20
296.9748535593908
 30
0.0
 10
399.4331537529232
 20
297.0046384292903
 30
0.0
 10
399.4575184373222
 20
297.0256451936615
 30
0.0
 10
399.4658983292147
 20
297.0324480930771
 30
0.0
 10
399.4829605651379
 20
297.0454761743884
 30
0.0
 10
399.491624908277
 20
297.0516911694853
 30
0.0
 10
399.5355945282901
 20
297.0813231421242
 30
0.0
 10
399.5728151691471
 20
297.1004700783405
 30
0.0
 10
399.6120907407698
 20
297.1152253198675
 30
0.0
  0
SPLINE
  5
1C4
330
1F
100
AcDbEntity
  8
1
100
AcDbSpline
210
0.0
220
0.0
230
1.0
 70
     8
 71
     3
 72
     8
 73
     4
 74
     0
 42
0.000000001
 43
0.0000000001
 40
0.0
 40
0.0
 40
0.0
 40
0.0
 40
1.0
 40
1.0
 40
1.0
 40
1.0
 10
399.6636366321569
 20
298.2798991865504
 30
0.0
 10
399.657448352853
 20
298.2729283432009
 30
0.0
 10
399.6503627735577
 20
298.2669758728954
 30
0.0
 10
399.6423902701895
 20
298.2620330665741
 30
0.0
  0
SPLINE
  5
1C5
330
1F
100
AcDbEntity
  8
1
100
AcDbSpline
210
0.0
220
0.0
230
1.0
 70
     8
 71
     3
 72
    14
 73
    10
 74
     0
 42
0.000000001
 43
0.0000000001
 40
0.0
 40
0.0
 40
0.0
 40
0.0
 40
0.0496410008841426
 40
0.0496410008841426
 40
0.3664273339227617
 40
0.3664273339227617
 40
0.6832136669613809
 40
0.6832136669613809
 40
1.0
 40
1.0
 40
1.0
 40
1.0
 10
399.6022553522936
 20
298.2120684396797
 30
0.0
 10
399.6026204640407
 20
298.2131097357787
 30
0.0
 10
399.6030023845491
 20
298.2141417415462
 30
0.0
 10
399.6059421317017
 20
298.2216843631522
 30
0.0
 10
399.6091388386636
 20
298.2278154344219
 30
0.0
 10
399.6168043606551
 20
298.2393263437354
 30
0.0
 10
399.6212865736312
 20
298.2446862726761
 30
0.0
 10
399.6311174711241
 20
298.2541808103133
 30
0.0
 10
399.6365083021719
 20
298.2583863539474
 30
0.0
 10
399.6423902701895
 20
298.2620330665741
 30
0.0
  0
SPLINE
  5
1C6
330
1F
100
AcDbEntity
  8
1
100
AcDbSpline
210
0.0
220
0.0
230
1.0
 70
     8
 71
     3
 72
    21
 73
    17
 74
     0
 42
0.000000001
 43
0.0000000001
 40
0.0
 40
0.0
 40
0.0
 40
0.0
 40
0.2499999999999207
 40
0.2499999999999207
 40
0.3124999999998834
 40
0.3124999999998834
 40
0.3749999999998462
 40
0.3749999999998462
 40
0.4999999999998462
 40
0.6249999999998462
 40
0.6249999999998462
 40
0.6874999999998855
 40
0.6874999999998855
 40
0.7499999999999245
 40
0.7499999999999245
 40
1.0
 40
1.0
 40
1.0
 40
1.0
 10
399.2746561906551
 20
296.5416040609123
 30
0.0
 10
399.2437087799916
 20
296.5117391940922
 30
0.0
 10
399.2097931437671
 20
296.4858388241518
 30
0.0
 10
399.1636909962736
 20
296.458418431205
 30
0.0
 10
399.154261883432
 20
296.4531759600118
 30
0.0
 10
399.1352382622588
 20
296.4433125508446
 30
0.0
 10
399.1256224986019
 20
296.4386774380411
 30
0.0
 10
399.0964689983274
 20
296.425645667047
 30
0.0
 10
399.0567830730793
 20
296.4105938524618
 30
0.0
 10
399.0154789136055
 20
296.4001581912966
 30
0.0
 10
398.9838737239961
 20
296.394120361942
 30
0.0
 10
398.9732539713743
 20
296.3924129398471
 30
0.0
 10
398.9520836638504
 20
296.3896383264598
 30
0.0
 10
398.9414999104182
 20
296.388564418921
 30
0.0
 10
398.8885882278685
 20
296.3847337085153
 30
0.0
 10
398.8462810094445
 20
296.3865328201347
 30
0.0
 10
398.8040011488639
 20
296.3933266828679
 30
0.0
  0
SPLINE
  5
1C7
330
1F
100
AcDbEntity
  8
1
100
AcDbSpline
210
0.0
220
0.0
230
1.0
 70
     8
 71
     3
 72
    21
 73
    17
 74
     0
 42
0.000000001
 43
0.0000000001
 40
0.0
 40
0.0
 40
0.0
 40
0.0
 40
0.2500000000002024
 40
0.2500000000002024
 40
0.3125000000001928
 40
0.3125000000001928
 40
0.3750000000001832
 40
0.3750000000001832
 40
0.5000000000001642
 40
0.625000000000145
 40
0.625000000000145
 40
0.6875000000000977
 40
0.6875000000000977
 40
0.7500000000000503
 40
0.7500000000000503
 40
1.0
 40
1.0
 40
1.0
 40
1.0
 10
398.2014107876636
 20
296.6707980724496
 30
0.0
 10
398.2426447639154
 20
296.6814071478578
 30
0.0
 10
398.2845751288808
 20
296.6871988214032
 30
0.0
 10
398.3379482009228
 20
296.6882712394154
 30
0.0
 10
398.3486713714572
 20
296.6881733352122
 30
0.0
 10
398.3702193579808
 20
296.6873320343779
 30
0.0
 10
398.3810700681147
 20
296.6865838549603
 30
0.0
 10
398.4132931983527
 20
296.6833897853627
 30
0.0
 10
398.4556708426891
 20
296.6766065112444
 30
0.0
 10
398.496900886763
 20
296.6648856969819
 30
0.0
 10
398.5273858356779
 20
296.6542116566553
 30
0.0
 10
398.5375102136948
 20
296.6503234459409
 30
0.0
 10
398.5574205721565
 20
296.6419838797067
 30
0.0
 10
398.5671887747163
 20
296.6375430784708
 30
0.0
 10
398.6151293415377
 20
296.6140277907712
 30
0.0
 10
398.6506364977346
 20
296.5910743464629
 30
0.0
 10
398.6834326192135
 20
296.5640721678856
 30
0.0
  0
SPLINE
  5
1C8
330
1F
100
AcDbEntity
  8
1
100
AcDbSpline
210
0.0
220
0.0
230
1.0
 70
     8
 71
     3
 72
    14
 73
    10
 74
     0
 42
0.000000001
 43
0.0000000001
 40
0.0
 40
0.0
 40
0.0
 40
0.0
 40
0.25
 40
0.25
 40
0.5
 40
0.5
 40
0.75
 40
0.75
 40
1.0
 40
1.0
 40
1.0
 40
1.0
 10
398.1363065049095
 20
296.6186508033658
 30
0.0
 10
398.1395906153662
 20
296.6250043736785
 30
0.0
 10
398.1435322772501
 20
296.6310078776916
 30
0.0
 10
398.1525381911227
 20
296.6420449409538
 30
0.0
 10
398.1575607700893
 20
296.6470455563118
 30
0.0
 10
398.168658410677
 20
296.6560012058604
 30
0.0
 10
398.1747735734087
 20
296.6599572622227
 30
0.0
 10
398.1875680192217
 20
296.666412682314
 30
0.0
 10
398.1943041967077
 20
296.6689696201342
 30
0.0
 10
398.2014107876636
 20
296.6707980724496
 30
0.0
  0
SPLINE
  5
1C9
330
1F
100
AcDbEntity
  8
1
100
AcDbSpline
210
0.0
220
0.0
230
1.0
 70
     8
 71
     3
 72
    22
 73
    18
 74
     0
 42
0.000000001
 43
0.0000000001
 40
0.0
 40
0.0
 40
0.0
 40
0.0
 40
0.125
 40
0.125
 40
0.25
 40
0.25
 40
0.375
 40
0.375
 40
0.5
 40
0.5
 40
0.625
 40
0.625
 40
0.75
 40
0.75
 40
0.875
 40
0.875
 40
1.0
 40
1.0
 40
1.0
 40
1.0
 10
398.136306504909
 20
296.6186508033649
 30
0.0
 10
398.133681337058
 20
296.613572049546
 30
0.0
 10
398.1306430191787
 20
296.6087307295716
 30
0.0
 10
398.123870314723
 20
296.5996761557668
 30
0.0
 10
398.1201239993808
 20
296.5954378549542
 30
0.0
 10
398.1118910870075
 20
296.5875567573635
 30
0.0
 10
398.1073986466797
 20
296.5839233724287
 30
0.0
 10
398.097961227642
 20
296.5775234126199
 30
0.0
 10
398.0929816951313
 20
296.5747200750973
 30
0.0
 10
398.0824791959485
 20
296.5699427516897
 30
0.0
 10
398.076973432704
 20
296.5679881777441
 30
0.0
 10
398.0657977895972
 20
296.5650811560637
 30
0.0
 10
398.0600822089231
 20
296.5641056072962
 30
0.0
 10
398.0483819556592
 20
296.5631667390677
 30
0.0
 10
398.0424862186082
 20
296.5632179775392
 30
0.0
 10
398.030851283414
 20
296.5643537682137
 30
0.0
 10
398.0250737567865
 20
296.5654343873561
 30
0.0
 10
398.0193390836877
 20
296.5670610724778
 30
0.0
  0
SPLINE
  5
1CA
330
1F
100
AcDbEntity
  8
1
100
AcDbSpline
210
0.0
220
0.0
230
1.0
 70
     8
 71
     3
 72
    14
 73
    10
 74
     0
 42
0.000000001
 43
0.0000000001
 40
0.0
 40
0.0
 40
0.0
 40
0.0
 40
0.25
 40
0.25
 40
0.5
 40
0.5
 40
0.75
 40
0.75
 40
1.0
 40
1.0
 40
1.0
 40
1.0
 10
397.514852236596
 20
297.5917634778095
 30
0.0
 10
397.5219169424922
 20
297.5921965459711
 30
0.0
 10
397.5290081911117
 20
297.5918859339961
 30
0.0
 10
397.5429149497015
 20
297.5898044638975
 30
0.0
 10
397.5496825560176
 20
297.5880524726226
 30
0.0
 10
397.5628446604055
 20
297.583108910952
 30
0.0
 10
397.5692592118297
 20
297.5798837243368
 30
0.0
 10
397.5811216830467
 20
297.5722023190552
 30
0.0
 10
397.5866471954228
 20
297.5677266017306
 30
0.0
 10
397.591733407909
 20
297.5625587180224
 30
0.0
  0
SPLINE
  5
1CB
330
1F
100
AcDbEntity
  8
1
100
AcDbSpline
210
0.0
220
0.0
230
1.0
 70
     8
 71
     3
 72
    10
 73
     6
 74
     0
 42
0.000000001
 43
0.0000000001
 40
0.0
 40
0.0
 40
0.0
 40
0.0
 40
0.5625543070169777
 40
0.5625543070169777
 40
1.0
 40
1.0
 40
1.0
 40
1.0
 10
397.6551078228771
 20
296.9001931397109
 30
0.0
 10
397.6529614784532
 20
296.9057786991411
 30
0.0
 10
397.6513494555962
 20
296.9114668584115
 30
0.0
 10
397.6493823348541
 20
296.9217502854492
 30
0.0
 10
397.648828671618
 20
296.9263433008845
 30
0.0
 10
397.6485887086592
 20
296.9309271301787
 30
0.0
  0
SPLINE
  5
1CC
330
1F
100
AcDbEntity
  8
1
100
AcDbSpline
210
0.0
220
0.0
230
1.0
 70
     8
 71
     3
 72
    20
 73
    16
 74
     0
 42
0.000000001
 43
0.0000000001
 40
0.0
 40
0.0
 40
0.0
 40
0.0
 40
0.1249999999999895
 40
0.1249999999999895
 40
0.2499999999999789
 40
0.2499999999999789
 40
0.3749999999999685
 40
0.3749999999999685
 40
0.4999999999999579
 40
0.4999999999999579
 40
0.6249999999999475
 40
0.6249999999999475
 40
0.749999999999937
 40
0.749999999999937
 40
1.0
 40
1.0
 40
1.0
 40
1.0
 10
398.8040011488639
 20
296.3933266828679
 30
0.0
 10
398.7981163146186
 20
296.3942723046254
 30
0.0
 10
398.7924178313448
 20
296.3957330711776
 30
0.0
 10
398.7813739601264
 20
296.3996288177071
 30
0.0
 10
398.7759786776247
 20
296.402095398963
 30
0.0
 10
398.7658320302237
 20
296.4078712736488
 30
0.0
 10
398.7610892686483
 20
296.4111608216104
 30
0.0
 10
398.7522327568139
 20
296.4185019151295
 30
0.0
 10
398.7480862389025
 20
296.42259447743
 30
0.0
 10
398.7406135726537
 20
296.4313654737193
 30
0.0
 10
398.7373071402298
 20
296.436004579698
 30
0.0
 10
398.7315098878101
 20
296.4457620855718
 30
0.0
 10
398.7290094884754
 20
296.4509064951954
 30
0.0
 10
398.7228361331638
 20
296.4669106730076
 30
0.0
 10
398.7205751258467
 20
296.4779596782195
 30
0.0
 10
398.7201464139269
 20
296.4893810518069
 30
0.0
  0
LINE
  5
1E8
330
1F
100
AcDbEntity
  8
4
100
AcDbLine
 10
270.703832
 20
288.907994
 30
0.0
 11
407.3699419999999
 21
288.907994
 31
0.0
  0
LINE
  5
1E9
330
1F
100
AcDbEntity
  8
SK4
100
AcDbLine
 10
210.904842
 20
288.907994
 30
0.0
 11
277.404842
 21
288.907994
 31
0.0
  0
MTEXT
  5
1EA
330
1F
100
AcDbEntity
  8
SK6
100
AcDbMText
 10
278.633586
 20
248.640145
 30
0.0
 40
3.5
 41
0.0
 71
     7
 72
     5
  1
\W0.7147;804D-26-104-S32
  7
cesky
 73
     2
 44
0.8433729999999998
  0
MTEXT
  5
300
330
1F
100
AcDbEntity
  8
2
100
AcDbMText
 10
417.700469
 20
290.007688
 30
0.0
 40
3.5
 41
0.0
 71
     7
 72
     5
  1
\W0.7259;26
  7
cesky
 11
0.0000000000000001
 21
1.0
 31
0.0
 73
     2
 44
0.8433729999999998
  0
MTEXT
  5
301
330
1F
100
AcDbEntity
  8
2
100
AcDbMText
 10
417.700469
 20
283.270188
 30
0.0
 40
3.5
 41
0.0
 71
     7
 72
     5
  1
\W3.0115;\H2.63;%%c\H3.50;
  7
cesky
 11
0.0000000000000001
 21
1.0
 31
0.0
 73
     2
 44
0.8433729999999998
  0
LINE
  5
302
330
1F
100
AcDbEntity
  8
2
100
AcDbLine
 10
405.4048419999999
 20
301.907994
 30
0.0
 11
418.887885
 21
301.907994
 31
0.0
  0
LINE
  5
303
330
1F
100
AcDbEntity
  8
2
100
AcDbLine
 10
417.887885
 20
301.907994
 30
0.0
 11
417.887885
 21
283.112688
 31
0.0
  0
SOLID
  5
304
330
1F
100
AcDbEntity
  8
2
100
AcDbTrace
 10
417.887885
 20
301.907994
 30
0.0
 11
418.5050299999999
 21
298.407996
 31
0.0
 12
417.270741
 22
298.4079910000001
 32
0.0
 13
417.270741
 23
298.4079910000001
 33
0.0
  0
MTEXT
  5
305
330
1F
100
AcDbEntity
  8
2
100
AcDbMText
 10
335.827842
 20
322.75644
 30
0.0
 40
3.5
 41
0.0
 71
     7
 72
     5
  1
\W0.7969;129
  7
cesky
 73
     2
 44
0.8433729999999998
  0
LINE
  5
306
330
1F
100
AcDbEntity
  8
2
100
AcDbLine
 10
403.4048419999999
 20
301.907994
 30
0.0
 11
403.4048419999999
 21
323.882273
 31
0.0
  0
LINE
  5
307
330
1F
100
AcDbEntity
  8
2
100
AcDbLine
 10
274.404842
 20
289.907567
 30
0.0
 11
274.404842
 21
323.882273
 31
0.0
  0
LINE
  5
308
330
1F
100
AcDbEntity
  8
2
100
AcDbLine
 10
403.4048419999999
 20
322.882273
 30
0.0
 11
274.404842
 21
322.882273
 31
0.0
  0
SOLID
  5
309
330
1F
100
AcDbEntity
  8
2
100
AcDbTrace
 10
403.4048419999999
 20
322.882273
 30
0.0
 11
399.904844
 21
322.265129
 31
0.0
 12
399.90484
 22
323.499418
 32
0.0
 13
399.90484
 23
323.499418
 33
0.0
  0
SOLID
  5
30A
330
1F
100
AcDbEntity
  8
2
100
AcDbTrace
 10
274.404842
 20
322.882273
 30
0.0
 11
277.90484
 21
323.499418
 31
0.0
 12
277.904844
 22
322.265129
 32
0.0
 13
277.904844
 23
322.265129
 33
0.0
  0
MTEXT
  5
30B
330
1F
100
AcDbEntity
  8
2
100
AcDbMText
 10
305.827842
 20
337.029667
 30
0.0
 40
3.5
 41
0.0
 71
     7
 72
     5
  1
\W0.7969;189
  7
cesky
 73
     2
 44
0.8433729999999998
  0
LINE
  5
30C
330
1F
100
AcDbEntity
  8
2
100
AcDbLine
 10
403.4048419999999
 20
303.907994
 30
0.0
 11
403.4048419999999
 21
338.155501
 31
0.0
  0
LINE
  5
30D
330
1F
100
AcDbEntity
  8
2
100
AcDbLine
 10
214.404842
 20
302.907994
 30
0.0
 11
214.404842
 21
338.155501
 31
0.0
  0
LINE
  5
30E
330
1F
100
AcDbEntity
  8
2
100
AcDbLine
 10
403.4048419999999
 20
337.155501
 30
0.0
 11
214.404842
 21
337.155501
 31
0.0
  0
SOLID
  5
30F
330
1F
100
AcDbEntity
  8
2
100
AcDbTrace
 10
403.4048419999999
 20
337.155501
 30
0.0
 11
399.904844
 21
336.538356
 31
0.0
 12
399.90484
 22
337.772645
 32
0.0
 13
399.90484
 23
337.772645
 33
0.0
  0
SOLID
  5
310
330
1F
100
AcDbEntity
  8
2
100
AcDbTrace
 10
214.404842
 20
337.155501
 30
0.0
 11
217.90484
 21
337.772645
 31
0.0
 12
217.904844
 22
336.538356
 32
0.0
 13
217.904844
 23
336.538356
 33
0.0
  0
MTEXT
  5
311
330
1F
100
AcDbEntity
  8
2
100
AcDbMText
 10
242.590342
 20
322.75644
 30
0.0
 40
3.5
 41
0.0
 71
     7
 72
     5
  1
\W0.7045;60
  7
cesky
 73
     2
 44
0.8433729999999998
  0
LINE
  5
312
330
1F
100
AcDbEntity
  8
2
100
AcDbLine
 10
274.404842
 20
288.907994
 30
0.0
 11
274.404842
 21
323.882273
 31
0.0
  0
LINE
  5
313
330
1F
100
AcDbEntity
  8
2
100
AcDbLine
 10
214.404842
 20
302.907994
 30
0.0
 11
214.404842
 21
323.882273
 31
0.0
  0
LINE
  5
314
330
1F
100
AcDbEntity
  8
2
100
AcDbLine
 10
274.404842
 20
322.882273
 30
0.0
 11
214.404842
 21
322.882273
 31
0.0
  0
SOLID
  5
315
330
1F
100
AcDbEntity
  8
2
100
AcDbTrace
 10
274.404842
 20
322.882273
 30
0.0
 11
270.904844
 21
322.265129
 31
0.0
 12
270.90484
 22
323.499418
 32
0.0
 13
270.90484
 23
323.499418
 33
0.0
  0
SOLID
  5
316
330
1F
100
AcDbEntity
  8
2
100
AcDbTrace
 10
214.404842
 20
322.882273
 30
0.0
 11
217.90484
 21
323.499418
 31
0.0
 12
217.904844
 22
322.265129
 32
0.0
 13
217.904844
 23
322.265129
 33
0.0
  0
MTEXT
  5
317
330
1F
100
AcDbEntity
  8
2
100
AcDbMText
 10
343.059488
 20
311.427945
 30
0.0
 40
3.5
 41
0.0
 71
     7
 72
     5
  1
\W0.8654;109,5
  7
cesky
 73
     2
 44
0.8433729999999998
  0
LINE
  5
318
330
1F
100
AcDbEntity
  8
2
100
AcDbLine
 10
403.4048419999999
 20
303.907994
 30
0.0
 11
403.4048419999999
 21
312.553778
 31
0.0
  0
LINE
  5
319
330
1F
100
AcDbEntity
  8
2
100
AcDbLine
 10
293.918134
 20
301.786726
 30
0.0
 11
293.918134
 21
312.553778
 31
0.0
  0
LINE
  5
31A
330
1F
100
AcDbEntity
  8
2
100
AcDbLine
 10
403.4048419999999
 20
311.553778
 30
0.0
 11
293.918134
 21
311.553778
 31
0.0
  0
SOLID
  5
31B
330
1F
100
AcDbEntity
  8
2
100
AcDbTrace
 10
403.4048419999999
 20
311.553778
 30
0.0
 11
399.904844
 21
310.936634
 31
0.0
 12
399.90484
 22
312.170923
 32
0.0
 13
399.90484
 23
312.170923
 33
0.0
  0
SOLID
  5
31C
330
1F
100
AcDbEntity
  8
2
100
AcDbTrace
 10
293.918134
 20
311.553778
 30
0.0
 11
297.418131
 21
312.170923
 31
0.0
 12
297.418136
 22
310.936634
 32
0.0
 13
297.418136
 23
310.936634
 33
0.0
  0
MTEXT
  5
31D
330
1F
100
AcDbEntity
  8
SK2
100
AcDbMText
 10
204.480913
 20
290.434244
 30
0.0
 40
3.5
 41
0.0
 71
     7
 72
     5
  1
\W0.7045;32
  7
cesky
 11
0.0000000000000001
 21
1.0
 31
0.0
 73
     2
 44
0.8433729999999998
  0
MTEXT
  5
31E
330
1F
100
AcDbEntity
  8
SK2
100
AcDbMText
 10
204.480913
 20
283.696744
 30
0.0
 40
3.5
 41
0.0
 71
     7
 72
     5
  1
\W3.0115;\H2.63;%%c\H3.50;
  7
cesky
 11
0.0000000000000001
 21
1.0
 31
0.0
 73
     2
 44
0.8433729999999998
  0
LINE
  5
31F
330
1F
100
AcDbEntity
  8
SK2
100
AcDbLine
 10
216.404842
 20
304.907994
 30
0.0
 11
203.66833
 21
304.907994
 31
0.0
  0
LINE
  5
320
330
1F
100
AcDbEntity
  8
SK2
100
AcDbLine
 10
216.404842
 20
272.907994
 30
0.0
 11
203.66833
 21
272.907994
 31
0.0
  0
LINE
  5
321
330
1F
100
AcDbEntity
  8
SK2
100
AcDbLine
 10
204.66833
 20
304.907994
 30
0.0
 11
204.66833
 21
272.907994
 31
0.0
  0
SOLID
  5
322
330
1F
100
AcDbEntity
  8
SK2
100
AcDbTrace
 10
204.66833
 20
304.907994
 30
0.0
 11
205.285474
 21
301.407996
 31
0.0
 12
204.051185
 22
301.407991
 32
0.0
 13
204.051185
 23
301.407991
 33
0.0
  0
SOLID
  5
323
330
1F
100
AcDbEntity
  8
SK2
100
AcDbTrace
 10
204.66833
 20
272.907994
 30
0.0
 11
204.051185
 21
276.407991
 31
0.0
 12
205.285474
 22
276.407996
 32
0.0
 13
205.285474
 23
276.407996
 33
0.0
  0
MTEXT
  5
324
330
1F
100
AcDbEntity
  8
SK2
100
AcDbMText
 10
191.916868
 20
290.434244
 30
0.0
 40
3.5
 41
0.0
 71
     7
 72
     5
  1
\W0.7045;42
  7
cesky
 11
0.0000000000000001
 21
1.0
 31
0.0
 73
     2
 44
0.8433729999999998
  0
MTEXT
  5
325
330
1F
100
AcDbEntity
  8
SK2
100
AcDbMText
 10
191.916868
 20
283.696744
 30
0.0
 40
3.5
 41
0.0
 71
     7
 72
     5
  1
\W3.0115;\H2.63;%%c\H3.50;
  7
cesky
 11
0.0000000000000001
 21
1.0
 31
0.0
 73
     2
 44
0.8433729999999998
  0
LINE
  5
326
330
1F
100
AcDbEntity
  8
SK2
100
AcDbLine
 10
274.904842
 20
309.907994
 30
0.0
 11
191.104285
 21
309.907994
 31
0.0
  0
LINE
  5
327
330
1F
100
AcDbEntity
  8
SK2
100
AcDbLine
 10
274.904842
 20
267.907994
 30
0.0
 11
191.104285
 21
267.907994
 31
0.0
  0
LINE
  5
328
330
1F
100
AcDbEntity
  8
SK2
100
AcDbLine
 10
192.104285
 20
309.907994
 30
0.0
 11
192.104285
 21
267.907994
 31
0.0
  0
SOLID
  5
329
330
1F
100
AcDbEntity
  8
SK2
100
AcDbTrace
 10
192.104285
 20
309.907994
 30
0.0
 11
192.721429
 21
306.407996
 31
0.0
 12
191.48714
 22
306.407991
 32
0.0
 13
191.48714
 23
306.407991
 33
0.0
  0
SOLID
  5
32A
330
1F
100
AcDbEntity
  8
SK2
100
AcDbTrace
 10
192.104285
 20
267.907994
 30
0.0
 11
191.48714
 21
271.4079910000001
 31
0.0
 12
192.721429
 22
271.407996
 32
0.0
 13
192.721429
 23
271.407996
 33
0.0
  0
LINE
  5
32B
330
1F
100
AcDbEntity
  8
CUT
100
AcDbLine
 10
403.3232220537611
 20
294.5790593854285
 30
0.0
 11
403.4048419452957
 21
289.907193789091
 31
0.0
  0
LINE
  5
32D
330
1F
100
AcDbEntity
  8
CUT
100
AcDbLine
 10
402.8425731805867
 20
295.3788844435114
 30
0.0
 11
403.3232220537611
 21
294.5790593854285
 31
0.0
  0
LINE
  5
32E
330
1F
100
AcDbEntity
  8
CUT
100
AcDbLine
 10
402.582930655959
 20
301.1741227174868
 30
0.0
 11
402.8425731805867
 21
295.3788844435114
 31
0.0
  0
LINE
  5
330
330
1F
100
AcDbEntity
  8
CUT
100
AcDbLine
 10
395.3883503602069
 20
301.6123690380021
 30
0.0
 11
401.7812187842228
 21
301.9042995993686
 31
0.0
  0
LINE
  5
331
330
1F
100
AcDbEntity
  8
CUT
100
AcDbLine
 10
403.4048419999999
 20
288.907994
 30
0.0
 11
394.654993
 21
288.907994
 31
0.0
  0
LINE
  5
332
330
1F
100
AcDbEntity
  8
CUT
100
AcDbLine
 10
394.654993
 20
288.907994
 30
0.0
 11
394.654993
 21
300.811582
 31
0.0
  0
LINE
  5
333
330
1F
100
AcDbEntity
  8
CUT
100
AcDbLine
 10
403.4048419999999
 20
289.907194
 30
0.0
 11
403.4048419999999
 21
288.907994
 31
0.0
  0
ARC
  5
334
330
1F
100
AcDbEntity
  8
CUT
100
AcDbCircle
 10
401.8069652193672
 20
301.1263788500139
 30
0.0
 40
0.778346690877065
100
AcDbArc
 50
9.036201943414258
 51
91.89559644325671
  0
ARC
  5
335
330
1F
100
AcDbEntity
  8
CUT
100
AcDbCircle
 10
401.8700865280139
 20
301.142087143262
 30
0.0
 40
0.713563612274164
100
AcDbArc
 50
2.573169827785337
 51
8.586575605040154
  0
ARC
  5
336
330
1F
100
AcDbEntity
  8
CUT
100
AcDbCircle
 10
395.4344289949823
 20
300.8345422663285
 30
0.0
 40
0.779774003203582
100
AcDbArc
 50
97.52291335842368
 51
181.6872691720085
  0
ARC
  5
337
330
1F
100
AcDbEntity
  8
CUT
100
AcDbCircle
 10
395.4211009159002
 20
300.8957520853654
 30
0.0
 40
0.7173649389986303
100
AcDbArc
 50
92.61668918731952
 51
97.10761837213013
  0
ENDSEC
  0
SECTION
  2
OBJECTS
  0
DICTIONARY
  5
C
330
0
100
AcDbDictionary
281
     1
  3
ACAD_CIP_PREVIOUS_PRODUCT_INFO
350
2FD
  3
ACAD_COLOR
350
2F8
  3
ACAD_DETAILVIEWSTYLE
350
2F4
  3
ACAD_GROUP
350
D
  3
ACAD_LAYOUT
350
1A
  3
ACAD_MATERIAL
350
43
  3
ACAD_MLEADERSTYLE
350
6B
  3
ACAD_MLINESTYLE
350
17
  3
ACAD_PLOTSETTINGS
350
19
  3
ACAD_PLOTSTYLENAME
350
E
  3
ACAD_SCALELIST
350
47
  3
ACAD_SECTIONVIEWSTYLE
350
2F5
  3
ACAD_TABLESTYLE
350
69
  3
ACAD_VISUALSTYLE
350
2A
  3
ACDB_RECOMPOSE_DATA
350
363
  3
AcDbVariableDictionary
350
2B1
  0
DICTIONARY
  5
346
330
10
100
AcDbDictionary
280
     1
281
     1
  3
ADSK_XREC_LAYER_RECONCILED
360
347
  0
DICTIONARY
  5
348
330
338
100
AcDbDictionary
280
     1
281
     1
  3
ADSK_XREC_LAYER_RECONCILED
360
349
  0
DICTIONARY
  5
34A
330
339
100
AcDbDictionary
280
     1
281
     1
  3
ADSK_XREC_LAYER_RECONCILED
360
34B
  0
DICTIONARY
  5
34C
330
33A
100
AcDbDictionary
280
     1
281
     1
  3
ADSK_XREC_LAYER_RECONCILED
360
34D
  0
DICTIONARY
  5
34E
330
33C
100
AcDbDictionary
280
     1
281
     1
  3
ADSK_XREC_LAYER_RECONCILED
360
34F
  0
DICTIONARY
  5
350
330
33D
100
AcDbDictionary
280
     1
281
     1
  3
ADSK_XREC_LAYER_RECONCILED
360
351
  0
DICTIONARY
  5
352
330
33F
100
AcDbDictionary
280
     1
281
     1
  3
ADSK_XREC_LAYER_RECONCILED
360
353
  0
DICTIONARY
  5
354
330
340
100
AcDbDictionary
280
     1
281
     1
  3
ADSK_XREC_LAYER_RECONCILED
360
355
  0
DICTIONARY
  5
356
330
341
100
AcDbDictionary
280
     1
281
     1
  3
ADSK_XREC_LAYER_RECONCILED
360
357
  0
DICTIONARY
  5
358
330
342
100
AcDbDictionary
280
     1
281
     1
  3
ADSK_XREC_LAYER_RECONCILED
360
359
  0
DICTIONARY
  5
35A
330
343
100
AcDbDictionary
280
     1
281
     1
  3
ADSK_XREC_LAYER_RECONCILED
360
35B
  0
DICTIONARY
  5
35C
330
344
100
AcDbDictionary
280
     1
281
     1
  3
ADSK_XREC_LAYER_RECONCILED
360
35D
  0
DICTIONARY
  5
2FE
330
1F
100
AcDbDictionary
280
     1
281
     1
  3
ACAD_SORTENTS
360
2FF
  0
XRECORD
  5
2FD
102
{ACAD_REACTORS
330
C
102
}
330
C
100
AcDbXrecord
280
     1
300
ACD
300
2019
300
87084ACD_2019_0F
  0
DICTIONARY
  5
2F8
102
{ACAD_REACTORS
330
C
102
}
330
C
100
AcDbDictionary
281
     1
  0
DICTIONARY
  5
2F4
102
{ACAD_REACTORS
330
C
102
}
330
C
100
AcDbDictionary
281
     1
  3
Metric50
350
2FA
  0
DICTIONARY
  5
D
102
{ACAD_REACTORS
330
C
102
}
330
C
100
AcDbDictionary
281
     1
  3
NULOVY_BOD
350
345
  0
DICTIONARY
  5
1A
102
{ACAD_REACTORS
330
C
102
}
330
C
100
AcDbDictionary
281
     1
  3
Layout1
350
1E
  3
Layout2
350
26
  3
Model
350
22
  0
DICTIONARY
  5
43
102
{ACAD_REACTORS
330
C
102
}
330
C
100
AcDbDictionary
281
     1
  3
ByBlock
350
45
  3
ByLayer
350
44
  3
Global
350
46
  0
DICTIONARY
  5
6B
102
{ACAD_REACTORS
330
C
102
}
330
C
100
AcDbDictionary
281
     1
  3
Standard
350
6C
  0
DICTIONARY
  5
17
102
{ACAD_REACTORS
330
C
102
}
330
C
100
AcDbDictionary
281
     1
  3
Standard
350
18
  0
DICTIONARY
  5
19
102
{ACAD_REACTORS
330
C
102
}
330
C
100
AcDbDictionary
281
     1
  0
ACDBDICTIONARYWDFLT
  5
E
102
{ACAD_REACTORS
330
C
102
}
330
C
100
AcDbDictionary
281
     1
  3
Normal
350
F
100
AcDbDictionaryWithDefault
340
F
  0
DICTIONARY
  5
47
102
{ACAD_REACTORS
330
C
102
}
330
C
100
AcDbDictionary
281
     1
  3
A0
350
48
  3
A1
350
49
  3
A2
350
4A
  3
A3
350
4B
  3
A4
350
4C
  3
A5
350
4D
  3
A6
350
4E
  3
A7
350
4F
  3
A8
350
50
  3
A9
350
51
  3
B0
350
52
  3
B1
350
53
  3
B2
350
54
  3
B3
350
55
  3
B4
350
56
  3
B5
350
57
  3
B6
350
58
  3
B7
350
59
  3
B8
350
5A
  3
B9
350
5B
  3
C0
350
5C
  3
C1
350
5D
  3
C2
350
5E
  3
C3
350
5F
  3
C4
350
60
  3
C5
350
61
  3
C6
350
62
  3
C7
350
63
  3
C8
350
64
  3
C9
350
65
  3
D0
350
66
  3
D1
350
67
  3
D2
350
68
  0
DICTIONARY
  5
2F5
102
{ACAD_REACTORS
330
C
102
}
330
C
100
AcDbDictionary
281
     1
  3
Metric50
350
2F9
  0
DICTIONARY
  5
69
102
{ACAD_REACTORS
330
C
102
}
330
C
100
AcDbDictionary
281
     1
  3
Standard
350
6A
  0
DICTIONARY
  5
2A
102
{ACAD_REACTORS
330
C
102
}
330
C
100
AcDbDictionary
281
     1
  3
2dWireframe
350
2F
  3
Basic
350
32
  3
Brighten
350
36
  3
ColorChange
350
3A
  3
Conceptual
350
34
  3
Dim
350
35
  3
EdgeColorOff
350
3D
  3
Facepattern
350
39
  3
Flat
350
2B
  3
FlatWithEdges
350
2C
  3
Gouraud
350
2D
  3
GouraudWithEdges
350
2E
  3
Hidden
350
31
  3
JitterOff
350
3B
  3
Linepattern
350
38
  3
OverhangOff
350
3C
  3
Realistic
350
33
  3
Shaded
350
42
  3
Shaded with edges
350
41
  3
Shades of Gray
350
3E
  3
Sketchy
350
3F
  3
Thicken
350
37
  3
Wireframe
350
30
  3
X-Ray
350
40
  0
XRECORD
  5
363
102
{ACAD_REACTORS
330
C
102
}
330
C
100
AcDbXrecord
280
     1
 90
        1
330
6A
  0
DICTIONARY
  5
2B1
102
{ACAD_REACTORS
330
C
102
}
330
C
100
AcDbDictionary
281
     1
  3
CANNOSCALE
350
2B2
  3
CMLEADERSTYLE
350
2F3
  3
CTABLESTYLE
350
2F2
  3
CVIEWDETAILSTYLE
350
35E
  3
CVIEWSECTIONSTYLE
350
35F
  3
MSLTSCALE
350
2B3
  3
XCLIPFRAME
350
360
  0
XRECORD
  5
347
102
{ACAD_REACTORS
330
346
102
}
330
346
100
AcDbXrecord
280
     1
290
     1
  0
XRECORD
  5
349
102
{ACAD_REACTORS
330
348
102
}
330
348
100
AcDbXrecord
280
     1
290
     1
  0
XRECORD
  5
34B
102
{ACAD_REACTORS
330
34A
102
}
330
34A
100
AcDbXrecord
280
     1
290
     1
  0
XRECORD
  5
34D
102
{ACAD_REACTORS
330
34C
102
}
330
34C
100
AcDbXrecord
280
     1
290
     1
  0
XRECORD
  5
34F
102
{ACAD_REACTORS
330
34E
102
}
330
34E
100
AcDbXrecord
280
     1
290
     1
  0
XRECORD
  5
351
102
{ACAD_REACTORS
330
350
102
}
330
350
100
AcDbXrecord
280
     1
290
     1
  0
XRECORD
  5
353
102
{ACAD_REACTORS
330
352
102
}
330
352
100
AcDbXrecord
280
     1
290
     1
  0
XRECORD
  5
355
102
{ACAD_REACTORS
330
354
102
}
330
354
100
AcDbXrecord
280
     1
290
     1
  0
XRECORD
  5
357
102
{ACAD_REACTORS
330
356
102
}
330
356
100
AcDbXrecord
280
     1
290
     1
  0
XRECORD
  5
359
102
{ACAD_REACTORS
330
358
102
}
330
358
100
AcDbXrecord
280
     1
290
     1
  0
XRECORD
  5
35B
102
{ACAD_REACTORS
330
35A
102
}
330
35A
100
AcDbXrecord
280
     1
290
     1
  0
XRECORD
  5
35D
102
{ACAD_REACTORS
330
35C
102
}
330
35C
100
AcDbXrecord
280
     1
290
     1
  0
SORTENTSTABLE
  5
2FF
102
{ACAD_REACTORS
330
2FE
102
}
330
2FE
100
AcDbSortentsTable
330
1F
331
300
  5
20B
331
301
  5
224
331
302
  5
300
331
303
  5
301
331
304
  5
302
331
305
  5
313
331
306
  5
314
331
307
  5
315
331
308
  5
316
331
309
  5
317
331
30A
  5
318
331
30B
  5
319
331
30C
  5
31A
331
30D
  5
31B
331
30E
  5
31C
331
30F
  5
31D
331
310
  5
31E
331
311
  5
31F
331
312
  5
320
331
313
  5
321
331
314
  5
322
331
315
  5
323
331
316
  5
324
331
317
  5
325
331
318
  5
326
331
319
  5
327
331
31A
  5
328
331
31B
  5
329
331
31C
  5
32A
331
31D
  5
305
331
31E
  5
306
331
31F
  5
307
331
320
  5
308
331
321
  5
309
331
322
  5
30A
331
323
  5
30B
331
324
  5
30C
331
325
  5
30D
331
326
  5
30E
331
327
  5
30F
331
328
  5
310
331
329
  5
311
331
32A
  5
312
331
32D
  5
330
331
32E
  5
331
331
330
  5
334
331
331
  5
335
331
332
  5
336
331
333
  5
337
331
334
  5
32D
331
335
  5
32E
331
336
  5
332
331
337
  5
333
  0
ACDBDETAILVIEWSTYLE
  5
2FA
102
{ACAD_XDICTIONARY
360
397
102
}
102
{ACAD_REACTORS
330
2F4
102
}
330
2F4
100
AcDbModelDocViewStyle
 70
     0
  3
Metric50
290
     0
100
AcDbDetailViewStyle
 70
     0
 71
     0
 90
        3
 71
     1
340
11
 62
   256
 40
5.0
340
0
 62
   256
 40
5.0
300

 40
0.0
280
     1
 71
     2
340
16
 90
       25
 62
   256
 71
     3
340
11
 62
   256
 40
5.0
 90
        0
 40
15.0
 90
        1
300
%<\AcVar ViewDetailId>% (%<\AcVar ViewScale \f "%sn">%)
 71
     4
340
16
 90
       25
 62
   256
340
16
 90
       25
 62
   256
280
     0
  0
GROUP
  5
345
102
{ACAD_REACTORS
330
D
102
}
330
D
100
AcDbGroup
300

 70
     0
 71
     1
340
73
  0
LAYOUT
  5
1E
102
{ACAD_REACTORS
330
1A
102
}
330
1A
100
AcDbPlotSettings
  1

  2
none_device
  4

  6

 40
0.0
 41
0.0
 42
0.0
 43
0.0
 44
0.0
 45
0.0
 46
0.0
 47
0.0
 48
0.0
 49
0.0
140
0.0
141
0.0
142
1.0
143
1.0
 70
   688
 72
     0
 73
     0
 74
     5
  7

 75
    16
147
1.0
 76
     0
 77
     2
 78
   300
148
0.0
149
0.0
100
AcDbLayout
  1
Layout1
 70
     1
 71
     1
 10
-0.5
 20
-0.5
 11
5.0
 21
5.0
 12
0.0
 22
0.0
 32
0.0
 14
-0.5
 24
-0.5
 34
-0.5
 15
5.0
 25
5.0
 35
5.0
146
0.0
 13
0.0
 23
0.0
 33
0.0
 16
1.0
 26
0.0
 36
0.0
 17
0.0
 27
1.0
 37
0.0
 76
     0
330
1B
  0
LAYOUT
  5
26
102
{ACAD_REACTORS
330
1A
102
}
330
1A
100
AcDbPlotSettings
  1

  2
none_device
  4

  6

 40
0.0
 41
0.0
 42
0.0
 43
0.0
 44
0.0
 45
0.0
 46
0.0
 47
0.0
 48
0.0
 49
0.0
140
0.0
141
0.0
142
1.0
143
1.0
 70
   688
 72
     0
 73
     0
 74
     5
  7

 75
    16
147
1.0
 76
     0
 77
     2
 78
   300
148
0.0
149
0.0
100
AcDbLayout
  1
Layout2
 70
     1
 71
     2
 10
0.0
 20
0.0
 11
0.0
 21
0.0
 12
0.0
 22
0.0
 32
0.0
 14
0.0
 24
0.0
 34
0.0
 15
0.0
 25
0.0
 35
0.0
146
0.0
 13
0.0
 23
0.0
 33
0.0
 16
1.0
 26
0.0
 36
0.0
 17
0.0
 27
1.0
 37
0.0
 76
     0
330
23
  0
LAYOUT
  5
22
102
{ACAD_REACTORS
330
1A
102
}
330
1A
100
AcDbPlotSettings
  1

  2
none_device
  4
Letter_(8.50_x_11.00_Inches)
  6

 40
6.349999999999999
 41
6.349999999999999
 42
6.350005
 43
6.350005
 44
215.9
 45
279.4
 46
0.0
 47
0.0
 48
0.0
 49
0.0
140
0.0
141
0.0
142
1.0
143
1.0
 70
  1712
 72
     0
 73
     0
 74
     0
  7

 75
     0
147
1.0
 76
     0
 77
     2
 78
   300
148
0.0
149
0.0
100
AcDbLayout
  1
Model
 70
     1
 71
     0
 10
-0.5
 20
-0.5
 11
5.0
 21
5.0
 12
0.0
 22
0.0
 32
0.0
 14
-0.5
 24
-0.5
 34
-0.5
 15
5.0
 25
5.0
 35
5.0
146
0.0
 13
0.0
 23
0.0
 33
0.0
 16
1.0
 26
0.0
 36
0.0
 17
0.0
 27
1.0
 37
0.0
 76
     0
330
1F
331
29
  0
MATERIAL
  5
45
102
{ACAD_XDICTIONARY
360
2E7
102
}
102
{ACAD_REACTORS
330
43
102
}
330
43
100
AcDbMaterial
  1
ByBlock
  0
MATERIAL
  5
44
102
{ACAD_XDICTIONARY
360
2E5
102
}
102
{ACAD_REACTORS
330
43
102
}
330
43
100
AcDbMaterial
  1
ByLayer
  0
MATERIAL
  5
46
102
{ACAD_XDICTIONARY
360
2E9
102
}
102
{ACAD_REACTORS
330
43
102
}
330
43
100
AcDbMaterial
  1
Global
  0
MLEADERSTYLE
  5
6C
102
{ACAD_REACTORS
330
6B
102
}
330
6B
100
AcDbMLeaderStyle
170
     2
171
     1
172
     0
 90
        2
 40
0.0
 41
0.0
173
     1
 91
-1056964608
340
14
 92
       -2
290
     1
 42
0.09
291
     1
 43
0.36
  3
Standard
 44
0.18
300

342
11
174
     1
178
     6
175
     1
176
     0
 93
-1056964608
 45
0.18
292
     0
297
     0
 46
0.18
 94
-1056964608
 47
1.0
 49
1.0
140
1.0
293
     1
141
0.0
294
     1
177
     0
142
1.0
295
     0
296
     0
143
0.125
1001
ACAD_MLEADERVER
1070
     2
  0
MLINESTYLE
  5
18
102
{ACAD_REACTORS
330
17
102
}
330
17
100
AcDbMlineStyle
  2
STANDARD
 70
     0
  3

 62
   256
 51
90.0
 52
90.0
 71
     2
 49
0.5
 62
   256
  6
BYLAYER
 49
-0.5
 62
   256
  6
BYLAYER
  0
ACDBPLACEHOLDER
  5
F
102
{ACAD_REACTORS
330
E
102
}
330
E
  0
SCALE
  5
48
102
{ACAD_REACTORS
330
47
102
}
330
47
100
AcDbScale
 70
     0
300
1:1
140
1.0
141
1.0
290
     1
  0
SCALE
  5
49
102
{ACAD_REACTORS
330
47
102
}
330
47
100
AcDbScale
 70
     0
300
1:2
140
1.0
141
2.0
290
     0
  0
SCALE
  5
4A
102
{ACAD_REACTORS
330
47
102
}
330
47
100
AcDbScale
 70
     0
300
1:4
140
1.0
141
4.0
290
     0
  0
SCALE
  5
4B
102
{ACAD_REACTORS
330
47
102
}
330
47
100
AcDbScale
 70
     0
300
1:5
140
1.0
141
5.0
290
     0
  0
SCALE
  5
4C
102
{ACAD_REACTORS
330
47
102
}
330
47
100
AcDbScale
 70
     0
300
1:8
140
1.0
141
8.0
290
     0
  0
SCALE
  5
4D
102
{ACAD_REACTORS
330
47
102
}
330
47
100
AcDbScale
 70
     0
300
1:10
140
1.0
141
10.0
290
     0
  0
SCALE
  5
4E
102
{ACAD_REACTORS
330
47
102
}
330
47
100
AcDbScale
 70
     0
300
1:16
140
1.0
141
16.0
290
     0
  0
SCALE
  5
4F
102
{ACAD_REACTORS
330
47
102
}
330
47
100
AcDbScale
 70
     0
300
1:20
140
1.0
141
20.0
290
     0
  0
SCALE
  5
50
102
{ACAD_REACTORS
330
47
102
}
330
47
100
AcDbScale
 70
     0
300
1:30
140
1.0
141
30.0
290
     0
  0
SCALE
  5
51
102
{ACAD_REACTORS
330
47
102
}
330
47
100
AcDbScale
 70
     0
300
1:40
140
1.0
141
40.0
290
     0
  0
SCALE
  5
52
102
{ACAD_REACTORS
330
47
102
}
330
47
100
AcDbScale
 70
     0
300
1:50
140
1.0
141
50.0
290
     0
  0
SCALE
  5
53
102
{ACAD_REACTORS
330
47
102
}
330
47
100
AcDbScale
 70
     0
300
1:100
140
1.0
141
100.0
290
     0
  0
SCALE
  5
54
102
{ACAD_REACTORS
330
47
102
}
330
47
100
AcDbScale
 70
     0
300
2:1
140
2.0
141
1.0
290
     0
  0
SCALE
  5
55
102
{ACAD_REACTORS
330
47
102
}
330
47
100
AcDbScale
 70
     0
300
4:1
140
4.0
141
1.0
290
     0
  0
SCALE
  5
56
102
{ACAD_REACTORS
330
47
102
}
330
47
100
AcDbScale
 70
     0
300
8:1
140
8.0
141
1.0
290
     0
  0
SCALE
  5
57
102
{ACAD_REACTORS
330
47
102
}
330
47
100
AcDbScale
 70
     0
300
10:1
140
10.0
141
1.0
290
     0
  0
SCALE
  5
58
102
{ACAD_REACTORS
330
47
102
}
330
47
100
AcDbScale
 70
     0
300
100:1
140
100.0
141
1.0
290
     0
  0
SCALE
  5
59
102
{ACAD_REACTORS
330
47
102
}
330
47
100
AcDbScale
 70
     0
300
1/128" = 1'-0"
140
0.007812
141
12.0
290
     0
  0
SCALE
  5
5A
102
{ACAD_REACTORS
330
47
102
}
330
47
100
AcDbScale
 70
     0
300
1/64" = 1'-0"
140
0.015625
141
12.0
290
     0
  0
SCALE
  5
5B
102
{ACAD_REACTORS
330
47
102
}
330
47
100
AcDbScale
 70
     0
300
1/32" = 1'-0"
140
0.03125
141
12.0
290
     0
  0
SCALE
  5
5C
102
{ACAD_REACTORS
330
47
102
}
330
47
100
AcDbScale
 70
     0
300
1/16" = 1'-0"
140
0.0625
141
12.0
290
     0
  0
SCALE
  5
5D
102
{ACAD_REACTORS
330
47
102
}
330
47
100
AcDbScale
 70
     0
300
3/32" = 1'-0"
140
0.09375
141
12.0
290
     0
  0
SCALE
  5
5E
102
{ACAD_REACTORS
330
47
102
}
330
47
100
AcDbScale
 70
     0
300
1/8" = 1'-0"
140
0.125
141
12.0
290
     0
  0
SCALE
  5
5F
102
{ACAD_REACTORS
330
47
102
}
330
47
100
AcDbScale
 70
     0
300
3/16" = 1'-0"
140
0.1875
141
12.0
290
     0
  0
SCALE
  5
60
102
{ACAD_REACTORS
330
47
102
}
330
47
100
AcDbScale
 70
     0
300
1/4" = 1'-0"
140
0.25
141
12.0
290
     0
  0
SCALE
  5
61
102
{ACAD_REACTORS
330
47
102
}
330
47
100
AcDbScale
 70
     0
300
3/8" = 1'-0"
140
0.375
141
12.0
290
     0
  0
SCALE
  5
62
102
{ACAD_REACTORS
330
47
102
}
330
47
100
AcDbScale
 70
     0
300
1/2" = 1'-0"
140
0.5
141
12.0
290
     0
  0
SCALE
  5
63
102
{ACAD_REACTORS
330
47
102
}
330
47
100
AcDbScale
 70
     0
300
3/4" = 1'-0"
140
0.75
141
12.0
290
     0
  0
SCALE
  5
64
102
{ACAD_REACTORS
330
47
102
}
330
47
100
AcDbScale
 70
     0
300
1" = 1'-0"
140
1.0
141
12.0
290
     0
  0
SCALE
  5
65
102
{ACAD_REACTORS
330
47
102
}
330
47
100
AcDbScale
 70
     0
300
1-1/2" = 1'-0"
140
1.5
141
12.0
290
     0
  0
SCALE
  5
66
102
{ACAD_REACTORS
330
47
102
}
330
47
100
AcDbScale
 70
     0
300
3" = 1'-0"
140
3.0
141
12.0
290
     0
  0
SCALE
  5
67
102
{ACAD_REACTORS
330
47
102
}
330
47
100
AcDbScale
 70
     0
300
6" = 1'-0"
140
6.0
141
12.0
290
     0
  0
SCALE
  5
68
102
{ACAD_REACTORS
330
47
102
}
330
47
100
AcDbScale
 70
     0
300
1'-0" = 1'-0"
140
12.0
141
12.0
290
     0
  0
ACDBSECTIONVIEWSTYLE
  5
2F9
102
{ACAD_XDICTIONARY
360
395
102
}
102
{ACAD_REACTORS
330
2F5
102
}
330
2F5
100
AcDbModelDocViewStyle
 70
     0
  3
Metric50
290
     0
100
AcDbSectionViewStyle
 70
     0
 71
     0
 90
      102
 71
     1
340
11
 62
   256
 40
5.0
340
0
340
0
 62
   256
 40
5.0
300
I, O, Q, S, X, Z
 40
10.0
 90
        0
 40
2.5
 90
        0
 71
     2
340
16
 90
       25
 62
   256
340
16
 90
       50
 62
   256
 40
5.0
 40
2.5
 40
5.0
 71
     3
340
11
 62
   256
 40
5.0
 90
        0
 40
15.0
 90
        1
300
%<\AcVar ViewSectionStartId>%-%<\AcVar ViewSectionEndId>% (%<\AcVar ViewScale \f "%sn">%)
 71
     4
 62
   256
 62
   257
300
ANSI31
 40
1.0
 90
        0
290
     0
290
     0
 90
        6
 40
0.0
 40
1.570796326794896
 40
0.2617993877991494
 40
1.308996938995747
 40
-0.2617993877991494
 40
1.832595714594046
  0
TABLESTYLE
  5
6A
102
{ACAD_XDICTIONARY
360
2EB
102
}
102
{ACAD_REACTORS
330
69
102
}
330
69
100
AcDbTableStyle
  3
Standard
 70
     0
 71
     0
 40
0.06
 41
0.06
280
     0
281
     0
  7
Standard
140
0.18
170
     2
 62
     0
 63
     7
283
     0
274
    -2
284
     1
 64
     0
275
    -2
285
     1
 65
     0
276
    -2
286
     1
 66
     0
277
    -2
287
     1
 67
     0
278
    -2
288
     1
 68
     0
279
    -2
289
     1
 69
     0
  7
Standard
140
0.25
170
     5
 62
     0
 63
     7
283
     0
274
    -2
284
     1
 64
     0
275
    -2
285
     1
 65
     0
276
    -2
286
     1
 66
     0
277
    -2
287
     1
 67
     0
278
    -2
288
     1
 68
     0
279
    -2
289
     1
 69
     0
  7
Standard
140
0.18
170
     5
 62
     0
 63
     7
283
     0
274
    -2
284
     1
 64
     0
275
    -2
285
     1
 65
     0
276
    -2
286
     1
 66
     0
277
    -2
287
     1
 67
     0
278
    -2
288
     1
 68
     0
279
    -2
289
     1
 69
     0
  0
VISUALSTYLE
  5
2F
102
{ACAD_XDICTIONARY
360
36C
102
}
102
{ACAD_REACTORS
330
2A
102
}
330
2A
100
AcDbVisualStyle
  2

 70
     4
 71
     0
 72
     2
 73
     0
 90
        0
 40
-0.6
 41
-30.0
 62
     5
 63
     7
421
 16777215
 74
     1
 91
        4
 64
     7
 65
   257
 75
     1
175
     1
 42
1.0
 92
        0
 66
   257
 43
1.0
 76
     1
 77
     6
 78
     2
 67
     7
 79
     5
170
     0
171
     0
290
     0
174
     0
 93
        1
 44
0.0
173
     0
291
     0
 45
0.0
1001
ACAD
1000
AcDbSavedByObjectVersion
1070
     0
  0
VISUALSTYLE
  5
32
102
{ACAD_XDICTIONARY
360
372
102
}
102
{ACAD_REACTORS
330
2A
102
}
330
2A
100
AcDbVisualStyle
  2

 70
     7
 71
     1
 72
     0
 73
     1
 90
        0
 40
-0.6
 41
-30.0
 62
     5
 63
     7
421
 16777215
 74
     0
 91
        4
 64
     7
 65
   257
 75
     1
175
     1
 42
1.0
 92
        8
 66
     7
 43
1.0
 76
     1
 77
     6
 78
     2
 67
     7
 79
     5
170
     0
171
     0
290
     0
174
     0
 93
        1
 44
0.0
173
     0
291
     1
 45
0.0
1001
ACAD
1000
AcDbSavedByObjectVersion
1070
     0
  0
VISUALSTYLE
  5
36
102
{ACAD_XDICTIONARY
360
37A
102
}
102
{ACAD_REACTORS
330
2A
102
}
330
2A
100
AcDbVisualStyle
  2

 70
    12
 71
     2
 72
     2
 73
     0
 90
        0
 40
-0.6
 41
-30.0
 62
     5
 63
     7
421
 16777215
 74
     1
 91
        4
 64
     7
 65
   257
 75
     1
175
     1
 42
1.0
 92
        8
 66
     7
 43
1.0
 76
     1
 77
     6
 78
     2
 67
     7
 79
     5
170
     0
171
     0
290
     0
174
     0
 93
        1
 44
50.0
173
     0
291
     1
 45
0.0
1001
ACAD
1000
AcDbSavedByObjectVersion
1070
     0
  0
VISUALSTYLE
  5
3A
102
{ACAD_XDICTIONARY
360
382
102
}
102
{ACAD_REACTORS
330
2A
102
}
330
2A
100
AcDbVisualStyle
  2

 70
    16
 71
     2
 72
     2
 73
     3
 90
        0
 40
-0.6
 41
-30.0
 62
     5
 63
     8
421
  8421504
 74
     1
 91
        4
 64
     7
 65
   257
 75
     1
175
     1
 42
1.0
 92
        8
 66
     8
424
  8421504
 43
1.0
 76
     1
 77
     6
 78
     2
 67
     7
 79
     5
170
     0
171
     0
290
     0
174
     0
 93
        1
 44
0.0
173
     0
291
     1
 45
0.0
1001
ACAD
1000
AcDbSavedByObjectVersion
1070
     0
  0
VISUALSTYLE
  5
34
102
{ACAD_XDICTIONARY
360
376
102
}
102
{ACAD_REACTORS
330
2A
102
}
330
2A
100
AcDbVisualStyle
  2

 70
     9
 71
     3
 72
     2
 73
     0
 90
        0
 40
-0.6
 41
-30.0
 62
     5
 63
     7
421
 16777215
 74
     2
 91
        2
 64
     7
 65
   257
 75
     1
175
     1
 42
179.0
 92
        8
 66
     7
 43
1.0
 76
     1
 77
     6
 78
     2
 67
     7
 79
     3
170
     0
171
     0
290
     0
174
     0
 93
        1
 44
0.0
173
     0
291
     0
 45
0.0
1001
ACAD
1000
AcDbSavedByObjectVersion
1070
     0
  0
VISUALSTYLE
  5
35
102
{ACAD_XDICTIONARY
360
378
102
}
102
{ACAD_REACTORS
330
2A
102
}
330
2A
100
AcDbVisualStyle
  2

 70
    11
 71
     2
 72
     2
 73
     0
 90
        0
 40
-0.6
 41
-30.0
 62
     5
 63
     7
421
 16777215
 74
     1
 91
        4
 64
     7
 65
   257
 75
     1
175
     1
 42
1.0
 92
        8
 66
     7
 43
1.0
 76
     1
 77
     6
 78
     2
 67
     7
 79
     5
170
     0
171
     0
290
     0
174
     0
 93
        1
 44
-50.0
173
     0
291
     1
 45
0.0
1001
ACAD
1000
AcDbSavedByObjectVersion
1070
     0
  0
VISUALSTYLE
  5
3D
102
{ACAD_XDICTIONARY
360
388
102
}
102
{ACAD_REACTORS
330
2A
102
}
330
2A
100
AcDbVisualStyle
  2

 70
    22
 71
     2
 72
     2
 73
     0
 90
        0
 40
-0.6
 41
-30.0
 62
     5
 63
     7
421
 16777215
 74
     1
 91
        4
 64
     7
 65
   257
 75
     1
175
     1
 42
1.0
 92
        8
 66
     7
 43
1.0
 76
     1
 77
     6
 78
     2
 67
     7
 79
     5
170
     0
171
     0
290
     0
174
     0
 93
        1
 44
0.0
173
     0
291
     1
 45
0.0
1001
ACAD
1000
AcDbSavedByObjectVersion
1070
     0
  0
VISUALSTYLE
  5
39
102
{ACAD_XDICTIONARY
360
380
102
}
102
{ACAD_REACTORS
330
2A
102
}
330
2A
100
AcDbVisualStyle
  2

 70
    15
 71
     2
 72
     2
 73
     0
 90
        0
 40
-0.6
 41
-30.0
 62
     5
 63
     7
421
 16777215
 74
     1
 91
        4
 64
     7
 65
   257
 75
     1
175
     1
 42
1.0
 92
        8
 66
     7
 43
1.0
 76
     1
 77
     6
 78
     2
 67
     7
 79
     5
170
     0
171
     0
290
     0
174
     0
 93
        1
 44
0.0
173
     0
291
     1
 45
0.0
1001
ACAD
1000
AcDbSavedByObjectVersion
1070
     0
  0
VISUALSTYLE
  5
2B
102
{ACAD_XDICTIONARY
360
364
102
}
102
{ACAD_REACTORS
330
2A
102
}
330
2A
100
AcDbVisualStyle
  2

 70
     0
 71
     2
 72
     1
 73
     1
 90
        2
 40
-0.6
 41
30.0
 62
     5
 63
     7
421
 16777215
 74
     0
 91
        0
 64
     7
 65
   257
 75
     1
175
     1
 42
1.0
 92
        8
 66
     7
 43
1.0
 76
     1
 77
     6
 78
     2
 67
     7
 79
     5
170
     0
171
     0
290
     0
174
     0
 93
       13
 44
0.0
173
     0
291
     1
 45
0.0
1001
ACAD
1000
AcDbSavedByObjectVersion
1070
     0
  0
VISUALSTYLE
  5
2C
102
{ACAD_XDICTIONARY
360
366
102
}
102
{ACAD_REACTORS
330
2A
102
}
330
2A
100
AcDbVisualStyle
  2

 70
     1
 71
     2
 72
     1
 73
     1
 90
        2
 40
-0.6
 41
30.0
 62
     5
 63
     7
421
 16777215
 74
     1
 91
        0
 64
     7
 65
   257
 75
     1
175
     1
 42
1.0
 92
        0
 66
   257
 43
1.0
 76
     1
 77
     6
 78
     2
 67
     7
 79
     5
170
     0
171
     0
290
     0
174
     0
 93
       13
 44
0.0
173
     0
291
     1
 45
0.0
1001
ACAD
1000
AcDbSavedByObjectVersion
1070
     0
  0
VISUALSTYLE
  5
2D
102
{ACAD_XDICTIONARY
360
368
102
}
102
{ACAD_REACTORS
330
2A
102
}
330
2A
100
AcDbVisualStyle
  2

 70
     2
 71
     2
 72
     2
 73
     1
 90
        2
 40
-0.6
 41
30.0
 62
     5
 63
     7
421
 16777215
 74
     0
 91
        0
 64
     7
 65
   257
 75
     1
175
     1
 42
1.0
 92
        0
 66
     7
 43
1.0
 76
     1
 77
     6
 78
     2
 67
     7
 79
     5
170
     0
171
     0
290
     0
174
     0
 93
       13
 44
0.0
173
     0
291
     1
 45
0.0
1001
ACAD
1000
AcDbSavedByObjectVersion
1070
     0
  0
VISUALSTYLE
  5
2E
102
{ACAD_XDICTIONARY
360
36A
102
}
102
{ACAD_REACTORS
330
2A
102
}
330
2A
100
AcDbVisualStyle
  2

 70
     3
 71
     2
 72
     2
 73
     1
 90
        2
 40
-0.6
 41
30.0
 62
     5
 63
     7
421
 16777215
 74
     1
 91
        0
 64
     7
 65
   257
 75
     1
175
     1
 42
1.0
 92
        0
 66
   257
 43
1.0
 76
     1
 77
     6
 78
     2
 67
     7
 79
     5
170
     0
171
     0
290
     0
174
     0
 93
       13
 44
0.0
173
     0
291
     1
 45
0.0
1001
ACAD
1000
AcDbSavedByObjectVersion
1070
     0
  0
VISUALSTYLE
  5
31
102
{ACAD_XDICTIONARY
360
370
102
}
102
{ACAD_REACTORS
330
2A
102
}
330
2A
100
AcDbVisualStyle
  2

 70
     6
 71
     1
 72
     2
 73
     2
 90
        0
 40
-0.6
 41
-30.0
 62
     5
 63
     7
421
 16777215
 74
     2
 91
        2
 64
     7
 65
   257
 75
     2
175
     1
 42
40.0
 92
        0
 66
   257
 43
1.0
 76
     1
 77
     6
 78
     2
 67
     7
 79
     3
170
     0
171
     0
290
     0
174
     0
 93
        1
 44
0.0
173
     0
291
     0
 45
0.0
1001
ACAD
1000
AcDbSavedByObjectVersion
1070
     0
  0
VISUALSTYLE
  5
3B
102
{ACAD_XDICTIONARY
360
384
102
}
102
{ACAD_REACTORS
330
2A
102
}
330
2A
100
AcDbVisualStyle
  2

 70
    20
 71
     2
 72
     2
 73
     0
 90
        0
 40
-0.6
 41
-30.0
 62
     5
 63
     7
421
 16777215
 74
     1
 91
        4
 64
     7
 65
   257
 75
     1
175
     1
 42
1.0
 92
       10
 66
     7
 43
1.0
 76
     1
 77
     6
 78
     2
 67
     7
 79
     5
170
     0
171
     0
290
     0
174
     0
 93
        1
 44
0.0
173
     0
291
     1
 45
0.0
1001
ACAD
1000
AcDbSavedByObjectVersion
1070
     0
  0
VISUALSTYLE
  5
38
102
{ACAD_XDICTIONARY
360
37E
102
}
102
{ACAD_REACTORS
330
2A
102
}
330
2A
100
AcDbVisualStyle
  2

 70
    14
 71
     2
 72
     2
 73
     0
 90
        0
 40
-0.6
 41
-30.0
 62
     5
 63
     7
421
 16777215
 74
     1
 91
        4
 64
     7
 65
   257
 75
     7
175
     7
 42
1.0
 92
        8
 66
     7
 43
1.0
 76
     1
 77
     6
 78
     2
 67
     7
 79
     5
170
     0
171
     0
290
     0
174
     0
 93
        1
 44
0.0
173
     0
291
     1
 45
0.0
1001
ACAD
1000
AcDbSavedByObjectVersion
1070
     0
  0
VISUALSTYLE
  5
3C
102
{ACAD_XDICTIONARY
360
386
102
}
102
{ACAD_REACTORS
330
2A
102
}
330
2A
100
AcDbVisualStyle
  2

 70
    21
 71
     2
 72
     2
 73
     0
 90
        0
 40
-0.6
 41
-30.0
 62
     5
 63
     7
421
 16777215
 74
     1
 91
        4
 64
     7
 65
   257
 75
     1
175
     1
 42
1.0
 92
        9
 66
     7
 43
1.0
 76
     1
 77
     6
 78
     2
 67
     7
 79
     5
170
     0
171
     0
290
     0
174
     0
 93
        1
 44
0.0
173
     0
291
     1
 45
0.0
1001
ACAD
1000
AcDbSavedByObjectVersion
1070
     0
  0
VISUALSTYLE
  5
33
102
{ACAD_XDICTIONARY
360
374
102
}
102
{ACAD_REACTORS
330
2A
102
}
330
2A
100
AcDbVisualStyle
  2

 70
     8
 71
     2
 72
     3
 73
     0
 90
        2
 40
-0.6
 41
30.0
 62
     5
 63
     7
421
 16777215
 74
     0
 91
        0
 64
     7
 65
   257
 75
     1
175
     1
 42
1.0
 92
        8
 66
   257
 43
1.0
 76
     1
 77
     6
 78
     2
 67
     7
 79
     3
170
     0
171
     0
290
     0
174
     0
 93
       13
 44
0.0
173
     0
291
     0
 45
0.0
1001
ACAD
1000
AcDbSavedByObjectVersion
1070
     0
  0
VISUALSTYLE
  5
42
102
{ACAD_XDICTIONARY
360
392
102
}
102
{ACAD_REACTORS
330
2A
102
}
330
2A
100
AcDbVisualStyle
  2

 70
    27
 71
     2
 72
     2
 73
     1
 90
        2
 40
-0.6
 41
30.0
 62
     5
 63
     7
421
 16777215
 74
     0
 91
        4
 64
     7
 65
   257
 75
     1
175
     1
 42
1.0
 92
        8
 66
   257
 43
1.0
 76
     1
 77
     6
 78
     2
 67
     8
425
  7895160
 79
     3
170
     0
171
     0
290
     0
174
     0
 93
        5
 44
0.0
173
     0
291
     0
 45
0.0
1001
ACAD
1000
AcDbSavedByObjectVersion
1070
     0
  0
VISUALSTYLE
  5
41
102
{ACAD_XDICTIONARY
360
390
102
}
102
{ACAD_REACTORS
330
2A
102
}
330
2A
100
AcDbVisualStyle
  2

 70
    26
 71
     2
 72
     2
 73
     1
 90
        2
 40
-0.6
 41
30.0
 62
     5
 63
     7
421
 16777215
 74
     1
 91
       10
 64
     7
 65
   257
 75
     2
175
     1
 42
1.0
 92
        8
 66
   257
 43
1.0
 76
     1
 77
     6
 78
     2
 67
     7
 79
     3
170
     0
171
     0
290
     0
174
     0
 93
        5
 44
0.0
173
     0
291
     0
 45
0.0
1001
ACAD
1000
AcDbSavedByObjectVersion
1070
     0
  0
VISUALSTYLE
  5
3E
102
{ACAD_XDICTIONARY
360
38A
102
}
102
{ACAD_REACTORS
330
2A
102
}
330
2A
100
AcDbVisualStyle
  2

 70
    23
 71
     2
 72
     2
 73
     3
 90
        0
 40
-0.6
 41
-30.0
 62
     5
 63
     7
421
 16777215
 74
     2
 91
        2
 64
     7
 65
     7
 75
     1
175
     1
 42
40.0
 92
        8
 66
     7
 43
1.0
 76
     1
 77
     6
 78
     2
 67
     7
 79
     3
170
     0
171
     0
290
     0
174
     0
 93
        1
 44
0.0
173
     0
291
     0
 45
0.0
1001
ACAD
1000
AcDbSavedByObjectVersion
1070
     0
  0
VISUALSTYLE
  5
3F
102
{ACAD_XDICTIONARY
360
38C
102
}
102
{ACAD_REACTORS
330
2A
102
}
330
2A
100
AcDbVisualStyle
  2

 70
    24
 71
     1
 72
     2
 73
     2
 90
        0
 40
-0.6
 41
-30.0
 62
     5
 63
     7
421
 16777215
 74
     2
 91
        2
 64
     7
 65
     7
 75
     1
175
     1
 42
40.0
 92
       11
 66
     7
 43
1.0
 76
     1
 77
     6
 78
     2
 67
     7
 79
     6
170
     0
171
     0
290
     0
174
     0
 93
        1
 44
0.0
173
     0
291
     0
 45
0.0
1001
ACAD
1000
AcDbSavedByObjectVersion
1070
     0
  0
VISUALSTYLE
  5
37
102
{ACAD_XDICTIONARY
360
37C
102
}
102
{ACAD_REACTORS
330
2A
102
}
330
2A
100
AcDbVisualStyle
  2

 70
    13
 71
     2
 72
     2
 73
     0
 90
        0
 40
-0.6
 41
-30.0
 62
     5
 63
     7
421
 16777215
 74
     1
 91
        4
 64
     7
 65
   257
 75
     1
175
     1
 42
1.0
 92
       12
 66
     7
 43
1.0
 76
     1
 77
     6
 78
     2
 67
     7
 79
     5
170
     0
171
     0
290
     0
174
     0
 93
        1
 44
0.0
173
     0
291
     1
 45
0.0
1001
ACAD
1000
AcDbSavedByObjectVersion
1070
     0
  0
VISUALSTYLE
  5
30
102
{ACAD_XDICTIONARY
360
36E
102
}
102
{ACAD_REACTORS
330
2A
102
}
330
2A
100
AcDbVisualStyle
  2

 70
     5
 71
     0
 72
     2
 73
     0
 90
        0
 40
-0.6
 41
-30.0
 62
     5
 63
     7
421
 16777215
 74
     1
 91
        4
 64
     7
 65
   257
 75
     1
175
     1
 42
1.0
 92
        0
 66
   257
 43
1.0
 76
     1
 77
     6
 78
     2
 67
     7
 79
     3
170
     0
171
     0
290
     0
174
     0
 93
        1
 44
0.0
173
     0
291
     0
 45
0.0
1001
ACAD
1000
AcDbSavedByObjectVersion
1070
     0
  0
VISUALSTYLE
  5
40
102
{ACAD_XDICTIONARY
360
38E
102
}
102
{ACAD_REACTORS
330
2A
102
}
330
2A
100
AcDbVisualStyle
  2

 70
    25
 71
     2
 72
     2
 73
     1
 90
        1
 40
0.5
 41
-30.0
 62
     5
 63
     7
421
 16777215
 74
     1
 91
        0
 64
     7
 65
   257
 75
     1
175
     1
 42
1.0
 92
        8
 66
     7
 43
1.0
 76
     1
 77
     6
 78
     2
 67
     7
 79
     3
170
     0
171
     0
290
     0
174
     0
 93
       13
 44
0.0
173
     0
291
     0
 45
0.0
1001
ACAD
1000
AcDbSavedByObjectVersion
1070
     0
  0
DICTIONARYVAR
  5
2B2
102
{ACAD_REACTORS
330
2B1
102
}
330
2B1
100
DictionaryVariables
280
     0
  1
1:1
  0
DICTIONARYVAR
  5
2F3
102
{ACAD_REACTORS
330
2B1
102
}
330
2B1
100
DictionaryVariables
280
     0
  1
STANDARD
  0
DICTIONARYVAR
  5
2F2
102
{ACAD_REACTORS
330
2B1
102
}
330
2B1
100
DictionaryVariables
280
     0
  1
STANDARD
  0
DICTIONARYVAR
  5
35E
102
{ACAD_REACTORS
330
2B1
102
}
330
2B1
100
DictionaryVariables
280
     0
  1
Metric50
  0
DICTIONARYVAR
  5
35F
102
{ACAD_REACTORS
330
2B1
102
}
330
2B1
100
DictionaryVariables
280
     0
  1
Metric50
  0
DICTIONARYVAR
  5
2B3
102
{ACAD_REACTORS
330
2B1
102
}
330
2B1
100
DictionaryVariables
280
     0
  1
1
  0
DICTIONARYVAR
  5
360
102
{ACAD_REACTORS
330
2B1
102
}
330
2B1
100
DictionaryVariables
280
     0
  1
2
  0
DICTIONARY
  5
397
330
2FA
100
AcDbDictionary
280
     1
281
     1
  3
ACAD_XREC_ROUNDTRIP
360
398
  0
DICTIONARY
  5
2E7
330
45
100
AcDbDictionary
280
     1
281
     1
  3
ACAD_XREC_ROUNDTRIP
360
2E8
  0
DICTIONARY
  5
2E5
330
44
100
AcDbDictionary
280
     1
281
     1
  3
ACAD_XREC_ROUNDTRIP
360
2E6
  0
DICTIONARY
  5
2E9
330
46
100
AcDbDictionary
280
     1
281
     1
  3
ACAD_XREC_ROUNDTRIP
360
2EA
  0
DICTIONARY
  5
395
330
2F9
100
AcDbDictionary
280
     1
281
     1
  3
ACAD_XREC_ROUNDTRIP
360
396
  0
DICTIONARY
  5
2EB
330
6A
100
AcDbDictionary
280
     1
281
     1
  3
ACAD_ROUNDTRIP_2008_TABLESTYLE_CELLSTYLEMAP
360
362
  3
ACAD_XREC_ROUNDTRIP
360
394
  0
DICTIONARY
  5
36C
330
2F
100
AcDbDictionary
280
     1
281
     1
  3
ACAD_XREC_ROUNDTRIP
360
36D
  0
DICTIONARY
  5
372
330
32
100
AcDbDictionary
280
     1
281
     1
  3
ACAD_XREC_ROUNDTRIP
360
373
  0
DICTIONARY
  5
37A
330
36
100
AcDbDictionary
280
     1
281
     1
  3
ACAD_XREC_ROUNDTRIP
360
37B
  0
DICTIONARY
  5
382
330
3A
100
AcDbDictionary
280
     1
281
     1
  3
ACAD_XREC_ROUNDTRIP
360
383
  0
DICTIONARY
  5
376
330
34
100
AcDbDictionary
280
     1
281
     1
  3
ACAD_XREC_ROUNDTRIP
360
377
  0
DICTIONARY
  5
378
330
35
100
AcDbDictionary
280
     1
281
     1
  3
ACAD_XREC_ROUNDTRIP
360
379
  0
DICTIONARY
  5
388
330
3D
100
AcDbDictionary
280
     1
281
     1
  3
ACAD_XREC_ROUNDTRIP
360
389
  0
DICTIONARY
  5
380
330
39
100
AcDbDictionary
280
     1
281
     1
  3
ACAD_XREC_ROUNDTRIP
360
381
  0
DICTIONARY
  5
364
330
2B
100
AcDbDictionary
280
     1
281
     1
  3
ACAD_XREC_ROUNDTRIP
360
365
  0
DICTIONARY
  5
366
330
2C
100
AcDbDictionary
280
     1
281
     1
  3
ACAD_XREC_ROUNDTRIP
360
367
  0
DICTIONARY
  5
368
330
2D
100
AcDbDictionary
280
     1
281
     1
  3
ACAD_XREC_ROUNDTRIP
360
369
  0
DICTIONARY
  5
36A
330
2E
100
AcDbDictionary
280
     1
281
     1
  3
ACAD_XREC_ROUNDTRIP
360
36B
  0
DICTIONARY
  5
370
330
31
100
AcDbDictionary
280
     1
281
     1
  3
ACAD_XREC_ROUNDTRIP
360
371
  0
DICTIONARY
  5
384
330
3B
100
AcDbDictionary
280
     1
281
     1
  3
ACAD_XREC_ROUNDTRIP
360
385
  0
DICTIONARY
  5
37E
330
38
100
AcDbDictionary
280
     1
281
     1
  3
ACAD_XREC_ROUNDTRIP
360
37F
  0
DICTIONARY
  5
386
330
3C
100
AcDbDictionary
280
     1
281
     1
  3
ACAD_XREC_ROUNDTRIP
360
387
  0
DICTIONARY
  5
374
330
33
100
AcDbDictionary
280
     1
281
     1
  3
ACAD_XREC_ROUNDTRIP
360
375
  0
DICTIONARY
  5
392
330
42
100
AcDbDictionary
280
     1
281
     1
  3
ACAD_XREC_ROUNDTRIP
360
393
  0
DICTIONARY
  5
390
330
41
100
AcDbDictionary
280
     1
281
     1
  3
ACAD_XREC_ROUNDTRIP
360
391
  0
DICTIONARY
  5
38A
330
3E
100
AcDbDictionary
280
     1
281
     1
  3
ACAD_XREC_ROUNDTRIP
360
38B
  0
DICTIONARY
  5
38C
330
3F
100
AcDbDictionary
280
     1
281
     1
  3
ACAD_XREC_ROUNDTRIP
360
38D
  0
DICTIONARY
  5
37C
330
37
100
AcDbDictionary
280
     1
281
     1
  3
ACAD_XREC_ROUNDTRIP
360
37D
  0
DICTIONARY
  5
36E
330
30
100
AcDbDictionary
280
     1
281
     1
  3
ACAD_XREC_ROUNDTRIP
360
36F
  0
DICTIONARY
  5
38E
330
40
100
AcDbDictionary
280
     1
281
     1
  3
ACAD_XREC_ROUNDTRIP
360
38F
  0
XRECORD
  5
398
102
{ACAD_REACTORS
330
397
102
}
330
397
100
AcDbXrecord
280
     1
102
DISPLAYNAME
  1
Metric50
102
FLAGS
 90
        0
  0
XRECORD
  5
2E8
102
{ACAD_REACTORS
330
2E7
102
}
330
2E7
100
AcDbXrecord
280
     1
102
MATERIAL
148
0.0
149
0.0
149
0.0
 93
        0
 94
      127
282
     0
 72
     1
 77
     1
171
     1
175
     1
179
     1
273
     0
  0
XRECORD
  5
2E6
102
{ACAD_REACTORS
330
2E5
102
}
330
2E5
100
AcDbXrecord
280
     1
102
MATERIAL
148
0.0
149
0.0
149
0.0
 93
        0
 94
      127
282
     0
 72
     1
 77
     1
171
     1
175
     1
179
     1
273
     0
  0
XRECORD
  5
2EA
102
{ACAD_REACTORS
330
2E9
102
}
330
2E9
100
AcDbXrecord
280
     1
102
MATERIAL
148
0.0
149
0.0
149
0.0
 93
        0
 94
      127
282
     0
 72
     1
 77
     1
171
     1
175
     1
179
     1
273
     0
  0
XRECORD
  5
396
102
{ACAD_REACTORS
330
395
102
}
330
395
100
AcDbXrecord
280
     1
102
DISPLAYNAME
  1
Metric50
102
FLAGS
 90
        0
  0
CELLSTYLEMAP
  5
362
102
{ACAD_REACTORS
330
2EB
102
}
330
2EB
100
AcDbCellStyleMap
 90
        3
300
CELLSTYLE
  1
TABLEFORMAT_BEGIN
 90
        5
170
     1
 91
        0
 92
    32768
 62
   257
 93
        1
300
CONTENTFORMAT
  1
CONTENTFORMAT_BEGIN
 90
        0
 91
        0
 92
        4
 93
        0
300

 40
0.0
140
1.0
 94
        5
 62
     0
340
11
144
0.25
309
CONTENTFORMAT_END
171
     1
301
MARGIN
  1
CELLMARGIN_BEGIN
 40
0.06
 40
0.06
 40
0.06
 40
0.06
 40
0.18
 40
0.18
309
CELLMARGIN_END
 94
        6
 95
        1
302
GRIDFORMAT
  1
GRIDFORMAT_BEGIN
 90
        0
 91
        1
 62
     0
 92
       -2
340
14
 93
        0
 40
0.045
309
GRIDFORMAT_END
 95
        2
302
GRIDFORMAT
  1
GRIDFORMAT_BEGIN
 90
        0
 91
        1
 62
     0
 92
       -2
340
14
 93
        0
 40
0.045
309
GRIDFORMAT_END
 95
        4
302
GRIDFORMAT
  1
GRIDFORMAT_BEGIN
 90
        0
 91
        1
 62
     0
 92
       -2
340
14
 93
        0
 40
0.045
309
GRIDFORMAT_END
 95
        8
302
GRIDFORMAT
  1
GRIDFORMAT_BEGIN
 90
        0
 91
        1
 62
     0
 92
       -2
340
14
 93
        0
 40
0.045
309
GRIDFORMAT_END
 95
       16
302
GRIDFORMAT
  1
GRIDFORMAT_BEGIN
 90
        0
 91
        1
 62
     0
 92
       -2
340
14
 93
        0
 40
0.045
309
GRIDFORMAT_END
 95
       32
302
GRIDFORMAT
  1
GRIDFORMAT_BEGIN
 90
        0
 91
        1
 62
     0
 92
       -2
340
14
 93
        0
 40
0.045
309
GRIDFORMAT_END
309
TABLEFORMAT_END
  1
CELLSTYLE_BEGIN
 90
        1
 91
        1
300
_TITLE
309
CELLSTYLE_END
300
CELLSTYLE
  1
TABLEFORMAT_BEGIN
 90
        5
170
     1
 91
        0
 92
        0
 62
   257
 93
        1
300
CONTENTFORMAT
  1
CONTENTFORMAT_BEGIN
 90
        0
 91
        0
 92
        4
 93
        0
300

 40
0.0
140
1.0
 94
        5
 62
     0
340
11
144
0.18
309
CONTENTFORMAT_END
171
     1
301
MARGIN
  1
CELLMARGIN_BEGIN
 40
0.06
 40
0.06
 40
0.06
 40
0.06
 40
0.18
 40
0.18
309
CELLMARGIN_END
 94
        6
 95
        1
302
GRIDFORMAT
  1
GRIDFORMAT_BEGIN
 90
        0
 91
        1
 62
     0
 92
       -2
340
14
 93
        0
 40
0.045
309
GRIDFORMAT_END
 95
        2
302
GRIDFORMAT
  1
GRIDFORMAT_BEGIN
 90
        0
 91
        1
 62
     0
 92
       -2
340
14
 93
        0
 40
0.045
309
GRIDFORMAT_END
 95
        4
302
GRIDFORMAT
  1
GRIDFORMAT_BEGIN
 90
        0
 91
        1
 62
     0
 92
       -2
340
14
 93
        0
 40
0.045
309
GRIDFORMAT_END
 95
        8
302
GRIDFORMAT
  1
GRIDFORMAT_BEGIN
 90
        0
 91
        1
 62
     0
 92
       -2
340
14
 93
        0
 40
0.045
309
GRIDFORMAT_END
 95
       16
302
GRIDFORMAT
  1
GRIDFORMAT_BEGIN
 90
        0
 91
        1
 62
     0
 92
       -2
340
14
 93
        0
 40
0.045
309
GRIDFORMAT_END
 95
       32
302
GRIDFORMAT
  1
GRIDFORMAT_BEGIN
 90
        0
 91
        1
 62
     0
 92
       -2
340
14
 93
        0
 40
0.045
309
GRIDFORMAT_END
309
TABLEFORMAT_END
  1
CELLSTYLE_BEGIN
 90
        2
 91
        1
300
_HEADER
309
CELLSTYLE_END
300
CELLSTYLE
  1
TABLEFORMAT_BEGIN
 90
        5
170
     1
 91
        0
 92
        0
 62
   257
 93
        1
300
CONTENTFORMAT
  1
CONTENTFORMAT_BEGIN
 90
        0
 91
        0
 92
        4
 93
        0
300

 40
0.0
140
1.0
 94
        2
 62
     0
340
11
144
0.18
309
CONTENTFORMAT_END
171
     1
301
MARGIN
  1
CELLMARGIN_BEGIN
 40
0.06
 40
0.06
 40
0.06
 40
0.06
 40
0.18
 40
0.18
309
CELLMARGIN_END
 94
        6
 95
        1
302
GRIDFORMAT
  1
GRIDFORMAT_BEGIN
 90
        0
 91
        1
 62
     0
 92
       -2
340
14
 93
        0
 40
0.045
309
GRIDFORMAT_END
 95
        2
302
GRIDFORMAT
  1
GRIDFORMAT_BEGIN
 90
        0
 91
        1
 62
     0
 92
       -2
340
14
 93
        0
 40
0.045
309
GRIDFORMAT_END
 95
        4
302
GRIDFORMAT
  1
GRIDFORMAT_BEGIN
 90
        0
 91
        1
 62
     0
 92
       -2
340
14
 93
        0
 40
0.045
309
GRIDFORMAT_END
 95
        8
302
GRIDFORMAT
  1
GRIDFORMAT_BEGIN
 90
        0
 91
        1
 62
     0
 92
       -2
340
14
 93
        0
 40
0.045
309
GRIDFORMAT_END
 95
       16
302
GRIDFORMAT
  1
GRIDFORMAT_BEGIN
 90
        0
 91
        1
 62
     0
 92
       -2
340
14
 93
        0
 40
0.045
309
GRIDFORMAT_END
 95
       32
302
GRIDFORMAT
  1
GRIDFORMAT_BEGIN
 90
        0
 91
        1
 62
     0
 92
       -2
340
14
 93
        0
 40
0.045
309
GRIDFORMAT_END
309
TABLEFORMAT_END
  1
CELLSTYLE_BEGIN
 90
        3
 91
        2
300
_DATA
309
CELLSTYLE_END
  0
XRECORD
  5
394
102
{ACAD_REACTORS
330
2EB
102
}
330
2EB
100
AcDbXrecord
280
     1
102
ACAD_ROUNDTRIP_PRE2007_TABLESTYLE
 90
        4
 91
        0
  1

 92
        4
 93
        0
  2

 94
        4
 95
        0
  3

  0
XRECORD
  5
36D
102
{ACAD_REACTORS
330
36C
102
}
330
36C
100
AcDbXrecord
280
     1
102
RTVSPost2010Prop28
280
     1
102
RTVSPost2010PropOp28
 70
     1
102
RTVSPost2010Prop29
280
     1
102
RTVSPost2010PropOp29
 70
     1
102
RTVSPost2010Prop30
280
     0
102
RTVSPost2010PropOp30
 70
     1
102
RTVSPost2010Prop31
280
     0
102
RTVSPost2010PropOp31
 70
     1
102
RTVSPost2010Prop32
280
     0
102
RTVSPost2010PropOp32
 70
     1
102
RTVSPost2010Prop33
280
     0
102
RTVSPost2010PropOp33
 70
     1
102
RTVSPost2010Prop34
280
     0
102
RTVSPost2010PropOp34
 70
     1
102
RTVSPost2010Prop35
280
     0
102
RTVSPost2010PropOp35
 70
     1
102
RTVSPost2010Prop36
280
     0
102
RTVSPost2010PropOp36
 70
     1
102
RTVSPost2010Prop37
 90
       50
102
RTVSPost2010PropOp37
 70
     1
102
RTVSPost2010Prop38
140
0.0
102
RTVSPost2010PropOp38
 70
     1
102
RTVSPost2010Prop39
140
1.0
102
RTVSPost2010PropOp39
 70
     1
102
RTVSPost2010Prop40
 90
        0
102
RTVSPost2010PropOp40
 70
     1
102
RTVSPost2010Prop41ColorIndex
 90
       18
102
RTVSPost2010Prop41ColorRGB
 90
        0
102
RTVSPost2010PropOp41
 70
     1
102
RTVSPost2010Prop42
 90
       50
102
RTVSPost2010PropOp42
 70
     1
102
RTVSPost2010Prop43
 90
        3
102
RTVSPost2010PropOp43
 70
     1
102
RTVSPost2010Prop44ColorIndex
 90
        5
102
RTVSPost2010Prop44ColorRGB
 90
      255
102
RTVSPost2010PropOp44
 70
     1
102
RTVSPost2010Prop45
280
     0
102
RTVSPost2010PropOp45
 70
     1
102
RTVSPost2010Prop46
 90
       50
102
RTVSPost2010PropOp46
 70
     1
102
RTVSPost2010Prop47
 90
       50
102
RTVSPost2010PropOp47
 70
     1
102
RTVSPost2010Prop48
 90
       50
102
RTVSPost2010PropOp48
 70
     1
102
RTVSPost2010Prop49
280
     0
102
RTVSPost2010PropOp49
 70
     1
102
RTVSPost2010Prop50
 90
       50
102
RTVSPost2010PropOp50
 70
     1
102
RTVSPost2010Prop51ColorIndex
 90
      256
102
RTVSPost2010Prop51ColorRGB
 90
-16777216
102
RTVSPost2010PropOp51
 70
     0
102
RTVSPost2010Prop52
140
1.0
102
RTVSPost2010PropOp52
 70
     0
102
RTVSPost2010Prop53
 90
        2
102
RTVSPost2010PropOp53
 70
     1
102
RTVSPost2010Prop54
  1
strokes_ogs.tif
102
RTVSPost2010PropOp54
 70
     1
102
RTVSPost2010Prop55
280
     0
102
RTVSPost2010PropOp55
 70
     1
102
RTVSPost2010Prop56
140
1.0
102
RTVSPost2010PropOp56
 70
     1
102
RTVSPost2010Prop57
140
1.0
102
RTVSPost2010PropOp57
 70
     1
102
RTVSPropertyOp0
 70
     1
102
RTVSPropertyOp1
 70
     1
102
RTVSPropertyOp2
 70
     1
102
RTVSPropertyOp3
 70
     1
102
RTVSPropertyOp4
 70
     1
102
RTVSPropertyOp5
 70
     1
102
RTVSPropertyOp6
 70
     1
102
RTVSPropertyOp7
 70
     1
102
RTVSPropertyOp8
 70
     1
102
RTVSPropertyOp9
 70
     1
102
RTVSPropertyOp10
 70
     1
102
RTVSPropertyOp11
 70
     1
102
RTVSPropertyOp12
 70
     1
102
RTVSPropertyOp13
 70
     1
102
RTVSPropertyOp14
 70
     1
102
RTVSPropertyOp15
 70
     1
102
RTVSPropertyOp16
 70
     1
102
RTVSPropertyOp17
 70
     1
102
RTVSPropertyOp18
 70
     1
102
RTVSPropertyOp19
 70
     1
102
RTVSPropertyOp20
 70
     1
102
RTVSPropertyOp21
 70
     1
102
RTVSPropertyOp22
 70
     1
102
RTVSPropertyOp23
 70
     1
102
RTVSPropertyOp24
 70
     1
102
RTVSPropertyOp25
 70
     1
102
RTVSPropertyOp26
 70
     1
102
RTVSPropertyOp27
 70
     1
102
RTVSPropertyOp28
 70
     1
102
RTVSPropertyOp29
 70
     1
102
RTVSPropertyOp30
 70
     1
102
RTVSPropertyOp31
 70
     1
102
RTVSPropertyOp32
 70
     1
102
RTVSPropertyOp33
 70
     1
102
RTVSPropertyOp34
 70
     1
102
RTVSPropertyOp35
 70
     1
102
RTVSPropertyOp36
 70
     1
102
RTVSPropertyOp37
 70
     1
102
RTVSPropertyOp38
 70
     1
102
RTVSPropertyOp39
 70
     1
102
RTVSPropertyOp40
 70
     1
102
RTVSPropertyOp41
 70
     1
102
RTVSPropertyOp42
 70
     1
102
RTVSPropertyOp43
 70
     1
102
RTVSPropertyOp44
 70
     1
102
RTVSPropertyOp45
 70
     1
102
RTVSPropertyOp46
 70
     1
102
RTVSPropertyOp47
 70
     1
102
RTVSPropertyOp48
 70
     1
102
RTVSPropertyOp49
 70
     1
102
RTVSPropertyOp50
 70
     1
102
RTVSPropertyOp51
 70
     0
102
RTVSPropertyOp52
 70
     0
102
RTVSPropertyOp53
 70
     1
102
RTVSPropertyOp54
 70
     1
102
RTVSPropertyOp55
 70
     1
102
RTVSPropertyOp56
 70
     1
102
RTVSPropertyOp57
 70
     1
102
RTVSPropertyOp58
 70
     1
102
RTVSPropertyOp59
 70
     1
102
RTVSPropertyOp60
 70
     1
102
RTVSPropertyOp61
 70
     1
102
RTVSPropertyOp62
 70
     1
  0
XRECORD
  5
373
102
{ACAD_REACTORS
330
372
102
}
330
372
100
AcDbXrecord
280
     1
102
RTVSPost2010Prop28
280
     0
102
RTVSPost2010PropOp28
 70
     1
102
RTVSPost2010Prop29
280
     1
102
RTVSPost2010PropOp29
 70
     1
102
RTVSPost2010Prop30
280
     1
102
RTVSPost2010PropOp30
 70
     1
102
RTVSPost2010Prop31
280
     0
102
RTVSPost2010PropOp31
 70
     1
102
RTVSPost2010Prop32
280
     0
102
RTVSPost2010PropOp32
 70
     1
102
RTVSPost2010Prop33
280
     0
102
RTVSPost2010PropOp33
 70
     1
102
RTVSPost2010Prop34
280
     0
102
RTVSPost2010PropOp34
 70
     1
102
RTVSPost2010Prop35
280
     0
102
RTVSPost2010PropOp35
 70
     1
102
RTVSPost2010Prop36
280
     0
102
RTVSPost2010PropOp36
 70
     1
102
RTVSPost2010Prop37
 90
       50
102
RTVSPost2010PropOp37
 70
     1
102
RTVSPost2010Prop38
140
0.0
102
RTVSPost2010PropOp38
 70
     1
102
RTVSPost2010Prop39
140
1.0
102
RTVSPost2010PropOp39
 70
     1
102
RTVSPost2010Prop40
 90
        0
102
RTVSPost2010PropOp40
 70
     1
102
RTVSPost2010Prop41ColorIndex
 90
       18
102
RTVSPost2010Prop41ColorRGB
 90
        0
102
RTVSPost2010PropOp41
 70
     1
102
RTVSPost2010Prop42
 90
       50
102
RTVSPost2010PropOp42
 70
     1
102
RTVSPost2010Prop43
 90
        3
102
RTVSPost2010PropOp43
 70
     1
102
RTVSPost2010Prop44ColorIndex
 90
        5
102
RTVSPost2010Prop44ColorRGB
 90
      255
102
RTVSPost2010PropOp44
 70
     1
102
RTVSPost2010Prop45
280
     0
102
RTVSPost2010PropOp45
 70
     1
102
RTVSPost2010Prop46
 90
       50
102
RTVSPost2010PropOp46
 70
     1
102
RTVSPost2010Prop47
 90
       50
102
RTVSPost2010PropOp47
 70
     1
102
RTVSPost2010Prop48
 90
       50
102
RTVSPost2010PropOp48
 70
     1
102
RTVSPost2010Prop49
280
     0
102
RTVSPost2010PropOp49
 70
     1
102
RTVSPost2010Prop50
 90
       50
102
RTVSPost2010PropOp50
 70
     1
102
RTVSPost2010Prop51ColorIndex
 90
      256
102
RTVSPost2010Prop51ColorRGB
 90
-16777216
102
RTVSPost2010PropOp51
 70
     0
102
RTVSPost2010Prop52
140
1.0
102
RTVSPost2010PropOp52
 70
     0
102
RTVSPost2010Prop53
 90
        2
102
RTVSPost2010PropOp53
 70
     1
102
RTVSPost2010Prop54
  1
strokes_ogs.tif
102
RTVSPost2010PropOp54
 70
     1
102
RTVSPost2010Prop55
280
     0
102
RTVSPost2010PropOp55
 70
     1
102
RTVSPost2010Prop56
140
1.0
102
RTVSPost2010PropOp56
 70
     1
102
RTVSPost2010Prop57
140
1.0
102
RTVSPost2010PropOp57
 70
     1
102
RTVSPropertyOp0
 70
     1
102
RTVSPropertyOp1
 70
     1
102
RTVSPropertyOp2
 70
     1
102
RTVSPropertyOp3
 70
     1
102
RTVSPropertyOp4
 70
     1
102
RTVSPropertyOp5
 70
     1
102
RTVSPropertyOp6
 70
     1
102
RTVSPropertyOp7
 70
     1
102
RTVSPropertyOp8
 70
     1
102
RTVSPropertyOp9
 70
     1
102
RTVSPropertyOp10
 70
     1
102
RTVSPropertyOp11
 70
     1
102
RTVSPropertyOp12
 70
     1
102
RTVSPropertyOp13
 70
     1
102
RTVSPropertyOp14
 70
     1
102
RTVSPropertyOp15
 70
     1
102
RTVSPropertyOp16
 70
     1
102
RTVSPropertyOp17
 70
     1
102
RTVSPropertyOp18
 70
     1
102
RTVSPropertyOp19
 70
     1
102
RTVSPropertyOp20
 70
     1
102
RTVSPropertyOp21
 70
     1
102
RTVSPropertyOp22
 70
     1
102
RTVSPropertyOp23
 70
     1
102
RTVSPropertyOp24
 70
     1
102
RTVSPropertyOp25
 70
     1
102
RTVSPropertyOp26
 70
     1
102
RTVSPropertyOp27
 70
     1
102
RTVSPropertyOp28
 70
     1
102
RTVSPropertyOp29
 70
     1
102
RTVSPropertyOp30
 70
     1
102
RTVSPropertyOp31
 70
     1
102
RTVSPropertyOp32
 70
     1
102
RTVSPropertyOp33
 70
     1
102
RTVSPropertyOp34
 70
     1
102
RTVSPropertyOp35
 70
     1
102
RTVSPropertyOp36
 70
     1
102
RTVSPropertyOp37
 70
     1
102
RTVSPropertyOp38
 70
     1
102
RTVSPropertyOp39
 70
     1
102
RTVSPropertyOp40
 70
     1
102
RTVSPropertyOp41
 70
     1
102
RTVSPropertyOp42
 70
     1
102
RTVSPropertyOp43
 70
     1
102
RTVSPropertyOp44
 70
     1
102
RTVSPropertyOp45
 70
     1
102
RTVSPropertyOp46
 70
     1
102
RTVSPropertyOp47
 70
     1
102
RTVSPropertyOp48
 70
     1
102
RTVSPropertyOp49
 70
     1
102
RTVSPropertyOp50
 70
     1
102
RTVSPropertyOp51
 70
     0
102
RTVSPropertyOp52
 70
     0
102
RTVSPropertyOp53
 70
     1
102
RTVSPropertyOp54
 70
     1
102
RTVSPropertyOp55
 70
     1
102
RTVSPropertyOp56
 70
     1
102
RTVSPropertyOp57
 70
     1
102
RTVSPropertyOp58
 70
     1
102
RTVSPropertyOp59
 70
     1
102
RTVSPropertyOp60
 70
     1
102
RTVSPropertyOp61
 70
     1
102
RTVSPropertyOp62
 70
     1
  0
XRECORD
  5
37B
102
{ACAD_REACTORS
330
37A
102
}
330
37A
100
AcDbXrecord
280
     1
102
RTVSPost2010Prop28
280
     0
102
RTVSPost2010PropOp28
 70
     1
102
RTVSPost2010Prop29
280
     1
102
RTVSPost2010PropOp29
 70
     1
102
RTVSPost2010Prop30
280
     1
102
RTVSPost2010PropOp30
 70
     1
102
RTVSPost2010Prop31
280
     0
102
RTVSPost2010PropOp31
 70
     1
102
RTVSPost2010Prop32
280
     0
102
RTVSPost2010PropOp32
 70
     1
102
RTVSPost2010Prop33
280
     0
102
RTVSPost2010PropOp33
 70
     1
102
RTVSPost2010Prop34
280
     0
102
RTVSPost2010PropOp34
 70
     1
102
RTVSPost2010Prop35
280
     0
102
RTVSPost2010PropOp35
 70
     1
102
RTVSPost2010Prop36
280
     0
102
RTVSPost2010PropOp36
 70
     1
102
RTVSPost2010Prop37
 90
       50
102
RTVSPost2010PropOp37
 70
     1
102
RTVSPost2010Prop38
140
0.0
102
RTVSPost2010PropOp38
 70
     1
102
RTVSPost2010Prop39
140
1.0
102
RTVSPost2010PropOp39
 70
     1
102
RTVSPost2010Prop40
 90
        0
102
RTVSPost2010PropOp40
 70
     1
102
RTVSPost2010Prop41ColorIndex
 90
       18
102
RTVSPost2010Prop41ColorRGB
 90
        0
102
RTVSPost2010PropOp41
 70
     1
102
RTVSPost2010Prop42
 90
       50
102
RTVSPost2010PropOp42
 70
     1
102
RTVSPost2010Prop43
 90
        3
102
RTVSPost2010PropOp43
 70
     1
102
RTVSPost2010Prop44ColorIndex
 90
        5
102
RTVSPost2010Prop44ColorRGB
 90
      255
102
RTVSPost2010PropOp44
 70
     1
102
RTVSPost2010Prop45
280
     0
102
RTVSPost2010PropOp45
 70
     1
102
RTVSPost2010Prop46
 90
       50
102
RTVSPost2010PropOp46
 70
     1
102
RTVSPost2010Prop47
 90
       50
102
RTVSPost2010PropOp47
 70
     1
102
RTVSPost2010Prop48
 90
       50
102
RTVSPost2010PropOp48
 70
     1
102
RTVSPost2010Prop49
280
     0
102
RTVSPost2010PropOp49
 70
     1
102
RTVSPost2010Prop50
 90
       50
102
RTVSPost2010PropOp50
 70
     1
102
RTVSPost2010Prop51ColorIndex
 90
      256
102
RTVSPost2010Prop51ColorRGB
 90
-16777216
102
RTVSPost2010PropOp51
 70
     0
102
RTVSPost2010Prop52
140
1.0
102
RTVSPost2010PropOp52
 70
     0
102
RTVSPost2010Prop53
 90
        2
102
RTVSPost2010PropOp53
 70
     1
102
RTVSPost2010Prop54
  1
strokes_ogs.tif
102
RTVSPost2010PropOp54
 70
     1
102
RTVSPost2010Prop55
280
     0
102
RTVSPost2010PropOp55
 70
     1
102
RTVSPost2010Prop56
140
1.0
102
RTVSPost2010PropOp56
 70
     1
102
RTVSPost2010Prop57
140
1.0
102
RTVSPost2010PropOp57
 70
     1
102
RTVSPropertyOp0
 70
     1
102
RTVSPropertyOp1
 70
     1
102
RTVSPropertyOp2
 70
     1
102
RTVSPropertyOp3
 70
     1
102
RTVSPropertyOp4
 70
     1
102
RTVSPropertyOp5
 70
     1
102
RTVSPropertyOp6
 70
     1
102
RTVSPropertyOp7
 70
     1
102
RTVSPropertyOp8
 70
     1
102
RTVSPropertyOp9
 70
     1
102
RTVSPropertyOp10
 70
     1
102
RTVSPropertyOp11
 70
     1
102
RTVSPropertyOp12
 70
     1
102
RTVSPropertyOp13
 70
     1
102
RTVSPropertyOp14
 70
     1
102
RTVSPropertyOp15
 70
     1
102
RTVSPropertyOp16
 70
     1
102
RTVSPropertyOp17
 70
     1
102
RTVSPropertyOp18
 70
     1
102
RTVSPropertyOp19
 70
     1
102
RTVSPropertyOp20
 70
     1
102
RTVSPropertyOp21
 70
     1
102
RTVSPropertyOp22
 70
     1
102
RTVSPropertyOp23
 70
     1
102
RTVSPropertyOp24
 70
     1
102
RTVSPropertyOp25
 70
     1
102
RTVSPropertyOp26
 70
     1
102
RTVSPropertyOp27
 70
     1
102
RTVSPropertyOp28
 70
     1
102
RTVSPropertyOp29
 70
     1
102
RTVSPropertyOp30
 70
     1
102
RTVSPropertyOp31
 70
     1
102
RTVSPropertyOp32
 70
     1
102
RTVSPropertyOp33
 70
     1
102
RTVSPropertyOp34
 70
     1
102
RTVSPropertyOp35
 70
     1
102
RTVSPropertyOp36
 70
     1
102
RTVSPropertyOp37
 70
     1
102
RTVSPropertyOp38
 70
     1
102
RTVSPropertyOp39
 70
     1
102
RTVSPropertyOp40
 70
     1
102
RTVSPropertyOp41
 70
     1
102
RTVSPropertyOp42
 70
     1
102
RTVSPropertyOp43
 70
     1
102
RTVSPropertyOp44
 70
     1
102
RTVSPropertyOp45
 70
     1
102
RTVSPropertyOp46
 70
     1
102
RTVSPropertyOp47
 70
     1
102
RTVSPropertyOp48
 70
     1
102
RTVSPropertyOp49
 70
     1
102
RTVSPropertyOp50
 70
     1
102
RTVSPropertyOp51
 70
     0
102
RTVSPropertyOp52
 70
     0
102
RTVSPropertyOp53
 70
     1
102
RTVSPropertyOp54
 70
     1
102
RTVSPropertyOp55
 70
     1
102
RTVSPropertyOp56
 70
     1
102
RTVSPropertyOp57
 70
     1
102
RTVSPropertyOp58
 70
     1
102
RTVSPropertyOp59
 70
     1
102
RTVSPropertyOp60
 70
     1
102
RTVSPropertyOp61
 70
     1
102
RTVSPropertyOp62
 70
     1
  0
XRECORD
  5
383
102
{ACAD_REACTORS
330
382
102
}
330
382
100
AcDbXrecord
280
     1
102
RTVSPost2010Prop28
280
     0
102
RTVSPost2010PropOp28
 70
     1
102
RTVSPost2010Prop29
280
     1
102
RTVSPost2010PropOp29
 70
     1
102
RTVSPost2010Prop30
280
     1
102
RTVSPost2010PropOp30
 70
     1
102
RTVSPost2010Prop31
280
     0
102
RTVSPost2010PropOp31
 70
     1
102
RTVSPost2010Prop32
280
     0
102
RTVSPost2010PropOp32
 70
     1
102
RTVSPost2010Prop33
280
     0
102
RTVSPost2010PropOp33
 70
     1
102
RTVSPost2010Prop34
280
     0
102
RTVSPost2010PropOp34
 70
     1
102
RTVSPost2010Prop35
280
     0
102
RTVSPost2010PropOp35
 70
     1
102
RTVSPost2010Prop36
280
     0
102
RTVSPost2010PropOp36
 70
     1
102
RTVSPost2010Prop37
 90
       50
102
RTVSPost2010PropOp37
 70
     1
102
RTVSPost2010Prop38
140
0.0
102
RTVSPost2010PropOp38
 70
     1
102
RTVSPost2010Prop39
140
1.0
102
RTVSPost2010PropOp39
 70
     1
102
RTVSPost2010Prop40
 90
        0
102
RTVSPost2010PropOp40
 70
     1
102
RTVSPost2010Prop41ColorIndex
 90
       18
102
RTVSPost2010Prop41ColorRGB
 90
        0
102
RTVSPost2010PropOp41
 70
     1
102
RTVSPost2010Prop42
 90
       50
102
RTVSPost2010PropOp42
 70
     1
102
RTVSPost2010Prop43
 90
        3
102
RTVSPost2010PropOp43
 70
     1
102
RTVSPost2010Prop44ColorIndex
 90
        5
102
RTVSPost2010Prop44ColorRGB
 90
      255
102
RTVSPost2010PropOp44
 70
     1
102
RTVSPost2010Prop45
280
     0
102
RTVSPost2010PropOp45
 70
     1
102
RTVSPost2010Prop46
 90
       50
102
RTVSPost2010PropOp46
 70
     1
102
RTVSPost2010Prop47
 90
       50
102
RTVSPost2010PropOp47
 70
     1
102
RTVSPost2010Prop48
 90
       50
102
RTVSPost2010PropOp48
 70
     1
102
RTVSPost2010Prop49
280
     0
102
RTVSPost2010PropOp49
 70
     1
102
RTVSPost2010Prop50
 90
       50
102
RTVSPost2010PropOp50
 70
     1
102
RTVSPost2010Prop51ColorIndex
 90
      256
102
RTVSPost2010Prop51ColorRGB
 90
-16777216
102
RTVSPost2010PropOp51
 70
     0
102
RTVSPost2010Prop52
140
1.0
102
RTVSPost2010PropOp52
 70
     0
102
RTVSPost2010Prop53
 90
        2
102
RTVSPost2010PropOp53
 70
     1
102
RTVSPost2010Prop54
  1
strokes_ogs.tif
102
RTVSPost2010PropOp54
 70
     1
102
RTVSPost2010Prop55
280
     0
102
RTVSPost2010PropOp55
 70
     1
102
RTVSPost2010Prop56
140
1.0
102
RTVSPost2010PropOp56
 70
     1
102
RTVSPost2010Prop57
140
1.0
102
RTVSPost2010PropOp57
 70
     1
102
RTVSPropertyOp0
 70
     1
102
RTVSPropertyOp1
 70
     1
102
RTVSPropertyOp2
 70
     1
102
RTVSPropertyOp3
 70
     1
102
RTVSPropertyOp4
 70
     1
102
RTVSPropertyOp5
 70
     1
102
RTVSPropertyOp6
 70
     1
102
RTVSPropertyOp7
 70
     1
102
RTVSPropertyOp8
 70
     1
102
RTVSPropertyOp9
 70
     1
102
RTVSPropertyOp10
 70
     1
102
RTVSPropertyOp11
 70
     1
102
RTVSPropertyOp12
 70
     1
102
RTVSPropertyOp13
 70
     1
102
RTVSPropertyOp14
 70
     1
102
RTVSPropertyOp15
 70
     1
102
RTVSPropertyOp16
 70
     1
102
RTVSPropertyOp17
 70
     1
102
RTVSPropertyOp18
 70
     1
102
RTVSPropertyOp19
 70
     1
102
RTVSPropertyOp20
 70
     1
102
RTVSPropertyOp21
 70
     1
102
RTVSPropertyOp22
 70
     1
102
RTVSPropertyOp23
 70
     1
102
RTVSPropertyOp24
 70
     1
102
RTVSPropertyOp25
 70
     1
102
RTVSPropertyOp26
 70
     1
102
RTVSPropertyOp27
 70
     1
102
RTVSPropertyOp28
 70
     1
102
RTVSPropertyOp29
 70
     1
102
RTVSPropertyOp30
 70
     1
102
RTVSPropertyOp31
 70
     1
102
RTVSPropertyOp32
 70
     1
102
RTVSPropertyOp33
 70
     1
102
RTVSPropertyOp34
 70
     1
102
RTVSPropertyOp35
 70
     1
102
RTVSPropertyOp36
 70
     1
102
RTVSPropertyOp37
 70
     1
102
RTVSPropertyOp38
 70
     1
102
RTVSPropertyOp39
 70
     1
102
RTVSPropertyOp40
 70
     1
102
RTVSPropertyOp41
 70
     1
102
RTVSPropertyOp42
 70
     1
102
RTVSPropertyOp43
 70
     1
102
RTVSPropertyOp44
 70
     1
102
RTVSPropertyOp45
 70
     1
102
RTVSPropertyOp46
 70
     1
102
RTVSPropertyOp47
 70
     1
102
RTVSPropertyOp48
 70
     1
102
RTVSPropertyOp49
 70
     1
102
RTVSPropertyOp50
 70
     1
102
RTVSPropertyOp51
 70
     0
102
RTVSPropertyOp52
 70
     0
102
RTVSPropertyOp53
 70
     1
102
RTVSPropertyOp54
 70
     1
102
RTVSPropertyOp55
 70
     1
102
RTVSPropertyOp56
 70
     1
102
RTVSPropertyOp57
 70
     1
102
RTVSPropertyOp58
 70
     1
102
RTVSPropertyOp59
 70
     1
102
RTVSPropertyOp60
 70
     1
102
RTVSPropertyOp61
 70
     1
102
RTVSPropertyOp62
 70
     1
  0
XRECORD
  5
377
102
{ACAD_REACTORS
330
376
102
}
330
376
100
AcDbXrecord
280
     1
102
RTVSPost2010Prop28
280
     0
102
RTVSPost2010PropOp28
 70
     1
102
RTVSPost2010Prop29
280
     1
102
RTVSPost2010PropOp29
 70
     1
102
RTVSPost2010Prop30
280
     1
102
RTVSPost2010PropOp30
 70
     1
102
RTVSPost2010Prop31
280
     0
102
RTVSPost2010PropOp31
 70
     1
102
RTVSPost2010Prop32
280
     0
102
RTVSPost2010PropOp32
 70
     1
102
RTVSPost2010Prop33
280
     0
102
RTVSPost2010PropOp33
 70
     1
102
RTVSPost2010Prop34
280
     0
102
RTVSPost2010PropOp34
 70
     1
102
RTVSPost2010Prop35
280
     0
102
RTVSPost2010PropOp35
 70
     1
102
RTVSPost2010Prop36
280
     0
102
RTVSPost2010PropOp36
 70
     1
102
RTVSPost2010Prop37
 90
       50
102
RTVSPost2010PropOp37
 70
     1
102
RTVSPost2010Prop38
140
0.0
102
RTVSPost2010PropOp38
 70
     1
102
RTVSPost2010Prop39
140
1.0
102
RTVSPost2010PropOp39
 70
     1
102
RTVSPost2010Prop40
 90
        0
102
RTVSPost2010PropOp40
 70
     1
102
RTVSPost2010Prop41ColorIndex
 90
       18
102
RTVSPost2010Prop41ColorRGB
 90
        0
102
RTVSPost2010PropOp41
 70
     1
102
RTVSPost2010Prop42
 90
       50
102
RTVSPost2010PropOp42
 70
     1
102
RTVSPost2010Prop43
 90
        3
102
RTVSPost2010PropOp43
 70
     1
102
RTVSPost2010Prop44ColorIndex
 90
        5
102
RTVSPost2010Prop44ColorRGB
 90
      255
102
RTVSPost2010PropOp44
 70
     1
102
RTVSPost2010Prop45
280
     0
102
RTVSPost2010PropOp45
 70
     1
102
RTVSPost2010Prop46
 90
       50
102
RTVSPost2010PropOp46
 70
     1
102
RTVSPost2010Prop47
 90
       50
102
RTVSPost2010PropOp47
 70
     1
102
RTVSPost2010Prop48
 90
       50
102
RTVSPost2010PropOp48
 70
     1
102
RTVSPost2010Prop49
280
     0
102
RTVSPost2010PropOp49
 70
     1
102
RTVSPost2010Prop50
 90
       50
102
RTVSPost2010PropOp50
 70
     1
102
RTVSPost2010Prop51ColorIndex
 90
      256
102
RTVSPost2010Prop51ColorRGB
 90
-16777216
102
RTVSPost2010PropOp51
 70
     0
102
RTVSPost2010Prop52
140
1.0
102
RTVSPost2010PropOp52
 70
     0
102
RTVSPost2010Prop53
 90
        2
102
RTVSPost2010PropOp53
 70
     1
102
RTVSPost2010Prop54
  1
strokes_ogs.tif
102
RTVSPost2010PropOp54
 70
     1
102
RTVSPost2010Prop55
280
     0
102
RTVSPost2010PropOp55
 70
     1
102
RTVSPost2010Prop56
140
1.0
102
RTVSPost2010PropOp56
 70
     1
102
RTVSPost2010Prop57
140
1.0
102
RTVSPost2010PropOp57
 70
     1
102
RTVSPropertyOp0
 70
     1
102
RTVSPropertyOp1
 70
     1
102
RTVSPropertyOp2
 70
     1
102
RTVSPropertyOp3
 70
     1
102
RTVSPropertyOp4
 70
     1
102
RTVSPropertyOp5
 70
     1
102
RTVSPropertyOp6
 70
     1
102
RTVSPropertyOp7
 70
     1
102
RTVSPropertyOp8
 70
     1
102
RTVSPropertyOp9
 70
     1
102
RTVSPropertyOp10
 70
     1
102
RTVSPropertyOp11
 70
     1
102
RTVSPropertyOp12
 70
     1
102
RTVSPropertyOp13
 70
     1
102
RTVSPropertyOp14
 70
     1
102
RTVSPropertyOp15
 70
     1
102
RTVSPropertyOp16
 70
     1
102
RTVSPropertyOp17
 70
     1
102
RTVSPropertyOp18
 70
     1
102
RTVSPropertyOp19
 70
     1
102
RTVSPropertyOp20
 70
     1
102
RTVSPropertyOp21
 70
     1
102
RTVSPropertyOp22
 70
     1
102
RTVSPropertyOp23
 70
     1
102
RTVSPropertyOp24
 70
     1
102
RTVSPropertyOp25
 70
     1
102
RTVSPropertyOp26
 70
     1
102
RTVSPropertyOp27
 70
     1
102
RTVSPropertyOp28
 70
     1
102
RTVSPropertyOp29
 70
     1
102
RTVSPropertyOp30
 70
     1
102
RTVSPropertyOp31
 70
     1
102
RTVSPropertyOp32
 70
     1
102
RTVSPropertyOp33
 70
     1
102
RTVSPropertyOp34
 70
     1
102
RTVSPropertyOp35
 70
     1
102
RTVSPropertyOp36
 70
     1
102
RTVSPropertyOp37
 70
     1
102
RTVSPropertyOp38
 70
     1
102
RTVSPropertyOp39
 70
     1
102
RTVSPropertyOp40
 70
     1
102
RTVSPropertyOp41
 70
     1
102
RTVSPropertyOp42
 70
     1
102
RTVSPropertyOp43
 70
     1
102
RTVSPropertyOp44
 70
     1
102
RTVSPropertyOp45
 70
     1
102
RTVSPropertyOp46
 70
     1
102
RTVSPropertyOp47
 70
     1
102
RTVSPropertyOp48
 70
     1
102
RTVSPropertyOp49
 70
     1
102
RTVSPropertyOp50
 70
     1
102
RTVSPropertyOp51
 70
     0
102
RTVSPropertyOp52
 70
     0
102
RTVSPropertyOp53
 70
     1
102
RTVSPropertyOp54
 70
     1
102
RTVSPropertyOp55
 70
     1
102
RTVSPropertyOp56
 70
     1
102
RTVSPropertyOp57
 70
     1
102
RTVSPropertyOp58
 70
     1
102
RTVSPropertyOp59
 70
     1
102
RTVSPropertyOp60
 70
     1
102
RTVSPropertyOp61
 70
     1
102
RTVSPropertyOp62
 70
     1
  0
XRECORD
  5
379
102
{ACAD_REACTORS
330
378
102
}
330
378
100
AcDbXrecord
280
     1
102
RTVSPost2010Prop28
280
     0
102
RTVSPost2010PropOp28
 70
     1
102
RTVSPost2010Prop29
280
     1
102
RTVSPost2010PropOp29
 70
     1
102
RTVSPost2010Prop30
280
     1
102
RTVSPost2010PropOp30
 70
     1
102
RTVSPost2010Prop31
280
     0
102
RTVSPost2010PropOp31
 70
     1
102
RTVSPost2010Prop32
280
     0
102
RTVSPost2010PropOp32
 70
     1
102
RTVSPost2010Prop33
280
     0
102
RTVSPost2010PropOp33
 70
     1
102
RTVSPost2010Prop34
280
     0
102
RTVSPost2010PropOp34
 70
     1
102
RTVSPost2010Prop35
280
     0
102
RTVSPost2010PropOp35
 70
     1
102
RTVSPost2010Prop36
280
     0
102
RTVSPost2010PropOp36
 70
     1
102
RTVSPost2010Prop37
 90
       50
102
RTVSPost2010PropOp37
 70
     1
102
RTVSPost2010Prop38
140
0.0
102
RTVSPost2010PropOp38
 70
     1
102
RTVSPost2010Prop39
140
1.0
102
RTVSPost2010PropOp39
 70
     1
102
RTVSPost2010Prop40
 90
        0
102
RTVSPost2010PropOp40
 70
     1
102
RTVSPost2010Prop41ColorIndex
 90
       18
102
RTVSPost2010Prop41ColorRGB
 90
        0
102
RTVSPost2010PropOp41
 70
     1
102
RTVSPost2010Prop42
 90
       50
102
RTVSPost2010PropOp42
 70
     1
102
RTVSPost2010Prop43
 90
        3
102
RTVSPost2010PropOp43
 70
     1
102
RTVSPost2010Prop44ColorIndex
 90
        5
102
RTVSPost2010Prop44ColorRGB
 90
      255
102
RTVSPost2010PropOp44
 70
     1
102
RTVSPost2010Prop45
280
     0
102
RTVSPost2010PropOp45
 70
     1
102
RTVSPost2010Prop46
 90
       50
102
RTVSPost2010PropOp46
 70
     1
102
RTVSPost2010Prop47
 90
       50
102
RTVSPost2010PropOp47
 70
     1
102
RTVSPost2010Prop48
 90
       50
102
RTVSPost2010PropOp48
 70
     1
102
RTVSPost2010Prop49
280
     0
102
RTVSPost2010PropOp49
 70
     1
102
RTVSPost2010Prop50
 90
       50
102
RTVSPost2010PropOp50
 70
     1
102
RTVSPost2010Prop51ColorIndex
 90
      256
102
RTVSPost2010Prop51ColorRGB
 90
-16777216
102
RTVSPost2010PropOp51
 70
     0
102
RTVSPost2010Prop52
140
1.0
102
RTVSPost2010PropOp52
 70
     0
102
RTVSPost2010Prop53
 90
        2
102
RTVSPost2010PropOp53
 70
     1
102
RTVSPost2010Prop54
  1
strokes_ogs.tif
102
RTVSPost2010PropOp54
 70
     1
102
RTVSPost2010Prop55
280
     0
102
RTVSPost2010PropOp55
 70
     1
102
RTVSPost2010Prop56
140
1.0
102
RTVSPost2010PropOp56
 70
     1
102
RTVSPost2010Prop57
140
1.0
102
RTVSPost2010PropOp57
 70
     1
102
RTVSPropertyOp0
 70
     1
102
RTVSPropertyOp1
 70
     1
102
RTVSPropertyOp2
 70
     1
102
RTVSPropertyOp3
 70
     1
102
RTVSPropertyOp4
 70
     1
102
RTVSPropertyOp5
 70
     1
102
RTVSPropertyOp6
 70
     1
102
RTVSPropertyOp7
 70
     1
102
RTVSPropertyOp8
 70
     1
102
RTVSPropertyOp9
 70
     1
102
RTVSPropertyOp10
 70
     1
102
RTVSPropertyOp11
 70
     1
102
RTVSPropertyOp12
 70
     1
102
RTVSPropertyOp13
 70
     1
102
RTVSPropertyOp14
 70
     1
102
RTVSPropertyOp15
 70
     1
102
RTVSPropertyOp16
 70
     1
102
RTVSPropertyOp17
 70
     1
102
RTVSPropertyOp18
 70
     1
102
RTVSPropertyOp19
 70
     1
102
RTVSPropertyOp20
 70
     1
102
RTVSPropertyOp21
 70
     1
102
RTVSPropertyOp22
 70
     1
102
RTVSPropertyOp23
 70
     1
102
RTVSPropertyOp24
 70
     1
102
RTVSPropertyOp25
 70
     1
102
RTVSPropertyOp26
 70
     1
102
RTVSPropertyOp27
 70
     1
102
RTVSPropertyOp28
 70
     1
102
RTVSPropertyOp29
 70
     1
102
RTVSPropertyOp30
 70
     1
102
RTVSPropertyOp31
 70
     1
102
RTVSPropertyOp32
 70
     1
102
RTVSPropertyOp33
 70
     1
102
RTVSPropertyOp34
 70
     1
102
RTVSPropertyOp35
 70
     1
102
RTVSPropertyOp36
 70
     1
102
RTVSPropertyOp37
 70
     1
102
RTVSPropertyOp38
 70
     1
102
RTVSPropertyOp39
 70
     1
102
RTVSPropertyOp40
 70
     1
102
RTVSPropertyOp41
 70
     1
102
RTVSPropertyOp42
 70
     1
102
RTVSPropertyOp43
 70
     1
102
RTVSPropertyOp44
 70
     1
102
RTVSPropertyOp45
 70
     1
102
RTVSPropertyOp46
 70
     1
102
RTVSPropertyOp47
 70
     1
102
RTVSPropertyOp48
 70
     1
102
RTVSPropertyOp49
 70
     1
102
RTVSPropertyOp50
 70
     1
102
RTVSPropertyOp51
 70
     0
102
RTVSPropertyOp52
 70
     0
102
RTVSPropertyOp53
 70
     1
102
RTVSPropertyOp54
 70
     1
102
RTVSPropertyOp55
 70
     1
102
RTVSPropertyOp56
 70
     1
102
RTVSPropertyOp57
 70
     1
102
RTVSPropertyOp58
 70
     1
102
RTVSPropertyOp59
 70
     1
102
RTVSPropertyOp60
 70
     1
102
RTVSPropertyOp61
 70
     1
102
RTVSPropertyOp62
 70
     1
  0
XRECORD
  5
389
102
{ACAD_REACTORS
330
388
102
}
330
388
100
AcDbXrecord
280
     1
102
RTVSPost2010Prop28
280
     0
102
RTVSPost2010PropOp28
 70
     0
102
RTVSPost2010Prop29
280
     1
102
RTVSPost2010PropOp29
 70
     0
102
RTVSPost2010Prop30
280
     1
102
RTVSPost2010PropOp30
 70
     0
102
RTVSPost2010Prop31
280
     0
102
RTVSPost2010PropOp31
 70
     0
102
RTVSPost2010Prop32
280
     0
102
RTVSPost2010PropOp32
 70
     0
102
RTVSPost2010Prop33
280
     0
102
RTVSPost2010PropOp33
 70
     0
102
RTVSPost2010Prop34
280
     0
102
RTVSPost2010PropOp34
 70
     0
102
RTVSPost2010Prop35
280
     0
102
RTVSPost2010PropOp35
 70
     0
102
RTVSPost2010Prop36
280
     0
102
RTVSPost2010PropOp36
 70
     0
102
RTVSPost2010Prop37
 90
       50
102
RTVSPost2010PropOp37
 70
     0
102
RTVSPost2010Prop38
140
0.0
102
RTVSPost2010PropOp38
 70
     0
102
RTVSPost2010Prop39
140
1.0
102
RTVSPost2010PropOp39
 70
     0
102
RTVSPost2010Prop40
 90
        0
102
RTVSPost2010PropOp40
 70
     0
102
RTVSPost2010Prop41ColorIndex
 90
       18
102
RTVSPost2010Prop41ColorRGB
 90
        0
102
RTVSPost2010PropOp41
 70
     0
102
RTVSPost2010Prop42
 90
       50
102
RTVSPost2010PropOp42
 70
     0
102
RTVSPost2010Prop43
 90
        3
102
RTVSPost2010PropOp43
 70
     0
102
RTVSPost2010Prop44ColorIndex
 90
        5
102
RTVSPost2010Prop44ColorRGB
 90
      255
102
RTVSPost2010PropOp44
 70
     0
102
RTVSPost2010Prop45
280
     0
102
RTVSPost2010PropOp45
 70
     0
102
RTVSPost2010Prop46
 90
       50
102
RTVSPost2010PropOp46
 70
     0
102
RTVSPost2010Prop47
 90
       50
102
RTVSPost2010PropOp47
 70
     0
102
RTVSPost2010Prop48
 90
       50
102
RTVSPost2010PropOp48
 70
     0
102
RTVSPost2010Prop49
280
     0
102
RTVSPost2010PropOp49
 70
     0
102
RTVSPost2010Prop50
 90
       50
102
RTVSPost2010PropOp50
 70
     0
102
RTVSPost2010Prop51ColorIndex
 90
      256
102
RTVSPost2010Prop51ColorRGB
 90
-16777216
102
RTVSPost2010PropOp51
 70
     0
102
RTVSPost2010Prop52
140
1.0
102
RTVSPost2010PropOp52
 70
     0
102
RTVSPost2010Prop53
 90
        2
102
RTVSPost2010PropOp53
 70
     0
102
RTVSPost2010Prop54
  1
strokes_ogs.tif
102
RTVSPost2010PropOp54
 70
     0
102
RTVSPost2010Prop55
280
     0
102
RTVSPost2010PropOp55
 70
     0
102
RTVSPost2010Prop56
140
1.0
102
RTVSPost2010PropOp56
 70
     0
102
RTVSPost2010Prop57
140
1.0
102
RTVSPost2010PropOp57
 70
     0
102
RTVSPropertyOp0
 70
     0
102
RTVSPropertyOp1
 70
     0
102
RTVSPropertyOp2
 70
     0
102
RTVSPropertyOp3
 70
     0
102
RTVSPropertyOp4
 70
     0
102
RTVSPropertyOp5
 70
     0
102
RTVSPropertyOp6
 70
     0
102
RTVSPropertyOp7
 70
     0
102
RTVSPropertyOp8
 70
     0
102
RTVSPropertyOp9
 70
     0
102
RTVSPropertyOp10
 70
     0
102
RTVSPropertyOp11
 70
     0
102
RTVSPropertyOp12
 70
     0
102
RTVSPropertyOp13
 70
     0
102
RTVSPropertyOp14
 70
     2
102
RTVSPropertyOp15
 70
     0
102
RTVSPropertyOp16
 70
     0
102
RTVSPropertyOp17
 70
     0
102
RTVSPropertyOp18
 70
     0
102
RTVSPropertyOp19
 70
     0
102
RTVSPropertyOp20
 70
     0
102
RTVSPropertyOp21
 70
     0
102
RTVSPropertyOp22
 70
     0
102
RTVSPropertyOp23
 70
     0
102
RTVSPropertyOp24
 70
     0
102
RTVSPropertyOp25
 70
     0
102
RTVSPropertyOp26
 70
     0
102
RTVSPropertyOp27
 70
     0
102
RTVSPropertyOp28
 70
     0
102
RTVSPropertyOp29
 70
     0
102
RTVSPropertyOp30
 70
     0
102
RTVSPropertyOp31
 70
     0
102
RTVSPropertyOp32
 70
     0
102
RTVSPropertyOp33
 70
     0
102
RTVSPropertyOp34
 70
     0
102
RTVSPropertyOp35
 70
     0
102
RTVSPropertyOp36
 70
     0
102
RTVSPropertyOp37
 70
     0
102
RTVSPropertyOp38
 70
     0
102
RTVSPropertyOp39
 70
     0
102
RTVSPropertyOp40
 70
     0
102
RTVSPropertyOp41
 70
     0
102
RTVSPropertyOp42
 70
     0
102
RTVSPropertyOp43
 70
     0
102
RTVSPropertyOp44
 70
     0
102
RTVSPropertyOp45
 70
     0
102
RTVSPropertyOp46
 70
     0
102
RTVSPropertyOp47
 70
     0
102
RTVSPropertyOp48
 70
     0
102
RTVSPropertyOp49
 70
     0
102
RTVSPropertyOp50
 70
     0
102
RTVSPropertyOp51
 70
     0
102
RTVSPropertyOp52
 70
     0
102
RTVSPropertyOp53
 70
     0
102
RTVSPropertyOp54
 70
     0
102
RTVSPropertyOp55
 70
     0
102
RTVSPropertyOp56
 70
     0
102
RTVSPropertyOp57
 70
     0
102
RTVSPropertyOp58
 70
     1
102
RTVSPropertyOp59
 70
     1
102
RTVSPropertyOp60
 70
     1
102
RTVSPropertyOp61
 70
     1
102
RTVSPropertyOp62
 70
     1
  0
XRECORD
  5
381
102
{ACAD_REACTORS
330
380
102
}
330
380
100
AcDbXrecord
280
     1
102
RTVSPost2010Prop28
280
     0
102
RTVSPost2010PropOp28
 70
     1
102
RTVSPost2010Prop29
280
     1
102
RTVSPost2010PropOp29
 70
     1
102
RTVSPost2010Prop30
280
     1
102
RTVSPost2010PropOp30
 70
     1
102
RTVSPost2010Prop31
280
     0
102
RTVSPost2010PropOp31
 70
     1
102
RTVSPost2010Prop32
280
     0
102
RTVSPost2010PropOp32
 70
     1
102
RTVSPost2010Prop33
280
     0
102
RTVSPost2010PropOp33
 70
     1
102
RTVSPost2010Prop34
280
     0
102
RTVSPost2010PropOp34
 70
     1
102
RTVSPost2010Prop35
280
     0
102
RTVSPost2010PropOp35
 70
     1
102
RTVSPost2010Prop36
280
     0
102
RTVSPost2010PropOp36
 70
     1
102
RTVSPost2010Prop37
 90
       50
102
RTVSPost2010PropOp37
 70
     1
102
RTVSPost2010Prop38
140
0.0
102
RTVSPost2010PropOp38
 70
     1
102
RTVSPost2010Prop39
140
1.0
102
RTVSPost2010PropOp39
 70
     1
102
RTVSPost2010Prop40
 90
        0
102
RTVSPost2010PropOp40
 70
     1
102
RTVSPost2010Prop41ColorIndex
 90
       18
102
RTVSPost2010Prop41ColorRGB
 90
        0
102
RTVSPost2010PropOp41
 70
     1
102
RTVSPost2010Prop42
 90
       50
102
RTVSPost2010PropOp42
 70
     1
102
RTVSPost2010Prop43
 90
        3
102
RTVSPost2010PropOp43
 70
     1
102
RTVSPost2010Prop44ColorIndex
 90
        5
102
RTVSPost2010Prop44ColorRGB
 90
      255
102
RTVSPost2010PropOp44
 70
     1
102
RTVSPost2010Prop45
280
     0
102
RTVSPost2010PropOp45
 70
     1
102
RTVSPost2010Prop46
 90
       50
102
RTVSPost2010PropOp46
 70
     1
102
RTVSPost2010Prop47
 90
       50
102
RTVSPost2010PropOp47
 70
     1
102
RTVSPost2010Prop48
 90
       50
102
RTVSPost2010PropOp48
 70
     1
102
RTVSPost2010Prop49
280
     0
102
RTVSPost2010PropOp49
 70
     1
102
RTVSPost2010Prop50
 90
       50
102
RTVSPost2010PropOp50
 70
     1
102
RTVSPost2010Prop51ColorIndex
 90
      256
102
RTVSPost2010Prop51ColorRGB
 90
-16777216
102
RTVSPost2010PropOp51
 70
     0
102
RTVSPost2010Prop52
140
1.0
102
RTVSPost2010PropOp52
 70
     0
102
RTVSPost2010Prop53
 90
        2
102
RTVSPost2010PropOp53
 70
     1
102
RTVSPost2010Prop54
  1
strokes_ogs.tif
102
RTVSPost2010PropOp54
 70
     1
102
RTVSPost2010Prop55
280
     0
102
RTVSPost2010PropOp55
 70
     1
102
RTVSPost2010Prop56
140
1.0
102
RTVSPost2010PropOp56
 70
     1
102
RTVSPost2010Prop57
140
1.0
102
RTVSPost2010PropOp57
 70
     1
102
RTVSPropertyOp0
 70
     1
102
RTVSPropertyOp1
 70
     1
102
RTVSPropertyOp2
 70
     1
102
RTVSPropertyOp3
 70
     1
102
RTVSPropertyOp4
 70
     1
102
RTVSPropertyOp5
 70
     1
102
RTVSPropertyOp6
 70
     1
102
RTVSPropertyOp7
 70
     1
102
RTVSPropertyOp8
 70
     1
102
RTVSPropertyOp9
 70
     1
102
RTVSPropertyOp10
 70
     1
102
RTVSPropertyOp11
 70
     1
102
RTVSPropertyOp12
 70
     1
102
RTVSPropertyOp13
 70
     1
102
RTVSPropertyOp14
 70
     1
102
RTVSPropertyOp15
 70
     1
102
RTVSPropertyOp16
 70
     1
102
RTVSPropertyOp17
 70
     1
102
RTVSPropertyOp18
 70
     1
102
RTVSPropertyOp19
 70
     1
102
RTVSPropertyOp20
 70
     1
102
RTVSPropertyOp21
 70
     1
102
RTVSPropertyOp22
 70
     1
102
RTVSPropertyOp23
 70
     1
102
RTVSPropertyOp24
 70
     1
102
RTVSPropertyOp25
 70
     1
102
RTVSPropertyOp26
 70
     1
102
RTVSPropertyOp27
 70
     1
102
RTVSPropertyOp28
 70
     1
102
RTVSPropertyOp29
 70
     1
102
RTVSPropertyOp30
 70
     1
102
RTVSPropertyOp31
 70
     1
102
RTVSPropertyOp32
 70
     1
102
RTVSPropertyOp33
 70
     1
102
RTVSPropertyOp34
 70
     1
102
RTVSPropertyOp35
 70
     1
102
RTVSPropertyOp36
 70
     1
102
RTVSPropertyOp37
 70
     1
102
RTVSPropertyOp38
 70
     1
102
RTVSPropertyOp39
 70
     1
102
RTVSPropertyOp40
 70
     1
102
RTVSPropertyOp41
 70
     1
102
RTVSPropertyOp42
 70
     1
102
RTVSPropertyOp43
 70
     1
102
RTVSPropertyOp44
 70
     1
102
RTVSPropertyOp45
 70
     1
102
RTVSPropertyOp46
 70
     1
102
RTVSPropertyOp47
 70
     1
102
RTVSPropertyOp48
 70
     1
102
RTVSPropertyOp49
 70
     1
102
RTVSPropertyOp50
 70
     1
102
RTVSPropertyOp51
 70
     0
102
RTVSPropertyOp52
 70
     0
102
RTVSPropertyOp53
 70
     1
102
RTVSPropertyOp54
 70
     1
102
RTVSPropertyOp55
 70
     1
102
RTVSPropertyOp56
 70
     1
102
RTVSPropertyOp57
 70
     1
102
RTVSPropertyOp58
 70
     1
102
RTVSPropertyOp59
 70
     1
102
RTVSPropertyOp60
 70
     1
102
RTVSPropertyOp61
 70
     1
102
RTVSPropertyOp62
 70
     1
  0
XRECORD
  5
365
102
{ACAD_REACTORS
330
364
102
}
330
364
100
AcDbXrecord
280
     1
102
RTVSPost2010Prop28
280
     0
102
RTVSPost2010PropOp28
 70
     1
102
RTVSPost2010Prop29
280
     1
102
RTVSPost2010PropOp29
 70
     1
102
RTVSPost2010Prop30
280
     1
102
RTVSPost2010PropOp30
 70
     1
102
RTVSPost2010Prop31
280
     0
102
RTVSPost2010PropOp31
 70
     1
102
RTVSPost2010Prop32
280
     0
102
RTVSPost2010PropOp32
 70
     1
102
RTVSPost2010Prop33
280
     0
102
RTVSPost2010PropOp33
 70
     1
102
RTVSPost2010Prop34
280
     0
102
RTVSPost2010PropOp34
 70
     1
102
RTVSPost2010Prop35
280
     0
102
RTVSPost2010PropOp35
 70
     1
102
RTVSPost2010Prop36
280
     0
102
RTVSPost2010PropOp36
 70
     1
102
RTVSPost2010Prop37
 90
       50
102
RTVSPost2010PropOp37
 70
     1
102
RTVSPost2010Prop38
140
0.0
102
RTVSPost2010PropOp38
 70
     1
102
RTVSPost2010Prop39
140
1.0
102
RTVSPost2010PropOp39
 70
     1
102
RTVSPost2010Prop40
 90
        0
102
RTVSPost2010PropOp40
 70
     1
102
RTVSPost2010Prop41ColorIndex
 90
       18
102
RTVSPost2010Prop41ColorRGB
 90
        0
102
RTVSPost2010PropOp41
 70
     1
102
RTVSPost2010Prop42
 90
       50
102
RTVSPost2010PropOp42
 70
     1
102
RTVSPost2010Prop43
 90
        3
102
RTVSPost2010PropOp43
 70
     1
102
RTVSPost2010Prop44ColorIndex
 90
        5
102
RTVSPost2010Prop44ColorRGB
 90
      255
102
RTVSPost2010PropOp44
 70
     1
102
RTVSPost2010Prop45
280
     0
102
RTVSPost2010PropOp45
 70
     1
102
RTVSPost2010Prop46
 90
       50
102
RTVSPost2010PropOp46
 70
     1
102
RTVSPost2010Prop47
 90
       50
102
RTVSPost2010PropOp47
 70
     1
102
RTVSPost2010Prop48
 90
       50
102
RTVSPost2010PropOp48
 70
     1
102
RTVSPost2010Prop49
280
     0
102
RTVSPost2010PropOp49
 70
     1
102
RTVSPost2010Prop50
 90
       50
102
RTVSPost2010PropOp50
 70
     1
102
RTVSPost2010Prop51ColorIndex
 90
      256
102
RTVSPost2010Prop51ColorRGB
 90
-16777216
102
RTVSPost2010PropOp51
 70
     0
102
RTVSPost2010Prop52
140
1.0
102
RTVSPost2010PropOp52
 70
     0
102
RTVSPost2010Prop53
 90
        2
102
RTVSPost2010PropOp53
 70
     1
102
RTVSPost2010Prop54
  1
strokes_ogs.tif
102
RTVSPost2010PropOp54
 70
     1
102
RTVSPost2010Prop55
280
     0
102
RTVSPost2010PropOp55
 70
     1
102
RTVSPost2010Prop56
140
1.0
102
RTVSPost2010PropOp56
 70
     1
102
RTVSPost2010Prop57
140
1.0
102
RTVSPost2010PropOp57
 70
     1
102
RTVSPropertyOp0
 70
     1
102
RTVSPropertyOp1
 70
     1
102
RTVSPropertyOp2
 70
     1
102
RTVSPropertyOp3
 70
     1
102
RTVSPropertyOp4
 70
     1
102
RTVSPropertyOp5
 70
     1
102
RTVSPropertyOp6
 70
     1
102
RTVSPropertyOp7
 70
     1
102
RTVSPropertyOp8
 70
     1
102
RTVSPropertyOp9
 70
     1
102
RTVSPropertyOp10
 70
     1
102
RTVSPropertyOp11
 70
     1
102
RTVSPropertyOp12
 70
     1
102
RTVSPropertyOp13
 70
     1
102
RTVSPropertyOp14
 70
     1
102
RTVSPropertyOp15
 70
     1
102
RTVSPropertyOp16
 70
     1
102
RTVSPropertyOp17
 70
     1
102
RTVSPropertyOp18
 70
     1
102
RTVSPropertyOp19
 70
     1
102
RTVSPropertyOp20
 70
     1
102
RTVSPropertyOp21
 70
     1
102
RTVSPropertyOp22
 70
     1
102
RTVSPropertyOp23
 70
     1
102
RTVSPropertyOp24
 70
     1
102
RTVSPropertyOp25
 70
     1
102
RTVSPropertyOp26
 70
     1
102
RTVSPropertyOp27
 70
     1
102
RTVSPropertyOp28
 70
     1
102
RTVSPropertyOp29
 70
     1
102
RTVSPropertyOp30
 70
     1
102
RTVSPropertyOp31
 70
     1
102
RTVSPropertyOp32
 70
     1
102
RTVSPropertyOp33
 70
     1
102
RTVSPropertyOp34
 70
     1
102
RTVSPropertyOp35
 70
     1
102
RTVSPropertyOp36
 70
     1
102
RTVSPropertyOp37
 70
     1
102
RTVSPropertyOp38
 70
     1
102
RTVSPropertyOp39
 70
     1
102
RTVSPropertyOp40
 70
     1
102
RTVSPropertyOp41
 70
     1
102
RTVSPropertyOp42
 70
     1
102
RTVSPropertyOp43
 70
     1
102
RTVSPropertyOp44
 70
     1
102
RTVSPropertyOp45
 70
     1
102
RTVSPropertyOp46
 70
     1
102
RTVSPropertyOp47
 70
     1
102
RTVSPropertyOp48
 70
     1
102
RTVSPropertyOp49
 70
     1
102
RTVSPropertyOp50
 70
     1
102
RTVSPropertyOp51
 70
     0
102
RTVSPropertyOp52
 70
     0
102
RTVSPropertyOp53
 70
     1
102
RTVSPropertyOp54
 70
     1
102
RTVSPropertyOp55
 70
     1
102
RTVSPropertyOp56
 70
     1
102
RTVSPropertyOp57
 70
     1
102
RTVSPropertyOp58
 70
     1
102
RTVSPropertyOp59
 70
     1
102
RTVSPropertyOp60
 70
     1
102
RTVSPropertyOp61
 70
     1
102
RTVSPropertyOp62
 70
     1
  0
XRECORD
  5
367
102
{ACAD_REACTORS
330
366
102
}
330
366
100
AcDbXrecord
280
     1
102
RTVSPost2010Prop28
280
     0
102
RTVSPost2010PropOp28
 70
     1
102
RTVSPost2010Prop29
280
     1
102
RTVSPost2010PropOp29
 70
     1
102
RTVSPost2010Prop30
280
     1
102
RTVSPost2010PropOp30
 70
     1
102
RTVSPost2010Prop31
280
     0
102
RTVSPost2010PropOp31
 70
     1
102
RTVSPost2010Prop32
280
     0
102
RTVSPost2010PropOp32
 70
     1
102
RTVSPost2010Prop33
280
     0
102
RTVSPost2010PropOp33
 70
     1
102
RTVSPost2010Prop34
280
     0
102
RTVSPost2010PropOp34
 70
     1
102
RTVSPost2010Prop35
280
     0
102
RTVSPost2010PropOp35
 70
     1
102
RTVSPost2010Prop36
280
     0
102
RTVSPost2010PropOp36
 70
     1
102
RTVSPost2010Prop37
 90
       50
102
RTVSPost2010PropOp37
 70
     1
102
RTVSPost2010Prop38
140
0.0
102
RTVSPost2010PropOp38
 70
     1
102
RTVSPost2010Prop39
140
1.0
102
RTVSPost2010PropOp39
 70
     1
102
RTVSPost2010Prop40
 90
        0
102
RTVSPost2010PropOp40
 70
     1
102
RTVSPost2010Prop41ColorIndex
 90
       18
102
RTVSPost2010Prop41ColorRGB
 90
        0
102
RTVSPost2010PropOp41
 70
     1
102
RTVSPost2010Prop42
 90
       50
102
RTVSPost2010PropOp42
 70
     1
102
RTVSPost2010Prop43
 90
        3
102
RTVSPost2010PropOp43
 70
     1
102
RTVSPost2010Prop44ColorIndex
 90
        5
102
RTVSPost2010Prop44ColorRGB
 90
      255
102
RTVSPost2010PropOp44
 70
     1
102
RTVSPost2010Prop45
280
     0
102
RTVSPost2010PropOp45
 70
     1
102
RTVSPost2010Prop46
 90
       50
102
RTVSPost2010PropOp46
 70
     1
102
RTVSPost2010Prop47
 90
       50
102
RTVSPost2010PropOp47
 70
     1
102
RTVSPost2010Prop48
 90
       50
102
RTVSPost2010PropOp48
 70
     1
102
RTVSPost2010Prop49
280
     0
102
RTVSPost2010PropOp49
 70
     1
102
RTVSPost2010Prop50
 90
       50
102
RTVSPost2010PropOp50
 70
     1
102
RTVSPost2010Prop51ColorIndex
 90
      256
102
RTVSPost2010Prop51ColorRGB
 90
-16777216
102
RTVSPost2010PropOp51
 70
     0
102
RTVSPost2010Prop52
140
1.0
102
RTVSPost2010PropOp52
 70
     0
102
RTVSPost2010Prop53
 90
        2
102
RTVSPost2010PropOp53
 70
     1
102
RTVSPost2010Prop54
  1
strokes_ogs.tif
102
RTVSPost2010PropOp54
 70
     1
102
RTVSPost2010Prop55
280
     0
102
RTVSPost2010PropOp55
 70
     1
102
RTVSPost2010Prop56
140
1.0
102
RTVSPost2010PropOp56
 70
     1
102
RTVSPost2010Prop57
140
1.0
102
RTVSPost2010PropOp57
 70
     1
102
RTVSPropertyOp0
 70
     1
102
RTVSPropertyOp1
 70
     1
102
RTVSPropertyOp2
 70
     1
102
RTVSPropertyOp3
 70
     1
102
RTVSPropertyOp4
 70
     1
102
RTVSPropertyOp5
 70
     1
102
RTVSPropertyOp6
 70
     1
102
RTVSPropertyOp7
 70
     1
102
RTVSPropertyOp8
 70
     1
102
RTVSPropertyOp9
 70
     1
102
RTVSPropertyOp10
 70
     1
102
RTVSPropertyOp11
 70
     1
102
RTVSPropertyOp12
 70
     1
102
RTVSPropertyOp13
 70
     1
102
RTVSPropertyOp14
 70
     1
102
RTVSPropertyOp15
 70
     1
102
RTVSPropertyOp16
 70
     1
102
RTVSPropertyOp17
 70
     1
102
RTVSPropertyOp18
 70
     1
102
RTVSPropertyOp19
 70
     1
102
RTVSPropertyOp20
 70
     1
102
RTVSPropertyOp21
 70
     1
102
RTVSPropertyOp22
 70
     1
102
RTVSPropertyOp23
 70
     1
102
RTVSPropertyOp24
 70
     1
102
RTVSPropertyOp25
 70
     1
102
RTVSPropertyOp26
 70
     1
102
RTVSPropertyOp27
 70
     1
102
RTVSPropertyOp28
 70
     1
102
RTVSPropertyOp29
 70
     1
102
RTVSPropertyOp30
 70
     1
102
RTVSPropertyOp31
 70
     1
102
RTVSPropertyOp32
 70
     1
102
RTVSPropertyOp33
 70
     1
102
RTVSPropertyOp34
 70
     1
102
RTVSPropertyOp35
 70
     1
102
RTVSPropertyOp36
 70
     1
102
RTVSPropertyOp37
 70
     1
102
RTVSPropertyOp38
 70
     1
102
RTVSPropertyOp39
 70
     1
102
RTVSPropertyOp40
 70
     1
102
RTVSPropertyOp41
 70
     1
102
RTVSPropertyOp42
 70
     1
102
RTVSPropertyOp43
 70
     1
102
RTVSPropertyOp44
 70
     1
102
RTVSPropertyOp45
 70
     1
102
RTVSPropertyOp46
 70
     1
102
RTVSPropertyOp47
 70
     1
102
RTVSPropertyOp48
 70
     1
102
RTVSPropertyOp49
 70
     1
102
RTVSPropertyOp50
 70
     1
102
RTVSPropertyOp51
 70
     0
102
RTVSPropertyOp52
 70
     0
102
RTVSPropertyOp53
 70
     1
102
RTVSPropertyOp54
 70
     1
102
RTVSPropertyOp55
 70
     1
102
RTVSPropertyOp56
 70
     1
102
RTVSPropertyOp57
 70
     1
102
RTVSPropertyOp58
 70
     1
102
RTVSPropertyOp59
 70
     1
102
RTVSPropertyOp60
 70
     1
102
RTVSPropertyOp61
 70
     1
102
RTVSPropertyOp62
 70
     1
  0
XRECORD
  5
369
102
{ACAD_REACTORS
330
368
102
}
330
368
100
AcDbXrecord
280
     1
102
RTVSPost2010Prop28
280
     0
102
RTVSPost2010PropOp28
 70
     1
102
RTVSPost2010Prop29
280
     1
102
RTVSPost2010PropOp29
 70
     1
102
RTVSPost2010Prop30
280
     1
102
RTVSPost2010PropOp30
 70
     1
102
RTVSPost2010Prop31
280
     0
102
RTVSPost2010PropOp31
 70
     1
102
RTVSPost2010Prop32
280
     0
102
RTVSPost2010PropOp32
 70
     1
102
RTVSPost2010Prop33
280
     0
102
RTVSPost2010PropOp33
 70
     1
102
RTVSPost2010Prop34
280
     0
102
RTVSPost2010PropOp34
 70
     1
102
RTVSPost2010Prop35
280
     0
102
RTVSPost2010PropOp35
 70
     1
102
RTVSPost2010Prop36
280
     0
102
RTVSPost2010PropOp36
 70
     1
102
RTVSPost2010Prop37
 90
       50
102
RTVSPost2010PropOp37
 70
     1
102
RTVSPost2010Prop38
140
0.0
102
RTVSPost2010PropOp38
 70
     1
102
RTVSPost2010Prop39
140
1.0
102
RTVSPost2010PropOp39
 70
     1
102
RTVSPost2010Prop40
 90
        0
102
RTVSPost2010PropOp40
 70
     1
102
RTVSPost2010Prop41ColorIndex
 90
       18
102
RTVSPost2010Prop41ColorRGB
 90
        0
102
RTVSPost2010PropOp41
 70
     1
102
RTVSPost2010Prop42
 90
       50
102
RTVSPost2010PropOp42
 70
     1
102
RTVSPost2010Prop43
 90
        3
102
RTVSPost2010PropOp43
 70
     1
102
RTVSPost2010Prop44ColorIndex
 90
        5
102
RTVSPost2010Prop44ColorRGB
 90
      255
102
RTVSPost2010PropOp44
 70
     1
102
RTVSPost2010Prop45
280
     0
102
RTVSPost2010PropOp45
 70
     1
102
RTVSPost2010Prop46
 90
       50
102
RTVSPost2010PropOp46
 70
     1
102
RTVSPost2010Prop47
 90
       50
102
RTVSPost2010PropOp47
 70
     1
102
RTVSPost2010Prop48
 90
       50
102
RTVSPost2010PropOp48
 70
     1
102
RTVSPost2010Prop49
280
     0
102
RTVSPost2010PropOp49
 70
     1
102
RTVSPost2010Prop50
 90
       50
102
RTVSPost2010PropOp50
 70
     1
102
RTVSPost2010Prop51ColorIndex
 90
      256
102
RTVSPost2010Prop51ColorRGB
 90
-16777216
102
RTVSPost2010PropOp51
 70
     0
102
RTVSPost2010Prop52
140
1.0
102
RTVSPost2010PropOp52
 70
     0
102
RTVSPost2010Prop53
 90
        2
102
RTVSPost2010PropOp53
 70
     1
102
RTVSPost2010Prop54
  1
strokes_ogs.tif
102
RTVSPost2010PropOp54
 70
     1
102
RTVSPost2010Prop55
280
     0
102
RTVSPost2010PropOp55
 70
     1
102
RTVSPost2010Prop56
140
1.0
102
RTVSPost2010PropOp56
 70
     1
102
RTVSPost2010Prop57
140
1.0
102
RTVSPost2010PropOp57
 70
     1
102
RTVSPropertyOp0
 70
     1
102
RTVSPropertyOp1
 70
     1
102
RTVSPropertyOp2
 70
     1
102
RTVSPropertyOp3
 70
     1
102
RTVSPropertyOp4
 70
     1
102
RTVSPropertyOp5
 70
     1
102
RTVSPropertyOp6
 70
     1
102
RTVSPropertyOp7
 70
     1
102
RTVSPropertyOp8
 70
     1
102
RTVSPropertyOp9
 70
     1
102
RTVSPropertyOp10
 70
     1
102
RTVSPropertyOp11
 70
     1
102
RTVSPropertyOp12
 70
     1
102
RTVSPropertyOp13
 70
     1
102
RTVSPropertyOp14
 70
     1
102
RTVSPropertyOp15
 70
     1
102
RTVSPropertyOp16
 70
     1
102
RTVSPropertyOp17
 70
     1
102
RTVSPropertyOp18
 70
     1
102
RTVSPropertyOp19
 70
     1
102
RTVSPropertyOp20
 70
     1
102
RTVSPropertyOp21
 70
     1
102
RTVSPropertyOp22
 70
     1
102
RTVSPropertyOp23
 70
     1
102
RTVSPropertyOp24
 70
     1
102
RTVSPropertyOp25
 70
     1
102
RTVSPropertyOp26
 70
     1
102
RTVSPropertyOp27
 70
     1
102
RTVSPropertyOp28
 70
     1
102
RTVSPropertyOp29
 70
     1
102
RTVSPropertyOp30
 70
     1
102
RTVSPropertyOp31
 70
     1
102
RTVSPropertyOp32
 70
     1
102
RTVSPropertyOp33
 70
     1
102
RTVSPropertyOp34
 70
     1
102
RTVSPropertyOp35
 70
     1
102
RTVSPropertyOp36
 70
     1
102
RTVSPropertyOp37
 70
     1
102
RTVSPropertyOp38
 70
     1
102
RTVSPropertyOp39
 70
     1
102
RTVSPropertyOp40
 70
     1
102
RTVSPropertyOp41
 70
     1
102
RTVSPropertyOp42
 70
     1
102
RTVSPropertyOp43
 70
     1
102
RTVSPropertyOp44
 70
     1
102
RTVSPropertyOp45
 70
     1
102
RTVSPropertyOp46
 70
     1
102
RTVSPropertyOp47
 70
     1
102
RTVSPropertyOp48
 70
     1
102
RTVSPropertyOp49
 70
     1
102
RTVSPropertyOp50
 70
     1
102
RTVSPropertyOp51
 70
     0
102
RTVSPropertyOp52
 70
     0
102
RTVSPropertyOp53
 70
     1
102
RTVSPropertyOp54
 70
     1
102
RTVSPropertyOp55
 70
     1
102
RTVSPropertyOp56
 70
     1
102
RTVSPropertyOp57
 70
     1
102
RTVSPropertyOp58
 70
     1
102
RTVSPropertyOp59
 70
     1
102
RTVSPropertyOp60
 70
     1
102
RTVSPropertyOp61
 70
     1
102
RTVSPropertyOp62
 70
     1
  0
XRECORD
  5
36B
102
{ACAD_REACTORS
330
36A
102
}
330
36A
100
AcDbXrecord
280
     1
102
RTVSPost2010Prop28
280
     0
102
RTVSPost2010PropOp28
 70
     1
102
RTVSPost2010Prop29
280
     1
102
RTVSPost2010PropOp29
 70
     1
102
RTVSPost2010Prop30
280
     1
102
RTVSPost2010PropOp30
 70
     1
102
RTVSPost2010Prop31
280
     0
102
RTVSPost2010PropOp31
 70
     1
102
RTVSPost2010Prop32
280
     0
102
RTVSPost2010PropOp32
 70
     1
102
RTVSPost2010Prop33
280
     0
102
RTVSPost2010PropOp33
 70
     1
102
RTVSPost2010Prop34
280
     0
102
RTVSPost2010PropOp34
 70
     1
102
RTVSPost2010Prop35
280
     0
102
RTVSPost2010PropOp35
 70
     1
102
RTVSPost2010Prop36
280
     0
102
RTVSPost2010PropOp36
 70
     1
102
RTVSPost2010Prop37
 90
       50
102
RTVSPost2010PropOp37
 70
     1
102
RTVSPost2010Prop38
140
0.0
102
RTVSPost2010PropOp38
 70
     1
102
RTVSPost2010Prop39
140
1.0
102
RTVSPost2010PropOp39
 70
     1
102
RTVSPost2010Prop40
 90
        0
102
RTVSPost2010PropOp40
 70
     1
102
RTVSPost2010Prop41ColorIndex
 90
       18
102
RTVSPost2010Prop41ColorRGB
 90
        0
102
RTVSPost2010PropOp41
 70
     1
102
RTVSPost2010Prop42
 90
       50
102
RTVSPost2010PropOp42
 70
     1
102
RTVSPost2010Prop43
 90
        3
102
RTVSPost2010PropOp43
 70
     1
102
RTVSPost2010Prop44ColorIndex
 90
        5
102
RTVSPost2010Prop44ColorRGB
 90
      255
102
RTVSPost2010PropOp44
 70
     1
102
RTVSPost2010Prop45
280
     0
102
RTVSPost2010PropOp45
 70
     1
102
RTVSPost2010Prop46
 90
       50
102
RTVSPost2010PropOp46
 70
     1
102
RTVSPost2010Prop47
 90
       50
102
RTVSPost2010PropOp47
 70
     1
102
RTVSPost2010Prop48
 90
       50
102
RTVSPost2010PropOp48
 70
     1
102
RTVSPost2010Prop49
280
     0
102
RTVSPost2010PropOp49
 70
     1
102
RTVSPost2010Prop50
 90
       50
102
RTVSPost2010PropOp50
 70
     1
102
RTVSPost2010Prop51ColorIndex
 90
      256
102
RTVSPost2010Prop51ColorRGB
 90
-16777216
102
RTVSPost2010PropOp51
 70
     0
102
RTVSPost2010Prop52
140
1.0
102
RTVSPost2010PropOp52
 70
     0
102
RTVSPost2010Prop53
 90
        2
102
RTVSPost2010PropOp53
 70
     1
102
RTVSPost2010Prop54
  1
strokes_ogs.tif
102
RTVSPost2010PropOp54
 70
     1
102
RTVSPost2010Prop55
280
     0
102
RTVSPost2010PropOp55
 70
     1
102
RTVSPost2010Prop56
140
1.0
102
RTVSPost2010PropOp56
 70
     1
102
RTVSPost2010Prop57
140
1.0
102
RTVSPost2010PropOp57
 70
     1
102
RTVSPropertyOp0
 70
     1
102
RTVSPropertyOp1
 70
     1
102
RTVSPropertyOp2
 70
     1
102
RTVSPropertyOp3
 70
     1
102
RTVSPropertyOp4
 70
     1
102
RTVSPropertyOp5
 70
     1
102
RTVSPropertyOp6
 70
     1
102
RTVSPropertyOp7
 70
     1
102
RTVSPropertyOp8
 70
     1
102
RTVSPropertyOp9
 70
     1
102
RTVSPropertyOp10
 70
     1
102
RTVSPropertyOp11
 70
     1
102
RTVSPropertyOp12
 70
     1
102
RTVSPropertyOp13
 70
     1
102
RTVSPropertyOp14
 70
     1
102
RTVSPropertyOp15
 70
     1
102
RTVSPropertyOp16
 70
     1
102
RTVSPropertyOp17
 70
     1
102
RTVSPropertyOp18
 70
     1
102
RTVSPropertyOp19
 70
     1
102
RTVSPropertyOp20
 70
     1
102
RTVSPropertyOp21
 70
     1
102
RTVSPropertyOp22
 70
     1
102
RTVSPropertyOp23
 70
     1
102
RTVSPropertyOp24
 70
     1
102
RTVSPropertyOp25
 70
     1
102
RTVSPropertyOp26
 70
     1
102
RTVSPropertyOp27
 70
     1
102
RTVSPropertyOp28
 70
     1
102
RTVSPropertyOp29
 70
     1
102
RTVSPropertyOp30
 70
     1
102
RTVSPropertyOp31
 70
     1
102
RTVSPropertyOp32
 70
     1
102
RTVSPropertyOp33
 70
     1
102
RTVSPropertyOp34
 70
     1
102
RTVSPropertyOp35
 70
     1
102
RTVSPropertyOp36
 70
     1
102
RTVSPropertyOp37
 70
     1
102
RTVSPropertyOp38
 70
     1
102
RTVSPropertyOp39
 70
     1
102
RTVSPropertyOp40
 70
     1
102
RTVSPropertyOp41
 70
     1
102
RTVSPropertyOp42
 70
     1
102
RTVSPropertyOp43
 70
     1
102
RTVSPropertyOp44
 70
     1
102
RTVSPropertyOp45
 70
     1
102
RTVSPropertyOp46
 70
     1
102
RTVSPropertyOp47
 70
     1
102
RTVSPropertyOp48
 70
     1
102
RTVSPropertyOp49
 70
     1
102
RTVSPropertyOp50
 70
     1
102
RTVSPropertyOp51
 70
     0
102
RTVSPropertyOp52
 70
     0
102
RTVSPropertyOp53
 70
     1
102
RTVSPropertyOp54
 70
     1
102
RTVSPropertyOp55
 70
     1
102
RTVSPropertyOp56
 70
     1
102
RTVSPropertyOp57
 70
     1
102
RTVSPropertyOp58
 70
     1
102
RTVSPropertyOp59
 70
     1
102
RTVSPropertyOp60
 70
     1
102
RTVSPropertyOp61
 70
     1
102
RTVSPropertyOp62
 70
     1
  0
XRECORD
  5
371
102
{ACAD_REACTORS
330
370
102
}
330
370
100
AcDbXrecord
280
     1
102
RTVSPost2010Prop28
280
     0
102
RTVSPost2010PropOp28
 70
     1
102
RTVSPost2010Prop29
280
     1
102
RTVSPost2010PropOp29
 70
     1
102
RTVSPost2010Prop30
280
     1
102
RTVSPost2010PropOp30
 70
     1
102
RTVSPost2010Prop31
280
     0
102
RTVSPost2010PropOp31
 70
     1
102
RTVSPost2010Prop32
280
     0
102
RTVSPost2010PropOp32
 70
     1
102
RTVSPost2010Prop33
280
     0
102
RTVSPost2010PropOp33
 70
     1
102
RTVSPost2010Prop34
280
     0
102
RTVSPost2010PropOp34
 70
     1
102
RTVSPost2010Prop35
280
     0
102
RTVSPost2010PropOp35
 70
     1
102
RTVSPost2010Prop36
280
     0
102
RTVSPost2010PropOp36
 70
     1
102
RTVSPost2010Prop37
 90
       50
102
RTVSPost2010PropOp37
 70
     1
102
RTVSPost2010Prop38
140
0.0
102
RTVSPost2010PropOp38
 70
     1
102
RTVSPost2010Prop39
140
1.0
102
RTVSPost2010PropOp39
 70
     1
102
RTVSPost2010Prop40
 90
        0
102
RTVSPost2010PropOp40
 70
     1
102
RTVSPost2010Prop41ColorIndex
 90
       18
102
RTVSPost2010Prop41ColorRGB
 90
        0
102
RTVSPost2010PropOp41
 70
     1
102
RTVSPost2010Prop42
 90
       50
102
RTVSPost2010PropOp42
 70
     1
102
RTVSPost2010Prop43
 90
        3
102
RTVSPost2010PropOp43
 70
     1
102
RTVSPost2010Prop44ColorIndex
 90
        5
102
RTVSPost2010Prop44ColorRGB
 90
      255
102
RTVSPost2010PropOp44
 70
     1
102
RTVSPost2010Prop45
280
     0
102
RTVSPost2010PropOp45
 70
     1
102
RTVSPost2010Prop46
 90
       50
102
RTVSPost2010PropOp46
 70
     1
102
RTVSPost2010Prop47
 90
       50
102
RTVSPost2010PropOp47
 70
     1
102
RTVSPost2010Prop48
 90
       50
102
RTVSPost2010PropOp48
 70
     1
102
RTVSPost2010Prop49
280
     0
102
RTVSPost2010PropOp49
 70
     1
102
RTVSPost2010Prop50
 90
       50
102
RTVSPost2010PropOp50
 70
     1
102
RTVSPost2010Prop51ColorIndex
 90
      256
102
RTVSPost2010Prop51ColorRGB
 90
-16777216
102
RTVSPost2010PropOp51
 70
     0
102
RTVSPost2010Prop52
140
1.0
102
RTVSPost2010PropOp52
 70
     0
102
RTVSPost2010Prop53
 90
        2
102
RTVSPost2010PropOp53
 70
     1
102
RTVSPost2010Prop54
  1
strokes_ogs.tif
102
RTVSPost2010PropOp54
 70
     1
102
RTVSPost2010Prop55
280
     0
102
RTVSPost2010PropOp55
 70
     1
102
RTVSPost2010Prop56
140
1.0
102
RTVSPost2010PropOp56
 70
     1
102
RTVSPost2010Prop57
140
1.0
102
RTVSPost2010PropOp57
 70
     1
102
RTVSPropertyOp0
 70
     1
102
RTVSPropertyOp1
 70
     1
102
RTVSPropertyOp2
 70
     1
102
RTVSPropertyOp3
 70
     1
102
RTVSPropertyOp4
 70
     1
102
RTVSPropertyOp5
 70
     1
102
RTVSPropertyOp6
 70
     1
102
RTVSPropertyOp7
 70
     1
102
RTVSPropertyOp8
 70
     1
102
RTVSPropertyOp9
 70
     1
102
RTVSPropertyOp10
 70
     1
102
RTVSPropertyOp11
 70
     1
102
RTVSPropertyOp12
 70
     1
102
RTVSPropertyOp13
 70
     1
102
RTVSPropertyOp14
 70
     1
102
RTVSPropertyOp15
 70
     1
102
RTVSPropertyOp16
 70
     1
102
RTVSPropertyOp17
 70
     1
102
RTVSPropertyOp18
 70
     1
102
RTVSPropertyOp19
 70
     1
102
RTVSPropertyOp20
 70
     1
102
RTVSPropertyOp21
 70
     1
102
RTVSPropertyOp22
 70
     1
102
RTVSPropertyOp23
 70
     1
102
RTVSPropertyOp24
 70
     1
102
RTVSPropertyOp25
 70
     1
102
RTVSPropertyOp26
 70
     1
102
RTVSPropertyOp27
 70
     1
102
RTVSPropertyOp28
 70
     1
102
RTVSPropertyOp29
 70
     1
102
RTVSPropertyOp30
 70
     1
102
RTVSPropertyOp31
 70
     1
102
RTVSPropertyOp32
 70
     1
102
RTVSPropertyOp33
 70
     1
102
RTVSPropertyOp34
 70
     1
102
RTVSPropertyOp35
 70
     1
102
RTVSPropertyOp36
 70
     1
102
RTVSPropertyOp37
 70
     1
102
RTVSPropertyOp38
 70
     1
102
RTVSPropertyOp39
 70
     1
102
RTVSPropertyOp40
 70
     1
102
RTVSPropertyOp41
 70
     1
102
RTVSPropertyOp42
 70
     1
102
RTVSPropertyOp43
 70
     1
102
RTVSPropertyOp44
 70
     1
102
RTVSPropertyOp45
 70
     1
102
RTVSPropertyOp46
 70
     1
102
RTVSPropertyOp47
 70
     1
102
RTVSPropertyOp48
 70
     1
102
RTVSPropertyOp49
 70
     1
102
RTVSPropertyOp50
 70
     1
102
RTVSPropertyOp51
 70
     0
102
RTVSPropertyOp52
 70
     0
102
RTVSPropertyOp53
 70
     1
102
RTVSPropertyOp54
 70
     1
102
RTVSPropertyOp55
 70
     1
102
RTVSPropertyOp56
 70
     1
102
RTVSPropertyOp57
 70
     1
102
RTVSPropertyOp58
 70
     1
102
RTVSPropertyOp59
 70
     1
102
RTVSPropertyOp60
 70
     1
102
RTVSPropertyOp61
 70
     1
102
RTVSPropertyOp62
 70
     1
  0
XRECORD
  5
385
102
{ACAD_REACTORS
330
384
102
}
330
384
100
AcDbXrecord
280
     1
102
RTVSPost2010Prop28
280
     0
102
RTVSPost2010PropOp28
 70
     0
102
RTVSPost2010Prop29
280
     1
102
RTVSPost2010PropOp29
 70
     0
102
RTVSPost2010Prop30
280
     1
102
RTVSPost2010PropOp30
 70
     0
102
RTVSPost2010Prop31
280
     0
102
RTVSPost2010PropOp31
 70
     0
102
RTVSPost2010Prop32
280
     0
102
RTVSPost2010PropOp32
 70
     0
102
RTVSPost2010Prop33
280
     0
102
RTVSPost2010PropOp33
 70
     0
102
RTVSPost2010Prop34
280
     0
102
RTVSPost2010PropOp34
 70
     0
102
RTVSPost2010Prop35
280
     0
102
RTVSPost2010PropOp35
 70
     0
102
RTVSPost2010Prop36
280
     0
102
RTVSPost2010PropOp36
 70
     0
102
RTVSPost2010Prop37
 90
       50
102
RTVSPost2010PropOp37
 70
     0
102
RTVSPost2010Prop38
140
0.0
102
RTVSPost2010PropOp38
 70
     0
102
RTVSPost2010Prop39
140
1.0
102
RTVSPost2010PropOp39
 70
     0
102
RTVSPost2010Prop40
 90
        0
102
RTVSPost2010PropOp40
 70
     0
102
RTVSPost2010Prop41ColorIndex
 90
       18
102
RTVSPost2010Prop41ColorRGB
 90
        0
102
RTVSPost2010PropOp41
 70
     0
102
RTVSPost2010Prop42
 90
       50
102
RTVSPost2010PropOp42
 70
     0
102
RTVSPost2010Prop43
 90
        3
102
RTVSPost2010PropOp43
 70
     0
102
RTVSPost2010Prop44ColorIndex
 90
        5
102
RTVSPost2010Prop44ColorRGB
 90
      255
102
RTVSPost2010PropOp44
 70
     0
102
RTVSPost2010Prop45
280
     0
102
RTVSPost2010PropOp45
 70
     0
102
RTVSPost2010Prop46
 90
       50
102
RTVSPost2010PropOp46
 70
     0
102
RTVSPost2010Prop47
 90
       50
102
RTVSPost2010PropOp47
 70
     0
102
RTVSPost2010Prop48
 90
       50
102
RTVSPost2010PropOp48
 70
     0
102
RTVSPost2010Prop49
280
     0
102
RTVSPost2010PropOp49
 70
     0
102
RTVSPost2010Prop50
 90
       50
102
RTVSPost2010PropOp50
 70
     0
102
RTVSPost2010Prop51ColorIndex
 90
      256
102
RTVSPost2010Prop51ColorRGB
 90
-16777216
102
RTVSPost2010PropOp51
 70
     0
102
RTVSPost2010Prop52
140
1.0
102
RTVSPost2010PropOp52
 70
     0
102
RTVSPost2010Prop53
 90
        2
102
RTVSPost2010PropOp53
 70
     0
102
RTVSPost2010Prop54
  1
strokes_ogs.tif
102
RTVSPost2010PropOp54
 70
     0
102
RTVSPost2010Prop55
280
     0
102
RTVSPost2010PropOp55
 70
     0
102
RTVSPost2010Prop56
140
1.0
102
RTVSPost2010PropOp56
 70
     0
102
RTVSPost2010Prop57
140
1.0
102
RTVSPost2010PropOp57
 70
     0
102
RTVSPropertyOp0
 70
     0
102
RTVSPropertyOp1
 70
     0
102
RTVSPropertyOp2
 70
     0
102
RTVSPropertyOp3
 70
     0
102
RTVSPropertyOp4
 70
     0
102
RTVSPropertyOp5
 70
     0
102
RTVSPropertyOp6
 70
     0
102
RTVSPropertyOp7
 70
     0
102
RTVSPropertyOp8
 70
     0
102
RTVSPropertyOp9
 70
     0
102
RTVSPropertyOp10
 70
     0
102
RTVSPropertyOp11
 70
     0
102
RTVSPropertyOp12
 70
     0
102
RTVSPropertyOp13
 70
     0
102
RTVSPropertyOp14
 70
     2
102
RTVSPropertyOp15
 70
     0
102
RTVSPropertyOp16
 70
     0
102
RTVSPropertyOp17
 70
     0
102
RTVSPropertyOp18
 70
     0
102
RTVSPropertyOp19
 70
     0
102
RTVSPropertyOp20
 70
     0
102
RTVSPropertyOp21
 70
     0
102
RTVSPropertyOp22
 70
     0
102
RTVSPropertyOp23
 70
     0
102
RTVSPropertyOp24
 70
     0
102
RTVSPropertyOp25
 70
     0
102
RTVSPropertyOp26
 70
     0
102
RTVSPropertyOp27
 70
     0
102
RTVSPropertyOp28
 70
     0
102
RTVSPropertyOp29
 70
     0
102
RTVSPropertyOp30
 70
     0
102
RTVSPropertyOp31
 70
     0
102
RTVSPropertyOp32
 70
     0
102
RTVSPropertyOp33
 70
     0
102
RTVSPropertyOp34
 70
     0
102
RTVSPropertyOp35
 70
     0
102
RTVSPropertyOp36
 70
     0
102
RTVSPropertyOp37
 70
     0
102
RTVSPropertyOp38
 70
     0
102
RTVSPropertyOp39
 70
     0
102
RTVSPropertyOp40
 70
     0
102
RTVSPropertyOp41
 70
     0
102
RTVSPropertyOp42
 70
     0
102
RTVSPropertyOp43
 70
     0
102
RTVSPropertyOp44
 70
     0
102
RTVSPropertyOp45
 70
     0
102
RTVSPropertyOp46
 70
     0
102
RTVSPropertyOp47
 70
     0
102
RTVSPropertyOp48
 70
     0
102
RTVSPropertyOp49
 70
     0
102
RTVSPropertyOp50
 70
     0
102
RTVSPropertyOp51
 70
     0
102
RTVSPropertyOp52
 70
     0
102
RTVSPropertyOp53
 70
     0
102
RTVSPropertyOp54
 70
     0
102
RTVSPropertyOp55
 70
     0
102
RTVSPropertyOp56
 70
     0
102
RTVSPropertyOp57
 70
     0
102
RTVSPropertyOp58
 70
     1
102
RTVSPropertyOp59
 70
     1
102
RTVSPropertyOp60
 70
     1
102
RTVSPropertyOp61
 70
     1
102
RTVSPropertyOp62
 70
     1
  0
XRECORD
  5
37F
102
{ACAD_REACTORS
330
37E
102
}
330
37E
100
AcDbXrecord
280
     1
102
RTVSPost2010Prop28
280
     0
102
RTVSPost2010PropOp28
 70
     1
102
RTVSPost2010Prop29
280
     1
102
RTVSPost2010PropOp29
 70
     1
102
RTVSPost2010Prop30
280
     1
102
RTVSPost2010PropOp30
 70
     1
102
RTVSPost2010Prop31
280
     0
102
RTVSPost2010PropOp31
 70
     1
102
RTVSPost2010Prop32
280
     0
102
RTVSPost2010PropOp32
 70
     1
102
RTVSPost2010Prop33
280
     0
102
RTVSPost2010PropOp33
 70
     1
102
RTVSPost2010Prop34
280
     0
102
RTVSPost2010PropOp34
 70
     1
102
RTVSPost2010Prop35
280
     0
102
RTVSPost2010PropOp35
 70
     1
102
RTVSPost2010Prop36
280
     0
102
RTVSPost2010PropOp36
 70
     1
102
RTVSPost2010Prop37
 90
       50
102
RTVSPost2010PropOp37
 70
     1
102
RTVSPost2010Prop38
140
0.0
102
RTVSPost2010PropOp38
 70
     1
102
RTVSPost2010Prop39
140
1.0
102
RTVSPost2010PropOp39
 70
     1
102
RTVSPost2010Prop40
 90
        0
102
RTVSPost2010PropOp40
 70
     1
102
RTVSPost2010Prop41ColorIndex
 90
       18
102
RTVSPost2010Prop41ColorRGB
 90
        0
102
RTVSPost2010PropOp41
 70
     1
102
RTVSPost2010Prop42
 90
       50
102
RTVSPost2010PropOp42
 70
     1
102
RTVSPost2010Prop43
 90
        3
102
RTVSPost2010PropOp43
 70
     1
102
RTVSPost2010Prop44ColorIndex
 90
        5
102
RTVSPost2010Prop44ColorRGB
 90
      255
102
RTVSPost2010PropOp44
 70
     1
102
RTVSPost2010Prop45
280
     0
102
RTVSPost2010PropOp45
 70
     1
102
RTVSPost2010Prop46
 90
       50
102
RTVSPost2010PropOp46
 70
     1
102
RTVSPost2010Prop47
 90
       50
102
RTVSPost2010PropOp47
 70
     1
102
RTVSPost2010Prop48
 90
       50
102
RTVSPost2010PropOp48
 70
     1
102
RTVSPost2010Prop49
280
     0
102
RTVSPost2010PropOp49
 70
     1
102
RTVSPost2010Prop50
 90
       50
102
RTVSPost2010PropOp50
 70
     1
102
RTVSPost2010Prop51ColorIndex
 90
      256
102
RTVSPost2010Prop51ColorRGB
 90
-16777216
102
RTVSPost2010PropOp51
 70
     0
102
RTVSPost2010Prop52
140
1.0
102
RTVSPost2010PropOp52
 70
     0
102
RTVSPost2010Prop53
 90
        2
102
RTVSPost2010PropOp53
 70
     1
102
RTVSPost2010Prop54
  1
strokes_ogs.tif
102
RTVSPost2010PropOp54
 70
     1
102
RTVSPost2010Prop55
280
     0
102
RTVSPost2010PropOp55
 70
     1
102
RTVSPost2010Prop56
140
1.0
102
RTVSPost2010PropOp56
 70
     1
102
RTVSPost2010Prop57
140
1.0
102
RTVSPost2010PropOp57
 70
     1
102
RTVSPropertyOp0
 70
     1
102
RTVSPropertyOp1
 70
     1
102
RTVSPropertyOp2
 70
     1
102
RTVSPropertyOp3
 70
     1
102
RTVSPropertyOp4
 70
     1
102
RTVSPropertyOp5
 70
     1
102
RTVSPropertyOp6
 70
     1
102
RTVSPropertyOp7
 70
     1
102
RTVSPropertyOp8
 70
     1
102
RTVSPropertyOp9
 70
     1
102
RTVSPropertyOp10
 70
     1
102
RTVSPropertyOp11
 70
     1
102
RTVSPropertyOp12
 70
     1
102
RTVSPropertyOp13
 70
     1
102
RTVSPropertyOp14
 70
     1
102
RTVSPropertyOp15
 70
     1
102
RTVSPropertyOp16
 70
     1
102
RTVSPropertyOp17
 70
     1
102
RTVSPropertyOp18
 70
     1
102
RTVSPropertyOp19
 70
     1
102
RTVSPropertyOp20
 70
     1
102
RTVSPropertyOp21
 70
     1
102
RTVSPropertyOp22
 70
     1
102
RTVSPropertyOp23
 70
     1
102
RTVSPropertyOp24
 70
     1
102
RTVSPropertyOp25
 70
     1
102
RTVSPropertyOp26
 70
     1
102
RTVSPropertyOp27
 70
     1
102
RTVSPropertyOp28
 70
     1
102
RTVSPropertyOp29
 70
     1
102
RTVSPropertyOp30
 70
     1
102
RTVSPropertyOp31
 70
     1
102
RTVSPropertyOp32
 70
     1
102
RTVSPropertyOp33
 70
     1
102
RTVSPropertyOp34
 70
     1
102
RTVSPropertyOp35
 70
     1
102
RTVSPropertyOp36
 70
     1
102
RTVSPropertyOp37
 70
     1
102
RTVSPropertyOp38
 70
     1
102
RTVSPropertyOp39
 70
     1
102
RTVSPropertyOp40
 70
     1
102
RTVSPropertyOp41
 70
     1
102
RTVSPropertyOp42
 70
     1
102
RTVSPropertyOp43
 70
     1
102
RTVSPropertyOp44
 70
     1
102
RTVSPropertyOp45
 70
     1
102
RTVSPropertyOp46
 70
     1
102
RTVSPropertyOp47
 70
     1
102
RTVSPropertyOp48
 70
     1
102
RTVSPropertyOp49
 70
     1
102
RTVSPropertyOp50
 70
     1
102
RTVSPropertyOp51
 70
     0
102
RTVSPropertyOp52
 70
     0
102
RTVSPropertyOp53
 70
     1
102
RTVSPropertyOp54
 70
     1
102
RTVSPropertyOp55
 70
     1
102
RTVSPropertyOp56
 70
     1
102
RTVSPropertyOp57
 70
     1
102
RTVSPropertyOp58
 70
     1
102
RTVSPropertyOp59
 70
     1
102
RTVSPropertyOp60
 70
     1
102
RTVSPropertyOp61
 70
     1
102
RTVSPropertyOp62
 70
     1
  0
XRECORD
  5
387
102
{ACAD_REACTORS
330
386
102
}
330
386
100
AcDbXrecord
280
     1
102
RTVSPost2010Prop28
280
     0
102
RTVSPost2010PropOp28
 70
     0
102
RTVSPost2010Prop29
280
     1
102
RTVSPost2010PropOp29
 70
     0
102
RTVSPost2010Prop30
280
     1
102
RTVSPost2010PropOp30
 70
     0
102
RTVSPost2010Prop31
280
     0
102
RTVSPost2010PropOp31
 70
     0
102
RTVSPost2010Prop32
280
     0
102
RTVSPost2010PropOp32
 70
     0
102
RTVSPost2010Prop33
280
     0
102
RTVSPost2010PropOp33
 70
     0
102
RTVSPost2010Prop34
280
     0
102
RTVSPost2010PropOp34
 70
     0
102
RTVSPost2010Prop35
280
     0
102
RTVSPost2010PropOp35
 70
     0
102
RTVSPost2010Prop36
280
     0
102
RTVSPost2010PropOp36
 70
     0
102
RTVSPost2010Prop37
 90
       50
102
RTVSPost2010PropOp37
 70
     0
102
RTVSPost2010Prop38
140
0.0
102
RTVSPost2010PropOp38
 70
     0
102
RTVSPost2010Prop39
140
1.0
102
RTVSPost2010PropOp39
 70
     0
102
RTVSPost2010Prop40
 90
        0
102
RTVSPost2010PropOp40
 70
     0
102
RTVSPost2010Prop41ColorIndex
 90
       18
102
RTVSPost2010Prop41ColorRGB
 90
        0
102
RTVSPost2010PropOp41
 70
     0
102
RTVSPost2010Prop42
 90
       50
102
RTVSPost2010PropOp42
 70
     0
102
RTVSPost2010Prop43
 90
        3
102
RTVSPost2010PropOp43
 70
     0
102
RTVSPost2010Prop44ColorIndex
 90
        5
102
RTVSPost2010Prop44ColorRGB
 90
      255
102
RTVSPost2010PropOp44
 70
     0
102
RTVSPost2010Prop45
280
     0
102
RTVSPost2010PropOp45
 70
     0
102
RTVSPost2010Prop46
 90
       50
102
RTVSPost2010PropOp46
 70
     0
102
RTVSPost2010Prop47
 90
       50
102
RTVSPost2010PropOp47
 70
     0
102
RTVSPost2010Prop48
 90
       50
102
RTVSPost2010PropOp48
 70
     0
102
RTVSPost2010Prop49
280
     0
102
RTVSPost2010PropOp49
 70
     0
102
RTVSPost2010Prop50
 90
       50
102
RTVSPost2010PropOp50
 70
     0
102
RTVSPost2010Prop51ColorIndex
 90
      256
102
RTVSPost2010Prop51ColorRGB
 90
-16777216
102
RTVSPost2010PropOp51
 70
     0
102
RTVSPost2010Prop52
140
1.0
102
RTVSPost2010PropOp52
 70
     0
102
RTVSPost2010Prop53
 90
        2
102
RTVSPost2010PropOp53
 70
     0
102
RTVSPost2010Prop54
  1
strokes_ogs.tif
102
RTVSPost2010PropOp54
 70
     0
102
RTVSPost2010Prop55
280
     0
102
RTVSPost2010PropOp55
 70
     0
102
RTVSPost2010Prop56
140
1.0
102
RTVSPost2010PropOp56
 70
     0
102
RTVSPost2010Prop57
140
1.0
102
RTVSPost2010PropOp57
 70
     0
102
RTVSPropertyOp0
 70
     0
102
RTVSPropertyOp1
 70
     0
102
RTVSPropertyOp2
 70
     0
102
RTVSPropertyOp3
 70
     0
102
RTVSPropertyOp4
 70
     0
102
RTVSPropertyOp5
 70
     0
102
RTVSPropertyOp6
 70
     0
102
RTVSPropertyOp7
 70
     0
102
RTVSPropertyOp8
 70
     0
102
RTVSPropertyOp9
 70
     0
102
RTVSPropertyOp10
 70
     0
102
RTVSPropertyOp11
 70
     0
102
RTVSPropertyOp12
 70
     0
102
RTVSPropertyOp13
 70
     0
102
RTVSPropertyOp14
 70
     2
102
RTVSPropertyOp15
 70
     0
102
RTVSPropertyOp16
 70
     0
102
RTVSPropertyOp17
 70
     0
102
RTVSPropertyOp18
 70
     0
102
RTVSPropertyOp19
 70
     0
102
RTVSPropertyOp20
 70
     0
102
RTVSPropertyOp21
 70
     0
102
RTVSPropertyOp22
 70
     0
102
RTVSPropertyOp23
 70
     0
102
RTVSPropertyOp24
 70
     0
102
RTVSPropertyOp25
 70
     0
102
RTVSPropertyOp26
 70
     0
102
RTVSPropertyOp27
 70
     0
102
RTVSPropertyOp28
 70
     0
102
RTVSPropertyOp29
 70
     0
102
RTVSPropertyOp30
 70
     0
102
RTVSPropertyOp31
 70
     0
102
RTVSPropertyOp32
 70
     0
102
RTVSPropertyOp33
 70
     0
102
RTVSPropertyOp34
 70
     0
102
RTVSPropertyOp35
 70
     0
102
RTVSPropertyOp36
 70
     0
102
RTVSPropertyOp37
 70
     0
102
RTVSPropertyOp38
 70
     0
102
RTVSPropertyOp39
 70
     0
102
RTVSPropertyOp40
 70
     0
102
RTVSPropertyOp41
 70
     0
102
RTVSPropertyOp42
 70
     0
102
RTVSPropertyOp43
 70
     0
102
RTVSPropertyOp44
 70
     0
102
RTVSPropertyOp45
 70
     0
102
RTVSPropertyOp46
 70
     0
102
RTVSPropertyOp47
 70
     0
102
RTVSPropertyOp48
 70
     0
102
RTVSPropertyOp49
 70
     0
102
RTVSPropertyOp50
 70
     0
102
RTVSPropertyOp51
 70
     0
102
RTVSPropertyOp52
 70
     0
102
RTVSPropertyOp53
 70
     0
102
RTVSPropertyOp54
 70
     0
102
RTVSPropertyOp55
 70
     0
102
RTVSPropertyOp56
 70
     0
102
RTVSPropertyOp57
 70
     0
102
RTVSPropertyOp58
 70
     1
102
RTVSPropertyOp59
 70
     1
102
RTVSPropertyOp60
 70
     1
102
RTVSPropertyOp61
 70
     1
102
RTVSPropertyOp62
 70
     1
  0
XRECORD
  5
375
102
{ACAD_REACTORS
330
374
102
}
330
374
100
AcDbXrecord
280
     1
102
RTVSPost2010Prop28
280
     0
102
RTVSPost2010PropOp28
 70
     1
102
RTVSPost2010Prop29
280
     1
102
RTVSPost2010PropOp29
 70
     1
102
RTVSPost2010Prop30
280
     1
102
RTVSPost2010PropOp30
 70
     1
102
RTVSPost2010Prop31
280
     0
102
RTVSPost2010PropOp31
 70
     1
102
RTVSPost2010Prop32
280
     0
102
RTVSPost2010PropOp32
 70
     1
102
RTVSPost2010Prop33
280
     0
102
RTVSPost2010PropOp33
 70
     1
102
RTVSPost2010Prop34
280
     0
102
RTVSPost2010PropOp34
 70
     1
102
RTVSPost2010Prop35
280
     0
102
RTVSPost2010PropOp35
 70
     1
102
RTVSPost2010Prop36
280
     0
102
RTVSPost2010PropOp36
 70
     1
102
RTVSPost2010Prop37
 90
       50
102
RTVSPost2010PropOp37
 70
     1
102
RTVSPost2010Prop38
140
0.0
102
RTVSPost2010PropOp38
 70
     1
102
RTVSPost2010Prop39
140
1.0
102
RTVSPost2010PropOp39
 70
     1
102
RTVSPost2010Prop40
 90
        0
102
RTVSPost2010PropOp40
 70
     1
102
RTVSPost2010Prop41ColorIndex
 90
       18
102
RTVSPost2010Prop41ColorRGB
 90
        0
102
RTVSPost2010PropOp41
 70
     1
102
RTVSPost2010Prop42
 90
       50
102
RTVSPost2010PropOp42
 70
     1
102
RTVSPost2010Prop43
 90
        3
102
RTVSPost2010PropOp43
 70
     1
102
RTVSPost2010Prop44ColorIndex
 90
        5
102
RTVSPost2010Prop44ColorRGB
 90
      255
102
RTVSPost2010PropOp44
 70
     1
102
RTVSPost2010Prop45
280
     0
102
RTVSPost2010PropOp45
 70
     1
102
RTVSPost2010Prop46
 90
       50
102
RTVSPost2010PropOp46
 70
     1
102
RTVSPost2010Prop47
 90
       50
102
RTVSPost2010PropOp47
 70
     1
102
RTVSPost2010Prop48
 90
       50
102
RTVSPost2010PropOp48
 70
     1
102
RTVSPost2010Prop49
280
     0
102
RTVSPost2010PropOp49
 70
     1
102
RTVSPost2010Prop50
 90
       50
102
RTVSPost2010PropOp50
 70
     1
102
RTVSPost2010Prop51ColorIndex
 90
      256
102
RTVSPost2010Prop51ColorRGB
 90
-16777216
102
RTVSPost2010PropOp51
 70
     0
102
RTVSPost2010Prop52
140
1.0
102
RTVSPost2010PropOp52
 70
     0
102
RTVSPost2010Prop53
 90
        2
102
RTVSPost2010PropOp53
 70
     1
102
RTVSPost2010Prop54
  1
strokes_ogs.tif
102
RTVSPost2010PropOp54
 70
     1
102
RTVSPost2010Prop55
280
     0
102
RTVSPost2010PropOp55
 70
     1
102
RTVSPost2010Prop56
140
1.0
102
RTVSPost2010PropOp56
 70
     1
102
RTVSPost2010Prop57
140
1.0
102
RTVSPost2010PropOp57
 70
     1
102
RTVSPropertyOp0
 70
     1
102
RTVSPropertyOp1
 70
     1
102
RTVSPropertyOp2
 70
     1
102
RTVSPropertyOp3
 70
     1
102
RTVSPropertyOp4
 70
     1
102
RTVSPropertyOp5
 70
     1
102
RTVSPropertyOp6
 70
     1
102
RTVSPropertyOp7
 70
     1
102
RTVSPropertyOp8
 70
     1
102
RTVSPropertyOp9
 70
     1
102
RTVSPropertyOp10
 70
     1
102
RTVSPropertyOp11
 70
     1
102
RTVSPropertyOp12
 70
     1
102
RTVSPropertyOp13
 70
     1
102
RTVSPropertyOp14
 70
     1
102
RTVSPropertyOp15
 70
     1
102
RTVSPropertyOp16
 70
     1
102
RTVSPropertyOp17
 70
     1
102
RTVSPropertyOp18
 70
     1
102
RTVSPropertyOp19
 70
     1
102
RTVSPropertyOp20
 70
     1
102
RTVSPropertyOp21
 70
     1
102
RTVSPropertyOp22
 70
     1
102
RTVSPropertyOp23
 70
     1
102
RTVSPropertyOp24
 70
     1
102
RTVSPropertyOp25
 70
     1
102
RTVSPropertyOp26
 70
     1
102
RTVSPropertyOp27
 70
     1
102
RTVSPropertyOp28
 70
     1
102
RTVSPropertyOp29
 70
     1
102
RTVSPropertyOp30
 70
     1
102
RTVSPropertyOp31
 70
     1
102
RTVSPropertyOp32
 70
     1
102
RTVSPropertyOp33
 70
     1
102
RTVSPropertyOp34
 70
     1
102
RTVSPropertyOp35
 70
     1
102
RTVSPropertyOp36
 70
     1
102
RTVSPropertyOp37
 70
     1
102
RTVSPropertyOp38
 70
     1
102
RTVSPropertyOp39
 70
     1
102
RTVSPropertyOp40
 70
     1
102
RTVSPropertyOp41
 70
     1
102
RTVSPropertyOp42
 70
     1
102
RTVSPropertyOp43
 70
     1
102
RTVSPropertyOp44
 70
     1
102
RTVSPropertyOp45
 70
     1
102
RTVSPropertyOp46
 70
     1
102
RTVSPropertyOp47
 70
     1
102
RTVSPropertyOp48
 70
     1
102
RTVSPropertyOp49
 70
     1
102
RTVSPropertyOp50
 70
     1
102
RTVSPropertyOp51
 70
     0
102
RTVSPropertyOp52
 70
     0
102
RTVSPropertyOp53
 70
     1
102
RTVSPropertyOp54
 70
     1
102
RTVSPropertyOp55
 70
     1
102
RTVSPropertyOp56
 70
     1
102
RTVSPropertyOp57
 70
     1
102
RTVSPropertyOp58
 70
     1
102
RTVSPropertyOp59
 70
     1
102
RTVSPropertyOp60
 70
     1
102
RTVSPropertyOp61
 70
     1
102
RTVSPropertyOp62
 70
     1
  0
XRECORD
  5
393
102
{ACAD_REACTORS
330
392
102
}
330
392
100
AcDbXrecord
280
     1
102
RTVSPost2010Prop28
280
     0
102
RTVSPost2010PropOp28
 70
     1
102
RTVSPost2010Prop29
280
     1
102
RTVSPost2010PropOp29
 70
     1
102
RTVSPost2010Prop30
280
     1
102
RTVSPost2010PropOp30
 70
     1
102
RTVSPost2010Prop31
280
     0
102
RTVSPost2010PropOp31
 70
     1
102
RTVSPost2010Prop32
280
     0
102
RTVSPost2010PropOp32
 70
     1
102
RTVSPost2010Prop33
280
     0
102
RTVSPost2010PropOp33
 70
     1
102
RTVSPost2010Prop34
280
     0
102
RTVSPost2010PropOp34
 70
     1
102
RTVSPost2010Prop35
280
     0
102
RTVSPost2010PropOp35
 70
     1
102
RTVSPost2010Prop36
280
     0
102
RTVSPost2010PropOp36
 70
     1
102
RTVSPost2010Prop37
 90
       50
102
RTVSPost2010PropOp37
 70
     1
102
RTVSPost2010Prop38
140
0.0
102
RTVSPost2010PropOp38
 70
     1
102
RTVSPost2010Prop39
140
1.0
102
RTVSPost2010PropOp39
 70
     1
102
RTVSPost2010Prop40
 90
        0
102
RTVSPost2010PropOp40
 70
     1
102
RTVSPost2010Prop41ColorIndex
 90
       18
102
RTVSPost2010Prop41ColorRGB
 90
        0
102
RTVSPost2010PropOp41
 70
     1
102
RTVSPost2010Prop42
 90
       50
102
RTVSPost2010PropOp42
 70
     1
102
RTVSPost2010Prop43
 90
        3
102
RTVSPost2010PropOp43
 70
     1
102
RTVSPost2010Prop44ColorIndex
 90
        5
102
RTVSPost2010Prop44ColorRGB
 90
      255
102
RTVSPost2010PropOp44
 70
     1
102
RTVSPost2010Prop45
280
     0
102
RTVSPost2010PropOp45
 70
     1
102
RTVSPost2010Prop46
 90
       50
102
RTVSPost2010PropOp46
 70
     1
102
RTVSPost2010Prop47
 90
       50
102
RTVSPost2010PropOp47
 70
     1
102
RTVSPost2010Prop48
 90
       50
102
RTVSPost2010PropOp48
 70
     1
102
RTVSPost2010Prop49
280
     0
102
RTVSPost2010PropOp49
 70
     1
102
RTVSPost2010Prop50
 90
       50
102
RTVSPost2010PropOp50
 70
     1
102
RTVSPost2010Prop51ColorIndex
 90
      256
102
RTVSPost2010Prop51ColorRGB
 90
-16777216
102
RTVSPost2010PropOp51
 70
     0
102
RTVSPost2010Prop52
140
1.0
102
RTVSPost2010PropOp52
 70
     0
102
RTVSPost2010Prop53
 90
        2
102
RTVSPost2010PropOp53
 70
     1
102
RTVSPost2010Prop54
  1
strokes_ogs.tif
102
RTVSPost2010PropOp54
 70
     1
102
RTVSPost2010Prop55
280
     0
102
RTVSPost2010PropOp55
 70
     1
102
RTVSPost2010Prop56
140
1.0
102
RTVSPost2010PropOp56
 70
     1
102
RTVSPost2010Prop57
140
1.0
102
RTVSPost2010PropOp57
 70
     1
102
RTVSPropertyOp0
 70
     1
102
RTVSPropertyOp1
 70
     1
102
RTVSPropertyOp2
 70
     1
102
RTVSPropertyOp3
 70
     1
102
RTVSPropertyOp4
 70
     1
102
RTVSPropertyOp5
 70
     1
102
RTVSPropertyOp6
 70
     1
102
RTVSPropertyOp7
 70
     1
102
RTVSPropertyOp8
 70
     1
102
RTVSPropertyOp9
 70
     1
102
RTVSPropertyOp10
 70
     1
102
RTVSPropertyOp11
 70
     1
102
RTVSPropertyOp12
 70
     1
102
RTVSPropertyOp13
 70
     1
102
RTVSPropertyOp14
 70
     1
102
RTVSPropertyOp15
 70
     1
102
RTVSPropertyOp16
 70
     1
102
RTVSPropertyOp17
 70
     1
102
RTVSPropertyOp18
 70
     1
102
RTVSPropertyOp19
 70
     1
102
RTVSPropertyOp20
 70
     1
102
RTVSPropertyOp21
 70
     1
102
RTVSPropertyOp22
 70
     1
102
RTVSPropertyOp23
 70
     1
102
RTVSPropertyOp24
 70
     1
102
RTVSPropertyOp25
 70
     1
102
RTVSPropertyOp26
 70
     1
102
RTVSPropertyOp27
 70
     1
102
RTVSPropertyOp28
 70
     1
102
RTVSPropertyOp29
 70
     1
102
RTVSPropertyOp30
 70
     1
102
RTVSPropertyOp31
 70
     1
102
RTVSPropertyOp32
 70
     1
102
RTVSPropertyOp33
 70
     1
102
RTVSPropertyOp34
 70
     1
102
RTVSPropertyOp35
 70
     1
102
RTVSPropertyOp36
 70
     1
102
RTVSPropertyOp37
 70
     1
102
RTVSPropertyOp38
 70
     1
102
RTVSPropertyOp39
 70
     1
102
RTVSPropertyOp40
 70
     1
102
RTVSPropertyOp41
 70
     1
102
RTVSPropertyOp42
 70
     1
102
RTVSPropertyOp43
 70
     1
102
RTVSPropertyOp44
 70
     1
102
RTVSPropertyOp45
 70
     1
102
RTVSPropertyOp46
 70
     1
102
RTVSPropertyOp47
 70
     1
102
RTVSPropertyOp48
 70
     1
102
RTVSPropertyOp49
 70
     1
102
RTVSPropertyOp50
 70
     1
102
RTVSPropertyOp51
 70
     0
102
RTVSPropertyOp52
 70
     0
102
RTVSPropertyOp53
 70
     1
102
RTVSPropertyOp54
 70
     1
102
RTVSPropertyOp55
 70
     1
102
RTVSPropertyOp56
 70
     1
102
RTVSPropertyOp57
 70
     1
102
RTVSPropertyOp58
 70
     1
102
RTVSPropertyOp59
 70
     1
102
RTVSPropertyOp60
 70
     1
102
RTVSPropertyOp61
 70
     1
102
RTVSPropertyOp62
 70
     1
  0
XRECORD
  5
391
102
{ACAD_REACTORS
330
390
102
}
330
390
100
AcDbXrecord
280
     1
102
RTVSPost2010Prop28
280
     0
102
RTVSPost2010PropOp28
 70
     1
102
RTVSPost2010Prop29
280
     1
102
RTVSPost2010PropOp29
 70
     1
102
RTVSPost2010Prop30
280
     1
102
RTVSPost2010PropOp30
 70
     1
102
RTVSPost2010Prop31
280
     0
102
RTVSPost2010PropOp31
 70
     1
102
RTVSPost2010Prop32
280
     0
102
RTVSPost2010PropOp32
 70
     1
102
RTVSPost2010Prop33
280
     0
102
RTVSPost2010PropOp33
 70
     1
102
RTVSPost2010Prop34
280
     0
102
RTVSPost2010PropOp34
 70
     1
102
RTVSPost2010Prop35
280
     0
102
RTVSPost2010PropOp35
 70
     1
102
RTVSPost2010Prop36
280
     0
102
RTVSPost2010PropOp36
 70
     1
102
RTVSPost2010Prop37
 90
       50
102
RTVSPost2010PropOp37
 70
     1
102
RTVSPost2010Prop38
140
0.0
102
RTVSPost2010PropOp38
 70
     1
102
RTVSPost2010Prop39
140
1.0
102
RTVSPost2010PropOp39
 70
     1
102
RTVSPost2010Prop40
 90
        0
102
RTVSPost2010PropOp40
 70
     1
102
RTVSPost2010Prop41ColorIndex
 90
       18
102
RTVSPost2010Prop41ColorRGB
 90
        0
102
RTVSPost2010PropOp41
 70
     1
102
RTVSPost2010Prop42
 90
       50
102
RTVSPost2010PropOp42
 70
     1
102
RTVSPost2010Prop43
 90
        3
102
RTVSPost2010PropOp43
 70
     1
102
RTVSPost2010Prop44ColorIndex
 90
        5
102
RTVSPost2010Prop44ColorRGB
 90
      255
102
RTVSPost2010PropOp44
 70
     1
102
RTVSPost2010Prop45
280
     0
102
RTVSPost2010PropOp45
 70
     1
102
RTVSPost2010Prop46
 90
       50
102
RTVSPost2010PropOp46
 70
     1
102
RTVSPost2010Prop47
 90
       50
102
RTVSPost2010PropOp47
 70
     1
102
RTVSPost2010Prop48
 90
       50
102
RTVSPost2010PropOp48
 70
     1
102
RTVSPost2010Prop49
280
     0
102
RTVSPost2010PropOp49
 70
     1
102
RTVSPost2010Prop50
 90
       50
102
RTVSPost2010PropOp50
 70
     1
102
RTVSPost2010Prop51ColorIndex
 90
      256
102
RTVSPost2010Prop51ColorRGB
 90
-16777216
102
RTVSPost2010PropOp51
 70
     0
102
RTVSPost2010Prop52
140
1.0
102
RTVSPost2010PropOp52
 70
     0
102
RTVSPost2010Prop53
 90
        2
102
RTVSPost2010PropOp53
 70
     1
102
RTVSPost2010Prop54
  1
strokes_ogs.tif
102
RTVSPost2010PropOp54
 70
     1
102
RTVSPost2010Prop55
280
     0
102
RTVSPost2010PropOp55
 70
     1
102
RTVSPost2010Prop56
140
1.0
102
RTVSPost2010PropOp56
 70
     1
102
RTVSPost2010Prop57
140
1.0
102
RTVSPost2010PropOp57
 70
     1
102
RTVSPropertyOp0
 70
     1
102
RTVSPropertyOp1
 70
     1
102
RTVSPropertyOp2
 70
     1
102
RTVSPropertyOp3
 70
     1
102
RTVSPropertyOp4
 70
     1
102
RTVSPropertyOp5
 70
     1
102
RTVSPropertyOp6
 70
     1
102
RTVSPropertyOp7
 70
     1
102
RTVSPropertyOp8
 70
     1
102
RTVSPropertyOp9
 70
     1
102
RTVSPropertyOp10
 70
     1
102
RTVSPropertyOp11
 70
     1
102
RTVSPropertyOp12
 70
     1
102
RTVSPropertyOp13
 70
     1
102
RTVSPropertyOp14
 70
     1
102
RTVSPropertyOp15
 70
     1
102
RTVSPropertyOp16
 70
     1
102
RTVSPropertyOp17
 70
     1
102
RTVSPropertyOp18
 70
     1
102
RTVSPropertyOp19
 70
     1
102
RTVSPropertyOp20
 70
     1
102
RTVSPropertyOp21
 70
     1
102
RTVSPropertyOp22
 70
     1
102
RTVSPropertyOp23
 70
     1
102
RTVSPropertyOp24
 70
     1
102
RTVSPropertyOp25
 70
     1
102
RTVSPropertyOp26
 70
     1
102
RTVSPropertyOp27
 70
     1
102
RTVSPropertyOp28
 70
     1
102
RTVSPropertyOp29
 70
     1
102
RTVSPropertyOp30
 70
     1
102
RTVSPropertyOp31
 70
     1
102
RTVSPropertyOp32
 70
     1
102
RTVSPropertyOp33
 70
     1
102
RTVSPropertyOp34
 70
     1
102
RTVSPropertyOp35
 70
     1
102
RTVSPropertyOp36
 70
     1
102
RTVSPropertyOp37
 70
     1
102
RTVSPropertyOp38
 70
     1
102
RTVSPropertyOp39
 70
     1
102
RTVSPropertyOp40
 70
     1
102
RTVSPropertyOp41
 70
     1
102
RTVSPropertyOp42
 70
     1
102
RTVSPropertyOp43
 70
     1
102
RTVSPropertyOp44
 70
     1
102
RTVSPropertyOp45
 70
     1
102
RTVSPropertyOp46
 70
     1
102
RTVSPropertyOp47
 70
     1
102
RTVSPropertyOp48
 70
     1
102
RTVSPropertyOp49
 70
     1
102
RTVSPropertyOp50
 70
     1
102
RTVSPropertyOp51
 70
     0
102
RTVSPropertyOp52
 70
     0
102
RTVSPropertyOp53
 70
     1
102
RTVSPropertyOp54
 70
     1
102
RTVSPropertyOp55
 70
     1
102
RTVSPropertyOp56
 70
     1
102
RTVSPropertyOp57
 70
     1
102
RTVSPropertyOp58
 70
     1
102
RTVSPropertyOp59
 70
     1
102
RTVSPropertyOp60
 70
     1
102
RTVSPropertyOp61
 70
     1
102
RTVSPropertyOp62
 70
     1
  0
XRECORD
  5
38B
102
{ACAD_REACTORS
330
38A
102
}
330
38A
100
AcDbXrecord
280
     1
102
RTVSPost2010Prop28
280
     0
102
RTVSPost2010PropOp28
 70
     1
102
RTVSPost2010Prop29
280
     1
102
RTVSPost2010PropOp29
 70
     1
102
RTVSPost2010Prop30
280
     1
102
RTVSPost2010PropOp30
 70
     1
102
RTVSPost2010Prop31
280
     0
102
RTVSPost2010PropOp31
 70
     1
102
RTVSPost2010Prop32
280
     0
102
RTVSPost2010PropOp32
 70
     1
102
RTVSPost2010Prop33
280
     0
102
RTVSPost2010PropOp33
 70
     1
102
RTVSPost2010Prop34
280
     0
102
RTVSPost2010PropOp34
 70
     1
102
RTVSPost2010Prop35
280
     0
102
RTVSPost2010PropOp35
 70
     1
102
RTVSPost2010Prop36
280
     0
102
RTVSPost2010PropOp36
 70
     1
102
RTVSPost2010Prop37
 90
       50
102
RTVSPost2010PropOp37
 70
     1
102
RTVSPost2010Prop38
140
0.0
102
RTVSPost2010PropOp38
 70
     1
102
RTVSPost2010Prop39
140
1.0
102
RTVSPost2010PropOp39
 70
     1
102
RTVSPost2010Prop40
 90
        0
102
RTVSPost2010PropOp40
 70
     1
102
RTVSPost2010Prop41ColorIndex
 90
       18
102
RTVSPost2010Prop41ColorRGB
 90
        0
102
RTVSPost2010PropOp41
 70
     1
102
RTVSPost2010Prop42
 90
       50
102
RTVSPost2010PropOp42
 70
     1
102
RTVSPost2010Prop43
 90
        3
102
RTVSPost2010PropOp43
 70
     1
102
RTVSPost2010Prop44ColorIndex
 90
        5
102
RTVSPost2010Prop44ColorRGB
 90
      255
102
RTVSPost2010PropOp44
 70
     1
102
RTVSPost2010Prop45
280
     0
102
RTVSPost2010PropOp45
 70
     1
102
RTVSPost2010Prop46
 90
       50
102
RTVSPost2010PropOp46
 70
     1
102
RTVSPost2010Prop47
 90
       50
102
RTVSPost2010PropOp47
 70
     1
102
RTVSPost2010Prop48
 90
       50
102
RTVSPost2010PropOp48
 70
     1
102
RTVSPost2010Prop49
280
     0
102
RTVSPost2010PropOp49
 70
     1
102
RTVSPost2010Prop50
 90
       50
102
RTVSPost2010PropOp50
 70
     1
102
RTVSPost2010Prop51ColorIndex
 90
      256
102
RTVSPost2010Prop51ColorRGB
 90
-16777216
102
RTVSPost2010PropOp51
 70
     0
102
RTVSPost2010Prop52
140
1.0
102
RTVSPost2010PropOp52
 70
     0
102
RTVSPost2010Prop53
 90
        2
102
RTVSPost2010PropOp53
 70
     1
102
RTVSPost2010Prop54
  1
strokes_ogs.tif
102
RTVSPost2010PropOp54
 70
     1
102
RTVSPost2010Prop55
280
     0
102
RTVSPost2010PropOp55
 70
     1
102
RTVSPost2010Prop56
140
1.0
102
RTVSPost2010PropOp56
 70
     1
102
RTVSPost2010Prop57
140
1.0
102
RTVSPost2010PropOp57
 70
     1
102
RTVSPropertyOp0
 70
     1
102
RTVSPropertyOp1
 70
     1
102
RTVSPropertyOp2
 70
     1
102
RTVSPropertyOp3
 70
     1
102
RTVSPropertyOp4
 70
     1
102
RTVSPropertyOp5
 70
     1
102
RTVSPropertyOp6
 70
     1
102
RTVSPropertyOp7
 70
     1
102
RTVSPropertyOp8
 70
     1
102
RTVSPropertyOp9
 70
     1
102
RTVSPropertyOp10
 70
     1
102
RTVSPropertyOp11
 70
     1
102
RTVSPropertyOp12
 70
     1
102
RTVSPropertyOp13
 70
     1
102
RTVSPropertyOp14
 70
     1
102
RTVSPropertyOp15
 70
     1
102
RTVSPropertyOp16
 70
     1
102
RTVSPropertyOp17
 70
     1
102
RTVSPropertyOp18
 70
     1
102
RTVSPropertyOp19
 70
     1
102
RTVSPropertyOp20
 70
     1
102
RTVSPropertyOp21
 70
     1
102
RTVSPropertyOp22
 70
     1
102
RTVSPropertyOp23
 70
     1
102
RTVSPropertyOp24
 70
     1
102
RTVSPropertyOp25
 70
     1
102
RTVSPropertyOp26
 70
     1
102
RTVSPropertyOp27
 70
     1
102
RTVSPropertyOp28
 70
     1
102
RTVSPropertyOp29
 70
     1
102
RTVSPropertyOp30
 70
     1
102
RTVSPropertyOp31
 70
     1
102
RTVSPropertyOp32
 70
     1
102
RTVSPropertyOp33
 70
     1
102
RTVSPropertyOp34
 70
     1
102
RTVSPropertyOp35
 70
     1
102
RTVSPropertyOp36
 70
     1
102
RTVSPropertyOp37
 70
     1
102
RTVSPropertyOp38
 70
     1
102
RTVSPropertyOp39
 70
     1
102
RTVSPropertyOp40
 70
     1
102
RTVSPropertyOp41
 70
     1
102
RTVSPropertyOp42
 70
     1
102
RTVSPropertyOp43
 70
     1
102
RTVSPropertyOp44
 70
     1
102
RTVSPropertyOp45
 70
     1
102
RTVSPropertyOp46
 70
     1
102
RTVSPropertyOp47
 70
     1
102
RTVSPropertyOp48
 70
     1
102
RTVSPropertyOp49
 70
     1
102
RTVSPropertyOp50
 70
     1
102
RTVSPropertyOp51
 70
     0
102
RTVSPropertyOp52
 70
     0
102
RTVSPropertyOp53
 70
     1
102
RTVSPropertyOp54
 70
     1
102
RTVSPropertyOp55
 70
     1
102
RTVSPropertyOp56
 70
     1
102
RTVSPropertyOp57
 70
     1
102
RTVSPropertyOp58
 70
     1
102
RTVSPropertyOp59
 70
     1
102
RTVSPropertyOp60
 70
     1
102
RTVSPropertyOp61
 70
     1
102
RTVSPropertyOp62
 70
     1
  0
XRECORD
  5
38D
102
{ACAD_REACTORS
330
38C
102
}
330
38C
100
AcDbXrecord
280
     1
102
RTVSPost2010Prop28
280
     0
102
RTVSPost2010PropOp28
 70
     1
102
RTVSPost2010Prop29
280
     1
102
RTVSPost2010PropOp29
 70
     1
102
RTVSPost2010Prop30
280
     1
102
RTVSPost2010PropOp30
 70
     1
102
RTVSPost2010Prop31
280
     0
102
RTVSPost2010PropOp31
 70
     1
102
RTVSPost2010Prop32
280
     0
102
RTVSPost2010PropOp32
 70
     1
102
RTVSPost2010Prop33
280
     0
102
RTVSPost2010PropOp33
 70
     1
102
RTVSPost2010Prop34
280
     0
102
RTVSPost2010PropOp34
 70
     1
102
RTVSPost2010Prop35
280
     0
102
RTVSPost2010PropOp35
 70
     1
102
RTVSPost2010Prop36
280
     0
102
RTVSPost2010PropOp36
 70
     1
102
RTVSPost2010Prop37
 90
       50
102
RTVSPost2010PropOp37
 70
     1
102
RTVSPost2010Prop38
140
0.0
102
RTVSPost2010PropOp38
 70
     1
102
RTVSPost2010Prop39
140
1.0
102
RTVSPost2010PropOp39
 70
     1
102
RTVSPost2010Prop40
 90
        0
102
RTVSPost2010PropOp40
 70
     1
102
RTVSPost2010Prop41ColorIndex
 90
       18
102
RTVSPost2010Prop41ColorRGB
 90
        0
102
RTVSPost2010PropOp41
 70
     1
102
RTVSPost2010Prop42
 90
       50
102
RTVSPost2010PropOp42
 70
     1
102
RTVSPost2010Prop43
 90
        3
102
RTVSPost2010PropOp43
 70
     1
102
RTVSPost2010Prop44ColorIndex
 90
        5
102
RTVSPost2010Prop44ColorRGB
 90
      255
102
RTVSPost2010PropOp44
 70
     1
102
RTVSPost2010Prop45
280
     0
102
RTVSPost2010PropOp45
 70
     1
102
RTVSPost2010Prop46
 90
       50
102
RTVSPost2010PropOp46
 70
     1
102
RTVSPost2010Prop47
 90
       50
102
RTVSPost2010PropOp47
 70
     1
102
RTVSPost2010Prop48
 90
       50
102
RTVSPost2010PropOp48
 70
     1
102
RTVSPost2010Prop49
280
     0
102
RTVSPost2010PropOp49
 70
     1
102
RTVSPost2010Prop50
 90
       50
102
RTVSPost2010PropOp50
 70
     1
102
RTVSPost2010Prop51ColorIndex
 90
      256
102
RTVSPost2010Prop51ColorRGB
 90
-16777216
102
RTVSPost2010PropOp51
 70
     0
102
RTVSPost2010Prop52
140
1.0
102
RTVSPost2010PropOp52
 70
     0
102
RTVSPost2010Prop53
 90
        2
102
RTVSPost2010PropOp53
 70
     1
102
RTVSPost2010Prop54
  1
strokes_ogs.tif
102
RTVSPost2010PropOp54
 70
     1
102
RTVSPost2010Prop55
280
     0
102
RTVSPost2010PropOp55
 70
     1
102
RTVSPost2010Prop56
140
1.0
102
RTVSPost2010PropOp56
 70
     1
102
RTVSPost2010Prop57
140
1.0
102
RTVSPost2010PropOp57
 70
     1
102
RTVSPropertyOp0
 70
     1
102
RTVSPropertyOp1
 70
     1
102
RTVSPropertyOp2
 70
     1
102
RTVSPropertyOp3
 70
     1
102
RTVSPropertyOp4
 70
     1
102
RTVSPropertyOp5
 70
     1
102
RTVSPropertyOp6
 70
     1
102
RTVSPropertyOp7
 70
     1
102
RTVSPropertyOp8
 70
     1
102
RTVSPropertyOp9
 70
     1
102
RTVSPropertyOp10
 70
     1
102
RTVSPropertyOp11
 70
     1
102
RTVSPropertyOp12
 70
     1
102
RTVSPropertyOp13
 70
     1
102
RTVSPropertyOp14
 70
     1
102
RTVSPropertyOp15
 70
     1
102
RTVSPropertyOp16
 70
     1
102
RTVSPropertyOp17
 70
     1
102
RTVSPropertyOp18
 70
     1
102
RTVSPropertyOp19
 70
     1
102
RTVSPropertyOp20
 70
     1
102
RTVSPropertyOp21
 70
     1
102
RTVSPropertyOp22
 70
     1
102
RTVSPropertyOp23
 70
     1
102
RTVSPropertyOp24
 70
     1
102
RTVSPropertyOp25
 70
     1
102
RTVSPropertyOp26
 70
     1
102
RTVSPropertyOp27
 70
     1
102
RTVSPropertyOp28
 70
     1
102
RTVSPropertyOp29
 70
     1
102
RTVSPropertyOp30
 70
     1
102
RTVSPropertyOp31
 70
     1
102
RTVSPropertyOp32
 70
     1
102
RTVSPropertyOp33
 70
     1
102
RTVSPropertyOp34
 70
     1
102
RTVSPropertyOp35
 70
     1
102
RTVSPropertyOp36
 70
     1
102
RTVSPropertyOp37
 70
     1
102
RTVSPropertyOp38
 70
     1
102
RTVSPropertyOp39
 70
     1
102
RTVSPropertyOp40
 70
     1
102
RTVSPropertyOp41
 70
     1
102
RTVSPropertyOp42
 70
     1
102
RTVSPropertyOp43
 70
     1
102
RTVSPropertyOp44
 70
     1
102
RTVSPropertyOp45
 70
     1
102
RTVSPropertyOp46
 70
     1
102
RTVSPropertyOp47
 70
     1
102
RTVSPropertyOp48
 70
     1
102
RTVSPropertyOp49
 70
     1
102
RTVSPropertyOp50
 70
     1
102
RTVSPropertyOp51
 70
     0
102
RTVSPropertyOp52
 70
     0
102
RTVSPropertyOp53
 70
     1
102
RTVSPropertyOp54
 70
     1
102
RTVSPropertyOp55
 70
     1
102
RTVSPropertyOp56
 70
     1
102
RTVSPropertyOp57
 70
     1
102
RTVSPropertyOp58
 70
     1
102
RTVSPropertyOp59
 70
     1
102
RTVSPropertyOp60
 70
     1
102
RTVSPropertyOp61
 70
     1
102
RTVSPropertyOp62
 70
     1
  0
XRECORD
  5
37D
102
{ACAD_REACTORS
330
37C
102
}
330
37C
100
AcDbXrecord
280
     1
102
RTVSPost2010Prop28
280
     0
102
RTVSPost2010PropOp28
 70
     1
102
RTVSPost2010Prop29
280
     1
102
RTVSPost2010PropOp29
 70
     1
102
RTVSPost2010Prop30
280
     1
102
RTVSPost2010PropOp30
 70
     1
102
RTVSPost2010Prop31
280
     0
102
RTVSPost2010PropOp31
 70
     1
102
RTVSPost2010Prop32
280
     0
102
RTVSPost2010PropOp32
 70
     1
102
RTVSPost2010Prop33
280
     0
102
RTVSPost2010PropOp33
 70
     1
102
RTVSPost2010Prop34
280
     0
102
RTVSPost2010PropOp34
 70
     1
102
RTVSPost2010Prop35
280
     0
102
RTVSPost2010PropOp35
 70
     1
102
RTVSPost2010Prop36
280
     0
102
RTVSPost2010PropOp36
 70
     1
102
RTVSPost2010Prop37
 90
       50
102
RTVSPost2010PropOp37
 70
     1
102
RTVSPost2010Prop38
140
0.0
102
RTVSPost2010PropOp38
 70
     1
102
RTVSPost2010Prop39
140
1.0
102
RTVSPost2010PropOp39
 70
     1
102
RTVSPost2010Prop40
 90
        0
102
RTVSPost2010PropOp40
 70
     1
102
RTVSPost2010Prop41ColorIndex
 90
       18
102
RTVSPost2010Prop41ColorRGB
 90
        0
102
RTVSPost2010PropOp41
 70
     1
102
RTVSPost2010Prop42
 90
       50
102
RTVSPost2010PropOp42
 70
     1
102
RTVSPost2010Prop43
 90
        3
102
RTVSPost2010PropOp43
 70
     1
102
RTVSPost2010Prop44ColorIndex
 90
        5
102
RTVSPost2010Prop44ColorRGB
 90
      255
102
RTVSPost2010PropOp44
 70
     1
102
RTVSPost2010Prop45
280
     0
102
RTVSPost2010PropOp45
 70
     1
102
RTVSPost2010Prop46
 90
       50
102
RTVSPost2010PropOp46
 70
     1
102
RTVSPost2010Prop47
 90
       50
102
RTVSPost2010PropOp47
 70
     1
102
RTVSPost2010Prop48
 90
       50
102
RTVSPost2010PropOp48
 70
     1
102
RTVSPost2010Prop49
280
     0
102
RTVSPost2010PropOp49
 70
     1
102
RTVSPost2010Prop50
 90
       50
102
RTVSPost2010PropOp50
 70
     1
102
RTVSPost2010Prop51ColorIndex
 90
      256
102
RTVSPost2010Prop51ColorRGB
 90
-16777216
102
RTVSPost2010PropOp51
 70
     0
102
RTVSPost2010Prop52
140
1.0
102
RTVSPost2010PropOp52
 70
     0
102
RTVSPost2010Prop53
 90
        2
102
RTVSPost2010PropOp53
 70
     1
102
RTVSPost2010Prop54
  1
strokes_ogs.tif
102
RTVSPost2010PropOp54
 70
     1
102
RTVSPost2010Prop55
280
     0
102
RTVSPost2010PropOp55
 70
     1
102
RTVSPost2010Prop56
140
1.0
102
RTVSPost2010PropOp56
 70
     1
102
RTVSPost2010Prop57
140
1.0
102
RTVSPost2010PropOp57
 70
     1
102
RTVSPropertyOp0
 70
     1
102
RTVSPropertyOp1
 70
     1
102
RTVSPropertyOp2
 70
     1
102
RTVSPropertyOp3
 70
     1
102
RTVSPropertyOp4
 70
     1
102
RTVSPropertyOp5
 70
     1
102
RTVSPropertyOp6
 70
     1
102
RTVSPropertyOp7
 70
     1
102
RTVSPropertyOp8
 70
     1
102
RTVSPropertyOp9
 70
     1
102
RTVSPropertyOp10
 70
     1
102
RTVSPropertyOp11
 70
     1
102
RTVSPropertyOp12
 70
     1
102
RTVSPropertyOp13
 70
     1
102
RTVSPropertyOp14
 70
     1
102
RTVSPropertyOp15
 70
     1
102
RTVSPropertyOp16
 70
     1
102
RTVSPropertyOp17
 70
     1
102
RTVSPropertyOp18
 70
     1
102
RTVSPropertyOp19
 70
     1
102
RTVSPropertyOp20
 70
     1
102
RTVSPropertyOp21
 70
     1
102
RTVSPropertyOp22
 70
     1
102
RTVSPropertyOp23
 70
     1
102
RTVSPropertyOp24
 70
     1
102
RTVSPropertyOp25
 70
     1
102
RTVSPropertyOp26
 70
     1
102
RTVSPropertyOp27
 70
     1
102
RTVSPropertyOp28
 70
     1
102
RTVSPropertyOp29
 70
     1
102
RTVSPropertyOp30
 70
     1
102
RTVSPropertyOp31
 70
     1
102
RTVSPropertyOp32
 70
     1
102
RTVSPropertyOp33
 70
     1
102
RTVSPropertyOp34
 70
     1
102
RTVSPropertyOp35
 70
     1
102
RTVSPropertyOp36
 70
     1
102
RTVSPropertyOp37
 70
     1
102
RTVSPropertyOp38
 70
     1
102
RTVSPropertyOp39
 70
     1
102
RTVSPropertyOp40
 70
     1
102
RTVSPropertyOp41
 70
     1
102
RTVSPropertyOp42
 70
     1
102
RTVSPropertyOp43
 70
     1
102
RTVSPropertyOp44
 70
     1
102
RTVSPropertyOp45
 70
     1
102
RTVSPropertyOp46
 70
     1
102
RTVSPropertyOp47
 70
     1
102
RTVSPropertyOp48
 70
     1
102
RTVSPropertyOp49
 70
     1
102
RTVSPropertyOp50
 70
     1
102
RTVSPropertyOp51
 70
     0
102
RTVSPropertyOp52
 70
     0
102
RTVSPropertyOp53
 70
     1
102
RTVSPropertyOp54
 70
     1
102
RTVSPropertyOp55
 70
     1
102
RTVSPropertyOp56
 70
     1
102
RTVSPropertyOp57
 70
     1
102
RTVSPropertyOp58
 70
     1
102
RTVSPropertyOp59
 70
     1
102
RTVSPropertyOp60
 70
     1
102
RTVSPropertyOp61
 70
     1
102
RTVSPropertyOp62
 70
     1
  0
XRECORD
  5
36F
102
{ACAD_REACTORS
330
36E
102
}
330
36E
100
AcDbXrecord
280
     1
102
RTVSPost2010Prop28
280
     0
102
RTVSPost2010PropOp28
 70
     1
102
RTVSPost2010Prop29
280
     1
102
RTVSPost2010PropOp29
 70
     1
102
RTVSPost2010Prop30
280
     1
102
RTVSPost2010PropOp30
 70
     1
102
RTVSPost2010Prop31
280
     0
102
RTVSPost2010PropOp31
 70
     1
102
RTVSPost2010Prop32
280
     0
102
RTVSPost2010PropOp32
 70
     1
102
RTVSPost2010Prop33
280
     0
102
RTVSPost2010PropOp33
 70
     1
102
RTVSPost2010Prop34
280
     0
102
RTVSPost2010PropOp34
 70
     1
102
RTVSPost2010Prop35
280
     0
102
RTVSPost2010PropOp35
 70
     1
102
RTVSPost2010Prop36
280
     0
102
RTVSPost2010PropOp36
 70
     1
102
RTVSPost2010Prop37
 90
       50
102
RTVSPost2010PropOp37
 70
     1
102
RTVSPost2010Prop38
140
0.0
102
RTVSPost2010PropOp38
 70
     1
102
RTVSPost2010Prop39
140
1.0
102
RTVSPost2010PropOp39
 70
     1
102
RTVSPost2010Prop40
 90
        0
102
RTVSPost2010PropOp40
 70
     1
102
RTVSPost2010Prop41ColorIndex
 90
       18
102
RTVSPost2010Prop41ColorRGB
 90
        0
102
RTVSPost2010PropOp41
 70
     1
102
RTVSPost2010Prop42
 90
       50
102
RTVSPost2010PropOp42
 70
     1
102
RTVSPost2010Prop43
 90
        3
102
RTVSPost2010PropOp43
 70
     1
102
RTVSPost2010Prop44ColorIndex
 90
        5
102
RTVSPost2010Prop44ColorRGB
 90
      255
102
RTVSPost2010PropOp44
 70
     1
102
RTVSPost2010Prop45
280
     0
102
RTVSPost2010PropOp45
 70
     1
102
RTVSPost2010Prop46
 90
       50
102
RTVSPost2010PropOp46
 70
     1
102
RTVSPost2010Prop47
 90
       50
102
RTVSPost2010PropOp47
 70
     1
102
RTVSPost2010Prop48
 90
       50
102
RTVSPost2010PropOp48
 70
     1
102
RTVSPost2010Prop49
280
     0
102
RTVSPost2010PropOp49
 70
     1
102
RTVSPost2010Prop50
 90
       50
102
RTVSPost2010PropOp50
 70
     1
102
RTVSPost2010Prop51ColorIndex
 90
      256
102
RTVSPost2010Prop51ColorRGB
 90
-16777216
102
RTVSPost2010PropOp51
 70
     0
102
RTVSPost2010Prop52
140
1.0
102
RTVSPost2010PropOp52
 70
     0
102
RTVSPost2010Prop53
 90
        2
102
RTVSPost2010PropOp53
 70
     1
102
RTVSPost2010Prop54
  1
strokes_ogs.tif
102
RTVSPost2010PropOp54
 70
     1
102
RTVSPost2010Prop55
280
     0
102
RTVSPost2010PropOp55
 70
     1
102
RTVSPost2010Prop56
140
1.0
102
RTVSPost2010PropOp56
 70
     1
102
RTVSPost2010Prop57
140
1.0
102
RTVSPost2010PropOp57
 70
     1
102
RTVSPropertyOp0
 70
     1
102
RTVSPropertyOp1
 70
     1
102
RTVSPropertyOp2
 70
     1
102
RTVSPropertyOp3
 70
     1
102
RTVSPropertyOp4
 70
     1
102
RTVSPropertyOp5
 70
     1
102
RTVSPropertyOp6
 70
     1
102
RTVSPropertyOp7
 70
     1
102
RTVSPropertyOp8
 70
     1
102
RTVSPropertyOp9
 70
     1
102
RTVSPropertyOp10
 70
     1
102
RTVSPropertyOp11
 70
     1
102
RTVSPropertyOp12
 70
     1
102
RTVSPropertyOp13
 70
     1
102
RTVSPropertyOp14
 70
     1
102
RTVSPropertyOp15
 70
     1
102
RTVSPropertyOp16
 70
     1
102
RTVSPropertyOp17
 70
     1
102
RTVSPropertyOp18
 70
     1
102
RTVSPropertyOp19
 70
     1
102
RTVSPropertyOp20
 70
     1
102
RTVSPropertyOp21
 70
     1
102
RTVSPropertyOp22
 70
     1
102
RTVSPropertyOp23
 70
     1
102
RTVSPropertyOp24
 70
     1
102
RTVSPropertyOp25
 70
     1
102
RTVSPropertyOp26
 70
     1
102
RTVSPropertyOp27
 70
     1
102
RTVSPropertyOp28
 70
     1
102
RTVSPropertyOp29
 70
     1
102
RTVSPropertyOp30
 70
     1
102
RTVSPropertyOp31
 70
     1
102
RTVSPropertyOp32
 70
     1
102
RTVSPropertyOp33
 70
     1
102
RTVSPropertyOp34
 70
     1
102
RTVSPropertyOp35
 70
     1
102
RTVSPropertyOp36
 70
     1
102
RTVSPropertyOp37
 70
     1
102
RTVSPropertyOp38
 70
     1
102
RTVSPropertyOp39
 70
     1
102
RTVSPropertyOp40
 70
     1
102
RTVSPropertyOp41
 70
     1
102
RTVSPropertyOp42
 70
     1
102
RTVSPropertyOp43
 70
     1
102
RTVSPropertyOp44
 70
     1
102
RTVSPropertyOp45
 70
     1
102
RTVSPropertyOp46
 70
     1
102
RTVSPropertyOp47
 70
     1
102
RTVSPropertyOp48
 70
     1
102
RTVSPropertyOp49
 70
     1
102
RTVSPropertyOp50
 70
     1
102
RTVSPropertyOp51
 70
     0
102
RTVSPropertyOp52
 70
     0
102
RTVSPropertyOp53
 70
     1
102
RTVSPropertyOp54
 70
     1
102
RTVSPropertyOp55
 70
     1
102
RTVSPropertyOp56
 70
     1
102
RTVSPropertyOp57
 70
     1
102
RTVSPropertyOp58
 70
     1
102
RTVSPropertyOp59
 70
     1
102
RTVSPropertyOp60
 70
     1
102
RTVSPropertyOp61
 70
     1
102
RTVSPropertyOp62
 70
     1
  0
XRECORD
  5
38F
102
{ACAD_REACTORS
330
38E
102
}
330
38E
100
AcDbXrecord
280
     1
102
RTVSPost2010Prop28
280
     0
102
RTVSPost2010PropOp28
 70
     1
102
RTVSPost2010Prop29
280
     1
102
RTVSPost2010PropOp29
 70
     1
102
RTVSPost2010Prop30
280
     1
102
RTVSPost2010PropOp30
 70
     1
102
RTVSPost2010Prop31
280
     0
102
RTVSPost2010PropOp31
 70
     1
102
RTVSPost2010Prop32
280
     0
102
RTVSPost2010PropOp32
 70
     1
102
RTVSPost2010Prop33
280
     0
102
RTVSPost2010PropOp33
 70
     1
102
RTVSPost2010Prop34
280
     0
102
RTVSPost2010PropOp34
 70
     1
102
RTVSPost2010Prop35
280
     0
102
RTVSPost2010PropOp35
 70
     1
102
RTVSPost2010Prop36
280
     0
102
RTVSPost2010PropOp36
 70
     1
102
RTVSPost2010Prop37
 90
       50
102
RTVSPost2010PropOp37
 70
     1
102
RTVSPost2010Prop38
140
0.0
102
RTVSPost2010PropOp38
 70
     1
102
RTVSPost2010Prop39
140
1.0
102
RTVSPost2010PropOp39
 70
     1
102
RTVSPost2010Prop40
 90
        0
102
RTVSPost2010PropOp40
 70
     1
102
RTVSPost2010Prop41ColorIndex
 90
       18
102
RTVSPost2010Prop41ColorRGB
 90
        0
102
RTVSPost2010PropOp41
 70
     1
102
RTVSPost2010Prop42
 90
       50
102
RTVSPost2010PropOp42
 70
     1
102
RTVSPost2010Prop43
 90
        3
102
RTVSPost2010PropOp43
 70
     1
102
RTVSPost2010Prop44ColorIndex
 90
        5
102
RTVSPost2010Prop44ColorRGB
 90
      255
102
RTVSPost2010PropOp44
 70
     1
102
RTVSPost2010Prop45
280
     0
102
RTVSPost2010PropOp45
 70
     1
102
RTVSPost2010Prop46
 90
       50
102
RTVSPost2010PropOp46
 70
     1
102
RTVSPost2010Prop47
 90
       50
102
RTVSPost2010PropOp47
 70
     1
102
RTVSPost2010Prop48
 90
       50
102
RTVSPost2010PropOp48
 70
     1
102
RTVSPost2010Prop49
280
     0
102
RTVSPost2010PropOp49
 70
     1
102
RTVSPost2010Prop50
 90
       50
102
RTVSPost2010PropOp50
 70
     1
102
RTVSPost2010Prop51ColorIndex
 90
      256
102
RTVSPost2010Prop51ColorRGB
 90
-16777216
102
RTVSPost2010PropOp51
 70
     0
102
RTVSPost2010Prop52
140
1.0
102
RTVSPost2010PropOp52
 70
     0
102
RTVSPost2010Prop53
 90
        2
102
RTVSPost2010PropOp53
 70
     1
102
RTVSPost2010Prop54
  1
strokes_ogs.tif
102
RTVSPost2010PropOp54
 70
     1
102
RTVSPost2010Prop55
280
     0
102
RTVSPost2010PropOp55
 70
     1
102
RTVSPost2010Prop56
140
1.0
102
RTVSPost2010PropOp56
 70
     1
102
RTVSPost2010Prop57
140
1.0
102
RTVSPost2010PropOp57
 70
     1
102
RTVSPropertyOp0
 70
     1
102
RTVSPropertyOp1
 70
     1
102
RTVSPropertyOp2
 70
     1
102
RTVSPropertyOp3
 70
     1
102
RTVSPropertyOp4
 70
     1
102
RTVSPropertyOp5
 70
     1
102
RTVSPropertyOp6
 70
     1
102
RTVSPropertyOp7
 70
     1
102
RTVSPropertyOp8
 70
     1
102
RTVSPropertyOp9
 70
     1
102
RTVSPropertyOp10
 70
     1
102
RTVSPropertyOp11
 70
     1
102
RTVSPropertyOp12
 70
     1
102
RTVSPropertyOp13
 70
     1
102
RTVSPropertyOp14
 70
     1
102
RTVSPropertyOp15
 70
     1
102
RTVSPropertyOp16
 70
     1
102
RTVSPropertyOp17
 70
     1
102
RTVSPropertyOp18
 70
     1
102
RTVSPropertyOp19
 70
     1
102
RTVSPropertyOp20
 70
     1
102
RTVSPropertyOp21
 70
     1
102
RTVSPropertyOp22
 70
     1
102
RTVSPropertyOp23
 70
     1
102
RTVSPropertyOp24
 70
     1
102
RTVSPropertyOp25
 70
     1
102
RTVSPropertyOp26
 70
     1
102
RTVSPropertyOp27
 70
     1
102
RTVSPropertyOp28
 70
     1
102
RTVSPropertyOp29
 70
     1
102
RTVSPropertyOp30
 70
     1
102
RTVSPropertyOp31
 70
     1
102
RTVSPropertyOp32
 70
     1
102
RTVSPropertyOp33
 70
     1
102
RTVSPropertyOp34
 70
     1
102
RTVSPropertyOp35
 70
     1
102
RTVSPropertyOp36
 70
     1
102
RTVSPropertyOp37
 70
     1
102
RTVSPropertyOp38
 70
     1
102
RTVSPropertyOp39
 70
     1
102
RTVSPropertyOp40
 70
     1
102
RTVSPropertyOp41
 70
     1
102
RTVSPropertyOp42
 70
     1
102
RTVSPropertyOp43
 70
     1
102
RTVSPropertyOp44
 70
     1
102
RTVSPropertyOp45
 70
     1
102
RTVSPropertyOp46
 70
     1
102
RTVSPropertyOp47
 70
     1
102
RTVSPropertyOp48
 70
     1
102
RTVSPropertyOp49
 70
     1
102
RTVSPropertyOp50
 70
     1
102
RTVSPropertyOp51
 70
     0
102
RTVSPropertyOp52
 70
     0
102
RTVSPropertyOp53
 70
     1
102
RTVSPropertyOp54
 70
     1
102
RTVSPropertyOp55
 70
     1
102
RTVSPropertyOp56
 70
     1
102
RTVSPropertyOp57
 70
     1
102
RTVSPropertyOp58
 70
     1
102
RTVSPropertyOp59
 70
     1
102
RTVSPropertyOp60
 70
     1
102
RTVSPropertyOp61
 70
     1
102
RTVSPropertyOp62
 70
     1
  0
ENDSEC
  0
EOF
