  0
SECTION
  2
HEADER
  9
$ACADVER
  1
AC1018
  9
$ACADMAINTVER
 70
   104
  9
$DWGCODEPAGE
  3
ANSI_1250
  9
$LASTSAVEDBY
  1
wq7085
  9
$INSBASE
 10
0.0
 20
0.0
 30
0.0
  9
$EXTMIN
 10
189.6271943333333
 20
122.034924
 30
0.0
  9
$EXTMAX
 10
410.6233279999999
 20
341.6963336666667
 30
0.0
  9
$LIMMIN
 10
-0.5
 20
-0.5
  9
$LIMMAX
 10
5.0
 20
5.0
  9
$ORTHOMODE
 70
     0
  9
$REGENMODE
 70
     1
  9
$FILLMODE
 70
     1
  9
$QTEXTMODE
 70
     0
  9
$MIRRTEXT
 70
     1
  9
$LTSCALE
 40
1.0
  9
$ATTMODE
 70
     1
  9
$TEXTSIZE
 40
0.2
  9
$TRACEWID
 40
0.05
  9
$TEXTSTYLE
  7
Standard
  9
$CLAYER
  8
0
  9
$CELTYPE
  6
ByLayer
  9
$CECOLOR
 62
   256
  9
$CELTSCALE
 40
1.0
  9
$DISPSILH
 70
     0
  9
$DIMSCALE
 40
1.0
  9
$DIMASZ
 40
0.18
  9
$DIMEXO
 40
0.0625
  9
$DIMDLI
 40
0.38
  9
$DIMRND
 40
0.0
  9
$DIMDLE
 40
0.0
  9
$DIMEXE
 40
0.18
  9
$DIMTP
 40
0.0
  9
$DIMTM
 40
0.0
  9
$DIMTXT
 40
0.18
  9
$DIMCEN
 40
0.09
  9
$DIMTSZ
 40
0.0
  9
$DIMTOL
 70
     0
  9
$DIMLIM
 70
     0
  9
$DIMTIH
 70
     1
  9
$DIMTOH
 70
     1
  9
$DIMSE1
 70
     0
  9
$DIMSE2
 70
     0
  9
$DIMTAD
 70
     0
  9
$DIMZIN
 70
     0
  9
$DIMBLK
  1

  9
$DIMASO
 70
     1
  9
$DIMSHO
 70
     1
  9
$DIMPOST
  1

  9
$DIMAPOST
  1

  9
$DIMALT
 70
     0
  9
$DIMALTD
 70
     2
  9
$DIMALTF
 40
25.4
  9
$DIMLFAC
 40
1.0
  9
$DIMTOFL
 70
     0
  9
$DIMTVP
 40
0.0
  9
$DIMTIX
 70
     0
  9
$DIMSOXD
 70
     0
  9
$DIMSAH
 70
     0
  9
$DIMBLK1
  1

  9
$DIMBLK2
  1

  9
$DIMSTYLE
  2
Standard
  9
$DIMCLRD
 70
     0
  9
$DIMCLRE
 70
     0
  9
$DIMCLRT
 70
     0
  9
$DIMTFAC
 40
1.0
  9
$DIMGAP
 40
0.09
  9
$DIMJUST
 70
     0
  9
$DIMSD1
 70
     0
  9
$DIMSD2
 70
     0
  9
$DIMTOLJ
 70
     1
  9
$DIMTZIN
 70
     0
  9
$DIMALTZ
 70
     0
  9
$DIMALTTZ
 70
     0
  9
$DIMUPT
 70
     0
  9
$DIMDEC
 70
     4
  9
$DIMTDEC
 70
     4
  9
$DIMALTU
 70
     2
  9
$DIMALTTD
 70
     2
  9
$DIMTXSTY
  7
Standard
  9
$DIMAUNIT
 70
     0
  9
$DIMADEC
 70
     0
  9
$DIMALTRND
 40
0.0
  9
$DIMAZIN
 70
     0
  9
$DIMDSEP
 70
    46
  9
$DIMATFIT
 70
     3
  9
$DIMFRAC
 70
     0
  9
$DIMLDRBLK
  1

  9
$DIMLUNIT
 70
     2
  9
$DIMLWD
 70
    -2
  9
$DIMLWE
 70
    -2
  9
$DIMTMOVE
 70
     0
  9
$LUNITS
 70
     2
  9
$LUPREC
 70
     4
  9
$SKETCHINC
 40
0.1
  9
$FILLETRAD
 40
0.5
  9
$AUNITS
 70
     0
  9
$AUPREC
 70
     0
  9
$MENU
  1
.
  9
$ELEVATION
 40
0.0
  9
$PELEVATION
 40
0.0
  9
$THICKNESS
 40
0.0
  9
$LIMCHECK
 70
     0
  9
$CHAMFERA
 40
0.0
  9
$CHAMFERB
 40
0.0
  9
$CHAMFERC
 40
0.0
  9
$CHAMFERD
 40
0.0
  9
$SKPOLY
 70
     0
  9
$TDCREATE
 40
2459088.520601852
  9
$TDUCREATE
 40
2459088.437274584
  9
$TDUPDATE
 40
2459088.521041667
  9
$TDUUPDATE
 40
2459088.437708333
  9
$TDINDWG
 40
0.0002893634
  9
$TDUSRTIMER
 40
0.0002893634
  9
$USRTIMER
 70
     1
  9
$ANGBASE
 50
0.0
  9
$ANGDIR
 70
     0
  9
$PDMODE
 70
     0
  9
$PDSIZE
 40
0.0
  9
$PLINEWID
 40
0.0
  9
$SPLFRAME
 70
     0
  9
$SPLINETYPE
 70
     6
  9
$SPLINESEGS
 70
     8
  9
$HANDSEED
  5
396
  9
$SURFTAB1
 70
     6
  9
$SURFTAB2
 70
     6
  9
$SURFTYPE
 70
     6
  9
$SURFU
 70
     6
  9
$SURFV
 70
     6
  9
$UCSBASE
  2

  9
$UCSNAME
  2

  9
$UCSORG
 10
274.404842
 20
288.907994
 30
0.0
  9
$UCSXDIR
 10
1.0
 20
0.0
 30
0.0
  9
$UCSYDIR
 10
0.0
 20
1.0
 30
0.0
  9
$UCSORTHOREF
  2

  9
$UCSORTHOVIEW
 70
     0
  9
$UCSORGTOP
 10
0.0
 20
0.0
 30
0.0
  9
$UCSORGBOTTOM
 10
0.0
 20
0.0
 30
0.0
  9
$UCSORGLEFT
 10
0.0
 20
0.0
 30
0.0
  9
$UCSORGRIGHT
 10
0.0
 20
0.0
 30
0.0
  9
$UCSORGFRONT
 10
0.0
 20
0.0
 30
0.0
  9
$UCSORGBACK
 10
0.0
 20
0.0
 30
0.0
  9
$PUCSBASE
  2

  9
$PUCSNAME
  2

  9
$PUCSORG
 10
0.0
 20
0.0
 30
0.0
  9
$PUCSXDIR
 10
1.0
 20
0.0
 30
0.0
  9
$PUCSYDIR
 10
0.0
 20
1.0
 30
0.0
  9
$PUCSORTHOREF
  2

  9
$PUCSORTHOVIEW
 70
     0
  9
$PUCSORGTOP
 10
0.0
 20
0.0
 30
0.0
  9
$PUCSORGBOTTOM
 10
0.0
 20
0.0
 30
0.0
  9
$PUCSORGLEFT
 10
0.0
 20
0.0
 30
0.0
  9
$PUCSORGRIGHT
 10
0.0
 20
0.0
 30
0.0
  9
$PUCSORGFRONT
 10
0.0
 20
0.0
 30
0.0
  9
$PUCSORGBACK
 10
0.0
 20
0.0
 30
0.0
  9
$USERI1
 70
     0
  9
$USERI2
 70
     0
  9
$USERI3
 70
     0
  9
$USERI4
 70
     0
  9
$USERI5
 70
     0
  9
$USERR1
 40
0.0
  9
$USERR2
 40
0.0
  9
$USERR3
 40
0.0
  9
$USERR4
 40
0.0
  9
$USERR5
 40
0.0
  9
$WORLDVIEW
 70
     1
  9
$SHADEDGE
 70
     3
  9
$SHADEDIF
 70
    70
  9
$TILEMODE
 70
     1
  9
$MAXACTVP
 70
    64
  9
$PINSBASE
 10
0.0
 20
0.0
 30
0.0
  9
$PLIMCHECK
 70
     0
  9
$PEXTMIN
 10
-0.5
 20
-0.5
 30
-0.5
  9
$PEXTMAX
 10
5.0
 20
5.0
 30
5.0
  9
$PLIMMIN
 10
-0.5
 20
-0.5
  9
$PLIMMAX
 10
5.0
 20
5.0
  9
$UNITMODE
 70
     0
  9
$VISRETAIN
 70
     1
  9
$PLINEGEN
 70
     0
  9
$PSLTSCALE
 70
     1
  9
$TREEDEPTH
 70
  3020
  9
$CMLSTYLE
  2
Standard
  9
$CMLJUST
 70
     0
  9
$CMLSCALE
 40
1.0
  9
$PROXYGRAPHICS
 70
     1
  9
$MEASUREMENT
 70
     1
  9
$CELWEIGHT
370
    13
  9
$ENDCAPS
280
     0
  9
$JOINSTYLE
280
     0
  9
$LWDISPLAY
290
     0
  9
$INSUNITS
 70
     4
  9
$HYPERLINKBASE
  1

  9
$STYLESHEET
  1

  9
$XEDIT
290
     1
  9
$CEPSNTYPE
380
     0
  9
$PSTYLEMODE
290
     1
  9
$FINGERPRINTGUID
  2
{BA23876E-BD1F-4CE8-BA69-BC155592CB9C}
  9
$VERSIONGUID
  2
{F755E53F-740F-064E-878C-9870D405E0EE}
  9
$EXTNAMES
290
     1
  9
$PSVPSCALE
 40
0.0
  9
$OLESTARTUP
290
     0
  9
$SORTENTS
280
   127
  9
$INDEXCTL
280
     0
  9
$HIDETEXT
280
     1
  9
$XCLIPFRAME
290
     0
  9
$HALOGAP
280
     0
  9
$OBSCOLOR
 70
   257
  9
$OBSLTYPE
280
     0
  9
$INTERSECTIONDISPLAY
280
     0
  9
$INTERSECTIONCOLOR
 70
   257
  9
$DIMASSOC
280
     2
  9
$PROJECTNAME
  1

  0
ENDSEC
  0
SECTION
  2
CLASSES
  0
CLASS
  1
ACDBDICTIONARYWDFLT
  2
AcDbDictionaryWithDefault
  3
ObjectDBX Classes
 90
        0
 91
        1
280
     0
281
     0
  0
CLASS
  1
VISUALSTYLE
  2
AcDbVisualStyle
  3
ObjectDBX Classes
 90
     4095
 91
       24
280
     0
281
     0
  0
CLASS
  1
MATERIAL
  2
AcDbMaterial
  3
ObjectDBX Classes
 90
     1153
 91
        3
280
     0
281
     0
  0
CLASS
  1
SCALE
  2
AcDbScale
  3
ObjectDBX Classes
 90
     1153
 91
       33
280
     0
281
     0
  0
CLASS
  1
TABLESTYLE
  2
AcDbTableStyle
  3
ObjectDBX Classes
 90
     4095
 91
        1
280
     0
281
     0
  0
CLASS
  1
MLEADERSTYLE
  2
AcDbMLeaderStyle
  3
ACDB_MLEADERSTYLE_CLASS
 90
     4095
 91
        1
280
     0
281
     0
  0
CLASS
  1
SUN
  2
AcDbSun
  3
SCENEOE
 90
     1153
 91
        0
280
     0
281
     0
  0
CLASS
  1
DIMASSOC
  2
AcDbDimAssoc
  3
"AcDbDimAssoc|Product Desc:     AcDim ARX App For Dimension|Company:          Autodesk, Inc.|WEB Address:      www.autodesk.com"
 90
        0
 91
        7
280
     0
281
     0
  0
CLASS
  1
DICTIONARYVAR
  2
AcDbDictionaryVar
  3
ObjectDBX Classes
 90
        0
 91
        8
280
     0
281
     0
  0
CLASS
  1
CELLSTYLEMAP
  2
AcDbCellStyleMap
  3
ObjectDBX Classes
 90
     1152
 91
        2
280
     0
281
     0
  0
CLASS
  1
ACDBSECTIONVIEWSTYLE
  2
AcDbSectionViewStyle
  3
ObjectDBX Classes
 90
     1025
 91
        1
280
     0
281
     0
  0
CLASS
  1
ACDBDETAILVIEWSTYLE
  2
AcDbDetailViewStyle
  3
ObjectDBX Classes
 90
     1025
 91
        1
280
     0
281
     0
  0
CLASS
  1
SORTENTSTABLE
  2
AcDbSortentsTable
  3
ObjectDBX Classes
 90
        0
 91
        1
280
     0
281
     0
  0
ENDSEC
  0
SECTION
  2
TABLES
  0
TABLE
  2
VPORT
  5
8
330
0
100
AcDbSymbolTable
 70
    16
  0
VPORT
  5
29
330
8
100
AcDbSymbolTableRecord
100
AcDbViewportTableRecord
  2
*Active
 70
     0
 10
0.0
 20
0.0
 11
1.0
 21
1.0
 12
297.4920050440821
 22
291.2939876285047
 13
0.0
 23
0.0
 14
0.5
 24
0.5
 15
0.5
 25
0.5
 16
0.0
 26
0.0
 36
1.0
 17
0.0
 27
0.0
 37
0.0
 40
206.0701883094278
 41
2.292712066905615
 42
50.0
 43
411.42911
 44
-411.42911
 50
0.0
 51
0.0
 71
     0
 72
   100
 73
     1
 74
     3
 75
     0
 76
     0
 77
     0
 78
     0
281
     0
 65
     1
110
274.404842
120
288.907994
130
0.0
111
1.0
121
0.0
131
0.0
112
0.0
122
1.0
132
0.0
 79
     0
146
0.0
1001
ACAD_NAV_VCDISPLAY
1070
     3
  0
VPORT
  5
29A
330
8
100
AcDbSymbolTableRecord
100
AcDbViewportTableRecord
  2
L1
 70
     0
 10
0.0
 20
0.0
 11
1.0
 21
1.0
 12
299.621048
 22
231.796002
 13
0.0
 23
0.0
 14
0.5
 24
0.5
 15
0.5
 25
0.5
 16
0.0
 26
0.0
 36
1.0
 17
0.0
 27
0.0
 37
0.0
 40
207.433333
 41
0.085602
 42
50.0
 43
411.42911
 44
-411.42911
 50
0.0
 51
0.0
 71
     0
 72
   100
 73
     1
 74
     3
 75
     0
 76
     0
 77
     0
 78
     0
281
     0
 65
     1
110
0.0
120
0.0
130
0.0
111
1.0
121
0.0
131
0.0
112
0.0
122
1.0
132
0.0
 79
     0
146
0.0
  0
VPORT
  5
29B
330
8
100
AcDbSymbolTableRecord
100
AcDbViewportTableRecord
  2
L2
 70
     0
 10
0.0
 20
0.0
 11
0.5
 21
1.0
 12
0.0
 22
0.0
 13
0.0
 23
0.0
 14
0.5
 24
0.5
 15
0.5
 25
0.5
 16
0.0
 26
-1.0
 36
0.0
 17
0.0
 27
0.0
 37
0.0
 40
1316.18997
 41
0.013491
 42
50.0
 43
678.00864
 44
-678.00864
 50
0.0
 51
0.0
 71
     0
 72
   100
 73
     1
 74
     3
 75
     0
 76
     0
 77
     0
 78
     0
281
     0
 65
     1
110
0.0
120
0.0
130
0.0
111
1.0
121
0.0
131
0.0
112
0.0
122
1.0
132
0.0
 79
     0
146
0.0
  0
VPORT
  5
29C
330
8
100
AcDbSymbolTableRecord
100
AcDbViewportTableRecord
  2
L2
 70
     0
 10
0.5
 20
0.0
 11
1.0
 21
1.0
 12
0.0
 22
0.0
 13
0.0
 23
0.0
 14
0.5
 24
0.5
 15
0.5
 25
0.5
 16
1.0
 26
0.0
 36
0.0
 17
0.0
 27
0.0
 37
0.0
 40
1316.18997
 41
0.013491
 42
50.0
 43
666.2177989999999
 44
-666.2177989999999
 50
0.0
 51
0.0
 71
     0
 72
   100
 73
     1
 74
     3
 75
     0
 76
     0
 77
     0
 78
     0
281
     0
 65
     1
110
0.0
120
0.0
130
0.0
111
1.0
121
0.0
131
0.0
112
0.0
122
1.0
132
0.0
 79
     0
146
0.0
  0
VPORT
  5
29D
330
8
100
AcDbSymbolTableRecord
100
AcDbViewportTableRecord
  2
L3
 70
     0
 10
0.0
 20
0.5
 11
1.0
 21
1.0
 12
299.621048
 22
231.796002
 13
0.0
 23
0.0
 14
0.5
 24
0.5
 15
0.5
 25
0.5
 16
0.0
 26
0.0
 36
1.0
 17
0.0
 27
0.0
 37
0.0
 40
207.433333
 41
0.085602
 42
50.0
 43
411.42911
 44
-411.42911
 50
0.0
 51
0.0
 71
     0
 72
   100
 73
     1
 74
     3
 75
     0
 76
     0
 77
     0
 78
     0
281
     0
 65
     1
110
0.0
120
0.0
130
0.0
111
1.0
121
0.0
131
0.0
112
0.0
122
1.0
132
0.0
 79
     0
146
0.0
  0
VPORT
  5
29E
330
8
100
AcDbSymbolTableRecord
100
AcDbViewportTableRecord
  2
L3
 70
     0
 10
0.0
 20
0.0
 11
1.0
 21
0.5
 12
0.0
 22
0.0
 13
0.0
 23
0.0
 14
0.5
 24
0.5
 15
0.5
 25
0.5
 16
0.0
 26
-1.0
 36
0.0
 17
0.0
 27
0.0
 37
0.0
 40
1316.18997
 41
0.013491
 42
50.0
 43
678.00864
 44
-678.00864
 50
0.0
 51
0.0
 71
     0
 72
   100
 73
     1
 74
     3
 75
     0
 76
     0
 77
     0
 78
     0
281
     0
 65
     1
110
0.0
120
0.0
130
0.0
111
1.0
121
0.0
131
0.0
112
0.0
122
1.0
132
0.0
 79
     0
146
0.0
  0
VPORT
  5
29F
330
8
100
AcDbSymbolTableRecord
100
AcDbViewportTableRecord
  2
L4
 70
     0
 10
0.0
 20
0.5
 11
0.5
 21
1.0
 12
299.621048
 22
231.796002
 13
0.0
 23
0.0
 14
0.5
 24
0.5
 15
0.5
 25
0.5
 16
0.0
 26
0.0
 36
1.0
 17
0.0
 27
0.0
 37
0.0
 40
207.433333
 41
0.085602
 42
50.0
 43
411.42911
 44
-411.42911
 50
0.0
 51
0.0
 71
     0
 72
   100
 73
     1
 74
     3
 75
     0
 76
     0
 77
     0
 78
     0
281
     0
 65
     1
110
0.0
120
0.0
130
0.0
111
1.0
121
0.0
131
0.0
112
0.0
122
1.0
132
0.0
 79
     0
146
0.0
  0
VPORT
  5
2A0
330
8
100
AcDbSymbolTableRecord
100
AcDbViewportTableRecord
  2
L4
 70
     0
 10
0.0
 20
0.0
 11
0.5
 21
0.5
 12
0.0
 22
0.0
 13
0.0
 23
0.0
 14
0.5
 24
0.5
 15
0.5
 25
0.5
 16
0.0
 26
-1.0
 36
0.0
 17
0.0
 27
0.0
 37
0.0
 40
1316.18997
 41
0.013491
 42
50.0
 43
678.00864
 44
-678.00864
 50
0.0
 51
0.0
 71
     0
 72
   100
 73
     1
 74
     3
 75
     0
 76
     0
 77
     0
 78
     0
281
     0
 65
     1
110
0.0
120
0.0
130
0.0
111
1.0
121
0.0
131
0.0
112
0.0
122
1.0
132
0.0
 79
     0
146
0.0
  0
VPORT
  5
2A1
330
8
100
AcDbSymbolTableRecord
100
AcDbViewportTableRecord
  2
L4
 70
     0
 10
0.5
 20
0.0
 11
1.0
 21
0.5
 12
0.0
 22
0.0
 13
0.0
 23
0.0
 14
0.5
 24
0.5
 15
0.5
 25
0.5
 16
1.0
 26
0.0
 36
0.0
 17
0.0
 27
0.0
 37
0.0
 40
1316.18997
 41
0.013491
 42
50.0
 43
666.2177989999999
 44
-666.2177989999999
 50
0.0
 51
0.0
 71
     0
 72
   100
 73
     1
 74
     3
 75
     0
 76
     0
 77
     0
 78
     0
281
     0
 65
     1
110
0.0
120
0.0
130
0.0
111
1.0
121
0.0
131
0.0
112
0.0
122
1.0
132
0.0
 79
     0
146
0.0
  0
VPORT
  5
2A2
330
8
100
AcDbSymbolTableRecord
100
AcDbViewportTableRecord
  2
L4
 70
     0
 10
0.5
 20
0.5
 11
1.0
 21
1.0
 12
0.0
 22
0.0
 13
0.0
 23
0.0
 14
0.5
 24
0.5
 15
0.5
 25
0.5
 16
0.5773502691896259
 26
-0.5773502691896259
 36
0.5773502691896259
 17
0.0
 27
0.0
 37
0.0
 40
1292.532264
 41
0.013738
 42
50.0
 43
673.245608
 44
-673.245608
 50
0.0
 51
0.0
 71
     0
 72
   100
 73
     1
 74
     3
 75
     0
 76
     0
 77
     0
 78
     0
281
     0
 65
     1
110
0.0
120
0.0
130
0.0
111
1.0
121
0.0
131
0.0
112
0.0
122
1.0
132
0.0
 79
     0
146
0.0
  0
VPORT
  5
2A3
330
8
100
AcDbSymbolTableRecord
100
AcDbViewportTableRecord
  2
L6
 70
     0
 10
0.0
 20
0.5
 11
0.333333
 21
1.0
 12
0.0
 22
0.0
 13
0.0
 23
0.0
 14
0.5
 24
0.5
 15
0.5
 25
0.5
 16
0.7188730927569434
 26
-0.5850486126764433
 36
0.3754192287502549
 17
0.0
 27
0.0
 37
0.0
 40
1364.064247
 41
0.013018
 42
50.0
 43
706.2613849999999
 44
-706.2613849999999
 50
0.0
 51
0.0
 71
     0
 72
   100
 73
     1
 74
     3
 75
     0
 76
     0
 77
     0
 78
     0
281
     0
 65
     1
110
0.0
120
0.0
130
0.0
111
1.0
121
0.0
131
0.0
112
0.0
122
1.0
132
0.0
 79
     0
146
0.0
  0
VPORT
  5
2A4
330
8
100
AcDbSymbolTableRecord
100
AcDbViewportTableRecord
  2
L6
 70
     0
 10
0.0
 20
0.0
 11
0.333333
 21
0.5
 12
0.0
 22
0.0
 13
0.0
 23
0.0
 14
0.5
 24
0.5
 15
0.5
 25
0.5
 16
-1.0
 26
0.0
 36
0.0
 17
0.0
 27
0.0
 37
0.0
 40
1316.18997
 41
0.013491
 42
50.0
 43
666.2177989999999
 44
-666.2177989999999
 50
0.0
 51
0.0
 71
     0
 72
   100
 73
     1
 74
     3
 75
     0
 76
     0
 77
     0
 78
     0
281
     0
 65
     1
110
0.0
120
0.0
130
0.0
111
1.0
121
0.0
131
0.0
112
0.0
122
1.0
132
0.0
 79
     0
146
0.0
  0
VPORT
  5
2A5
330
8
100
AcDbSymbolTableRecord
100
AcDbViewportTableRecord
  2
L6
 70
     0
 10
0.333333
 20
0.5
 11
0.666667
 21
1.0
 12
299.621048
 22
231.796002
 13
0.0
 23
0.0
 14
0.5
 24
0.5
 15
0.5
 25
0.5
 16
0.0
 26
0.0
 36
1.0
 17
0.0
 27
0.0
 37
0.0
 40
207.433333
 41
0.085602
 42
50.0
 43
411.42911
 44
-411.42911
 50
0.0
 51
0.0
 71
     0
 72
   100
 73
     1
 74
     3
 75
     0
 76
     0
 77
     0
 78
     0
281
     0
 65
     1
110
0.0
120
0.0
130
0.0
111
1.0
121
0.0
131
0.0
112
0.0
122
1.0
132
0.0
 79
     0
146
0.0
  0
VPORT
  5
2A6
330
8
100
AcDbSymbolTableRecord
100
AcDbViewportTableRecord
  2
L6
 70
     0
 10
0.333333
 20
0.0
 11
0.666667
 21
0.5
 12
0.0
 22
0.0
 13
0.0
 23
0.0
 14
0.5
 24
0.5
 15
0.5
 25
0.5
 16
0.0
 26
-1.0
 36
0.0
 17
0.0
 27
0.0
 37
0.0
 40
1316.18997
 41
0.013491
 42
50.0
 43
678.00864
 44
-678.00864
 50
0.0
 51
0.0
 71
     0
 72
   100
 73
     1
 74
     3
 75
     0
 76
     0
 77
     0
 78
     0
281
     0
 65
     1
110
0.0
120
0.0
130
0.0
111
1.0
121
0.0
131
0.0
112
0.0
122
1.0
132
0.0
 79
     0
146
0.0
  0
VPORT
  5
2A7
330
8
100
AcDbSymbolTableRecord
100
AcDbViewportTableRecord
  2
L6
 70
     0
 10
0.666667
 20
0.5
 11
1.0
 21
1.0
 12
0.0
 22
0.0
 13
0.0
 23
0.0
 14
0.5
 24
0.5
 15
0.5
 25
0.5
 16
0.5773502691896259
 26
-0.5773502691896259
 36
0.5773502691896259
 17
0.0
 27
0.0
 37
0.0
 40
1292.532264
 41
0.013738
 42
50.0
 43
673.245608
 44
-673.245608
 50
0.0
 51
0.0
 71
     0
 72
   100
 73
     1
 74
     3
 75
     0
 76
     0
 77
     0
 78
     0
281
     0
 65
     1
110
0.0
120
0.0
130
0.0
111
1.0
121
0.0
131
0.0
112
0.0
122
1.0
132
0.0
 79
     0
146
0.0
  0
VPORT
  5
2A8
330
8
100
AcDbSymbolTableRecord
100
AcDbViewportTableRecord
  2
L6
 70
     0
 10
0.666667
 20
0.0
 11
1.0
 21
0.5
 12
0.0
 22
0.0
 13
0.0
 23
0.0
 14
0.5
 24
0.5
 15
0.5
 25
0.5
 16
1.0
 26
0.0
 36
0.0
 17
0.0
 27
0.0
 37
0.0
 40
1316.18997
 41
0.013491
 42
50.0
 43
666.2177989999999
 44
-666.2177989999999
 50
0.0
 51
0.0
 71
     0
 72
   100
 73
     1
 74
     3
 75
     0
 76
     0
 77
     0
 78
     0
281
     0
 65
     1
110
0.0
120
0.0
130
0.0
111
1.0
121
0.0
131
0.0
112
0.0
122
1.0
132
0.0
 79
     0
146
0.0
  0
ENDTAB
  0
TABLE
  2
LTYPE
  5
5
330
0
100
AcDbSymbolTable
 70
     7
  0
LTYPE
  5
14
330
5
100
AcDbSymbolTableRecord
100
AcDbLinetypeTableRecord
  2
ByBlock
 70
     0
  3

 72
    65
 73
     0
 40
0.0
  0
LTYPE
  5
15
330
5
100
AcDbSymbolTableRecord
100
AcDbLinetypeTableRecord
  2
ByLayer
 70
     0
  3

 72
    65
 73
     0
 40
0.0
  0
LTYPE
  5
16
330
5
100
AcDbSymbolTableRecord
100
AcDbLinetypeTableRecord
  2
Continuous
 70
     0
  3
Solid line
 72
    65
 73
     0
 40
0.0
  0
LTYPE
  5
6E
330
5
100
AcDbSymbolTableRecord
100
AcDbLinetypeTableRecord
  2
CENTER
 70
     0
  3
____ _ ____ _ ____ _ ____
 72
    65
 73
     4
 40
47.4
 49
22.0
 74
     4
 75
     0
340
0
 46
0.0
 50
0.0
 44
0.0
 45
0.0
 49
-8.5
 74
     4
 75
     0
340
0
 46
0.0
 50
0.0
 44
0.0
 45
0.0
 49
8.5
 74
     4
 75
     0
340
0
 46
0.0
 50
0.0
 44
0.0
 45
0.0
 49
-8.5
 74
     4
 75
     0
340
0
 46
0.0
 50
0.0
 44
0.0
 45
0.0
  0
LTYPE
  5
6F
330
5
100
AcDbSymbolTableRecord
100
AcDbLinetypeTableRecord
  2
DASHDOT
 70
     0
  3
_._._._._._._._._._._._._._._._.
 72
    65
 73
     4
 40
70.0
 49
31.0
 74
     4
 75
     0
340
0
 46
0.0
 50
0.0
 44
0.0
 45
0.0
 49
-13.0
 74
     4
 75
     0
340
0
 46
0.0
 50
0.0
 44
0.0
 45
0.0
 49
13.0
 74
     4
 75
     0
340
0
 46
0.0
 50
0.0
 44
0.0
 45
0.0
 49
-13.0
 74
     4
 75
     0
340
0
 46
0.0
 50
0.0
 44
0.0
 45
0.0
  0
LTYPE
  5
70
330
5
100
AcDbSymbolTableRecord
100
AcDbLinetypeTableRecord
  2
DASHED
 70
     0
  3
__ __ __ __ __ __ __ __ __
 72
    65
 73
     2
 40
25.72
 49
12.86
 74
     4
 75
     0
340
0
 46
0.0
 50
0.0
 44
0.0
 45
0.0
 49
-12.86
 74
     4
 75
     0
340
0
 46
0.0
 50
0.0
 44
0.0
 45
0.0
  0
LTYPE
  5
71
330
5
100
AcDbSymbolTableRecord
100
AcDbLinetypeTableRecord
  2
DOT
 70
     0
  3
.........................
 72
    65
 73
     2
 40
10.0
 49
0.0
 74
     4
 75
     0
340
0
 46
0.0
 50
0.0
 44
0.0
 45
0.0
 49
-10.0
 74
     4
 75
     0
340
0
 46
0.0
 50
0.0
 44
0.0
 45
0.0
  0
LTYPE
  5
72
330
5
100
AcDbSymbolTableRecord
100
AcDbLinetypeTableRecord
  2
PHANTOM
 70
     0
  3
____ _ _ ____ _ _ _____ _ _ ____
 72
    65
 73
     6
 40
50.5
 49
18.0
 74
     4
 75
     0
340
0
 46
0.0
 50
0.0
 44
0.0
 45
0.0
 49
-6.5
 74
     4
 75
     0
340
0
 46
0.0
 50
0.0
 44
0.0
 45
0.0
 49
6.5
 74
     4
 75
     0
340
0
 46
0.0
 50
0.0
 44
0.0
 45
0.0
 49
-6.5
 74
     4
 75
     0
340
0
 46
0.0
 50
0.0
 44
0.0
 45
0.0
 49
6.5
 74
     4
 75
     0
340
0
 46
0.0
 50
0.0
 44
0.0
 45
0.0
 49
-6.5
 74
     4
 75
     0
340
0
 46
0.0
 50
0.0
 44
0.0
 45
0.0
  0
LTYPE
  5
338
330
5
100
AcDbSymbolTableRecord
100
AcDbLinetypeTableRecord
  2
CENTER2
 70
     0
  3
Center (.5x) ___ _ ___ _ ___ _ ___ _ ___ _ ___
 72
    65
 73
     4
 40
1.125
 49
0.75
 74
     0
 49
-0.125
 74
     0
 49
0.125
 74
     0
 49
-0.125
 74
     0
  0
ENDTAB
  0
TABLE
  2
LAYER
  5
2
330
0
100
AcDbSymbolTable
 70
    22
  0
LAYER
  5
10
102
{ACAD_XDICTIONARY
360
343
102
}
330
2
100
AcDbSymbolTableRecord
100
AcDbLayerTableRecord
  2
0
 70
     0
 62
     7
  6
Continuous
370
    -3
390
F
  0
LAYER
  5
1F4
330
2
100
AcDbSymbolTableRecord
100
AcDbLayerTableRecord
  2
Defpoints
 70
     0
 62
     7
  6
Continuous
290
     0
370
    -3
390
F
  0
LAYER
  5
335
102
{ACAD_XDICTIONARY
360
345
102
}
330
2
100
AcDbSymbolTableRecord
100
AcDbLayerTableRecord
  2
1
 70
     0
 62
     4
  6
Continuous
370
    -3
390
F
  0
LAYER
  5
336
102
{ACAD_XDICTIONARY
360
347
102
}
330
2
100
AcDbSymbolTableRecord
100
AcDbLayerTableRecord
  2
2
 70
     0
 62
     7
  6
Continuous
370
    -3
390
F
  0
LAYER
  5
337
102
{ACAD_XDICTIONARY
360
349
102
}
330
2
100
AcDbSymbolTableRecord
100
AcDbLayerTableRecord
  2
4
 70
     0
 62
     2
  6
CENTER2
370
    -3
390
F
  0
LAYER
  5
339
102
{ACAD_XDICTIONARY
360
34B
102
}
330
2
100
AcDbSymbolTableRecord
100
AcDbLayerTableRecord
  2
SK1
 70
     0
 62
     4
  6
Continuous
370
    -3
390
F
  0
LAYER
  5
33A
102
{ACAD_XDICTIONARY
360
34D
102
}
330
2
100
AcDbSymbolTableRecord
100
AcDbLayerTableRecord
  2
SK2
 70
     0
 62
     7
  6
Continuous
370
    -3
390
F
  0
LAYER
  5
33C
102
{ACAD_XDICTIONARY
360
34F
102
}
330
2
100
AcDbSymbolTableRecord
100
AcDbLayerTableRecord
  2
SK4
 70
     0
 62
     2
  6
CENTER2
370
    -3
390
F
  0
LAYER
  5
33D
102
{ACAD_XDICTIONARY
360
351
102
}
330
2
100
AcDbSymbolTableRecord
100
AcDbLayerTableRecord
  2
SK6
 70
     0
 62
     5
  6
Continuous
370
    -3
390
F
  0
LAYER
  5
33E
102
{ACAD_XDICTIONARY
360
353
102
}
330
2
100
AcDbSymbolTableRecord
100
AcDbLayerTableRecord
  2
CUT
 70
     0
 62
     1
  6
Continuous
370
    -3
390
F
  0
LAYER
  5
33F
102
{ACAD_XDICTIONARY
360
355
102
}
330
2
100
AcDbSymbolTableRecord
100
AcDbLayerTableRecord
  2
NOCUT
 70
     0
 62
     7
  6
Continuous
370
    -3
390
F
  0
LAYER
  5
340
102
{ACAD_XDICTIONARY
360
357
102
}
330
2
100
AcDbSymbolTableRecord
100
AcDbLayerTableRecord
  2
80
 70
     0
 62
     6
  6
Continuous
370
    -3
390
F
  0
LAYER
  5
341
102
{ACAD_XDICTIONARY
360
359
102
}
330
2
100
AcDbSymbolTableRecord
100
AcDbLayerTableRecord
  2
81
 70
     0
 62
     3
  6
Continuous
370
    -3
390
F
  0
ENDTAB
  0
TABLE
  2
STYLE
  5
3
330
0
100
AcDbSymbolTable
 70
     3
  0
STYLE
  5
11
330
3
100
AcDbSymbolTableRecord
100
AcDbTextStyleTableRecord
  2
Standard
 70
     0
 40
0.0
 41
1.0
 50
0.0
 71
     0
 42
0.2
  3
txt
  4

  0
STYLE
  5
1ED
330
3
100
AcDbSymbolTableRecord
100
AcDbTextStyleTableRecord
  2
cesky
 70
     0
 40
0.0
 41
1.0
 50
0.0
 71
     0
 42
0.2
  3
simplex.shx
  4

  0
STYLE
  5
1EE
330
3
100
AcDbSymbolTableRecord
100
AcDbTextStyleTableRecord
  2
DWGDirectTextStyle
 70
     0
 40
0.0
 41
1.0
 50
0.0
 71
     0
 42
0.2
  3
simplex
  4

  0
ENDTAB
  0
TABLE
  2
VIEW
  5
6
330
0
100
AcDbSymbolTable
 70
     0
  0
ENDTAB
  0
TABLE
  2
UCS
  5
7
330
0
100
AcDbSymbolTable
 70
     0
  0
ENDTAB
  0
TABLE
  2
APPID
  5
9
330
0
100
AcDbSymbolTable
 70
     7
  0
APPID
  5
12
330
9
100
AcDbSymbolTableRecord
100
AcDbRegAppTableRecord
  2
ACAD
 70
     0
  0
APPID
  5
1F0
330
9
100
AcDbSymbolTableRecord
100
AcDbRegAppTableRecord
  2
ACAD_DSTYLE_DIMBREAK
 70
     0
  0
APPID
  5
2A9
330
9
100
AcDbSymbolTableRecord
100
AcDbRegAppTableRecord
  2
ACAD_DSTYLE_DIM_LINETYPE
 70
     0
  0
APPID
  5
2AA
330
9
100
AcDbSymbolTableRecord
100
AcDbRegAppTableRecord
  2
ACAD_DSTYLE_DIM_EXT1_LINETYPE
 70
     0
  0
APPID
  5
2AB
330
9
100
AcDbSymbolTableRecord
100
AcDbRegAppTableRecord
  2
ACAD_DSTYLE_DIM_EXT2_LINETYPE
 70
     0
  0
APPID
  5
2EB
330
9
100
AcDbSymbolTableRecord
100
AcDbRegAppTableRecord
  2
ACAD_MLEADERVER
 70
     0
  0
APPID
  5
35E
330
9
100
AcDbSymbolTableRecord
100
AcDbRegAppTableRecord
  2
ACAD_NAV_VCDISPLAY
 70
     0
  0
ENDTAB
  0
TABLE
  2
DIMSTYLE
  5
A
330
0
100
AcDbSymbolTable
 70
     1
100
AcDbDimStyleTable
 71
     0
  0
DIMSTYLE
105
27
330
A
100
AcDbSymbolTableRecord
100
AcDbDimStyleTableRecord
  2
Standard
 70
     0
340
11
1001
ACAD_DSTYLE_DIMBREAK
1070
   391
1040
6.349999999999999
  0
ENDTAB
  0
TABLE
  2
BLOCK_RECORD
  5
1
330
0
100
AcDbSymbolTable
 70
    16
  0
BLOCK_RECORD
  5
1F
102
{ACAD_XDICTIONARY
360
2FB
102
}
330
1
100
AcDbSymbolTableRecord
100
AcDbBlockTableRecord
  2
*Model_Space
340
22
  0
BLOCK_RECORD
  5
1B
330
1
100
AcDbSymbolTableRecord
100
AcDbBlockTableRecord
  2
*Paper_Space
340
1E
  0
BLOCK_RECORD
  5
23
330
1
100
AcDbSymbolTableRecord
100
AcDbBlockTableRecord
  2
*Paper_Space0
340
26
  0
BLOCK_RECORD
  5
1E7
330
1
100
AcDbSymbolTableRecord
100
AcDbBlockTableRecord
  2
ASSORTED_DRAFT1
340
0
  0
BLOCK_RECORD
  5
1F5
330
1
100
AcDbSymbolTableRecord
100
AcDbBlockTableRecord
  2
*D2
340
0
  0
BLOCK_RECORD
  5
201
330
1
100
AcDbSymbolTableRecord
100
AcDbBlockTableRecord
  2
_U0
340
0
  0
BLOCK_RECORD
  5
20D
330
1
100
AcDbSymbolTableRecord
100
AcDbBlockTableRecord
  2
*D4
340
0
  0
BLOCK_RECORD
  5
219
330
1
100
AcDbSymbolTableRecord
100
AcDbBlockTableRecord
  2
_U1
340
0
  0
BLOCK_RECORD
  5
225
330
1
100
AcDbSymbolTableRecord
100
AcDbBlockTableRecord
  2
*D6
340
0
  0
BLOCK_RECORD
  5
231
330
1
100
AcDbSymbolTableRecord
100
AcDbBlockTableRecord
  2
_U2
340
0
  0
BLOCK_RECORD
  5
23D
330
1
100
AcDbSymbolTableRecord
100
AcDbBlockTableRecord
  2
*D8
340
0
  0
BLOCK_RECORD
  5
249
330
1
100
AcDbSymbolTableRecord
100
AcDbBlockTableRecord
  2
_U3
340
0
  0
BLOCK_RECORD
  5
255
330
1
100
AcDbSymbolTableRecord
100
AcDbBlockTableRecord
  2
*D10
340
0
  0
BLOCK_RECORD
  5
260
330
1
100
AcDbSymbolTableRecord
100
AcDbBlockTableRecord
  2
_U4
340
0
  0
BLOCK_RECORD
  5
26B
330
1
100
AcDbSymbolTableRecord
100
AcDbBlockTableRecord
  2
*D12
340
0
  0
BLOCK_RECORD
  5
277
330
1
100
AcDbSymbolTableRecord
100
AcDbBlockTableRecord
  2
_U5
340
0
  0
BLOCK_RECORD
  5
284
330
1
100
AcDbSymbolTableRecord
100
AcDbBlockTableRecord
  2
*D14
340
0
  0
BLOCK_RECORD
  5
290
330
1
100
AcDbSymbolTableRecord
100
AcDbBlockTableRecord
  2
_U6
340
0
  0
ENDTAB
  0
ENDSEC
  0
SECTION
  2
BLOCKS
  0
BLOCK
  5
20
330
1F
100
AcDbEntity
  8
0
100
AcDbBlockBegin
  2
*Model_Space
 70
     0
 10
0.0
 20
0.0
 30
0.0
  3
*Model_Space
  1

  0
ENDBLK
  5
21
330
1F
100
AcDbEntity
  8
0
100
AcDbBlockEnd
  0
BLOCK
  5
1C
330
1B
100
AcDbEntity
 67
     1
  8
0
100
AcDbBlockBegin
  2
*Paper_Space
 70
     0
 10
0.0
 20
0.0
 30
0.0
  3
*Paper_Space
  1

  0
ENDBLK
  5
1D
330
1B
100
AcDbEntity
 67
     1
  8
0
100
AcDbBlockEnd
  0
BLOCK
  5
24
330
23
100
AcDbEntity
 67
     1
  8
0
100
AcDbBlockBegin
  2
*Paper_Space0
 70
     0
 10
0.0
 20
0.0
 30
0.0
  3
*Paper_Space0
  1

  0
ENDBLK
  5
25
330
23
100
AcDbEntity
 67
     1
  8
0
100
AcDbBlockEnd
  0
BLOCK
  5
1EA
330
1E7
100
AcDbEntity
  8
0
100
AcDbBlockBegin
  2
ASSORTED_DRAFT1
 70
     0
 10
0.0
 20
0.0
 30
0.0
  3
ASSORTED_DRAFT1
  1

  0
SOLID
  5
1E8
330
1E7
100
AcDbEntity
  8
0
 62
   254
370
    13
100
AcDbTrace
 10
270.185042
 20
161.034924
 30
0.0
 11
265.185046
 21
159.92645
 31
0.0
 12
265.1850379999999
 22
162.143397
 32
0.0
 13
270.185042
 23
161.034924
 33
0.0
  0
ENDBLK
  5
1EB
330
1E7
100
AcDbEntity
  8
0
100
AcDbBlockEnd
  0
BLOCK
  5
1F6
330
1F5
100
AcDbEntity
  8
0
100
AcDbBlockBegin
  2
*D2
 70
     1
 10
0.0
 20
0.0
 30
0.0
  3
*D2
  1

  0
LINE
  5
1F8
330
1F5
100
AcDbEntity
  8
0
 62
   254
370
    -2
100
AcDbLine
 10
274.404842
 20
288.907994
 30
0.0
 11
274.404842
 21
323.882273
 31
0.0
  0
LINE
  5
1F9
330
1F5
100
AcDbEntity
  8
0
 62
   254
370
    -2
100
AcDbLine
 10
218.404842
 20
294.157994
 30
0.0
 11
218.404842
 21
323.882273
 31
0.0
  0
LINE
  5
1FA
330
1F5
100
AcDbEntity
  8
0
 62
   254
370
    -2
100
AcDbLine
 10
270.904842
 20
322.882273
 30
0.0
 11
221.904842
 21
322.882273
 31
0.0
  0
SOLID
  5
1FB
330
1F5
100
AcDbEntity
  8
0
 62
   254
100
AcDbTrace
 10
270.904842
 20
322.29894
 30
0.0
 11
270.904842
 21
323.465606
 31
0.0
 12
274.404842
 22
322.882273
 32
0.0
 13
274.404842
 23
322.882273
 33
0.0
  0
SOLID
  5
1FC
330
1F5
100
AcDbEntity
  8
0
 62
   254
100
AcDbTrace
 10
221.904842
 20
323.465606
 30
0.0
 11
221.904842
 21
322.29894
 31
0.0
 12
218.404842
 22
322.882273
 32
0.0
 13
218.404842
 23
322.882273
 33
0.0
  0
MTEXT
  5
1FD
330
1F5
100
AcDbEntity
  8
0
 62
   254
370
    13
100
AcDbMText
 10
246.404842
 20
328.132273
 30
0.0
 40
3.5
 41
0.0
 71
     5
 72
     1
  1
\A1;56
  7
cesky
 73
     1
 44
1.0
  0
POINT
  5
1FE
330
1F5
100
AcDbEntity
  8
Defpoints
 62
     0
100
AcDbPoint
 10
274.404842
 20
288.907994
 30
0.0
  0
POINT
  5
1FF
330
1F5
100
AcDbEntity
  8
Defpoints
 62
     0
100
AcDbPoint
 10
218.404842
 20
294.157994
 30
0.0
  0
POINT
  5
200
330
1F5
100
AcDbEntity
  8
Defpoints
 62
     0
100
AcDbPoint
 10
218.404842
 20
322.882273
 30
0.0
  0
ENDBLK
  5
1F7
330
1F5
100
AcDbEntity
  8
0
100
AcDbBlockEnd
  0
BLOCK
  5
208
330
201
100
AcDbEntity
  8
0
100
AcDbBlockBegin
  2
_U0
 70
     0
 10
0.0
 20
0.0
 30
0.0
  3
_U0
  1

  0
ENDBLK
  5
209
330
201
100
AcDbEntity
  8
0
100
AcDbBlockEnd
  0
BLOCK
  5
20E
330
20D
100
AcDbEntity
  8
0
100
AcDbBlockBegin
  2
*D4
 70
     1
 10
0.0
 20
0.0
 30
0.0
  3
*D4
  1

  0
LINE
  5
210
330
20D
100
AcDbEntity
  8
0
 62
   254
370
    -2
100
AcDbLine
 10
395.404842
 20
300.907994
 30
0.0
 11
395.404842
 21
312.334412
 31
0.0
  0
LINE
  5
211
330
20D
100
AcDbEntity
  8
0
 62
   254
370
    -2
100
AcDbLine
 10
292.3700100000001
 20
300.808665
 30
0.0
 11
292.3700100000001
 21
312.334412
 31
0.0
  0
LINE
  5
212
330
20D
100
AcDbEntity
  8
0
 62
   254
370
    -2
100
AcDbLine
 10
391.904842
 20
311.334412
 30
0.0
 11
295.8700100000001
 21
311.334412
 31
0.0
  0
SOLID
  5
213
330
20D
100
AcDbEntity
  8
0
 62
   254
100
AcDbTrace
 10
391.904842
 20
310.751078
 30
0.0
 11
391.904842
 21
311.917745
 31
0.0
 12
395.404842
 22
311.334412
 32
0.0
 13
395.404842
 23
311.334412
 33
0.0
  0
SOLID
  5
214
330
20D
100
AcDbEntity
  8
0
 62
   254
100
AcDbTrace
 10
295.8700100000001
 20
311.917745
 30
0.0
 11
295.8700100000001
 21
310.751078
 31
0.0
 12
292.3700100000001
 22
311.334412
 32
0.0
 13
292.3700100000001
 23
311.334412
 33
0.0
  0
MTEXT
  5
215
330
20D
100
AcDbEntity
  8
0
 62
   254
370
    13
100
AcDbMText
 10
343.887426
 20
316.584412
 30
0.0
 40
3.5
 41
0.0
 71
     5
 72
     1
  1
\A1;103
  7
cesky
 73
     1
 44
1.0
  0
POINT
  5
216
330
20D
100
AcDbEntity
  8
Defpoints
 62
     0
100
AcDbPoint
 10
395.404842
 20
300.907994
 30
0.0
  0
POINT
  5
217
330
20D
100
AcDbEntity
  8
Defpoints
 62
     0
100
AcDbPoint
 10
292.3700100000001
 20
300.808665
 30
0.0
  0
POINT
  5
218
330
20D
100
AcDbEntity
  8
Defpoints
 62
     0
100
AcDbPoint
 10
292.3700100000001
 20
311.334412
 30
0.0
  0
ENDBLK
  5
20F
330
20D
100
AcDbEntity
  8
0
100
AcDbBlockEnd
  0
BLOCK
  5
220
330
219
100
AcDbEntity
  8
0
100
AcDbBlockBegin
  2
_U1
 70
     0
 10
0.0
 20
0.0
 30
0.0
  3
_U1
  1

  0
ENDBLK
  5
221
330
219
100
AcDbEntity
  8
0
100
AcDbBlockEnd
  0
BLOCK
  5
226
330
225
100
AcDbEntity
  8
0
100
AcDbBlockBegin
  2
*D6
 70
     1
 10
0.0
 20
0.0
 30
0.0
  3
*D6
  1

  0
LINE
  5
228
330
225
100
AcDbEntity
  8
0
 62
   254
370
    -2
100
AcDbLine
 10
395.404842
 20
300.907994
 30
0.0
 11
395.404842
 21
323.882273
 31
0.0
  0
LINE
  5
229
330
225
100
AcDbEntity
  8
0
 62
   254
370
    -2
100
AcDbLine
 10
274.404842
 20
288.907994
 30
0.0
 11
274.404842
 21
323.882273
 31
0.0
  0
LINE
  5
22A
330
225
100
AcDbEntity
  8
0
 62
   254
370
    -2
100
AcDbLine
 10
391.904842
 20
322.882273
 30
0.0
 11
277.904842
 21
322.882273
 31
0.0
  0
SOLID
  5
22B
330
225
100
AcDbEntity
  8
0
 62
   254
100
AcDbTrace
 10
391.904842
 20
322.29894
 30
0.0
 11
391.904842
 21
323.465606
 31
0.0
 12
395.404842
 22
322.882273
 32
0.0
 13
395.404842
 23
322.882273
 33
0.0
  0
SOLID
  5
22C
330
225
100
AcDbEntity
  8
0
 62
   254
100
AcDbTrace
 10
277.904842
 20
323.465606
 30
0.0
 11
277.904842
 21
322.29894
 31
0.0
 12
274.404842
 22
322.882273
 32
0.0
 13
274.404842
 23
322.882273
 33
0.0
  0
MTEXT
  5
22D
330
225
100
AcDbEntity
  8
0
 62
   254
370
    13
100
AcDbMText
 10
334.904842
 20
328.132273
 30
0.0
 40
3.5
 41
0.0
 71
     5
 72
     1
  1
\A1;121
  7
cesky
 73
     1
 44
1.0
  0
POINT
  5
22E
330
225
100
AcDbEntity
  8
Defpoints
 62
     0
100
AcDbPoint
 10
395.404842
 20
300.907994
 30
0.0
  0
POINT
  5
22F
330
225
100
AcDbEntity
  8
Defpoints
 62
     0
100
AcDbPoint
 10
274.404842
 20
288.907994
 30
0.0
  0
POINT
  5
230
330
225
100
AcDbEntity
  8
Defpoints
 62
     0
100
AcDbPoint
 10
274.404842
 20
322.882273
 30
0.0
  0
ENDBLK
  5
227
330
225
100
AcDbEntity
  8
0
100
AcDbBlockEnd
  0
BLOCK
  5
238
330
231
100
AcDbEntity
  8
0
100
AcDbBlockBegin
  2
_U2
 70
     0
 10
0.0
 20
0.0
 30
0.0
  3
_U2
  1

  0
ENDBLK
  5
239
330
231
100
AcDbEntity
  8
0
100
AcDbBlockEnd
  0
BLOCK
  5
23E
330
23D
100
AcDbEntity
  8
0
100
AcDbBlockBegin
  2
*D8
 70
     1
 10
0.0
 20
0.0
 30
0.0
  3
*D8
  1

  0
LINE
  5
240
330
23D
100
AcDbEntity
  8
0
 62
   254
370
    -2
100
AcDbLine
 10
395.404842
 20
302.907994
 30
0.0
 11
395.404842
 21
338.155501
 31
0.0
  0
LINE
  5
241
330
23D
100
AcDbEntity
  8
0
 62
   254
370
    -2
100
AcDbLine
 10
218.404842
 20
299.407994
 30
0.0
 11
218.404842
 21
338.155501
 31
0.0
  0
LINE
  5
242
330
23D
100
AcDbEntity
  8
0
 62
   254
370
    -2
100
AcDbLine
 10
391.904842
 20
337.155501
 30
0.0
 11
221.904842
 21
337.155501
 31
0.0
  0
SOLID
  5
243
330
23D
100
AcDbEntity
  8
0
 62
   254
100
AcDbTrace
 10
391.904842
 20
336.572167
 30
0.0
 11
391.904842
 21
337.738834
 31
0.0
 12
395.404842
 22
337.155501
 32
0.0
 13
395.404842
 23
337.155501
 33
0.0
  0
SOLID
  5
244
330
23D
100
AcDbEntity
  8
0
 62
   254
100
AcDbTrace
 10
221.904842
 20
337.738834
 30
0.0
 11
221.904842
 21
336.572167
 31
0.0
 12
218.404842
 22
337.155501
 32
0.0
 13
218.404842
 23
337.155501
 33
0.0
  0
MTEXT
  5
245
330
23D
100
AcDbEntity
  8
0
 62
   254
370
    13
100
AcDbMText
 10
306.904842
 20
342.405501
 30
0.0
 40
3.5
 41
0.0
 71
     5
 72
     1
  1
\A1;177
  7
cesky
 73
     1
 44
1.0
  0
POINT
  5
246
330
23D
100
AcDbEntity
  8
Defpoints
 62
     0
100
AcDbPoint
 10
395.404842
 20
302.907994
 30
0.0
  0
POINT
  5
247
330
23D
100
AcDbEntity
  8
Defpoints
 62
     0
100
AcDbPoint
 10
218.404842
 20
299.407994
 30
0.0
  0
POINT
  5
248
330
23D
100
AcDbEntity
  8
Defpoints
 62
     0
100
AcDbPoint
 10
218.404842
 20
337.155501
 30
0.0
  0
ENDBLK
  5
23F
330
23D
100
AcDbEntity
  8
0
100
AcDbBlockEnd
  0
BLOCK
  5
250
330
249
100
AcDbEntity
  8
0
100
AcDbBlockBegin
  2
_U3
 70
     0
 10
0.0
 20
0.0
 30
0.0
  3
_U3
  1

  0
ENDBLK
  5
251
330
249
100
AcDbEntity
  8
0
100
AcDbBlockEnd
  0
BLOCK
  5
256
330
255
100
AcDbEntity
  8
0
100
AcDbBlockBegin
  2
*D10
 70
     1
 10
0.0
 20
0.0
 30
0.0
  3
*D10
  1

  0
LINE
  5
258
330
255
100
AcDbEntity
  8
0
 62
   254
370
    -2
100
AcDbLine
 10
292.032259
 20
288.907994
 30
0.0
 11
410.6233279999999
 21
288.907994
 31
0.0
  0
LINE
  5
259
330
255
100
AcDbEntity
  8
0
 62
   254
370
    -2
100
AcDbLine
 10
330.83929
 20
300.907994
 30
0.0
 11
410.6233279999999
 21
300.907994
 31
0.0
  0
LINE
  5
25A
330
255
100
AcDbEntity
  8
0
 62
   254
370
    -2
100
AcDbLine
 10
409.6233279999999
 20
304.407994
 30
0.0
 11
409.6233279999999
 21
307.907994
 31
0.0
  0
SOLID
  5
25B
330
255
100
AcDbEntity
  8
0
 62
   254
100
AcDbTrace
 10
409.039995
 20
304.407994
 30
0.0
 11
410.206662
 21
304.407994
 31
0.0
 12
409.6233279999999
 22
300.907994
 32
0.0
 13
409.6233279999999
 23
300.907994
 33
0.0
  0
MTEXT
  5
25C
330
255
100
AcDbEntity
  8
0
 62
   254
370
    13
100
AcDbMText
 10
404.3733279999999
 20
289.93024
 30
0.0
 40
3.5
 41
0.0
 71
     5
 72
     1
  1
\A1;24
  7
cesky
 11
0.0
 21
1.0
 31
0.0
 73
     1
 44
1.0
  0
POINT
  5
25D
330
255
100
AcDbEntity
  8
Defpoints
 62
     0
100
AcDbPoint
 10
292.032259
 20
288.907994
 30
0.0
  0
POINT
  5
25E
330
255
100
AcDbEntity
  8
Defpoints
 62
     0
100
AcDbPoint
 10
330.83929
 20
300.907994
 30
0.0
  0
POINT
  5
25F
330
255
100
AcDbEntity
  8
Defpoints
 62
     0
100
AcDbPoint
 10
409.6233279999999
 20
300.907994
 30
0.0
  0
ENDBLK
  5
257
330
255
100
AcDbEntity
  8
0
100
AcDbBlockEnd
  0
BLOCK
  5
266
330
260
100
AcDbEntity
  8
0
100
AcDbBlockBegin
  2
_U4
 70
     0
 10
0.0
 20
0.0
 30
0.0
  3
_U4
  1

  0
ENDBLK
  5
267
330
260
100
AcDbEntity
  8
0
100
AcDbBlockEnd
  0
BLOCK
  5
26C
330
26B
100
AcDbEntity
  8
0
100
AcDbBlockBegin
  2
*D12
 70
     1
 10
0.0
 20
0.0
 30
0.0
  3
*D12
  1

  0
LINE
  5
26E
330
26B
100
AcDbEntity
  8
0
 62
    95
370
    -2
100
AcDbLine
 10
220.404842
 20
301.407994
 30
0.0
 11
208.204499
 21
301.407994
 31
0.0
  0
LINE
  5
26F
330
26B
100
AcDbEntity
  8
0
 62
    95
370
    -2
100
AcDbLine
 10
220.404842
 20
276.407994
 30
0.0
 11
208.204499
 21
276.407994
 31
0.0
  0
LINE
  5
270
330
26B
100
AcDbEntity
  8
0
 62
    95
370
    -2
100
AcDbLine
 10
209.204499
 20
297.907994
 30
0.0
 11
209.204499
 21
279.907994
 31
0.0
  0
SOLID
  5
271
330
26B
100
AcDbEntity
  8
0
 62
    95
100
AcDbTrace
 10
209.787833
 20
297.907994
 30
0.0
 11
208.621166
 21
297.907994
 31
0.0
 12
209.204499
 22
301.407994
 32
0.0
 13
209.204499
 23
301.407994
 33
0.0
  0
SOLID
  5
272
330
26B
100
AcDbEntity
  8
0
 62
    95
100
AcDbTrace
 10
208.621166
 20
279.907994
 30
0.0
 11
209.787833
 21
279.907994
 31
0.0
 12
209.204499
 22
276.407994
 32
0.0
 13
209.204499
 23
276.407994
 33
0.0
  0
MTEXT
  5
273
330
26B
100
AcDbEntity
  8
0
 62
    95
370
    13
100
AcDbMText
 10
203.954499
 20
288.907994
 30
0.0
 40
3.5
 41
0.0
 71
     5
 72
     1
  1
\A1;25
  7
cesky
 11
0.0
 21
1.0
 31
0.0
 73
     1
 44
1.0
  0
POINT
  5
274
330
26B
100
AcDbEntity
  8
Defpoints
 62
     0
100
AcDbPoint
 10
220.404842
 20
301.407994
 30
0.0
  0
POINT
  5
275
330
26B
100
AcDbEntity
  8
Defpoints
 62
     0
100
AcDbPoint
 10
220.404842
 20
276.407994
 30
0.0
  0
POINT
  5
276
330
26B
100
AcDbEntity
  8
Defpoints
 62
     0
100
AcDbPoint
 10
209.204499
 20
276.407994
 30
0.0
  0
ENDBLK
  5
26D
330
26B
100
AcDbEntity
  8
0
100
AcDbBlockEnd
  0
BLOCK
  5
27F
330
277
100
AcDbEntity
  8
0
100
AcDbBlockBegin
  2
_U5
 70
     0
 10
0.0
 20
0.0
 30
0.0
  3
_U5
  1

  0
ENDBLK
  5
280
330
277
100
AcDbEntity
  8
0
100
AcDbBlockEnd
  0
BLOCK
  5
285
330
284
100
AcDbEntity
  8
0
100
AcDbBlockBegin
  2
*D14
 70
     1
 10
0.0
 20
0.0
 30
0.0
  3
*D14
  1

  0
LINE
  5
287
330
284
100
AcDbEntity
  8
0
 62
    95
370
    -2
100
AcDbLine
 10
277.154842
 20
306.407994
 30
0.0
 11
193.481277
 21
306.407994
 31
0.0
  0
LINE
  5
288
330
284
100
AcDbEntity
  8
0
 62
    95
370
    -2
100
AcDbLine
 10
277.154842
 20
271.407994
 30
0.0
 11
193.481277
 21
271.407994
 31
0.0
  0
LINE
  5
289
330
284
100
AcDbEntity
  8
0
 62
    95
370
    -2
100
AcDbLine
 10
194.481277
 20
302.907994
 30
0.0
 11
194.481277
 21
274.907994
 31
0.0
  0
SOLID
  5
28A
330
284
100
AcDbEntity
  8
0
 62
    95
100
AcDbTrace
 10
195.064611
 20
302.907994
 30
0.0
 11
193.897944
 21
302.907994
 31
0.0
 12
194.481277
 22
306.407994
 32
0.0
 13
194.481277
 23
306.407994
 33
0.0
  0
SOLID
  5
28B
330
284
100
AcDbEntity
  8
0
 62
    95
100
AcDbTrace
 10
193.897944
 20
274.907994
 30
0.0
 11
195.064611
 21
274.907994
 31
0.0
 12
194.481277
 22
271.407994
 32
0.0
 13
194.481277
 23
271.407994
 33
0.0
  0
MTEXT
  5
28C
330
284
100
AcDbEntity
  8
0
 62
    95
370
    13
100
AcDbMText
 10
189.231277
 20
288.907994
 30
0.0
 40
3.5
 41
0.0
 71
     5
 72
     1
  1
\A1;35
  7
cesky
 11
0.0
 21
1.0
 31
0.0
 73
     1
 44
1.0
  0
POINT
  5
28D
330
284
100
AcDbEntity
  8
Defpoints
 62
     0
100
AcDbPoint
 10
277.154842
 20
306.407994
 30
0.0
  0
POINT
  5
28E
330
284
100
AcDbEntity
  8
Defpoints
 62
     0
100
AcDbPoint
 10
277.154842
 20
271.407994
 30
0.0
  0
POINT
  5
28F
330
284
100
AcDbEntity
  8
Defpoints
 62
     0
100
AcDbPoint
 10
194.481277
 20
271.407994
 30
0.0
  0
ENDBLK
  5
286
330
284
100
AcDbEntity
  8
0
100
AcDbBlockEnd
  0
BLOCK
  5
298
330
290
100
AcDbEntity
  8
0
100
AcDbBlockBegin
  2
_U6
 70
     0
 10
0.0
 20
0.0
 30
0.0
  3
_U6
  1

  0
ENDBLK
  5
299
330
290
100
AcDbEntity
  8
0
100
AcDbBlockEnd
  0
ENDSEC
  0
SECTION
  2
ENTITIES
  0
POINT
  5
73
102
{ACAD_REACTORS
330
342
102
}
330
1F
100
AcDbEntity
  8
80
100
AcDbPoint
 10
274.404842
 20
288.907994
 30
0.0
  0
POINT
  5
76
330
1F
100
AcDbEntity
  8
SK4
 60
     1
100
AcDbPoint
 10
220.404842
 20
288.907994
 30
0.0
  0
POINT
  5
78
330
1F
100
AcDbEntity
  8
SK4
 60
     1
100
AcDbPoint
 10
274.404842
 20
288.907994
 30
0.0
  0
POINT
  5
79
330
1F
100
AcDbEntity
  8
4
 60
     1
100
AcDbPoint
 10
292.032259
 20
288.907994
 30
0.0
  0
POINT
  5
7A
330
1F
100
AcDbEntity
  8
4
 60
     1
100
AcDbPoint
 10
394.791234
 20
288.907994
 30
0.0
  0
POINT
  5
7B
330
1F
100
AcDbEntity
  8
SK6
 60
     1
100
AcDbPoint
 10
274.404842
 20
288.907994
 30
0.0
  0
POINT
  5
7C
330
1F
100
AcDbEntity
  8
SK6
 60
     1
100
AcDbPoint
 10
292.3700100000001
 20
300.808665
 30
0.0
  0
LINE
  5
7D
330
1F
100
AcDbEntity
  8
1
100
AcDbLine
 10
391.4815930000001
 20
295.636329
 30
0.0
 11
391.4802160000001
 21
295.630758
 31
0.0
  0
LINE
  5
7F
330
1F
100
AcDbEntity
  8
1
100
AcDbLine
 10
390.36939
 20
295.620242
 30
0.0
 11
390.344958
 21
295.521448
 31
0.0
  0
LINE
  5
80
330
1F
100
AcDbEntity
  8
1
100
AcDbLine
 10
390.266622
 20
297.4436970000001
 30
0.0
 11
390.291404
 21
297.543902
 31
0.0
  0
LINE
  5
81
330
1F
100
AcDbEntity
  8
1
100
AcDbLine
 10
389.68906
 20
296.59756
 30
0.0
 11
389.665014
 21
296.500331
 31
0.0
  0
LINE
  5
82
330
1F
100
AcDbEntity
  8
1
100
AcDbLine
 10
389.776391
 20
296.582505
 30
0.0
 11
389.751805
 21
296.483086
 31
0.0
  0
LINE
  5
83
330
1F
100
AcDbEntity
  8
1
100
AcDbLine
 10
391.955908
 20
295.994491
 30
0.0
 11
391.979941
 21
296.09167
 31
0.0
  0
LINE
  5
84
330
1F
100
AcDbEntity
  8
1
100
AcDbLine
 10
391.867108
 20
296.015315
 30
0.0
 11
391.891703
 21
296.114768
 31
0.0
  0
LINE
  5
85
330
1F
100
AcDbEntity
  8
1
100
AcDbLine
 10
390.92409
 20
295.3971259999999
 30
0.0
 11
390.948551
 21
295.496034
 31
0.0
  0
LINE
  5
86
330
1F
100
AcDbEntity
  8
1
100
AcDbLine
 10
384.511989
 20
290.5165629999999
 30
0.0
 11
384.530558
 21
289.973826
 31
0.0
  0
LINE
  5
88
330
1F
100
AcDbEntity
  8
1
100
AcDbLine
 10
392.953061
 20
292.027994
 30
0.0
 11
388.106063
 21
291.816852
 31
0.0
  0
LINE
  5
89
330
1F
100
AcDbEntity
  8
1
100
AcDbLine
 10
285.404842
 20
300.345107
 30
0.0
 11
285.404842
 21
287.294184
 31
0.0
  0
LINE
  5
8A
330
1F
100
AcDbEntity
  8
1
100
AcDbLine
 10
394.26603
 20
289.279702
 30
0.0
 11
394.401672
 21
289.277334
 31
0.0
  0
LINE
  5
8B
330
1F
100
AcDbEntity
  8
1
100
AcDbLine
 10
279.404842
 20
271.407994
 30
0.0
 11
279.404842
 21
274.106608
 31
0.0
  0
LINE
  5
8C
330
1F
100
AcDbEntity
  8
1
100
AcDbLine
 10
279.404842
 20
306.407994
 30
0.0
 11
279.404842
 21
281.530488
 31
0.0
  0
LINE
  5
8D
330
1F
100
AcDbEntity
  8
1
100
AcDbLine
 10
394.410119
 20
292.046434
 30
0.0
 11
394.430485
 21
292.05748
 31
0.0
  0
LINE
  5
8E
330
1F
100
AcDbEntity
  8
1
100
AcDbLine
 10
394.536792
 20
292.677837
 30
0.0
 11
388.566161
 21
292.417749
 31
0.0
  0
LINE
  5
8F
330
1F
100
AcDbEntity
  8
1
100
AcDbLine
 10
388.56093
 20
292.396598
 30
0.0
 11
388.566161
 21
292.417749
 31
0.0
  0
LINE
  5
90
330
1F
100
AcDbEntity
  8
1
100
AcDbLine
 10
394.401672
 20
289.277334
 30
0.0
 11
394.64268
 21
289.603926
 31
0.0
  0
LINE
  5
91
330
1F
100
AcDbEntity
  8
1
100
AcDbLine
 10
394.64268
 20
289.842537
 30
0.0
 11
394.64268
 21
289.603926
 31
0.0
  0
LINE
  5
92
330
1F
100
AcDbEntity
  8
1
100
AcDbLine
 10
394.64268
 20
289.842537
 30
0.0
 11
394.684842
 21
289.841801
 31
0.0
  0
LINE
  5
93
330
1F
100
AcDbEntity
  8
1
100
AcDbLine
 10
394.684842
 20
292.954435
 30
0.0
 11
394.684842
 21
289.941816
 31
0.0
  0
LINE
  5
94
330
1F
100
AcDbEntity
  8
1
100
AcDbLine
 10
394.536792
 20
292.677837
 30
0.0
 11
394.534573
 21
292.90167
 31
0.0
  0
LINE
  5
95
330
1F
100
AcDbEntity
  8
1
100
AcDbLine
 10
394.536792
 20
292.677837
 30
0.0
 11
394.494847
 21
292.655087
 31
0.0
  0
LINE
  5
96
330
1F
100
AcDbEntity
  8
1
100
AcDbLine
 10
393.88547
 20
277.407994
 30
0.0
 11
394.305399
 21
281.364467
 31
0.0
  0
LINE
  5
97
330
1F
100
AcDbEntity
  8
1
100
AcDbLine
 10
394.305399
 20
281.364467
 30
0.0
 11
394.263308
 21
281.36514
 31
0.0
  0
LINE
  5
98
330
1F
100
AcDbEntity
  8
1
100
AcDbLine
 10
394.28859
 20
281.603341
 30
0.0
 11
394.263308
 21
281.36514
 31
0.0
  0
LINE
  5
99
330
1F
100
AcDbEntity
  8
1
100
AcDbLine
 10
394.28859
 20
281.603341
 30
0.0
 11
394.08304
 21
281.93742
 31
0.0
  0
LINE
  5
9A
330
1F
100
AcDbEntity
  8
1
100
AcDbLine
 10
393.830038
 20
284.939494
 30
0.0
 11
394.223868
 21
284.939494
 31
0.0
  0
LINE
  5
9B
330
1F
100
AcDbEntity
  8
SK1
100
AcDbLine
 10
220.404842
 20
301.407994
 30
0.0
 11
220.404842
 21
276.407994
 31
0.0
  0
LINE
  5
9C
330
1F
100
AcDbEntity
  8
SK1
100
AcDbLine
 10
218.404842
 20
299.407994
 30
0.0
 11
218.404842
 21
278.407994
 31
0.0
  0
LINE
  5
9D
330
1F
100
AcDbEntity
  8
1
100
AcDbLine
 10
386.939475
 20
293.885492
 30
0.0
 11
386.934245
 21
293.864341
 31
0.0
  0
LINE
  5
9E
330
1F
100
AcDbEntity
  8
1
100
AcDbLine
 10
386.939475
 20
293.885492
 30
0.0
 11
386.6595220000001
 21
300.315497
 31
0.0
  0
LINE
  5
9F
330
1F
100
AcDbEntity
  8
1
100
AcDbLine
 10
386.6551970000001
 20
300.27354
 30
0.0
 11
386.934245
 21
293.864341
 31
0.0
  0
LINE
  5
A0
330
1F
100
AcDbEntity
  8
81
100
AcDbLine
 10
395.404842
 20
302.907994
 30
0.0
 11
395.404842
 21
298.907994
 31
0.0
  0
LINE
  5
A1
330
1F
100
AcDbEntity
  8
SK1
100
AcDbLine
 10
220.404842
 20
276.407994
 30
0.0
 11
274.404842
 21
276.407994
 31
0.0
  0
LINE
  5
A2
330
1F
100
AcDbEntity
  8
81
100
AcDbLine
 10
393.404842
 20
300.907994
 30
0.0
 11
397.404842
 21
300.907994
 31
0.0
  0
LINE
  5
A3
330
1F
100
AcDbEntity
  8
80
100
AcDbLine
 10
274.404842
 20
287.90842
 30
0.0
 11
274.404842
 21
289.907567
 31
0.0
  0
LINE
  5
A4
330
1F
100
AcDbEntity
  8
1
100
AcDbLine
 10
274.904842
 20
271.407994
 30
0.0
 11
279.404842
 21
271.407994
 31
0.0
  0
LINE
  5
A5
330
1F
100
AcDbEntity
  8
1
100
AcDbLine
 10
274.404842
 20
305.907994
 30
0.0
 11
274.404842
 21
288.907994
 31
0.0
  0
LINE
  5
A6
330
1F
100
AcDbEntity
  8
1
100
AcDbLine
 10
274.404842
 20
288.907994
 30
0.0
 11
274.404842
 21
271.907994
 31
0.0
  0
LINE
  5
A7
330
1F
100
AcDbEntity
  8
1
100
AcDbLine
 10
393.88547
 20
277.407994
 30
0.0
 11
376.992848
 21
277.407994
 31
0.0
  0
LINE
  5
A8
330
1F
100
AcDbEntity
  8
1
100
AcDbLine
 10
274.904842
 20
271.407994
 30
0.0
 11
274.904842
 21
288.907994
 31
0.0
  0
LINE
  5
A9
330
1F
100
AcDbEntity
  8
1
100
AcDbLine
 10
274.904842
 20
288.907994
 30
0.0
 11
274.904842
 21
306.407994
 31
0.0
  0
LINE
  5
AA
330
1F
100
AcDbEntity
  8
1
100
AcDbLine
 10
392.9147910000001
 20
296.044342
 30
0.0
 11
392.92944
 21
296.1035779999999
 31
0.0
  0
LINE
  5
AB
330
1F
100
AcDbEntity
  8
1
100
AcDbLine
 10
279.404842
 20
271.407994
 30
0.0
 11
280.71855
 21
272.721702
 31
0.0
  0
LINE
  5
AC
330
1F
100
AcDbEntity
  8
1
100
AcDbLine
 10
280.71855
 20
305.094285
 30
0.0
 11
279.404842
 21
306.407994
 31
0.0
  0
LINE
  5
AD
330
1F
100
AcDbEntity
  8
SK1
100
AcDbLine
 10
218.404842
 20
278.407994
 30
0.0
 11
220.404842
 21
276.407994
 31
0.0
  0
LINE
  5
AE
330
1F
100
AcDbEntity
  8
SK1
100
AcDbLine
 10
220.404842
 20
301.407994
 30
0.0
 11
218.404842
 21
299.407994
 31
0.0
  0
LINE
  5
AF
330
1F
100
AcDbEntity
  8
SK1
100
AcDbLine
 10
274.404842
 20
301.407994
 30
0.0
 11
220.404842
 21
301.407994
 31
0.0
  0
LINE
  5
B0
330
1F
100
AcDbEntity
  8
1
100
AcDbLine
 10
274.904842
 20
271.407994
 30
0.0
 11
274.404842
 21
271.907994
 31
0.0
  0
LINE
  5
B1
330
1F
100
AcDbEntity
  8
1
100
AcDbLine
 10
274.404842
 20
305.907994
 30
0.0
 11
274.904842
 21
306.407994
 31
0.0
  0
LINE
  5
B2
330
1F
100
AcDbEntity
  8
1
100
AcDbLine
 10
279.404842
 20
306.407994
 30
0.0
 11
274.904842
 21
306.407994
 31
0.0
  0
LINE
  5
B3
330
1F
100
AcDbEntity
  8
1
100
AcDbLine
 10
387.130278
 20
300.273862
 30
0.0
 11
387.124563
 21
300.405109
 31
0.0
  0
LINE
  5
B4
330
1F
100
AcDbEntity
  8
1
100
AcDbLine
 10
393.167906
 20
284.939494
 30
0.0
 11
393.4733470000001
 21
284.939494
 31
0.0
  0
LINE
  5
B5
330
1F
100
AcDbEntity
  8
1
100
AcDbLine
 10
292.032259
 20
277.407994
 30
0.0
 11
292.032259
 21
277.408016
 31
0.0
  0
LINE
  5
B6
330
1F
100
AcDbEntity
  8
1
100
AcDbLine
 10
388.56093
 20
292.396598
 30
0.0
 11
394.494847
 21
292.655087
 31
0.0
  0
LINE
  5
B7
330
1F
100
AcDbEntity
  8
1
100
AcDbLine
 10
394.684842
 20
289.841801
 30
0.0
 11
394.684842
 21
289.941816
 31
0.0
  0
LINE
  5
B8
330
1F
100
AcDbEntity
  8
1
100
AcDbLine
 10
394.495448
 20
292.59444
 30
0.0
 11
394.494847
 21
292.655087
 31
0.0
  0
LINE
  5
B9
330
1F
100
AcDbEntity
  8
1
100
AcDbLine
 10
386.902913
 20
299.879932
 30
0.0
 11
386.88397
 21
300.315
 31
0.0
  0
LINE
  5
BA
330
1F
100
AcDbEntity
  8
1
100
AcDbLine
 10
394.410119
 20
292.046434
 30
0.0
 11
388.113652
 21
291.772152
 31
0.0
  0
LINE
  5
BB
330
1F
100
AcDbEntity
  8
1
100
AcDbLine
 10
394.410119
 20
292.046434
 30
0.0
 11
393.073709
 21
289.81963
 31
0.0
  0
LINE
  5
BC
330
1F
100
AcDbEntity
  8
1
100
AcDbLine
 10
394.08304
 20
281.93742
 30
0.0
 11
393.947629
 21
281.939587
 31
0.0
  0
LINE
  5
BD
330
1F
100
AcDbEntity
  8
1
100
AcDbLine
 10
393.937329
 20
282.23979
 30
0.0
 11
394.223868
 21
284.939494
 31
0.0
  0
LINE
  5
BE
330
1F
100
AcDbEntity
  8
1
100
AcDbLine
 10
394.223868
 20
284.939494
 30
0.0
 11
394.223868
 21
288.980392
 31
0.0
  0
LINE
  5
BF
330
1F
100
AcDbEntity
  8
1
100
AcDbLine
 10
389.969824
 20
296.087292
 30
0.0
 11
389.968046
 21
296.078486
 31
0.0
  0
LINE
  5
C0
330
1F
100
AcDbEntity
  8
1
100
AcDbLine
 10
391.82843
 20
297.19669
 30
0.0
 11
391.803608
 21
297.096323
 31
0.0
  0
LINE
  5
C5
330
1F
100
AcDbEntity
  8
80
100
AcDbLine
 10
275.404416
 20
288.907994
 30
0.0
 11
273.405268
 21
288.907994
 31
0.0
  0
LINE
  5
C6
330
1F
100
AcDbEntity
  8
1
100
AcDbLine
 10
388.378462
 20
299.043763
 30
0.0
 11
393.372671
 21
299.261318
 31
0.0
  0
LINE
  5
C8
330
1F
100
AcDbEntity
  8
1
100
AcDbLine
 10
388.602681
 20
294.060953
 30
0.0
 11
388.378462
 21
299.043763
 31
0.0
  0
LINE
  5
C9
330
1F
100
AcDbEntity
  8
1
100
AcDbLine
 10
393.59689
 20
294.278507
 30
0.0
 11
388.602681
 21
294.060953
 31
0.0
  0
LINE
  5
CA
330
1F
100
AcDbEntity
  8
1
100
AcDbLine
 10
393.372671
 20
299.261318
 30
0.0
 11
393.59689
 21
294.278507
 31
0.0
  0
LINE
  5
CB
330
1F
100
AcDbEntity
  8
1
100
AcDbLine
 10
394.810691
 20
300.03347
 30
0.0
 11
395.0977
 21
293.655297
 31
0.0
  0
LINE
  5
CC
330
1F
100
AcDbEntity
  8
1
100
AcDbLine
 10
387.615946
 20
300.487329
 30
0.0
 11
394.00871
 21
300.765806
 31
0.0
  0
LINE
  5
CD
330
1F
100
AcDbEntity
  8
1
100
AcDbLine
 10
387.169892
 20
293.3099509999999
 30
0.0
 11
386.882883
 21
299.688125
 31
0.0
  0
LINE
  5
CE
330
1F
100
AcDbEntity
  8
1
100
AcDbLine
 10
394.364636
 20
292.856092
 30
0.0
 11
387.971872
 21
292.577615
 31
0.0
  0
LINE
  5
CF
330
1F
100
AcDbEntity
  8
1
100
AcDbLine
 10
395.3232220000001
 20
283.317809
 30
0.0
 11
394.715638
 21
282.30662
 31
0.0
  0
LINE
  5
D0
330
1F
100
AcDbEntity
  8
1
100
AcDbLine
 10
394.801122
 20
283.467519
 30
0.0
 11
395.3232220000001
 21
283.317809
 31
0.0
  0
LINE
  5
D1
330
1F
100
AcDbEntity
  8
1
100
AcDbLine
 10
394.877836
 20
287.862412
 30
0.0
 11
395.404842
 21
287.99381
 31
0.0
  0
LINE
  5
D2
330
1F
100
AcDbEntity
  8
1
100
AcDbLine
 10
394.819673
 20
289.049483
 30
0.0
 11
395.404842
 21
287.99381
 31
0.0
  0
LINE
  5
D3
330
1F
100
AcDbEntity
  8
1
100
AcDbLine
 10
394.428971
 20
288.672186
 30
0.0
 11
394.819673
 21
289.049483
 31
0.0
  0
LINE
  5
D4
330
1F
100
AcDbEntity
  8
1
100
AcDbLine
 10
394.413585
 20
289.2934850000001
 30
0.0
 11
394.819673
 21
289.049483
 31
0.0
  0
LINE
  5
D5
330
1F
100
AcDbEntity
  8
1
100
AcDbLine
 10
394.338341
 20
282.6973220000001
 30
0.0
 11
394.715638
 21
282.30662
 31
0.0
  0
LINE
  5
D6
330
1F
100
AcDbEntity
  8
1
100
AcDbLine
 10
394.715638
 20
282.30662
 30
0.0
 11
394.050531
 21
281.937945
 31
0.0
  0
LINE
  5
D7
330
1F
100
AcDbEntity
  8
1
100
AcDbLine
 10
394.801122
 20
283.467519
 30
0.0
 11
394.338341
 21
282.6973220000001
 31
0.0
  0
LINE
  5
D8
330
1F
100
AcDbEntity
  8
1
100
AcDbLine
 10
394.428971
 20
288.672186
 30
0.0
 11
394.877836
 21
287.862412
 31
0.0
  0
LINE
  5
D9
330
1F
100
AcDbEntity
  8
1
100
AcDbLine
 10
394.338341
 20
282.6973220000001
 30
0.0
 11
394.020793
 21
283.026152
 31
0.0
  0
LINE
  5
DA
330
1F
100
AcDbEntity
  8
1
100
AcDbLine
 10
394.338341
 20
282.6973220000001
 30
0.0
 11
393.963846
 21
282.489736
 31
0.0
  0
LINE
  5
DB
330
1F
100
AcDbEntity
  8
1
100
AcDbLine
 10
394.877836
 20
287.862412
 30
0.0
 11
394.291699
 21
287.716272
 31
0.0
  0
LINE
  5
DC
330
1F
100
AcDbEntity
  8
1
100
AcDbLine
 10
394.801122
 20
283.467519
 30
0.0
 11
394.220443
 21
283.634026
 31
0.0
  0
LINE
  5
DD
330
1F
100
AcDbEntity
  8
1
100
AcDbLine
 10
394.877836
 20
287.862412
 30
0.0
 11
394.801122
 21
283.467519
 31
0.0
  0
LINE
  5
DE
330
1F
100
AcDbEntity
  8
1
100
AcDbLine
 10
394.05632
 20
283.360879
 30
0.0
 11
394.220443
 21
283.634026
 31
0.0
  0
LINE
  5
DF
330
1F
100
AcDbEntity
  8
1
100
AcDbLine
 10
394.220443
 20
283.634026
 30
0.0
 11
394.291699
 21
287.716272
 31
0.0
  0
LINE
  5
E0
330
1F
100
AcDbEntity
  8
1
100
AcDbLine
 10
394.291699
 20
287.716272
 30
0.0
 11
394.223867
 21
287.838646
 31
0.0
  0
LINE
  5
E1
330
1F
100
AcDbEntity
  8
1
100
AcDbLine
 10
394.428971
 20
288.672186
 30
0.0
 11
394.223861
 21
288.474115
 31
0.0
  0
LINE
  5
E2
330
1F
100
AcDbEntity
  8
1
100
AcDbLine
 10
394.223857
 20
288.795431
 30
0.0
 11
394.428971
 21
288.672186
 31
0.0
  0
LINE
  5
E3
330
1F
100
AcDbEntity
  8
1
100
AcDbLine
 10
395.404842
 20
287.99381
 30
0.0
 11
395.3232220000001
 21
283.317809
 31
0.0
  0
LINE
  5
E4
330
1F
100
AcDbEntity
  8
1
100
AcDbLine
 10
387.148937
 20
300.295972
 30
0.0
 11
387.14689
 21
300.34299
 31
0.0
  0
LINE
  5
E5
330
1F
100
AcDbEntity
  8
1
100
AcDbLine
 10
292.032259
 20
277.407994
 30
0.0
 11
292.095923
 21
277.407994
 31
0.0
  0
LINE
  5
E6
330
1F
100
AcDbEntity
  8
1
100
AcDbLine
 10
387.087921
 20
300.407994
 30
0.0
 11
376.963763
 21
300.407994
 31
0.0
  0
LINE
  5
E7
330
1F
100
AcDbEntity
  8
1
100
AcDbLine
 10
299.647168
 20
300.407994
 30
0.0
 11
292.032259
 21
300.407994
 31
0.0
  0
LINE
  5
E8
330
1F
100
AcDbEntity
  8
1
100
AcDbLine
 10
389.94323
 20
295.978132
 30
0.0
 11
389.968051
 21
296.0785
 31
0.0
  0
LINE
  5
E9
330
1F
100
AcDbEntity
  8
1
100
AcDbLine
 10
391.507268
 20
295.74332
 30
0.0
 11
391.482427
 21
295.64287
 31
0.0
  0
LINE
  5
EA
330
1F
100
AcDbEntity
  8
1
100
AcDbLine
 10
390.264411
 20
297.431585
 30
0.0
 11
390.289253
 21
297.532034
 31
0.0
  0
LINE
  5
11B
330
1F
100
AcDbEntity
  8
NOCUT
100
AcDbLine
 10
274.404842
 20
301.407994
 30
0.0
 11
274.404842
 21
305.907994
 31
0.0
  0
LINE
  5
11C
330
1F
100
AcDbEntity
  8
NOCUT
100
AcDbLine
 10
274.404842
 20
305.907994
 30
0.0
 11
274.904842
 21
306.407994
 31
0.0
  0
LINE
  5
11D
330
1F
100
AcDbEntity
  8
NOCUT
100
AcDbLine
 10
279.404842
 20
306.407994
 30
0.0
 11
274.904842
 21
306.407994
 31
0.0
  0
LINE
  5
11E
330
1F
100
AcDbEntity
  8
NOCUT
100
AcDbLine
 10
218.404842
 20
299.407994
 30
0.0
 11
218.404842
 21
288.907994
 31
0.0
  0
LINE
  5
11F
330
1F
100
AcDbEntity
  8
NOCUT
100
AcDbLine
 10
274.404842
 20
301.407994
 30
0.0
 11
220.404842
 21
301.407994
 31
0.0
  0
LINE
  5
120
330
1F
100
AcDbEntity
  8
NOCUT
100
AcDbLine
 10
279.404842
 20
306.407994
 30
0.0
 11
280.71855
 21
305.094285
 31
0.0
  0
LINE
  5
121
330
1F
100
AcDbEntity
  8
NOCUT
100
AcDbLine
 10
292.032259
 20
300.407994
 30
0.0
 11
394.36748
 21
300.407994
 31
0.0
  0
LINE
  5
122
330
1F
100
AcDbEntity
  8
NOCUT
100
AcDbLine
 10
394.36748
 20
300.407994
 30
0.0
 11
394.684842
 21
293.192924
 31
0.0
  0
LINE
  5
123
330
1F
100
AcDbEntity
  8
NOCUT
100
AcDbLine
 10
394.684842
 20
293.192924
 30
0.0
 11
394.684842
 21
288.907994
 31
0.0
  0
LINE
  5
124
330
1F
100
AcDbEntity
  8
NOCUT
100
AcDbLine
 10
394.684842
 20
288.907994
 30
0.0
 11
218.404842
 21
288.907994
 31
0.0
  0
LINE
  5
125
330
1F
100
AcDbEntity
  8
NOCUT
100
AcDbLine
 10
218.404842
 20
299.407994
 30
0.0
 11
220.404842
 21
301.407994
 31
0.0
  0
ARC
  5
12E
330
1F
100
AcDbEntity
  8
1
100
AcDbCircle
 10
391.278336
 20
285.852145
 30
0.0
 40
1.25
100
AcDbArc
 50
75.0
 51
345.0
  0
ARC
  5
12F
330
1F
100
AcDbEntity
  8
1
100
AcDbCircle
 10
292.032259
 20
261.407994
 30
0.0
 40
16.0
100
AcDbArc
 50
91.965233
 51
135.0
  0
ARC
  5
130
330
1F
100
AcDbEntity
  8
1
100
AcDbCircle
 10
292.032259
 20
316.407994
 30
0.0
 40
16.0
100
AcDbArc
 50
225.0
 51
270.0
  0
CIRCLE
  5
131
330
1F
100
AcDbEntity
  8
1
100
AcDbCircle
 10
391.278336
 20
285.852145
 30
0.0
 40
0.8499999999999991
  0
ARC
  5
140
330
1F
100
AcDbEntity
  8
NOCUT
100
AcDbCircle
 10
292.032259
 20
316.407994
 30
0.0
 40
16.0
100
AcDbArc
 50
225.0
 51
270.0
  0
ELLIPSE
  5
141
330
1F
100
AcDbEntity
  8
1
100
AcDbEllipse
 10
387.548154
 20
304.373845
 30
0.0
 11
-12.23151113407117
 21
3.02491906951133
 31
0.0
210
0.0
220
0.0
230
1.0
 40
0.9973589999999999
 41
1.453713734894351
 42
1.856921512808041
  0
ELLIPSE
  5
142
330
1F
100
AcDbEntity
  8
1
100
AcDbEllipse
 10
394.26603
 20
288.979656
 30
0.0
 11
0.0001054973293688
 21
-0.300046600599879
 31
0.0
210
0.0
220
0.0
230
1.0
 40
0.140519
 41
3.139090475970028
 42
4.709886802762997
  0
ELLIPSE
  5
143
330
1F
100
AcDbEntity
  8
1
100
AcDbEllipse
 10
316.168787
 20
288.907994
 30
0.0
 11
46.10191305036731
 21
-8.54246222404738
 31
0.0
210
0.0
220
0.0
230
1.0
 40
0.167002
 41
4.231095663371486
 42
4.375849171673879
  0
ELLIPSE
  5
144
330
1F
100
AcDbEntity
  8
1
100
AcDbEllipse
 10
387.814562
 20
293.219748
 30
0.0
 11
-1.067830337101449
 21
0.2640802362271795
 31
0.0
210
0.0
220
0.0
230
0.9999999999999998
 40
0.9973589999999999
 41
2.564998284414834
 42
2.796152521219772
  0
ELLIPSE
  5
145
330
1F
100
AcDbEntity
  8
1
100
AcDbEllipse
 10
394.42554
 20
292.556523
 30
0.0
 11
0.0003720974354507
 21
0.5004807490615921
 31
0.0
210
0.0
220
0.0
230
0.9999999999999998
 40
0.140029
 41
3.217531031709223
 42
4.788327358502121
  0
ELLIPSE
  5
146
330
1F
100
AcDbEntity
  8
1
100
AcDbEllipse
 10
395.1060470000001
 20
288.907994
 30
0.0
 11
1.244745848335415
 21
11.49869940993715
 31
0.0
210
0.0
220
0.0
230
1.0
 40
0.138944
 41
1.938167500186168
 42
3.156632395651049
  0
ELLIPSE
  5
147
330
1F
100
AcDbEntity
  8
1
100
AcDbEllipse
 10
394.684842
 20
288.907994
 30
0.0
 11
0.0
 21
11.50000000038086
 31
0.0
210
0.0
220
0.0
230
1.0
 40
0.140541
 41
1.491440314818329
 42
1.923127758112313
  0
ELLIPSE
  5
148
330
1F
100
AcDbEntity
  8
1
100
AcDbEllipse
 10
387.868264
 20
293.436898
 30
0.0
 11
-1.067830337101449
 21
0.2640802362271794
 31
0.0
210
0.0
220
0.0
230
0.9999999999999998
 40
0.9973589999999999
 41
0.112038009073145
 42
1.857487186952521
  0
ELLIPSE
  5
149
330
1F
100
AcDbEntity
  8
1
100
AcDbEllipse
 10
387.868264
 20
293.436898
 30
0.0
 11
-1.067830337101449
 21
0.2640802362271794
 31
0.0
210
0.0
220
0.0
230
0.9999999999999998
 40
0.9973589999999999
 41
1.85748718695252
 42
2.52330855074796
  0
ELLIPSE
  5
14A
330
1F
100
AcDbEntity
  8
1
100
AcDbEllipse
 10
387.814562
 20
293.219748
 30
0.0
 11
-1.067830337101449
 21
0.2640802362271795
 31
0.0
210
0.0
220
0.0
230
0.9999999999999998
 40
0.9973589999999999
 41
5.620155368642788
 42
5.87430052331132
  0
ELLIPSE
  5
14B
330
1F
100
AcDbEntity
  8
1
100
AcDbEllipse
 10
387.809331
 20
293.198597
 30
0.0
 11
1.06783033710145
 21
-0.2640802362271795
 31
0.0
210
0.0
220
0.0
230
0.9999999999999998
 40
0.9973589999999999
 41
2.732707869721541
 42
4.327726013559048
  0
ELLIPSE
  5
14C
330
1F
100
AcDbEntity
  8
1
100
AcDbEllipse
 10
387.169648
 20
288.908007
 30
0.0
 11
0.4844436725933827
 21
-11.49998267169296
 31
0.0
210
0.0
220
0.0
230
1.0
 40
0.020422
 41
3.267649369096349
 42
3.293797468959701
  0
ELLIPSE
  5
14D
330
1F
100
AcDbEntity
  8
1
100
AcDbEllipse
 10
332.308186
 20
288.906208
 30
0.0
 11
659.5114771469897
 21
-0.8110773723755041
 31
0.0
210
0.0
220
0.0
230
0.9999999999999998
 40
0.017396
 41
1.488319221637983
 42
1.492016435246846
  0
ELLIPSE
  5
14E
330
1F
100
AcDbEntity
  8
1
100
AcDbEllipse
 10
390.65215
 20
297.234638
 30
0.0
 11
-0.5397109347785422
 21
0.13347344254855
 31
0.0
210
0.0
220
0.0
230
1.0
 40
0.9973590000000001
 41
4.80081779518436
 42
5.720941368354252
  0
ELLIPSE
  5
14F
330
1F
100
AcDbEntity
  8
1
100
AcDbEllipse
 10
390.721824
 20
297.68414
 30
0.0
 11
-0.0969839493716004
 21
0.0239846568976658
 31
0.0
210
0.0
220
0.0
230
1.0
 40
0.9973589999999999
 41
3.428283867175212
 42
4.800817795184522
  0
ELLIPSE
  5
150
330
1F
100
AcDbEntity
  8
1
100
AcDbEllipse
 10
390.921404
 20
297.692834
 30
0.0
 11
-0.0969839493716004
 21
0.0239846568976658
 31
0.0
210
0.0
220
0.0
230
1.0
 40
0.9973589999999999
 41
0.2866912135854603
 42
1.135626365996355
  0
ELLIPSE
  5
151
330
1F
100
AcDbEntity
  8
1
100
AcDbEllipse
 10
391.207064
 20
298.047081
 30
0.0
 11
-0.539710934778542
 21
0.13347344254855
 31
0.0
210
0.0
220
0.0
230
1.0
 40
0.9973590000000001
 41
1.13562636599625
 42
2.055749939166128
  0
ELLIPSE
  5
152
330
1F
100
AcDbEntity
  8
1
100
AcDbEllipse
 10
391.31684
 20
297.605396
 30
0.0
 11
-0.0969839493716005
 21
0.0239846568976658
 31
0.0
210
0.0
220
0.0
230
0.9999999999999998
 40
0.9973589999999999
 41
2.05574993916624
 42
2.904685091576948
  0
ELLIPSE
  5
153
330
1F
100
AcDbEntity
  8
1
100
AcDbEllipse
 10
391.494162
 20
297.513363
 30
0.0
 11
-0.0969839493716006
 21
0.0239846568976658
 31
0.0
210
0.0
220
0.0
230
1.0
 40
0.9973589999999999
 41
4.67374381715742
 42
6.046277745166709
  0
ELLIPSE
  5
154
330
1F
100
AcDbEntity
  8
1
100
AcDbEllipse
 10
391.367939
 20
297.076365
 30
0.0
 11
-0.5397109347785422
 21
0.13347344254855
 31
0.0
210
0.0
220
0.0
230
1.0
 40
0.9973590000000001
 41
3.753620243987779
 42
4.673743817157597
  0
ELLIPSE
  5
155
330
1F
100
AcDbEntity
  8
1
100
AcDbEllipse
 10
391.793042
 20
297.240438
 30
0.0
 11
-0.0969839493716004
 21
0.0239846568976658
 31
0.0
210
0.0
220
0.0
230
1.0
 40
0.9973589999999999
 41
2.381086315978688
 42
3.753620243987744
  0
ELLIPSE
  5
156
330
1F
100
AcDbEntity
  8
1
100
AcDbEllipse
 10
391.900592
 20
297.072338
 30
0.0
 11
-0.0969839493716004
 21
0.0239846568976658
 31
0.0
210
0.0
220
0.0
230
1.0
 40
0.9973589999999999
 41
5.522678969568527
 42
6.371614121979378
  0
ELLIPSE
  5
157
330
1F
100
AcDbEntity
  8
1
100
AcDbEllipse
 10
392.351233
 20
297.002273
 30
0.0
 11
-0.539710934778542
 21
0.13347344254855
 31
0.0
210
0.0
220
0.0
230
1.0
 40
0.9973590000000001
 41
0.088428814799682
 42
1.008552387969526
  0
ELLIPSE
  5
158
330
1F
100
AcDbEntity
  8
1
100
AcDbEllipse
 10
392.022832
 20
296.687055
 30
0.0
 11
-0.0969839493716005
 21
0.0239846568976658
 31
0.0
210
0.0
220
0.0
230
0.9999999999999998
 40
0.9973589999999999
 41
1.008552387969585
 42
1.857487540380318
  0
ELLIPSE
  5
159
330
1F
100
AcDbEntity
  8
1
100
AcDbEllipse
 10
392.031792
 20
296.48793
 30
0.0
 11
-0.0969839493716006
 21
0.0239846568976658
 31
0.0
210
0.0
220
0.0
230
1.0
 40
0.9973589999999999
 41
3.626546265961018
 42
4.999080193970131
  0
ELLIPSE
  5
15A
330
1F
100
AcDbEntity
  8
1
100
AcDbEllipse
 10
391.589208
 20
296.3789549999999
 30
0.0
 11
-0.5397109347785422
 21
0.13347344254855
 31
0.0
210
0.0
220
0.0
230
1.0
 40
0.9973590000000001
 41
2.706422692791143
 42
3.626546265961045
  0
ELLIPSE
  5
15B
330
1F
100
AcDbEntity
  8
1
100
AcDbEllipse
 10
391.944637
 20
296.093525
 30
0.0
 11
-0.0969839493716004
 21
0.0239846568976658
 31
0.0
210
0.0
220
0.0
230
1.0
 40
0.9973589999999999
 41
1.333888764781952
 42
2.706422692791063
  0
ELLIPSE
  5
15C
330
1F
100
AcDbEntity
  8
1
100
AcDbEllipse
 10
391.852607
 20
295.916732
 30
0.0
 11
-0.0969839493716004
 21
0.0239846568976658
 31
0.0
210
0.0
220
0.0
230
1.0
 40
0.9973589999999999
 41
4.475481418372004
 42
5.324416570782776
  0
ELLIPSE
  5
15D
330
1F
100
AcDbEntity
  8
1
100
AcDbEllipse
 10
392.017588
 20
295.492419
 30
0.0
 11
-0.539710934778542
 21
0.13347344254855
 31
0.0
210
0.0
220
0.0
230
1.0
 40
0.9973590000000001
 41
5.324416570782666
 42
6.244540143952519
  0
ELLIPSE
  5
15E
330
1F
100
AcDbEntity
  8
1
100
AcDbEllipse
 10
391.579411
 20
295.618886
 30
0.0
 11
-0.0969839493716005
 21
0.0239846568976658
 31
0.0
210
0.0
220
0.0
230
0.9999999999999998
 40
0.9973589999999999
 41
6.244540143952442
 42
7.093475296363218
  0
ELLIPSE
  5
15F
330
1F
100
AcDbEntity
  8
1
100
AcDbEllipse
 10
391.411049
 20
295.511794
 30
0.0
 11
-0.0969839493716006
 21
0.0239846568976658
 31
0.0
210
0.0
220
0.0
230
1.0
 40
0.9973589999999999
 41
2.579348714764535
 42
3.951882642773571
  0
ELLIPSE
  5
160
330
1F
100
AcDbEntity
  8
1
100
AcDbEllipse
 10
391.094688
 20
295.839817
 30
0.0
 11
-0.5397109347785422
 21
0.13347344254855
 31
0.0
210
0.0
220
0.0
230
1.0
 40
0.9973590000000001
 41
1.659225141594566
 42
2.579348714764451
  0
ELLIPSE
  5
161
330
1F
100
AcDbEntity
  8
1
100
AcDbEllipse
 10
391.025014
 20
295.390315
 30
0.0
 11
-0.0969839493716004
 21
0.0239846568976658
 31
0.0
210
0.0
220
0.0
230
1.0
 40
0.9973589999999999
 41
0.2866912135855006
 42
1.659225141594721
  0
ELLIPSE
  5
162
330
1F
100
AcDbEntity
  8
1
100
AcDbEllipse
 10
390.825434
 20
295.381621
 30
0.0
 11
-0.0969839493716004
 21
0.0239846568976658
 31
0.0
210
0.0
220
0.0
230
1.0
 40
0.9973589999999999
 41
3.428283867175144
 42
4.277219019586118
  0
ELLIPSE
  5
163
330
1F
100
AcDbEntity
  8
1
100
AcDbEllipse
 10
390.539774
 20
295.027374
 30
0.0
 11
-0.539710934778542
 21
0.13347344254855
 31
0.0
210
0.0
220
0.0
230
1.0
 40
0.9973590000000001
 41
4.277219019586049
 42
5.197342592755908
  0
ELLIPSE
  5
164
330
1F
100
AcDbEntity
  8
1
100
AcDbEllipse
 10
390.873419
 20
296.5372270000001
 30
0.0
 11
1.456132277865614
 21
-0.360109413037063
 31
0.0
210
0.0
220
0.0
230
1.0
 40
0.9973589999999999
 41
0.0
 42
6.283185307179585
  0
ELLIPSE
  5
165
330
1F
100
AcDbEntity
  8
1
100
AcDbEllipse
 10
387.603414
 20
288.907994
 30
0.0
 11
0.4844442558520958
 21
-11.49999562840521
 31
0.0
210
0.0
220
0.0
230
1.0
 40
0.020422
 41
3.034357684238986
 42
3.118332340143508
  0
ELLIPSE
  5
166
330
1F
100
AcDbEntity
  8
1
100
AcDbEllipse
 10
389.665887
 20
288.907994
 30
0.0
 11
19.7318682539581
 21
-11.34544793046196
 31
0.0
210
0.0
220
0.0
230
1.0
 40
0.095229
 41
4.228662030987501
 42
4.334521622878368
  0
ELLIPSE
  5
167
330
1F
100
AcDbEntity
  8
1
100
AcDbEllipse
 10
387.809331
 20
293.198597
 30
0.0
 11
1.06783033710145
 21
-0.2640802362271795
 31
0.0
210
0.0
220
0.0
230
0.9999999999999998
 40
0.9973589999999999
 41
5.616764553213001
 42
5.70659093800463
  0
ELLIPSE
  5
168
330
1F
100
AcDbEntity
  8
1
100
AcDbEllipse
 10
387.474518
 20
288.907994
 30
0.0
 11
0.3945249135830111
 21
-11.49986408771173
 31
0.0
210
0.0
220
0.0
230
1.0
 40
0.141717
 41
3.114330817605627
 42
3.263988672019278
  0
ELLIPSE
  5
169
330
1F
100
AcDbEntity
  8
1
100
AcDbEllipse
 10
320.131958
 20
288.907993
 30
0.0
 11
244.4929669993687
 21
11.21494305957467
 31
0.0
210
0.0
220
0.0
230
1.0
 40
0.010408
 41
4.993996150221157
 42
5.014863309341731
  0
ELLIPSE
  5
16A
330
1F
100
AcDbEntity
  8
1
100
AcDbEllipse
 10
393.97942
 20
282.2391169999999
 30
0.0
 11
0.0323262014619756
 21
0.2994966855088152
 31
0.0
210
0.0
220
0.0
230
1.0
 40
0.139171
 41
1.583568179259499
 42
3.154364506041681
  0
ELLIPSE
  5
16B
330
1F
100
AcDbEntity
  8
1
100
AcDbEllipse
 10
390.890855
 20
296.607731
 30
0.0
 11
-2.03858518901186
 21
0.5041531782518884
 31
0.0
210
0.0
220
0.0
230
0.9999999999999998
 40
0.9973589999999999
 41
3.141613722820886
 42
6.283108437511083
  0
ELLIPSE
  5
16C
330
1F
100
AcDbEntity
  8
1
100
AcDbEllipse
 10
390.876206
 20
296.548495
 30
0.0
 11
2.03858518901186
 21
-0.5041531782518883
 31
0.0
210
0.0
220
0.0
230
0.9999999999999998
 40
0.9973589999999999
 41
0.0
 42
6.283185307179585
  0
ELLIPSE
  5
16D
330
1F
100
AcDbEntity
  8
1
100
AcDbEllipse
 10
390.429998
 20
295.469058
 30
0.0
 11
-0.0969839493716005
 21
0.0239846568976658
 31
0.0
210
0.0
220
0.0
230
0.9999999999999998
 40
0.9973589999999999
 41
5.197342592755848
 42
6.046277745166744
  0
ELLIPSE
  5
16E
330
1F
100
AcDbEntity
  8
1
100
AcDbEllipse
 10
390.252676
 20
295.561091
 30
0.0
 11
-0.0969839493716006
 21
0.0239846568976658
 31
0.0
210
0.0
220
0.0
230
1.0
 40
0.9973589999999999
 41
1.532151163567914
 42
2.904685091576912
  0
ELLIPSE
  5
16F
330
1F
100
AcDbEntity
  8
1
100
AcDbEllipse
 10
390.3788990000001
 20
295.998089
 30
0.0
 11
-0.5397109347785422
 21
0.13347344254855
 31
0.0
210
0.0
220
0.0
230
1.0
 40
0.9973590000000001
 41
0.612027590397986
 42
1.532151163567804
  0
ELLIPSE
  5
170
330
1F
100
AcDbEntity
  8
1
100
AcDbEllipse
 10
389.953796
 20
295.834017
 30
0.0
 11
-0.0969839493716004
 21
0.0239846568976658
 31
0.0
210
0.0
220
0.0
230
1.0
 40
0.9973589999999999
 41
5.522678969568435
 42
6.895212897577713
  0
ELLIPSE
  5
171
330
1F
100
AcDbEntity
  8
1
100
AcDbEllipse
 10
389.846246
 20
296.002117
 30
0.0
 11
-0.0969839493716004
 21
0.0239846568976658
 31
0.0
210
0.0
220
0.0
230
1.0
 40
0.9973589999999999
 41
2.381086315978586
 42
3.230021468389467
  0
ELLIPSE
  5
172
330
1F
100
AcDbEntity
  8
1
100
AcDbEllipse
 10
389.395605
 20
296.072182
 30
0.0
 11
-0.539710934778542
 21
0.13347344254855
 31
0.0
210
0.0
220
0.0
230
1.0
 40
0.9973590000000001
 41
3.230021468389461
 42
4.150145041559319
  0
ELLIPSE
  5
173
330
1F
100
AcDbEntity
  8
1
100
AcDbEllipse
 10
389.7240060000001
 20
296.3874
 30
0.0
 11
-0.0969839493716005
 21
0.0239846568976658
 31
0.0
210
0.0
220
0.0
230
0.9999999999999998
 40
0.9973589999999999
 41
4.150145041559221
 42
4.999080193970131
  0
ELLIPSE
  5
174
330
1F
100
AcDbEntity
  8
1
100
AcDbEllipse
 10
389.715046
 20
296.586525
 30
0.0
 11
-0.0969839493716006
 21
0.0239846568976658
 31
0.0
210
0.0
220
0.0
230
1.0
 40
0.9973589999999999
 41
0.4849536123710963
 42
1.857487540380201
  0
ELLIPSE
  5
175
330
1F
100
AcDbEntity
  8
1
100
AcDbEllipse
 10
390.15763
 20
296.6955
 30
0.0
 11
-0.5397109347785422
 21
0.13347344254855
 31
0.0
210
0.0
220
0.0
230
1.0
 40
0.9973590000000001
 41
5.848015346380969
 42
6.768138919550803
  0
ELLIPSE
  5
176
330
1F
100
AcDbEntity
  8
1
100
AcDbEllipse
 10
389.802201
 20
296.980929
 30
0.0
 11
-0.0969839493716004
 21
0.0239846568976658
 31
0.0
210
0.0
220
0.0
230
1.0
 40
0.9973589999999999
 41
4.475481418372021
 42
5.848015346380982
  0
ELLIPSE
  5
177
330
1F
100
AcDbEntity
  8
1
100
AcDbEllipse
 10
389.894231
 20
297.157723
 30
0.0
 11
-0.0969839493716004
 21
0.0239846568976658
 31
0.0
210
0.0
220
0.0
230
1.0
 40
0.9973589999999999
 41
1.333888764781918
 42
2.182823917192909
  0
ELLIPSE
  5
178
330
1F
100
AcDbEntity
  8
1
100
AcDbEllipse
 10
389.72925
 20
297.582036
 30
0.0
 11
-0.539710934778542
 21
0.13347344254855
 31
0.0
210
0.0
220
0.0
230
1.0
 40
0.9973590000000001
 41
2.182823917192858
 42
3.102947490362713
  0
ELLIPSE
  5
179
330
1F
100
AcDbEntity
  8
1
100
AcDbEllipse
 10
390.167427
 20
297.455569
 30
0.0
 11
-0.0969839493716005
 21
0.0239846568976658
 31
0.0
210
0.0
220
0.0
230
0.9999999999999998
 40
0.9973589999999999
 41
3.102947490362731
 42
3.95188264277342
  0
ELLIPSE
  5
17A
330
1F
100
AcDbEntity
  8
1
100
AcDbEllipse
 10
390.335788
 20
297.562661
 30
0.0
 11
-0.0969839493716006
 21
0.0239846568976658
 31
0.0
210
0.0
220
0.0
230
1.0
 40
0.9973589999999999
 41
5.720941368354267
 42
7.093475296363312
  0
ELLIPSE
  5
17B
330
1F
100
AcDbEntity
  8
1
100
AcDbEllipse
 10
391.010343
 20
296.75279
 30
0.0
 11
2.033978351583129
 21
-0.5030138823598631
 31
0.0
210
0.0
220
0.0
230
1.0
 40
0.9973589999999999
 41
2.351895531162235
 42
2.715829348081399
  0
ELLIPSE
  5
17C
330
1F
100
AcDbEntity
  8
1
100
AcDbEllipse
 10
391.010343
 20
296.75279
 30
0.0
 11
2.033978351583129
 21
-0.5030138823598631
 31
0.0
210
0.0
220
0.0
230
1.0
 40
0.9973589999999999
 41
5.906313044786994
 42
6.283185307179585
  0
ELLIPSE
  5
17D
330
1F
100
AcDbEntity
  8
1
100
AcDbEllipse
 10
391.010343
 20
296.75279
 30
0.0
 11
2.033978351583129
 21
-0.5030138823598631
 31
0.0
210
0.0
220
0.0
230
1.0
 40
0.9973589999999999
 41
0.0
 42
0.7897386948597403
  0
ELLIPSE
  5
17E
330
1F
100
AcDbEntity
  8
1
100
AcDbEllipse
 10
388.085311
 20
293.453132
 30
0.0
 11
0.9538123854910432
 21
1.042195466425815
 31
0.0
210
0.0
220
0.0
230
1.0
 40
0.024613
 41
0.9708236129824763
 42
1.525634645948045
  0
ELLIPSE
  5
17F
330
1F
100
AcDbEntity
  8
1
100
AcDbEllipse
 10
390.990553
 20
296.672768
 30
0.0
 11
2.091721596912266
 21
-0.5172941002345816
 31
0.0
210
0.0
220
0.0
230
1.0
 40
0.9973589999999997
 41
0.0
 42
6.283185307179585
  0
ELLIPSE
  5
180
330
1F
100
AcDbEntity
  8
1
100
AcDbEllipse
 10
387.813845
 20
299.485886
 30
0.0
 11
1.042942259927156
 21
-0.9544958473903633
 31
0.0
210
0.0
220
0.0
230
1.0
 40
0.045128
 41
1.040557921591303
 42
1.595368954608626
  0
ELLIPSE
  5
181
330
1F
100
AcDbEntity
  8
1
100
AcDbEllipse
 10
393.8604
 20
299.749282
 30
0.0
 11
0.9538123854308636
 21
1.042195466359214
 31
0.0
210
0.0
220
0.0
230
0.9999999999999996
 40
0.024613
 41
1.525634645962688
 42
2.08044567896706
  0
ELLIPSE
  5
182
330
1F
100
AcDbEntity
  8
1
100
AcDbEllipse
 10
394.131865
 20
293.716528
 30
0.0
 11
1.042942259830579
 21
-0.9544958472929273
 31
0.0
210
0.0
220
0.0
230
0.9999999999999998
 40
0.045128
 41
1.595368954504234
 42
2.15017998756859
  0
ELLIPSE
  5
183
330
1F
100
AcDbEntity
  8
1
100
AcDbEllipse
 10
390.987676
 20
296.661135
 30
0.0
 11
-2.184198416798423
 21
0.5401641195555948
 31
0.0
210
0.0
220
0.0
230
1.0
 40
0.9973589999999999
 41
0.0
 42
6.283185307179585
  0
ELLIPSE
  5
184
330
1F
100
AcDbEntity
  8
1
100
AcDbEllipse
 10
387.7421240000001
 20
290.64134
 30
0.0
 11
-1.384226115760107
 21
-0.0667707937288573
 31
0.0
210
0.0
220
0.0
230
0.9999999999999998
 40
0.221492
 41
1.868053123669652
 42
4.408930533363466
  0
SPLINE
  5
18A
330
1F
100
AcDbEntity
  8
1
100
AcDbSpline
210
0.0
220
0.0
230
1.0
 70
     8
 71
     3
 72
    20
 73
    16
 74
     0
 42
0.000000001
 43
0.0000000001
 40
0.0
 40
0.0
 40
0.0
 40
0.0
 40
0.1250000000000021
 40
0.1250000000000021
 40
0.2500000000000041
 40
0.2500000000000041
 40
0.3750000000000062
 40
0.3750000000000062
 40
0.5000000000000082
 40
0.5000000000000082
 40
0.6250000000000103
 40
0.6250000000000103
 40
0.7500000000000124
 40
0.7500000000000124
 40
1.0
 40
1.0
 40
1.0
 40
1.0
 10
391.0335009398886
 20
295.3878811038178
 30
0.0
 10
391.0276157712384
 20
295.3888373342533
 30
0.0
 10
391.0219167674433
 20
295.3903114603752
 30
0.0
 10
391.010871503292
 20
295.3942392226283
 30
0.0
 10
391.0054753370343
 20
295.3967246855062
 30
0.0
 10
390.9953266174534
 20
295.4025427376474
 30
0.0
 10
390.9905826745678
 20
295.405855459737
 30
0.0
 10
390.9817235246981
 20
295.4132469964181
 30
0.0
 10
390.977575535305
 20
295.4173670973477
 30
0.0
 10
390.9700997141166
 20
295.426196216112
 30
0.0
 10
390.9667916123956
 20
295.4308656552862
 30
0.0
 10
390.9609908479452
 20
295.4406863579765
 30
0.0
 10
390.9584885965102
 20
295.4458637963033
 30
0.0
 10
390.9523094781354
 20
295.4619700489268
 30
0.0
 10
390.9500444906151
 20
295.4730887044993
 30
0.0
 10
390.9496116631034
 20
295.4845814845313
 30
0.0
  0
SPLINE
  5
18B
330
1F
100
AcDbEntity
  8
1
100
AcDbSpline
210
0.0
220
0.0
230
1.0
 70
     8
 71
     3
 72
    21
 73
    17
 74
     0
 42
0.000000001
 43
0.0000000001
 40
0.0
 40
0.0
 40
0.0
 40
0.0
 40
0.2499999999999608
 40
0.2499999999999608
 40
0.3124999999999685
 40
0.3124999999999685
 40
0.3749999999999762
 40
0.3749999999999762
 40
0.499999999999992
 40
0.6250000000000076
 40
0.6250000000000076
 40
0.6875000000000153
 40
0.6875000000000153
 40
0.7500000000000231
 40
0.7500000000000231
 40
1.0
 40
1.0
 40
1.0
 40
1.0
 10
390.2487754350809
 20
295.5613967469201
 30
0.0
 10
390.2075214039997
 20
295.572998033859
 30
0.0
 10
390.1681807564636
 20
295.5892035903008
 30
0.0
 10
390.1214001342544
 20
295.6152089384613
 30
0.0
 10
390.112146796605
 20
295.6207144989981
 30
0.0
 10
390.0940914634159
 20
295.6321865004904
 30
0.0
 10
390.0852665426958
 20
295.6381641733589
 30
0.0
 10
390.0593889653766
 20
295.6568089632361
 30
0.0
 10
390.0264741770389
 20
295.6835621391617
 30
0.0
 10
389.9967152105988
 20
295.7140763361818
 30
0.0
 10
389.9756189488103
 20
295.7384195931327
 30
0.0
 10
389.9688068029629
 20
295.7467632303155
 30
0.0
 10
389.9557678637841
 20
295.7637174585117
 30
0.0
 10
389.9495186095324
 20
295.7723534078391
 30
0.0
 10
389.9195991491972
 20
295.816313039022
 30
0.0
 10
389.8998571345562
 20
295.8539457030209
 30
0.0
 10
389.8844220907489
 20
295.8941093722887
 30
0.0
  0
SPLINE
  5
18C
330
1F
100
AcDbEntity
  8
1
100
AcDbSpline
210
0.0
220
0.0
230
1.0
 70
     8
 71
     3
 72
    14
 73
    10
 74
     0
 42
0.000000001
 43
0.0000000001
 40
0.0
 40
0.0
 40
0.0
 40
0.0
 40
0.25
 40
0.25
 40
0.5
 40
0.5
 40
0.75
 40
0.75
 40
1.0
 40
1.0
 40
1.0
 40
1.0
 10
390.9128709733506
 20
295.5597466759731
 30
0.0
 10
390.9185291117172
 20
295.555059911069
 30
0.0
 10
390.9236395685991
 20
295.5497579263223
 30
0.0
 10
390.9324826329846
 20
295.5383876682438
 30
0.0
 10
390.9362412492681
 20
295.5323162475014
 30
0.0
 10
390.9424764698155
 20
295.5194225004154
 30
0.0
 10
390.9449297915742
 20
295.5125968545498
 30
0.0
 10
390.9483415065468
 20
295.4988075566594
 30
0.0
 10
390.9493409763297
 20
295.4917689748434
 30
0.0
 10
390.9496116631034
 20
295.4845814845313
 30
0.0
  0
SPLINE
  5
18D
330
1F
100
AcDbEntity
  8
1
100
AcDbSpline
210
0.0
220
0.0
230
1.0
 70
     8
 71
     3
 72
    54
 73
    50
 74
     0
 42
0.000000001
 43
0.0000000001
 40
0.0
 40
0.0
 40
0.0
 40
0.0
 40
0.0624999999999998
 40
0.0624999999999998
 40
0.1249999999999996
 40
0.1249999999999996
 40
0.1562499999999994
 40
0.1562499999999994
 40
0.1874999999999993
 40
0.1874999999999993
 40
0.2499999999999993
 40
0.2499999999999993
 40
0.3124999999999993
 40
0.3124999999999993
 40
0.3749999999999993
 40
0.3749999999999993
 40
0.4062499999999992
 40
0.4062499999999992
 40
0.4218749999999992
 40
0.4218749999999992
 40
0.4374999999999992
 40
0.4374999999999992
 40
0.468749999999999
 40
0.468749999999999
 40
0.499999999999999
 40
0.499999999999999
 40
0.5312499999999988
 40
0.5312499999999988
 40
0.5624999999999987
 40
0.5624999999999987
 40
0.5937499999999986
 40
0.5937499999999986
 40
0.6249999999999984
 40
0.6249999999999984
 40
0.6874999999999983
 40
0.6874999999999983
 40
0.7499999999999979
 40
0.7499999999999979
 40
0.7812499999999982
 40
0.7812499999999982
 40
0.8124999999999982
 40
0.8124999999999982
 40
0.8437499999999984
 40
0.8437499999999984
 40
0.8749999999999984
 40
0.8749999999999984
 40
0.9374999999999992
 40
0.9374999999999992
 40
1.0
 40
1.0
 40
1.0
 40
1.0
 10
299.591318116895
 20
284.4340709215507
 30
0.0
 10
301.2106467525766
 20
284.2091394148523
 30
0.0
 10
302.8295784349783
 20
283.9854804108652
 30
0.0
 10
306.0663722797368
 20
283.539562227468
 30
0.0
 10
307.6842326027871
 20
283.3172890547587
 30
0.0
 10
310.1099623250014
 20
282.9840318863512
 30
0.0
 10
310.9183617529687
 20
282.8729726816968
 30
0.0
 10
312.5347631300514
 20
282.6507980882018
 30
0.0
 10
313.3428051431064
 20
282.5396764941547
 30
0.0
 10
315.7659586132758
 20
282.2061788632133
 30
0.0
 10
317.3800019205462
 20
281.9836349703439
 30
0.0
 10
320.6049321137652
 20
281.5385775477198
 30
0.0
 10
322.2158131263155
 20
281.3160451495269
 30
0.0
 10
325.4342991636803
 20
280.8731725832725
 30
0.0
 10
327.0418983566223
 20
280.6528240260463
 30
0.0
 10
329.4510819773093
 20
280.3272095536966
 30
0.0
 10
330.2536062862966
 20
280.2195308479563
 30
0.0
 10
331.4564796485575
 20
280.0598883483133
 30
0.0
 10
331.8572937777182
 20
280.0069866736058
 30
0.0
 10
332.6586466407995
 20
279.9019139693571
 30
0.0
 10
333.0591862074411
 20
279.8497471391919
 30
0.0
 10
334.2605388446896
 20
279.6949007380445
 30
0.0
 10
335.0610910746614
 20
279.5939066357957
 30
0.0
 10
336.6621507691051
 20
279.3985197914434
 30
0.0
 10
337.4626584051479
 20
279.3041213510402
 30
0.0
 10
339.0641148857707
 20
279.1231110761418
 30
0.0
 10
339.8650626858237
 20
279.0364907078841
 30
0.0
 10
341.4677267683241
 20
278.8715004511616
 30
0.0
 10
342.2694405291476
 20
278.7931204712607
 30
0.0
 10
343.8738577844828
 20
278.6446384267758
 30
0.0
 10
344.6765657851853
 20
278.574535071206
 30
0.0
 10
346.2828186479167
 20
278.4417355539122
 30
0.0
 10
347.0863643169747
 20
278.3790452964428
 30
0.0
 10
349.4981984724497
 20
278.2013687804174
 30
0.0
 10
351.1076717815072
 20
278.0967717200389
 30
0.0
 10
354.3302315345526
 20
277.9130798767334
 30
0.0
 10
355.9433445406805
 20
277.8340381150567
 30
0.0
 10
358.3661745424937
 20
277.7328422409212
 30
0.0
 10
359.1741866858847
 20
277.7020032710715
 30
0.0
 10
360.7906424891843
 20
277.6457359350521
 30
0.0
 10
361.5991509234449
 20
277.6203040262954
 30
0.0
 10
363.2167684411863
 20
277.5744225015849
 30
0.0
 10
364.0258771472679
 20
277.5539721628265
 30
0.0
 10
365.6447249295606
 20
277.5176267281374
 30
0.0
 10
366.454474844593
 20
277.5017374503344
 30
0.0
 10
368.8845203760857
 20
277.4601357435872
 30
0.0
 10
370.5056036092492
 20
277.4404171810332
 30
0.0
 10
373.7487736317722
 20
277.414346383717
 30
0.0
 10
375.3708615816568
 20
277.4079935137005
 30
0.0
 10
376.9928479024293
 20
277.4079935137005
 30
0.0
  0
SPLINE
  5
18E
330
1F
100
AcDbEntity
  8
1
100
AcDbSpline
210
0.0
220
0.0
230
1.0
 70
     8
 71
     3
 72
    62
 73
    58
 74
     0
 42
0.000000001
 43
0.0000000001
 40
0.0
 40
0.0
 40
0.0
 40
0.0
 40
0.0421761754914903
 40
0.0421761754914903
 40
0.1060310971253909
 40
0.1060310971253909
 40
0.1379585579423413
 40
0.1379585579423413
 40
0.1698860187592916
 40
0.1698860187592916
 40
0.2337409403931923
 40
0.2337409403931923
 40
0.2975958620270929
 40
0.2975958620270929
 40
0.3614507836609936
 40
0.3614507836609936
 40
0.393378244477944
 40
0.393378244477944
 40
0.4093419748864191
 40
0.4093419748864191
 40
0.4253057052948942
 40
0.4253057052948942
 40
0.4572331661118442
 40
0.4572331661118442
 40
0.4891606269287946
 40
0.4891606269287946
 40
0.5210880877457449
 40
0.5210880877457449
 40
0.5530155485626952
 40
0.5530155485626952
 40
0.5849430093796455
 40
0.5849430093796455
 40
0.6168704701965959
 40
0.6168704701965959
 40
0.6487979310135464
 40
0.6487979310135464
 40
0.6807253918304967
 40
0.6807253918304967
 40
0.712652852647447
 40
0.712652852647447
 40
0.7445803134643973
 40
0.7445803134643973
 40
0.7765077742813477
 40
0.7765077742813477
 40
0.808435235098298
 40
0.808435235098298
 40
0.8403626959152482
 40
0.8403626959152482
 40
0.8722901567321985
 40
0.8722901567321985
 40
0.9042176175491491
 40
0.9042176175491491
 40
0.9361450783660993
 40
0.9361450783660993
 40
0.9680725391830495
 40
0.9680725391830495
 40
1.0
 40
1.0
 40
1.0
 40
1.0
 10
299.6488712682963
 20
300.4079898588861
 30
0.0
 10
300.7794316197648
 20
300.4081199782949
 30
0.0
 10
301.9091303040733
 20
300.4050546282211
 30
0.0
 10
304.7471588217121
 20
300.3875789917298
 30
0.0
 10
306.4544391152201
 20
300.3681222184414
 30
0.0
 10
309.0130785526404
 20
300.3221893990712
 30
0.0
 10
309.8655659173205
 20
300.3040918376612
 30
0.0
 10
311.5694405432006
 20
300.2618760951507
 30
0.0
 10
312.4208849478803
 20
300.2377561045465
 30
0.0
 10
314.973955057866
 20
300.155829593929
 30
0.0
 10
316.6743082248858
 20
300.0883821068194
 30
0.0
 10
320.0730518988899
 20
299.9265743769271
 30
0.0
 10
321.7714505477114
 20
299.8322104474814
 30
0.0
 10
325.1679232146868
 20
299.6177215527522
 30
0.0
 10
326.8660069165589
 20
299.497618247137
 30
0.0
 10
329.4140618111874
 20
299.3006503427687
 30
0.0
 10
330.2635936300589
 20
299.2322047325917
 30
0.0
 10
331.5381553946275
 20
299.1257693482158
 30
0.0
 10
331.9630330447999
 20
299.0896657167342
 30
0.0
 10
332.8128544985875
 20
299.0162776240538
 30
0.0
 10
333.2377958453116
 20
298.9789877223273
 30
0.0
 10
334.5126550157615
 20
298.8652060576445
 30
0.0
 10
335.3626036554912
 20
298.7867954735204
 30
0.0
 10
337.0623871285831
 20
298.6243183404278
 30
0.0
 10
337.9122223701368
 20
298.540248849687
 30
0.0
 10
339.6117135593246
 20
298.3661572390316
 30
0.0
 10
340.4613703583093
 20
298.2761342015576
 30
0.0
 10
342.160553635748
 20
298.0901542011796
 30
0.0
 10
343.0100394179987
 20
297.9941938724217
 30
0.0
 10
344.7087652577001
 20
297.7967394313424
 30
0.0
 10
345.5580479706812
 20
297.6952942626827
 30
0.0
 10
347.2566902717675
 20
297.4877875918403
 30
0.0
 10
348.1060491813291
 20
297.3817260797621
 30
0.0
 10
349.8049941053641
 20
297.1656066057196
 30
0.0
 10
350.6545795543467
 20
297.0555483785558
 30
0.0
 10
352.354061005717
 20
296.8318597061271
 30
0.0
 10
353.2039780789026
 20
296.7182259309403
 30
0.0
 10
354.9038999143427
 20
296.4876591184743
 30
0.0
 10
355.7539324519694
 20
296.3707223514163
 30
0.0
 10
357.454136324801
 20
296.1336029167654
 30
0.0
 10
358.3043075461404
 20
296.0134205275183
 30
0.0
 10
360.0047488830472
 20
295.7696897625135
 30
0.0
 10
360.8550190270187
 20
295.6461422696599
 30
0.0
 10
362.5555846409412
 20
295.3953638742668
 30
0.0
 10
363.4059120976148
 20
295.268129737917
 30
0.0
 10
365.1063196993346
 20
295.0094508678681
 30
0.0
 10
365.9563871199443
 20
294.8780581434996
 30
0.0
 10
367.655997263609
 20
294.6099249351781
 30
0.0
 10
368.5055250320025
 20
294.4731147896841
 30
0.0
 10
370.2038412764969
 20
294.1929618616399
 30
0.0
 10
371.0526276769045
 20
294.0496057210782
 30
0.0
 10
372.7494933355397
 20
293.7562739383256
 30
0.0
 10
373.5975699987839
 20
293.6062806744758
 30
0.0
 10
375.2933396655387
 20
293.3010344315347
 30
0.0
 10
376.1410524508391
 20
293.1457591967136
 30
0.0
 10
377.8364719316485
 20
292.8333664922454
 30
0.0
 10
378.6842081076579
 20
292.6762306587896
 30
0.0
 10
379.5324985405138
 20
292.5210963148178
 30
0.0
  0
SPLINE
  5
18F
330
1F
100
AcDbEntity
  8
1
100
AcDbSpline
210
0.0
220
0.0
230
1.0
 70
     8
 71
     3
 72
    49
 73
    45
 74
     0
 42
0.000000001
 43
0.0000000001
 40
0.0
 40
0.0
 40
0.0
 40
0.0
 40
0.0624999999999934
 40
0.0624999999999934
 40
0.1249999999999868
 40
0.1249999999999868
 40
0.2499999999999736
 40
0.2499999999999736
 40
0.3749999999999605
 40
0.3749999999999605
 40
0.4374999999999539
 40
0.4374999999999539
 40
0.4687499999999539
 40
0.4687499999999539
 40
0.499999999999954
 40
0.499999999999954
 40
0.5624999999999609
 40
0.5624999999999609
 40
0.6249999999999675
 40
0.6249999999999675
 40
0.6874999999999743
 40
0.6874999999999743
 40
0.7499999999999809
 40
0.7499999999999809
 40
0.7656249999999817
 40
0.7656249999999817
 40
0.7812499999999824
 40
0.7812499999999824
 40
0.8124999999999836
 40
0.8124999999999836
 40
0.8437499999999849
 40
0.8437499999999849
 40
0.8593749999999857
 40
0.8593749999999857
 40
0.8671874999999863
 40
0.8671874999999863
 40
0.874999999999987
 40
0.9374999999999934
 40
0.9374999999999934
 40
0.9531249999999953
 40
0.9531249999999953
 40
0.9687499999999971
 40
0.9687499999999971
 40
1.0
 40
1.0
 40
1.0
 40
1.0
 10
381.7263615510236
 20
293.800502391515
 30
0.0
 10
381.8331164847563
 20
293.8353875357831
 30
0.0
 10
381.9395098009595
 20
293.8714995726605
 30
0.0
 10
382.1514979072238
 20
293.9464328785257
 30
0.0
 10
382.2570422747726
 20
293.9852386483243
 30
0.0
 10
382.5713961196687
 20
294.1057943743604
 30
0.0
 10
382.7782247401198
 20
294.1917419702237
 30
0.0
 10
383.1850501883425
 20
294.3775397891292
 30
0.0
 10
383.3850668639295
 20
294.4773496220733
 30
0.0
 10
383.6783552264535
 20
294.640773386046
 30
0.0
 10
383.7749874282059
 20
294.6975487043123
 30
0.0
 10
383.9179214418567
 20
294.7868107388709
 30
0.0
 10
383.9652293848898
 20
294.8172499887487
 30
0.0
 10
384.0591031286701
 20
294.8796387403514
 30
0.0
 10
384.1056935785551
 20
294.911608154661
 30
0.0
 10
384.2435727527606
 20
295.0095533882716
 30
0.0
 10
384.3331846968443
 20
295.0776813587923
 30
0.0
 10
384.5068004525966
 20
295.2208180870254
 30
0.0
 10
384.590827794412
 20
295.2958276540463
 30
0.0
 10
384.751732948672
 20
295.4544994026619
 30
0.0
 10
384.8276962860056
 20
295.5372586347069
 30
0.0
 10
384.9684563616737
 20
295.7112924075836
 30
0.0
 10
385.0332839085685
 20
295.8025434547441
 30
0.0
 10
385.1051550887649
 20
295.923594882072
 30
0.0
 10
385.1190663190525
 20
295.9481582416424
 30
0.0
 10
385.1458841182605
 20
295.998051084987
 30
0.0
 10
385.1587622712048
 20
296.0233348838715
 30
0.0
 10
385.1954291555754
 20
296.0996858187161
 30
0.0
 10
385.2173669864982
 20
296.1514580180136
 30
0.0
 10
385.2557228697268
 20
296.2569215909685
 30
0.0
 10
385.272142252088
 20
296.3106125021784
 30
0.0
 10
385.2921547294408
 20
296.3927540154402
 30
0.0
 10
385.2980549747542
 20
296.4204024433383
 30
0.0
 10
385.3056775369149
 20
296.4623019815507
 30
0.0
 10
385.3080118916308
 20
296.4763355413884
 30
0.0
 10
385.3122319740327
 20
296.5043467158793
 30
0.0
 10
385.3292424546396
 20
296.6303676420377
 30
0.0
 10
385.3285032543618
 20
296.7561253648272
 30
0.0
 10
385.3099316925827
 20
296.8955929564424
 30
0.0
 10
385.3053282326838
 20
296.9234732899296
 30
0.0
 10
385.2943310890425
 20
296.9792074103453
 30
0.0
 10
385.2879557319173
 20
297.0069495645569
 30
0.0
 10
385.2664104957399
 20
297.0892867895
 30
0.0
 10
385.248781942868
 20
297.14321467485
 30
0.0
 10
385.2281344408226
 20
297.1962515960639
 30
0.0
  0
SPLINE
  5
190
330
1F
100
AcDbEntity
  8
1
100
AcDbSpline
210
0.0
220
0.0
230
1.0
 70
    12
 71
     3
 72
     9
 73
     5
 74
     0
 42
0.000000001
 43
0.0000000001
 40
0.0
 40
0.0
 40
0.0
 40
0.0
 40
0.432393021832792
 40
1.0
 40
1.0
 40
1.0
 40
1.0
 10
350.3314734065983
 20
297.0971798675866
 30
0.0
 41
1.00147499912394
 10
355.3702324356497
 20
297.1463835125618
 30
0.0
 41
1.001476746789031
 10
367.0073042833643
 20
296.7989544147084
 30
0.0
 41
1.001565431286765
 10
378.6934542980831
 20
296.4957888411782
 30
0.0
 41
1.001453529931553
 10
385.2281344408226
 20
297.1962515960639
 30
0.0
 41
1.001483719643187
  0
SPLINE
  5
191
330
1F
100
AcDbEntity
  8
1
100
AcDbSpline
210
0.0
220
0.0
230
1.0
 70
     8
 71
     3
 72
    10
 73
     6
 74
     0
 42
0.000000001
 43
0.0000000001
 40
0.0
 40
0.0
 40
0.0
 40
0.0
 40
0.5
 40
0.5
 40
1.0
 40
1.0
 40
1.0
 40
1.0
 10
279.4048419453038
 20
274.1066075476997
 30
0.0
 10
279.6196538888923
 20
274.1860816166301
 30
0.0
 10
279.8369226008246
 20
274.2757687774505
 30
0.0
 10
280.2751828506194
 20
274.4713731149588
 30
0.0
 10
280.4961765748096
 20
274.5773056380974
 30
0.0
 10
280.718550444291
 20
274.6898862447928
 30
0.0
  0
SPLINE
  5
192
330
1F
100
AcDbEntity
  8
1
100
AcDbSpline
210
0.0
220
0.0
230
1.0
 70
     8
 71
     3
 72
    34
 73
    30
 74
     0
 42
0.000000001
 43
0.0000000001
 40
0.0
 40
0.0
 40
0.0
 40
0.0
 40
0.0624999999999997
 40
0.0624999999999997
 40
0.1249999999999993
 40
0.1249999999999993
 40
0.1874999999999989
 40
0.1874999999999989
 40
0.2499999999999986
 40
0.2499999999999986
 40
0.3124999999999983
 40
0.3124999999999983
 40
0.3749999999999979
 40
0.3749999999999979
 40
0.4374999999999976
 40
0.4374999999999976
 40
0.4531249999999976
 40
0.4531249999999976
 40
0.4687499999999976
 40
0.4687499999999976
 40
0.4999999999999978
 40
0.4999999999999978
 40
0.6249999999999984
 40
0.6249999999999984
 40
0.7499999999999988
 40
0.7499999999999988
 40
0.8749999999999992
 40
0.8749999999999992
 40
1.0
 40
1.0
 40
1.0
 40
1.0
 10
292.0322589432654
 20
277.4080157215123
 30
0.0
 10
291.7523009550335
 20
277.4082160307182
 30
0.0
 10
291.4756060285492
 20
277.402449126881
 30
0.0
 10
290.9280426492406
 20
277.3806076941457
 30
0.0
 10
290.6571752280721
 20
277.3645310102401
 30
0.0
 10
290.1207308003701
 20
277.3233550505317
 30
0.0
 10
289.8551545111274
 20
277.2982539737755
 30
0.0
 10
289.3288913171866
 20
277.2400365176755
 30
0.0
 10
289.0682049591061
 20
277.2069185769824
 30
0.0
 10
288.5514371547923
 20
277.13344701802
 30
0.0
 10
288.2953561598164
 20
277.0930920400117
 30
0.0
 10
287.7876164459223
 20
277.0057420761197
 30
0.0
 10
287.5359581161024
 20
276.9587459249241
 30
0.0
 10
287.0369704300493
 20
276.8585631880418
 30
0.0
 10
286.7896414096729
 20
276.8053756296574
 30
0.0
 10
286.4831764779103
 20
276.7352318702949
 30
0.0
 10
286.4220184870816
 20
276.7210199123978
 30
0.0
 10
286.2999729497456
 20
276.6922339467047
 30
0.0
 10
286.2390820389604
 20
276.6776589116207
 30
0.0
 10
286.0571067042719
 20
276.6334686321016
 30
0.0
 10
285.9366216615991
 20
276.6033655606593
 30
0.0
 10
285.3383206524043
 20
276.4497530010231
 30
0.0
 10
284.8728305348675
 20
276.3169862460631
 30
0.0
 10
283.9680874373848
 20
276.0340559609714
 30
0.0
 10
283.528847676435
 20
275.8838771840286
 30
0.0
 10
282.6775078926277
 20
275.5678603518831
 30
0.0
 10
282.2654129735138
 20
275.4020129303436
 30
0.0
 10
281.4699206343435
 20
275.0561765183519
 30
0.0
 10
281.0865225138604
 20
274.8761784514066
 30
0.0
 10
280.718550444291
 20
274.6898862447928
 30
0.0
  0
SPLINE
  5
193
330
1F
100
AcDbEntity
  8
1
100
AcDbSpline
210
0.0
220
0.0
230
1.0
 70
     8
 71
     3
 72
    59
 73
    55
 74
     0
 42
0.000000001
 43
0.0000000001
 40
0.0
 40
0.0
 40
0.0
 40
0.0
 40
0.0624999999999996
 40
0.0624999999999996
 40
0.1249999999999994
 40
0.1249999999999994
 40
0.1874999999999992
 40
0.1874999999999992
 40
0.1953124999999989
 40
0.1953124999999989
 40
0.2031249999999986
 40
0.2031249999999986
 40
0.2187499999999978
 40
0.2499999999999962
 40
0.2499999999999962
 40
0.3124999999999936
 40
0.3124999999999936
 40
0.3749999999999908
 40
0.3749999999999908
 40
0.3906249999999903
 40
0.3984374999999901
 40
0.3984374999999901
 40
0.4062499999999898
 40
0.4062499999999898
 40
0.4374999999999896
 40
0.4374999999999896
 40
0.4999999999999889
 40
0.5624999999999884
 40
0.5624999999999884
 40
0.578124999999988
 40
0.578124999999988
 40
0.585937499999988
 40
0.585937499999988
 40
0.5937499999999877
 40
0.6249999999999884
 40
0.6249999999999884
 40
0.6874999999999899
 40
0.6874999999999899
 40
0.7499999999999916
 40
0.7499999999999916
 40
0.7656249999999919
 40
0.7656249999999919
 40
0.7812499999999921
 40
0.812499999999993
 40
0.812499999999993
 40
0.8749999999999948
 40
0.8749999999999948
 40
0.9062499999999955
 40
0.9062499999999955
 40
0.9218749999999964
 40
0.9218749999999964
 40
0.9374999999999969
 40
0.9374999999999969
 40
1.0
 40
1.0
 40
1.0
 40
1.0
 10
279.4048419452957
 20
281.5304877206756
 30
0.0
 10
279.2237614804237
 20
281.3874497821482
 30
0.0
 10
279.0512704145365
 20
281.2388143447147
 30
0.0
 10
278.7235217108281
 20
280.9308759869194
 30
0.0
 10
278.5682621807147
 20
280.7715731838364
 30
0.0
 10
278.2755692376035
 20
280.4424888644639
 30
0.0
 10
278.1381304405453
 20
280.272709429344
 30
0.0
 10
277.9942331596492
 20
280.0757130662795
 30
0.0
 10
277.9783939689346
 20
280.0537410571375
 30
0.0
 10
277.9470176907859
 20
280.0096291565274
 30
0.0
 10
277.9314684519262
 20
279.9874715090601
 30
0.0
 10
277.8853981128678
 20
279.9209183242521
 30
0.0
 10
277.795531785591
 20
279.7874476076992
 30
0.0
 10
277.7124585540509
 20
279.6529308646106
 30
0.0
 10
277.5553574618689
 20
279.3826086001897
 30
0.0
 10
277.4626586905503
 20
279.2006814842953
 30
0.0
 10
277.3018576666635
 20
278.8338128818597
 30
0.0
 10
277.233749881062
 20
278.6488715314449
 30
0.0
 10
277.1648580251451
 20
278.4159436232769
 30
0.0
 10
277.1454123036578
 20
278.3459331624049
 30
0.0
 10
277.1278355880006
 20
278.2757259776625
 30
0.0
 10
277.1165376868494
 20
278.228877524065
 30
0.0
 10
277.1110956052931
 20
278.2054161307361
 30
0.0
 10
277.0850415472582
 20
278.088441437631
 30
0.0
 10
277.0678181713496
 20
277.9956207818583
 30
0.0
 10
277.0267917041137
 20
277.7194359843022
 30
0.0
 10
277.0004154898035
 20
277.3572606510706
 30
0.0
 10
277.0298450183575
 20
277.0072590580863
 30
0.0
 10
277.0659868804458
 20
276.7923372764743
 30
0.0
 10
277.0741049398275
 20
276.7495444418226
 30
0.0
 10
277.0876293021793
 20
276.6856431254845
 30
0.0
 10
277.0923665308279
 20
276.6643720208634
 30
0.0
 10
277.1022638376735
 20
276.622046136642
 30
0.0
 10
277.1280663129569
 20
276.5167537075545
 30
0.0
 10
277.1591053860381
 20
276.4140380078678
 30
0.0
 10
277.2433155735922
 20
276.1722439280736
 30
0.0
 10
277.3123851838517
 20
276.0173375410365
 30
0.0
 10
277.4752862238178
 20
275.7191543265424
 30
0.0
 10
277.5691219551905
 20
275.5758800050007
 30
0.0
 10
277.7017002236901
 20
275.4036176110345
 30
0.0
 10
277.7289059224742
 20
275.3696073546881
 30
0.0
 10
277.7845654347776
 20
275.3025706991305
 30
0.0
 10
277.8699761733162
 20
275.2034286922482
 30
0.0
 10
277.9610258675691
 20
275.1083837499495
 30
0.0
 10
278.1503767143119
 20
274.923426738269
 30
0.0
 10
278.2862615756355
 20
274.8069541696159
 30
0.0
 10
278.5038641307036
 20
274.6414285662259
 30
0.0
 10
278.5786988524768
 20
274.5877870650342
 30
0.0
 10
278.6943523128631
 20
274.5095170221371
 30
0.0
 10
278.73347060875
 20
274.4837925288658
 30
0.0
 10
278.812836109412
 20
274.4330582528117
 30
0.0
 10
278.8531101352188
 20
274.4080328656942
 30
0.0
 10
279.056759108119
 20
274.2849715575581
 30
0.0
 10
279.2272055643731
 20
274.1929398012971
 30
0.0
 10
279.4048419453085
 20
274.1066075476905
 30
0.0
  0
SPLINE
  5
194
330
1F
100
AcDbEntity
  8
1
100
AcDbSpline
210
0.0
220
0.0
230
1.0
 70
     9
 71
     3
 72
   121
 73
   117
 74
     0
 42
0.000000001
 43
0.0000000001
 40
0.0
 40
0.0
 40
0.0
 40
0.0
 40
0.0312500000000436
 40
0.0312500000000436
 40
0.0468750000000654
 40
0.0468750000000654
 40
0.0546875000000763
 40
0.0546875000000763
 40
0.0625000000000872
 40
0.0625000000000872
 40
0.0937500000001135
 40
0.0937500000001135
 40
0.1015625000001163
 40
0.1015625000001163
 40
0.109375000000119
 40
0.109375000000119
 40
0.1250000000001245
 40
0.1250000000001245
 40
0.1562500000001354
 40
0.1562500000001354
 40
0.1875000000001463
 40
0.1875000000001463
 40
0.2031250000001518
 40
0.2031250000001518
 40
0.2109375000001546
 40
0.2109375000001546
 40
0.2187500000001573
 40
0.2187500000001573
 40
0.2500000000001706
 40
0.2500000000001706
 40
0.2578125000001741
 40
0.2578125000001741
 40
0.2656250000001777
 40
0.2656250000001777
 40
0.2812500000001857
 40
0.2812500000001857
 40
0.3125000000002018
 40
0.3125000000002018
 40
0.3281250000002097
 40
0.3281250000002097
 40
0.3437500000002176
 40
0.3437500000002176
 40
0.3750000000002333
 40
0.3750000000002333
 40
0.3828125000002361
 40
0.3828125000002361
 40
0.390625000000239
 40
0.4062500000002448
 40
0.4218750000002506
 40
0.4218750000002506
 40
0.4296875000002535
 40
0.4296875000002535
 40
0.4375000000002565
 40
0.4375000000002565
 40
0.4687500000002562
 40
0.4687500000002562
 40
0.4843750000002561
 40
0.4843750000002561
 40
0.4921875000002561
 40
0.4921875000002561
 40
0.5000000000002559
 40
0.5000000000002559
 40
0.5312500000002557
 40
0.5312500000002557
 40
0.5390625000002557
 40
0.5390625000002557
 40
0.5468750000002555
 40
0.5625000000002492
 40
0.5781250000002427
 40
0.5781250000002427
 40
0.5937500000002364
 40
0.5937500000002364
 40
0.6250000000002187
 40
0.6250000000002187
 40
0.6328125000002154
 40
0.6328125000002154
 40
0.640625000000212
 40
0.640625000000212
 40
0.6562500000002015
 40
0.6562500000002015
 40
0.6875000000001773
 40
0.6875000000001773
 40
0.695312500000172
 40
0.695312500000172
 40
0.7031250000001668
 40
0.7187500000001544
 40
0.7343750000001421
 40
0.7343750000001421
 40
0.7421875000001358
 40
0.7421875000001358
 40
0.7500000000001296
 40
0.7500000000001296
 40
0.7812500000001058
 40
0.7812500000001058
 40
0.7968750000000933
 40
0.7968750000000933
 40
0.8125000000000808
 40
0.8125000000000808
 40
0.8437500000000584
 40
0.8437500000000584
 40
0.8593750000000486
 40
0.8593750000000486
 40
0.875000000000039
 40
0.875000000000039
 40
0.9062500000000239
 40
0.9062500000000239
 40
0.921875000000014
 40
0.921875000000014
 40
0.9375000000000039
 40
0.9531249999999939
 40
0.9531249999999939
 40
0.960937499999992
 40
0.960937499999992
 40
0.9687499999999896
 40
0.9687499999999896
 40
1.0
 40
1.0
 40
1.0
 40
1.0
 10
391.2962249652844
 20
286.8769886193043
 30
0.0
 10
391.3652616077212
 20
286.8757835802281
 30
0.0
 10
391.4329768757747
 20
286.867694916927
 30
0.0
 10
391.5326501365917
 20
286.8456774045828
 30
0.0
 10
391.5655554692094
 20
286.8366780849902
 30
0.0
 10
391.6144229852152
 20
286.820630486228
 30
0.0
 10
391.630676498245
 20
286.8148369468203
 30
0.0
 10
391.6627300522963
 20
286.8024927501947
 30
0.0
 10
391.6785349617428
 20
286.7959438707404
 30
0.0
 10
391.756472446172
 20
286.7613553625557
 30
0.0
 10
391.8153755209159
 20
286.7278365225958
 30
0.0
 10
391.8847219373015
 20
286.678710089088
 30
0.0
 10
391.8983751308955
 20
286.6685201124887
 30
0.0
 10
391.9252419548454
 20
286.6473993985489
 30
0.0
 10
391.9384468593274
 20
286.6364716003473
 30
0.0
 10
391.9769595149928
 20
286.6029504003644
 30
0.0
 10
392.0013216446148
 20
286.5795035595288
 30
0.0
 10
392.0705873636726
 20
286.5059781654403
 30
0.0
 10
392.1117130869492
 20
286.4527325696253
 30
0.0
 10
392.1835655205522
 20
286.3377193098627
 30
0.0
 10
392.2131339579765
 20
286.2778141971959
 30
0.0
 10
392.2484880835095
 20
286.1846119935585
 30
0.0
 10
392.2587618871996
 20
286.1529827818542
 30
0.0
 10
392.2718773576304
 20
286.1046903832783
 30
0.0
 10
392.275874220256
 20
286.088412202627
 30
0.0
 10
392.2830467255609
 20
286.0557649178206
 30
0.0
 10
392.2862176803498
 20
286.0394278925593
 30
0.0
 10
392.3000441021362
 20
285.9576789154505
 30
0.0
 10
392.30467009593
 20
285.8920784835009
 30
0.0
 10
392.302595122389
 20
285.8098429699997
 30
0.0
 10
392.3017838225081
 20
285.7933839295327
 30
0.0
 10
392.2993594164099
 20
285.7604416281533
 30
0.0
 10
392.2977408927289
 20
285.7439176432005
 30
0.0
 10
392.2917024072759
 20
285.6946336127698
 30
0.0
 10
392.2861214170266
 20
285.6622355364148
 30
0.0
 10
392.2648657854799
 20
285.5663646326325
 30
0.0
 10
392.2447206621297
 20
285.5042039555037
 30
0.0
 10
392.2053686003272
 20
285.4136014914895
 30
0.0
 10
392.1906527506041
 20
285.3837555884552
 30
0.0
 10
392.1587004488695
 20
285.3261517049318
 30
0.0
 10
392.1414131961442
 20
285.2982508815398
 30
0.0
 10
392.0856620701931
 20
285.2172030996912
 30
0.0
 10
392.0433502044569
 20
285.1666836346655
 30
0.0
 10
391.9835886667939
 20
285.1081528510917
 30
0.0
 10
391.9713118481128
 20
285.0967053120669
 30
0.0
 10
391.9463343713493
 20
285.0745304795723
 30
0.0
 10
391.9081377926283
 20
285.042260024501
 30
0.0
 10
391.8408677632264
 20
284.993361703349
 30
0.0
 10
391.7831787090259
 20
284.9594557242416
 30
0.0
 10
391.7384061156842
 20
284.9360419204203
 30
0.0
 10
391.7232304797149
 20
284.9285739026192
 30
0.0
 10
391.6923612085846
 20
284.91432956563
 30
0.0
 10
391.6766426487021
 20
284.907546062559
 30
0.0
 10
391.5976969208336
 20
284.8757903351718
 30
0.0
 10
391.5327209673098
 20
284.8568912199108
 30
0.0
 10
391.4325290152208
 20
284.8382395955593
 30
0.0
 10
391.398673853509
 20
284.8336502497103
 30
0.0
 10
391.3471735592436
 20
284.8293137525965
 30
0.0
 10
391.3299268985616
 20
284.8283000238039
 30
0.0
 10
391.2956195424562
 20
284.8271467469226
 30
0.0
 10
391.2785094278354
 20
284.827002624299
 30
0.0
 10
391.1931731304392
 20
284.8284093307618
 30
0.0
 10
391.1255836352117
 20
284.8362788944733
 30
0.0
 10
391.0419522529956
 20
284.8546273927715
 30
0.0
 10
391.0252200533852
 20
284.858741061974
 30
0.0
 10
390.9921539473524
 20
284.8677566153802
 30
0.0
 10
390.9431300839273
 20
284.8824623315249
 30
0.0
 10
390.8642133194898
 20
284.9127141041117
 30
0.0
 10
390.8039716903003
 20
284.9428908056014
 30
0.0
 10
390.7451768553358
 20
284.9760708206255
 30
0.0
 10
390.7164084903998
 20
284.9942465725435
 30
0.0
 10
390.6340094764461
 20
285.0521595824592
 30
0.0
 10
390.5836944744181
 20
285.0955057327536
 30
0.0
 10
390.5263351517541
 20
285.1554420345587
 30
0.0
 10
390.5151426536754
 20
285.1677197005399
 30
0.0
 10
390.4933209452886
 20
285.1928625006493
 30
0.0
 10
390.4826730939559
 20
285.2057538595232
 30
0.0
 10
390.4518772001215
 20
285.2449425388235
 30
0.0
 10
390.4327846929548
 20
285.2718463830548
 30
0.0
 10
390.3796632110003
 20
285.3548257204528
 30
0.0
 10
390.3497510999671
 20
285.4131481684714
 30
0.0
 10
390.3193343574823
 20
285.4899112673702
 30
0.0
 10
390.3135977244919
 20
285.5054797562092
 30
0.0
 10
390.3029430694502
 20
285.5366981308908
 30
0.0
 10
390.2881469802181
 20
285.5837554201025
 30
0.0
 10
390.269293165324
 20
285.6633158458357
 30
0.0
 10
390.2603311098787
 20
285.7281668597474
 30
0.0
 10
390.2559429228344
 20
285.7772656218583
 30
0.0
 10
390.2548697603842
 20
285.7937087418256
 30
0.0
 10
390.2535174281146
 20
285.8267517681691
 30
0.0
 10
390.2532392634896
 20
285.8433965322825
 30
0.0
 10
390.2538743101798
 20
285.9263639840023
 30
0.0
 10
390.2607639259459
 20
285.9918775623625
 30
0.0
 10
390.280499811917
 20
286.0888636989936
 30
0.0
 10
390.2886560290319
 20
286.1209766879156
 30
0.0
 10
390.3082277291261
 20
286.1847511329365
 30
0.0
 10
390.3197102637402
 20
286.2165361875049
 30
0.0
 10
390.3584254352468
 20
286.3091663323809
 30
0.0
 10
390.3900109216658
 20
286.367894979692
 30
0.0
 10
390.4460758459958
 20
286.4513871062121
 30
0.0
 10
390.4662215195079
 20
286.4784458510801
 30
0.0
 10
390.5095579192488
 20
286.5309402131817
 30
0.0
 10
390.5324520719815
 20
286.5560067606277
 30
0.0
 10
390.6043572179449
 20
286.6273460662822
 30
0.0
 10
390.6567094879747
 20
286.6699769711055
 30
0.0
 10
390.7420179447605
 20
286.726300768874
 30
0.0
 10
390.7717379071412
 20
286.743856065482
 30
0.0
 10
390.8322075603265
 20
286.7755948510548
 30
0.0
 10
390.8939399327054
 20
286.8041519516182
 30
0.0
 10
390.9581514746566
 20
286.8264494029047
 30
0.0
 10
391.0072504019965
 20
286.8407944089316
 30
0.0
 10
391.023773711153
 20
286.8451790117397
 30
0.0
 10
391.0571397352772
 20
286.8531398712018
 30
0.0
 10
391.0740208566547
 20
286.856722894217
 30
0.0
 10
391.1587464756603
 20
286.8724762016367
 30
0.0
 10
391.2271883228477
 20
286.8781936583804
 30
0.0
 10
391.2962249652844
 20
286.8769886193043
 30
0.0
  0
SPLINE
  5
195
330
1F
100
AcDbEntity
  8
1
100
AcDbSpline
210
0.0
220
0.0
230
1.0
 70
    12
 71
     2
 72
     6
 73
     3
 74
     0
 42
0.000000001
 43
0.0000000001
 40
0.0
 40
0.0
 40
0.0
 40
1.0
 40
1.0
 40
1.0
 10
386.6595216428137
 20
300.3154972767202
 30
0.0
 41
0.5000025048431476
 10
386.7717471203146
 20
300.3152491668287
 30
0.0
 41
0.4999974951568526
 10
386.8839704332365
 20
300.3150003941146
 30
0.0
 41
0.5000025048431476
  0
SPLINE
  5
196
330
1F
100
AcDbEntity
  8
1
100
AcDbSpline
210
0.0
220
0.0
230
1.0
 70
     8
 71
     3
 72
    12
 73
     8
 74
     0
 42
0.000000001
 43
0.0000000001
 40
0.0
 40
0.0
 40
0.0
 40
0.0
 40
0.2500000000000001
 40
0.2500000000000001
 40
0.5000000000000002
 40
0.5000000000000002
 40
1.0
 40
1.0
 40
1.0
 40
1.0
 10
381.3747742354477
 20
291.5536051176176
 30
0.0
 10
381.2225281479085
 20
291.6302377921143
 30
0.0
 10
381.0699037792746
 20
291.7080529860692
 30
0.0
 10
380.7639997697233
 20
291.8657317772289
 30
0.0
 10
380.6107198406305
 20
291.9455962752792
 30
0.0
 10
380.1500124161811
 20
292.1879020324872
 30
0.0
 10
379.8417228947872
 20
292.3530380141013
 30
0.0
 10
379.5324985405138
 20
292.5210963148178
 30
0.0
  0
SPLINE
  5
197
330
1F
100
AcDbEntity
  8
1
100
AcDbSpline
210
0.0
220
0.0
230
1.0
 70
     8
 71
     3
 72
     8
 73
     4
 74
     0
 42
0.000000001
 43
0.0000000001
 40
0.0
 40
0.0
 40
0.0
 40
0.0
 40
1.0
 40
1.0
 40
1.0
 40
1.0
 10
382.8284201491396
 20
292.6524478791996
 30
0.0
 10
382.5490706803579
 20
292.7768305623921
 30
0.0
 10
382.2735155661103
 20
292.9113502491085
 30
0.0
 10
382.0012276817581
 20
293.0563788857487
 30
0.0
  0
SPLINE
  5
198
330
1F
100
AcDbEntity
  8
1
100
AcDbSpline
210
0.0
220
0.0
230
1.0
 70
     8
 71
     3
 72
    42
 73
    38
 74
     0
 42
0.000000001
 43
0.0000000001
 40
0.0
 40
0.0
 40
0.0
 40
0.0
 40
0.1249999999999983
 40
0.1249999999999983
 40
0.2499999999999967
 40
0.2499999999999967
 40
0.374999999999995
 40
0.374999999999995
 40
0.4374999999999935
 40
0.4374999999999935
 40
0.499999999999992
 40
0.499999999999992
 40
0.5624999999999904
 40
0.5624999999999904
 40
0.6249999999999889
 40
0.6249999999999889
 40
0.6874999999999875
 40
0.6874999999999875
 40
0.7187499999999887
 40
0.7187499999999887
 40
0.7499999999999899
 40
0.7499999999999899
 40
0.7812499999999912
 40
0.7812499999999912
 40
0.8124999999999923
 40
0.8124999999999923
 40
0.8437499999999936
 40
0.8437499999999936
 40
0.8749999999999948
 40
0.8749999999999948
 40
0.906249999999996
 40
0.906249999999996
 40
0.9374999999999971
 40
0.9374999999999971
 40
0.9687499999999987
 40
0.9687499999999987
 40
1.0
 40
1.0
 40
1.0
 40
1.0
 10
382.0012276817581
 20
293.0563788857487
 30
0.0
 10
381.9626443908207
 20
293.0769294956117
 30
0.0
 10
381.9251930128767
 20
293.0986760821552
 30
0.0
 10
381.852826520425
 20
293.1448846523721
 30
0.0
 10
381.8179065719318
 20
293.1693414582025
 30
0.0
 10
381.7510837394894
 20
293.2215186518777
 30
0.0
 10
381.7191671264375
 20
293.249224405792
 30
0.0
 10
381.6742587307166
 20
293.2940100201974
 30
0.0
 10
381.6597879868247
 20
293.3094810021194
 30
0.0
 10
381.6320659341276
 20
293.3417495246136
 30
0.0
 10
381.6189406928311
 20
293.3584051013042
 30
0.0
 10
381.5946096491284
 20
293.3927802917005
 30
0.0
 10
381.5833767900554
 20
293.410522842558
 30
0.0
 10
381.5632965105375
 20
293.4474199717984
 30
0.0
 10
381.5544184292877
 20
293.4666163002891
 30
0.0
 10
381.5400775367614
 20
293.5067651812548
 30
0.0
 10
381.5347248591137
 20
293.527362385649
 30
0.0
 10
381.5305335916578
 20
293.5593416409483
 30
0.0
 10
381.5297924227808
 20
293.5702339767303
 30
0.0
 10
381.5298995216632
 20
293.5918851741935
 30
0.0
 10
381.5307340282966
 20
293.6026996544512
 30
0.0
 10
381.5342009674762
 20
293.6242981782927
 30
0.0
 10
381.5368317240712
 20
293.6350822765082
 30
0.0
 10
381.5442313720675
 20
293.6566084252595
 30
0.0
 10
381.5489289832346
 20
293.6670976487595
 30
0.0
 10
381.5602097838938
 20
293.6871865858253
 30
0.0
 10
381.5668346105949
 20
293.6968683323609
 30
0.0
 10
381.58194132175
 20
293.7153103304358
 30
0.0
 10
381.5902403749634
 20
293.7238612637898
 30
0.0
 10
381.6081367070697
 20
293.7397936851429
 30
0.0
 10
381.6177995626497
 20
293.7472164896722
 30
0.0
 10
381.637965806883
 20
293.7608107726561
 30
0.0
 10
381.648396715799
 20
293.7669499503651
 30
0.0
 10
381.669819063209
 20
293.7781673078526
 30
0.0
 10
381.6808112285448
 20
293.7832441172501
 30
0.0
 10
381.7032638292094
 20
293.7925109869855
 30
0.0
 10
381.714748964368
 20
293.7967076557912
 30
0.0
 10
381.7263615510234
 20
293.8005023915157
 30
0.0
  0
SPLINE
  5
199
330
1F
100
AcDbEntity
  8
1
100
AcDbSpline
210
0.0
220
0.0
230
1.0
 70
     8
 71
     3
 72
    10
 73
     6
 74
     0
 42
0.000000001
 43
0.0000000001
 40
0.0
 40
0.0
 40
0.0
 40
0.0
 40
0.5
 40
0.5
 40
1.0
 40
1.0
 40
1.0
 40
1.0
 10
296.2700087916655
 20
277.4955818028014
 30
0.0
 10
296.5368916948657
 20
277.5055640834338
 30
0.0
 10
296.8065628638214
 20
277.5138692003308
 30
0.0
 10
297.3514712883588
 20
277.5252374772477
 30
0.0
 10
297.6267077799577
 20
277.5283017530876
 30
0.0
 10
297.9048419452957
 20
277.5283017530876
 30
0.0
  0
SPLINE
  5
19A
330
1F
100
AcDbEntity
  8
1
100
AcDbSpline
210
0.0
220
0.0
230
1.0
 70
     8
 71
     3
 72
    24
 73
    20
 74
     0
 42
0.000000001
 43
0.0000000001
 40
0.0
 40
0.0
 40
0.0
 40
0.0
 40
0.0083932294700144
 40
0.0083932294700144
 40
0.1500513395457264
 40
0.1500513395457264
 40
0.2917094496214381
 40
0.2917094496214381
 40
0.3625385046592944
 40
0.3625385046592944
 40
0.4333675596971504
 40
0.4333675596971504
 40
0.575025669772863
 40
0.575025669772863
 40
0.7166837798485753
 40
0.7166837798485753
 40
0.8583418899242877
 40
0.8583418899242877
 40
1.0
 40
1.0
 40
1.0
 40
1.0
 10
332.8443785947599
 20
279.8762633932404
 30
0.0
 10
332.7470727596431
 20
279.8642323058574
 30
0.0
 10
332.6497630049499
 20
279.8522569807317
 30
0.0
 10
330.9100320281579
 20
279.6391529709837
 30
0.0
 10
329.2664752248427
 20
279.453344692241
 30
0.0
 10
325.9772920797832
 20
279.1092039745069
 30
0.0
 10
324.3316625942104
 20
278.9509094802031
 30
0.0
 10
321.8615231901852
 20
278.73292228918
 30
0.0
 10
321.0378098690529
 20
278.6635082267952
 30
0.0
 10
319.3899925619384
 20
278.5310781865884
 30
0.0
 10
318.5659435286915
 20
278.4680670606205
 30
0.0
 10
316.0932690940222
 20
278.288468108517
 30
0.0
 10
314.4441191047598
 20
278.1813308630397
 30
0.0
 10
311.1437456032017
 20
277.9911272586441
 30
0.0
 10
309.4925181354911
 20
277.9080720232113
 30
0.0
 10
306.187269678261
 20
277.7642987147864
 30
0.0
 10
304.533245540066
 20
277.7035807639563
 30
0.0
 10
301.2217538395996
 20
277.60192589422
 30
0.0
 10
299.5642843461562
 20
277.5609812443986
 30
0.0
 10
297.9048419452957
 20
277.5283017530876
 30
0.0
  0
SPLINE
  5
19B
330
1F
100
AcDbEntity
  8
1
100
AcDbSpline
210
0.0
220
0.0
230
1.0
 70
     8
 71
     3
 72
    14
 73
    10
 74
     0
 42
0.000000001
 43
0.0000000001
 40
0.0
 40
0.0
 40
0.0
 40
0.0
 40
0.25
 40
0.25
 40
0.5
 40
0.5
 40
0.75
 40
0.75
 40
1.0
 40
1.0
 40
1.0
 40
1.0
 10
292.0322589432654
 20
277.4080157215123
 30
0.0
 10
292.3833140878499
 20
277.4077645424776
 30
0.0
 10
292.7346977690989
 20
277.4096483000855
 30
0.0
 10
293.4382595757245
 20
277.4174000018265
 30
0.0
 10
293.7904384487936
 20
277.4232729269556
 30
0.0
 10
294.4960143047611
 20
277.4385969212963
 30
0.0
 10
294.8494137226415
 20
277.4480510695723
 30
0.0
 10
295.5580937885369
 20
277.469873815362
 30
0.0
 10
295.9133777125946
 20
277.48224265117
 30
0.0
 10
296.2700087916656
 20
277.4955818028011
 30
0.0
  0
SPLINE
  5
19C
330
1F
100
AcDbEntity
  8
1
100
AcDbSpline
210
0.0
220
0.0
230
1.0
 70
     8
 71
     3
 72
    40
 73
    36
 74
     0
 42
0.000000001
 43
0.0000000001
 40
0.0
 40
0.0
 40
0.0
 40
0.0
 40
0.125
 40
0.125
 40
0.2499999999999999
 40
0.2499999999999999
 40
0.3124999999999998
 40
0.3124999999999998
 40
0.3749999999999998
 40
0.3749999999999998
 40
0.4062499999999998
 40
0.4218749999999997
 40
0.4218749999999997
 40
0.4374999999999994
 40
0.4374999999999994
 40
0.4999999999999988
 40
0.4999999999999988
 40
0.5624999999999983
 40
0.5624999999999983
 40
0.6249999999999977
 40
0.6249999999999977
 40
0.6874999999999972
 40
0.6874999999999972
 40
0.718749999999997
 40
0.7343749999999973
 40
0.7343749999999973
 40
0.7499999999999975
 40
0.7499999999999975
 40
0.8124999999999978
 40
0.8124999999999978
 40
0.8749999999999985
 40
0.8749999999999985
 40
0.9374999999999992
 40
0.9374999999999992
 40
1.0
 40
1.0
 40
1.0
 40
1.0
 10
280.7185504442805
 20
282.887661947859
 30
0.0
 10
281.0719103828637
 20
283.2196589503561
 30
0.0
 10
281.4411841088378
 20
283.5318805373304
 30
0.0
 10
282.2121967137746
 20
284.1178772729825
 30
0.0
 10
282.6139246572635
 20
284.3916595295876
 30
0.0
 10
283.2423570998383
 20
284.7730165215117
 30
0.0
 10
283.456152910915
 20
284.8952352714109
 30
0.0
 10
283.8927980692493
 20
285.1295923452597
 30
0.0
 10
284.1156463561925
 20
285.2417319127857
 30
0.0
 10
284.4571270811181
 20
285.4020468299329
 30
0.0
 10
284.6296713304911
 20
285.4802285482226
 30
0.0
 10
284.8050185660984
 20
285.5553618536175
 30
0.0
 10
284.9225518614243
 20
285.6047621434454
 30
0.0
 10
284.9816734884332
 20
285.6291326234321
 30
0.0
 10
285.2779765512893
 20
285.7488666325717
 30
0.0
 10
285.5178122970933
 20
285.8381334869723
 30
0.0
 10
286.003237472604
 20
286.0033616871274
 30
0.0
 10
286.2488266939042
 20
286.0793240963351
 30
0.0
 10
286.7459967986489
 20
286.217447063481
 30
0.0
 10
286.9975773954378
 20
286.2796091968604
 30
0.0
 10
287.5070467990052
 20
286.3893632440499
 30
0.0
 10
287.7649352414338
 20
286.4369573709454
 30
0.0
 10
288.1568027295559
 20
286.4965983824982
 30
0.0
 10
288.3539962671802
 20
286.5234771839139
 30
0.0
 10
288.5531469755814
 20
286.5457468566746
 30
0.0
 10
288.6863573116232
 20
286.5595439718463
 30
0.0
 10
288.7531497529821
 20
286.5659131122896
 30
0.0
 10
289.0868596538739
 20
286.5949691910727
 30
0.0
 10
289.3540669049455
 20
286.6094091516007
 30
0.0
 10
289.8888910808695
 20
286.6201021118233
 30
0.0
 10
290.1565082005553
 20
286.6163545474567
 30
0.0
 10
290.6920553750762
 20
286.5898482263578
 30
0.0
 10
290.9599856310423
 20
286.56708858721
 30
0.0
 10
291.4960282364587
 20
286.5015084812309
 30
0.0
 10
291.7641407674691
 20
286.4586865028813
 30
0.0
 10
292.0322589432653
 20
286.4052138898633
 30
0.0
  0
SPLINE
  5
19D
330
1F
100
AcDbEntity
  8
1
100
AcDbSpline
210
0.0
220
0.0
230
1.0
 70
     8
 71
     3
 72
    16
 73
    12
 74
     0
 42
0.000000001
 43
0.0000000001
 40
0.0
 40
0.0
 40
0.0
 40
0.0
 40
0.2500000000000003
 40
0.2500000000000003
 40
0.5000000000000006
 40
0.5000000000000006
 40
0.7500000000000009
 40
0.7500000000000009
 40
0.8750000000000003
 40
0.8750000000000003
 40
1.0
 40
1.0
 40
1.0
 40
1.0
 10
388.4858702999281
 20
292.3326549144237
 30
0.0
 10
388.4568967054695
 20
292.3101382077746
 30
0.0
 10
388.4270716421365
 20
292.2892059431652
 30
0.0
 10
388.3657515432795
 20
292.2504052405525
 30
0.0
 10
388.3342563977342
 20
292.2325372370022
 30
0.0
 10
388.2695720461427
 20
292.1998724045502
 30
0.0
 10
388.2363829905598
 20
292.1850754108493
 30
0.0
 10
388.1852680647043
 20
292.1652687274187
 30
0.0
 10
388.168016135168
 20
292.1590708328275
 30
0.0
 10
388.1332813567059
 20
292.1475646441852
 30
0.0
 10
388.1157715040802
 20
292.1422455172956
 30
0.0
 10
388.0981156558952
 20
292.1373644286147
 30
0.0
  0
SPLINE
  5
19E
330
1F
100
AcDbEntity
  8
1
100
AcDbSpline
210
0.0
220
0.0
230
1.0
 70
     8
 71
     3
 72
    21
 73
    17
 74
     0
 42
0.000000001
 43
0.0000000001
 40
0.0
 40
0.0
 40
0.0
 40
0.0
 40
0.25
 40
0.25
 40
0.5
 40
0.5
 40
0.5625
 40
0.5625
 40
0.625
 40
0.625
 40
0.75
 40
0.875
 40
0.875
 40
0.9375
 40
0.9375
 40
1.0
 40
1.0
 40
1.0
 40
1.0
 10
388.1019286334729
 20
291.7716383713182
 30
0.0
 10
387.6509788664869
 20
291.7517983047467
 30
0.0
 10
387.2019253175703
 20
291.7558062458436
 30
0.0
 10
386.3075271417817
 20
291.8103850845675
 30
0.0
 10
385.8621826110183
 20
291.8609580757284
 30
0.0
 10
385.3078504211792
 20
291.9535658099581
 30
0.0
 10
385.1970493072507
 20
291.9735710617002
 30
0.0
 10
384.9759124107592
 20
292.0165068388627
 30
0.0
 10
384.8657762658275
 20
292.0393970976634
 30
0.0
 10
384.5366571150837
 20
292.1123043924041
 30
0.0
 10
384.1012677730455
 20
292.2208057205739
 30
0.0
 10
383.6727158510982
 20
292.3517067517204
 30
0.0
 10
383.3538756425334
 20
292.4582823907668
 30
0.0
 10
383.248006282989
 20
292.4952150069919
 30
0.0
 10
383.0372067948595
 20
292.5718622070472
 30
0.0
 10
382.9324793675489
 20
292.6115025233427
 30
0.0
 10
382.8284201491394
 20
292.6524478791993
 30
0.0
  0
SPLINE
  5
19F
330
1F
100
AcDbEntity
  8
1
100
AcDbSpline
210
0.0
220
0.0
230
1.0
 70
     8
 71
     3
 72
    27
 73
    23
 74
     0
 42
0.000000001
 43
0.0000000001
 40
0.0
 40
0.0
 40
0.0
 40
0.0
 40
0.1250000000000061
 40
0.1250000000000061
 40
0.2500000000000121
 40
0.2500000000000121
 40
0.2812500000000123
 40
0.2812500000000123
 40
0.3125000000000124
 40
0.3750000000000129
 40
0.3750000000000129
 40
0.5000000000000137
 40
0.5000000000000137
 40
0.5625000000000142
 40
0.5625000000000142
 40
0.6250000000000146
 40
0.6250000000000146
 40
0.7500000000000098
 40
0.7500000000000098
 40
0.8750000000000049
 40
0.8750000000000049
 40
1.0
 40
1.0
 40
1.0
 40
1.0
 10
381.3818331838758
 20
291.3472879769444
 30
0.0
 10
381.6338125855875
 20
291.1894491674365
 30
0.0
 10
381.8914482796311
 20
291.0415371028357
 30
0.0
 10
382.417829623159
 20
290.7656293025835
 30
0.0
 10
382.6865748802187
 20
290.6376322442919
 30
0.0
 10
383.0294257764294
 20
290.4902692680267
 30
0.0
 10
383.0983722217409
 20
290.461417457587
 30
0.0
 10
383.2366663351251
 20
290.4051023783611
 30
0.0
 10
383.4447949139993
 20
290.3226741646934
 30
0.0
 10
383.654971999722
 20
290.2463530812333
 30
0.0
 10
384.0780323908981
 20
290.1018145687743
 30
0.0
 10
384.3636767937232
 20
290.0162491421142
 30
0.0
 10
384.797523235644
 20
289.9041339043355
 30
0.0
 10
384.9431960607025
 20
289.869441879188
 30
0.0
 10
385.2347606562008
 20
289.8058368981445
 30
0.0
 10
385.3808085567099
 20
289.7768772050019
 30
0.0
 10
385.8197369130413
 20
289.6984098855053
 30
0.0
 10
386.1134007272527
 20
289.6573009769028
 30
0.0
 10
386.7027854481262
 20
289.5971884462228
 30
0.0
 10
386.9985063551662
 20
289.5781847682083
 30
0.0
 10
387.592014167857
 20
289.5624021062216
 30
0.0
 10
387.88980095587
 20
289.5656218914376
 30
0.0
 10
388.1886467620958
 20
289.5802318279748
 30
0.0
  0
SPLINE
  5
1A0
330
1F
100
AcDbEntity
  8
1
100
AcDbSpline
210
0.0
220
0.0
230
1.0
 70
     8
 71
     3
 72
     8
 73
     4
 74
     0
 42
0.000000001
 43
0.0000000001
 40
0.0
 40
0.0
 40
0.0
 40
0.0
 40
1.0
 40
1.0
 40
1.0
 40
1.0
 10
388.1019286334729
 20
291.7716383713182
 30
0.0
 10
388.1058354220235
 20
291.7718102550857
 30
0.0
 10
388.1097433009425
 20
291.7719813375575
 30
0.0
 10
388.1136522720522
 20
291.7721516173945
 30
0.0
  0
SPLINE
  5
1A1
330
1F
100
AcDbEntity
  8
1
100
AcDbSpline
210
0.0
220
0.0
230
1.0
 70
     8
 71
     3
 72
    33
 73
    29
 74
     0
 42
0.000000001
 43
0.0000000001
 40
0.0
 40
0.0
 40
0.0
 40
0.0
 40
0.0624999999999899
 40
0.0624999999999899
 40
0.1249999999999797
 40
0.1249999999999797
 40
0.1874999999999696
 40
0.1874999999999696
 40
0.2499999999999595
 40
0.2499999999999595
 40
0.2812499999999575
 40
0.2812499999999575
 40
0.3124999999999554
 40
0.3124999999999554
 40
0.3749999999999573
 40
0.3749999999999573
 40
0.499999999999967
 40
0.499999999999967
 40
0.6249999999999764
 40
0.6249999999999764
 40
0.7499999999999859
 40
0.7499999999999859
 40
0.8749999999999953
 40
0.8749999999999953
 40
0.9062499999999966
 40
0.9062499999999966
 40
0.9374999999999975
 40
1.0
 40
1.0
 40
1.0
 40
1.0
 10
387.4678419452958
 20
290.3285538812667
 30
0.0
 10
387.3312050221323
 20
290.323359993818
 30
0.0
 10
387.1955681876382
 20
290.3197398211983
 30
0.0
 10
386.9257189045935
 20
290.315957729909
 30
0.0
 10
386.7915106654889
 20
290.3157935937059
 30
0.0
 10
386.5241729991889
 20
290.3191206231674
 30
0.0
 10
386.3910458701203
 20
290.3226105113116
 30
0.0
 10
386.1256473923408
 20
290.3333866921567
 30
0.0
 10
385.9933773122887
 20
290.3406722471112
 30
0.0
 10
385.7955007949156
 20
290.3545333607059
 30
0.0
 10
385.7296305138491
 20
290.3596423788828
 30
0.0
 10
385.5980523755793
 20
290.3708509465355
 30
0.0
 10
385.5323218725891
 20
290.3769533072056
 30
0.0
 10
385.335806361416
 20
290.3967169513911
 30
0.0
 10
385.2055586494553
 20
290.4118449618549
 30
0.0
 10
384.8169318066045
 20
290.4631168426176
 30
0.0
 10
384.5606606443325
 20
290.505143846841
 30
0.0
 10
384.0531308426889
 20
290.6051241021443
 30
0.0
 10
383.8018782955347
 20
290.6630732908697
 30
0.0
 10
383.3039995050106
 20
290.7953100915932
 30
0.0
 10
383.0573724118618
 20
290.8695989247507
 30
0.0
 10
382.5684816470915
 20
291.0351733206198
 30
0.0
 10
382.3262190989583
 20
291.1264561945286
 30
0.0
 10
382.0260077819095
 20
291.2517841132731
 30
0.0
 10
381.9660674901994
 20
291.2774247784538
 30
0.0
 10
381.8466377134667
 20
291.3297644016208
 30
0.0
 10
381.6681481395857
 20
291.4098683253584
 30
0.0
 10
381.4916094478723
 20
291.4947964155471
 30
0.0
 10
381.3747742354477
 20
291.5536051176176
 30
0.0
  0
SPLINE
  5
1A2
330
1F
100
AcDbEntity
  8
1
100
AcDbSpline
210
0.0
220
0.0
230
1.0
 70
     8
 71
     3
 72
    10
 73
     6
 74
     0
 42
0.000000001
 43
0.0000000001
 40
0.0
 40
0.0
 40
0.0
 40
0.0
 40
0.5
 40
0.5
 40
1.0
 40
1.0
 40
1.0
 40
1.0
 10
280.7185504442805
 20
282.887661947859
 30
0.0
 10
280.4942550944418
 20
282.6769267294892
 30
0.0
 10
280.2725010020116
 20
282.4591058660654
 30
0.0
 10
279.8344491601766
 20
282.0074448405554
 30
0.0
 10
279.6181488441327
 20
281.7736169430691
 30
0.0
 10
279.4048419452957
 20
281.5304877206758
 30
0.0
  0
SPLINE
  5
1A3
330
1F
100
AcDbEntity
  8
1
100
AcDbSpline
210
0.0
220
0.0
230
1.0
 70
     8
 71
     3
 72
    26
 73
    22
 74
     0
 42
0.000000001
 43
0.0000000001
 40
0.0
 40
0.0
 40
0.0
 40
0.0
 40
0.1249999999999848
 40
0.1249999999999848
 40
0.2499999999999696
 40
0.2499999999999696
 40
0.312499999999962
 40
0.312499999999962
 40
0.3749999999999545
 40
0.3749999999999545
 40
0.4999999999999395
 40
0.4999999999999395
 40
0.6249999999999244
 40
0.6249999999999244
 40
0.687499999999937
 40
0.687499999999937
 40
0.7499999999999495
 40
0.7499999999999495
 40
0.8749999999999747
 40
0.8749999999999747
 40
1.0
 40
1.0
 40
1.0
 40
1.0
 10
388.0981156558952
 20
292.1373644286147
 30
0.0
 10
388.0583089398605
 20
292.1263595701096
 30
0.0
 10
388.0182300141961
 20
292.1177006772855
 30
0.0
 10
387.9375340868137
 20
292.1049776614656
 30
0.0
 10
387.8969170134403
 20
292.1009141028946
 30
0.0
 10
387.8355807999532
 20
292.0983111204906
 30
0.0
 10
387.8150668476832
 20
292.0980266877923
 30
0.0
 10
387.7738992947814
 20
292.0986462551874
 30
0.0
 10
387.7531774308725
 20
292.0995571139528
 30
0.0
 10
387.6915016260038
 20
292.1040579037036
 30
0.0
 10
387.6509417897893
 20
292.1093937179266
 30
0.0
 10
387.5708532483168
 20
292.1245440935743
 30
0.0
 10
387.5313244659519
 20
292.1343586764871
 30
0.0
 10
387.4727569638342
 20
292.1524282313224
 30
0.0
 10
387.4533555739273
 20
292.1590107288563
 30
0.0
 10
387.4147891758018
 20
292.1733099172256
 30
0.0
 10
387.3956380154104
 20
292.1810261747174
 30
0.0
 10
387.3392205142005
 20
292.205585685528
 30
0.0
 10
387.3027518773847
 20
292.2239181462666
 30
0.0
 10
387.2319940772848
 20
292.2643684897448
 30
0.0
 10
387.1977052486437
 20
292.2864866064712
 30
0.0
 10
387.1644947816749
 20
292.3105073357407
 30
0.0
  0
SPLINE
  5
1A4
330
1F
100
AcDbEntity
  8
1
100
AcDbSpline
210
0.0
220
0.0
230
1.0
 70
     8
 71
     3
 72
    10
 73
     6
 74
     0
 42
0.000000001
 43
0.0000000001
 40
0.0
 40
0.0
 40
0.0
 40
0.0
 40
0.5
 40
0.5
 40
1.0
 40
1.0
 40
1.0
 40
1.0
 10
385.2281344408226
 20
297.1962515960639
 30
0.0
 10
385.0314878086892
 20
297.7002195930332
 30
0.0
 10
384.8516096549385
 20
298.2100867099015
 30
0.0
 10
384.5188972381657
 20
299.2393349347287
 30
0.0
 10
384.366289542356
 20
299.758037717451
 30
0.0
 10
384.2247690524558
 20
300.2799455557254
 30
0.0
  0
SPLINE
  5
1A5
330
1F
100
AcDbEntity
  8
1
100
AcDbSpline
210
0.0
220
0.0
230
1.0
 70
     8
 71
     3
 72
    42
 73
    38
 74
     0
 42
0.000000001
 43
0.0000000001
 40
0.0
 40
0.0
 40
0.0
 40
0.0
 40
0.0566925564781716
 40
0.0566925564781716
 40
0.1133851129563432
 40
0.1133851129563432
 40
0.1700776694345147
 40
0.1700776694345147
 40
0.1984239476736001
 40
0.1984239476736001
 40
0.2267702259126854
 40
0.2267702259126854
 40
0.283462782390857
 40
0.283462782390857
 40
0.3401553388690286
 40
0.3401553388690286
 40
0.3968478953472002
 40
0.3968478953472002
 40
0.4535404518253717
 40
0.4535404518253717
 40
0.566925564781714
 40
0.566925564781714
 40
0.6803106777380564
 40
0.6803106777380564
 40
0.737003234216227
 40
0.737003234216227
 40
0.7936957906943976
 40
0.7936957906943976
 40
0.8503883471725682
 40
0.8503883471725682
 40
0.8787346254116537
 40
0.8787346254116537
 40
0.9070809036507391
 40
0.9070809036507391
 40
0.9637734601289105
 40
0.9637734601289105
 40
1.0
 40
1.0
 40
1.0
 40
1.0
 10
384.2247690524557
 20
300.2799455557254
 30
0.0
 10
383.3592348923094
 20
300.3152030053116
 30
0.0
 10
382.491155109675
 20
300.3416403416875
 30
0.0
 10
380.7496690564393
 20
300.3805315007913
 30
0.0
 10
379.8762651420845
 20
300.3929980797781
 30
0.0
 10
378.124304544682
 20
300.4073506272615
 30
0.0
 10
377.2457500304406
 20
300.4092441216985
 30
0.0
 10
375.9244359763079
 20
300.4062577209122
 30
0.0
 10
375.4833515074786
 20
300.4042853687313
 30
0.0
 10
374.6005074090007
 20
300.3986717069731
 30
0.0
 10
374.1587572258526
 20
300.3950309273751
 30
0.0
 10
372.8326181009496
 20
300.3819585649014
 30
0.0
 10
371.9473361688238
 20
300.3704034929606
 30
0.0
 10
370.1750230262658
 20
300.3428559282765
 30
0.0
 10
369.2879929046668
 20
300.3268631212675
 30
0.0
 10
367.5129430301143
 20
300.2908395253604
 30
0.0
 10
366.6249242628968
 20
300.2708087972953
 30
0.0
 10
364.8487538476113
 20
300.226272844493
 30
0.0
 10
363.9606344731687
 20
300.2016997644487
 30
0.0
 10
361.2963848388587
 20
300.1208552291657
 30
0.0
 10
359.5205320915111
 20
300.0575057643809
 30
0.0
 10
355.9699401020055
 20
299.9101907064531
 30
0.0
 10
354.195199794477
 20
299.8262130207226
 30
0.0
 10
351.5341097713172
 20
299.6830641941317
 30
0.0
 10
350.6472052816658
 20
299.6324792226752
 30
0.0
 10
348.8741474930247
 20
299.5252433219018
 30
0.0
 10
347.9879590606561
 20
299.4685941255269
 30
0.0
 10
346.2163429678754
 20
299.3487504172185
 30
0.0
 10
345.3309140200473
 20
299.2855611701499
 30
0.0
 10
344.0034496452172
 20
299.185319417324
 30
0.0
 10
343.5610758131897
 20
299.1509921283464
 30
0.0
 10
342.6765816594967
 20
299.080386955702
 30
0.0
 10
342.2344591322795
 20
299.0441141732694
 30
0.0
 10
340.9084440993603
 20
298.9323465732537
 30
0.0
 10
340.0249062569362
 20
298.8538943593804
 30
0.0
 10
338.577446429588
 20
298.7187835409335
 30
0.0
 10
338.0132872622799
 20
298.6644785921896
 30
0.0
 10
337.4492635078794
 20
298.6085784782523
 30
0.0
  0
SPLINE
  5
1A6
330
1F
100
AcDbEntity
  8
1
100
AcDbSpline
210
0.0
220
0.0
230
1.0
 70
    28
 71
     4
 72
    13
 73
     8
 74
     0
 42
0.000000001
 43
0.0000000001
 40
0.0
 40
0.0
 40
0.0
 40
0.0
 40
0.0
 40
0.3232623302488179
 40
0.3232623302488179
 40
0.3232623302488179
 40
1.0
 40
1.0
 40
1.0
 40
1.0
 40
1.0
 10
297.9048419452959
 20
284.89066575309
 30
0.0
 41
0.9979221338794658
 10
297.9048419452957
 20
284.3639129728605
 30
0.0
 41
0.9987966280907098
 10
297.9048419452957
 20
283.799543584622
 30
0.0
 41
1.00016180817551
 10
297.9048419452957
 20
283.2152854037293
 30
0.0
 41
1.00156323924462
 10
297.9048419452957
 20
281.4175238467717
 30
0.0
 41
1.00156323924462
 10
297.9048419452957
 20
280.0358807961624
 30
0.0
 41
0.9954213462452589
 10
297.9048419452957
 20
278.6852924964321
 30
0.0
 41
0.9963279797710347
 10
297.9048419452957
 20
277.5283017530876
 30
0.0
 41
0.9985882670052131
  0
SPLINE
  5
1A7
330
1F
100
AcDbEntity
  8
1
100
AcDbSpline
210
0.0
220
0.0
230
1.0
 70
     8
 71
     3
 72
    21
 73
    17
 74
     0
 42
0.000000001
 43
0.0000000001
 40
0.0
 40
0.0
 40
0.0
 40
0.0
 40
0.2500000000000172
 40
0.2500000000000172
 40
0.3125000000000204
 40
0.3125000000000204
 40
0.3750000000000236
 40
0.3750000000000236
 40
0.5000000000000301
 40
0.6250000000000365
 40
0.6250000000000365
 40
0.6875000000000321
 40
0.6875000000000321
 40
0.7500000000000277
 40
0.7500000000000277
 40
1.0
 40
1.0
 40
1.0
 40
1.0
 10
389.8208058448432
 20
296.5569760458457
 30
0.0
 10
389.8503265607457
 20
296.5272360285514
 30
0.0
 10
389.8760877413937
 20
296.494372705772
 30
0.0
 10
389.9035276404885
 20
296.4492064601533
 30
0.0
 10
389.9087743734399
 20
296.4399662860239
 30
0.0
 10
389.9187703313743
 20
296.421056669932
 30
0.0
 10
389.9235284449957
 20
296.411362353165
 30
0.0
 10
389.9368335617157
 20
296.3820570163978
 30
0.0
 10
389.952139901871
 20
296.3421456170865
 30
0.0
 10
389.9626874668135
 20
296.3005934987722
 30
0.0
 10
389.9687824861576
 20
296.2688045358623
 30
0.0
 10
389.9705154272977
 20
296.2580649514792
 30
0.0
 10
389.9733350653903
 20
296.2365765818571
 30
0.0
 10
389.9744218270967
 20
296.2258489853727
 30
0.0
 10
389.9782938992564
 20
296.1722890501251
 30
0.0
 10
389.9764588889652
 20
296.1296884047453
 30
0.0
 10
389.9698235463011
 20
296.0872924018777
 30
0.0
  0
SPLINE
  5
1A8
330
1F
100
AcDbEntity
  8
1
100
AcDbSpline
210
0.0
220
0.0
230
1.0
 70
     8
 71
     3
 72
    22
 73
    18
 74
     0
 42
0.000000001
 43
0.0000000001
 40
0.0
 40
0.0
 40
0.0
 40
0.0
 40
0.125
 40
0.125
 40
0.25
 40
0.25
 40
0.375
 40
0.375
 40
0.5
 40
0.5
 40
0.625
 40
0.625
 40
0.75
 40
0.75
 40
0.875
 40
0.875
 40
1.0
 40
1.0
 40
1.0
 40
1.0
 10
389.7439134936567
 20
296.5855759164448
 30
0.0
 10
389.7382661744618
 20
296.5851872963151
 30
0.0
 10
389.7326170724217
 20
296.5852744630239
 30
0.0
 10
389.7215119805986
 20
296.5863684865137
 30
0.0
 10
389.716028544293
 20
296.5873725400328
 30
0.0
 10
389.7052049204607
 20
296.5903209064438
 30
0.0
 10
389.6998695761848
 20
296.5922751861086
 30
0.0
 10
389.6897170989317
 20
296.5970185539443
 30
0.0
 10
389.6848513666724
 20
296.5998180966128
 30
0.0
 10
389.675561192585
 20
296.6063096874087
 30
0.0
 10
389.6711615796492
 20
296.6099973418835
 30
0.0
 10
389.6631397685117
 20
296.6180303492412
 30
0.0
 10
389.6594750950161
 20
296.62240278615
 30
0.0
 10
389.6528799022683
 20
296.6318996948424
 30
0.0
 10
389.6500055910943
 20
296.6369562951463
 30
0.0
 10
389.6452203283094
 20
296.6474686058485
 30
0.0
 10
389.6432869088661
 20
296.6529551565082
 30
0.0
 10
389.6418427515559
 20
296.6586866464556
 30
0.0
  0
SPLINE
  5
1A9
330
1F
100
AcDbEntity
  8
1
100
AcDbSpline
210
0.0
220
0.0
230
1.0
 70
     8
 71
     3
 72
    14
 73
    10
 74
     0
 42
0.000000001
 43
0.0000000001
 40
0.0
 40
0.0
 40
0.0
 40
0.0
 40
0.6431375479382096
 40
0.6431375479382096
 40
0.803921934922749
 40
0.803921934922749
 40
0.9647063219072881
 40
0.9647063219072881
 40
1.0
 40
1.0
 40
1.0
 40
1.0
 10
389.6418427515559
 20
296.6586866464556
 30
0.0
 10
389.6314546065984
 20
296.6999145293059
 30
0.0
 10
389.6259675562395
 20
296.7418387621372
 30
0.0
 10
389.6252348555305
 20
296.7951043468637
 30
0.0
 10
389.6254009120134
 20
296.8058236094214
 30
0.0
 10
389.6263522343372
 20
296.8271087469335
 30
0.0
 10
389.6271358436518
 20
296.837700019966
 30
0.0
 10
389.6284601861864
 20
296.8505547196313
 30
0.0
 10
389.6287130988815
 20
296.8528661185542
 30
0.0
 10
389.6289805343794
 20
296.8551750966184
 30
0.0
  0
SPLINE
  5
1AA
330
1F
100
AcDbEntity
  8
1
100
AcDbSpline
210
0.0
220
0.0
230
1.0
 70
     8
 71
     3
 72
    14
 73
    10
 74
     0
 42
0.000000001
 43
0.0000000001
 40
0.0
 40
0.0
 40
0.0
 40
0.0
 40
0.25
 40
0.25
 40
0.5
 40
0.5
 40
0.75
 40
0.75
 40
1.0
 40
1.0
 40
1.0
 40
1.0
 10
390.2759955337104
 20
297.6077284341433
 30
0.0
 10
390.2798232721369
 20
297.6019957735982
 30
0.0
 10
390.2830194776215
 20
297.5958696550596
 30
0.0
 10
390.2880126001529
 20
297.5831193359057
 30
0.0
 10
390.2898022215271
 20
297.5765453188919
 30
0.0
 10
390.2919525460018
 20
297.5629918561594
 30
0.0
 10
390.2922939827019
 20
297.5559783012441
 30
0.0
 10
390.2914389510761
 20
297.5421486651597
 30
0.0
 10
390.2902635325877
 20
297.5352576175313
 30
0.0
 10
390.2882747701065
 20
297.5283894471195
 30
0.0
  0
SPLINE
  5
1AB
330
1F
100
AcDbEntity
  8
1
100
AcDbSpline
210
0.0
220
0.0
230
1.0
 70
     8
 71
     3
 72
    10
 73
     6
 74
     0
 42
0.000000001
 43
0.0000000001
 40
0.0
 40
0.0
 40
0.0
 40
0.0
 40
0.5443268977710892
 40
0.5443268977710892
 40
1.0
 40
1.0
 40
1.0
 40
1.0
 10
390.2759955337098
 20
297.6077284341445
 30
0.0
 10
390.2729358101624
 20
297.612310867557
 30
0.0
 10
390.2702880948962
 20
297.6171321223363
 30
0.0
 10
390.2662417063871
 20
297.6262620166344
 30
0.0
 10
390.2646989355574
 20
297.6305414576385
 30
0.0
 10
390.2634646969119
 20
297.6349426541247
 30
0.0
  0
SPLINE
  5
1AC
330
1F
100
AcDbEntity
  8
1
100
AcDbSpline
210
0.0
220
0.0
230
1.0
 70
     8
 71
     3
 72
    14
 73
    10
 74
     0
 42
0.000000001
 43
0.0000000001
 40
0.0
 40
0.0
 40
0.0
 40
0.0
 40
0.0248250190814562
 40
0.0248250190814562
 40
0.1873541825678496
 40
0.1873541825678496
 40
0.3498833460542429
 40
0.3498833460542429
 40
1.0
 40
1.0
 40
1.0
 40
1.0
 10
392.1398083346926
 20
296.2972345614391
 30
0.0
 10
392.1392883911904
 20
296.2956888633193
 30
0.0
 10
392.1387612953203
 20
296.2941445798435
 30
0.0
 10
392.1347291954603
 20
296.2825005901382
 30
0.0
 10
392.1309279474308
 20
296.272481217604
 30
0.0
 10
392.1228110970062
 20
296.2528260225472
 30
0.0
 10
392.1184848116744
 20
296.2431582464267
 30
0.0
 10
392.0955383836903
 20
296.1956043795062
 30
0.0
 10
392.0730246922204
 20
296.1600420998589
 30
0.0
 10
392.0462475640152
 20
296.127033418982
 30
0.0
  0
SPLINE
  5
1AD
330
1F
100
AcDbEntity
  8
1
100
AcDbSpline
210
0.0
220
0.0
230
1.0
 70
     8
 71
     3
 72
    20
 73
    16
 74
     0
 42
0.000000001
 43
0.0000000001
 40
0.0
 40
0.0
 40
0.0
 40
0.0
 40
0.1249999999999662
 40
0.1249999999999662
 40
0.2499999999999325
 40
0.2499999999999325
 40
0.3749999999998986
 40
0.3749999999998986
 40
0.4999999999998649
 40
0.4999999999998649
 40
0.6249999999998312
 40
0.6249999999998312
 40
0.7499999999997974
 40
0.7499999999997974
 40
1.0
 40
1.0
 40
1.0
 40
1.0
 10
392.0462475640152
 20
296.127033418982
 30
0.0
 10
392.0425203944265
 20
296.1224388653546
 30
0.0
 10
392.0384477988483
 20
296.1182678887914
 30
0.0
 10
392.0296498700341
 20
296.1107277768452
 30
0.0
 10
392.0248727640379
 20
296.1073317317008
 30
0.0
 10
392.0149248817937
 20
296.101526712675
 30
0.0
 10
392.009773726894
 20
296.0991141480948
 30
0.0
 10
391.9991362954884
 20
296.0952207517943
 30
0.0
 10
391.9935984120423
 20
296.0937325623419
 30
0.0
 10
391.982436387106
 20
296.0917641139113
 30
0.0
 10
391.9768535412286
 20
296.0912803063212
 30
0.0
 10
391.9656862611422
 20
296.0912616698179
 30
0.0
 10
391.9600740483534
 20
296.0917320414475
 30
0.0
 10
391.9434198574945
 20
296.0945805593289
 30
0.0
 10
391.9329169607292
 20
296.0982745387688
 30
0.0
 10
391.923009862471
 20
296.1037420707243
 30
0.0
  0
SPLINE
  5
1AE
330
1F
100
AcDbEntity
  8
1
100
AcDbSpline
210
0.0
220
0.0
230
1.0
 70
     8
 71
     3
 72
    14
 73
    10
 74
     0
 42
0.000000001
 43
0.0000000001
 40
0.0
 40
0.0
 40
0.0
 40
0.0
 40
0.25
 40
0.25
 40
0.5
 40
0.5
 40
0.75
 40
0.75
 40
1.0
 40
1.0
 40
1.0
 40
1.0
 10
391.8413265228309
 20
296.1102058788327
 30
0.0
 10
391.8480994847656
 20
296.1127120708034
 30
0.0
 10
391.8551171527242
 20
296.114432160419
 30
0.0
 10
391.8691096964311
 20
296.1162923011309
 30
0.0
 10
391.876101273547
 20
296.1164534135607
 30
0.0
 10
391.8900795608529
 20
296.1152862172935
 30
0.0
 10
391.8970557358126
 20
296.113936385519
 30
0.0
 10
391.9103811582423
 20
296.1098753656921
 30
0.0
 10
391.9168139414833
 20
296.1071614772055
 30
0.0
 10
391.923009862471
 20
296.1037420707243
 30
0.0
  0
SPLINE
  5
1AF
330
1F
100
AcDbEntity
  8
1
100
AcDbSpline
210
0.0
220
0.0
230
1.0
 70
     8
 71
     3
 72
    21
 73
    17
 74
     0
 42
0.000000001
 43
0.0000000001
 40
0.0
 40
0.0
 40
0.0
 40
0.0
 40
0.2499999999999735
 40
0.2499999999999735
 40
0.312499999999969
 40
0.312499999999969
 40
0.3749999999999646
 40
0.3749999999999646
 40
0.4999999999999986
 40
0.6250000000000327
 40
0.6250000000000327
 40
0.6875000000000496
 40
0.6875000000000496
 40
0.7500000000000667
 40
0.7500000000000667
 40
1.0
 40
1.0
 40
1.0
 40
1.0
 10
391.5082834214562
 20
295.7471137623547
 30
0.0
 10
391.5201644179555
 20
295.7883464915752
 30
0.0
 10
391.5364683910141
 20
295.8277111287359
 30
0.0
 10
391.562519466195
 20
295.874569834727
 30
0.0
 10
391.5680169315342
 20
295.8838226382917
 30
0.0
 10
391.5796055809749
 20
295.9020833331192
 30
0.0
 10
391.585713911404
 20
295.9111113029626
 30
0.0
 10
391.6046701691198
 20
295.937419565919
 30
0.0
 10
391.6317685972298
 20
295.9706846331819
 30
0.0
 10
391.6624307383648
 20
296.0004026391845
 30
0.0
 10
391.6867876677743
 20
296.0213388746067
 30
0.0
 10
391.6951650444387
 20
296.0281147532148
 30
0.0
 10
391.7122224557098
 20
296.0410825810681
 30
0.0
 10
391.7208844932342
 20
296.047264430822
 30
0.0
 10
391.7648431004834
 20
296.0767165594476
 30
0.0
 10
391.8020565589181
 20
296.0956748554478
 30
0.0
 10
391.8413265228309
 20
296.1102058788327
 30
0.0
  0
SPLINE
  5
1B0
330
1F
100
AcDbEntity
  8
1
100
AcDbSpline
210
0.0
220
0.0
230
1.0
 70
     8
 71
     3
 72
     8
 73
     4
 74
     0
 42
0.000000001
 43
0.0000000001
 40
0.0
 40
0.0
 40
0.0
 40
0.0
 40
1.0
 40
1.0
 40
1.0
 40
1.0
 10
391.8883710821012
 20
297.2683673943821
 30
0.0
 10
391.8832020190245
 20
297.263283649977
 30
0.0
 10
391.8774782348708
 20
297.2588297769568
 30
0.0
 10
391.8712047902713
 20
297.2550015782696
 30
0.0
  0
SPLINE
  5
1B1
330
1F
100
AcDbEntity
  8
1
100
AcDbSpline
210
0.0
220
0.0
230
1.0
 70
     8
 71
     3
 72
    14
 73
    10
 74
     0
 42
0.000000001
 43
0.0000000001
 40
0.0
 40
0.0
 40
0.0
 40
0.0
 40
0.1653519721293962
 40
0.1653519721293962
 40
0.4435679814195975
 40
0.4435679814195975
 40
0.7217839907097988
 40
0.7217839907097988
 40
1.0
 40
1.0
 40
1.0
 40
1.0
 10
391.8284365585587
 20
297.196711663848
 30
0.0
 10
391.8294497278746
 20
297.2008029710039
 30
0.0
 10
391.8307237248414
 20
297.2047952394405
 30
0.0
 10
391.8347718227114
 20
297.2151095125891
 30
0.0
 10
391.8379662388015
 20
297.2211866853688
 30
0.0
 10
391.845627449461
 20
297.2325853200689
 30
0.0
 10
391.8501076492702
 20
297.2378868908086
 30
0.0
 10
391.8599349691304
 20
297.2472656500723
 30
0.0
 10
391.8653242091747
 20
297.2514131138338
 30
0.0
 10
391.8712047902713
 20
297.2550015782696
 30
0.0
  0
SPLINE
  5
1B2
330
1F
100
AcDbEntity
  8
1
100
AcDbSpline
210
0.0
220
0.0
230
1.0
 70
     8
 71
     3
 72
    21
 73
    17
 74
     0
 42
0.000000001
 43
0.0000000001
 40
0.0
 40
0.0
 40
0.0
 40
0.0
 40
0.2499999999999105
 40
0.2499999999999105
 40
0.3124999999998868
 40
0.3124999999998868
 40
0.374999999999863
 40
0.374999999999863
 40
0.4999999999998901
 40
0.624999999999917
 40
0.624999999999917
 40
0.6874999999999309
 40
0.6874999999999309
 40
0.749999999999945
 40
0.749999999999945
 40
1.0
 40
1.0
 40
1.0
 40
1.0
 10
391.5041013984003
 20
295.5359717879174
 30
0.0
 10
391.4731648830863
 20
295.506059746135
 30
0.0
 10
391.4392587076837
 20
295.4801288964655
 30
0.0
 10
391.393166591913
 20
295.4526897260714
 30
0.0
 10
391.3837393979727
 20
295.4474444826539
 30
0.0
 10
391.3647193890629
 20
295.4375775418069
 30
0.0
 10
391.3551053239497
 20
295.4329416564493
 30
0.0
 10
391.3259566024017
 20
295.4199104696071
 30
0.0
 10
391.2862762057471
 20
295.4048671472344
 30
0.0
 10
391.2449759001623
 20
295.3944551996995
 30
0.0
 10
391.2133729519989
 20
295.3884410935405
 30
0.0
 10
391.2027538357789
 20
295.3867425641645
 30
0.0
 10
391.1815845683708
 20
295.3839874982504
 30
0.0
 10
391.1710012211429
 20
295.3829242693093
 30
0.0
 10
391.1180910106289
 20
295.379151450252
 30
0.0
 10
391.0757832030178
 20
295.3810110225538
 30
0.0
 10
391.0335009398886
 20
295.3878811038178
 30
0.0
  0
SPLINE
  5
1B3
330
1F
100
AcDbEntity
  8
1
100
AcDbSpline
210
0.0
220
0.0
230
1.0
 70
     8
 71
     3
 72
    21
 73
    17
 74
     0
 42
0.000000001
 43
0.0000000001
 40
0.0
 40
0.0
 40
0.0
 40
0.0
 40
0.2500000000000401
 40
0.2500000000000401
 40
0.3125000000000702
 40
0.3125000000000702
 40
0.3750000000001001
 40
0.3750000000001001
 40
0.5000000000000802
 40
0.6250000000000603
 40
0.6250000000000603
 40
0.6875000000000501
 40
0.6875000000000501
 40
0.7500000000000401
 40
0.7500000000000401
 40
1.0
 40
1.0
 40
1.0
 40
1.0
 10
390.4308101705179
 20
295.6663382034632
 30
0.0
 10
390.4720404174524
 20
295.6771395430035
 30
0.0
 10
390.5139687843889
 20
295.6830882817727
 30
0.0
 10
390.5673415663534
 20
295.6843017599965
 30
0.0
 10
390.5780647906975
 20
295.6842292796078
 30
0.0
 10
390.599613115736
 20
295.6834328696288
 30
0.0
 10
390.6104641123294
 20
295.6827041739382
 30
0.0
 10
390.6426884405578
 20
295.67955838738
 30
0.0
 10
390.6850685829352
 20
295.6728131034648
 30
0.0
 10
390.7263028858542
 20
295.6610776849739
 30
0.0
 10
390.7567917008901
 20
295.6503730043784
 30
0.0
 10
390.7669174855008
 20
295.6464712336586
 30
0.0
 10
390.7868308578553
 20
295.6380983179741
 30
0.0
 10
390.7966006639134
 20
295.6336377881248
 30
0.0
 10
390.8445497158039
 20
295.6100095741318
 30
0.0
 10
390.8800651365777
 20
295.5869204979054
 30
0.0
 10
390.9128709733506
 20
295.5597466759731
 30
0.0
  0
SPLINE
  5
1B4
330
1F
100
AcDbEntity
  8
1
100
AcDbSpline
210
0.0
220
0.0
230
1.0
 70
     8
 71
     3
 72
    14
 73
    10
 74
     0
 42
0.000000001
 43
0.0000000001
 40
0.0
 40
0.0
 40
0.0
 40
0.0
 40
0.25
 40
0.25
 40
0.5
 40
0.5
 40
0.75
 40
0.75
 40
1.0
 40
1.0
 40
1.0
 40
1.0
 10
390.36572455085
 20
295.6136884743782
 30
0.0
 10
390.3690063756376
 20
295.6200876745822
 30
0.0
 10
390.3729458799928
 20
295.6261371994559
 30
0.0
 10
390.3819478319566
 20
295.6372649007472
 30
0.0
 10
390.3869686183303
 20
295.6423098119508
 30
0.0
 10
390.3980630538445
 20
295.6513518090178
 30
0.0
 10
390.4041768038262
 20
295.6553500550755
 30
0.0
 10
390.4169689511718
 20
295.6618834160982
 30
0.0
 10
390.4237042223019
 20
295.6644766148203
 30
0.0
 10
390.4308101705179
 20
295.6663382034632
 30
0.0
  0
SPLINE
  5
1B5
330
1F
100
AcDbEntity
  8
1
100
AcDbSpline
210
0.0
220
0.0
230
1.0
 70
     8
 71
     3
 72
    22
 73
    18
 74
     0
 42
0.000000001
 43
0.0000000001
 40
0.0
 40
0.0
 40
0.0
 40
0.0
 40
0.125
 40
0.125
 40
0.25
 40
0.25
 40
0.375
 40
0.375
 40
0.5
 40
0.5
 40
0.625
 40
0.625
 40
0.75
 40
0.75
 40
0.875
 40
0.875
 40
1.0
 40
1.0
 40
1.0
 40
1.0
 10
390.3657245508496
 20
295.6136884743774
 30
0.0
 10
390.3631012100579
 20
295.6085732461081
 30
0.0
 10
390.3600646324175
 20
295.6036953057065
 30
0.0
 10
390.3532951797986
 20
295.5945684511923
 30
0.0
 10
390.3495503850675
 20
295.59029431379
 30
0.0
 10
390.3413202968562
 20
295.5823421037272
 30
0.0
 10
390.3368291566636
 20
295.578673471823
 30
0.0
 10
390.3273940235323
 20
295.5722059343774
 30
0.0
 10
390.3224154899774
 20
295.5693699486572
 30
0.0
 10
390.3119146875052
 20
295.5645295857436
 30
0.0
 10
390.3064096150489
 20
295.5625447821113
 30
0.0
 10
390.2952349908251
 20
295.559581688218
 30
0.0
 10
390.2895197464653
 20
295.558580011603
 30
0.0
 10
390.2778197990565
 20
295.5575927863259
 30
0.0
 10
390.2719240265367
 20
295.557622197898
 30
0.0
 10
390.2602886471184
 20
295.5587198001699
 30
0.0
 10
390.2545107130478
 20
295.559783895918
 30
0.0
 10
390.2487754350809
 20
295.5613967469201
 30
0.0
  0
SPLINE
  5
1B6
330
1F
100
AcDbEntity
  8
1
100
AcDbSpline
210
0.0
220
0.0
230
1.0
 70
     8
 71
     3
 72
    14
 73
    10
 74
     0
 42
0.000000001
 43
0.0000000001
 40
0.0
 40
0.0
 40
0.0
 40
0.0
 40
0.25
 40
0.25
 40
0.5
 40
0.5
 40
0.75
 40
0.75
 40
1.0
 40
1.0
 40
1.0
 40
1.0
 10
389.7439134936567
 20
296.5855759164448
 30
0.0
 10
389.7509780846162
 20
296.5860620660958
 30
0.0
 10
389.7580694911009
 20
296.5858054273762
 30
0.0
 10
389.7719770989888
 20
296.5838311079007
 30
0.0
 10
389.7787453895243
 20
296.5821319144769
 30
0.0
 10
389.7919093875708
 20
296.5772922041868
 30
0.0
 10
389.7983251608768
 20
296.5741182476663
 30
0.0
 10
389.8101905206885
 20
296.5665325818817
 30
0.0
 10
389.815717707409
 20
296.5621019816726
 30
0.0
 10
389.8208058448432
 20
296.5569760458457
 30
0.0
  0
SPLINE
  5
1B7
330
1F
100
AcDbEntity
  8
1
100
AcDbSpline
210
0.0
220
0.0
230
1.0
 70
     8
 71
     3
 72
    12
 73
     8
 74
     0
 42
0.000000001
 43
0.0000000001
 40
0.0
 40
0.0
 40
0.0
 40
0.0
 40
0.3216674082793705
 40
0.5879456945673187
 40
0.7985988658499758
 40
0.9535039664056911
 40
1.0
 40
1.0
 40
1.0
 40
1.0
 10
394.4932815918098
 20
300.6369019941524
 30
0.0
 10
394.4846827519315
 20
300.6406811295832
 30
0.0
 10
394.4686283624342
 20
300.6477416523343
 30
0.0
 10
394.4448366231308
 20
300.6582110461625
 30
0.0
 10
394.4271018311838
 20
300.6660304066833
 30
0.0
 10
394.4188280930868
 20
300.6696104974143
 30
0.0
 10
394.4166447337545
 20
300.6705315241644
 30
0.0
 10
394.416514833915
 20
300.6705580714645
 30
0.0
  0
SPLINE
  5
1B8
330
1F
100
AcDbEntity
  8
1
100
AcDbSpline
210
0.0
220
0.0
230
1.0
 70
     8
 71
     3
 72
    11
 73
     7
 74
     0
 42
0.000000001
 43
0.0000000001
 40
0.0
 40
0.0
 40
0.0
 40
0.0
 40
0.0210202862830808
 40
0.2895905239230886
 40
0.6158707872683311
 40
1.0
 40
1.0
 40
1.0
 40
1.0
 10
394.5265880959152
 20
300.6004914854156
 30
0.0
 10
394.5266019599875
 20
300.6005097126275
 30
0.0
 10
394.5266561459613
 20
300.6008823981119
 30
0.0
 10
394.523125862015
 20
300.6049821926142
 30
0.0
 10
394.5112048170058
 20
300.6177155205149
 30
0.0
 10
394.5002039516318
 20
300.629514035212
 30
0.0
 10
394.4932815918098
 20
300.6369019941524
 30
0.0
  0
SPLINE
  5
1BF
330
1F
100
AcDbEntity
  8
1
100
AcDbSpline
210
0.0
220
0.0
230
1.0
 70
     8
 71
     3
 72
    36
 73
    32
 74
     0
 42
0.000000001
 43
0.0000000001
 40
0.0
 40
0.0
 40
0.0
 40
0.0
 40
0.1249999999999857
 40
0.1249999999999857
 40
0.1874999999999744
 40
0.1874999999999744
 40
0.2187499999999725
 40
0.2187499999999725
 40
0.2499999999999706
 40
0.2499999999999706
 40
0.3750000000000041
 40
0.3750000000000041
 40
0.4062500000000099
 40
0.4062500000000099
 40
0.4375000000000158
 40
0.4375000000000158
 40
0.5000000000000505
 40
0.5000000000000505
 40
0.6250000000001198
 40
0.6250000000001198
 40
0.6562500000001213
 40
0.6562500000001213
 40
0.6875000000001228
 40
0.750000000000124
 40
0.8125000000001252
 40
0.8125000000001252
 40
0.8437500000001097
 40
0.8437500000001097
 40
0.8750000000000941
 40
0.8750000000000941
 40
1.0
 40
1.0
 40
1.0
 40
1.0
 10
394.8106906244818
 20
300.0334700837246
 30
0.0
 10
394.8084197895391
 20
300.0839346464943
 30
0.0
 10
394.8009864773962
 20
300.133286943826
 30
0.0
 10
394.7826235592749
 20
300.2057613461782
 30
0.0
 10
394.775290049157
 20
300.2296582368263
 30
0.0
 10
394.7624495733195
 20
300.2651070959448
 30
0.0
 10
394.7578482107843
 20
300.2768889258453
 30
0.0
 10
394.7481016384924
 20
300.300128843171
 30
0.0
 10
394.7429589158755
 20
300.3115868864385
 30
0.0
 10
394.7159295166078
 20
300.3680863930431
 30
0.0
 10
394.690135001388
 20
300.4107794763535
 30
0.0
 10
394.6527651237939
 20
300.4610649666063
 30
0.0
 10
394.645032368229
 20
300.4709665531431
 30
0.0
 10
394.6290415589555
 20
300.4904540530774
 30
0.0
 10
394.6207771895642
 20
300.5000441052808
 30
0.0
 10
394.5954568318153
 20
300.5280388945997
 30
0.0
 10
394.5777927963155
 20
300.5457745262768
 30
0.0
 10
394.522511585018
 20
300.5962724484519
 30
0.0
 10
394.4826284984705
 20
300.6263532143998
 30
0.0
 10
394.4288455834409
 20
300.6593044466007
 30
0.0
 10
394.4178877207812
 20
300.6656591136321
 30
0.0
 10
394.3958134075577
 20
300.6777585007189
 30
0.0
 10
394.3623754469458
 20
300.6950477001677
 30
0.0
 10
394.3050388086019
 20
300.719631444361
 30
0.0
 10
394.2574614985595
 20
300.7348000691085
 30
0.0
 10
394.2211203482949
 20
300.7444431164281
 30
0.0
 10
394.2088967209462
 20
300.7473679931878
 30
0.0
 10
394.1842239480243
 20
300.7526237976865
 30
0.0
 10
394.1717616857376
 20
300.7549552166311
 30
0.0
 10
394.1094766987971
 20
300.7649944424691
 30
0.0
 10
394.0592833601123
 20
300.7680091150327
 30
0.0
 10
394.0087100338871
 20
300.7658060755365
 30
0.0
  0
SPLINE
  5
1C0
330
1F
100
AcDbEntity
  8
1
100
AcDbSpline
210
0.0
220
0.0
230
1.0
 70
     8
 71
     3
 72
    36
 73
    32
 74
     0
 42
0.000000001
 43
0.0000000001
 40
0.0
 40
0.0
 40
0.0
 40
0.0
 40
0.1249999999999661
 40
0.1249999999999661
 40
0.1874999999999486
 40
0.1874999999999486
 40
0.2187499999999398
 40
0.2187499999999398
 40
0.2499999999999311
 40
0.2499999999999311
 40
0.3749999999998592
 40
0.3749999999998592
 40
0.4062499999998476
 40
0.4062499999998476
 40
0.4374999999998359
 40
0.4374999999998359
 40
0.4999999999998381
 40
0.4999999999998381
 40
0.6249999999998427
 40
0.6249999999998427
 40
0.6562499999998483
 40
0.6562499999998483
 40
0.6874999999998539
 40
0.7499999999998842
 40
0.8124999999999145
 40
0.8124999999999145
 40
0.8437499999999296
 40
0.8437499999999296
 40
0.8749999999999449
 40
0.8749999999999449
 40
1.0
 40
1.0
 40
1.0
 40
1.0
 10
387.6159463730311
 20
300.487329022787
 30
0.0
 10
387.5653663689105
 20
300.4851256923931
 30
0.0
 10
387.515907599284
 20
300.4777705736503
 30
0.0
 10
387.4432860199453
 20
300.4595398799622
 30
0.0
 10
387.4193421769098
 20
300.4522529552005
 30
0.0
 10
387.3838260863095
 20
300.4394861675332
 30
0.0
 10
387.3720223225458
 20
300.4349100755983
 30
0.0
 10
387.3487399663491
 20
300.4252149159306
 30
0.0
 10
387.3372614151117
 20
300.4200983294732
 30
0.0
 10
387.2806628430831
 20
300.3932017101512
 30
0.0
 10
387.2379015212378
 20
300.3675200731145
 30
0.0
 10
387.1875442703126
 20
300.3302994722186
 30
0.0
 10
387.1776290149682
 20
300.3225969848397
 30
0.0
 10
387.1581155645046
 20
300.3066675499765
 30
0.0
 10
387.1485132286668
 20
300.2984343066643
 30
0.0
 10
387.1204840550155
 20
300.2732076031561
 30
0.0
 10
387.102728639823
 20
300.2556066915402
 30
0.0
 10
387.0521805357424
 20
300.2005168604138
 30
0.0
 10
387.0220784471455
 20
300.1607640183214
 30
0.0
 10
386.9891162988383
 20
300.1071473563157
 30
0.0
 10
386.9827602486425
 20
300.0962229240968
 30
0.0
 10
386.9706597198208
 20
300.0742150904366
 30
0.0
 10
386.9533712249157
 20
300.0408765520248
 30
0.0
 10
386.9288006895704
 20
299.9837041021872
 30
0.0
 10
386.9136550258003
 20
299.9362566836408
 30
0.0
 10
386.9040341765373
 20
299.9000123133347
 30
0.0
 10
386.9011175128434
 20
299.8878208459406
 30
0.0
 10
386.8958798040809
 20
299.86321218768
 30
0.0
 10
386.8935582828227
 20
299.8507819113466
 30
0.0
 10
386.8835723036949
 20
299.7886547985835
 30
0.0
 10
386.8806124331324
 20
299.7385824293995
 30
0.0
 10
386.882882968265
 20
299.6881245292838
 30
0.0
  0
SPLINE
  5
1C1
330
1F
100
AcDbEntity
  8
1
100
AcDbSpline
210
0.0
220
0.0
230
1.0
 70
     8
 71
     3
 72
    36
 73
    32
 74
     0
 42
0.000000001
 43
0.0000000001
 40
0.0
 40
0.0
 40
0.0
 40
0.0
 40
0.1249999999999171
 40
0.1249999999999171
 40
0.18749999999988
 40
0.18749999999988
 40
0.2187499999998672
 40
0.2187499999998672
 40
0.2499999999998545
 40
0.2499999999998545
 40
0.3749999999998539
 40
0.3749999999998539
 40
0.4062499999998492
 40
0.4062499999998492
 40
0.4374999999998443
 40
0.4374999999998443
 40
0.4999999999998578
 40
0.4999999999998578
 40
0.6249999999998829
 40
0.6249999999998829
 40
0.6562499999999041
 40
0.6562499999999041
 40
0.6874999999999253
 40
0.749999999999967
 40
0.8125000000000087
 40
0.8125000000000087
 40
0.8437500000000127
 40
0.8437500000000127
 40
0.8750000000000168
 40
0.8750000000000168
 40
1.0
 40
1.0
 40
1.0
 40
1.0
 10
387.169891863453
 20
293.3099514024931
 30
0.0
 10
387.1721626983957
 20
293.2594868397233
 30
0.0
 10
387.1795960105387
 20
293.2101345423916
 30
0.0
 10
387.1979589286599
 20
293.1376601400394
 30
0.0
 10
387.2052924387779
 20
293.1137632493914
 30
0.0
 10
387.2181329146152
 20
293.0783143902729
 30
0.0
 10
387.2227342771505
 20
293.0665325603724
 30
0.0
 10
387.2324808494425
 20
293.0432926430467
 30
0.0
 10
387.2376235720593
 20
293.0318345997791
 30
0.0
 10
387.264652971327
 20
292.9753350931745
 30
0.0
 10
387.2904474865468
 20
292.9326420098641
 30
0.0
 10
387.3278173641409
 20
292.8823565196113
 30
0.0
 10
387.3355501197058
 20
292.8724549330746
 30
0.0
 10
387.3515409289793
 20
292.8529674331402
 30
0.0
 10
387.3598052983706
 20
292.8433773809369
 30
0.0
 10
387.3851256561195
 20
292.8153825916179
 30
0.0
 10
387.4027896916193
 20
292.7976469599409
 30
0.0
 10
387.4580709029168
 20
292.7471490377657
 30
0.0
 10
387.4979539894643
 20
292.7170682718179
 30
0.0
 10
387.551736904494
 20
292.6841170396169
 30
0.0
 10
387.5626947671536
 20
292.6777623725856
 30
0.0
 10
387.5847690803771
 20
292.6656629854987
 30
0.0
 10
387.618207040989
 20
292.6483737860499
 30
0.0
 10
387.675543732157
 20
292.6237901809802
 30
0.0
 10
387.7231209893754
 20
292.6086214171091
 30
0.0
 10
387.7594621396398
 20
292.5989783697895
 30
0.0
 10
387.7716857669886
 20
292.5960534930299
 30
0.0
 10
387.7963585399105
 20
292.5907976885312
 30
0.0
 10
387.8088208021972
 20
292.5884662695865
 30
0.0
 10
387.8711057891377
 20
292.5784270437485
 30
0.0
 10
387.9212991278225
 20
292.5754123711849
 30
0.0
 10
387.9718724540478
 20
292.5776154106812
 30
0.0
  0
SPLINE
  5
1C2
330
1F
100
AcDbEntity
  8
1
100
AcDbSpline
210
0.0
220
0.0
230
1.0
 70
     8
 71
     3
 72
    36
 73
    32
 74
     0
 42
0.000000001
 43
0.0000000001
 40
0.0
 40
0.0
 40
0.0
 40
0.0
 40
0.1250000000000427
 40
0.1250000000000427
 40
0.1875000000000475
 40
0.1875000000000475
 40
0.2187500000000338
 40
0.2187500000000338
 40
0.25000000000002
 40
0.25000000000002
 40
0.3749999999999346
 40
0.3749999999999346
 40
0.4062499999999196
 40
0.4062499999999196
 40
0.4374999999999046
 40
0.4374999999999046
 40
0.4999999999998999
 40
0.4999999999998999
 40
0.6249999999998924
 40
0.6249999999998924
 40
0.6562499999998949
 40
0.6562499999998949
 40
0.6874999999998975
 40
0.7499999999999179
 40
0.8124999999999381
 40
0.8124999999999381
 40
0.8437499999999483
 40
0.8437499999999483
 40
0.8749999999999584
 40
0.8749999999999584
 40
1.0
 40
1.0
 40
1.0
 40
1.0
 10
394.3646361149037
 20
292.8560924634306
 30
0.0
 10
394.4152161190243
 20
292.8582957938246
 30
0.0
 10
394.4646748886507
 20
292.8656509125671
 30
0.0
 10
394.5372964679894
 20
292.8838816062554
 30
0.0
 10
394.561240311025
 20
292.8911685310171
 30
0.0
 10
394.5967564016253
 20
292.9039353186844
 30
0.0
 10
394.6085601653891
 20
292.9085114106194
 30
0.0
 10
394.6318425215858
 20
292.9182065702871
 30
0.0
 10
394.6433210728231
 20
292.9233231567444
 30
0.0
 10
394.6999196448518
 20
292.9502197760664
 30
0.0
 10
394.7426809666972
 20
292.9759014131032
 30
0.0
 10
394.7930382176222
 20
293.0131220139992
 30
0.0
 10
394.8029534729666
 20
293.0208245013779
 30
0.0
 10
394.8224669234302
 20
293.0367539362411
 30
0.0
 10
394.8320692592681
 20
293.0449871795534
 30
0.0
 10
394.8600984329194
 20
293.0702138830617
 30
0.0
 10
394.8778538481118
 20
293.0878147946774
 30
0.0
 10
394.9284019521924
 20
293.1429046258038
 30
0.0
 10
394.9585040407894
 20
293.1826574678962
 30
0.0
 10
394.9914661890965
 20
293.2362741299018
 30
0.0
 10
394.9978222392923
 20
293.2471985621209
 30
0.0
 10
395.0099227681141
 20
293.2692063957811
 30
0.0
 10
395.0272112630191
 20
293.3025449341928
 30
0.0
 10
395.0517817983644
 20
293.3597173840304
 30
0.0
 10
395.0669274621347
 20
293.4071648025767
 30
0.0
 10
395.0765483113975
 20
293.4434091728828
 30
0.0
 10
395.0794649750915
 20
293.4556006402771
 30
0.0
 10
395.0847026838538
 20
293.4802092985377
 30
0.0
 10
395.0870242051122
 20
293.492639574871
 30
0.0
 10
395.0970101842399
 20
293.5547666876342
 30
0.0
 10
395.0999700548024
 20
293.6048390568182
 30
0.0
 10
395.0976995196698
 20
293.6552969569338
 30
0.0
  0
SPLINE
  5
1C3
330
1F
100
AcDbEntity
  8
1
100
AcDbSpline
210
0.0
220
0.0
230
1.0
 70
     8
 71
     3
 72
    15
 73
    11
 74
     0
 42
0.000000001
 43
0.0000000001
 40
0.0
 40
0.0
 40
0.0
 40
0.0
 40
0.0478449179236194
 40
0.0478449179236194
 40
0.2382759343388842
 40
0.4287069507541492
 40
0.4287069507541492
 40
0.6191379671694135
 40
0.6191379671694135
 40
1.0
 40
1.0
 40
1.0
 40
1.0
 10
387.1893071277546
 20
300.326203968465
 30
0.0
 10
387.1880446571069
 20
300.3264608820994
 30
0.0
 10
387.1868101340759
 20
300.3267186229268
 30
0.0
 10
387.1808055913914
 20
300.3280051416772
 30
0.0
 10
387.1720766831555
 20
300.3300879032989
 30
0.0
 10
387.1650641227193
 20
300.3322170288653
 30
0.0
 10
387.1589238698105
 20
300.3343672884091
 30
0.0
 10
387.1562815533018
 20
300.3354579514165
 30
0.0
 10
387.1498076611132
 20
300.338713172007
 30
0.0
 10
387.1473865618022
 20
300.3408634905785
 30
0.0
 10
387.1468895026528
 20
300.3429903245037
 30
0.0
  0
SPLINE
  5
1C4
330
1F
100
AcDbEntity
  8
1
100
AcDbSpline
210
0.0
220
0.0
230
1.0
 70
     8
 71
     3
 72
    10
 73
     6
 74
     0
 42
0.000000001
 43
0.0000000001
 40
0.0
 40
0.0
 40
0.0
 40
0.0
 40
0.5
 40
0.5
 40
1.0
 40
1.0
 40
1.0
 40
1.0
 10
388.1416486916533
 20
290.9538794200515
 30
0.0
 10
388.0318304242857
 20
290.9561909292241
 30
0.0
 10
387.9206968842717
 20
290.9581003319523
 30
0.0
 10
387.6960520435389
 20
290.9616763388015
 30
0.0
 10
387.5825386745698
 20
290.9633388969302
 30
0.0
 10
387.4678419452962
 20
290.9649886839505
 30
0.0
  0
SPLINE
  5
1C5
330
1F
100
AcDbEntity
  8
1
100
AcDbSpline
210
0.0
220
0.0
230
1.0
 70
     8
 71
     3
 72
     8
 73
     4
 74
     0
 42
0.000000001
 43
0.0000000001
 40
0.0
 40
0.0
 40
0.0
 40
0.0
 40
1.0
 40
1.0
 40
1.0
 40
1.0
 10
299.591318116895
 20
284.4340709215507
 30
0.0
 10
299.5913914355398
 20
284.4438479527105
 30
0.0
 10
299.5914647637863
 20
284.4536250110621
 30
0.0
 10
299.591538101638
 20
284.4634020966161
 30
0.0
  0
SPLINE
  5
1C6
330
1F
100
AcDbEntity
  8
1
100
AcDbSpline
210
0.0
220
0.0
230
1.0
 70
     8
 71
     3
 72
   111
 73
   107
 74
     0
 42
0.000000001
 43
0.0000000001
 40
0.0
 40
0.0
 40
0.0
 40
0.0
 40
0.0156250000000015
 40
0.0156250000000015
 40
0.0312500000000029
 40
0.0312500000000029
 40
0.0468750000000044
 40
0.0468750000000044
 40
0.0625000000000058
 40
0.0625000000000058
 40
0.0937500000000078
 40
0.0937500000000078
 40
0.1093750000000081
 40
0.1093750000000081
 40
0.1250000000000085
 40
0.1250000000000085
 40
0.1406250000000088
 40
0.1406250000000088
 40
0.1562500000000092
 40
0.1718750000000095
 40
0.1718750000000095
 40
0.1875000000000099
 40
0.1875000000000099
 40
0.2031250000000102
 40
0.2031250000000102
 40
0.2187500000000105
 40
0.2187500000000105
 40
0.2500000000000112
 40
0.2500000000000112
 40
0.2812500000000118
 40
0.2812500000000118
 40
0.2968750000000119
 40
0.2968750000000119
 40
0.3125000000000122
 40
0.3125000000000122
 40
0.3437500000000125
 40
0.3437500000000125
 40
0.3593750000000127
 40
0.3593750000000127
 40
0.3750000000000128
 40
0.3750000000000128
 40
0.3906250000000129
 40
0.3906250000000129
 40
0.406250000000013
 40
0.406250000000013
 40
0.4375000000000126
 40
0.4375000000000126
 40
0.4531250000000121
 40
0.4531250000000121
 40
0.4687500000000118
 40
0.4843750000000112
 40
0.4843750000000112
 40
0.5000000000000108
 40
0.5000000000000108
 40
0.5312500000000103
 40
0.5312500000000103
 40
0.54687500000001
 40
0.54687500000001
 40
0.5625000000000098
 40
0.5625000000000098
 40
0.5781250000000096
 40
0.5781250000000096
 40
0.5937500000000094
 40
0.6093750000000091
 40
0.6093750000000091
 40
0.6250000000000089
 40
0.6250000000000089
 40
0.6406250000000088
 40
0.6406250000000088
 40
0.6562500000000086
 40
0.6562500000000086
 40
0.6875000000000085
 40
0.6875000000000085
 40
0.7031250000000084
 40
0.7031250000000084
 40
0.7187500000000082
 40
0.7187500000000082
 40
0.7343750000000081
 40
0.7343750000000081
 40
0.7500000000000079
 40
0.7656250000000079
 40
0.7656250000000079
 40
0.7812500000000079
 40
0.7812500000000079
 40
0.7968750000000077
 40
0.7968750000000077
 40
0.8125000000000074
 40
0.8125000000000074
 40
0.8437500000000071
 40
0.8437500000000071
 40
0.8593750000000063
 40
0.8593750000000063
 40
0.8750000000000056
 40
0.8750000000000056
 40
0.8906250000000051
 40
0.8906250000000051
 40
0.9062500000000044
 40
0.9218750000000037
 40
0.9218750000000037
 40
0.9375000000000031
 40
0.9375000000000031
 40
0.9531250000000024
 40
0.9531250000000024
 40
0.9687500000000017
 40
0.9687500000000017
 40
1.0
 40
1.0
 40
1.0
 40
1.0
 10
393.4733473065204
 20
284.9394935137009
 30
0.0
 10
393.4679803768757
 20
284.9115571768616
 30
0.0
 10
393.4626847954162
 20
284.8830324794083
 30
0.0
 10
393.4522374618417
 20
284.8247970204022
 30
0.0
 10
393.447087387142
 20
284.7950907674017
 30
0.0
 10
393.4370089755368
 20
284.7349351500836
 30
0.0
 10
393.4320706871261
 20
284.7044313948143
 30
0.0
 10
393.4223961338027
 20
284.6425711945411
 30
0.0
 10
393.4176517821869
 20
284.6111585400572
 30
0.0
 10
393.4037888494643
 20
284.5160576077324
 30
0.0
 10
393.3950578626945
 20
284.451660352773
 30
0.0
 10
393.3827288133004
 20
284.3535676122733
 30
0.0
 10
393.378755871756
 20
284.320682083834
 30
0.0
 10
393.3711237250153
 20
284.25488557773
 30
0.0
 10
393.3674580273093
 20
284.2219234519869
 30
0.0
 10
393.3604274850068
 20
284.155871411887
 30
0.0
 10
393.3570568889303
 20
284.1227196728106
 30
0.0
 10
393.3506585454134
 20
284.0566868526327
 30
0.0
 10
393.3445989066425
 20
283.9908990680259
 30
0.0
 10
393.3392122266745
 20
283.9255981347151
 30
0.0
 10
393.3341643419938
 20
283.8605423024773
 30
0.0
 10
393.3318204936227
 20
283.8282718285167
 30
0.0
 10
393.3274991840692
 20
283.7643795541082
 30
0.0
 10
393.3255199532828
 20
283.7327349991069
 30
0.0
 10
393.3219243884793
 20
283.670049134612
 30
0.0
 10
393.3203065158297
 20
283.6389651630479
 30
0.0
 10
393.3160311865086
 20
283.5472579400112
 30
0.0
 10
393.3139368979594
 20
283.4879658811311
 30
0.0
 10
393.3112660999539
 20
283.3732787527318
 30
0.0
 10
393.3107016405444
 20
283.3184369321214
 30
0.0
 10
393.3109985042447
 20
283.2398850962576
 30
0.0
 10
393.3112902126497
 20
283.2143081239786
 30
0.0
 10
393.3122465326235
 20
283.1649292972716
 30
0.0
 10
393.312910973929
 20
283.1410557689354
 30
0.0
 10
393.3154516353235
 20
283.0718324422819
 30
0.0
 10
393.3178728948175
 20
283.0288698370969
 30
0.0
 10
393.3225932661657
 20
282.9691933222557
 30
0.0
 10
393.3243487131094
 20
282.9500982395542
 30
0.0
 10
393.3282302788343
 20
282.9135315627586
 30
0.0
 10
393.3303584036402
 20
282.8960599908468
 30
0.0
 10
393.3349428350197
 20
282.8631244491804
 30
0.0
 10
393.3374039766476
 20
282.8476098034627
 30
0.0
 10
393.3426629364817
 20
282.8184801309159
 30
0.0
 10
393.3454637962613
 20
282.8048523486302
 30
0.0
 10
393.3543561041571
 20
282.7669303514483
 30
0.0
 10
393.3608970344502
 20
282.7457326748491
 30
0.0
 10
393.3716222469185
 20
282.7200265156055
 30
0.0
 10
393.3753541529288
 20
282.7124748150043
 30
0.0
 10
393.3830632965178
 20
282.699530506733
 30
0.0
 10
393.3910311295946
 20
282.6887074796805
 30
0.0
 10
393.3995125868587
 20
282.6820962254087
 30
0.0
 10
393.4082523188906
 20
282.6776028516077
 30
0.0
 10
393.4127601730155
 20
282.6764155849308
 30
0.0
 10
393.426610965709
 20
282.6760878201473
 30
0.0
 10
393.4362518811718
 20
282.6801488677858
 30
0.0
 10
393.451325202349
 20
282.692674152507
 30
0.0
 10
393.4564509578915
 20
282.6979287673826
 30
0.0
 10
393.4668341338132
 20
282.7105210183336
 30
0.0
 10
393.4721005052268
 20
282.7178650912919
 30
0.0
 10
393.4827830291967
 20
282.7346521342982
 30
0.0
 10
393.4882061317944
 20
282.7441085915499
 30
0.0
 10
393.4991725237107
 20
282.7650894728167
 30
0.0
 10
393.5102304757472
 20
282.7880785198743
 30
0.0
 10
393.5214706351374
 20
282.8150638763865
 30
0.0
 10
393.5328026458039
 20
282.8440637845439
 30
0.0
 10
393.5385173914804
 20
282.8595828352538
 30
0.0
 10
393.5499559372035
 20
282.8924206082459
 30
0.0
 10
393.5556899374917
 20
282.9097640407195
 30
0.0
 10
393.5671874415542
 20
282.9463030506458
 30
0.0
 10
393.5729570891793
 20
282.9655201366081
 30
0.0
 10
393.5902702174453
 20
283.0258486241728
 30
0.0
 10
393.6017439833063
 20
283.0693600000406
 30
0.0
 10
393.6188518195052
 20
283.1395816933198
 30
0.0
 10
393.6245392874915
 20
283.1638305495141
 30
0.0
 10
393.6357952015788
 20
283.2136341263147
 30
0.0
 10
393.6413742566583
 20
283.2392310289988
 30
0.0
 10
393.6524344170481
 20
283.2918171359798
 30
0.0
 10
393.6579231092975
 20
283.318845286354
 30
0.0
 10
393.6687657467093
 20
283.3741334758542
 30
0.0
 10
393.6794481472512
 20
283.4305176758158
 30
0.0
 10
393.6898118136225
 20
283.4890819981504
 30
0.0
 10
393.700014832723
 20
283.5487451380625
 30
0.0
 10
393.705032683019
 20
283.5791113382497
 30
0.0
 10
393.7148321004461
 20
283.6404899590782
 30
0.0
 10
393.7196232355954
 20
283.6715574020993
 30
0.0
 10
393.7289881404222
 20
283.734449313787
 30
0.0
 10
393.7335699922107
 20
283.7663330569534
 30
0.0
 10
393.7469193017923
 20
283.8626582740228
 30
0.0
 10
393.7552811166336
 20
283.9276690387603
 30
0.0
 10
393.7670161224912
 20
284.0263777830027
 30
0.0
 10
393.7707829207548
 20
284.0594019088062
 30
0.0
 10
393.7779936663572
 20
284.1253816916907
 30
0.0
 10
393.7814432017639
 20
284.1583839723242
 30
0.0
 10
393.7880304690465
 20
284.2244133222087
 30
0.0
 10
393.7911733194612
 20
284.257500219196
 30
0.0
 10
393.7971065285442
 20
284.3232838881073
 30
0.0
 10
393.8026929048157
 20
284.38872123892
 30
0.0
 10
393.8075900849285
 20
284.4534704163667
 30
0.0
 10
393.8121402557782
 20
284.5178730995247
 30
0.0
 10
393.8142309928988
 20
284.5497497101561
 30
0.0
 10
393.8180425231221
 20
284.6127766435293
 30
0.0
 10
393.819764305187
 20
284.6439409844846
 30
0.0
 10
393.8228397826319
 20
284.7055711860988
 30
0.0
 10
393.8241943826453
 20
284.7360735391681
 30
0.0
 10
393.827677336136
 20
284.8258947140546
 30
0.0
 10
393.8292391122609
 20
284.8837705057302
 30
0.0
 10
393.830037620001
 20
284.9394935137009
 30
0.0
  0
SPLINE
  5
1C7
330
1F
100
AcDbEntity
  8
1
100
AcDbSpline
210
0.0
220
0.0
230
1.0
 70
     8
 71
     3
 72
    55
 73
    51
 74
     0
 42
0.000000001
 43
0.0000000001
 40
0.0
 40
0.0
 40
0.0
 40
0.0
 40
0.0624999999999965
 40
0.0624999999999965
 40
0.1249999999999931
 40
0.1249999999999931
 40
0.1562499999999915
 40
0.1562499999999915
 40
0.18749999999999
 40
0.2187499999999884
 40
0.2187499999999884
 40
0.2499999999999868
 40
0.2499999999999868
 40
0.2812499999999853
 40
0.2812499999999853
 40
0.3124999999999837
 40
0.3124999999999837
 40
0.3749999999999823
 40
0.3749999999999823
 40
0.4062499999999822
 40
0.4062499999999822
 40
0.4374999999999818
 40
0.4374999999999818
 40
0.4687499999999816
 40
0.4687499999999816
 40
0.4999999999999812
 40
0.5312499999999809
 40
0.5312499999999809
 40
0.5624999999999807
 40
0.5624999999999807
 40
0.5937499999999804
 40
0.5937499999999804
 40
0.6249999999999801
 40
0.6249999999999801
 40
0.6874999999999823
 40
0.7499999999999842
 40
0.7499999999999842
 40
0.781249999999986
 40
0.781249999999986
 40
0.8124999999999877
 40
0.8124999999999877
 40
0.8437499999999895
 40
0.8437499999999895
 40
0.8749999999999911
 40
0.8749999999999911
 40
0.9374999999999957
 40
0.9374999999999957
 40
0.9687499999999978
 40
0.9687499999999978
 40
1.0
 40
1.0
 40
1.0
 40
1.0
 10
393.830037620001
 20
284.9394935137009
 30
0.0
 10
393.8252130539126
 20
284.9929266307664
 30
0.0
 10
393.8199434154965
 20
285.0440480972923
 30
0.0
 10
393.8085144159976
 20
285.1416699210237
 30
0.0
 10
393.8024008149304
 20
285.1877698118588
 30
0.0
 10
393.792658582097
 20
285.2527262580807
 30
0.0
 10
393.7893088941098
 20
285.2737180809327
 30
0.0
 10
393.7824500118372
 20
285.3140953200617
 30
0.0
 10
393.7754299132537
 20
285.3528876783547
 30
0.0
 10
393.7680889804277
 20
285.3885259882746
 30
0.0
 10
393.7605865255753
 20
285.422576411936
 30
0.0
 10
393.7567617598478
 20
285.4387717541393
 30
0.0
 10
393.7489969048872
 20
285.4693803297177
 30
0.0
 10
393.7450522540819
 20
285.4838145681975
 30
0.0
 10
393.7370383021989
 20
285.5109400993411
 30
0.0
 10
393.7329623950023
 20
285.5236494403162
 30
0.0
 10
393.720599846145
 20
285.5589764047903
 30
0.0
 10
393.7121873225351
 20
285.5787967830825
 30
0.0
 10
393.6993111484008
 20
285.6029057894133
 30
0.0
 10
393.6949796859802
 20
285.6099918493594
 30
0.0
 10
393.6862861363423
 20
285.6221882591833
 30
0.0
 10
393.6819174426832
 20
285.6273116121753
 30
0.0
 10
393.6731361016018
 20
285.635603451481
 30
0.0
 10
393.6687171995013
 20
285.6387746271183
 30
0.0
 10
393.659865323469
 20
285.6431200418727
 30
0.0
 10
393.6510130779983
 20
285.6454682147874
 30
0.0
 10
393.6421600960285
 20
285.6438347584228
 30
0.0
 10
393.6333067425727
 20
285.6401929899892
 30
0.0
 10
393.6288796591047
 20
285.6373632855858
 30
0.0
 10
393.6200847837394
 20
285.6297231111027
 30
0.0
 10
393.6157094859727
 20
285.6249107149313
 30
0.0
 10
393.6070032820226
 20
285.6132962960902
 30
0.0
 10
393.602665776272
 20
285.6064821126192
 30
0.0
 10
393.5897646909357
 20
285.5830921116185
 30
0.0
 10
393.5730123374122
 20
285.5443745988889
 30
0.0
 10
393.557132952678
 20
285.4910182836292
 30
0.0
 10
393.5455572010866
 20
285.4454037779061
 30
0.0
 10
393.5417544105927
 20
285.4292633443592
 30
0.0
 10
393.5342635975953
 20
285.3950579342842
 30
0.0
 10
393.5305976463574
 20
285.377090839709
 30
0.0
 10
393.5234488393079
 20
285.3395580498655
 30
0.0
 10
393.5199618827165
 20
285.3199737319622
 30
0.0
 10
393.5131635493434
 20
285.2791628343158
 30
0.0
 10
393.5098464126146
 20
285.2578950903273
 30
0.0
 10
393.5002151775257
 20
285.1919582588442
 30
0.0
 10
393.4942175922732
 20
285.1451761283901
 30
0.0
 10
393.4858585473339
 20
285.0707500481185
 30
0.0
 10
393.4831836170848
 20
285.0452677204182
 30
0.0
 10
393.4780842394277
 20
284.9932377099611
 30
0.0
 10
393.4756553608053
 20
284.9666513317432
 30
0.0
 10
393.4733473065204
 20
284.9394935137009
 30
0.0
  0
SPLINE
  5
1C8
330
1F
100
AcDbEntity
  8
1
100
AcDbSpline
210
0.0
220
0.0
230
1.0
 70
     8
 71
     3
 72
    10
 73
     6
 74
     0
 42
0.000000001
 43
0.0000000001
 40
0.0
 40
0.0
 40
0.0
 40
0.0
 40
0.5
 40
0.5
 40
1.0
 40
1.0
 40
1.0
 40
1.0
 10
387.4678419452958
 20
290.3285538812667
 30
0.0
 10
387.5862006378384
 20
290.3284660610506
 30
0.0
 10
387.7032166245543
 20
290.3317385390539
 30
0.0
 10
387.9345523899528
 20
290.3448099674701
 30
0.0
 10
388.0488746876104
 20
290.3546069770698
 30
0.0
 10
388.1617026352316
 20
290.3677478821324
 30
0.0
  0
SPLINE
  5
1C9
330
1F
100
AcDbEntity
  8
1
100
AcDbSpline
210
0.0
220
0.0
230
1.0
 70
    12
 71
     2
 72
     6
 73
     3
 74
     0
 42
0.000000001
 43
0.0000000001
 40
0.0
 40
0.0
 40
0.0
 40
1.0
 40
1.0
 40
1.0
 10
299.591318116895
 20
284.4340709215506
 30
0.0
 41
0.5000002122640982
 10
299.5948084088551
 20
284.4478756818208
 30
0.0
 41
0.4999997877359018
 10
299.5982952144934
 20
284.4616955884687
 30
0.0
 41
0.5000002122640982
  0
SPLINE
  5
1CA
330
1F
100
AcDbEntity
  8
1
100
AcDbSpline
210
0.0
220
0.0
230
1.0
 70
    24
 71
     3
 72
    14
 73
    10
 74
     0
 42
0.000000001
 43
0.0000000001
 40
0.0
 40
0.0
 40
0.0
 40
0.0
 40
0.2595630997158378
 40
0.2595630997158378
 40
0.5191261994316756
 40
0.5191261994316756
 40
0.7786892991475134
 40
0.7786892991475134
 40
1.0
 40
1.0
 40
1.0
 40
1.0
 10
387.4678419452958
 20
290.9649886839502
 30
0.0
 10
387.4678419452958
 20
290.8564434937816
 30
0.0
 10
387.4678419452958
 20
290.7609982645593
 30
0.0
 10
387.4678419452958
 20
290.5977018915339
 30
0.0
 10
387.4678419452958
 20
290.5298513305672
 30
0.0
 10
387.4678419452958
 20
290.4227365493601
 30
0.0
 10
387.4678419452957
 20
290.3834727114332
 30
0.0
 10
387.4678419452958
 20
290.3377433321589
 30
0.0
 10
387.4678419452957
 20
290.3272971148808
 30
0.0
 10
387.4678419452958
 20
290.3274962729219
 30
0.0
  0
SPLINE
  5
1CB
330
1F
100
AcDbEntity
  8
1
100
AcDbSpline
210
0.0
220
0.0
230
1.0
 70
     8
 71
     3
 72
    20
 73
    16
 74
     0
 42
0.000000001
 43
0.0000000001
 40
0.0
 40
0.0
 40
0.0
 40
0.0
 40
0.2499999999999986
 40
0.2499999999999986
 40
0.4999999999999973
 40
0.4999999999999973
 40
0.6249999999999966
 40
0.6249999999999966
 40
0.7499999999999958
 40
0.7499999999999958
 40
0.874999999999995
 40
0.874999999999995
 40
0.9374999999999975
 40
0.9374999999999975
 40
1.0
 40
1.0
 40
1.0
 40
1.0
 10
382.8284201491394
 20
292.6524478791993
 30
0.0
 10
383.2088560233339
 20
292.4386014083997
 30
0.0
 10
383.5894517934901
 20
292.2446471975941
 30
0.0
 10
384.3523816988354
 20
291.8929188304034
 30
0.0
 10
384.7346814077445
 20
291.7351529480183
 30
0.0
 10
385.3109363382172
 20
291.5244658323386
 30
0.0
 10
385.5034878777642
 20
291.4585772371673
 30
0.0
 10
385.8899687691197
 20
291.3354865259146
 30
0.0
 10
386.0838914274217
 20
291.2782811681911
 30
0.0
 10
386.4738675983359
 20
291.1727667410632
 30
0.0
 10
386.6699028619821
 20
291.1244489898688
 30
0.0
 10
386.9666141743264
 20
291.0590789166595
 30
0.0
 10
387.0659675694288
 20
291.0384768421847
 30
0.0
 10
387.2658844361313
 20
290.9997906985355
 30
0.0
 10
387.3664454264404
 20
290.9817053533141
 30
0.0
 10
387.4678419452958
 20
290.9649886839502
 30
0.0
  0
SPLINE
  5
1CC
330
1F
100
AcDbEntity
  8
1
100
AcDbSpline
210
0.0
220
0.0
230
1.0
 70
     8
 71
     3
 72
     8
 73
     4
 74
     0
 42
0.000000001
 43
0.0000000001
 40
0.0
 40
0.0
 40
0.0
 40
0.0
 40
1.0
 40
1.0
 40
1.0
 40
1.0
 10
293.5624732523376
 20
286.0380507861467
 30
0.0
 10
293.0582709705974
 20
286.1777094692005
 30
0.0
 10
292.5488148648732
 20
286.302193664486
 30
0.0
 10
292.0322589432653
 20
286.4052138898634
 30
0.0
  0
LINE
  5
1E5
330
1F
100
AcDbEntity
  8
SK4
100
AcDbLine
 10
214.904842
 20
288.907994
 30
0.0
 11
277.404842
 21
288.907994
 31
0.0
  0
LINE
  5
1E6
330
1F
100
AcDbEntity
  8
4
100
AcDbLine
 10
269.032259
 20
288.907994
 30
0.0
 11
399.591234
 21
288.907994
 31
0.0
  0
MTEXT
  5
1EC
330
1F
100
AcDbEntity
  8
SK6
100
AcDbMText
 10
278.633586
 20
248.640145
 30
0.0
 40
3.5
 41
0.0
 71
     7
 72
     5
  1
\W0.7022;804D-24-96-S25
  7
cesky
 73
     2
 44
0.8433729999999998
  0
MTEXT
  5
2FD
330
1F
100
AcDbEntity
  8
2
100
AcDbMText
 10
244.590342
 20
322.75644
 30
0.0
 40
3.5
 41
0.0
 71
     7
 72
     5
  1
\W0.7259;56
  7
cesky
 73
     2
 44
0.8433729999999998
  0
LINE
  5
2FE
330
1F
100
AcDbEntity
  8
2
100
AcDbLine
 10
274.404842
 20
288.907994
 30
0.0
 11
274.404842
 21
323.882273
 31
0.0
  0
LINE
  5
2FF
330
1F
100
AcDbEntity
  8
2
100
AcDbLine
 10
218.404842
 20
299.407994
 30
0.0
 11
218.404842
 21
323.882273
 31
0.0
  0
LINE
  5
300
330
1F
100
AcDbEntity
  8
2
100
AcDbLine
 10
274.404842
 20
322.882273
 30
0.0
 11
218.404842
 21
322.882273
 31
0.0
  0
SOLID
  5
301
330
1F
100
AcDbEntity
  8
2
100
AcDbTrace
 10
274.404842
 20
322.882273
 30
0.0
 11
270.904844
 21
322.265129
 31
0.0
 12
270.90484
 22
323.499418
 32
0.0
 13
270.90484
 23
323.499418
 33
0.0
  0
SOLID
  5
302
330
1F
100
AcDbEntity
  8
2
100
AcDbTrace
 10
218.404842
 20
322.882273
 30
0.0
 11
221.90484
 21
323.499418
 31
0.0
 12
221.904844
 22
322.265129
 32
0.0
 13
221.904844
 23
322.265129
 33
0.0
  0
MTEXT
  5
303
330
1F
100
AcDbEntity
  8
2
100
AcDbMText
 10
340.8104259999999
 20
311.208578
 30
0.0
 40
3.5
 41
0.0
 71
     7
 72
     5
  1
\W0.7809;103
  7
cesky
 73
     2
 44
0.8433729999999998
  0
LINE
  5
304
330
1F
100
AcDbEntity
  8
2
100
AcDbLine
 10
395.404842
 20
302.907994
 30
0.0
 11
395.404842
 21
312.334412
 31
0.0
  0
LINE
  5
305
330
1F
100
AcDbEntity
  8
2
100
AcDbLine
 10
292.3700100000001
 20
300.808665
 30
0.0
 11
292.3700100000001
 21
312.334412
 31
0.0
  0
LINE
  5
306
330
1F
100
AcDbEntity
  8
2
100
AcDbLine
 10
395.404842
 20
311.334412
 30
0.0
 11
292.3700100000001
 21
311.334412
 31
0.0
  0
SOLID
  5
307
330
1F
100
AcDbEntity
  8
2
100
AcDbTrace
 10
395.404842
 20
311.334412
 30
0.0
 11
391.904844
 21
310.717267
 31
0.0
 12
391.90484
 22
311.951556
 32
0.0
 13
391.90484
 23
311.951556
 33
0.0
  0
SOLID
  5
308
330
1F
100
AcDbEntity
  8
2
100
AcDbTrace
 10
292.3700100000001
 20
311.334412
 30
0.0
 11
295.870008
 21
311.951556
 31
0.0
 12
295.870013
 22
310.717267
 32
0.0
 13
295.870013
 23
310.717267
 33
0.0
  0
MTEXT
  5
309
330
1F
100
AcDbEntity
  8
2
100
AcDbMText
 10
331.827842
 20
322.75644
 30
0.0
 40
3.5
 41
0.0
 71
     7
 72
     5
  1
\W0.9524;121
  7
cesky
 73
     2
 44
0.8433729999999998
  0
LINE
  5
30A
330
1F
100
AcDbEntity
  8
2
100
AcDbLine
 10
395.404842
 20
300.907994
 30
0.0
 11
395.404842
 21
323.882273
 31
0.0
  0
LINE
  5
30B
330
1F
100
AcDbEntity
  8
2
100
AcDbLine
 10
274.404842
 20
289.907567
 30
0.0
 11
274.404842
 21
323.882273
 31
0.0
  0
LINE
  5
30C
330
1F
100
AcDbEntity
  8
2
100
AcDbLine
 10
395.404842
 20
322.882273
 30
0.0
 11
274.404842
 21
322.882273
 31
0.0
  0
SOLID
  5
30D
330
1F
100
AcDbEntity
  8
2
100
AcDbTrace
 10
395.404842
 20
322.882273
 30
0.0
 11
391.904844
 21
322.265129
 31
0.0
 12
391.90484
 22
323.499418
 32
0.0
 13
391.90484
 23
323.499418
 33
0.0
  0
SOLID
  5
30E
330
1F
100
AcDbEntity
  8
2
100
AcDbTrace
 10
274.404842
 20
322.882273
 30
0.0
 11
277.90484
 21
323.499418
 31
0.0
 12
277.904844
 22
322.265129
 32
0.0
 13
277.904844
 23
322.265129
 33
0.0
  0
MTEXT
  5
30F
330
1F
100
AcDbEntity
  8
2
100
AcDbMText
 10
303.827842
 20
337.029667
 30
0.0
 40
3.5
 41
0.0
 71
     7
 72
     5
  1
\W0.7809;177
  7
cesky
 73
     2
 44
0.8433729999999998
  0
LINE
  5
310
330
1F
100
AcDbEntity
  8
2
100
AcDbLine
 10
395.404842
 20
302.907994
 30
0.0
 11
395.404842
 21
338.155501
 31
0.0
  0
LINE
  5
311
330
1F
100
AcDbEntity
  8
2
100
AcDbLine
 10
218.404842
 20
299.407994
 30
0.0
 11
218.404842
 21
338.155501
 31
0.0
  0
LINE
  5
312
330
1F
100
AcDbEntity
  8
2
100
AcDbLine
 10
395.404842
 20
337.155501
 30
0.0
 11
218.404842
 21
337.155501
 31
0.0
  0
SOLID
  5
313
330
1F
100
AcDbEntity
  8
2
100
AcDbTrace
 10
395.404842
 20
337.155501
 30
0.0
 11
391.904844
 21
336.538356
 31
0.0
 12
391.90484
 22
337.772645
 32
0.0
 13
391.90484
 23
337.772645
 33
0.0
  0
SOLID
  5
314
330
1F
100
AcDbEntity
  8
2
100
AcDbTrace
 10
218.404842
 20
337.155501
 30
0.0
 11
221.90484
 21
337.772645
 31
0.0
 12
221.904844
 22
336.538356
 32
0.0
 13
221.904844
 23
336.538356
 33
0.0
  0
MTEXT
  5
315
330
1F
100
AcDbEntity
  8
2
100
AcDbMText
 10
409.435912
 20
291.45649
 30
0.0
 40
3.5
 41
0.0
 71
     7
 72
     5
  1
\W0.6844;24
  7
cesky
 11
0.0000000000000001
 21
1.0
 31
0.0
 73
     2
 44
0.8433729999999998
  0
MTEXT
  5
316
330
1F
100
AcDbEntity
  8
2
100
AcDbMText
 10
409.435912
 20
284.71899
 30
0.0
 40
3.5
 41
0.0
 71
     7
 72
     5
  1
\W3.0115;\H2.63;%%c\H3.50;
  7
cesky
 11
0.0000000000000001
 21
1.0
 31
0.0
 73
     2
 44
0.8433729999999998
  0
LINE
  5
317
330
1F
100
AcDbEntity
  8
2
100
AcDbLine
 10
397.404842
 20
300.907994
 30
0.0
 11
410.6233279999999
 21
300.907994
 31
0.0
  0
LINE
  5
318
330
1F
100
AcDbEntity
  8
2
100
AcDbLine
 10
409.6233279999999
 20
300.907994
 30
0.0
 11
409.6233279999999
 21
284.56149
 31
0.0
  0
SOLID
  5
319
330
1F
100
AcDbEntity
  8
2
100
AcDbTrace
 10
409.6233279999999
 20
300.907994
 30
0.0
 11
410.2404729999999
 21
297.407996
 31
0.0
 12
409.0061839999999
 22
297.407991
 32
0.0
 13
409.0061839999999
 23
297.407991
 33
0.0
  0
MTEXT
  5
31A
330
1F
100
AcDbEntity
  8
SK2
100
AcDbMText
 10
209.017083
 20
290.434244
 30
0.0
 40
3.5
 41
0.0
 71
     7
 72
     5
  1
\W0.7045;25
  7
cesky
 11
0.0000000000000001
 21
1.0
 31
0.0
 73
     2
 44
0.8433729999999998
  0
MTEXT
  5
31B
330
1F
100
AcDbEntity
  8
SK2
100
AcDbMText
 10
209.017083
 20
283.696744
 30
0.0
 40
3.5
 41
0.0
 71
     7
 72
     5
  1
\W3.0115;\H2.63;%%c\H3.50;
  7
cesky
 11
0.0000000000000001
 21
1.0
 31
0.0
 73
     2
 44
0.8433729999999998
  0
LINE
  5
31C
330
1F
100
AcDbEntity
  8
SK2
100
AcDbLine
 10
220.404842
 20
301.407994
 30
0.0
 11
208.204499
 21
301.407994
 31
0.0
  0
LINE
  5
31D
330
1F
100
AcDbEntity
  8
SK2
100
AcDbLine
 10
220.404842
 20
276.407994
 30
0.0
 11
208.204499
 21
276.407994
 31
0.0
  0
LINE
  5
31E
330
1F
100
AcDbEntity
  8
SK2
100
AcDbLine
 10
209.204499
 20
301.407994
 30
0.0
 11
209.204499
 21
276.407994
 31
0.0
  0
SOLID
  5
31F
330
1F
100
AcDbEntity
  8
SK2
100
AcDbTrace
 10
209.204499
 20
301.407994
 30
0.0
 11
209.821644
 21
297.9079959999999
 31
0.0
 12
208.587355
 22
297.907991
 32
0.0
 13
208.587355
 23
297.907991
 33
0.0
  0
SOLID
  5
320
330
1F
100
AcDbEntity
  8
SK2
100
AcDbTrace
 10
209.204499
 20
276.407994
 30
0.0
 11
208.587355
 21
279.9079910000001
 31
0.0
 12
209.821644
 22
279.907996
 32
0.0
 13
209.821644
 23
279.907996
 33
0.0
  0
MTEXT
  5
321
330
1F
100
AcDbEntity
  8
SK2
100
AcDbMText
 10
194.293861
 20
290.434244
 30
0.0
 40
3.5
 41
0.0
 71
     7
 72
     5
  1
\W0.7045;35
  7
cesky
 11
0.0000000000000001
 21
1.0
 31
0.0
 73
     2
 44
0.8433729999999998
  0
MTEXT
  5
322
330
1F
100
AcDbEntity
  8
SK2
100
AcDbMText
 10
194.293861
 20
283.696744
 30
0.0
 40
3.5
 41
0.0
 71
     7
 72
     5
  1
\W3.0115;\H2.63;%%c\H3.50;
  7
cesky
 11
0.0000000000000001
 21
1.0
 31
0.0
 73
     2
 44
0.8433729999999998
  0
LINE
  5
323
330
1F
100
AcDbEntity
  8
SK2
100
AcDbLine
 10
274.904842
 20
306.407994
 30
0.0
 11
193.481277
 21
306.407994
 31
0.0
  0
LINE
  5
324
330
1F
100
AcDbEntity
  8
SK2
100
AcDbLine
 10
274.904842
 20
271.407994
 30
0.0
 11
193.481277
 21
271.407994
 31
0.0
  0
LINE
  5
325
330
1F
100
AcDbEntity
  8
SK2
100
AcDbLine
 10
194.481277
 20
306.407994
 30
0.0
 11
194.481277
 21
271.407994
 31
0.0
  0
SOLID
  5
326
330
1F
100
AcDbEntity
  8
SK2
100
AcDbTrace
 10
194.481277
 20
306.407994
 30
0.0
 11
195.098422
 21
302.907996
 31
0.0
 12
193.864133
 22
302.907991
 32
0.0
 13
193.864133
 23
302.907991
 33
0.0
  0
SOLID
  5
327
330
1F
100
AcDbEntity
  8
SK2
100
AcDbTrace
 10
194.481277
 20
271.407994
 30
0.0
 11
193.864133
 21
274.907991
 31
0.0
 12
195.098422
 22
274.9079959999999
 32
0.0
 13
195.098422
 23
274.9079959999999
 33
0.0
  0
LINE
  5
328
330
1F
100
AcDbEntity
  8
CUT
100
AcDbLine
 10
395.3232220537612
 20
294.4990720017853
 30
0.0
 11
395.4048419452957
 21
289.8276302906288
 31
0.0
  0
LINE
  5
32A
330
1F
100
AcDbEntity
  8
CUT
100
AcDbLine
 10
395.0465327619589
 20
294.9594922577519
 30
0.0
 11
395.3232220537612
 21
294.4990720017853
 31
0.0
  0
LINE
  5
32B
330
1F
100
AcDbEntity
  8
CUT
100
AcDbLine
 10
394.8106906244818
 20
300.1747623657955
 30
0.0
 11
395.0465327619589
 21
294.9594922577519
 31
0.0
  0
LINE
  5
32D
330
1F
100
AcDbEntity
  8
CUT
100
AcDbLine
 10
387.6159463730311
 20
300.6092893673482
 30
0.0
 11
394.0087100338871
 21
300.9041297180009
 31
0.0
  0
LINE
  5
32E
330
1F
100
AcDbEntity
  8
CUT
100
AcDbLine
 10
395.404842
 20
288.907994
 30
0.0
 11
386.882883
 21
288.907994
 31
0.0
  0
LINE
  5
32F
330
1F
100
AcDbEntity
  8
CUT
100
AcDbLine
 10
386.882883
 20
288.907994
 30
0.0
 11
386.882883
 21
299.808533
 31
0.0
  0
LINE
  5
330
330
1F
100
AcDbEntity
  8
CUT
100
AcDbLine
 10
395.404842
 20
289.82763
 30
0.0
 11
395.404842
 21
288.907994
 31
0.0
  0
ARC
  5
331
330
1F
100
AcDbEntity
  8
CUT
100
AcDbCircle
 10
394.0349174298388
 20
300.1261746871691
 30
0.0
 40
0.778396337092569
100
AcDbArc
 50
10.47650956297395
 51
91.92942456381425
  0
ARC
  5
332
330
1F
100
AcDbEntity
  8
CUT
100
AcDbCircle
 10
394.0967334851424
 20
300.1422909836387
 30
0.0
 40
0.7146951710154586
100
AcDbArc
 50
2.604066600717017
 51
10.10713477979628
  0
ARC
  5
333
330
1F
100
AcDbEntity
  8
CUT
100
AcDbCircle
 10
387.6621704169876
 20
299.8316035701975
 30
0.0
 40
0.7796288741933096
100
AcDbArc
 50
97.53409862543072
 51
181.6957330382217
  0
ARC
  5
334
330
1F
100
AcDbEntity
  8
CUT
100
AcDbCircle
 10
387.6490396911759
 20
299.8923108832518
 30
0.0
 40
0.7177418159497889
100
AcDbArc
 50
92.64270505860192
 51
97.13035356822929
  0
ENDSEC
  0
SECTION
  2
OBJECTS
  0
DICTIONARY
  5
C
330
0
100
AcDbDictionary
281
     1
  3
ACAD_CIP_PREVIOUS_PRODUCT_INFO
350
2FA
  3
ACAD_COLOR
350
2F5
  3
ACAD_DETAILVIEWSTYLE
350
2F1
  3
ACAD_GROUP
350
D
  3
ACAD_LAYOUT
350
1A
  3
ACAD_MATERIAL
350
43
  3
ACAD_MLEADERSTYLE
350
6B
  3
ACAD_MLINESTYLE
350
17
  3
ACAD_PLOTSETTINGS
350
19
  3
ACAD_PLOTSTYLENAME
350
E
  3
ACAD_SCALELIST
350
47
  3
ACAD_SECTIONVIEWSTYLE
350
2F2
  3
ACAD_TABLESTYLE
350
69
  3
ACAD_VISUALSTYLE
350
2A
  3
ACDB_RECOMPOSE_DATA
350
360
  3
AcDbVariableDictionary
350
2AE
  0
DICTIONARY
  5
343
330
10
100
AcDbDictionary
280
     1
281
     1
  3
ADSK_XREC_LAYER_RECONCILED
360
344
  0
DICTIONARY
  5
345
330
335
100
AcDbDictionary
280
     1
281
     1
  3
ADSK_XREC_LAYER_RECONCILED
360
346
  0
DICTIONARY
  5
347
330
336
100
AcDbDictionary
280
     1
281
     1
  3
ADSK_XREC_LAYER_RECONCILED
360
348
  0
DICTIONARY
  5
349
330
337
100
AcDbDictionary
280
     1
281
     1
  3
ADSK_XREC_LAYER_RECONCILED
360
34A
  0
DICTIONARY
  5
34B
330
339
100
AcDbDictionary
280
     1
281
     1
  3
ADSK_XREC_LAYER_RECONCILED
360
34C
  0
DICTIONARY
  5
34D
330
33A
100
AcDbDictionary
280
     1
281
     1
  3
ADSK_XREC_LAYER_RECONCILED
360
34E
  0
DICTIONARY
  5
34F
330
33C
100
AcDbDictionary
280
     1
281
     1
  3
ADSK_XREC_LAYER_RECONCILED
360
350
  0
DICTIONARY
  5
351
330
33D
100
AcDbDictionary
280
     1
281
     1
  3
ADSK_XREC_LAYER_RECONCILED
360
352
  0
DICTIONARY
  5
353
330
33E
100
AcDbDictionary
280
     1
281
     1
  3
ADSK_XREC_LAYER_RECONCILED
360
354
  0
DICTIONARY
  5
355
330
33F
100
AcDbDictionary
280
     1
281
     1
  3
ADSK_XREC_LAYER_RECONCILED
360
356
  0
DICTIONARY
  5
357
330
340
100
AcDbDictionary
280
     1
281
     1
  3
ADSK_XREC_LAYER_RECONCILED
360
358
  0
DICTIONARY
  5
359
330
341
100
AcDbDictionary
280
     1
281
     1
  3
ADSK_XREC_LAYER_RECONCILED
360
35A
  0
DICTIONARY
  5
2FB
330
1F
100
AcDbDictionary
280
     1
281
     1
  3
ACAD_SORTENTS
360
2FC
  0
XRECORD
  5
2FA
102
{ACAD_REACTORS
330
C
102
}
330
C
100
AcDbXrecord
280
     1
300
ACD
300
2019
300
87084ACD_2019_0F
  0
DICTIONARY
  5
2F5
102
{ACAD_REACTORS
330
C
102
}
330
C
100
AcDbDictionary
281
     1
  0
DICTIONARY
  5
2F1
102
{ACAD_REACTORS
330
C
102
}
330
C
100
AcDbDictionary
281
     1
  3
Metric50
350
2F7
  0
DICTIONARY
  5
D
102
{ACAD_REACTORS
330
C
102
}
330
C
100
AcDbDictionary
281
     1
  3
NULOVY_BOD
350
342
  0
DICTIONARY
  5
1A
102
{ACAD_REACTORS
330
C
102
}
330
C
100
AcDbDictionary
281
     1
  3
Layout1
350
1E
  3
Layout2
350
26
  3
Model
350
22
  0
DICTIONARY
  5
43
102
{ACAD_REACTORS
330
C
102
}
330
C
100
AcDbDictionary
281
     1
  3
ByBlock
350
45
  3
ByLayer
350
44
  3
Global
350
46
  0
DICTIONARY
  5
6B
102
{ACAD_REACTORS
330
C
102
}
330
C
100
AcDbDictionary
281
     1
  3
Standard
350
6C
  0
DICTIONARY
  5
17
102
{ACAD_REACTORS
330
C
102
}
330
C
100
AcDbDictionary
281
     1
  3
Standard
350
18
  0
DICTIONARY
  5
19
102
{ACAD_REACTORS
330
C
102
}
330
C
100
AcDbDictionary
281
     1
  0
ACDBDICTIONARYWDFLT
  5
E
102
{ACAD_REACTORS
330
C
102
}
330
C
100
AcDbDictionary
281
     1
  3
Normal
350
F
100
AcDbDictionaryWithDefault
340
F
  0
DICTIONARY
  5
47
102
{ACAD_REACTORS
330
C
102
}
330
C
100
AcDbDictionary
281
     1
  3
A0
350
48
  3
A1
350
49
  3
A2
350
4A
  3
A3
350
4B
  3
A4
350
4C
  3
A5
350
4D
  3
A6
350
4E
  3
A7
350
4F
  3
A8
350
50
  3
A9
350
51
  3
B0
350
52
  3
B1
350
53
  3
B2
350
54
  3
B3
350
55
  3
B4
350
56
  3
B5
350
57
  3
B6
350
58
  3
B7
350
59
  3
B8
350
5A
  3
B9
350
5B
  3
C0
350
5C
  3
C1
350
5D
  3
C2
350
5E
  3
C3
350
5F
  3
C4
350
60
  3
C5
350
61
  3
C6
350
62
  3
C7
350
63
  3
C8
350
64
  3
C9
350
65
  3
D0
350
66
  3
D1
350
67
  3
D2
350
68
  0
DICTIONARY
  5
2F2
102
{ACAD_REACTORS
330
C
102
}
330
C
100
AcDbDictionary
281
     1
  3
Metric50
350
2F6
  0
DICTIONARY
  5
69
102
{ACAD_REACTORS
330
C
102
}
330
C
100
AcDbDictionary
281
     1
  3
Standard
350
6A
  0
DICTIONARY
  5
2A
102
{ACAD_REACTORS
330
C
102
}
330
C
100
AcDbDictionary
281
     1
  3
2dWireframe
350
2F
  3
Basic
350
32
  3
Brighten
350
36
  3
ColorChange
350
3A
  3
Conceptual
350
34
  3
Dim
350
35
  3
EdgeColorOff
350
3D
  3
Facepattern
350
39
  3
Flat
350
2B
  3
FlatWithEdges
350
2C
  3
Gouraud
350
2D
  3
GouraudWithEdges
350
2E
  3
Hidden
350
31
  3
JitterOff
350
3B
  3
Linepattern
350
38
  3
OverhangOff
350
3C
  3
Realistic
350
33
  3
Shaded
350
42
  3
Shaded with edges
350
41
  3
Shades of Gray
350
3E
  3
Sketchy
350
3F
  3
Thicken
350
37
  3
Wireframe
350
30
  3
X-Ray
350
40
  0
XRECORD
  5
360
102
{ACAD_REACTORS
330
C
102
}
330
C
100
AcDbXrecord
280
     1
 90
        1
330
6A
  0
DICTIONARY
  5
2AE
102
{ACAD_REACTORS
330
C
102
}
330
C
100
AcDbDictionary
281
     1
  3
CANNOSCALE
350
2AF
  3
CMLEADERSTYLE
350
2F0
  3
CTABLESTYLE
350
2EF
  3
CVIEWDETAILSTYLE
350
35B
  3
CVIEWSECTIONSTYLE
350
35C
  3
MSLTSCALE
350
2B0
  3
XCLIPFRAME
350
35D
  0
XRECORD
  5
344
102
{ACAD_REACTORS
330
343
102
}
330
343
100
AcDbXrecord
280
     1
290
     1
  0
XRECORD
  5
346
102
{ACAD_REACTORS
330
345
102
}
330
345
100
AcDbXrecord
280
     1
290
     1
  0
XRECORD
  5
348
102
{ACAD_REACTORS
330
347
102
}
330
347
100
AcDbXrecord
280
     1
290
     1
  0
XRECORD
  5
34A
102
{ACAD_REACTORS
330
349
102
}
330
349
100
AcDbXrecord
280
     1
290
     1
  0
XRECORD
  5
34C
102
{ACAD_REACTORS
330
34B
102
}
330
34B
100
AcDbXrecord
280
     1
290
     1
  0
XRECORD
  5
34E
102
{ACAD_REACTORS
330
34D
102
}
330
34D
100
AcDbXrecord
280
     1
290
     1
  0
XRECORD
  5
350
102
{ACAD_REACTORS
330
34F
102
}
330
34F
100
AcDbXrecord
280
     1
290
     1
  0
XRECORD
  5
352
102
{ACAD_REACTORS
330
351
102
}
330
351
100
AcDbXrecord
280
     1
290
     1
  0
XRECORD
  5
354
102
{ACAD_REACTORS
330
353
102
}
330
353
100
AcDbXrecord
280
     1
290
     1
  0
XRECORD
  5
356
102
{ACAD_REACTORS
330
355
102
}
330
355
100
AcDbXrecord
280
     1
290
     1
  0
XRECORD
  5
358
102
{ACAD_REACTORS
330
357
102
}
330
357
100
AcDbXrecord
280
     1
290
     1
  0
XRECORD
  5
35A
102
{ACAD_REACTORS
330
359
102
}
330
359
100
AcDbXrecord
280
     1
290
     1
  0
SORTENTSTABLE
  5
2FC
102
{ACAD_REACTORS
330
2FB
102
}
330
2FB
100
AcDbSortentsTable
330
1F
331
2FD
  5
268
331
2FE
  5
281
331
2FF
  5
2FD
331
300
  5
2FE
331
301
  5
2FF
331
302
  5
300
331
303
  5
301
331
304
  5
302
331
305
  5
303
331
306
  5
304
331
307
  5
305
331
308
  5
306
331
309
  5
307
331
30A
  5
308
331
30B
  5
309
331
30C
  5
30A
331
30D
  5
30B
331
30E
  5
30C
331
30F
  5
30D
331
310
  5
30E
331
311
  5
30F
331
312
  5
310
331
313
  5
311
331
314
  5
312
331
315
  5
313
331
316
  5
314
331
317
  5
315
331
318
  5
316
331
319
  5
317
331
32A
  5
32D
331
32B
  5
32E
331
32D
  5
331
331
32E
  5
332
331
32F
  5
333
331
330
  5
334
331
331
  5
32A
331
332
  5
32B
331
333
  5
32F
331
334
  5
330
  0
ACDBDETAILVIEWSTYLE
  5
2F7
102
{ACAD_XDICTIONARY
360
394
102
}
102
{ACAD_REACTORS
330
2F1
102
}
330
2F1
100
AcDbModelDocViewStyle
 70
     0
  3
Metric50
290
     0
100
AcDbDetailViewStyle
 70
     0
 71
     0
 90
        3
 71
     1
340
11
 62
   256
 40
5.0
340
0
 62
   256
 40
5.0
300

 40
0.0
280
     1
 71
     2
340
16
 90
       25
 62
   256
 71
     3
340
11
 62
   256
 40
5.0
 90
        0
 40
15.0
 90
        1
300
%<\AcVar ViewDetailId>% (%<\AcVar ViewScale \f "%sn">%)
 71
     4
340
16
 90
       25
 62
   256
340
16
 90
       25
 62
   256
280
     0
  0
GROUP
  5
342
102
{ACAD_REACTORS
330
D
102
}
330
D
100
AcDbGroup
300

 70
     0
 71
     1
340
73
  0
LAYOUT
  5
1E
102
{ACAD_REACTORS
330
1A
102
}
330
1A
100
AcDbPlotSettings
  1

  2
none_device
  4

  6

 40
0.0
 41
0.0
 42
0.0
 43
0.0
 44
0.0
 45
0.0
 46
0.0
 47
0.0
 48
0.0
 49
0.0
140
0.0
141
0.0
142
1.0
143
1.0
 70
   688
 72
     0
 73
     0
 74
     5
  7

 75
    16
147
1.0
 76
     0
 77
     2
 78
   300
148
0.0
149
0.0
100
AcDbLayout
  1
Layout1
 70
     1
 71
     1
 10
-0.5
 20
-0.5
 11
5.0
 21
5.0
 12
0.0
 22
0.0
 32
0.0
 14
-0.5
 24
-0.5
 34
-0.5
 15
5.0
 25
5.0
 35
5.0
146
0.0
 13
0.0
 23
0.0
 33
0.0
 16
1.0
 26
0.0
 36
0.0
 17
0.0
 27
1.0
 37
0.0
 76
     0
330
1B
  0
LAYOUT
  5
26
102
{ACAD_REACTORS
330
1A
102
}
330
1A
100
AcDbPlotSettings
  1

  2
none_device
  4

  6

 40
0.0
 41
0.0
 42
0.0
 43
0.0
 44
0.0
 45
0.0
 46
0.0
 47
0.0
 48
0.0
 49
0.0
140
0.0
141
0.0
142
1.0
143
1.0
 70
   688
 72
     0
 73
     0
 74
     5
  7

 75
    16
147
1.0
 76
     0
 77
     2
 78
   300
148
0.0
149
0.0
100
AcDbLayout
  1
Layout2
 70
     1
 71
     2
 10
0.0
 20
0.0
 11
0.0
 21
0.0
 12
0.0
 22
0.0
 32
0.0
 14
0.0
 24
0.0
 34
0.0
 15
0.0
 25
0.0
 35
0.0
146
0.0
 13
0.0
 23
0.0
 33
0.0
 16
1.0
 26
0.0
 36
0.0
 17
0.0
 27
1.0
 37
0.0
 76
     0
330
23
  0
LAYOUT
  5
22
102
{ACAD_REACTORS
330
1A
102
}
330
1A
100
AcDbPlotSettings
  1

  2
none_device
  4
Letter_(8.50_x_11.00_Inches)
  6

 40
6.349999999999999
 41
6.349999999999999
 42
6.350005
 43
6.350005
 44
215.9
 45
279.4
 46
0.0
 47
0.0
 48
0.0
 49
0.0
140
0.0
141
0.0
142
1.0
143
1.0
 70
  1712
 72
     0
 73
     0
 74
     0
  7

 75
     0
147
1.0
 76
     0
 77
     2
 78
   300
148
0.0
149
0.0
100
AcDbLayout
  1
Model
 70
     1
 71
     0
 10
-0.5
 20
-0.5
 11
5.0
 21
5.0
 12
0.0
 22
0.0
 32
0.0
 14
-0.5
 24
-0.5
 34
-0.5
 15
5.0
 25
5.0
 35
5.0
146
0.0
 13
0.0
 23
0.0
 33
0.0
 16
1.0
 26
0.0
 36
0.0
 17
0.0
 27
1.0
 37
0.0
 76
     0
330
1F
331
29
  0
MATERIAL
  5
45
102
{ACAD_XDICTIONARY
360
2E4
102
}
102
{ACAD_REACTORS
330
43
102
}
330
43
100
AcDbMaterial
  1
ByBlock
  0
MATERIAL
  5
44
102
{ACAD_XDICTIONARY
360
2E2
102
}
102
{ACAD_REACTORS
330
43
102
}
330
43
100
AcDbMaterial
  1
ByLayer
  0
MATERIAL
  5
46
102
{ACAD_XDICTIONARY
360
2E6
102
}
102
{ACAD_REACTORS
330
43
102
}
330
43
100
AcDbMaterial
  1
Global
  0
MLEADERSTYLE
  5
6C
102
{ACAD_REACTORS
330
6B
102
}
330
6B
100
AcDbMLeaderStyle
170
     2
171
     1
172
     0
 90
        2
 40
0.0
 41
0.0
173
     1
 91
-1056964608
340
14
 92
       -2
290
     1
 42
0.09
291
     1
 43
0.36
  3
Standard
 44
0.18
300

342
11
174
     1
178
     6
175
     1
176
     0
 93
-1056964608
 45
0.18
292
     0
297
     0
 46
0.18
 94
-1056964608
 47
1.0
 49
1.0
140
1.0
293
     1
141
0.0
294
     1
177
     0
142
1.0
295
     0
296
     0
143
0.125
1001
ACAD_MLEADERVER
1070
     2
  0
MLINESTYLE
  5
18
102
{ACAD_REACTORS
330
17
102
}
330
17
100
AcDbMlineStyle
  2
STANDARD
 70
     0
  3

 62
   256
 51
90.0
 52
90.0
 71
     2
 49
0.5
 62
   256
  6
BYLAYER
 49
-0.5
 62
   256
  6
BYLAYER
  0
ACDBPLACEHOLDER
  5
F
102
{ACAD_REACTORS
330
E
102
}
330
E
  0
SCALE
  5
48
102
{ACAD_REACTORS
330
47
102
}
330
47
100
AcDbScale
 70
     0
300
1:1
140
1.0
141
1.0
290
     1
  0
SCALE
  5
49
102
{ACAD_REACTORS
330
47
102
}
330
47
100
AcDbScale
 70
     0
300
1:2
140
1.0
141
2.0
290
     0
  0
SCALE
  5
4A
102
{ACAD_REACTORS
330
47
102
}
330
47
100
AcDbScale
 70
     0
300
1:4
140
1.0
141
4.0
290
     0
  0
SCALE
  5
4B
102
{ACAD_REACTORS
330
47
102
}
330
47
100
AcDbScale
 70
     0
300
1:5
140
1.0
141
5.0
290
     0
  0
SCALE
  5
4C
102
{ACAD_REACTORS
330
47
102
}
330
47
100
AcDbScale
 70
     0
300
1:8
140
1.0
141
8.0
290
     0
  0
SCALE
  5
4D
102
{ACAD_REACTORS
330
47
102
}
330
47
100
AcDbScale
 70
     0
300
1:10
140
1.0
141
10.0
290
     0
  0
SCALE
  5
4E
102
{ACAD_REACTORS
330
47
102
}
330
47
100
AcDbScale
 70
     0
300
1:16
140
1.0
141
16.0
290
     0
  0
SCALE
  5
4F
102
{ACAD_REACTORS
330
47
102
}
330
47
100
AcDbScale
 70
     0
300
1:20
140
1.0
141
20.0
290
     0
  0
SCALE
  5
50
102
{ACAD_REACTORS
330
47
102
}
330
47
100
AcDbScale
 70
     0
300
1:30
140
1.0
141
30.0
290
     0
  0
SCALE
  5
51
102
{ACAD_REACTORS
330
47
102
}
330
47
100
AcDbScale
 70
     0
300
1:40
140
1.0
141
40.0
290
     0
  0
SCALE
  5
52
102
{ACAD_REACTORS
330
47
102
}
330
47
100
AcDbScale
 70
     0
300
1:50
140
1.0
141
50.0
290
     0
  0
SCALE
  5
53
102
{ACAD_REACTORS
330
47
102
}
330
47
100
AcDbScale
 70
     0
300
1:100
140
1.0
141
100.0
290
     0
  0
SCALE
  5
54
102
{ACAD_REACTORS
330
47
102
}
330
47
100
AcDbScale
 70
     0
300
2:1
140
2.0
141
1.0
290
     0
  0
SCALE
  5
55
102
{ACAD_REACTORS
330
47
102
}
330
47
100
AcDbScale
 70
     0
300
4:1
140
4.0
141
1.0
290
     0
  0
SCALE
  5
56
102
{ACAD_REACTORS
330
47
102
}
330
47
100
AcDbScale
 70
     0
300
8:1
140
8.0
141
1.0
290
     0
  0
SCALE
  5
57
102
{ACAD_REACTORS
330
47
102
}
330
47
100
AcDbScale
 70
     0
300
10:1
140
10.0
141
1.0
290
     0
  0
SCALE
  5
58
102
{ACAD_REACTORS
330
47
102
}
330
47
100
AcDbScale
 70
     0
300
100:1
140
100.0
141
1.0
290
     0
  0
SCALE
  5
59
102
{ACAD_REACTORS
330
47
102
}
330
47
100
AcDbScale
 70
     0
300
1/128" = 1'-0"
140
0.007812
141
12.0
290
     0
  0
SCALE
  5
5A
102
{ACAD_REACTORS
330
47
102
}
330
47
100
AcDbScale
 70
     0
300
1/64" = 1'-0"
140
0.015625
141
12.0
290
     0
  0
SCALE
  5
5B
102
{ACAD_REACTORS
330
47
102
}
330
47
100
AcDbScale
 70
     0
300
1/32" = 1'-0"
140
0.03125
141
12.0
290
     0
  0
SCALE
  5
5C
102
{ACAD_REACTORS
330
47
102
}
330
47
100
AcDbScale
 70
     0
300
1/16" = 1'-0"
140
0.0625
141
12.0
290
     0
  0
SCALE
  5
5D
102
{ACAD_REACTORS
330
47
102
}
330
47
100
AcDbScale
 70
     0
300
3/32" = 1'-0"
140
0.09375
141
12.0
290
     0
  0
SCALE
  5
5E
102
{ACAD_REACTORS
330
47
102
}
330
47
100
AcDbScale
 70
     0
300
1/8" = 1'-0"
140
0.125
141
12.0
290
     0
  0
SCALE
  5
5F
102
{ACAD_REACTORS
330
47
102
}
330
47
100
AcDbScale
 70
     0
300
3/16" = 1'-0"
140
0.1875
141
12.0
290
     0
  0
SCALE
  5
60
102
{ACAD_REACTORS
330
47
102
}
330
47
100
AcDbScale
 70
     0
300
1/4" = 1'-0"
140
0.25
141
12.0
290
     0
  0
SCALE
  5
61
102
{ACAD_REACTORS
330
47
102
}
330
47
100
AcDbScale
 70
     0
300
3/8" = 1'-0"
140
0.375
141
12.0
290
     0
  0
SCALE
  5
62
102
{ACAD_REACTORS
330
47
102
}
330
47
100
AcDbScale
 70
     0
300
1/2" = 1'-0"
140
0.5
141
12.0
290
     0
  0
SCALE
  5
63
102
{ACAD_REACTORS
330
47
102
}
330
47
100
AcDbScale
 70
     0
300
3/4" = 1'-0"
140
0.75
141
12.0
290
     0
  0
SCALE
  5
64
102
{ACAD_REACTORS
330
47
102
}
330
47
100
AcDbScale
 70
     0
300
1" = 1'-0"
140
1.0
141
12.0
290
     0
  0
SCALE
  5
65
102
{ACAD_REACTORS
330
47
102
}
330
47
100
AcDbScale
 70
     0
300
1-1/2" = 1'-0"
140
1.5
141
12.0
290
     0
  0
SCALE
  5
66
102
{ACAD_REACTORS
330
47
102
}
330
47
100
AcDbScale
 70
     0
300
3" = 1'-0"
140
3.0
141
12.0
290
     0
  0
SCALE
  5
67
102
{ACAD_REACTORS
330
47
102
}
330
47
100
AcDbScale
 70
     0
300
6" = 1'-0"
140
6.0
141
12.0
290
     0
  0
SCALE
  5
68
102
{ACAD_REACTORS
330
47
102
}
330
47
100
AcDbScale
 70
     0
300
1'-0" = 1'-0"
140
12.0
141
12.0
290
     0
  0
ACDBSECTIONVIEWSTYLE
  5
2F6
102
{ACAD_XDICTIONARY
360
392
102
}
102
{ACAD_REACTORS
330
2F2
102
}
330
2F2
100
AcDbModelDocViewStyle
 70
     0
  3
Metric50
290
     0
100
AcDbSectionViewStyle
 70
     0
 71
     0
 90
      102
 71
     1
340
11
 62
   256
 40
5.0
340
0
340
0
 62
   256
 40
5.0
300
I, O, Q, S, X, Z
 40
10.0
 90
        0
 40
2.5
 90
        0
 71
     2
340
16
 90
       25
 62
   256
340
16
 90
       50
 62
   256
 40
5.0
 40
2.5
 40
5.0
 71
     3
340
11
 62
   256
 40
5.0
 90
        0
 40
15.0
 90
        1
300
%<\AcVar ViewSectionStartId>%-%<\AcVar ViewSectionEndId>% (%<\AcVar ViewScale \f "%sn">%)
 71
     4
 62
   256
 62
   257
300
ANSI31
 40
1.0
 90
        0
290
     0
290
     0
 90
        6
 40
0.0
 40
1.570796326794896
 40
0.2617993877991494
 40
1.308996938995747
 40
-0.2617993877991494
 40
1.832595714594046
  0
TABLESTYLE
  5
6A
102
{ACAD_XDICTIONARY
360
2E8
102
}
102
{ACAD_REACTORS
330
69
102
}
330
69
100
AcDbTableStyle
  3
Standard
 70
     0
 71
     0
 40
0.06
 41
0.06
280
     0
281
     0
  7
Standard
140
0.18
170
     2
 62
     0
 63
     7
283
     0
274
    -2
284
     1
 64
     0
275
    -2
285
     1
 65
     0
276
    -2
286
     1
 66
     0
277
    -2
287
     1
 67
     0
278
    -2
288
     1
 68
     0
279
    -2
289
     1
 69
     0
  7
Standard
140
0.25
170
     5
 62
     0
 63
     7
283
     0
274
    -2
284
     1
 64
     0
275
    -2
285
     1
 65
     0
276
    -2
286
     1
 66
     0
277
    -2
287
     1
 67
     0
278
    -2
288
     1
 68
     0
279
    -2
289
     1
 69
     0
  7
Standard
140
0.18
170
     5
 62
     0
 63
     7
283
     0
274
    -2
284
     1
 64
     0
275
    -2
285
     1
 65
     0
276
    -2
286
     1
 66
     0
277
    -2
287
     1
 67
     0
278
    -2
288
     1
 68
     0
279
    -2
289
     1
 69
     0
  0
VISUALSTYLE
  5
2F
102
{ACAD_XDICTIONARY
360
369
102
}
102
{ACAD_REACTORS
330
2A
102
}
330
2A
100
AcDbVisualStyle
  2

 70
     4
 71
     0
 72
     2
 73
     0
 90
        0
 40
-0.6
 41
-30.0
 62
     5
 63
     7
421
 16777215
 74
     1
 91
        4
 64
     7
 65
   257
 75
     1
175
     1
 42
1.0
 92
        0
 66
   257
 43
1.0
 76
     1
 77
     6
 78
     2
 67
     7
 79
     5
170
     0
171
     0
290
     0
174
     0
 93
        1
 44
0.0
173
     0
291
     0
 45
0.0
1001
ACAD
1000
AcDbSavedByObjectVersion
1070
     0
  0
VISUALSTYLE
  5
32
102
{ACAD_XDICTIONARY
360
36F
102
}
102
{ACAD_REACTORS
330
2A
102
}
330
2A
100
AcDbVisualStyle
  2

 70
     7
 71
     1
 72
     0
 73
     1
 90
        0
 40
-0.6
 41
-30.0
 62
     5
 63
     7
421
 16777215
 74
     0
 91
        4
 64
     7
 65
   257
 75
     1
175
     1
 42
1.0
 92
        8
 66
     7
 43
1.0
 76
     1
 77
     6
 78
     2
 67
     7
 79
     5
170
     0
171
     0
290
     0
174
     0
 93
        1
 44
0.0
173
     0
291
     1
 45
0.0
1001
ACAD
1000
AcDbSavedByObjectVersion
1070
     0
  0
VISUALSTYLE
  5
36
102
{ACAD_XDICTIONARY
360
377
102
}
102
{ACAD_REACTORS
330
2A
102
}
330
2A
100
AcDbVisualStyle
  2

 70
    12
 71
     2
 72
     2
 73
     0
 90
        0
 40
-0.6
 41
-30.0
 62
     5
 63
     7
421
 16777215
 74
     1
 91
        4
 64
     7
 65
   257
 75
     1
175
     1
 42
1.0
 92
        8
 66
     7
 43
1.0
 76
     1
 77
     6
 78
     2
 67
     7
 79
     5
170
     0
171
     0
290
     0
174
     0
 93
        1
 44
50.0
173
     0
291
     1
 45
0.0
1001
ACAD
1000
AcDbSavedByObjectVersion
1070
     0
  0
VISUALSTYLE
  5
3A
102
{ACAD_XDICTIONARY
360
37F
102
}
102
{ACAD_REACTORS
330
2A
102
}
330
2A
100
AcDbVisualStyle
  2

 70
    16
 71
     2
 72
     2
 73
     3
 90
        0
 40
-0.6
 41
-30.0
 62
     5
 63
     8
421
  8421504
 74
     1
 91
        4
 64
     7
 65
   257
 75
     1
175
     1
 42
1.0
 92
        8
 66
     8
424
  8421504
 43
1.0
 76
     1
 77
     6
 78
     2
 67
     7
 79
     5
170
     0
171
     0
290
     0
174
     0
 93
        1
 44
0.0
173
     0
291
     1
 45
0.0
1001
ACAD
1000
AcDbSavedByObjectVersion
1070
     0
  0
VISUALSTYLE
  5
34
102
{ACAD_XDICTIONARY
360
373
102
}
102
{ACAD_REACTORS
330
2A
102
}
330
2A
100
AcDbVisualStyle
  2

 70
     9
 71
     3
 72
     2
 73
     0
 90
        0
 40
-0.6
 41
-30.0
 62
     5
 63
     7
421
 16777215
 74
     2
 91
        2
 64
     7
 65
   257
 75
     1
175
     1
 42
179.0
 92
        8
 66
     7
 43
1.0
 76
     1
 77
     6
 78
     2
 67
     7
 79
     3
170
     0
171
     0
290
     0
174
     0
 93
        1
 44
0.0
173
     0
291
     0
 45
0.0
1001
ACAD
1000
AcDbSavedByObjectVersion
1070
     0
  0
VISUALSTYLE
  5
35
102
{ACAD_XDICTIONARY
360
375
102
}
102
{ACAD_REACTORS
330
2A
102
}
330
2A
100
AcDbVisualStyle
  2

 70
    11
 71
     2
 72
     2
 73
     0
 90
        0
 40
-0.6
 41
-30.0
 62
     5
 63
     7
421
 16777215
 74
     1
 91
        4
 64
     7
 65
   257
 75
     1
175
     1
 42
1.0
 92
        8
 66
     7
 43
1.0
 76
     1
 77
     6
 78
     2
 67
     7
 79
     5
170
     0
171
     0
290
     0
174
     0
 93
        1
 44
-50.0
173
     0
291
     1
 45
0.0
1001
ACAD
1000
AcDbSavedByObjectVersion
1070
     0
  0
VISUALSTYLE
  5
3D
102
{ACAD_XDICTIONARY
360
385
102
}
102
{ACAD_REACTORS
330
2A
102
}
330
2A
100
AcDbVisualStyle
  2

 70
    22
 71
     2
 72
     2
 73
     0
 90
        0
 40
-0.6
 41
-30.0
 62
     5
 63
     7
421
 16777215
 74
     1
 91
        4
 64
     7
 65
   257
 75
     1
175
     1
 42
1.0
 92
        8
 66
     7
 43
1.0
 76
     1
 77
     6
 78
     2
 67
     7
 79
     5
170
     0
171
     0
290
     0
174
     0
 93
        1
 44
0.0
173
     0
291
     1
 45
0.0
1001
ACAD
1000
AcDbSavedByObjectVersion
1070
     0
  0
VISUALSTYLE
  5
39
102
{ACAD_XDICTIONARY
360
37D
102
}
102
{ACAD_REACTORS
330
2A
102
}
330
2A
100
AcDbVisualStyle
  2

 70
    15
 71
     2
 72
     2
 73
     0
 90
        0
 40
-0.6
 41
-30.0
 62
     5
 63
     7
421
 16777215
 74
     1
 91
        4
 64
     7
 65
   257
 75
     1
175
     1
 42
1.0
 92
        8
 66
     7
 43
1.0
 76
     1
 77
     6
 78
     2
 67
     7
 79
     5
170
     0
171
     0
290
     0
174
     0
 93
        1
 44
0.0
173
     0
291
     1
 45
0.0
1001
ACAD
1000
AcDbSavedByObjectVersion
1070
     0
  0
VISUALSTYLE
  5
2B
102
{ACAD_XDICTIONARY
360
361
102
}
102
{ACAD_REACTORS
330
2A
102
}
330
2A
100
AcDbVisualStyle
  2

 70
     0
 71
     2
 72
     1
 73
     1
 90
        2
 40
-0.6
 41
30.0
 62
     5
 63
     7
421
 16777215
 74
     0
 91
        0
 64
     7
 65
   257
 75
     1
175
     1
 42
1.0
 92
        8
 66
     7
 43
1.0
 76
     1
 77
     6
 78
     2
 67
     7
 79
     5
170
     0
171
     0
290
     0
174
     0
 93
       13
 44
0.0
173
     0
291
     1
 45
0.0
1001
ACAD
1000
AcDbSavedByObjectVersion
1070
     0
  0
VISUALSTYLE
  5
2C
102
{ACAD_XDICTIONARY
360
363
102
}
102
{ACAD_REACTORS
330
2A
102
}
330
2A
100
AcDbVisualStyle
  2

 70
     1
 71
     2
 72
     1
 73
     1
 90
        2
 40
-0.6
 41
30.0
 62
     5
 63
     7
421
 16777215
 74
     1
 91
        0
 64
     7
 65
   257
 75
     1
175
     1
 42
1.0
 92
        0
 66
   257
 43
1.0
 76
     1
 77
     6
 78
     2
 67
     7
 79
     5
170
     0
171
     0
290
     0
174
     0
 93
       13
 44
0.0
173
     0
291
     1
 45
0.0
1001
ACAD
1000
AcDbSavedByObjectVersion
1070
     0
  0
VISUALSTYLE
  5
2D
102
{ACAD_XDICTIONARY
360
365
102
}
102
{ACAD_REACTORS
330
2A
102
}
330
2A
100
AcDbVisualStyle
  2

 70
     2
 71
     2
 72
     2
 73
     1
 90
        2
 40
-0.6
 41
30.0
 62
     5
 63
     7
421
 16777215
 74
     0
 91
        0
 64
     7
 65
   257
 75
     1
175
     1
 42
1.0
 92
        0
 66
     7
 43
1.0
 76
     1
 77
     6
 78
     2
 67
     7
 79
     5
170
     0
171
     0
290
     0
174
     0
 93
       13
 44
0.0
173
     0
291
     1
 45
0.0
1001
ACAD
1000
AcDbSavedByObjectVersion
1070
     0
  0
VISUALSTYLE
  5
2E
102
{ACAD_XDICTIONARY
360
367
102
}
102
{ACAD_REACTORS
330
2A
102
}
330
2A
100
AcDbVisualStyle
  2

 70
     3
 71
     2
 72
     2
 73
     1
 90
        2
 40
-0.6
 41
30.0
 62
     5
 63
     7
421
 16777215
 74
     1
 91
        0
 64
     7
 65
   257
 75
     1
175
     1
 42
1.0
 92
        0
 66
   257
 43
1.0
 76
     1
 77
     6
 78
     2
 67
     7
 79
     5
170
     0
171
     0
290
     0
174
     0
 93
       13
 44
0.0
173
     0
291
     1
 45
0.0
1001
ACAD
1000
AcDbSavedByObjectVersion
1070
     0
  0
VISUALSTYLE
  5
31
102
{ACAD_XDICTIONARY
360
36D
102
}
102
{ACAD_REACTORS
330
2A
102
}
330
2A
100
AcDbVisualStyle
  2

 70
     6
 71
     1
 72
     2
 73
     2
 90
        0
 40
-0.6
 41
-30.0
 62
     5
 63
     7
421
 16777215
 74
     2
 91
        2
 64
     7
 65
   257
 75
     2
175
     1
 42
40.0
 92
        0
 66
   257
 43
1.0
 76
     1
 77
     6
 78
     2
 67
     7
 79
     3
170
     0
171
     0
290
     0
174
     0
 93
        1
 44
0.0
173
     0
291
     0
 45
0.0
1001
ACAD
1000
AcDbSavedByObjectVersion
1070
     0
  0
VISUALSTYLE
  5
3B
102
{ACAD_XDICTIONARY
360
381
102
}
102
{ACAD_REACTORS
330
2A
102
}
330
2A
100
AcDbVisualStyle
  2

 70
    20
 71
     2
 72
     2
 73
     0
 90
        0
 40
-0.6
 41
-30.0
 62
     5
 63
     7
421
 16777215
 74
     1
 91
        4
 64
     7
 65
   257
 75
     1
175
     1
 42
1.0
 92
       10
 66
     7
 43
1.0
 76
     1
 77
     6
 78
     2
 67
     7
 79
     5
170
     0
171
     0
290
     0
174
     0
 93
        1
 44
0.0
173
     0
291
     1
 45
0.0
1001
ACAD
1000
AcDbSavedByObjectVersion
1070
     0
  0
VISUALSTYLE
  5
38
102
{ACAD_XDICTIONARY
360
37B
102
}
102
{ACAD_REACTORS
330
2A
102
}
330
2A
100
AcDbVisualStyle
  2

 70
    14
 71
     2
 72
     2
 73
     0
 90
        0
 40
-0.6
 41
-30.0
 62
     5
 63
     7
421
 16777215
 74
     1
 91
        4
 64
     7
 65
   257
 75
     7
175
     7
 42
1.0
 92
        8
 66
     7
 43
1.0
 76
     1
 77
     6
 78
     2
 67
     7
 79
     5
170
     0
171
     0
290
     0
174
     0
 93
        1
 44
0.0
173
     0
291
     1
 45
0.0
1001
ACAD
1000
AcDbSavedByObjectVersion
1070
     0
  0
VISUALSTYLE
  5
3C
102
{ACAD_XDICTIONARY
360
383
102
}
102
{ACAD_REACTORS
330
2A
102
}
330
2A
100
AcDbVisualStyle
  2

 70
    21
 71
     2
 72
     2
 73
     0
 90
        0
 40
-0.6
 41
-30.0
 62
     5
 63
     7
421
 16777215
 74
     1
 91
        4
 64
     7
 65
   257
 75
     1
175
     1
 42
1.0
 92
        9
 66
     7
 43
1.0
 76
     1
 77
     6
 78
     2
 67
     7
 79
     5
170
     0
171
     0
290
     0
174
     0
 93
        1
 44
0.0
173
     0
291
     1
 45
0.0
1001
ACAD
1000
AcDbSavedByObjectVersion
1070
     0
  0
VISUALSTYLE
  5
33
102
{ACAD_XDICTIONARY
360
371
102
}
102
{ACAD_REACTORS
330
2A
102
}
330
2A
100
AcDbVisualStyle
  2

 70
     8
 71
     2
 72
     3
 73
     0
 90
        2
 40
-0.6
 41
30.0
 62
     5
 63
     7
421
 16777215
 74
     0
 91
        0
 64
     7
 65
   257
 75
     1
175
     1
 42
1.0
 92
        8
 66
   257
 43
1.0
 76
     1
 77
     6
 78
     2
 67
     7
 79
     3
170
     0
171
     0
290
     0
174
     0
 93
       13
 44
0.0
173
     0
291
     0
 45
0.0
1001
ACAD
1000
AcDbSavedByObjectVersion
1070
     0
  0
VISUALSTYLE
  5
42
102
{ACAD_XDICTIONARY
360
38F
102
}
102
{ACAD_REACTORS
330
2A
102
}
330
2A
100
AcDbVisualStyle
  2

 70
    27
 71
     2
 72
     2
 73
     1
 90
        2
 40
-0.6
 41
30.0
 62
     5
 63
     7
421
 16777215
 74
     0
 91
        4
 64
     7
 65
   257
 75
     1
175
     1
 42
1.0
 92
        8
 66
   257
 43
1.0
 76
     1
 77
     6
 78
     2
 67
     8
425
  7895160
 79
     3
170
     0
171
     0
290
     0
174
     0
 93
        5
 44
0.0
173
     0
291
     0
 45
0.0
1001
ACAD
1000
AcDbSavedByObjectVersion
1070
     0
  0
VISUALSTYLE
  5
41
102
{ACAD_XDICTIONARY
360
38D
102
}
102
{ACAD_REACTORS
330
2A
102
}
330
2A
100
AcDbVisualStyle
  2

 70
    26
 71
     2
 72
     2
 73
     1
 90
        2
 40
-0.6
 41
30.0
 62
     5
 63
     7
421
 16777215
 74
     1
 91
       10
 64
     7
 65
   257
 75
     2
175
     1
 42
1.0
 92
        8
 66
   257
 43
1.0
 76
     1
 77
     6
 78
     2
 67
     7
 79
     3
170
     0
171
     0
290
     0
174
     0
 93
        5
 44
0.0
173
     0
291
     0
 45
0.0
1001
ACAD
1000
AcDbSavedByObjectVersion
1070
     0
  0
VISUALSTYLE
  5
3E
102
{ACAD_XDICTIONARY
360
387
102
}
102
{ACAD_REACTORS
330
2A
102
}
330
2A
100
AcDbVisualStyle
  2

 70
    23
 71
     2
 72
     2
 73
     3
 90
        0
 40
-0.6
 41
-30.0
 62
     5
 63
     7
421
 16777215
 74
     2
 91
        2
 64
     7
 65
     7
 75
     1
175
     1
 42
40.0
 92
        8
 66
     7
 43
1.0
 76
     1
 77
     6
 78
     2
 67
     7
 79
     3
170
     0
171
     0
290
     0
174
     0
 93
        1
 44
0.0
173
     0
291
     0
 45
0.0
1001
ACAD
1000
AcDbSavedByObjectVersion
1070
     0
  0
VISUALSTYLE
  5
3F
102
{ACAD_XDICTIONARY
360
389
102
}
102
{ACAD_REACTORS
330
2A
102
}
330
2A
100
AcDbVisualStyle
  2

 70
    24
 71
     1
 72
     2
 73
     2
 90
        0
 40
-0.6
 41
-30.0
 62
     5
 63
     7
421
 16777215
 74
     2
 91
        2
 64
     7
 65
     7
 75
     1
175
     1
 42
40.0
 92
       11
 66
     7
 43
1.0
 76
     1
 77
     6
 78
     2
 67
     7
 79
     6
170
     0
171
     0
290
     0
174
     0
 93
        1
 44
0.0
173
     0
291
     0
 45
0.0
1001
ACAD
1000
AcDbSavedByObjectVersion
1070
     0
  0
VISUALSTYLE
  5
37
102
{ACAD_XDICTIONARY
360
379
102
}
102
{ACAD_REACTORS
330
2A
102
}
330
2A
100
AcDbVisualStyle
  2

 70
    13
 71
     2
 72
     2
 73
     0
 90
        0
 40
-0.6
 41
-30.0
 62
     5
 63
     7
421
 16777215
 74
     1
 91
        4
 64
     7
 65
   257
 75
     1
175
     1
 42
1.0
 92
       12
 66
     7
 43
1.0
 76
     1
 77
     6
 78
     2
 67
     7
 79
     5
170
     0
171
     0
290
     0
174
     0
 93
        1
 44
0.0
173
     0
291
     1
 45
0.0
1001
ACAD
1000
AcDbSavedByObjectVersion
1070
     0
  0
VISUALSTYLE
  5
30
102
{ACAD_XDICTIONARY
360
36B
102
}
102
{ACAD_REACTORS
330
2A
102
}
330
2A
100
AcDbVisualStyle
  2

 70
     5
 71
     0
 72
     2
 73
     0
 90
        0
 40
-0.6
 41
-30.0
 62
     5
 63
     7
421
 16777215
 74
     1
 91
        4
 64
     7
 65
   257
 75
     1
175
     1
 42
1.0
 92
        0
 66
   257
 43
1.0
 76
     1
 77
     6
 78
     2
 67
     7
 79
     3
170
     0
171
     0
290
     0
174
     0
 93
        1
 44
0.0
173
     0
291
     0
 45
0.0
1001
ACAD
1000
AcDbSavedByObjectVersion
1070
     0
  0
VISUALSTYLE
  5
40
102
{ACAD_XDICTIONARY
360
38B
102
}
102
{ACAD_REACTORS
330
2A
102
}
330
2A
100
AcDbVisualStyle
  2

 70
    25
 71
     2
 72
     2
 73
     1
 90
        1
 40
0.5
 41
-30.0
 62
     5
 63
     7
421
 16777215
 74
     1
 91
        0
 64
     7
 65
   257
 75
     1
175
     1
 42
1.0
 92
        8
 66
     7
 43
1.0
 76
     1
 77
     6
 78
     2
 67
     7
 79
     3
170
     0
171
     0
290
     0
174
     0
 93
       13
 44
0.0
173
     0
291
     0
 45
0.0
1001
ACAD
1000
AcDbSavedByObjectVersion
1070
     0
  0
DICTIONARYVAR
  5
2AF
102
{ACAD_REACTORS
330
2AE
102
}
330
2AE
100
DictionaryVariables
280
     0
  1
1:1
  0
DICTIONARYVAR
  5
2F0
102
{ACAD_REACTORS
330
2AE
102
}
330
2AE
100
DictionaryVariables
280
     0
  1
STANDARD
  0
DICTIONARYVAR
  5
2EF
102
{ACAD_REACTORS
330
2AE
102
}
330
2AE
100
DictionaryVariables
280
     0
  1
STANDARD
  0
DICTIONARYVAR
  5
35B
102
{ACAD_REACTORS
330
2AE
102
}
330
2AE
100
DictionaryVariables
280
     0
  1
Metric50
  0
DICTIONARYVAR
  5
35C
102
{ACAD_REACTORS
330
2AE
102
}
330
2AE
100
DictionaryVariables
280
     0
  1
Metric50
  0
DICTIONARYVAR
  5
2B0
102
{ACAD_REACTORS
330
2AE
102
}
330
2AE
100
DictionaryVariables
280
     0
  1
1
  0
DICTIONARYVAR
  5
35D
102
{ACAD_REACTORS
330
2AE
102
}
330
2AE
100
DictionaryVariables
280
     0
  1
2
  0
DICTIONARY
  5
394
330
2F7
100
AcDbDictionary
280
     1
281
     1
  3
ACAD_XREC_ROUNDTRIP
360
395
  0
DICTIONARY
  5
2E4
330
45
100
AcDbDictionary
280
     1
281
     1
  3
ACAD_XREC_ROUNDTRIP
360
2E5
  0
DICTIONARY
  5
2E2
330
44
100
AcDbDictionary
280
     1
281
     1
  3
ACAD_XREC_ROUNDTRIP
360
2E3
  0
DICTIONARY
  5
2E6
330
46
100
AcDbDictionary
280
     1
281
     1
  3
ACAD_XREC_ROUNDTRIP
360
2E7
  0
DICTIONARY
  5
392
330
2F6
100
AcDbDictionary
280
     1
281
     1
  3
ACAD_XREC_ROUNDTRIP
360
393
  0
DICTIONARY
  5
2E8
330
6A
100
AcDbDictionary
280
     1
281
     1
  3
ACAD_ROUNDTRIP_2008_TABLESTYLE_CELLSTYLEMAP
360
35F
  3
ACAD_XREC_ROUNDTRIP
360
391
  0
DICTIONARY
  5
369
330
2F
100
AcDbDictionary
280
     1
281
     1
  3
ACAD_XREC_ROUNDTRIP
360
36A
  0
DICTIONARY
  5
36F
330
32
100
AcDbDictionary
280
     1
281
     1
  3
ACAD_XREC_ROUNDTRIP
360
370
  0
DICTIONARY
  5
377
330
36
100
AcDbDictionary
280
     1
281
     1
  3
ACAD_XREC_ROUNDTRIP
360
378
  0
DICTIONARY
  5
37F
330
3A
100
AcDbDictionary
280
     1
281
     1
  3
ACAD_XREC_ROUNDTRIP
360
380
  0
DICTIONARY
  5
373
330
34
100
AcDbDictionary
280
     1
281
     1
  3
ACAD_XREC_ROUNDTRIP
360
374
  0
DICTIONARY
  5
375
330
35
100
AcDbDictionary
280
     1
281
     1
  3
ACAD_XREC_ROUNDTRIP
360
376
  0
DICTIONARY
  5
385
330
3D
100
AcDbDictionary
280
     1
281
     1
  3
ACAD_XREC_ROUNDTRIP
360
386
  0
DICTIONARY
  5
37D
330
39
100
AcDbDictionary
280
     1
281
     1
  3
ACAD_XREC_ROUNDTRIP
360
37E
  0
DICTIONARY
  5
361
330
2B
100
AcDbDictionary
280
     1
281
     1
  3
ACAD_XREC_ROUNDTRIP
360
362
  0
DICTIONARY
  5
363
330
2C
100
AcDbDictionary
280
     1
281
     1
  3
ACAD_XREC_ROUNDTRIP
360
364
  0
DICTIONARY
  5
365
330
2D
100
AcDbDictionary
280
     1
281
     1
  3
ACAD_XREC_ROUNDTRIP
360
366
  0
DICTIONARY
  5
367
330
2E
100
AcDbDictionary
280
     1
281
     1
  3
ACAD_XREC_ROUNDTRIP
360
368
  0
DICTIONARY
  5
36D
330
31
100
AcDbDictionary
280
     1
281
     1
  3
ACAD_XREC_ROUNDTRIP
360
36E
  0
DICTIONARY
  5
381
330
3B
100
AcDbDictionary
280
     1
281
     1
  3
ACAD_XREC_ROUNDTRIP
360
382
  0
DICTIONARY
  5
37B
330
38
100
AcDbDictionary
280
     1
281
     1
  3
ACAD_XREC_ROUNDTRIP
360
37C
  0
DICTIONARY
  5
383
330
3C
100
AcDbDictionary
280
     1
281
     1
  3
ACAD_XREC_ROUNDTRIP
360
384
  0
DICTIONARY
  5
371
330
33
100
AcDbDictionary
280
     1
281
     1
  3
ACAD_XREC_ROUNDTRIP
360
372
  0
DICTIONARY
  5
38F
330
42
100
AcDbDictionary
280
     1
281
     1
  3
ACAD_XREC_ROUNDTRIP
360
390
  0
DICTIONARY
  5
38D
330
41
100
AcDbDictionary
280
     1
281
     1
  3
ACAD_XREC_ROUNDTRIP
360
38E
  0
DICTIONARY
  5
387
330
3E
100
AcDbDictionary
280
     1
281
     1
  3
ACAD_XREC_ROUNDTRIP
360
388
  0
DICTIONARY
  5
389
330
3F
100
AcDbDictionary
280
     1
281
     1
  3
ACAD_XREC_ROUNDTRIP
360
38A
  0
DICTIONARY
  5
379
330
37
100
AcDbDictionary
280
     1
281
     1
  3
ACAD_XREC_ROUNDTRIP
360
37A
  0
DICTIONARY
  5
36B
330
30
100
AcDbDictionary
280
     1
281
     1
  3
ACAD_XREC_ROUNDTRIP
360
36C
  0
DICTIONARY
  5
38B
330
40
100
AcDbDictionary
280
     1
281
     1
  3
ACAD_XREC_ROUNDTRIP
360
38C
  0
XRECORD
  5
395
102
{ACAD_REACTORS
330
394
102
}
330
394
100
AcDbXrecord
280
     1
102
DISPLAYNAME
  1
Metric50
102
FLAGS
 90
        0
  0
XRECORD
  5
2E5
102
{ACAD_REACTORS
330
2E4
102
}
330
2E4
100
AcDbXrecord
280
     1
102
MATERIAL
148
0.0
149
0.0
149
0.0
 93
        0
 94
      127
282
     0
 72
     1
 77
     1
171
     1
175
     1
179
     1
273
     0
  0
XRECORD
  5
2E3
102
{ACAD_REACTORS
330
2E2
102
}
330
2E2
100
AcDbXrecord
280
     1
102
MATERIAL
148
0.0
149
0.0
149
0.0
 93
        0
 94
      127
282
     0
 72
     1
 77
     1
171
     1
175
     1
179
     1
273
     0
  0
XRECORD
  5
2E7
102
{ACAD_REACTORS
330
2E6
102
}
330
2E6
100
AcDbXrecord
280
     1
102
MATERIAL
148
0.0
149
0.0
149
0.0
 93
        0
 94
      127
282
     0
 72
     1
 77
     1
171
     1
175
     1
179
     1
273
     0
  0
XRECORD
  5
393
102
{ACAD_REACTORS
330
392
102
}
330
392
100
AcDbXrecord
280
     1
102
DISPLAYNAME
  1
Metric50
102
FLAGS
 90
        0
  0
CELLSTYLEMAP
  5
35F
102
{ACAD_REACTORS
330
2E8
102
}
330
2E8
100
AcDbCellStyleMap
 90
        3
300
CELLSTYLE
  1
TABLEFORMAT_BEGIN
 90
        5
170
     1
 91
        0
 92
    32768
 62
   257
 93
        1
300
CONTENTFORMAT
  1
CONTENTFORMAT_BEGIN
 90
        0
 91
        0
 92
        4
 93
        0
300

 40
0.0
140
1.0
 94
        5
 62
     0
340
11
144
0.25
309
CONTENTFORMAT_END
171
     1
301
MARGIN
  1
CELLMARGIN_BEGIN
 40
0.06
 40
0.06
 40
0.06
 40
0.06
 40
0.18
 40
0.18
309
CELLMARGIN_END
 94
        6
 95
        1
302
GRIDFORMAT
  1
GRIDFORMAT_BEGIN
 90
        0
 91
        1
 62
     0
 92
       -2
340
14
 93
        0
 40
0.045
309
GRIDFORMAT_END
 95
        2
302
GRIDFORMAT
  1
GRIDFORMAT_BEGIN
 90
        0
 91
        1
 62
     0
 92
       -2
340
14
 93
        0
 40
0.045
309
GRIDFORMAT_END
 95
        4
302
GRIDFORMAT
  1
GRIDFORMAT_BEGIN
 90
        0
 91
        1
 62
     0
 92
       -2
340
14
 93
        0
 40
0.045
309
GRIDFORMAT_END
 95
        8
302
GRIDFORMAT
  1
GRIDFORMAT_BEGIN
 90
        0
 91
        1
 62
     0
 92
       -2
340
14
 93
        0
 40
0.045
309
GRIDFORMAT_END
 95
       16
302
GRIDFORMAT
  1
GRIDFORMAT_BEGIN
 90
        0
 91
        1
 62
     0
 92
       -2
340
14
 93
        0
 40
0.045
309
GRIDFORMAT_END
 95
       32
302
GRIDFORMAT
  1
GRIDFORMAT_BEGIN
 90
        0
 91
        1
 62
     0
 92
       -2
340
14
 93
        0
 40
0.045
309
GRIDFORMAT_END
309
TABLEFORMAT_END
  1
CELLSTYLE_BEGIN
 90
        1
 91
        1
300
_TITLE
309
CELLSTYLE_END
300
CELLSTYLE
  1
TABLEFORMAT_BEGIN
 90
        5
170
     1
 91
        0
 92
        0
 62
   257
 93
        1
300
CONTENTFORMAT
  1
CONTENTFORMAT_BEGIN
 90
        0
 91
        0
 92
        4
 93
        0
300

 40
0.0
140
1.0
 94
        5
 62
     0
340
11
144
0.18
309
CONTENTFORMAT_END
171
     1
301
MARGIN
  1
CELLMARGIN_BEGIN
 40
0.06
 40
0.06
 40
0.06
 40
0.06
 40
0.18
 40
0.18
309
CELLMARGIN_END
 94
        6
 95
        1
302
GRIDFORMAT
  1
GRIDFORMAT_BEGIN
 90
        0
 91
        1
 62
     0
 92
       -2
340
14
 93
        0
 40
0.045
309
GRIDFORMAT_END
 95
        2
302
GRIDFORMAT
  1
GRIDFORMAT_BEGIN
 90
        0
 91
        1
 62
     0
 92
       -2
340
14
 93
        0
 40
0.045
309
GRIDFORMAT_END
 95
        4
302
GRIDFORMAT
  1
GRIDFORMAT_BEGIN
 90
        0
 91
        1
 62
     0
 92
       -2
340
14
 93
        0
 40
0.045
309
GRIDFORMAT_END
 95
        8
302
GRIDFORMAT
  1
GRIDFORMAT_BEGIN
 90
        0
 91
        1
 62
     0
 92
       -2
340
14
 93
        0
 40
0.045
309
GRIDFORMAT_END
 95
       16
302
GRIDFORMAT
  1
GRIDFORMAT_BEGIN
 90
        0
 91
        1
 62
     0
 92
       -2
340
14
 93
        0
 40
0.045
309
GRIDFORMAT_END
 95
       32
302
GRIDFORMAT
  1
GRIDFORMAT_BEGIN
 90
        0
 91
        1
 62
     0
 92
       -2
340
14
 93
        0
 40
0.045
309
GRIDFORMAT_END
309
TABLEFORMAT_END
  1
CELLSTYLE_BEGIN
 90
        2
 91
        1
300
_HEADER
309
CELLSTYLE_END
300
CELLSTYLE
  1
TABLEFORMAT_BEGIN
 90
        5
170
     1
 91
        0
 92
        0
 62
   257
 93
        1
300
CONTENTFORMAT
  1
CONTENTFORMAT_BEGIN
 90
        0
 91
        0
 92
        4
 93
        0
300

 40
0.0
140
1.0
 94
        2
 62
     0
340
11
144
0.18
309
CONTENTFORMAT_END
171
     1
301
MARGIN
  1
CELLMARGIN_BEGIN
 40
0.06
 40
0.06
 40
0.06
 40
0.06
 40
0.18
 40
0.18
309
CELLMARGIN_END
 94
        6
 95
        1
302
GRIDFORMAT
  1
GRIDFORMAT_BEGIN
 90
        0
 91
        1
 62
     0
 92
       -2
340
14
 93
        0
 40
0.045
309
GRIDFORMAT_END
 95
        2
302
GRIDFORMAT
  1
GRIDFORMAT_BEGIN
 90
        0
 91
        1
 62
     0
 92
       -2
340
14
 93
        0
 40
0.045
309
GRIDFORMAT_END
 95
        4
302
GRIDFORMAT
  1
GRIDFORMAT_BEGIN
 90
        0
 91
        1
 62
     0
 92
       -2
340
14
 93
        0
 40
0.045
309
GRIDFORMAT_END
 95
        8
302
GRIDFORMAT
  1
GRIDFORMAT_BEGIN
 90
        0
 91
        1
 62
     0
 92
       -2
340
14
 93
        0
 40
0.045
309
GRIDFORMAT_END
 95
       16
302
GRIDFORMAT
  1
GRIDFORMAT_BEGIN
 90
        0
 91
        1
 62
     0
 92
       -2
340
14
 93
        0
 40
0.045
309
GRIDFORMAT_END
 95
       32
302
GRIDFORMAT
  1
GRIDFORMAT_BEGIN
 90
        0
 91
        1
 62
     0
 92
       -2
340
14
 93
        0
 40
0.045
309
GRIDFORMAT_END
309
TABLEFORMAT_END
  1
CELLSTYLE_BEGIN
 90
        3
 91
        2
300
_DATA
309
CELLSTYLE_END
  0
XRECORD
  5
391
102
{ACAD_REACTORS
330
2E8
102
}
330
2E8
100
AcDbXrecord
280
     1
102
ACAD_ROUNDTRIP_PRE2007_TABLESTYLE
 90
        4
 91
        0
  1

 92
        4
 93
        0
  2

 94
        4
 95
        0
  3

  0
XRECORD
  5
36A
102
{ACAD_REACTORS
330
369
102
}
330
369
100
AcDbXrecord
280
     1
102
RTVSPost2010Prop28
280
     1
102
RTVSPost2010PropOp28
 70
     1
102
RTVSPost2010Prop29
280
     1
102
RTVSPost2010PropOp29
 70
     1
102
RTVSPost2010Prop30
280
     0
102
RTVSPost2010PropOp30
 70
     1
102
RTVSPost2010Prop31
280
     0
102
RTVSPost2010PropOp31
 70
     1
102
RTVSPost2010Prop32
280
     0
102
RTVSPost2010PropOp32
 70
     1
102
RTVSPost2010Prop33
280
     0
102
RTVSPost2010PropOp33
 70
     1
102
RTVSPost2010Prop34
280
     0
102
RTVSPost2010PropOp34
 70
     1
102
RTVSPost2010Prop35
280
     0
102
RTVSPost2010PropOp35
 70
     1
102
RTVSPost2010Prop36
280
     0
102
RTVSPost2010PropOp36
 70
     1
102
RTVSPost2010Prop37
 90
       50
102
RTVSPost2010PropOp37
 70
     1
102
RTVSPost2010Prop38
140
0.0
102
RTVSPost2010PropOp38
 70
     1
102
RTVSPost2010Prop39
140
1.0
102
RTVSPost2010PropOp39
 70
     1
102
RTVSPost2010Prop40
 90
        0
102
RTVSPost2010PropOp40
 70
     1
102
RTVSPost2010Prop41ColorIndex
 90
       18
102
RTVSPost2010Prop41ColorRGB
 90
        0
102
RTVSPost2010PropOp41
 70
     1
102
RTVSPost2010Prop42
 90
       50
102
RTVSPost2010PropOp42
 70
     1
102
RTVSPost2010Prop43
 90
        3
102
RTVSPost2010PropOp43
 70
     1
102
RTVSPost2010Prop44ColorIndex
 90
        5
102
RTVSPost2010Prop44ColorRGB
 90
      255
102
RTVSPost2010PropOp44
 70
     1
102
RTVSPost2010Prop45
280
     0
102
RTVSPost2010PropOp45
 70
     1
102
RTVSPost2010Prop46
 90
       50
102
RTVSPost2010PropOp46
 70
     1
102
RTVSPost2010Prop47
 90
       50
102
RTVSPost2010PropOp47
 70
     1
102
RTVSPost2010Prop48
 90
       50
102
RTVSPost2010PropOp48
 70
     1
102
RTVSPost2010Prop49
280
     0
102
RTVSPost2010PropOp49
 70
     1
102
RTVSPost2010Prop50
 90
       50
102
RTVSPost2010PropOp50
 70
     1
102
RTVSPost2010Prop51ColorIndex
 90
      256
102
RTVSPost2010Prop51ColorRGB
 90
-16777216
102
RTVSPost2010PropOp51
 70
     0
102
RTVSPost2010Prop52
140
1.0
102
RTVSPost2010PropOp52
 70
     0
102
RTVSPost2010Prop53
 90
        2
102
RTVSPost2010PropOp53
 70
     1
102
RTVSPost2010Prop54
  1
strokes_ogs.tif
102
RTVSPost2010PropOp54
 70
     1
102
RTVSPost2010Prop55
280
     0
102
RTVSPost2010PropOp55
 70
     1
102
RTVSPost2010Prop56
140
1.0
102
RTVSPost2010PropOp56
 70
     1
102
RTVSPost2010Prop57
140
1.0
102
RTVSPost2010PropOp57
 70
     1
102
RTVSPropertyOp0
 70
     1
102
RTVSPropertyOp1
 70
     1
102
RTVSPropertyOp2
 70
     1
102
RTVSPropertyOp3
 70
     1
102
RTVSPropertyOp4
 70
     1
102
RTVSPropertyOp5
 70
     1
102
RTVSPropertyOp6
 70
     1
102
RTVSPropertyOp7
 70
     1
102
RTVSPropertyOp8
 70
     1
102
RTVSPropertyOp9
 70
     1
102
RTVSPropertyOp10
 70
     1
102
RTVSPropertyOp11
 70
     1
102
RTVSPropertyOp12
 70
     1
102
RTVSPropertyOp13
 70
     1
102
RTVSPropertyOp14
 70
     1
102
RTVSPropertyOp15
 70
     1
102
RTVSPropertyOp16
 70
     1
102
RTVSPropertyOp17
 70
     1
102
RTVSPropertyOp18
 70
     1
102
RTVSPropertyOp19
 70
     1
102
RTVSPropertyOp20
 70
     1
102
RTVSPropertyOp21
 70
     1
102
RTVSPropertyOp22
 70
     1
102
RTVSPropertyOp23
 70
     1
102
RTVSPropertyOp24
 70
     1
102
RTVSPropertyOp25
 70
     1
102
RTVSPropertyOp26
 70
     1
102
RTVSPropertyOp27
 70
     1
102
RTVSPropertyOp28
 70
     1
102
RTVSPropertyOp29
 70
     1
102
RTVSPropertyOp30
 70
     1
102
RTVSPropertyOp31
 70
     1
102
RTVSPropertyOp32
 70
     1
102
RTVSPropertyOp33
 70
     1
102
RTVSPropertyOp34
 70
     1
102
RTVSPropertyOp35
 70
     1
102
RTVSPropertyOp36
 70
     1
102
RTVSPropertyOp37
 70
     1
102
RTVSPropertyOp38
 70
     1
102
RTVSPropertyOp39
 70
     1
102
RTVSPropertyOp40
 70
     1
102
RTVSPropertyOp41
 70
     1
102
RTVSPropertyOp42
 70
     1
102
RTVSPropertyOp43
 70
     1
102
RTVSPropertyOp44
 70
     1
102
RTVSPropertyOp45
 70
     1
102
RTVSPropertyOp46
 70
     1
102
RTVSPropertyOp47
 70
     1
102
RTVSPropertyOp48
 70
     1
102
RTVSPropertyOp49
 70
     1
102
RTVSPropertyOp50
 70
     1
102
RTVSPropertyOp51
 70
     0
102
RTVSPropertyOp52
 70
     0
102
RTVSPropertyOp53
 70
     1
102
RTVSPropertyOp54
 70
     1
102
RTVSPropertyOp55
 70
     1
102
RTVSPropertyOp56
 70
     1
102
RTVSPropertyOp57
 70
     1
102
RTVSPropertyOp58
 70
     1
102
RTVSPropertyOp59
 70
     1
102
RTVSPropertyOp60
 70
     1
102
RTVSPropertyOp61
 70
     1
102
RTVSPropertyOp62
 70
     1
  0
XRECORD
  5
370
102
{ACAD_REACTORS
330
36F
102
}
330
36F
100
AcDbXrecord
280
     1
102
RTVSPost2010Prop28
280
     0
102
RTVSPost2010PropOp28
 70
     1
102
RTVSPost2010Prop29
280
     1
102
RTVSPost2010PropOp29
 70
     1
102
RTVSPost2010Prop30
280
     1
102
RTVSPost2010PropOp30
 70
     1
102
RTVSPost2010Prop31
280
     0
102
RTVSPost2010PropOp31
 70
     1
102
RTVSPost2010Prop32
280
     0
102
RTVSPost2010PropOp32
 70
     1
102
RTVSPost2010Prop33
280
     0
102
RTVSPost2010PropOp33
 70
     1
102
RTVSPost2010Prop34
280
     0
102
RTVSPost2010PropOp34
 70
     1
102
RTVSPost2010Prop35
280
     0
102
RTVSPost2010PropOp35
 70
     1
102
RTVSPost2010Prop36
280
     0
102
RTVSPost2010PropOp36
 70
     1
102
RTVSPost2010Prop37
 90
       50
102
RTVSPost2010PropOp37
 70
     1
102
RTVSPost2010Prop38
140
0.0
102
RTVSPost2010PropOp38
 70
     1
102
RTVSPost2010Prop39
140
1.0
102
RTVSPost2010PropOp39
 70
     1
102
RTVSPost2010Prop40
 90
        0
102
RTVSPost2010PropOp40
 70
     1
102
RTVSPost2010Prop41ColorIndex
 90
       18
102
RTVSPost2010Prop41ColorRGB
 90
        0
102
RTVSPost2010PropOp41
 70
     1
102
RTVSPost2010Prop42
 90
       50
102
RTVSPost2010PropOp42
 70
     1
102
RTVSPost2010Prop43
 90
        3
102
RTVSPost2010PropOp43
 70
     1
102
RTVSPost2010Prop44ColorIndex
 90
        5
102
RTVSPost2010Prop44ColorRGB
 90
      255
102
RTVSPost2010PropOp44
 70
     1
102
RTVSPost2010Prop45
280
     0
102
RTVSPost2010PropOp45
 70
     1
102
RTVSPost2010Prop46
 90
       50
102
RTVSPost2010PropOp46
 70
     1
102
RTVSPost2010Prop47
 90
       50
102
RTVSPost2010PropOp47
 70
     1
102
RTVSPost2010Prop48
 90
       50
102
RTVSPost2010PropOp48
 70
     1
102
RTVSPost2010Prop49
280
     0
102
RTVSPost2010PropOp49
 70
     1
102
RTVSPost2010Prop50
 90
       50
102
RTVSPost2010PropOp50
 70
     1
102
RTVSPost2010Prop51ColorIndex
 90
      256
102
RTVSPost2010Prop51ColorRGB
 90
-16777216
102
RTVSPost2010PropOp51
 70
     0
102
RTVSPost2010Prop52
140
1.0
102
RTVSPost2010PropOp52
 70
     0
102
RTVSPost2010Prop53
 90
        2
102
RTVSPost2010PropOp53
 70
     1
102
RTVSPost2010Prop54
  1
strokes_ogs.tif
102
RTVSPost2010PropOp54
 70
     1
102
RTVSPost2010Prop55
280
     0
102
RTVSPost2010PropOp55
 70
     1
102
RTVSPost2010Prop56
140
1.0
102
RTVSPost2010PropOp56
 70
     1
102
RTVSPost2010Prop57
140
1.0
102
RTVSPost2010PropOp57
 70
     1
102
RTVSPropertyOp0
 70
     1
102
RTVSPropertyOp1
 70
     1
102
RTVSPropertyOp2
 70
     1
102
RTVSPropertyOp3
 70
     1
102
RTVSPropertyOp4
 70
     1
102
RTVSPropertyOp5
 70
     1
102
RTVSPropertyOp6
 70
     1
102
RTVSPropertyOp7
 70
     1
102
RTVSPropertyOp8
 70
     1
102
RTVSPropertyOp9
 70
     1
102
RTVSPropertyOp10
 70
     1
102
RTVSPropertyOp11
 70
     1
102
RTVSPropertyOp12
 70
     1
102
RTVSPropertyOp13
 70
     1
102
RTVSPropertyOp14
 70
     1
102
RTVSPropertyOp15
 70
     1
102
RTVSPropertyOp16
 70
     1
102
RTVSPropertyOp17
 70
     1
102
RTVSPropertyOp18
 70
     1
102
RTVSPropertyOp19
 70
     1
102
RTVSPropertyOp20
 70
     1
102
RTVSPropertyOp21
 70
     1
102
RTVSPropertyOp22
 70
     1
102
RTVSPropertyOp23
 70
     1
102
RTVSPropertyOp24
 70
     1
102
RTVSPropertyOp25
 70
     1
102
RTVSPropertyOp26
 70
     1
102
RTVSPropertyOp27
 70
     1
102
RTVSPropertyOp28
 70
     1
102
RTVSPropertyOp29
 70
     1
102
RTVSPropertyOp30
 70
     1
102
RTVSPropertyOp31
 70
     1
102
RTVSPropertyOp32
 70
     1
102
RTVSPropertyOp33
 70
     1
102
RTVSPropertyOp34
 70
     1
102
RTVSPropertyOp35
 70
     1
102
RTVSPropertyOp36
 70
     1
102
RTVSPropertyOp37
 70
     1
102
RTVSPropertyOp38
 70
     1
102
RTVSPropertyOp39
 70
     1
102
RTVSPropertyOp40
 70
     1
102
RTVSPropertyOp41
 70
     1
102
RTVSPropertyOp42
 70
     1
102
RTVSPropertyOp43
 70
     1
102
RTVSPropertyOp44
 70
     1
102
RTVSPropertyOp45
 70
     1
102
RTVSPropertyOp46
 70
     1
102
RTVSPropertyOp47
 70
     1
102
RTVSPropertyOp48
 70
     1
102
RTVSPropertyOp49
 70
     1
102
RTVSPropertyOp50
 70
     1
102
RTVSPropertyOp51
 70
     0
102
RTVSPropertyOp52
 70
     0
102
RTVSPropertyOp53
 70
     1
102
RTVSPropertyOp54
 70
     1
102
RTVSPropertyOp55
 70
     1
102
RTVSPropertyOp56
 70
     1
102
RTVSPropertyOp57
 70
     1
102
RTVSPropertyOp58
 70
     1
102
RTVSPropertyOp59
 70
     1
102
RTVSPropertyOp60
 70
     1
102
RTVSPropertyOp61
 70
     1
102
RTVSPropertyOp62
 70
     1
  0
XRECORD
  5
378
102
{ACAD_REACTORS
330
377
102
}
330
377
100
AcDbXrecord
280
     1
102
RTVSPost2010Prop28
280
     0
102
RTVSPost2010PropOp28
 70
     1
102
RTVSPost2010Prop29
280
     1
102
RTVSPost2010PropOp29
 70
     1
102
RTVSPost2010Prop30
280
     1
102
RTVSPost2010PropOp30
 70
     1
102
RTVSPost2010Prop31
280
     0
102
RTVSPost2010PropOp31
 70
     1
102
RTVSPost2010Prop32
280
     0
102
RTVSPost2010PropOp32
 70
     1
102
RTVSPost2010Prop33
280
     0
102
RTVSPost2010PropOp33
 70
     1
102
RTVSPost2010Prop34
280
     0
102
RTVSPost2010PropOp34
 70
     1
102
RTVSPost2010Prop35
280
     0
102
RTVSPost2010PropOp35
 70
     1
102
RTVSPost2010Prop36
280
     0
102
RTVSPost2010PropOp36
 70
     1
102
RTVSPost2010Prop37
 90
       50
102
RTVSPost2010PropOp37
 70
     1
102
RTVSPost2010Prop38
140
0.0
102
RTVSPost2010PropOp38
 70
     1
102
RTVSPost2010Prop39
140
1.0
102
RTVSPost2010PropOp39
 70
     1
102
RTVSPost2010Prop40
 90
        0
102
RTVSPost2010PropOp40
 70
     1
102
RTVSPost2010Prop41ColorIndex
 90
       18
102
RTVSPost2010Prop41ColorRGB
 90
        0
102
RTVSPost2010PropOp41
 70
     1
102
RTVSPost2010Prop42
 90
       50
102
RTVSPost2010PropOp42
 70
     1
102
RTVSPost2010Prop43
 90
        3
102
RTVSPost2010PropOp43
 70
     1
102
RTVSPost2010Prop44ColorIndex
 90
        5
102
RTVSPost2010Prop44ColorRGB
 90
      255
102
RTVSPost2010PropOp44
 70
     1
102
RTVSPost2010Prop45
280
     0
102
RTVSPost2010PropOp45
 70
     1
102
RTVSPost2010Prop46
 90
       50
102
RTVSPost2010PropOp46
 70
     1
102
RTVSPost2010Prop47
 90
       50
102
RTVSPost2010PropOp47
 70
     1
102
RTVSPost2010Prop48
 90
       50
102
RTVSPost2010PropOp48
 70
     1
102
RTVSPost2010Prop49
280
     0
102
RTVSPost2010PropOp49
 70
     1
102
RTVSPost2010Prop50
 90
       50
102
RTVSPost2010PropOp50
 70
     1
102
RTVSPost2010Prop51ColorIndex
 90
      256
102
RTVSPost2010Prop51ColorRGB
 90
-16777216
102
RTVSPost2010PropOp51
 70
     0
102
RTVSPost2010Prop52
140
1.0
102
RTVSPost2010PropOp52
 70
     0
102
RTVSPost2010Prop53
 90
        2
102
RTVSPost2010PropOp53
 70
     1
102
RTVSPost2010Prop54
  1
strokes_ogs.tif
102
RTVSPost2010PropOp54
 70
     1
102
RTVSPost2010Prop55
280
     0
102
RTVSPost2010PropOp55
 70
     1
102
RTVSPost2010Prop56
140
1.0
102
RTVSPost2010PropOp56
 70
     1
102
RTVSPost2010Prop57
140
1.0
102
RTVSPost2010PropOp57
 70
     1
102
RTVSPropertyOp0
 70
     1
102
RTVSPropertyOp1
 70
     1
102
RTVSPropertyOp2
 70
     1
102
RTVSPropertyOp3
 70
     1
102
RTVSPropertyOp4
 70
     1
102
RTVSPropertyOp5
 70
     1
102
RTVSPropertyOp6
 70
     1
102
RTVSPropertyOp7
 70
     1
102
RTVSPropertyOp8
 70
     1
102
RTVSPropertyOp9
 70
     1
102
RTVSPropertyOp10
 70
     1
102
RTVSPropertyOp11
 70
     1
102
RTVSPropertyOp12
 70
     1
102
RTVSPropertyOp13
 70
     1
102
RTVSPropertyOp14
 70
     1
102
RTVSPropertyOp15
 70
     1
102
RTVSPropertyOp16
 70
     1
102
RTVSPropertyOp17
 70
     1
102
RTVSPropertyOp18
 70
     1
102
RTVSPropertyOp19
 70
     1
102
RTVSPropertyOp20
 70
     1
102
RTVSPropertyOp21
 70
     1
102
RTVSPropertyOp22
 70
     1
102
RTVSPropertyOp23
 70
     1
102
RTVSPropertyOp24
 70
     1
102
RTVSPropertyOp25
 70
     1
102
RTVSPropertyOp26
 70
     1
102
RTVSPropertyOp27
 70
     1
102
RTVSPropertyOp28
 70
     1
102
RTVSPropertyOp29
 70
     1
102
RTVSPropertyOp30
 70
     1
102
RTVSPropertyOp31
 70
     1
102
RTVSPropertyOp32
 70
     1
102
RTVSPropertyOp33
 70
     1
102
RTVSPropertyOp34
 70
     1
102
RTVSPropertyOp35
 70
     1
102
RTVSPropertyOp36
 70
     1
102
RTVSPropertyOp37
 70
     1
102
RTVSPropertyOp38
 70
     1
102
RTVSPropertyOp39
 70
     1
102
RTVSPropertyOp40
 70
     1
102
RTVSPropertyOp41
 70
     1
102
RTVSPropertyOp42
 70
     1
102
RTVSPropertyOp43
 70
     1
102
RTVSPropertyOp44
 70
     1
102
RTVSPropertyOp45
 70
     1
102
RTVSPropertyOp46
 70
     1
102
RTVSPropertyOp47
 70
     1
102
RTVSPropertyOp48
 70
     1
102
RTVSPropertyOp49
 70
     1
102
RTVSPropertyOp50
 70
     1
102
RTVSPropertyOp51
 70
     0
102
RTVSPropertyOp52
 70
     0
102
RTVSPropertyOp53
 70
     1
102
RTVSPropertyOp54
 70
     1
102
RTVSPropertyOp55
 70
     1
102
RTVSPropertyOp56
 70
     1
102
RTVSPropertyOp57
 70
     1
102
RTVSPropertyOp58
 70
     1
102
RTVSPropertyOp59
 70
     1
102
RTVSPropertyOp60
 70
     1
102
RTVSPropertyOp61
 70
     1
102
RTVSPropertyOp62
 70
     1
  0
XRECORD
  5
380
102
{ACAD_REACTORS
330
37F
102
}
330
37F
100
AcDbXrecord
280
     1
102
RTVSPost2010Prop28
280
     0
102
RTVSPost2010PropOp28
 70
     1
102
RTVSPost2010Prop29
280
     1
102
RTVSPost2010PropOp29
 70
     1
102
RTVSPost2010Prop30
280
     1
102
RTVSPost2010PropOp30
 70
     1
102
RTVSPost2010Prop31
280
     0
102
RTVSPost2010PropOp31
 70
     1
102
RTVSPost2010Prop32
280
     0
102
RTVSPost2010PropOp32
 70
     1
102
RTVSPost2010Prop33
280
     0
102
RTVSPost2010PropOp33
 70
     1
102
RTVSPost2010Prop34
280
     0
102
RTVSPost2010PropOp34
 70
     1
102
RTVSPost2010Prop35
280
     0
102
RTVSPost2010PropOp35
 70
     1
102
RTVSPost2010Prop36
280
     0
102
RTVSPost2010PropOp36
 70
     1
102
RTVSPost2010Prop37
 90
       50
102
RTVSPost2010PropOp37
 70
     1
102
RTVSPost2010Prop38
140
0.0
102
RTVSPost2010PropOp38
 70
     1
102
RTVSPost2010Prop39
140
1.0
102
RTVSPost2010PropOp39
 70
     1
102
RTVSPost2010Prop40
 90
        0
102
RTVSPost2010PropOp40
 70
     1
102
RTVSPost2010Prop41ColorIndex
 90
       18
102
RTVSPost2010Prop41ColorRGB
 90
        0
102
RTVSPost2010PropOp41
 70
     1
102
RTVSPost2010Prop42
 90
       50
102
RTVSPost2010PropOp42
 70
     1
102
RTVSPost2010Prop43
 90
        3
102
RTVSPost2010PropOp43
 70
     1
102
RTVSPost2010Prop44ColorIndex
 90
        5
102
RTVSPost2010Prop44ColorRGB
 90
      255
102
RTVSPost2010PropOp44
 70
     1
102
RTVSPost2010Prop45
280
     0
102
RTVSPost2010PropOp45
 70
     1
102
RTVSPost2010Prop46
 90
       50
102
RTVSPost2010PropOp46
 70
     1
102
RTVSPost2010Prop47
 90
       50
102
RTVSPost2010PropOp47
 70
     1
102
RTVSPost2010Prop48
 90
       50
102
RTVSPost2010PropOp48
 70
     1
102
RTVSPost2010Prop49
280
     0
102
RTVSPost2010PropOp49
 70
     1
102
RTVSPost2010Prop50
 90
       50
102
RTVSPost2010PropOp50
 70
     1
102
RTVSPost2010Prop51ColorIndex
 90
      256
102
RTVSPost2010Prop51ColorRGB
 90
-16777216
102
RTVSPost2010PropOp51
 70
     0
102
RTVSPost2010Prop52
140
1.0
102
RTVSPost2010PropOp52
 70
     0
102
RTVSPost2010Prop53
 90
        2
102
RTVSPost2010PropOp53
 70
     1
102
RTVSPost2010Prop54
  1
strokes_ogs.tif
102
RTVSPost2010PropOp54
 70
     1
102
RTVSPost2010Prop55
280
     0
102
RTVSPost2010PropOp55
 70
     1
102
RTVSPost2010Prop56
140
1.0
102
RTVSPost2010PropOp56
 70
     1
102
RTVSPost2010Prop57
140
1.0
102
RTVSPost2010PropOp57
 70
     1
102
RTVSPropertyOp0
 70
     1
102
RTVSPropertyOp1
 70
     1
102
RTVSPropertyOp2
 70
     1
102
RTVSPropertyOp3
 70
     1
102
RTVSPropertyOp4
 70
     1
102
RTVSPropertyOp5
 70
     1
102
RTVSPropertyOp6
 70
     1
102
RTVSPropertyOp7
 70
     1
102
RTVSPropertyOp8
 70
     1
102
RTVSPropertyOp9
 70
     1
102
RTVSPropertyOp10
 70
     1
102
RTVSPropertyOp11
 70
     1
102
RTVSPropertyOp12
 70
     1
102
RTVSPropertyOp13
 70
     1
102
RTVSPropertyOp14
 70
     1
102
RTVSPropertyOp15
 70
     1
102
RTVSPropertyOp16
 70
     1
102
RTVSPropertyOp17
 70
     1
102
RTVSPropertyOp18
 70
     1
102
RTVSPropertyOp19
 70
     1
102
RTVSPropertyOp20
 70
     1
102
RTVSPropertyOp21
 70
     1
102
RTVSPropertyOp22
 70
     1
102
RTVSPropertyOp23
 70
     1
102
RTVSPropertyOp24
 70
     1
102
RTVSPropertyOp25
 70
     1
102
RTVSPropertyOp26
 70
     1
102
RTVSPropertyOp27
 70
     1
102
RTVSPropertyOp28
 70
     1
102
RTVSPropertyOp29
 70
     1
102
RTVSPropertyOp30
 70
     1
102
RTVSPropertyOp31
 70
     1
102
RTVSPropertyOp32
 70
     1
102
RTVSPropertyOp33
 70
     1
102
RTVSPropertyOp34
 70
     1
102
RTVSPropertyOp35
 70
     1
102
RTVSPropertyOp36
 70
     1
102
RTVSPropertyOp37
 70
     1
102
RTVSPropertyOp38
 70
     1
102
RTVSPropertyOp39
 70
     1
102
RTVSPropertyOp40
 70
     1
102
RTVSPropertyOp41
 70
     1
102
RTVSPropertyOp42
 70
     1
102
RTVSPropertyOp43
 70
     1
102
RTVSPropertyOp44
 70
     1
102
RTVSPropertyOp45
 70
     1
102
RTVSPropertyOp46
 70
     1
102
RTVSPropertyOp47
 70
     1
102
RTVSPropertyOp48
 70
     1
102
RTVSPropertyOp49
 70
     1
102
RTVSPropertyOp50
 70
     1
102
RTVSPropertyOp51
 70
     0
102
RTVSPropertyOp52
 70
     0
102
RTVSPropertyOp53
 70
     1
102
RTVSPropertyOp54
 70
     1
102
RTVSPropertyOp55
 70
     1
102
RTVSPropertyOp56
 70
     1
102
RTVSPropertyOp57
 70
     1
102
RTVSPropertyOp58
 70
     1
102
RTVSPropertyOp59
 70
     1
102
RTVSPropertyOp60
 70
     1
102
RTVSPropertyOp61
 70
     1
102
RTVSPropertyOp62
 70
     1
  0
XRECORD
  5
374
102
{ACAD_REACTORS
330
373
102
}
330
373
100
AcDbXrecord
280
     1
102
RTVSPost2010Prop28
280
     0
102
RTVSPost2010PropOp28
 70
     1
102
RTVSPost2010Prop29
280
     1
102
RTVSPost2010PropOp29
 70
     1
102
RTVSPost2010Prop30
280
     1
102
RTVSPost2010PropOp30
 70
     1
102
RTVSPost2010Prop31
280
     0
102
RTVSPost2010PropOp31
 70
     1
102
RTVSPost2010Prop32
280
     0
102
RTVSPost2010PropOp32
 70
     1
102
RTVSPost2010Prop33
280
     0
102
RTVSPost2010PropOp33
 70
     1
102
RTVSPost2010Prop34
280
     0
102
RTVSPost2010PropOp34
 70
     1
102
RTVSPost2010Prop35
280
     0
102
RTVSPost2010PropOp35
 70
     1
102
RTVSPost2010Prop36
280
     0
102
RTVSPost2010PropOp36
 70
     1
102
RTVSPost2010Prop37
 90
       50
102
RTVSPost2010PropOp37
 70
     1
102
RTVSPost2010Prop38
140
0.0
102
RTVSPost2010PropOp38
 70
     1
102
RTVSPost2010Prop39
140
1.0
102
RTVSPost2010PropOp39
 70
     1
102
RTVSPost2010Prop40
 90
        0
102
RTVSPost2010PropOp40
 70
     1
102
RTVSPost2010Prop41ColorIndex
 90
       18
102
RTVSPost2010Prop41ColorRGB
 90
        0
102
RTVSPost2010PropOp41
 70
     1
102
RTVSPost2010Prop42
 90
       50
102
RTVSPost2010PropOp42
 70
     1
102
RTVSPost2010Prop43
 90
        3
102
RTVSPost2010PropOp43
 70
     1
102
RTVSPost2010Prop44ColorIndex
 90
        5
102
RTVSPost2010Prop44ColorRGB
 90
      255
102
RTVSPost2010PropOp44
 70
     1
102
RTVSPost2010Prop45
280
     0
102
RTVSPost2010PropOp45
 70
     1
102
RTVSPost2010Prop46
 90
       50
102
RTVSPost2010PropOp46
 70
     1
102
RTVSPost2010Prop47
 90
       50
102
RTVSPost2010PropOp47
 70
     1
102
RTVSPost2010Prop48
 90
       50
102
RTVSPost2010PropOp48
 70
     1
102
RTVSPost2010Prop49
280
     0
102
RTVSPost2010PropOp49
 70
     1
102
RTVSPost2010Prop50
 90
       50
102
RTVSPost2010PropOp50
 70
     1
102
RTVSPost2010Prop51ColorIndex
 90
      256
102
RTVSPost2010Prop51ColorRGB
 90
-16777216
102
RTVSPost2010PropOp51
 70
     0
102
RTVSPost2010Prop52
140
1.0
102
RTVSPost2010PropOp52
 70
     0
102
RTVSPost2010Prop53
 90
        2
102
RTVSPost2010PropOp53
 70
     1
102
RTVSPost2010Prop54
  1
strokes_ogs.tif
102
RTVSPost2010PropOp54
 70
     1
102
RTVSPost2010Prop55
280
     0
102
RTVSPost2010PropOp55
 70
     1
102
RTVSPost2010Prop56
140
1.0
102
RTVSPost2010PropOp56
 70
     1
102
RTVSPost2010Prop57
140
1.0
102
RTVSPost2010PropOp57
 70
     1
102
RTVSPropertyOp0
 70
     1
102
RTVSPropertyOp1
 70
     1
102
RTVSPropertyOp2
 70
     1
102
RTVSPropertyOp3
 70
     1
102
RTVSPropertyOp4
 70
     1
102
RTVSPropertyOp5
 70
     1
102
RTVSPropertyOp6
 70
     1
102
RTVSPropertyOp7
 70
     1
102
RTVSPropertyOp8
 70
     1
102
RTVSPropertyOp9
 70
     1
102
RTVSPropertyOp10
 70
     1
102
RTVSPropertyOp11
 70
     1
102
RTVSPropertyOp12
 70
     1
102
RTVSPropertyOp13
 70
     1
102
RTVSPropertyOp14
 70
     1
102
RTVSPropertyOp15
 70
     1
102
RTVSPropertyOp16
 70
     1
102
RTVSPropertyOp17
 70
     1
102
RTVSPropertyOp18
 70
     1
102
RTVSPropertyOp19
 70
     1
102
RTVSPropertyOp20
 70
     1
102
RTVSPropertyOp21
 70
     1
102
RTVSPropertyOp22
 70
     1
102
RTVSPropertyOp23
 70
     1
102
RTVSPropertyOp24
 70
     1
102
RTVSPropertyOp25
 70
     1
102
RTVSPropertyOp26
 70
     1
102
RTVSPropertyOp27
 70
     1
102
RTVSPropertyOp28
 70
     1
102
RTVSPropertyOp29
 70
     1
102
RTVSPropertyOp30
 70
     1
102
RTVSPropertyOp31
 70
     1
102
RTVSPropertyOp32
 70
     1
102
RTVSPropertyOp33
 70
     1
102
RTVSPropertyOp34
 70
     1
102
RTVSPropertyOp35
 70
     1
102
RTVSPropertyOp36
 70
     1
102
RTVSPropertyOp37
 70
     1
102
RTVSPropertyOp38
 70
     1
102
RTVSPropertyOp39
 70
     1
102
RTVSPropertyOp40
 70
     1
102
RTVSPropertyOp41
 70
     1
102
RTVSPropertyOp42
 70
     1
102
RTVSPropertyOp43
 70
     1
102
RTVSPropertyOp44
 70
     1
102
RTVSPropertyOp45
 70
     1
102
RTVSPropertyOp46
 70
     1
102
RTVSPropertyOp47
 70
     1
102
RTVSPropertyOp48
 70
     1
102
RTVSPropertyOp49
 70
     1
102
RTVSPropertyOp50
 70
     1
102
RTVSPropertyOp51
 70
     0
102
RTVSPropertyOp52
 70
     0
102
RTVSPropertyOp53
 70
     1
102
RTVSPropertyOp54
 70
     1
102
RTVSPropertyOp55
 70
     1
102
RTVSPropertyOp56
 70
     1
102
RTVSPropertyOp57
 70
     1
102
RTVSPropertyOp58
 70
     1
102
RTVSPropertyOp59
 70
     1
102
RTVSPropertyOp60
 70
     1
102
RTVSPropertyOp61
 70
     1
102
RTVSPropertyOp62
 70
     1
  0
XRECORD
  5
376
102
{ACAD_REACTORS
330
375
102
}
330
375
100
AcDbXrecord
280
     1
102
RTVSPost2010Prop28
280
     0
102
RTVSPost2010PropOp28
 70
     1
102
RTVSPost2010Prop29
280
     1
102
RTVSPost2010PropOp29
 70
     1
102
RTVSPost2010Prop30
280
     1
102
RTVSPost2010PropOp30
 70
     1
102
RTVSPost2010Prop31
280
     0
102
RTVSPost2010PropOp31
 70
     1
102
RTVSPost2010Prop32
280
     0
102
RTVSPost2010PropOp32
 70
     1
102
RTVSPost2010Prop33
280
     0
102
RTVSPost2010PropOp33
 70
     1
102
RTVSPost2010Prop34
280
     0
102
RTVSPost2010PropOp34
 70
     1
102
RTVSPost2010Prop35
280
     0
102
RTVSPost2010PropOp35
 70
     1
102
RTVSPost2010Prop36
280
     0
102
RTVSPost2010PropOp36
 70
     1
102
RTVSPost2010Prop37
 90
       50
102
RTVSPost2010PropOp37
 70
     1
102
RTVSPost2010Prop38
140
0.0
102
RTVSPost2010PropOp38
 70
     1
102
RTVSPost2010Prop39
140
1.0
102
RTVSPost2010PropOp39
 70
     1
102
RTVSPost2010Prop40
 90
        0
102
RTVSPost2010PropOp40
 70
     1
102
RTVSPost2010Prop41ColorIndex
 90
       18
102
RTVSPost2010Prop41ColorRGB
 90
        0
102
RTVSPost2010PropOp41
 70
     1
102
RTVSPost2010Prop42
 90
       50
102
RTVSPost2010PropOp42
 70
     1
102
RTVSPost2010Prop43
 90
        3
102
RTVSPost2010PropOp43
 70
     1
102
RTVSPost2010Prop44ColorIndex
 90
        5
102
RTVSPost2010Prop44ColorRGB
 90
      255
102
RTVSPost2010PropOp44
 70
     1
102
RTVSPost2010Prop45
280
     0
102
RTVSPost2010PropOp45
 70
     1
102
RTVSPost2010Prop46
 90
       50
102
RTVSPost2010PropOp46
 70
     1
102
RTVSPost2010Prop47
 90
       50
102
RTVSPost2010PropOp47
 70
     1
102
RTVSPost2010Prop48
 90
       50
102
RTVSPost2010PropOp48
 70
     1
102
RTVSPost2010Prop49
280
     0
102
RTVSPost2010PropOp49
 70
     1
102
RTVSPost2010Prop50
 90
       50
102
RTVSPost2010PropOp50
 70
     1
102
RTVSPost2010Prop51ColorIndex
 90
      256
102
RTVSPost2010Prop51ColorRGB
 90
-16777216
102
RTVSPost2010PropOp51
 70
     0
102
RTVSPost2010Prop52
140
1.0
102
RTVSPost2010PropOp52
 70
     0
102
RTVSPost2010Prop53
 90
        2
102
RTVSPost2010PropOp53
 70
     1
102
RTVSPost2010Prop54
  1
strokes_ogs.tif
102
RTVSPost2010PropOp54
 70
     1
102
RTVSPost2010Prop55
280
     0
102
RTVSPost2010PropOp55
 70
     1
102
RTVSPost2010Prop56
140
1.0
102
RTVSPost2010PropOp56
 70
     1
102
RTVSPost2010Prop57
140
1.0
102
RTVSPost2010PropOp57
 70
     1
102
RTVSPropertyOp0
 70
     1
102
RTVSPropertyOp1
 70
     1
102
RTVSPropertyOp2
 70
     1
102
RTVSPropertyOp3
 70
     1
102
RTVSPropertyOp4
 70
     1
102
RTVSPropertyOp5
 70
     1
102
RTVSPropertyOp6
 70
     1
102
RTVSPropertyOp7
 70
     1
102
RTVSPropertyOp8
 70
     1
102
RTVSPropertyOp9
 70
     1
102
RTVSPropertyOp10
 70
     1
102
RTVSPropertyOp11
 70
     1
102
RTVSPropertyOp12
 70
     1
102
RTVSPropertyOp13
 70
     1
102
RTVSPropertyOp14
 70
     1
102
RTVSPropertyOp15
 70
     1
102
RTVSPropertyOp16
 70
     1
102
RTVSPropertyOp17
 70
     1
102
RTVSPropertyOp18
 70
     1
102
RTVSPropertyOp19
 70
     1
102
RTVSPropertyOp20
 70
     1
102
RTVSPropertyOp21
 70
     1
102
RTVSPropertyOp22
 70
     1
102
RTVSPropertyOp23
 70
     1
102
RTVSPropertyOp24
 70
     1
102
RTVSPropertyOp25
 70
     1
102
RTVSPropertyOp26
 70
     1
102
RTVSPropertyOp27
 70
     1
102
RTVSPropertyOp28
 70
     1
102
RTVSPropertyOp29
 70
     1
102
RTVSPropertyOp30
 70
     1
102
RTVSPropertyOp31
 70
     1
102
RTVSPropertyOp32
 70
     1
102
RTVSPropertyOp33
 70
     1
102
RTVSPropertyOp34
 70
     1
102
RTVSPropertyOp35
 70
     1
102
RTVSPropertyOp36
 70
     1
102
RTVSPropertyOp37
 70
     1
102
RTVSPropertyOp38
 70
     1
102
RTVSPropertyOp39
 70
     1
102
RTVSPropertyOp40
 70
     1
102
RTVSPropertyOp41
 70
     1
102
RTVSPropertyOp42
 70
     1
102
RTVSPropertyOp43
 70
     1
102
RTVSPropertyOp44
 70
     1
102
RTVSPropertyOp45
 70
     1
102
RTVSPropertyOp46
 70
     1
102
RTVSPropertyOp47
 70
     1
102
RTVSPropertyOp48
 70
     1
102
RTVSPropertyOp49
 70
     1
102
RTVSPropertyOp50
 70
     1
102
RTVSPropertyOp51
 70
     0
102
RTVSPropertyOp52
 70
     0
102
RTVSPropertyOp53
 70
     1
102
RTVSPropertyOp54
 70
     1
102
RTVSPropertyOp55
 70
     1
102
RTVSPropertyOp56
 70
     1
102
RTVSPropertyOp57
 70
     1
102
RTVSPropertyOp58
 70
     1
102
RTVSPropertyOp59
 70
     1
102
RTVSPropertyOp60
 70
     1
102
RTVSPropertyOp61
 70
     1
102
RTVSPropertyOp62
 70
     1
  0
XRECORD
  5
386
102
{ACAD_REACTORS
330
385
102
}
330
385
100
AcDbXrecord
280
     1
102
RTVSPost2010Prop28
280
     0
102
RTVSPost2010PropOp28
 70
     0
102
RTVSPost2010Prop29
280
     1
102
RTVSPost2010PropOp29
 70
     0
102
RTVSPost2010Prop30
280
     1
102
RTVSPost2010PropOp30
 70
     0
102
RTVSPost2010Prop31
280
     0
102
RTVSPost2010PropOp31
 70
     0
102
RTVSPost2010Prop32
280
     0
102
RTVSPost2010PropOp32
 70
     0
102
RTVSPost2010Prop33
280
     0
102
RTVSPost2010PropOp33
 70
     0
102
RTVSPost2010Prop34
280
     0
102
RTVSPost2010PropOp34
 70
     0
102
RTVSPost2010Prop35
280
     0
102
RTVSPost2010PropOp35
 70
     0
102
RTVSPost2010Prop36
280
     0
102
RTVSPost2010PropOp36
 70
     0
102
RTVSPost2010Prop37
 90
       50
102
RTVSPost2010PropOp37
 70
     0
102
RTVSPost2010Prop38
140
0.0
102
RTVSPost2010PropOp38
 70
     0
102
RTVSPost2010Prop39
140
1.0
102
RTVSPost2010PropOp39
 70
     0
102
RTVSPost2010Prop40
 90
        0
102
RTVSPost2010PropOp40
 70
     0
102
RTVSPost2010Prop41ColorIndex
 90
       18
102
RTVSPost2010Prop41ColorRGB
 90
        0
102
RTVSPost2010PropOp41
 70
     0
102
RTVSPost2010Prop42
 90
       50
102
RTVSPost2010PropOp42
 70
     0
102
RTVSPost2010Prop43
 90
        3
102
RTVSPost2010PropOp43
 70
     0
102
RTVSPost2010Prop44ColorIndex
 90
        5
102
RTVSPost2010Prop44ColorRGB
 90
      255
102
RTVSPost2010PropOp44
 70
     0
102
RTVSPost2010Prop45
280
     0
102
RTVSPost2010PropOp45
 70
     0
102
RTVSPost2010Prop46
 90
       50
102
RTVSPost2010PropOp46
 70
     0
102
RTVSPost2010Prop47
 90
       50
102
RTVSPost2010PropOp47
 70
     0
102
RTVSPost2010Prop48
 90
       50
102
RTVSPost2010PropOp48
 70
     0
102
RTVSPost2010Prop49
280
     0
102
RTVSPost2010PropOp49
 70
     0
102
RTVSPost2010Prop50
 90
       50
102
RTVSPost2010PropOp50
 70
     0
102
RTVSPost2010Prop51ColorIndex
 90
      256
102
RTVSPost2010Prop51ColorRGB
 90
-16777216
102
RTVSPost2010PropOp51
 70
     0
102
RTVSPost2010Prop52
140
1.0
102
RTVSPost2010PropOp52
 70
     0
102
RTVSPost2010Prop53
 90
        2
102
RTVSPost2010PropOp53
 70
     0
102
RTVSPost2010Prop54
  1
strokes_ogs.tif
102
RTVSPost2010PropOp54
 70
     0
102
RTVSPost2010Prop55
280
     0
102
RTVSPost2010PropOp55
 70
     0
102
RTVSPost2010Prop56
140
1.0
102
RTVSPost2010PropOp56
 70
     0
102
RTVSPost2010Prop57
140
1.0
102
RTVSPost2010PropOp57
 70
     0
102
RTVSPropertyOp0
 70
     0
102
RTVSPropertyOp1
 70
     0
102
RTVSPropertyOp2
 70
     0
102
RTVSPropertyOp3
 70
     0
102
RTVSPropertyOp4
 70
     0
102
RTVSPropertyOp5
 70
     0
102
RTVSPropertyOp6
 70
     0
102
RTVSPropertyOp7
 70
     0
102
RTVSPropertyOp8
 70
     0
102
RTVSPropertyOp9
 70
     0
102
RTVSPropertyOp10
 70
     0
102
RTVSPropertyOp11
 70
     0
102
RTVSPropertyOp12
 70
     0
102
RTVSPropertyOp13
 70
     0
102
RTVSPropertyOp14
 70
     2
102
RTVSPropertyOp15
 70
     0
102
RTVSPropertyOp16
 70
     0
102
RTVSPropertyOp17
 70
     0
102
RTVSPropertyOp18
 70
     0
102
RTVSPropertyOp19
 70
     0
102
RTVSPropertyOp20
 70
     0
102
RTVSPropertyOp21
 70
     0
102
RTVSPropertyOp22
 70
     0
102
RTVSPropertyOp23
 70
     0
102
RTVSPropertyOp24
 70
     0
102
RTVSPropertyOp25
 70
     0
102
RTVSPropertyOp26
 70
     0
102
RTVSPropertyOp27
 70
     0
102
RTVSPropertyOp28
 70
     0
102
RTVSPropertyOp29
 70
     0
102
RTVSPropertyOp30
 70
     0
102
RTVSPropertyOp31
 70
     0
102
RTVSPropertyOp32
 70
     0
102
RTVSPropertyOp33
 70
     0
102
RTVSPropertyOp34
 70
     0
102
RTVSPropertyOp35
 70
     0
102
RTVSPropertyOp36
 70
     0
102
RTVSPropertyOp37
 70
     0
102
RTVSPropertyOp38
 70
     0
102
RTVSPropertyOp39
 70
     0
102
RTVSPropertyOp40
 70
     0
102
RTVSPropertyOp41
 70
     0
102
RTVSPropertyOp42
 70
     0
102
RTVSPropertyOp43
 70
     0
102
RTVSPropertyOp44
 70
     0
102
RTVSPropertyOp45
 70
     0
102
RTVSPropertyOp46
 70
     0
102
RTVSPropertyOp47
 70
     0
102
RTVSPropertyOp48
 70
     0
102
RTVSPropertyOp49
 70
     0
102
RTVSPropertyOp50
 70
     0
102
RTVSPropertyOp51
 70
     0
102
RTVSPropertyOp52
 70
     0
102
RTVSPropertyOp53
 70
     0
102
RTVSPropertyOp54
 70
     0
102
RTVSPropertyOp55
 70
     0
102
RTVSPropertyOp56
 70
     0
102
RTVSPropertyOp57
 70
     0
102
RTVSPropertyOp58
 70
     1
102
RTVSPropertyOp59
 70
     1
102
RTVSPropertyOp60
 70
     1
102
RTVSPropertyOp61
 70
     1
102
RTVSPropertyOp62
 70
     1
  0
XRECORD
  5
37E
102
{ACAD_REACTORS
330
37D
102
}
330
37D
100
AcDbXrecord
280
     1
102
RTVSPost2010Prop28
280
     0
102
RTVSPost2010PropOp28
 70
     1
102
RTVSPost2010Prop29
280
     1
102
RTVSPost2010PropOp29
 70
     1
102
RTVSPost2010Prop30
280
     1
102
RTVSPost2010PropOp30
 70
     1
102
RTVSPost2010Prop31
280
     0
102
RTVSPost2010PropOp31
 70
     1
102
RTVSPost2010Prop32
280
     0
102
RTVSPost2010PropOp32
 70
     1
102
RTVSPost2010Prop33
280
     0
102
RTVSPost2010PropOp33
 70
     1
102
RTVSPost2010Prop34
280
     0
102
RTVSPost2010PropOp34
 70
     1
102
RTVSPost2010Prop35
280
     0
102
RTVSPost2010PropOp35
 70
     1
102
RTVSPost2010Prop36
280
     0
102
RTVSPost2010PropOp36
 70
     1
102
RTVSPost2010Prop37
 90
       50
102
RTVSPost2010PropOp37
 70
     1
102
RTVSPost2010Prop38
140
0.0
102
RTVSPost2010PropOp38
 70
     1
102
RTVSPost2010Prop39
140
1.0
102
RTVSPost2010PropOp39
 70
     1
102
RTVSPost2010Prop40
 90
        0
102
RTVSPost2010PropOp40
 70
     1
102
RTVSPost2010Prop41ColorIndex
 90
       18
102
RTVSPost2010Prop41ColorRGB
 90
        0
102
RTVSPost2010PropOp41
 70
     1
102
RTVSPost2010Prop42
 90
       50
102
RTVSPost2010PropOp42
 70
     1
102
RTVSPost2010Prop43
 90
        3
102
RTVSPost2010PropOp43
 70
     1
102
RTVSPost2010Prop44ColorIndex
 90
        5
102
RTVSPost2010Prop44ColorRGB
 90
      255
102
RTVSPost2010PropOp44
 70
     1
102
RTVSPost2010Prop45
280
     0
102
RTVSPost2010PropOp45
 70
     1
102
RTVSPost2010Prop46
 90
       50
102
RTVSPost2010PropOp46
 70
     1
102
RTVSPost2010Prop47
 90
       50
102
RTVSPost2010PropOp47
 70
     1
102
RTVSPost2010Prop48
 90
       50
102
RTVSPost2010PropOp48
 70
     1
102
RTVSPost2010Prop49
280
     0
102
RTVSPost2010PropOp49
 70
     1
102
RTVSPost2010Prop50
 90
       50
102
RTVSPost2010PropOp50
 70
     1
102
RTVSPost2010Prop51ColorIndex
 90
      256
102
RTVSPost2010Prop51ColorRGB
 90
-16777216
102
RTVSPost2010PropOp51
 70
     0
102
RTVSPost2010Prop52
140
1.0
102
RTVSPost2010PropOp52
 70
     0
102
RTVSPost2010Prop53
 90
        2
102
RTVSPost2010PropOp53
 70
     1
102
RTVSPost2010Prop54
  1
strokes_ogs.tif
102
RTVSPost2010PropOp54
 70
     1
102
RTVSPost2010Prop55
280
     0
102
RTVSPost2010PropOp55
 70
     1
102
RTVSPost2010Prop56
140
1.0
102
RTVSPost2010PropOp56
 70
     1
102
RTVSPost2010Prop57
140
1.0
102
RTVSPost2010PropOp57
 70
     1
102
RTVSPropertyOp0
 70
     1
102
RTVSPropertyOp1
 70
     1
102
RTVSPropertyOp2
 70
     1
102
RTVSPropertyOp3
 70
     1
102
RTVSPropertyOp4
 70
     1
102
RTVSPropertyOp5
 70
     1
102
RTVSPropertyOp6
 70
     1
102
RTVSPropertyOp7
 70
     1
102
RTVSPropertyOp8
 70
     1
102
RTVSPropertyOp9
 70
     1
102
RTVSPropertyOp10
 70
     1
102
RTVSPropertyOp11
 70
     1
102
RTVSPropertyOp12
 70
     1
102
RTVSPropertyOp13
 70
     1
102
RTVSPropertyOp14
 70
     1
102
RTVSPropertyOp15
 70
     1
102
RTVSPropertyOp16
 70
     1
102
RTVSPropertyOp17
 70
     1
102
RTVSPropertyOp18
 70
     1
102
RTVSPropertyOp19
 70
     1
102
RTVSPropertyOp20
 70
     1
102
RTVSPropertyOp21
 70
     1
102
RTVSPropertyOp22
 70
     1
102
RTVSPropertyOp23
 70
     1
102
RTVSPropertyOp24
 70
     1
102
RTVSPropertyOp25
 70
     1
102
RTVSPropertyOp26
 70
     1
102
RTVSPropertyOp27
 70
     1
102
RTVSPropertyOp28
 70
     1
102
RTVSPropertyOp29
 70
     1
102
RTVSPropertyOp30
 70
     1
102
RTVSPropertyOp31
 70
     1
102
RTVSPropertyOp32
 70
     1
102
RTVSPropertyOp33
 70
     1
102
RTVSPropertyOp34
 70
     1
102
RTVSPropertyOp35
 70
     1
102
RTVSPropertyOp36
 70
     1
102
RTVSPropertyOp37
 70
     1
102
RTVSPropertyOp38
 70
     1
102
RTVSPropertyOp39
 70
     1
102
RTVSPropertyOp40
 70
     1
102
RTVSPropertyOp41
 70
     1
102
RTVSPropertyOp42
 70
     1
102
RTVSPropertyOp43
 70
     1
102
RTVSPropertyOp44
 70
     1
102
RTVSPropertyOp45
 70
     1
102
RTVSPropertyOp46
 70
     1
102
RTVSPropertyOp47
 70
     1
102
RTVSPropertyOp48
 70
     1
102
RTVSPropertyOp49
 70
     1
102
RTVSPropertyOp50
 70
     1
102
RTVSPropertyOp51
 70
     0
102
RTVSPropertyOp52
 70
     0
102
RTVSPropertyOp53
 70
     1
102
RTVSPropertyOp54
 70
     1
102
RTVSPropertyOp55
 70
     1
102
RTVSPropertyOp56
 70
     1
102
RTVSPropertyOp57
 70
     1
102
RTVSPropertyOp58
 70
     1
102
RTVSPropertyOp59
 70
     1
102
RTVSPropertyOp60
 70
     1
102
RTVSPropertyOp61
 70
     1
102
RTVSPropertyOp62
 70
     1
  0
XRECORD
  5
362
102
{ACAD_REACTORS
330
361
102
}
330
361
100
AcDbXrecord
280
     1
102
RTVSPost2010Prop28
280
     0
102
RTVSPost2010PropOp28
 70
     1
102
RTVSPost2010Prop29
280
     1
102
RTVSPost2010PropOp29
 70
     1
102
RTVSPost2010Prop30
280
     1
102
RTVSPost2010PropOp30
 70
     1
102
RTVSPost2010Prop31
280
     0
102
RTVSPost2010PropOp31
 70
     1
102
RTVSPost2010Prop32
280
     0
102
RTVSPost2010PropOp32
 70
     1
102
RTVSPost2010Prop33
280
     0
102
RTVSPost2010PropOp33
 70
     1
102
RTVSPost2010Prop34
280
     0
102
RTVSPost2010PropOp34
 70
     1
102
RTVSPost2010Prop35
280
     0
102
RTVSPost2010PropOp35
 70
     1
102
RTVSPost2010Prop36
280
     0
102
RTVSPost2010PropOp36
 70
     1
102
RTVSPost2010Prop37
 90
       50
102
RTVSPost2010PropOp37
 70
     1
102
RTVSPost2010Prop38
140
0.0
102
RTVSPost2010PropOp38
 70
     1
102
RTVSPost2010Prop39
140
1.0
102
RTVSPost2010PropOp39
 70
     1
102
RTVSPost2010Prop40
 90
        0
102
RTVSPost2010PropOp40
 70
     1
102
RTVSPost2010Prop41ColorIndex
 90
       18
102
RTVSPost2010Prop41ColorRGB
 90
        0
102
RTVSPost2010PropOp41
 70
     1
102
RTVSPost2010Prop42
 90
       50
102
RTVSPost2010PropOp42
 70
     1
102
RTVSPost2010Prop43
 90
        3
102
RTVSPost2010PropOp43
 70
     1
102
RTVSPost2010Prop44ColorIndex
 90
        5
102
RTVSPost2010Prop44ColorRGB
 90
      255
102
RTVSPost2010PropOp44
 70
     1
102
RTVSPost2010Prop45
280
     0
102
RTVSPost2010PropOp45
 70
     1
102
RTVSPost2010Prop46
 90
       50
102
RTVSPost2010PropOp46
 70
     1
102
RTVSPost2010Prop47
 90
       50
102
RTVSPost2010PropOp47
 70
     1
102
RTVSPost2010Prop48
 90
       50
102
RTVSPost2010PropOp48
 70
     1
102
RTVSPost2010Prop49
280
     0
102
RTVSPost2010PropOp49
 70
     1
102
RTVSPost2010Prop50
 90
       50
102
RTVSPost2010PropOp50
 70
     1
102
RTVSPost2010Prop51ColorIndex
 90
      256
102
RTVSPost2010Prop51ColorRGB
 90
-16777216
102
RTVSPost2010PropOp51
 70
     0
102
RTVSPost2010Prop52
140
1.0
102
RTVSPost2010PropOp52
 70
     0
102
RTVSPost2010Prop53
 90
        2
102
RTVSPost2010PropOp53
 70
     1
102
RTVSPost2010Prop54
  1
strokes_ogs.tif
102
RTVSPost2010PropOp54
 70
     1
102
RTVSPost2010Prop55
280
     0
102
RTVSPost2010PropOp55
 70
     1
102
RTVSPost2010Prop56
140
1.0
102
RTVSPost2010PropOp56
 70
     1
102
RTVSPost2010Prop57
140
1.0
102
RTVSPost2010PropOp57
 70
     1
102
RTVSPropertyOp0
 70
     1
102
RTVSPropertyOp1
 70
     1
102
RTVSPropertyOp2
 70
     1
102
RTVSPropertyOp3
 70
     1
102
RTVSPropertyOp4
 70
     1
102
RTVSPropertyOp5
 70
     1
102
RTVSPropertyOp6
 70
     1
102
RTVSPropertyOp7
 70
     1
102
RTVSPropertyOp8
 70
     1
102
RTVSPropertyOp9
 70
     1
102
RTVSPropertyOp10
 70
     1
102
RTVSPropertyOp11
 70
     1
102
RTVSPropertyOp12
 70
     1
102
RTVSPropertyOp13
 70
     1
102
RTVSPropertyOp14
 70
     1
102
RTVSPropertyOp15
 70
     1
102
RTVSPropertyOp16
 70
     1
102
RTVSPropertyOp17
 70
     1
102
RTVSPropertyOp18
 70
     1
102
RTVSPropertyOp19
 70
     1
102
RTVSPropertyOp20
 70
     1
102
RTVSPropertyOp21
 70
     1
102
RTVSPropertyOp22
 70
     1
102
RTVSPropertyOp23
 70
     1
102
RTVSPropertyOp24
 70
     1
102
RTVSPropertyOp25
 70
     1
102
RTVSPropertyOp26
 70
     1
102
RTVSPropertyOp27
 70
     1
102
RTVSPropertyOp28
 70
     1
102
RTVSPropertyOp29
 70
     1
102
RTVSPropertyOp30
 70
     1
102
RTVSPropertyOp31
 70
     1
102
RTVSPropertyOp32
 70
     1
102
RTVSPropertyOp33
 70
     1
102
RTVSPropertyOp34
 70
     1
102
RTVSPropertyOp35
 70
     1
102
RTVSPropertyOp36
 70
     1
102
RTVSPropertyOp37
 70
     1
102
RTVSPropertyOp38
 70
     1
102
RTVSPropertyOp39
 70
     1
102
RTVSPropertyOp40
 70
     1
102
RTVSPropertyOp41
 70
     1
102
RTVSPropertyOp42
 70
     1
102
RTVSPropertyOp43
 70
     1
102
RTVSPropertyOp44
 70
     1
102
RTVSPropertyOp45
 70
     1
102
RTVSPropertyOp46
 70
     1
102
RTVSPropertyOp47
 70
     1
102
RTVSPropertyOp48
 70
     1
102
RTVSPropertyOp49
 70
     1
102
RTVSPropertyOp50
 70
     1
102
RTVSPropertyOp51
 70
     0
102
RTVSPropertyOp52
 70
     0
102
RTVSPropertyOp53
 70
     1
102
RTVSPropertyOp54
 70
     1
102
RTVSPropertyOp55
 70
     1
102
RTVSPropertyOp56
 70
     1
102
RTVSPropertyOp57
 70
     1
102
RTVSPropertyOp58
 70
     1
102
RTVSPropertyOp59
 70
     1
102
RTVSPropertyOp60
 70
     1
102
RTVSPropertyOp61
 70
     1
102
RTVSPropertyOp62
 70
     1
  0
XRECORD
  5
364
102
{ACAD_REACTORS
330
363
102
}
330
363
100
AcDbXrecord
280
     1
102
RTVSPost2010Prop28
280
     0
102
RTVSPost2010PropOp28
 70
     1
102
RTVSPost2010Prop29
280
     1
102
RTVSPost2010PropOp29
 70
     1
102
RTVSPost2010Prop30
280
     1
102
RTVSPost2010PropOp30
 70
     1
102
RTVSPost2010Prop31
280
     0
102
RTVSPost2010PropOp31
 70
     1
102
RTVSPost2010Prop32
280
     0
102
RTVSPost2010PropOp32
 70
     1
102
RTVSPost2010Prop33
280
     0
102
RTVSPost2010PropOp33
 70
     1
102
RTVSPost2010Prop34
280
     0
102
RTVSPost2010PropOp34
 70
     1
102
RTVSPost2010Prop35
280
     0
102
RTVSPost2010PropOp35
 70
     1
102
RTVSPost2010Prop36
280
     0
102
RTVSPost2010PropOp36
 70
     1
102
RTVSPost2010Prop37
 90
       50
102
RTVSPost2010PropOp37
 70
     1
102
RTVSPost2010Prop38
140
0.0
102
RTVSPost2010PropOp38
 70
     1
102
RTVSPost2010Prop39
140
1.0
102
RTVSPost2010PropOp39
 70
     1
102
RTVSPost2010Prop40
 90
        0
102
RTVSPost2010PropOp40
 70
     1
102
RTVSPost2010Prop41ColorIndex
 90
       18
102
RTVSPost2010Prop41ColorRGB
 90
        0
102
RTVSPost2010PropOp41
 70
     1
102
RTVSPost2010Prop42
 90
       50
102
RTVSPost2010PropOp42
 70
     1
102
RTVSPost2010Prop43
 90
        3
102
RTVSPost2010PropOp43
 70
     1
102
RTVSPost2010Prop44ColorIndex
 90
        5
102
RTVSPost2010Prop44ColorRGB
 90
      255
102
RTVSPost2010PropOp44
 70
     1
102
RTVSPost2010Prop45
280
     0
102
RTVSPost2010PropOp45
 70
     1
102
RTVSPost2010Prop46
 90
       50
102
RTVSPost2010PropOp46
 70
     1
102
RTVSPost2010Prop47
 90
       50
102
RTVSPost2010PropOp47
 70
     1
102
RTVSPost2010Prop48
 90
       50
102
RTVSPost2010PropOp48
 70
     1
102
RTVSPost2010Prop49
280
     0
102
RTVSPost2010PropOp49
 70
     1
102
RTVSPost2010Prop50
 90
       50
102
RTVSPost2010PropOp50
 70
     1
102
RTVSPost2010Prop51ColorIndex
 90
      256
102
RTVSPost2010Prop51ColorRGB
 90
-16777216
102
RTVSPost2010PropOp51
 70
     0
102
RTVSPost2010Prop52
140
1.0
102
RTVSPost2010PropOp52
 70
     0
102
RTVSPost2010Prop53
 90
        2
102
RTVSPost2010PropOp53
 70
     1
102
RTVSPost2010Prop54
  1
strokes_ogs.tif
102
RTVSPost2010PropOp54
 70
     1
102
RTVSPost2010Prop55
280
     0
102
RTVSPost2010PropOp55
 70
     1
102
RTVSPost2010Prop56
140
1.0
102
RTVSPost2010PropOp56
 70
     1
102
RTVSPost2010Prop57
140
1.0
102
RTVSPost2010PropOp57
 70
     1
102
RTVSPropertyOp0
 70
     1
102
RTVSPropertyOp1
 70
     1
102
RTVSPropertyOp2
 70
     1
102
RTVSPropertyOp3
 70
     1
102
RTVSPropertyOp4
 70
     1
102
RTVSPropertyOp5
 70
     1
102
RTVSPropertyOp6
 70
     1
102
RTVSPropertyOp7
 70
     1
102
RTVSPropertyOp8
 70
     1
102
RTVSPropertyOp9
 70
     1
102
RTVSPropertyOp10
 70
     1
102
RTVSPropertyOp11
 70
     1
102
RTVSPropertyOp12
 70
     1
102
RTVSPropertyOp13
 70
     1
102
RTVSPropertyOp14
 70
     1
102
RTVSPropertyOp15
 70
     1
102
RTVSPropertyOp16
 70
     1
102
RTVSPropertyOp17
 70
     1
102
RTVSPropertyOp18
 70
     1
102
RTVSPropertyOp19
 70
     1
102
RTVSPropertyOp20
 70
     1
102
RTVSPropertyOp21
 70
     1
102
RTVSPropertyOp22
 70
     1
102
RTVSPropertyOp23
 70
     1
102
RTVSPropertyOp24
 70
     1
102
RTVSPropertyOp25
 70
     1
102
RTVSPropertyOp26
 70
     1
102
RTVSPropertyOp27
 70
     1
102
RTVSPropertyOp28
 70
     1
102
RTVSPropertyOp29
 70
     1
102
RTVSPropertyOp30
 70
     1
102
RTVSPropertyOp31
 70
     1
102
RTVSPropertyOp32
 70
     1
102
RTVSPropertyOp33
 70
     1
102
RTVSPropertyOp34
 70
     1
102
RTVSPropertyOp35
 70
     1
102
RTVSPropertyOp36
 70
     1
102
RTVSPropertyOp37
 70
     1
102
RTVSPropertyOp38
 70
     1
102
RTVSPropertyOp39
 70
     1
102
RTVSPropertyOp40
 70
     1
102
RTVSPropertyOp41
 70
     1
102
RTVSPropertyOp42
 70
     1
102
RTVSPropertyOp43
 70
     1
102
RTVSPropertyOp44
 70
     1
102
RTVSPropertyOp45
 70
     1
102
RTVSPropertyOp46
 70
     1
102
RTVSPropertyOp47
 70
     1
102
RTVSPropertyOp48
 70
     1
102
RTVSPropertyOp49
 70
     1
102
RTVSPropertyOp50
 70
     1
102
RTVSPropertyOp51
 70
     0
102
RTVSPropertyOp52
 70
     0
102
RTVSPropertyOp53
 70
     1
102
RTVSPropertyOp54
 70
     1
102
RTVSPropertyOp55
 70
     1
102
RTVSPropertyOp56
 70
     1
102
RTVSPropertyOp57
 70
     1
102
RTVSPropertyOp58
 70
     1
102
RTVSPropertyOp59
 70
     1
102
RTVSPropertyOp60
 70
     1
102
RTVSPropertyOp61
 70
     1
102
RTVSPropertyOp62
 70
     1
  0
XRECORD
  5
366
102
{ACAD_REACTORS
330
365
102
}
330
365
100
AcDbXrecord
280
     1
102
RTVSPost2010Prop28
280
     0
102
RTVSPost2010PropOp28
 70
     1
102
RTVSPost2010Prop29
280
     1
102
RTVSPost2010PropOp29
 70
     1
102
RTVSPost2010Prop30
280
     1
102
RTVSPost2010PropOp30
 70
     1
102
RTVSPost2010Prop31
280
     0
102
RTVSPost2010PropOp31
 70
     1
102
RTVSPost2010Prop32
280
     0
102
RTVSPost2010PropOp32
 70
     1
102
RTVSPost2010Prop33
280
     0
102
RTVSPost2010PropOp33
 70
     1
102
RTVSPost2010Prop34
280
     0
102
RTVSPost2010PropOp34
 70
     1
102
RTVSPost2010Prop35
280
     0
102
RTVSPost2010PropOp35
 70
     1
102
RTVSPost2010Prop36
280
     0
102
RTVSPost2010PropOp36
 70
     1
102
RTVSPost2010Prop37
 90
       50
102
RTVSPost2010PropOp37
 70
     1
102
RTVSPost2010Prop38
140
0.0
102
RTVSPost2010PropOp38
 70
     1
102
RTVSPost2010Prop39
140
1.0
102
RTVSPost2010PropOp39
 70
     1
102
RTVSPost2010Prop40
 90
        0
102
RTVSPost2010PropOp40
 70
     1
102
RTVSPost2010Prop41ColorIndex
 90
       18
102
RTVSPost2010Prop41ColorRGB
 90
        0
102
RTVSPost2010PropOp41
 70
     1
102
RTVSPost2010Prop42
 90
       50
102
RTVSPost2010PropOp42
 70
     1
102
RTVSPost2010Prop43
 90
        3
102
RTVSPost2010PropOp43
 70
     1
102
RTVSPost2010Prop44ColorIndex
 90
        5
102
RTVSPost2010Prop44ColorRGB
 90
      255
102
RTVSPost2010PropOp44
 70
     1
102
RTVSPost2010Prop45
280
     0
102
RTVSPost2010PropOp45
 70
     1
102
RTVSPost2010Prop46
 90
       50
102
RTVSPost2010PropOp46
 70
     1
102
RTVSPost2010Prop47
 90
       50
102
RTVSPost2010PropOp47
 70
     1
102
RTVSPost2010Prop48
 90
       50
102
RTVSPost2010PropOp48
 70
     1
102
RTVSPost2010Prop49
280
     0
102
RTVSPost2010PropOp49
 70
     1
102
RTVSPost2010Prop50
 90
       50
102
RTVSPost2010PropOp50
 70
     1
102
RTVSPost2010Prop51ColorIndex
 90
      256
102
RTVSPost2010Prop51ColorRGB
 90
-16777216
102
RTVSPost2010PropOp51
 70
     0
102
RTVSPost2010Prop52
140
1.0
102
RTVSPost2010PropOp52
 70
     0
102
RTVSPost2010Prop53
 90
        2
102
RTVSPost2010PropOp53
 70
     1
102
RTVSPost2010Prop54
  1
strokes_ogs.tif
102
RTVSPost2010PropOp54
 70
     1
102
RTVSPost2010Prop55
280
     0
102
RTVSPost2010PropOp55
 70
     1
102
RTVSPost2010Prop56
140
1.0
102
RTVSPost2010PropOp56
 70
     1
102
RTVSPost2010Prop57
140
1.0
102
RTVSPost2010PropOp57
 70
     1
102
RTVSPropertyOp0
 70
     1
102
RTVSPropertyOp1
 70
     1
102
RTVSPropertyOp2
 70
     1
102
RTVSPropertyOp3
 70
     1
102
RTVSPropertyOp4
 70
     1
102
RTVSPropertyOp5
 70
     1
102
RTVSPropertyOp6
 70
     1
102
RTVSPropertyOp7
 70
     1
102
RTVSPropertyOp8
 70
     1
102
RTVSPropertyOp9
 70
     1
102
RTVSPropertyOp10
 70
     1
102
RTVSPropertyOp11
 70
     1
102
RTVSPropertyOp12
 70
     1
102
RTVSPropertyOp13
 70
     1
102
RTVSPropertyOp14
 70
     1
102
RTVSPropertyOp15
 70
     1
102
RTVSPropertyOp16
 70
     1
102
RTVSPropertyOp17
 70
     1
102
RTVSPropertyOp18
 70
     1
102
RTVSPropertyOp19
 70
     1
102
RTVSPropertyOp20
 70
     1
102
RTVSPropertyOp21
 70
     1
102
RTVSPropertyOp22
 70
     1
102
RTVSPropertyOp23
 70
     1
102
RTVSPropertyOp24
 70
     1
102
RTVSPropertyOp25
 70
     1
102
RTVSPropertyOp26
 70
     1
102
RTVSPropertyOp27
 70
     1
102
RTVSPropertyOp28
 70
     1
102
RTVSPropertyOp29
 70
     1
102
RTVSPropertyOp30
 70
     1
102
RTVSPropertyOp31
 70
     1
102
RTVSPropertyOp32
 70
     1
102
RTVSPropertyOp33
 70
     1
102
RTVSPropertyOp34
 70
     1
102
RTVSPropertyOp35
 70
     1
102
RTVSPropertyOp36
 70
     1
102
RTVSPropertyOp37
 70
     1
102
RTVSPropertyOp38
 70
     1
102
RTVSPropertyOp39
 70
     1
102
RTVSPropertyOp40
 70
     1
102
RTVSPropertyOp41
 70
     1
102
RTVSPropertyOp42
 70
     1
102
RTVSPropertyOp43
 70
     1
102
RTVSPropertyOp44
 70
     1
102
RTVSPropertyOp45
 70
     1
102
RTVSPropertyOp46
 70
     1
102
RTVSPropertyOp47
 70
     1
102
RTVSPropertyOp48
 70
     1
102
RTVSPropertyOp49
 70
     1
102
RTVSPropertyOp50
 70
     1
102
RTVSPropertyOp51
 70
     0
102
RTVSPropertyOp52
 70
     0
102
RTVSPropertyOp53
 70
     1
102
RTVSPropertyOp54
 70
     1
102
RTVSPropertyOp55
 70
     1
102
RTVSPropertyOp56
 70
     1
102
RTVSPropertyOp57
 70
     1
102
RTVSPropertyOp58
 70
     1
102
RTVSPropertyOp59
 70
     1
102
RTVSPropertyOp60
 70
     1
102
RTVSPropertyOp61
 70
     1
102
RTVSPropertyOp62
 70
     1
  0
XRECORD
  5
368
102
{ACAD_REACTORS
330
367
102
}
330
367
100
AcDbXrecord
280
     1
102
RTVSPost2010Prop28
280
     0
102
RTVSPost2010PropOp28
 70
     1
102
RTVSPost2010Prop29
280
     1
102
RTVSPost2010PropOp29
 70
     1
102
RTVSPost2010Prop30
280
     1
102
RTVSPost2010PropOp30
 70
     1
102
RTVSPost2010Prop31
280
     0
102
RTVSPost2010PropOp31
 70
     1
102
RTVSPost2010Prop32
280
     0
102
RTVSPost2010PropOp32
 70
     1
102
RTVSPost2010Prop33
280
     0
102
RTVSPost2010PropOp33
 70
     1
102
RTVSPost2010Prop34
280
     0
102
RTVSPost2010PropOp34
 70
     1
102
RTVSPost2010Prop35
280
     0
102
RTVSPost2010PropOp35
 70
     1
102
RTVSPost2010Prop36
280
     0
102
RTVSPost2010PropOp36
 70
     1
102
RTVSPost2010Prop37
 90
       50
102
RTVSPost2010PropOp37
 70
     1
102
RTVSPost2010Prop38
140
0.0
102
RTVSPost2010PropOp38
 70
     1
102
RTVSPost2010Prop39
140
1.0
102
RTVSPost2010PropOp39
 70
     1
102
RTVSPost2010Prop40
 90
        0
102
RTVSPost2010PropOp40
 70
     1
102
RTVSPost2010Prop41ColorIndex
 90
       18
102
RTVSPost2010Prop41ColorRGB
 90
        0
102
RTVSPost2010PropOp41
 70
     1
102
RTVSPost2010Prop42
 90
       50
102
RTVSPost2010PropOp42
 70
     1
102
RTVSPost2010Prop43
 90
        3
102
RTVSPost2010PropOp43
 70
     1
102
RTVSPost2010Prop44ColorIndex
 90
        5
102
RTVSPost2010Prop44ColorRGB
 90
      255
102
RTVSPost2010PropOp44
 70
     1
102
RTVSPost2010Prop45
280
     0
102
RTVSPost2010PropOp45
 70
     1
102
RTVSPost2010Prop46
 90
       50
102
RTVSPost2010PropOp46
 70
     1
102
RTVSPost2010Prop47
 90
       50
102
RTVSPost2010PropOp47
 70
     1
102
RTVSPost2010Prop48
 90
       50
102
RTVSPost2010PropOp48
 70
     1
102
RTVSPost2010Prop49
280
     0
102
RTVSPost2010PropOp49
 70
     1
102
RTVSPost2010Prop50
 90
       50
102
RTVSPost2010PropOp50
 70
     1
102
RTVSPost2010Prop51ColorIndex
 90
      256
102
RTVSPost2010Prop51ColorRGB
 90
-16777216
102
RTVSPost2010PropOp51
 70
     0
102
RTVSPost2010Prop52
140
1.0
102
RTVSPost2010PropOp52
 70
     0
102
RTVSPost2010Prop53
 90
        2
102
RTVSPost2010PropOp53
 70
     1
102
RTVSPost2010Prop54
  1
strokes_ogs.tif
102
RTVSPost2010PropOp54
 70
     1
102
RTVSPost2010Prop55
280
     0
102
RTVSPost2010PropOp55
 70
     1
102
RTVSPost2010Prop56
140
1.0
102
RTVSPost2010PropOp56
 70
     1
102
RTVSPost2010Prop57
140
1.0
102
RTVSPost2010PropOp57
 70
     1
102
RTVSPropertyOp0
 70
     1
102
RTVSPropertyOp1
 70
     1
102
RTVSPropertyOp2
 70
     1
102
RTVSPropertyOp3
 70
     1
102
RTVSPropertyOp4
 70
     1
102
RTVSPropertyOp5
 70
     1
102
RTVSPropertyOp6
 70
     1
102
RTVSPropertyOp7
 70
     1
102
RTVSPropertyOp8
 70
     1
102
RTVSPropertyOp9
 70
     1
102
RTVSPropertyOp10
 70
     1
102
RTVSPropertyOp11
 70
     1
102
RTVSPropertyOp12
 70
     1
102
RTVSPropertyOp13
 70
     1
102
RTVSPropertyOp14
 70
     1
102
RTVSPropertyOp15
 70
     1
102
RTVSPropertyOp16
 70
     1
102
RTVSPropertyOp17
 70
     1
102
RTVSPropertyOp18
 70
     1
102
RTVSPropertyOp19
 70
     1
102
RTVSPropertyOp20
 70
     1
102
RTVSPropertyOp21
 70
     1
102
RTVSPropertyOp22
 70
     1
102
RTVSPropertyOp23
 70
     1
102
RTVSPropertyOp24
 70
     1
102
RTVSPropertyOp25
 70
     1
102
RTVSPropertyOp26
 70
     1
102
RTVSPropertyOp27
 70
     1
102
RTVSPropertyOp28
 70
     1
102
RTVSPropertyOp29
 70
     1
102
RTVSPropertyOp30
 70
     1
102
RTVSPropertyOp31
 70
     1
102
RTVSPropertyOp32
 70
     1
102
RTVSPropertyOp33
 70
     1
102
RTVSPropertyOp34
 70
     1
102
RTVSPropertyOp35
 70
     1
102
RTVSPropertyOp36
 70
     1
102
RTVSPropertyOp37
 70
     1
102
RTVSPropertyOp38
 70
     1
102
RTVSPropertyOp39
 70
     1
102
RTVSPropertyOp40
 70
     1
102
RTVSPropertyOp41
 70
     1
102
RTVSPropertyOp42
 70
     1
102
RTVSPropertyOp43
 70
     1
102
RTVSPropertyOp44
 70
     1
102
RTVSPropertyOp45
 70
     1
102
RTVSPropertyOp46
 70
     1
102
RTVSPropertyOp47
 70
     1
102
RTVSPropertyOp48
 70
     1
102
RTVSPropertyOp49
 70
     1
102
RTVSPropertyOp50
 70
     1
102
RTVSPropertyOp51
 70
     0
102
RTVSPropertyOp52
 70
     0
102
RTVSPropertyOp53
 70
     1
102
RTVSPropertyOp54
 70
     1
102
RTVSPropertyOp55
 70
     1
102
RTVSPropertyOp56
 70
     1
102
RTVSPropertyOp57
 70
     1
102
RTVSPropertyOp58
 70
     1
102
RTVSPropertyOp59
 70
     1
102
RTVSPropertyOp60
 70
     1
102
RTVSPropertyOp61
 70
     1
102
RTVSPropertyOp62
 70
     1
  0
XRECORD
  5
36E
102
{ACAD_REACTORS
330
36D
102
}
330
36D
100
AcDbXrecord
280
     1
102
RTVSPost2010Prop28
280
     0
102
RTVSPost2010PropOp28
 70
     1
102
RTVSPost2010Prop29
280
     1
102
RTVSPost2010PropOp29
 70
     1
102
RTVSPost2010Prop30
280
     1
102
RTVSPost2010PropOp30
 70
     1
102
RTVSPost2010Prop31
280
     0
102
RTVSPost2010PropOp31
 70
     1
102
RTVSPost2010Prop32
280
     0
102
RTVSPost2010PropOp32
 70
     1
102
RTVSPost2010Prop33
280
     0
102
RTVSPost2010PropOp33
 70
     1
102
RTVSPost2010Prop34
280
     0
102
RTVSPost2010PropOp34
 70
     1
102
RTVSPost2010Prop35
280
     0
102
RTVSPost2010PropOp35
 70
     1
102
RTVSPost2010Prop36
280
     0
102
RTVSPost2010PropOp36
 70
     1
102
RTVSPost2010Prop37
 90
       50
102
RTVSPost2010PropOp37
 70
     1
102
RTVSPost2010Prop38
140
0.0
102
RTVSPost2010PropOp38
 70
     1
102
RTVSPost2010Prop39
140
1.0
102
RTVSPost2010PropOp39
 70
     1
102
RTVSPost2010Prop40
 90
        0
102
RTVSPost2010PropOp40
 70
     1
102
RTVSPost2010Prop41ColorIndex
 90
       18
102
RTVSPost2010Prop41ColorRGB
 90
        0
102
RTVSPost2010PropOp41
 70
     1
102
RTVSPost2010Prop42
 90
       50
102
RTVSPost2010PropOp42
 70
     1
102
RTVSPost2010Prop43
 90
        3
102
RTVSPost2010PropOp43
 70
     1
102
RTVSPost2010Prop44ColorIndex
 90
        5
102
RTVSPost2010Prop44ColorRGB
 90
      255
102
RTVSPost2010PropOp44
 70
     1
102
RTVSPost2010Prop45
280
     0
102
RTVSPost2010PropOp45
 70
     1
102
RTVSPost2010Prop46
 90
       50
102
RTVSPost2010PropOp46
 70
     1
102
RTVSPost2010Prop47
 90
       50
102
RTVSPost2010PropOp47
 70
     1
102
RTVSPost2010Prop48
 90
       50
102
RTVSPost2010PropOp48
 70
     1
102
RTVSPost2010Prop49
280
     0
102
RTVSPost2010PropOp49
 70
     1
102
RTVSPost2010Prop50
 90
       50
102
RTVSPost2010PropOp50
 70
     1
102
RTVSPost2010Prop51ColorIndex
 90
      256
102
RTVSPost2010Prop51ColorRGB
 90
-16777216
102
RTVSPost2010PropOp51
 70
     0
102
RTVSPost2010Prop52
140
1.0
102
RTVSPost2010PropOp52
 70
     0
102
RTVSPost2010Prop53
 90
        2
102
RTVSPost2010PropOp53
 70
     1
102
RTVSPost2010Prop54
  1
strokes_ogs.tif
102
RTVSPost2010PropOp54
 70
     1
102
RTVSPost2010Prop55
280
     0
102
RTVSPost2010PropOp55
 70
     1
102
RTVSPost2010Prop56
140
1.0
102
RTVSPost2010PropOp56
 70
     1
102
RTVSPost2010Prop57
140
1.0
102
RTVSPost2010PropOp57
 70
     1
102
RTVSPropertyOp0
 70
     1
102
RTVSPropertyOp1
 70
     1
102
RTVSPropertyOp2
 70
     1
102
RTVSPropertyOp3
 70
     1
102
RTVSPropertyOp4
 70
     1
102
RTVSPropertyOp5
 70
     1
102
RTVSPropertyOp6
 70
     1
102
RTVSPropertyOp7
 70
     1
102
RTVSPropertyOp8
 70
     1
102
RTVSPropertyOp9
 70
     1
102
RTVSPropertyOp10
 70
     1
102
RTVSPropertyOp11
 70
     1
102
RTVSPropertyOp12
 70
     1
102
RTVSPropertyOp13
 70
     1
102
RTVSPropertyOp14
 70
     1
102
RTVSPropertyOp15
 70
     1
102
RTVSPropertyOp16
 70
     1
102
RTVSPropertyOp17
 70
     1
102
RTVSPropertyOp18
 70
     1
102
RTVSPropertyOp19
 70
     1
102
RTVSPropertyOp20
 70
     1
102
RTVSPropertyOp21
 70
     1
102
RTVSPropertyOp22
 70
     1
102
RTVSPropertyOp23
 70
     1
102
RTVSPropertyOp24
 70
     1
102
RTVSPropertyOp25
 70
     1
102
RTVSPropertyOp26
 70
     1
102
RTVSPropertyOp27
 70
     1
102
RTVSPropertyOp28
 70
     1
102
RTVSPropertyOp29
 70
     1
102
RTVSPropertyOp30
 70
     1
102
RTVSPropertyOp31
 70
     1
102
RTVSPropertyOp32
 70
     1
102
RTVSPropertyOp33
 70
     1
102
RTVSPropertyOp34
 70
     1
102
RTVSPropertyOp35
 70
     1
102
RTVSPropertyOp36
 70
     1
102
RTVSPropertyOp37
 70
     1
102
RTVSPropertyOp38
 70
     1
102
RTVSPropertyOp39
 70
     1
102
RTVSPropertyOp40
 70
     1
102
RTVSPropertyOp41
 70
     1
102
RTVSPropertyOp42
 70
     1
102
RTVSPropertyOp43
 70
     1
102
RTVSPropertyOp44
 70
     1
102
RTVSPropertyOp45
 70
     1
102
RTVSPropertyOp46
 70
     1
102
RTVSPropertyOp47
 70
     1
102
RTVSPropertyOp48
 70
     1
102
RTVSPropertyOp49
 70
     1
102
RTVSPropertyOp50
 70
     1
102
RTVSPropertyOp51
 70
     0
102
RTVSPropertyOp52
 70
     0
102
RTVSPropertyOp53
 70
     1
102
RTVSPropertyOp54
 70
     1
102
RTVSPropertyOp55
 70
     1
102
RTVSPropertyOp56
 70
     1
102
RTVSPropertyOp57
 70
     1
102
RTVSPropertyOp58
 70
     1
102
RTVSPropertyOp59
 70
     1
102
RTVSPropertyOp60
 70
     1
102
RTVSPropertyOp61
 70
     1
102
RTVSPropertyOp62
 70
     1
  0
XRECORD
  5
382
102
{ACAD_REACTORS
330
381
102
}
330
381
100
AcDbXrecord
280
     1
102
RTVSPost2010Prop28
280
     0
102
RTVSPost2010PropOp28
 70
     0
102
RTVSPost2010Prop29
280
     1
102
RTVSPost2010PropOp29
 70
     0
102
RTVSPost2010Prop30
280
     1
102
RTVSPost2010PropOp30
 70
     0
102
RTVSPost2010Prop31
280
     0
102
RTVSPost2010PropOp31
 70
     0
102
RTVSPost2010Prop32
280
     0
102
RTVSPost2010PropOp32
 70
     0
102
RTVSPost2010Prop33
280
     0
102
RTVSPost2010PropOp33
 70
     0
102
RTVSPost2010Prop34
280
     0
102
RTVSPost2010PropOp34
 70
     0
102
RTVSPost2010Prop35
280
     0
102
RTVSPost2010PropOp35
 70
     0
102
RTVSPost2010Prop36
280
     0
102
RTVSPost2010PropOp36
 70
     0
102
RTVSPost2010Prop37
 90
       50
102
RTVSPost2010PropOp37
 70
     0
102
RTVSPost2010Prop38
140
0.0
102
RTVSPost2010PropOp38
 70
     0
102
RTVSPost2010Prop39
140
1.0
102
RTVSPost2010PropOp39
 70
     0
102
RTVSPost2010Prop40
 90
        0
102
RTVSPost2010PropOp40
 70
     0
102
RTVSPost2010Prop41ColorIndex
 90
       18
102
RTVSPost2010Prop41ColorRGB
 90
        0
102
RTVSPost2010PropOp41
 70
     0
102
RTVSPost2010Prop42
 90
       50
102
RTVSPost2010PropOp42
 70
     0
102
RTVSPost2010Prop43
 90
        3
102
RTVSPost2010PropOp43
 70
     0
102
RTVSPost2010Prop44ColorIndex
 90
        5
102
RTVSPost2010Prop44ColorRGB
 90
      255
102
RTVSPost2010PropOp44
 70
     0
102
RTVSPost2010Prop45
280
     0
102
RTVSPost2010PropOp45
 70
     0
102
RTVSPost2010Prop46
 90
       50
102
RTVSPost2010PropOp46
 70
     0
102
RTVSPost2010Prop47
 90
       50
102
RTVSPost2010PropOp47
 70
     0
102
RTVSPost2010Prop48
 90
       50
102
RTVSPost2010PropOp48
 70
     0
102
RTVSPost2010Prop49
280
     0
102
RTVSPost2010PropOp49
 70
     0
102
RTVSPost2010Prop50
 90
       50
102
RTVSPost2010PropOp50
 70
     0
102
RTVSPost2010Prop51ColorIndex
 90
      256
102
RTVSPost2010Prop51ColorRGB
 90
-16777216
102
RTVSPost2010PropOp51
 70
     0
102
RTVSPost2010Prop52
140
1.0
102
RTVSPost2010PropOp52
 70
     0
102
RTVSPost2010Prop53
 90
        2
102
RTVSPost2010PropOp53
 70
     0
102
RTVSPost2010Prop54
  1
strokes_ogs.tif
102
RTVSPost2010PropOp54
 70
     0
102
RTVSPost2010Prop55
280
     0
102
RTVSPost2010PropOp55
 70
     0
102
RTVSPost2010Prop56
140
1.0
102
RTVSPost2010PropOp56
 70
     0
102
RTVSPost2010Prop57
140
1.0
102
RTVSPost2010PropOp57
 70
     0
102
RTVSPropertyOp0
 70
     0
102
RTVSPropertyOp1
 70
     0
102
RTVSPropertyOp2
 70
     0
102
RTVSPropertyOp3
 70
     0
102
RTVSPropertyOp4
 70
     0
102
RTVSPropertyOp5
 70
     0
102
RTVSPropertyOp6
 70
     0
102
RTVSPropertyOp7
 70
     0
102
RTVSPropertyOp8
 70
     0
102
RTVSPropertyOp9
 70
     0
102
RTVSPropertyOp10
 70
     0
102
RTVSPropertyOp11
 70
     0
102
RTVSPropertyOp12
 70
     0
102
RTVSPropertyOp13
 70
     0
102
RTVSPropertyOp14
 70
     2
102
RTVSPropertyOp15
 70
     0
102
RTVSPropertyOp16
 70
     0
102
RTVSPropertyOp17
 70
     0
102
RTVSPropertyOp18
 70
     0
102
RTVSPropertyOp19
 70
     0
102
RTVSPropertyOp20
 70
     0
102
RTVSPropertyOp21
 70
     0
102
RTVSPropertyOp22
 70
     0
102
RTVSPropertyOp23
 70
     0
102
RTVSPropertyOp24
 70
     0
102
RTVSPropertyOp25
 70
     0
102
RTVSPropertyOp26
 70
     0
102
RTVSPropertyOp27
 70
     0
102
RTVSPropertyOp28
 70
     0
102
RTVSPropertyOp29
 70
     0
102
RTVSPropertyOp30
 70
     0
102
RTVSPropertyOp31
 70
     0
102
RTVSPropertyOp32
 70
     0
102
RTVSPropertyOp33
 70
     0
102
RTVSPropertyOp34
 70
     0
102
RTVSPropertyOp35
 70
     0
102
RTVSPropertyOp36
 70
     0
102
RTVSPropertyOp37
 70
     0
102
RTVSPropertyOp38
 70
     0
102
RTVSPropertyOp39
 70
     0
102
RTVSPropertyOp40
 70
     0
102
RTVSPropertyOp41
 70
     0
102
RTVSPropertyOp42
 70
     0
102
RTVSPropertyOp43
 70
     0
102
RTVSPropertyOp44
 70
     0
102
RTVSPropertyOp45
 70
     0
102
RTVSPropertyOp46
 70
     0
102
RTVSPropertyOp47
 70
     0
102
RTVSPropertyOp48
 70
     0
102
RTVSPropertyOp49
 70
     0
102
RTVSPropertyOp50
 70
     0
102
RTVSPropertyOp51
 70
     0
102
RTVSPropertyOp52
 70
     0
102
RTVSPropertyOp53
 70
     0
102
RTVSPropertyOp54
 70
     0
102
RTVSPropertyOp55
 70
     0
102
RTVSPropertyOp56
 70
     0
102
RTVSPropertyOp57
 70
     0
102
RTVSPropertyOp58
 70
     1
102
RTVSPropertyOp59
 70
     1
102
RTVSPropertyOp60
 70
     1
102
RTVSPropertyOp61
 70
     1
102
RTVSPropertyOp62
 70
     1
  0
XRECORD
  5
37C
102
{ACAD_REACTORS
330
37B
102
}
330
37B
100
AcDbXrecord
280
     1
102
RTVSPost2010Prop28
280
     0
102
RTVSPost2010PropOp28
 70
     1
102
RTVSPost2010Prop29
280
     1
102
RTVSPost2010PropOp29
 70
     1
102
RTVSPost2010Prop30
280
     1
102
RTVSPost2010PropOp30
 70
     1
102
RTVSPost2010Prop31
280
     0
102
RTVSPost2010PropOp31
 70
     1
102
RTVSPost2010Prop32
280
     0
102
RTVSPost2010PropOp32
 70
     1
102
RTVSPost2010Prop33
280
     0
102
RTVSPost2010PropOp33
 70
     1
102
RTVSPost2010Prop34
280
     0
102
RTVSPost2010PropOp34
 70
     1
102
RTVSPost2010Prop35
280
     0
102
RTVSPost2010PropOp35
 70
     1
102
RTVSPost2010Prop36
280
     0
102
RTVSPost2010PropOp36
 70
     1
102
RTVSPost2010Prop37
 90
       50
102
RTVSPost2010PropOp37
 70
     1
102
RTVSPost2010Prop38
140
0.0
102
RTVSPost2010PropOp38
 70
     1
102
RTVSPost2010Prop39
140
1.0
102
RTVSPost2010PropOp39
 70
     1
102
RTVSPost2010Prop40
 90
        0
102
RTVSPost2010PropOp40
 70
     1
102
RTVSPost2010Prop41ColorIndex
 90
       18
102
RTVSPost2010Prop41ColorRGB
 90
        0
102
RTVSPost2010PropOp41
 70
     1
102
RTVSPost2010Prop42
 90
       50
102
RTVSPost2010PropOp42
 70
     1
102
RTVSPost2010Prop43
 90
        3
102
RTVSPost2010PropOp43
 70
     1
102
RTVSPost2010Prop44ColorIndex
 90
        5
102
RTVSPost2010Prop44ColorRGB
 90
      255
102
RTVSPost2010PropOp44
 70
     1
102
RTVSPost2010Prop45
280
     0
102
RTVSPost2010PropOp45
 70
     1
102
RTVSPost2010Prop46
 90
       50
102
RTVSPost2010PropOp46
 70
     1
102
RTVSPost2010Prop47
 90
       50
102
RTVSPost2010PropOp47
 70
     1
102
RTVSPost2010Prop48
 90
       50
102
RTVSPost2010PropOp48
 70
     1
102
RTVSPost2010Prop49
280
     0
102
RTVSPost2010PropOp49
 70
     1
102
RTVSPost2010Prop50
 90
       50
102
RTVSPost2010PropOp50
 70
     1
102
RTVSPost2010Prop51ColorIndex
 90
      256
102
RTVSPost2010Prop51ColorRGB
 90
-16777216
102
RTVSPost2010PropOp51
 70
     0
102
RTVSPost2010Prop52
140
1.0
102
RTVSPost2010PropOp52
 70
     0
102
RTVSPost2010Prop53
 90
        2
102
RTVSPost2010PropOp53
 70
     1
102
RTVSPost2010Prop54
  1
strokes_ogs.tif
102
RTVSPost2010PropOp54
 70
     1
102
RTVSPost2010Prop55
280
     0
102
RTVSPost2010PropOp55
 70
     1
102
RTVSPost2010Prop56
140
1.0
102
RTVSPost2010PropOp56
 70
     1
102
RTVSPost2010Prop57
140
1.0
102
RTVSPost2010PropOp57
 70
     1
102
RTVSPropertyOp0
 70
     1
102
RTVSPropertyOp1
 70
     1
102
RTVSPropertyOp2
 70
     1
102
RTVSPropertyOp3
 70
     1
102
RTVSPropertyOp4
 70
     1
102
RTVSPropertyOp5
 70
     1
102
RTVSPropertyOp6
 70
     1
102
RTVSPropertyOp7
 70
     1
102
RTVSPropertyOp8
 70
     1
102
RTVSPropertyOp9
 70
     1
102
RTVSPropertyOp10
 70
     1
102
RTVSPropertyOp11
 70
     1
102
RTVSPropertyOp12
 70
     1
102
RTVSPropertyOp13
 70
     1
102
RTVSPropertyOp14
 70
     1
102
RTVSPropertyOp15
 70
     1
102
RTVSPropertyOp16
 70
     1
102
RTVSPropertyOp17
 70
     1
102
RTVSPropertyOp18
 70
     1
102
RTVSPropertyOp19
 70
     1
102
RTVSPropertyOp20
 70
     1
102
RTVSPropertyOp21
 70
     1
102
RTVSPropertyOp22
 70
     1
102
RTVSPropertyOp23
 70
     1
102
RTVSPropertyOp24
 70
     1
102
RTVSPropertyOp25
 70
     1
102
RTVSPropertyOp26
 70
     1
102
RTVSPropertyOp27
 70
     1
102
RTVSPropertyOp28
 70
     1
102
RTVSPropertyOp29
 70
     1
102
RTVSPropertyOp30
 70
     1
102
RTVSPropertyOp31
 70
     1
102
RTVSPropertyOp32
 70
     1
102
RTVSPropertyOp33
 70
     1
102
RTVSPropertyOp34
 70
     1
102
RTVSPropertyOp35
 70
     1
102
RTVSPropertyOp36
 70
     1
102
RTVSPropertyOp37
 70
     1
102
RTVSPropertyOp38
 70
     1
102
RTVSPropertyOp39
 70
     1
102
RTVSPropertyOp40
 70
     1
102
RTVSPropertyOp41
 70
     1
102
RTVSPropertyOp42
 70
     1
102
RTVSPropertyOp43
 70
     1
102
RTVSPropertyOp44
 70
     1
102
RTVSPropertyOp45
 70
     1
102
RTVSPropertyOp46
 70
     1
102
RTVSPropertyOp47
 70
     1
102
RTVSPropertyOp48
 70
     1
102
RTVSPropertyOp49
 70
     1
102
RTVSPropertyOp50
 70
     1
102
RTVSPropertyOp51
 70
     0
102
RTVSPropertyOp52
 70
     0
102
RTVSPropertyOp53
 70
     1
102
RTVSPropertyOp54
 70
     1
102
RTVSPropertyOp55
 70
     1
102
RTVSPropertyOp56
 70
     1
102
RTVSPropertyOp57
 70
     1
102
RTVSPropertyOp58
 70
     1
102
RTVSPropertyOp59
 70
     1
102
RTVSPropertyOp60
 70
     1
102
RTVSPropertyOp61
 70
     1
102
RTVSPropertyOp62
 70
     1
  0
XRECORD
  5
384
102
{ACAD_REACTORS
330
383
102
}
330
383
100
AcDbXrecord
280
     1
102
RTVSPost2010Prop28
280
     0
102
RTVSPost2010PropOp28
 70
     0
102
RTVSPost2010Prop29
280
     1
102
RTVSPost2010PropOp29
 70
     0
102
RTVSPost2010Prop30
280
     1
102
RTVSPost2010PropOp30
 70
     0
102
RTVSPost2010Prop31
280
     0
102
RTVSPost2010PropOp31
 70
     0
102
RTVSPost2010Prop32
280
     0
102
RTVSPost2010PropOp32
 70
     0
102
RTVSPost2010Prop33
280
     0
102
RTVSPost2010PropOp33
 70
     0
102
RTVSPost2010Prop34
280
     0
102
RTVSPost2010PropOp34
 70
     0
102
RTVSPost2010Prop35
280
     0
102
RTVSPost2010PropOp35
 70
     0
102
RTVSPost2010Prop36
280
     0
102
RTVSPost2010PropOp36
 70
     0
102
RTVSPost2010Prop37
 90
       50
102
RTVSPost2010PropOp37
 70
     0
102
RTVSPost2010Prop38
140
0.0
102
RTVSPost2010PropOp38
 70
     0
102
RTVSPost2010Prop39
140
1.0
102
RTVSPost2010PropOp39
 70
     0
102
RTVSPost2010Prop40
 90
        0
102
RTVSPost2010PropOp40
 70
     0
102
RTVSPost2010Prop41ColorIndex
 90
       18
102
RTVSPost2010Prop41ColorRGB
 90
        0
102
RTVSPost2010PropOp41
 70
     0
102
RTVSPost2010Prop42
 90
       50
102
RTVSPost2010PropOp42
 70
     0
102
RTVSPost2010Prop43
 90
        3
102
RTVSPost2010PropOp43
 70
     0
102
RTVSPost2010Prop44ColorIndex
 90
        5
102
RTVSPost2010Prop44ColorRGB
 90
      255
102
RTVSPost2010PropOp44
 70
     0
102
RTVSPost2010Prop45
280
     0
102
RTVSPost2010PropOp45
 70
     0
102
RTVSPost2010Prop46
 90
       50
102
RTVSPost2010PropOp46
 70
     0
102
RTVSPost2010Prop47
 90
       50
102
RTVSPost2010PropOp47
 70
     0
102
RTVSPost2010Prop48
 90
       50
102
RTVSPost2010PropOp48
 70
     0
102
RTVSPost2010Prop49
280
     0
102
RTVSPost2010PropOp49
 70
     0
102
RTVSPost2010Prop50
 90
       50
102
RTVSPost2010PropOp50
 70
     0
102
RTVSPost2010Prop51ColorIndex
 90
      256
102
RTVSPost2010Prop51ColorRGB
 90
-16777216
102
RTVSPost2010PropOp51
 70
     0
102
RTVSPost2010Prop52
140
1.0
102
RTVSPost2010PropOp52
 70
     0
102
RTVSPost2010Prop53
 90
        2
102
RTVSPost2010PropOp53
 70
     0
102
RTVSPost2010Prop54
  1
strokes_ogs.tif
102
RTVSPost2010PropOp54
 70
     0
102
RTVSPost2010Prop55
280
     0
102
RTVSPost2010PropOp55
 70
     0
102
RTVSPost2010Prop56
140
1.0
102
RTVSPost2010PropOp56
 70
     0
102
RTVSPost2010Prop57
140
1.0
102
RTVSPost2010PropOp57
 70
     0
102
RTVSPropertyOp0
 70
     0
102
RTVSPropertyOp1
 70
     0
102
RTVSPropertyOp2
 70
     0
102
RTVSPropertyOp3
 70
     0
102
RTVSPropertyOp4
 70
     0
102
RTVSPropertyOp5
 70
     0
102
RTVSPropertyOp6
 70
     0
102
RTVSPropertyOp7
 70
     0
102
RTVSPropertyOp8
 70
     0
102
RTVSPropertyOp9
 70
     0
102
RTVSPropertyOp10
 70
     0
102
RTVSPropertyOp11
 70
     0
102
RTVSPropertyOp12
 70
     0
102
RTVSPropertyOp13
 70
     0
102
RTVSPropertyOp14
 70
     2
102
RTVSPropertyOp15
 70
     0
102
RTVSPropertyOp16
 70
     0
102
RTVSPropertyOp17
 70
     0
102
RTVSPropertyOp18
 70
     0
102
RTVSPropertyOp19
 70
     0
102
RTVSPropertyOp20
 70
     0
102
RTVSPropertyOp21
 70
     0
102
RTVSPropertyOp22
 70
     0
102
RTVSPropertyOp23
 70
     0
102
RTVSPropertyOp24
 70
     0
102
RTVSPropertyOp25
 70
     0
102
RTVSPropertyOp26
 70
     0
102
RTVSPropertyOp27
 70
     0
102
RTVSPropertyOp28
 70
     0
102
RTVSPropertyOp29
 70
     0
102
RTVSPropertyOp30
 70
     0
102
RTVSPropertyOp31
 70
     0
102
RTVSPropertyOp32
 70
     0
102
RTVSPropertyOp33
 70
     0
102
RTVSPropertyOp34
 70
     0
102
RTVSPropertyOp35
 70
     0
102
RTVSPropertyOp36
 70
     0
102
RTVSPropertyOp37
 70
     0
102
RTVSPropertyOp38
 70
     0
102
RTVSPropertyOp39
 70
     0
102
RTVSPropertyOp40
 70
     0
102
RTVSPropertyOp41
 70
     0
102
RTVSPropertyOp42
 70
     0
102
RTVSPropertyOp43
 70
     0
102
RTVSPropertyOp44
 70
     0
102
RTVSPropertyOp45
 70
     0
102
RTVSPropertyOp46
 70
     0
102
RTVSPropertyOp47
 70
     0
102
RTVSPropertyOp48
 70
     0
102
RTVSPropertyOp49
 70
     0
102
RTVSPropertyOp50
 70
     0
102
RTVSPropertyOp51
 70
     0
102
RTVSPropertyOp52
 70
     0
102
RTVSPropertyOp53
 70
     0
102
RTVSPropertyOp54
 70
     0
102
RTVSPropertyOp55
 70
     0
102
RTVSPropertyOp56
 70
     0
102
RTVSPropertyOp57
 70
     0
102
RTVSPropertyOp58
 70
     1
102
RTVSPropertyOp59
 70
     1
102
RTVSPropertyOp60
 70
     1
102
RTVSPropertyOp61
 70
     1
102
RTVSPropertyOp62
 70
     1
  0
XRECORD
  5
372
102
{ACAD_REACTORS
330
371
102
}
330
371
100
AcDbXrecord
280
     1
102
RTVSPost2010Prop28
280
     0
102
RTVSPost2010PropOp28
 70
     1
102
RTVSPost2010Prop29
280
     1
102
RTVSPost2010PropOp29
 70
     1
102
RTVSPost2010Prop30
280
     1
102
RTVSPost2010PropOp30
 70
     1
102
RTVSPost2010Prop31
280
     0
102
RTVSPost2010PropOp31
 70
     1
102
RTVSPost2010Prop32
280
     0
102
RTVSPost2010PropOp32
 70
     1
102
RTVSPost2010Prop33
280
     0
102
RTVSPost2010PropOp33
 70
     1
102
RTVSPost2010Prop34
280
     0
102
RTVSPost2010PropOp34
 70
     1
102
RTVSPost2010Prop35
280
     0
102
RTVSPost2010PropOp35
 70
     1
102
RTVSPost2010Prop36
280
     0
102
RTVSPost2010PropOp36
 70
     1
102
RTVSPost2010Prop37
 90
       50
102
RTVSPost2010PropOp37
 70
     1
102
RTVSPost2010Prop38
140
0.0
102
RTVSPost2010PropOp38
 70
     1
102
RTVSPost2010Prop39
140
1.0
102
RTVSPost2010PropOp39
 70
     1
102
RTVSPost2010Prop40
 90
        0
102
RTVSPost2010PropOp40
 70
     1
102
RTVSPost2010Prop41ColorIndex
 90
       18
102
RTVSPost2010Prop41ColorRGB
 90
        0
102
RTVSPost2010PropOp41
 70
     1
102
RTVSPost2010Prop42
 90
       50
102
RTVSPost2010PropOp42
 70
     1
102
RTVSPost2010Prop43
 90
        3
102
RTVSPost2010PropOp43
 70
     1
102
RTVSPost2010Prop44ColorIndex
 90
        5
102
RTVSPost2010Prop44ColorRGB
 90
      255
102
RTVSPost2010PropOp44
 70
     1
102
RTVSPost2010Prop45
280
     0
102
RTVSPost2010PropOp45
 70
     1
102
RTVSPost2010Prop46
 90
       50
102
RTVSPost2010PropOp46
 70
     1
102
RTVSPost2010Prop47
 90
       50
102
RTVSPost2010PropOp47
 70
     1
102
RTVSPost2010Prop48
 90
       50
102
RTVSPost2010PropOp48
 70
     1
102
RTVSPost2010Prop49
280
     0
102
RTVSPost2010PropOp49
 70
     1
102
RTVSPost2010Prop50
 90
       50
102
RTVSPost2010PropOp50
 70
     1
102
RTVSPost2010Prop51ColorIndex
 90
      256
102
RTVSPost2010Prop51ColorRGB
 90
-16777216
102
RTVSPost2010PropOp51
 70
     0
102
RTVSPost2010Prop52
140
1.0
102
RTVSPost2010PropOp52
 70
     0
102
RTVSPost2010Prop53
 90
        2
102
RTVSPost2010PropOp53
 70
     1
102
RTVSPost2010Prop54
  1
strokes_ogs.tif
102
RTVSPost2010PropOp54
 70
     1
102
RTVSPost2010Prop55
280
     0
102
RTVSPost2010PropOp55
 70
     1
102
RTVSPost2010Prop56
140
1.0
102
RTVSPost2010PropOp56
 70
     1
102
RTVSPost2010Prop57
140
1.0
102
RTVSPost2010PropOp57
 70
     1
102
RTVSPropertyOp0
 70
     1
102
RTVSPropertyOp1
 70
     1
102
RTVSPropertyOp2
 70
     1
102
RTVSPropertyOp3
 70
     1
102
RTVSPropertyOp4
 70
     1
102
RTVSPropertyOp5
 70
     1
102
RTVSPropertyOp6
 70
     1
102
RTVSPropertyOp7
 70
     1
102
RTVSPropertyOp8
 70
     1
102
RTVSPropertyOp9
 70
     1
102
RTVSPropertyOp10
 70
     1
102
RTVSPropertyOp11
 70
     1
102
RTVSPropertyOp12
 70
     1
102
RTVSPropertyOp13
 70
     1
102
RTVSPropertyOp14
 70
     1
102
RTVSPropertyOp15
 70
     1
102
RTVSPropertyOp16
 70
     1
102
RTVSPropertyOp17
 70
     1
102
RTVSPropertyOp18
 70
     1
102
RTVSPropertyOp19
 70
     1
102
RTVSPropertyOp20
 70
     1
102
RTVSPropertyOp21
 70
     1
102
RTVSPropertyOp22
 70
     1
102
RTVSPropertyOp23
 70
     1
102
RTVSPropertyOp24
 70
     1
102
RTVSPropertyOp25
 70
     1
102
RTVSPropertyOp26
 70
     1
102
RTVSPropertyOp27
 70
     1
102
RTVSPropertyOp28
 70
     1
102
RTVSPropertyOp29
 70
     1
102
RTVSPropertyOp30
 70
     1
102
RTVSPropertyOp31
 70
     1
102
RTVSPropertyOp32
 70
     1
102
RTVSPropertyOp33
 70
     1
102
RTVSPropertyOp34
 70
     1
102
RTVSPropertyOp35
 70
     1
102
RTVSPropertyOp36
 70
     1
102
RTVSPropertyOp37
 70
     1
102
RTVSPropertyOp38
 70
     1
102
RTVSPropertyOp39
 70
     1
102
RTVSPropertyOp40
 70
     1
102
RTVSPropertyOp41
 70
     1
102
RTVSPropertyOp42
 70
     1
102
RTVSPropertyOp43
 70
     1
102
RTVSPropertyOp44
 70
     1
102
RTVSPropertyOp45
 70
     1
102
RTVSPropertyOp46
 70
     1
102
RTVSPropertyOp47
 70
     1
102
RTVSPropertyOp48
 70
     1
102
RTVSPropertyOp49
 70
     1
102
RTVSPropertyOp50
 70
     1
102
RTVSPropertyOp51
 70
     0
102
RTVSPropertyOp52
 70
     0
102
RTVSPropertyOp53
 70
     1
102
RTVSPropertyOp54
 70
     1
102
RTVSPropertyOp55
 70
     1
102
RTVSPropertyOp56
 70
     1
102
RTVSPropertyOp57
 70
     1
102
RTVSPropertyOp58
 70
     1
102
RTVSPropertyOp59
 70
     1
102
RTVSPropertyOp60
 70
     1
102
RTVSPropertyOp61
 70
     1
102
RTVSPropertyOp62
 70
     1
  0
XRECORD
  5
390
102
{ACAD_REACTORS
330
38F
102
}
330
38F
100
AcDbXrecord
280
     1
102
RTVSPost2010Prop28
280
     0
102
RTVSPost2010PropOp28
 70
     1
102
RTVSPost2010Prop29
280
     1
102
RTVSPost2010PropOp29
 70
     1
102
RTVSPost2010Prop30
280
     1
102
RTVSPost2010PropOp30
 70
     1
102
RTVSPost2010Prop31
280
     0
102
RTVSPost2010PropOp31
 70
     1
102
RTVSPost2010Prop32
280
     0
102
RTVSPost2010PropOp32
 70
     1
102
RTVSPost2010Prop33
280
     0
102
RTVSPost2010PropOp33
 70
     1
102
RTVSPost2010Prop34
280
     0
102
RTVSPost2010PropOp34
 70
     1
102
RTVSPost2010Prop35
280
     0
102
RTVSPost2010PropOp35
 70
     1
102
RTVSPost2010Prop36
280
     0
102
RTVSPost2010PropOp36
 70
     1
102
RTVSPost2010Prop37
 90
       50
102
RTVSPost2010PropOp37
 70
     1
102
RTVSPost2010Prop38
140
0.0
102
RTVSPost2010PropOp38
 70
     1
102
RTVSPost2010Prop39
140
1.0
102
RTVSPost2010PropOp39
 70
     1
102
RTVSPost2010Prop40
 90
        0
102
RTVSPost2010PropOp40
 70
     1
102
RTVSPost2010Prop41ColorIndex
 90
       18
102
RTVSPost2010Prop41ColorRGB
 90
        0
102
RTVSPost2010PropOp41
 70
     1
102
RTVSPost2010Prop42
 90
       50
102
RTVSPost2010PropOp42
 70
     1
102
RTVSPost2010Prop43
 90
        3
102
RTVSPost2010PropOp43
 70
     1
102
RTVSPost2010Prop44ColorIndex
 90
        5
102
RTVSPost2010Prop44ColorRGB
 90
      255
102
RTVSPost2010PropOp44
 70
     1
102
RTVSPost2010Prop45
280
     0
102
RTVSPost2010PropOp45
 70
     1
102
RTVSPost2010Prop46
 90
       50
102
RTVSPost2010PropOp46
 70
     1
102
RTVSPost2010Prop47
 90
       50
102
RTVSPost2010PropOp47
 70
     1
102
RTVSPost2010Prop48
 90
       50
102
RTVSPost2010PropOp48
 70
     1
102
RTVSPost2010Prop49
280
     0
102
RTVSPost2010PropOp49
 70
     1
102
RTVSPost2010Prop50
 90
       50
102
RTVSPost2010PropOp50
 70
     1
102
RTVSPost2010Prop51ColorIndex
 90
      256
102
RTVSPost2010Prop51ColorRGB
 90
-16777216
102
RTVSPost2010PropOp51
 70
     0
102
RTVSPost2010Prop52
140
1.0
102
RTVSPost2010PropOp52
 70
     0
102
RTVSPost2010Prop53
 90
        2
102
RTVSPost2010PropOp53
 70
     1
102
RTVSPost2010Prop54
  1
strokes_ogs.tif
102
RTVSPost2010PropOp54
 70
     1
102
RTVSPost2010Prop55
280
     0
102
RTVSPost2010PropOp55
 70
     1
102
RTVSPost2010Prop56
140
1.0
102
RTVSPost2010PropOp56
 70
     1
102
RTVSPost2010Prop57
140
1.0
102
RTVSPost2010PropOp57
 70
     1
102
RTVSPropertyOp0
 70
     1
102
RTVSPropertyOp1
 70
     1
102
RTVSPropertyOp2
 70
     1
102
RTVSPropertyOp3
 70
     1
102
RTVSPropertyOp4
 70
     1
102
RTVSPropertyOp5
 70
     1
102
RTVSPropertyOp6
 70
     1
102
RTVSPropertyOp7
 70
     1
102
RTVSPropertyOp8
 70
     1
102
RTVSPropertyOp9
 70
     1
102
RTVSPropertyOp10
 70
     1
102
RTVSPropertyOp11
 70
     1
102
RTVSPropertyOp12
 70
     1
102
RTVSPropertyOp13
 70
     1
102
RTVSPropertyOp14
 70
     1
102
RTVSPropertyOp15
 70
     1
102
RTVSPropertyOp16
 70
     1
102
RTVSPropertyOp17
 70
     1
102
RTVSPropertyOp18
 70
     1
102
RTVSPropertyOp19
 70
     1
102
RTVSPropertyOp20
 70
     1
102
RTVSPropertyOp21
 70
     1
102
RTVSPropertyOp22
 70
     1
102
RTVSPropertyOp23
 70
     1
102
RTVSPropertyOp24
 70
     1
102
RTVSPropertyOp25
 70
     1
102
RTVSPropertyOp26
 70
     1
102
RTVSPropertyOp27
 70
     1
102
RTVSPropertyOp28
 70
     1
102
RTVSPropertyOp29
 70
     1
102
RTVSPropertyOp30
 70
     1
102
RTVSPropertyOp31
 70
     1
102
RTVSPropertyOp32
 70
     1
102
RTVSPropertyOp33
 70
     1
102
RTVSPropertyOp34
 70
     1
102
RTVSPropertyOp35
 70
     1
102
RTVSPropertyOp36
 70
     1
102
RTVSPropertyOp37
 70
     1
102
RTVSPropertyOp38
 70
     1
102
RTVSPropertyOp39
 70
     1
102
RTVSPropertyOp40
 70
     1
102
RTVSPropertyOp41
 70
     1
102
RTVSPropertyOp42
 70
     1
102
RTVSPropertyOp43
 70
     1
102
RTVSPropertyOp44
 70
     1
102
RTVSPropertyOp45
 70
     1
102
RTVSPropertyOp46
 70
     1
102
RTVSPropertyOp47
 70
     1
102
RTVSPropertyOp48
 70
     1
102
RTVSPropertyOp49
 70
     1
102
RTVSPropertyOp50
 70
     1
102
RTVSPropertyOp51
 70
     0
102
RTVSPropertyOp52
 70
     0
102
RTVSPropertyOp53
 70
     1
102
RTVSPropertyOp54
 70
     1
102
RTVSPropertyOp55
 70
     1
102
RTVSPropertyOp56
 70
     1
102
RTVSPropertyOp57
 70
     1
102
RTVSPropertyOp58
 70
     1
102
RTVSPropertyOp59
 70
     1
102
RTVSPropertyOp60
 70
     1
102
RTVSPropertyOp61
 70
     1
102
RTVSPropertyOp62
 70
     1
  0
XRECORD
  5
38E
102
{ACAD_REACTORS
330
38D
102
}
330
38D
100
AcDbXrecord
280
     1
102
RTVSPost2010Prop28
280
     0
102
RTVSPost2010PropOp28
 70
     1
102
RTVSPost2010Prop29
280
     1
102
RTVSPost2010PropOp29
 70
     1
102
RTVSPost2010Prop30
280
     1
102
RTVSPost2010PropOp30
 70
     1
102
RTVSPost2010Prop31
280
     0
102
RTVSPost2010PropOp31
 70
     1
102
RTVSPost2010Prop32
280
     0
102
RTVSPost2010PropOp32
 70
     1
102
RTVSPost2010Prop33
280
     0
102
RTVSPost2010PropOp33
 70
     1
102
RTVSPost2010Prop34
280
     0
102
RTVSPost2010PropOp34
 70
     1
102
RTVSPost2010Prop35
280
     0
102
RTVSPost2010PropOp35
 70
     1
102
RTVSPost2010Prop36
280
     0
102
RTVSPost2010PropOp36
 70
     1
102
RTVSPost2010Prop37
 90
       50
102
RTVSPost2010PropOp37
 70
     1
102
RTVSPost2010Prop38
140
0.0
102
RTVSPost2010PropOp38
 70
     1
102
RTVSPost2010Prop39
140
1.0
102
RTVSPost2010PropOp39
 70
     1
102
RTVSPost2010Prop40
 90
        0
102
RTVSPost2010PropOp40
 70
     1
102
RTVSPost2010Prop41ColorIndex
 90
       18
102
RTVSPost2010Prop41ColorRGB
 90
        0
102
RTVSPost2010PropOp41
 70
     1
102
RTVSPost2010Prop42
 90
       50
102
RTVSPost2010PropOp42
 70
     1
102
RTVSPost2010Prop43
 90
        3
102
RTVSPost2010PropOp43
 70
     1
102
RTVSPost2010Prop44ColorIndex
 90
        5
102
RTVSPost2010Prop44ColorRGB
 90
      255
102
RTVSPost2010PropOp44
 70
     1
102
RTVSPost2010Prop45
280
     0
102
RTVSPost2010PropOp45
 70
     1
102
RTVSPost2010Prop46
 90
       50
102
RTVSPost2010PropOp46
 70
     1
102
RTVSPost2010Prop47
 90
       50
102
RTVSPost2010PropOp47
 70
     1
102
RTVSPost2010Prop48
 90
       50
102
RTVSPost2010PropOp48
 70
     1
102
RTVSPost2010Prop49
280
     0
102
RTVSPost2010PropOp49
 70
     1
102
RTVSPost2010Prop50
 90
       50
102
RTVSPost2010PropOp50
 70
     1
102
RTVSPost2010Prop51ColorIndex
 90
      256
102
RTVSPost2010Prop51ColorRGB
 90
-16777216
102
RTVSPost2010PropOp51
 70
     0
102
RTVSPost2010Prop52
140
1.0
102
RTVSPost2010PropOp52
 70
     0
102
RTVSPost2010Prop53
 90
        2
102
RTVSPost2010PropOp53
 70
     1
102
RTVSPost2010Prop54
  1
strokes_ogs.tif
102
RTVSPost2010PropOp54
 70
     1
102
RTVSPost2010Prop55
280
     0
102
RTVSPost2010PropOp55
 70
     1
102
RTVSPost2010Prop56
140
1.0
102
RTVSPost2010PropOp56
 70
     1
102
RTVSPost2010Prop57
140
1.0
102
RTVSPost2010PropOp57
 70
     1
102
RTVSPropertyOp0
 70
     1
102
RTVSPropertyOp1
 70
     1
102
RTVSPropertyOp2
 70
     1
102
RTVSPropertyOp3
 70
     1
102
RTVSPropertyOp4
 70
     1
102
RTVSPropertyOp5
 70
     1
102
RTVSPropertyOp6
 70
     1
102
RTVSPropertyOp7
 70
     1
102
RTVSPropertyOp8
 70
     1
102
RTVSPropertyOp9
 70
     1
102
RTVSPropertyOp10
 70
     1
102
RTVSPropertyOp11
 70
     1
102
RTVSPropertyOp12
 70
     1
102
RTVSPropertyOp13
 70
     1
102
RTVSPropertyOp14
 70
     1
102
RTVSPropertyOp15
 70
     1
102
RTVSPropertyOp16
 70
     1
102
RTVSPropertyOp17
 70
     1
102
RTVSPropertyOp18
 70
     1
102
RTVSPropertyOp19
 70
     1
102
RTVSPropertyOp20
 70
     1
102
RTVSPropertyOp21
 70
     1
102
RTVSPropertyOp22
 70
     1
102
RTVSPropertyOp23
 70
     1
102
RTVSPropertyOp24
 70
     1
102
RTVSPropertyOp25
 70
     1
102
RTVSPropertyOp26
 70
     1
102
RTVSPropertyOp27
 70
     1
102
RTVSPropertyOp28
 70
     1
102
RTVSPropertyOp29
 70
     1
102
RTVSPropertyOp30
 70
     1
102
RTVSPropertyOp31
 70
     1
102
RTVSPropertyOp32
 70
     1
102
RTVSPropertyOp33
 70
     1
102
RTVSPropertyOp34
 70
     1
102
RTVSPropertyOp35
 70
     1
102
RTVSPropertyOp36
 70
     1
102
RTVSPropertyOp37
 70
     1
102
RTVSPropertyOp38
 70
     1
102
RTVSPropertyOp39
 70
     1
102
RTVSPropertyOp40
 70
     1
102
RTVSPropertyOp41
 70
     1
102
RTVSPropertyOp42
 70
     1
102
RTVSPropertyOp43
 70
     1
102
RTVSPropertyOp44
 70
     1
102
RTVSPropertyOp45
 70
     1
102
RTVSPropertyOp46
 70
     1
102
RTVSPropertyOp47
 70
     1
102
RTVSPropertyOp48
 70
     1
102
RTVSPropertyOp49
 70
     1
102
RTVSPropertyOp50
 70
     1
102
RTVSPropertyOp51
 70
     0
102
RTVSPropertyOp52
 70
     0
102
RTVSPropertyOp53
 70
     1
102
RTVSPropertyOp54
 70
     1
102
RTVSPropertyOp55
 70
     1
102
RTVSPropertyOp56
 70
     1
102
RTVSPropertyOp57
 70
     1
102
RTVSPropertyOp58
 70
     1
102
RTVSPropertyOp59
 70
     1
102
RTVSPropertyOp60
 70
     1
102
RTVSPropertyOp61
 70
     1
102
RTVSPropertyOp62
 70
     1
  0
XRECORD
  5
388
102
{ACAD_REACTORS
330
387
102
}
330
387
100
AcDbXrecord
280
     1
102
RTVSPost2010Prop28
280
     0
102
RTVSPost2010PropOp28
 70
     1
102
RTVSPost2010Prop29
280
     1
102
RTVSPost2010PropOp29
 70
     1
102
RTVSPost2010Prop30
280
     1
102
RTVSPost2010PropOp30
 70
     1
102
RTVSPost2010Prop31
280
     0
102
RTVSPost2010PropOp31
 70
     1
102
RTVSPost2010Prop32
280
     0
102
RTVSPost2010PropOp32
 70
     1
102
RTVSPost2010Prop33
280
     0
102
RTVSPost2010PropOp33
 70
     1
102
RTVSPost2010Prop34
280
     0
102
RTVSPost2010PropOp34
 70
     1
102
RTVSPost2010Prop35
280
     0
102
RTVSPost2010PropOp35
 70
     1
102
RTVSPost2010Prop36
280
     0
102
RTVSPost2010PropOp36
 70
     1
102
RTVSPost2010Prop37
 90
       50
102
RTVSPost2010PropOp37
 70
     1
102
RTVSPost2010Prop38
140
0.0
102
RTVSPost2010PropOp38
 70
     1
102
RTVSPost2010Prop39
140
1.0
102
RTVSPost2010PropOp39
 70
     1
102
RTVSPost2010Prop40
 90
        0
102
RTVSPost2010PropOp40
 70
     1
102
RTVSPost2010Prop41ColorIndex
 90
       18
102
RTVSPost2010Prop41ColorRGB
 90
        0
102
RTVSPost2010PropOp41
 70
     1
102
RTVSPost2010Prop42
 90
       50
102
RTVSPost2010PropOp42
 70
     1
102
RTVSPost2010Prop43
 90
        3
102
RTVSPost2010PropOp43
 70
     1
102
RTVSPost2010Prop44ColorIndex
 90
        5
102
RTVSPost2010Prop44ColorRGB
 90
      255
102
RTVSPost2010PropOp44
 70
     1
102
RTVSPost2010Prop45
280
     0
102
RTVSPost2010PropOp45
 70
     1
102
RTVSPost2010Prop46
 90
       50
102
RTVSPost2010PropOp46
 70
     1
102
RTVSPost2010Prop47
 90
       50
102
RTVSPost2010PropOp47
 70
     1
102
RTVSPost2010Prop48
 90
       50
102
RTVSPost2010PropOp48
 70
     1
102
RTVSPost2010Prop49
280
     0
102
RTVSPost2010PropOp49
 70
     1
102
RTVSPost2010Prop50
 90
       50
102
RTVSPost2010PropOp50
 70
     1
102
RTVSPost2010Prop51ColorIndex
 90
      256
102
RTVSPost2010Prop51ColorRGB
 90
-16777216
102
RTVSPost2010PropOp51
 70
     0
102
RTVSPost2010Prop52
140
1.0
102
RTVSPost2010PropOp52
 70
     0
102
RTVSPost2010Prop53
 90
        2
102
RTVSPost2010PropOp53
 70
     1
102
RTVSPost2010Prop54
  1
strokes_ogs.tif
102
RTVSPost2010PropOp54
 70
     1
102
RTVSPost2010Prop55
280
     0
102
RTVSPost2010PropOp55
 70
     1
102
RTVSPost2010Prop56
140
1.0
102
RTVSPost2010PropOp56
 70
     1
102
RTVSPost2010Prop57
140
1.0
102
RTVSPost2010PropOp57
 70
     1
102
RTVSPropertyOp0
 70
     1
102
RTVSPropertyOp1
 70
     1
102
RTVSPropertyOp2
 70
     1
102
RTVSPropertyOp3
 70
     1
102
RTVSPropertyOp4
 70
     1
102
RTVSPropertyOp5
 70
     1
102
RTVSPropertyOp6
 70
     1
102
RTVSPropertyOp7
 70
     1
102
RTVSPropertyOp8
 70
     1
102
RTVSPropertyOp9
 70
     1
102
RTVSPropertyOp10
 70
     1
102
RTVSPropertyOp11
 70
     1
102
RTVSPropertyOp12
 70
     1
102
RTVSPropertyOp13
 70
     1
102
RTVSPropertyOp14
 70
     1
102
RTVSPropertyOp15
 70
     1
102
RTVSPropertyOp16
 70
     1
102
RTVSPropertyOp17
 70
     1
102
RTVSPropertyOp18
 70
     1
102
RTVSPropertyOp19
 70
     1
102
RTVSPropertyOp20
 70
     1
102
RTVSPropertyOp21
 70
     1
102
RTVSPropertyOp22
 70
     1
102
RTVSPropertyOp23
 70
     1
102
RTVSPropertyOp24
 70
     1
102
RTVSPropertyOp25
 70
     1
102
RTVSPropertyOp26
 70
     1
102
RTVSPropertyOp27
 70
     1
102
RTVSPropertyOp28
 70
     1
102
RTVSPropertyOp29
 70
     1
102
RTVSPropertyOp30
 70
     1
102
RTVSPropertyOp31
 70
     1
102
RTVSPropertyOp32
 70
     1
102
RTVSPropertyOp33
 70
     1
102
RTVSPropertyOp34
 70
     1
102
RTVSPropertyOp35
 70
     1
102
RTVSPropertyOp36
 70
     1
102
RTVSPropertyOp37
 70
     1
102
RTVSPropertyOp38
 70
     1
102
RTVSPropertyOp39
 70
     1
102
RTVSPropertyOp40
 70
     1
102
RTVSPropertyOp41
 70
     1
102
RTVSPropertyOp42
 70
     1
102
RTVSPropertyOp43
 70
     1
102
RTVSPropertyOp44
 70
     1
102
RTVSPropertyOp45
 70
     1
102
RTVSPropertyOp46
 70
     1
102
RTVSPropertyOp47
 70
     1
102
RTVSPropertyOp48
 70
     1
102
RTVSPropertyOp49
 70
     1
102
RTVSPropertyOp50
 70
     1
102
RTVSPropertyOp51
 70
     0
102
RTVSPropertyOp52
 70
     0
102
RTVSPropertyOp53
 70
     1
102
RTVSPropertyOp54
 70
     1
102
RTVSPropertyOp55
 70
     1
102
RTVSPropertyOp56
 70
     1
102
RTVSPropertyOp57
 70
     1
102
RTVSPropertyOp58
 70
     1
102
RTVSPropertyOp59
 70
     1
102
RTVSPropertyOp60
 70
     1
102
RTVSPropertyOp61
 70
     1
102
RTVSPropertyOp62
 70
     1
  0
XRECORD
  5
38A
102
{ACAD_REACTORS
330
389
102
}
330
389
100
AcDbXrecord
280
     1
102
RTVSPost2010Prop28
280
     0
102
RTVSPost2010PropOp28
 70
     1
102
RTVSPost2010Prop29
280
     1
102
RTVSPost2010PropOp29
 70
     1
102
RTVSPost2010Prop30
280
     1
102
RTVSPost2010PropOp30
 70
     1
102
RTVSPost2010Prop31
280
     0
102
RTVSPost2010PropOp31
 70
     1
102
RTVSPost2010Prop32
280
     0
102
RTVSPost2010PropOp32
 70
     1
102
RTVSPost2010Prop33
280
     0
102
RTVSPost2010PropOp33
 70
     1
102
RTVSPost2010Prop34
280
     0
102
RTVSPost2010PropOp34
 70
     1
102
RTVSPost2010Prop35
280
     0
102
RTVSPost2010PropOp35
 70
     1
102
RTVSPost2010Prop36
280
     0
102
RTVSPost2010PropOp36
 70
     1
102
RTVSPost2010Prop37
 90
       50
102
RTVSPost2010PropOp37
 70
     1
102
RTVSPost2010Prop38
140
0.0
102
RTVSPost2010PropOp38
 70
     1
102
RTVSPost2010Prop39
140
1.0
102
RTVSPost2010PropOp39
 70
     1
102
RTVSPost2010Prop40
 90
        0
102
RTVSPost2010PropOp40
 70
     1
102
RTVSPost2010Prop41ColorIndex
 90
       18
102
RTVSPost2010Prop41ColorRGB
 90
        0
102
RTVSPost2010PropOp41
 70
     1
102
RTVSPost2010Prop42
 90
       50
102
RTVSPost2010PropOp42
 70
     1
102
RTVSPost2010Prop43
 90
        3
102
RTVSPost2010PropOp43
 70
     1
102
RTVSPost2010Prop44ColorIndex
 90
        5
102
RTVSPost2010Prop44ColorRGB
 90
      255
102
RTVSPost2010PropOp44
 70
     1
102
RTVSPost2010Prop45
280
     0
102
RTVSPost2010PropOp45
 70
     1
102
RTVSPost2010Prop46
 90
       50
102
RTVSPost2010PropOp46
 70
     1
102
RTVSPost2010Prop47
 90
       50
102
RTVSPost2010PropOp47
 70
     1
102
RTVSPost2010Prop48
 90
       50
102
RTVSPost2010PropOp48
 70
     1
102
RTVSPost2010Prop49
280
     0
102
RTVSPost2010PropOp49
 70
     1
102
RTVSPost2010Prop50
 90
       50
102
RTVSPost2010PropOp50
 70
     1
102
RTVSPost2010Prop51ColorIndex
 90
      256
102
RTVSPost2010Prop51ColorRGB
 90
-16777216
102
RTVSPost2010PropOp51
 70
     0
102
RTVSPost2010Prop52
140
1.0
102
RTVSPost2010PropOp52
 70
     0
102
RTVSPost2010Prop53
 90
        2
102
RTVSPost2010PropOp53
 70
     1
102
RTVSPost2010Prop54
  1
strokes_ogs.tif
102
RTVSPost2010PropOp54
 70
     1
102
RTVSPost2010Prop55
280
     0
102
RTVSPost2010PropOp55
 70
     1
102
RTVSPost2010Prop56
140
1.0
102
RTVSPost2010PropOp56
 70
     1
102
RTVSPost2010Prop57
140
1.0
102
RTVSPost2010PropOp57
 70
     1
102
RTVSPropertyOp0
 70
     1
102
RTVSPropertyOp1
 70
     1
102
RTVSPropertyOp2
 70
     1
102
RTVSPropertyOp3
 70
     1
102
RTVSPropertyOp4
 70
     1
102
RTVSPropertyOp5
 70
     1
102
RTVSPropertyOp6
 70
     1
102
RTVSPropertyOp7
 70
     1
102
RTVSPropertyOp8
 70
     1
102
RTVSPropertyOp9
 70
     1
102
RTVSPropertyOp10
 70
     1
102
RTVSPropertyOp11
 70
     1
102
RTVSPropertyOp12
 70
     1
102
RTVSPropertyOp13
 70
     1
102
RTVSPropertyOp14
 70
     1
102
RTVSPropertyOp15
 70
     1
102
RTVSPropertyOp16
 70
     1
102
RTVSPropertyOp17
 70
     1
102
RTVSPropertyOp18
 70
     1
102
RTVSPropertyOp19
 70
     1
102
RTVSPropertyOp20
 70
     1
102
RTVSPropertyOp21
 70
     1
102
RTVSPropertyOp22
 70
     1
102
RTVSPropertyOp23
 70
     1
102
RTVSPropertyOp24
 70
     1
102
RTVSPropertyOp25
 70
     1
102
RTVSPropertyOp26
 70
     1
102
RTVSPropertyOp27
 70
     1
102
RTVSPropertyOp28
 70
     1
102
RTVSPropertyOp29
 70
     1
102
RTVSPropertyOp30
 70
     1
102
RTVSPropertyOp31
 70
     1
102
RTVSPropertyOp32
 70
     1
102
RTVSPropertyOp33
 70
     1
102
RTVSPropertyOp34
 70
     1
102
RTVSPropertyOp35
 70
     1
102
RTVSPropertyOp36
 70
     1
102
RTVSPropertyOp37
 70
     1
102
RTVSPropertyOp38
 70
     1
102
RTVSPropertyOp39
 70
     1
102
RTVSPropertyOp40
 70
     1
102
RTVSPropertyOp41
 70
     1
102
RTVSPropertyOp42
 70
     1
102
RTVSPropertyOp43
 70
     1
102
RTVSPropertyOp44
 70
     1
102
RTVSPropertyOp45
 70
     1
102
RTVSPropertyOp46
 70
     1
102
RTVSPropertyOp47
 70
     1
102
RTVSPropertyOp48
 70
     1
102
RTVSPropertyOp49
 70
     1
102
RTVSPropertyOp50
 70
     1
102
RTVSPropertyOp51
 70
     0
102
RTVSPropertyOp52
 70
     0
102
RTVSPropertyOp53
 70
     1
102
RTVSPropertyOp54
 70
     1
102
RTVSPropertyOp55
 70
     1
102
RTVSPropertyOp56
 70
     1
102
RTVSPropertyOp57
 70
     1
102
RTVSPropertyOp58
 70
     1
102
RTVSPropertyOp59
 70
     1
102
RTVSPropertyOp60
 70
     1
102
RTVSPropertyOp61
 70
     1
102
RTVSPropertyOp62
 70
     1
  0
XRECORD
  5
37A
102
{ACAD_REACTORS
330
379
102
}
330
379
100
AcDbXrecord
280
     1
102
RTVSPost2010Prop28
280
     0
102
RTVSPost2010PropOp28
 70
     1
102
RTVSPost2010Prop29
280
     1
102
RTVSPost2010PropOp29
 70
     1
102
RTVSPost2010Prop30
280
     1
102
RTVSPost2010PropOp30
 70
     1
102
RTVSPost2010Prop31
280
     0
102
RTVSPost2010PropOp31
 70
     1
102
RTVSPost2010Prop32
280
     0
102
RTVSPost2010PropOp32
 70
     1
102
RTVSPost2010Prop33
280
     0
102
RTVSPost2010PropOp33
 70
     1
102
RTVSPost2010Prop34
280
     0
102
RTVSPost2010PropOp34
 70
     1
102
RTVSPost2010Prop35
280
     0
102
RTVSPost2010PropOp35
 70
     1
102
RTVSPost2010Prop36
280
     0
102
RTVSPost2010PropOp36
 70
     1
102
RTVSPost2010Prop37
 90
       50
102
RTVSPost2010PropOp37
 70
     1
102
RTVSPost2010Prop38
140
0.0
102
RTVSPost2010PropOp38
 70
     1
102
RTVSPost2010Prop39
140
1.0
102
RTVSPost2010PropOp39
 70
     1
102
RTVSPost2010Prop40
 90
        0
102
RTVSPost2010PropOp40
 70
     1
102
RTVSPost2010Prop41ColorIndex
 90
       18
102
RTVSPost2010Prop41ColorRGB
 90
        0
102
RTVSPost2010PropOp41
 70
     1
102
RTVSPost2010Prop42
 90
       50
102
RTVSPost2010PropOp42
 70
     1
102
RTVSPost2010Prop43
 90
        3
102
RTVSPost2010PropOp43
 70
     1
102
RTVSPost2010Prop44ColorIndex
 90
        5
102
RTVSPost2010Prop44ColorRGB
 90
      255
102
RTVSPost2010PropOp44
 70
     1
102
RTVSPost2010Prop45
280
     0
102
RTVSPost2010PropOp45
 70
     1
102
RTVSPost2010Prop46
 90
       50
102
RTVSPost2010PropOp46
 70
     1
102
RTVSPost2010Prop47
 90
       50
102
RTVSPost2010PropOp47
 70
     1
102
RTVSPost2010Prop48
 90
       50
102
RTVSPost2010PropOp48
 70
     1
102
RTVSPost2010Prop49
280
     0
102
RTVSPost2010PropOp49
 70
     1
102
RTVSPost2010Prop50
 90
       50
102
RTVSPost2010PropOp50
 70
     1
102
RTVSPost2010Prop51ColorIndex
 90
      256
102
RTVSPost2010Prop51ColorRGB
 90
-16777216
102
RTVSPost2010PropOp51
 70
     0
102
RTVSPost2010Prop52
140
1.0
102
RTVSPost2010PropOp52
 70
     0
102
RTVSPost2010Prop53
 90
        2
102
RTVSPost2010PropOp53
 70
     1
102
RTVSPost2010Prop54
  1
strokes_ogs.tif
102
RTVSPost2010PropOp54
 70
     1
102
RTVSPost2010Prop55
280
     0
102
RTVSPost2010PropOp55
 70
     1
102
RTVSPost2010Prop56
140
1.0
102
RTVSPost2010PropOp56
 70
     1
102
RTVSPost2010Prop57
140
1.0
102
RTVSPost2010PropOp57
 70
     1
102
RTVSPropertyOp0
 70
     1
102
RTVSPropertyOp1
 70
     1
102
RTVSPropertyOp2
 70
     1
102
RTVSPropertyOp3
 70
     1
102
RTVSPropertyOp4
 70
     1
102
RTVSPropertyOp5
 70
     1
102
RTVSPropertyOp6
 70
     1
102
RTVSPropertyOp7
 70
     1
102
RTVSPropertyOp8
 70
     1
102
RTVSPropertyOp9
 70
     1
102
RTVSPropertyOp10
 70
     1
102
RTVSPropertyOp11
 70
     1
102
RTVSPropertyOp12
 70
     1
102
RTVSPropertyOp13
 70
     1
102
RTVSPropertyOp14
 70
     1
102
RTVSPropertyOp15
 70
     1
102
RTVSPropertyOp16
 70
     1
102
RTVSPropertyOp17
 70
     1
102
RTVSPropertyOp18
 70
     1
102
RTVSPropertyOp19
 70
     1
102
RTVSPropertyOp20
 70
     1
102
RTVSPropertyOp21
 70
     1
102
RTVSPropertyOp22
 70
     1
102
RTVSPropertyOp23
 70
     1
102
RTVSPropertyOp24
 70
     1
102
RTVSPropertyOp25
 70
     1
102
RTVSPropertyOp26
 70
     1
102
RTVSPropertyOp27
 70
     1
102
RTVSPropertyOp28
 70
     1
102
RTVSPropertyOp29
 70
     1
102
RTVSPropertyOp30
 70
     1
102
RTVSPropertyOp31
 70
     1
102
RTVSPropertyOp32
 70
     1
102
RTVSPropertyOp33
 70
     1
102
RTVSPropertyOp34
 70
     1
102
RTVSPropertyOp35
 70
     1
102
RTVSPropertyOp36
 70
     1
102
RTVSPropertyOp37
 70
     1
102
RTVSPropertyOp38
 70
     1
102
RTVSPropertyOp39
 70
     1
102
RTVSPropertyOp40
 70
     1
102
RTVSPropertyOp41
 70
     1
102
RTVSPropertyOp42
 70
     1
102
RTVSPropertyOp43
 70
     1
102
RTVSPropertyOp44
 70
     1
102
RTVSPropertyOp45
 70
     1
102
RTVSPropertyOp46
 70
     1
102
RTVSPropertyOp47
 70
     1
102
RTVSPropertyOp48
 70
     1
102
RTVSPropertyOp49
 70
     1
102
RTVSPropertyOp50
 70
     1
102
RTVSPropertyOp51
 70
     0
102
RTVSPropertyOp52
 70
     0
102
RTVSPropertyOp53
 70
     1
102
RTVSPropertyOp54
 70
     1
102
RTVSPropertyOp55
 70
     1
102
RTVSPropertyOp56
 70
     1
102
RTVSPropertyOp57
 70
     1
102
RTVSPropertyOp58
 70
     1
102
RTVSPropertyOp59
 70
     1
102
RTVSPropertyOp60
 70
     1
102
RTVSPropertyOp61
 70
     1
102
RTVSPropertyOp62
 70
     1
  0
XRECORD
  5
36C
102
{ACAD_REACTORS
330
36B
102
}
330
36B
100
AcDbXrecord
280
     1
102
RTVSPost2010Prop28
280
     0
102
RTVSPost2010PropOp28
 70
     1
102
RTVSPost2010Prop29
280
     1
102
RTVSPost2010PropOp29
 70
     1
102
RTVSPost2010Prop30
280
     1
102
RTVSPost2010PropOp30
 70
     1
102
RTVSPost2010Prop31
280
     0
102
RTVSPost2010PropOp31
 70
     1
102
RTVSPost2010Prop32
280
     0
102
RTVSPost2010PropOp32
 70
     1
102
RTVSPost2010Prop33
280
     0
102
RTVSPost2010PropOp33
 70
     1
102
RTVSPost2010Prop34
280
     0
102
RTVSPost2010PropOp34
 70
     1
102
RTVSPost2010Prop35
280
     0
102
RTVSPost2010PropOp35
 70
     1
102
RTVSPost2010Prop36
280
     0
102
RTVSPost2010PropOp36
 70
     1
102
RTVSPost2010Prop37
 90
       50
102
RTVSPost2010PropOp37
 70
     1
102
RTVSPost2010Prop38
140
0.0
102
RTVSPost2010PropOp38
 70
     1
102
RTVSPost2010Prop39
140
1.0
102
RTVSPost2010PropOp39
 70
     1
102
RTVSPost2010Prop40
 90
        0
102
RTVSPost2010PropOp40
 70
     1
102
RTVSPost2010Prop41ColorIndex
 90
       18
102
RTVSPost2010Prop41ColorRGB
 90
        0
102
RTVSPost2010PropOp41
 70
     1
102
RTVSPost2010Prop42
 90
       50
102
RTVSPost2010PropOp42
 70
     1
102
RTVSPost2010Prop43
 90
        3
102
RTVSPost2010PropOp43
 70
     1
102
RTVSPost2010Prop44ColorIndex
 90
        5
102
RTVSPost2010Prop44ColorRGB
 90
      255
102
RTVSPost2010PropOp44
 70
     1
102
RTVSPost2010Prop45
280
     0
102
RTVSPost2010PropOp45
 70
     1
102
RTVSPost2010Prop46
 90
       50
102
RTVSPost2010PropOp46
 70
     1
102
RTVSPost2010Prop47
 90
       50
102
RTVSPost2010PropOp47
 70
     1
102
RTVSPost2010Prop48
 90
       50
102
RTVSPost2010PropOp48
 70
     1
102
RTVSPost2010Prop49
280
     0
102
RTVSPost2010PropOp49
 70
     1
102
RTVSPost2010Prop50
 90
       50
102
RTVSPost2010PropOp50
 70
     1
102
RTVSPost2010Prop51ColorIndex
 90
      256
102
RTVSPost2010Prop51ColorRGB
 90
-16777216
102
RTVSPost2010PropOp51
 70
     0
102
RTVSPost2010Prop52
140
1.0
102
RTVSPost2010PropOp52
 70
     0
102
RTVSPost2010Prop53
 90
        2
102
RTVSPost2010PropOp53
 70
     1
102
RTVSPost2010Prop54
  1
strokes_ogs.tif
102
RTVSPost2010PropOp54
 70
     1
102
RTVSPost2010Prop55
280
     0
102
RTVSPost2010PropOp55
 70
     1
102
RTVSPost2010Prop56
140
1.0
102
RTVSPost2010PropOp56
 70
     1
102
RTVSPost2010Prop57
140
1.0
102
RTVSPost2010PropOp57
 70
     1
102
RTVSPropertyOp0
 70
     1
102
RTVSPropertyOp1
 70
     1
102
RTVSPropertyOp2
 70
     1
102
RTVSPropertyOp3
 70
     1
102
RTVSPropertyOp4
 70
     1
102
RTVSPropertyOp5
 70
     1
102
RTVSPropertyOp6
 70
     1
102
RTVSPropertyOp7
 70
     1
102
RTVSPropertyOp8
 70
     1
102
RTVSPropertyOp9
 70
     1
102
RTVSPropertyOp10
 70
     1
102
RTVSPropertyOp11
 70
     1
102
RTVSPropertyOp12
 70
     1
102
RTVSPropertyOp13
 70
     1
102
RTVSPropertyOp14
 70
     1
102
RTVSPropertyOp15
 70
     1
102
RTVSPropertyOp16
 70
     1
102
RTVSPropertyOp17
 70
     1
102
RTVSPropertyOp18
 70
     1
102
RTVSPropertyOp19
 70
     1
102
RTVSPropertyOp20
 70
     1
102
RTVSPropertyOp21
 70
     1
102
RTVSPropertyOp22
 70
     1
102
RTVSPropertyOp23
 70
     1
102
RTVSPropertyOp24
 70
     1
102
RTVSPropertyOp25
 70
     1
102
RTVSPropertyOp26
 70
     1
102
RTVSPropertyOp27
 70
     1
102
RTVSPropertyOp28
 70
     1
102
RTVSPropertyOp29
 70
     1
102
RTVSPropertyOp30
 70
     1
102
RTVSPropertyOp31
 70
     1
102
RTVSPropertyOp32
 70
     1
102
RTVSPropertyOp33
 70
     1
102
RTVSPropertyOp34
 70
     1
102
RTVSPropertyOp35
 70
     1
102
RTVSPropertyOp36
 70
     1
102
RTVSPropertyOp37
 70
     1
102
RTVSPropertyOp38
 70
     1
102
RTVSPropertyOp39
 70
     1
102
RTVSPropertyOp40
 70
     1
102
RTVSPropertyOp41
 70
     1
102
RTVSPropertyOp42
 70
     1
102
RTVSPropertyOp43
 70
     1
102
RTVSPropertyOp44
 70
     1
102
RTVSPropertyOp45
 70
     1
102
RTVSPropertyOp46
 70
     1
102
RTVSPropertyOp47
 70
     1
102
RTVSPropertyOp48
 70
     1
102
RTVSPropertyOp49
 70
     1
102
RTVSPropertyOp50
 70
     1
102
RTVSPropertyOp51
 70
     0
102
RTVSPropertyOp52
 70
     0
102
RTVSPropertyOp53
 70
     1
102
RTVSPropertyOp54
 70
     1
102
RTVSPropertyOp55
 70
     1
102
RTVSPropertyOp56
 70
     1
102
RTVSPropertyOp57
 70
     1
102
RTVSPropertyOp58
 70
     1
102
RTVSPropertyOp59
 70
     1
102
RTVSPropertyOp60
 70
     1
102
RTVSPropertyOp61
 70
     1
102
RTVSPropertyOp62
 70
     1
  0
XRECORD
  5
38C
102
{ACAD_REACTORS
330
38B
102
}
330
38B
100
AcDbXrecord
280
     1
102
RTVSPost2010Prop28
280
     0
102
RTVSPost2010PropOp28
 70
     1
102
RTVSPost2010Prop29
280
     1
102
RTVSPost2010PropOp29
 70
     1
102
RTVSPost2010Prop30
280
     1
102
RTVSPost2010PropOp30
 70
     1
102
RTVSPost2010Prop31
280
     0
102
RTVSPost2010PropOp31
 70
     1
102
RTVSPost2010Prop32
280
     0
102
RTVSPost2010PropOp32
 70
     1
102
RTVSPost2010Prop33
280
     0
102
RTVSPost2010PropOp33
 70
     1
102
RTVSPost2010Prop34
280
     0
102
RTVSPost2010PropOp34
 70
     1
102
RTVSPost2010Prop35
280
     0
102
RTVSPost2010PropOp35
 70
     1
102
RTVSPost2010Prop36
280
     0
102
RTVSPost2010PropOp36
 70
     1
102
RTVSPost2010Prop37
 90
       50
102
RTVSPost2010PropOp37
 70
     1
102
RTVSPost2010Prop38
140
0.0
102
RTVSPost2010PropOp38
 70
     1
102
RTVSPost2010Prop39
140
1.0
102
RTVSPost2010PropOp39
 70
     1
102
RTVSPost2010Prop40
 90
        0
102
RTVSPost2010PropOp40
 70
     1
102
RTVSPost2010Prop41ColorIndex
 90
       18
102
RTVSPost2010Prop41ColorRGB
 90
        0
102
RTVSPost2010PropOp41
 70
     1
102
RTVSPost2010Prop42
 90
       50
102
RTVSPost2010PropOp42
 70
     1
102
RTVSPost2010Prop43
 90
        3
102
RTVSPost2010PropOp43
 70
     1
102
RTVSPost2010Prop44ColorIndex
 90
        5
102
RTVSPost2010Prop44ColorRGB
 90
      255
102
RTVSPost2010PropOp44
 70
     1
102
RTVSPost2010Prop45
280
     0
102
RTVSPost2010PropOp45
 70
     1
102
RTVSPost2010Prop46
 90
       50
102
RTVSPost2010PropOp46
 70
     1
102
RTVSPost2010Prop47
 90
       50
102
RTVSPost2010PropOp47
 70
     1
102
RTVSPost2010Prop48
 90
       50
102
RTVSPost2010PropOp48
 70
     1
102
RTVSPost2010Prop49
280
     0
102
RTVSPost2010PropOp49
 70
     1
102
RTVSPost2010Prop50
 90
       50
102
RTVSPost2010PropOp50
 70
     1
102
RTVSPost2010Prop51ColorIndex
 90
      256
102
RTVSPost2010Prop51ColorRGB
 90
-16777216
102
RTVSPost2010PropOp51
 70
     0
102
RTVSPost2010Prop52
140
1.0
102
RTVSPost2010PropOp52
 70
     0
102
RTVSPost2010Prop53
 90
        2
102
RTVSPost2010PropOp53
 70
     1
102
RTVSPost2010Prop54
  1
strokes_ogs.tif
102
RTVSPost2010PropOp54
 70
     1
102
RTVSPost2010Prop55
280
     0
102
RTVSPost2010PropOp55
 70
     1
102
RTVSPost2010Prop56
140
1.0
102
RTVSPost2010PropOp56
 70
     1
102
RTVSPost2010Prop57
140
1.0
102
RTVSPost2010PropOp57
 70
     1
102
RTVSPropertyOp0
 70
     1
102
RTVSPropertyOp1
 70
     1
102
RTVSPropertyOp2
 70
     1
102
RTVSPropertyOp3
 70
     1
102
RTVSPropertyOp4
 70
     1
102
RTVSPropertyOp5
 70
     1
102
RTVSPropertyOp6
 70
     1
102
RTVSPropertyOp7
 70
     1
102
RTVSPropertyOp8
 70
     1
102
RTVSPropertyOp9
 70
     1
102
RTVSPropertyOp10
 70
     1
102
RTVSPropertyOp11
 70
     1
102
RTVSPropertyOp12
 70
     1
102
RTVSPropertyOp13
 70
     1
102
RTVSPropertyOp14
 70
     1
102
RTVSPropertyOp15
 70
     1
102
RTVSPropertyOp16
 70
     1
102
RTVSPropertyOp17
 70
     1
102
RTVSPropertyOp18
 70
     1
102
RTVSPropertyOp19
 70
     1
102
RTVSPropertyOp20
 70
     1
102
RTVSPropertyOp21
 70
     1
102
RTVSPropertyOp22
 70
     1
102
RTVSPropertyOp23
 70
     1
102
RTVSPropertyOp24
 70
     1
102
RTVSPropertyOp25
 70
     1
102
RTVSPropertyOp26
 70
     1
102
RTVSPropertyOp27
 70
     1
102
RTVSPropertyOp28
 70
     1
102
RTVSPropertyOp29
 70
     1
102
RTVSPropertyOp30
 70
     1
102
RTVSPropertyOp31
 70
     1
102
RTVSPropertyOp32
 70
     1
102
RTVSPropertyOp33
 70
     1
102
RTVSPropertyOp34
 70
     1
102
RTVSPropertyOp35
 70
     1
102
RTVSPropertyOp36
 70
     1
102
RTVSPropertyOp37
 70
     1
102
RTVSPropertyOp38
 70
     1
102
RTVSPropertyOp39
 70
     1
102
RTVSPropertyOp40
 70
     1
102
RTVSPropertyOp41
 70
     1
102
RTVSPropertyOp42
 70
     1
102
RTVSPropertyOp43
 70
     1
102
RTVSPropertyOp44
 70
     1
102
RTVSPropertyOp45
 70
     1
102
RTVSPropertyOp46
 70
     1
102
RTVSPropertyOp47
 70
     1
102
RTVSPropertyOp48
 70
     1
102
RTVSPropertyOp49
 70
     1
102
RTVSPropertyOp50
 70
     1
102
RTVSPropertyOp51
 70
     0
102
RTVSPropertyOp52
 70
     0
102
RTVSPropertyOp53
 70
     1
102
RTVSPropertyOp54
 70
     1
102
RTVSPropertyOp55
 70
     1
102
RTVSPropertyOp56
 70
     1
102
RTVSPropertyOp57
 70
     1
102
RTVSPropertyOp58
 70
     1
102
RTVSPropertyOp59
 70
     1
102
RTVSPropertyOp60
 70
     1
102
RTVSPropertyOp61
 70
     1
102
RTVSPropertyOp62
 70
     1
  0
ENDSEC
  0
EOF
