  0
SECTION
  2
HEADER
  9
$ACADVER
  1
AC1018
  9
$ACADMAINTVER
 70
   104
  9
$DWGCODEPAGE
  3
ANSI_1250
  9
$LASTSAVEDBY
  1
wq7085
  9
$INSBASE
 10
0.0
 20
0.0
 30
0.0
  9
$EXTMIN
 10
176.0944603333333
 20
114.534924
 30
0.0
  9
$EXTMAX
 10
469.192844
 20
348.3591736666668
 30
0.0
  9
$LIMMIN
 10
-0.5
 20
-0.5
  9
$LIMMAX
 10
5.0
 20
5.0
  9
$ORTHOMODE
 70
     0
  9
$REGENMODE
 70
     1
  9
$FILLMODE
 70
     1
  9
$QTEXTMODE
 70
     0
  9
$MIRRTEXT
 70
     1
  9
$LTSCALE
 40
1.0
  9
$ATTMODE
 70
     1
  9
$TEXTSIZE
 40
0.2
  9
$TRACEWID
 40
0.05
  9
$TEXTSTYLE
  7
Standard
  9
$CLAYER
  8
0
  9
$CELTYPE
  6
ByLayer
  9
$CECOLOR
 62
   256
  9
$CELTSCALE
 40
1.0
  9
$DISPSILH
 70
     0
  9
$DIMSCALE
 40
1.0
  9
$DIMASZ
 40
0.18
  9
$DIMEXO
 40
0.0625
  9
$DIMDLI
 40
0.38
  9
$DIMRND
 40
0.0
  9
$DIMDLE
 40
0.0
  9
$DIMEXE
 40
0.18
  9
$DIMTP
 40
0.0
  9
$DIMTM
 40
0.0
  9
$DIMTXT
 40
0.18
  9
$DIMCEN
 40
0.09
  9
$DIMTSZ
 40
0.0
  9
$DIMTOL
 70
     0
  9
$DIMLIM
 70
     0
  9
$DIMTIH
 70
     1
  9
$DIMTOH
 70
     1
  9
$DIMSE1
 70
     0
  9
$DIMSE2
 70
     0
  9
$DIMTAD
 70
     0
  9
$DIMZIN
 70
     0
  9
$DIMBLK
  1

  9
$DIMASO
 70
     1
  9
$DIMSHO
 70
     1
  9
$DIMPOST
  1

  9
$DIMAPOST
  1

  9
$DIMALT
 70
     0
  9
$DIMALTD
 70
     2
  9
$DIMALTF
 40
25.4
  9
$DIMLFAC
 40
1.0
  9
$DIMTOFL
 70
     0
  9
$DIMTVP
 40
0.0
  9
$DIMTIX
 70
     0
  9
$DIMSOXD
 70
     0
  9
$DIMSAH
 70
     0
  9
$DIMBLK1
  1

  9
$DIMBLK2
  1

  9
$DIMSTYLE
  2
Standard
  9
$DIMCLRD
 70
     0
  9
$DIMCLRE
 70
     0
  9
$DIMCLRT
 70
     0
  9
$DIMTFAC
 40
1.0
  9
$DIMGAP
 40
0.09
  9
$DIMJUST
 70
     0
  9
$DIMSD1
 70
     0
  9
$DIMSD2
 70
     0
  9
$DIMTOLJ
 70
     1
  9
$DIMTZIN
 70
     0
  9
$DIMALTZ
 70
     0
  9
$DIMALTTZ
 70
     0
  9
$DIMUPT
 70
     0
  9
$DIMDEC
 70
     4
  9
$DIMTDEC
 70
     4
  9
$DIMALTU
 70
     2
  9
$DIMALTTD
 70
     2
  9
$DIMTXSTY
  7
Standard
  9
$DIMAUNIT
 70
     0
  9
$DIMADEC
 70
     0
  9
$DIMALTRND
 40
0.0
  9
$DIMAZIN
 70
     0
  9
$DIMDSEP
 70
    46
  9
$DIMATFIT
 70
     3
  9
$DIMFRAC
 70
     0
  9
$DIMLDRBLK
  1

  9
$DIMLUNIT
 70
     2
  9
$DIMLWD
 70
    -2
  9
$DIMLWE
 70
    -2
  9
$DIMTMOVE
 70
     0
  9
$LUNITS
 70
     2
  9
$LUPREC
 70
     4
  9
$SKETCHINC
 40
0.1
  9
$FILLETRAD
 40
0.5
  9
$AUNITS
 70
     0
  9
$AUPREC
 70
     0
  9
$MENU
  1
.
  9
$ELEVATION
 40
0.0
  9
$PELEVATION
 40
0.0
  9
$THICKNESS
 40
0.0
  9
$LIMCHECK
 70
     0
  9
$CHAMFERA
 40
0.0
  9
$CHAMFERB
 40
0.0
  9
$CHAMFERC
 40
0.0
  9
$CHAMFERD
 40
0.0
  9
$SKPOLY
 70
     0
  9
$TDCREATE
 40
2459088.312164352
  9
$TDUCREATE
 40
2459088.228831042
  9
$TDUPDATE
 40
2459088.313217593
  9
$TDUUPDATE
 40
2459088.229884260
  9
$TDINDWG
 40
0.0007639005
  9
$TDUSRTIMER
 40
0.0007639005
  9
$USRTIMER
 70
     1
  9
$ANGBASE
 50
0.0
  9
$ANGDIR
 70
     0
  9
$PDMODE
 70
     0
  9
$PDSIZE
 40
0.0
  9
$PLINEWID
 40
0.0
  9
$SPLFRAME
 70
     0
  9
$SPLINETYPE
 70
     6
  9
$SPLINESEGS
 70
     8
  9
$HANDSEED
  5
3C2
  9
$SURFTAB1
 70
     6
  9
$SURFTAB2
 70
     6
  9
$SURFTYPE
 70
     6
  9
$SURFU
 70
     6
  9
$SURFV
 70
     6
  9
$UCSBASE
  2

  9
$UCSNAME
  2

  9
$UCSORG
 10
274.404842
 20
288.907994
 30
0.0
  9
$UCSXDIR
 10
1.0
 20
0.0
 30
0.0
  9
$UCSYDIR
 10
0.0
 20
1.0
 30
0.0
  9
$UCSORTHOREF
  2

  9
$UCSORTHOVIEW
 70
     0
  9
$UCSORGTOP
 10
0.0
 20
0.0
 30
0.0
  9
$UCSORGBOTTOM
 10
0.0
 20
0.0
 30
0.0
  9
$UCSORGLEFT
 10
0.0
 20
0.0
 30
0.0
  9
$UCSORGRIGHT
 10
0.0
 20
0.0
 30
0.0
  9
$UCSORGFRONT
 10
0.0
 20
0.0
 30
0.0
  9
$UCSORGBACK
 10
0.0
 20
0.0
 30
0.0
  9
$PUCSBASE
  2

  9
$PUCSNAME
  2

  9
$PUCSORG
 10
0.0
 20
0.0
 30
0.0
  9
$PUCSXDIR
 10
1.0
 20
0.0
 30
0.0
  9
$PUCSYDIR
 10
0.0
 20
1.0
 30
0.0
  9
$PUCSORTHOREF
  2

  9
$PUCSORTHOVIEW
 70
     0
  9
$PUCSORGTOP
 10
0.0
 20
0.0
 30
0.0
  9
$PUCSORGBOTTOM
 10
0.0
 20
0.0
 30
0.0
  9
$PUCSORGLEFT
 10
0.0
 20
0.0
 30
0.0
  9
$PUCSORGRIGHT
 10
0.0
 20
0.0
 30
0.0
  9
$PUCSORGFRONT
 10
0.0
 20
0.0
 30
0.0
  9
$PUCSORGBACK
 10
0.0
 20
0.0
 30
0.0
  9
$USERI1
 70
     0
  9
$USERI2
 70
     0
  9
$USERI3
 70
     0
  9
$USERI4
 70
     0
  9
$USERI5
 70
     0
  9
$USERR1
 40
0.0
  9
$USERR2
 40
0.0
  9
$USERR3
 40
0.0
  9
$USERR4
 40
0.0
  9
$USERR5
 40
0.0
  9
$WORLDVIEW
 70
     1
  9
$SHADEDGE
 70
     3
  9
$SHADEDIF
 70
    70
  9
$TILEMODE
 70
     1
  9
$MAXACTVP
 70
    64
  9
$PINSBASE
 10
0.0
 20
0.0
 30
0.0
  9
$PLIMCHECK
 70
     0
  9
$PEXTMIN
 10
-0.5
 20
-0.5
 30
-0.5
  9
$PEXTMAX
 10
5.0
 20
5.0
 30
5.0
  9
$PLIMMIN
 10
-0.5
 20
-0.5
  9
$PLIMMAX
 10
5.0
 20
5.0
  9
$UNITMODE
 70
     0
  9
$VISRETAIN
 70
     1
  9
$PLINEGEN
 70
     0
  9
$PSLTSCALE
 70
     1
  9
$TREEDEPTH
 70
  3020
  9
$CMLSTYLE
  2
Standard
  9
$CMLJUST
 70
     0
  9
$CMLSCALE
 40
1.0
  9
$PROXYGRAPHICS
 70
     1
  9
$MEASUREMENT
 70
     1
  9
$CELWEIGHT
370
    13
  9
$ENDCAPS
280
     0
  9
$JOINSTYLE
280
     0
  9
$LWDISPLAY
290
     0
  9
$INSUNITS
 70
     4
  9
$HYPERLINKBASE
  1

  9
$STYLESHEET
  1

  9
$XEDIT
290
     1
  9
$CEPSNTYPE
380
     0
  9
$PSTYLEMODE
290
     1
  9
$FINGERPRINTGUID
  2
{A9F288B9-F528-4764-B69F-CE34559F9AD1}
  9
$VERSIONGUID
  2
{02B3F56C-44B1-B949-9DD6-E693CC1BFD59}
  9
$EXTNAMES
290
     1
  9
$PSVPSCALE
 40
0.0
  9
$OLESTARTUP
290
     0
  9
$SORTENTS
280
   127
  9
$INDEXCTL
280
     0
  9
$HIDETEXT
280
     1
  9
$XCLIPFRAME
290
     0
  9
$HALOGAP
280
     0
  9
$OBSCOLOR
 70
   257
  9
$OBSLTYPE
280
     0
  9
$INTERSECTIONDISPLAY
280
     0
  9
$INTERSECTIONCOLOR
 70
   257
  9
$DIMASSOC
280
     2
  9
$PROJECTNAME
  1

  0
ENDSEC
  0
SECTION
  2
CLASSES
  0
CLASS
  1
ACDBDICTIONARYWDFLT
  2
AcDbDictionaryWithDefault
  3
ObjectDBX Classes
 90
        0
 91
        1
280
     0
281
     0
  0
CLASS
  1
VISUALSTYLE
  2
AcDbVisualStyle
  3
ObjectDBX Classes
 90
     4095
 91
       24
280
     0
281
     0
  0
CLASS
  1
MATERIAL
  2
AcDbMaterial
  3
ObjectDBX Classes
 90
     1153
 91
        3
280
     0
281
     0
  0
CLASS
  1
SCALE
  2
AcDbScale
  3
ObjectDBX Classes
 90
     1153
 91
       33
280
     0
281
     0
  0
CLASS
  1
TABLESTYLE
  2
AcDbTableStyle
  3
ObjectDBX Classes
 90
     4095
 91
        1
280
     0
281
     0
  0
CLASS
  1
MLEADERSTYLE
  2
AcDbMLeaderStyle
  3
ACDB_MLEADERSTYLE_CLASS
 90
     4095
 91
        1
280
     0
281
     0
  0
CLASS
  1
SUN
  2
AcDbSun
  3
SCENEOE
 90
     1153
 91
        0
280
     0
281
     0
  0
CLASS
  1
DIMASSOC
  2
AcDbDimAssoc
  3
"AcDbDimAssoc|Product Desc:     AcDim ARX App For Dimension|Company:          Autodesk, Inc.|WEB Address:      www.autodesk.com"
 90
        0
 91
        7
280
     0
281
     0
  0
CLASS
  1
DICTIONARYVAR
  2
AcDbDictionaryVar
  3
ObjectDBX Classes
 90
        0
 91
        8
280
     0
281
     0
  0
CLASS
  1
CELLSTYLEMAP
  2
AcDbCellStyleMap
  3
ObjectDBX Classes
 90
     1152
 91
        2
280
     0
281
     0
  0
CLASS
  1
ACDBSECTIONVIEWSTYLE
  2
AcDbSectionViewStyle
  3
ObjectDBX Classes
 90
     1025
 91
        1
280
     0
281
     0
  0
CLASS
  1
ACDBDETAILVIEWSTYLE
  2
AcDbDetailViewStyle
  3
ObjectDBX Classes
 90
     1025
 91
        1
280
     0
281
     0
  0
CLASS
  1
SORTENTSTABLE
  2
AcDbSortentsTable
  3
ObjectDBX Classes
 90
        0
 91
        1
280
     0
281
     0
  0
ENDSEC
  0
SECTION
  2
TABLES
  0
TABLE
  2
VPORT
  5
8
330
0
100
AcDbSymbolTable
 70
    16
  0
VPORT
  5
29
330
8
100
AcDbSymbolTableRecord
100
AcDbViewportTableRecord
  2
*Active
 70
     0
 10
0.0
 20
0.0
 11
1.0
 21
1.0
 12
323.740277077599
 22
268.8680116136768
 13
0.0
 23
0.0
 14
0.5
 24
0.5
 15
0.5
 25
0.5
 16
0.0
 26
0.0
 36
1.0
 17
0.0
 27
0.0
 37
0.0
 40
285.2828832168158
 41
2.188141391106043
 42
50.0
 43
506.628564
 44
-506.628564
 50
0.0
 51
0.0
 71
     0
 72
   100
 73
     1
 74
     3
 75
     0
 76
     0
 77
     0
 78
     0
281
     0
 65
     1
110
274.404842
120
288.907994
130
0.0
111
1.0
121
0.0
131
0.0
112
0.0
122
1.0
132
0.0
 79
     0
146
0.0
1001
ACAD_NAV_VCDISPLAY
1070
     3
  0
VPORT
  5
2C1
330
8
100
AcDbSymbolTableRecord
100
AcDbViewportTableRecord
  2
L1
 70
     0
 10
0.0
 20
0.0
 11
1.0
 21
1.0
 12
322.139442
 22
231.384036
 13
0.0
 23
0.0
 14
0.5
 24
0.5
 15
0.5
 25
0.5
 16
0.0
 26
0.0
 36
1.0
 17
0.0
 27
0.0
 37
0.0
 40
207.433333
 41
0.085602
 42
50.0
 43
506.628564
 44
-506.628564
 50
0.0
 51
0.0
 71
     0
 72
   100
 73
     1
 74
     3
 75
     0
 76
     0
 77
     0
 78
     0
281
     0
 65
     1
110
0.0
120
0.0
130
0.0
111
1.0
121
0.0
131
0.0
112
0.0
122
1.0
132
0.0
 79
     0
146
0.0
  0
VPORT
  5
2C2
330
8
100
AcDbSymbolTableRecord
100
AcDbViewportTableRecord
  2
L2
 70
     0
 10
0.0
 20
0.0
 11
0.5
 21
1.0
 12
0.0
 22
0.0
 13
0.0
 23
0.0
 14
0.5
 24
0.5
 15
0.5
 25
0.5
 16
0.0
 26
-1.0
 36
0.0
 17
0.0
 27
0.0
 37
0.0
 40
1316.18997
 41
0.013491
 42
50.0
 43
678.00864
 44
-678.00864
 50
0.0
 51
0.0
 71
     0
 72
   100
 73
     1
 74
     3
 75
     0
 76
     0
 77
     0
 78
     0
281
     0
 65
     1
110
0.0
120
0.0
130
0.0
111
1.0
121
0.0
131
0.0
112
0.0
122
1.0
132
0.0
 79
     0
146
0.0
  0
VPORT
  5
2C3
330
8
100
AcDbSymbolTableRecord
100
AcDbViewportTableRecord
  2
L2
 70
     0
 10
0.5
 20
0.0
 11
1.0
 21
1.0
 12
0.0
 22
0.0
 13
0.0
 23
0.0
 14
0.5
 24
0.5
 15
0.5
 25
0.5
 16
1.0
 26
0.0
 36
0.0
 17
0.0
 27
0.0
 37
0.0
 40
1316.18997
 41
0.013491
 42
50.0
 43
666.2177989999999
 44
-666.2177989999999
 50
0.0
 51
0.0
 71
     0
 72
   100
 73
     1
 74
     3
 75
     0
 76
     0
 77
     0
 78
     0
281
     0
 65
     1
110
0.0
120
0.0
130
0.0
111
1.0
121
0.0
131
0.0
112
0.0
122
1.0
132
0.0
 79
     0
146
0.0
  0
VPORT
  5
2C4
330
8
100
AcDbSymbolTableRecord
100
AcDbViewportTableRecord
  2
L3
 70
     0
 10
0.0
 20
0.5
 11
1.0
 21
1.0
 12
322.139442
 22
231.384036
 13
0.0
 23
0.0
 14
0.5
 24
0.5
 15
0.5
 25
0.5
 16
0.0
 26
0.0
 36
1.0
 17
0.0
 27
0.0
 37
0.0
 40
207.433333
 41
0.085602
 42
50.0
 43
506.628564
 44
-506.628564
 50
0.0
 51
0.0
 71
     0
 72
   100
 73
     1
 74
     3
 75
     0
 76
     0
 77
     0
 78
     0
281
     0
 65
     1
110
0.0
120
0.0
130
0.0
111
1.0
121
0.0
131
0.0
112
0.0
122
1.0
132
0.0
 79
     0
146
0.0
  0
VPORT
  5
2C5
330
8
100
AcDbSymbolTableRecord
100
AcDbViewportTableRecord
  2
L3
 70
     0
 10
0.0
 20
0.0
 11
1.0
 21
0.5
 12
0.0
 22
0.0
 13
0.0
 23
0.0
 14
0.5
 24
0.5
 15
0.5
 25
0.5
 16
0.0
 26
-1.0
 36
0.0
 17
0.0
 27
0.0
 37
0.0
 40
1316.18997
 41
0.013491
 42
50.0
 43
678.00864
 44
-678.00864
 50
0.0
 51
0.0
 71
     0
 72
   100
 73
     1
 74
     3
 75
     0
 76
     0
 77
     0
 78
     0
281
     0
 65
     1
110
0.0
120
0.0
130
0.0
111
1.0
121
0.0
131
0.0
112
0.0
122
1.0
132
0.0
 79
     0
146
0.0
  0
VPORT
  5
2C6
330
8
100
AcDbSymbolTableRecord
100
AcDbViewportTableRecord
  2
L4
 70
     0
 10
0.0
 20
0.5
 11
0.5
 21
1.0
 12
322.139442
 22
231.384036
 13
0.0
 23
0.0
 14
0.5
 24
0.5
 15
0.5
 25
0.5
 16
0.0
 26
0.0
 36
1.0
 17
0.0
 27
0.0
 37
0.0
 40
207.433333
 41
0.085602
 42
50.0
 43
506.628564
 44
-506.628564
 50
0.0
 51
0.0
 71
     0
 72
   100
 73
     1
 74
     3
 75
     0
 76
     0
 77
     0
 78
     0
281
     0
 65
     1
110
0.0
120
0.0
130
0.0
111
1.0
121
0.0
131
0.0
112
0.0
122
1.0
132
0.0
 79
     0
146
0.0
  0
VPORT
  5
2C7
330
8
100
AcDbSymbolTableRecord
100
AcDbViewportTableRecord
  2
L4
 70
     0
 10
0.0
 20
0.0
 11
0.5
 21
0.5
 12
0.0
 22
0.0
 13
0.0
 23
0.0
 14
0.5
 24
0.5
 15
0.5
 25
0.5
 16
0.0
 26
-1.0
 36
0.0
 17
0.0
 27
0.0
 37
0.0
 40
1316.18997
 41
0.013491
 42
50.0
 43
678.00864
 44
-678.00864
 50
0.0
 51
0.0
 71
     0
 72
   100
 73
     1
 74
     3
 75
     0
 76
     0
 77
     0
 78
     0
281
     0
 65
     1
110
0.0
120
0.0
130
0.0
111
1.0
121
0.0
131
0.0
112
0.0
122
1.0
132
0.0
 79
     0
146
0.0
  0
VPORT
  5
2C8
330
8
100
AcDbSymbolTableRecord
100
AcDbViewportTableRecord
  2
L4
 70
     0
 10
0.5
 20
0.0
 11
1.0
 21
0.5
 12
0.0
 22
0.0
 13
0.0
 23
0.0
 14
0.5
 24
0.5
 15
0.5
 25
0.5
 16
1.0
 26
0.0
 36
0.0
 17
0.0
 27
0.0
 37
0.0
 40
1316.18997
 41
0.013491
 42
50.0
 43
666.2177989999999
 44
-666.2177989999999
 50
0.0
 51
0.0
 71
     0
 72
   100
 73
     1
 74
     3
 75
     0
 76
     0
 77
     0
 78
     0
281
     0
 65
     1
110
0.0
120
0.0
130
0.0
111
1.0
121
0.0
131
0.0
112
0.0
122
1.0
132
0.0
 79
     0
146
0.0
  0
VPORT
  5
2C9
330
8
100
AcDbSymbolTableRecord
100
AcDbViewportTableRecord
  2
L4
 70
     0
 10
0.5
 20
0.5
 11
1.0
 21
1.0
 12
0.0
 22
0.0
 13
0.0
 23
0.0
 14
0.5
 24
0.5
 15
0.5
 25
0.5
 16
0.5773502691896259
 26
-0.5773502691896259
 36
0.5773502691896259
 17
0.0
 27
0.0
 37
0.0
 40
1292.532264
 41
0.013738
 42
50.0
 43
673.245608
 44
-673.245608
 50
0.0
 51
0.0
 71
     0
 72
   100
 73
     1
 74
     3
 75
     0
 76
     0
 77
     0
 78
     0
281
     0
 65
     1
110
0.0
120
0.0
130
0.0
111
1.0
121
0.0
131
0.0
112
0.0
122
1.0
132
0.0
 79
     0
146
0.0
  0
VPORT
  5
2CA
330
8
100
AcDbSymbolTableRecord
100
AcDbViewportTableRecord
  2
L6
 70
     0
 10
0.0
 20
0.5
 11
0.333333
 21
1.0
 12
0.0
 22
0.0
 13
0.0
 23
0.0
 14
0.5
 24
0.5
 15
0.5
 25
0.5
 16
0.7188730927569434
 26
-0.5850486126764433
 36
0.3754192287502549
 17
0.0
 27
0.0
 37
0.0
 40
1364.064247
 41
0.013018
 42
50.0
 43
706.2613849999999
 44
-706.2613849999999
 50
0.0
 51
0.0
 71
     0
 72
   100
 73
     1
 74
     3
 75
     0
 76
     0
 77
     0
 78
     0
281
     0
 65
     1
110
0.0
120
0.0
130
0.0
111
1.0
121
0.0
131
0.0
112
0.0
122
1.0
132
0.0
 79
     0
146
0.0
  0
VPORT
  5
2CB
330
8
100
AcDbSymbolTableRecord
100
AcDbViewportTableRecord
  2
L6
 70
     0
 10
0.0
 20
0.0
 11
0.333333
 21
0.5
 12
0.0
 22
0.0
 13
0.0
 23
0.0
 14
0.5
 24
0.5
 15
0.5
 25
0.5
 16
-1.0
 26
0.0
 36
0.0
 17
0.0
 27
0.0
 37
0.0
 40
1316.18997
 41
0.013491
 42
50.0
 43
666.2177989999999
 44
-666.2177989999999
 50
0.0
 51
0.0
 71
     0
 72
   100
 73
     1
 74
     3
 75
     0
 76
     0
 77
     0
 78
     0
281
     0
 65
     1
110
0.0
120
0.0
130
0.0
111
1.0
121
0.0
131
0.0
112
0.0
122
1.0
132
0.0
 79
     0
146
0.0
  0
VPORT
  5
2CC
330
8
100
AcDbSymbolTableRecord
100
AcDbViewportTableRecord
  2
L6
 70
     0
 10
0.333333
 20
0.5
 11
0.666667
 21
1.0
 12
322.139442
 22
231.384036
 13
0.0
 23
0.0
 14
0.5
 24
0.5
 15
0.5
 25
0.5
 16
0.0
 26
0.0
 36
1.0
 17
0.0
 27
0.0
 37
0.0
 40
207.433333
 41
0.085602
 42
50.0
 43
506.628564
 44
-506.628564
 50
0.0
 51
0.0
 71
     0
 72
   100
 73
     1
 74
     3
 75
     0
 76
     0
 77
     0
 78
     0
281
     0
 65
     1
110
0.0
120
0.0
130
0.0
111
1.0
121
0.0
131
0.0
112
0.0
122
1.0
132
0.0
 79
     0
146
0.0
  0
VPORT
  5
2CD
330
8
100
AcDbSymbolTableRecord
100
AcDbViewportTableRecord
  2
L6
 70
     0
 10
0.333333
 20
0.0
 11
0.666667
 21
0.5
 12
0.0
 22
0.0
 13
0.0
 23
0.0
 14
0.5
 24
0.5
 15
0.5
 25
0.5
 16
0.0
 26
-1.0
 36
0.0
 17
0.0
 27
0.0
 37
0.0
 40
1316.18997
 41
0.013491
 42
50.0
 43
678.00864
 44
-678.00864
 50
0.0
 51
0.0
 71
     0
 72
   100
 73
     1
 74
     3
 75
     0
 76
     0
 77
     0
 78
     0
281
     0
 65
     1
110
0.0
120
0.0
130
0.0
111
1.0
121
0.0
131
0.0
112
0.0
122
1.0
132
0.0
 79
     0
146
0.0
  0
VPORT
  5
2CE
330
8
100
AcDbSymbolTableRecord
100
AcDbViewportTableRecord
  2
L6
 70
     0
 10
0.666667
 20
0.5
 11
1.0
 21
1.0
 12
0.0
 22
0.0
 13
0.0
 23
0.0
 14
0.5
 24
0.5
 15
0.5
 25
0.5
 16
0.5773502691896259
 26
-0.5773502691896259
 36
0.5773502691896259
 17
0.0
 27
0.0
 37
0.0
 40
1292.532264
 41
0.013738
 42
50.0
 43
673.245608
 44
-673.245608
 50
0.0
 51
0.0
 71
     0
 72
   100
 73
     1
 74
     3
 75
     0
 76
     0
 77
     0
 78
     0
281
     0
 65
     1
110
0.0
120
0.0
130
0.0
111
1.0
121
0.0
131
0.0
112
0.0
122
1.0
132
0.0
 79
     0
146
0.0
  0
VPORT
  5
2CF
330
8
100
AcDbSymbolTableRecord
100
AcDbViewportTableRecord
  2
L6
 70
     0
 10
0.666667
 20
0.0
 11
1.0
 21
0.5
 12
0.0
 22
0.0
 13
0.0
 23
0.0
 14
0.5
 24
0.5
 15
0.5
 25
0.5
 16
1.0
 26
0.0
 36
0.0
 17
0.0
 27
0.0
 37
0.0
 40
1316.18997
 41
0.013491
 42
50.0
 43
666.2177989999999
 44
-666.2177989999999
 50
0.0
 51
0.0
 71
     0
 72
   100
 73
     1
 74
     3
 75
     0
 76
     0
 77
     0
 78
     0
281
     0
 65
     1
110
0.0
120
0.0
130
0.0
111
1.0
121
0.0
131
0.0
112
0.0
122
1.0
132
0.0
 79
     0
146
0.0
  0
ENDTAB
  0
TABLE
  2
LTYPE
  5
5
330
0
100
AcDbSymbolTable
 70
     7
  0
LTYPE
  5
14
330
5
100
AcDbSymbolTableRecord
100
AcDbLinetypeTableRecord
  2
ByBlock
 70
     0
  3

 72
    65
 73
     0
 40
0.0
  0
LTYPE
  5
15
330
5
100
AcDbSymbolTableRecord
100
AcDbLinetypeTableRecord
  2
ByLayer
 70
     0
  3

 72
    65
 73
     0
 40
0.0
  0
LTYPE
  5
16
330
5
100
AcDbSymbolTableRecord
100
AcDbLinetypeTableRecord
  2
Continuous
 70
     0
  3
Solid line
 72
    65
 73
     0
 40
0.0
  0
LTYPE
  5
6E
330
5
100
AcDbSymbolTableRecord
100
AcDbLinetypeTableRecord
  2
CENTER
 70
     0
  3
____ _ ____ _ ____ _ ____
 72
    65
 73
     4
 40
47.4
 49
22.0
 74
     4
 75
     0
340
0
 46
0.0
 50
0.0
 44
0.0
 45
0.0
 49
-8.5
 74
     4
 75
     0
340
0
 46
0.0
 50
0.0
 44
0.0
 45
0.0
 49
8.5
 74
     4
 75
     0
340
0
 46
0.0
 50
0.0
 44
0.0
 45
0.0
 49
-8.5
 74
     4
 75
     0
340
0
 46
0.0
 50
0.0
 44
0.0
 45
0.0
  0
LTYPE
  5
6F
330
5
100
AcDbSymbolTableRecord
100
AcDbLinetypeTableRecord
  2
DASHDOT
 70
     0
  3
_._._._._._._._._._._._._._._._.
 72
    65
 73
     4
 40
70.0
 49
31.0
 74
     4
 75
     0
340
0
 46
0.0
 50
0.0
 44
0.0
 45
0.0
 49
-13.0
 74
     4
 75
     0
340
0
 46
0.0
 50
0.0
 44
0.0
 45
0.0
 49
13.0
 74
     4
 75
     0
340
0
 46
0.0
 50
0.0
 44
0.0
 45
0.0
 49
-13.0
 74
     4
 75
     0
340
0
 46
0.0
 50
0.0
 44
0.0
 45
0.0
  0
LTYPE
  5
70
330
5
100
AcDbSymbolTableRecord
100
AcDbLinetypeTableRecord
  2
DASHED
 70
     0
  3
__ __ __ __ __ __ __ __ __
 72
    65
 73
     2
 40
25.72
 49
12.86
 74
     4
 75
     0
340
0
 46
0.0
 50
0.0
 44
0.0
 45
0.0
 49
-12.86
 74
     4
 75
     0
340
0
 46
0.0
 50
0.0
 44
0.0
 45
0.0
  0
LTYPE
  5
71
330
5
100
AcDbSymbolTableRecord
100
AcDbLinetypeTableRecord
  2
DOT
 70
     0
  3
.........................
 72
    65
 73
     2
 40
10.0
 49
0.0
 74
     4
 75
     0
340
0
 46
0.0
 50
0.0
 44
0.0
 45
0.0
 49
-10.0
 74
     4
 75
     0
340
0
 46
0.0
 50
0.0
 44
0.0
 45
0.0
  0
LTYPE
  5
72
330
5
100
AcDbSymbolTableRecord
100
AcDbLinetypeTableRecord
  2
PHANTOM
 70
     0
  3
____ _ _ ____ _ _ _____ _ _ ____
 72
    65
 73
     6
 40
50.5
 49
18.0
 74
     4
 75
     0
340
0
 46
0.0
 50
0.0
 44
0.0
 45
0.0
 49
-6.5
 74
     4
 75
     0
340
0
 46
0.0
 50
0.0
 44
0.0
 45
0.0
 49
6.5
 74
     4
 75
     0
340
0
 46
0.0
 50
0.0
 44
0.0
 45
0.0
 49
-6.5
 74
     4
 75
     0
340
0
 46
0.0
 50
0.0
 44
0.0
 45
0.0
 49
6.5
 74
     4
 75
     0
340
0
 46
0.0
 50
0.0
 44
0.0
 45
0.0
 49
-6.5
 74
     4
 75
     0
340
0
 46
0.0
 50
0.0
 44
0.0
 45
0.0
  0
LTYPE
  5
362
330
5
100
AcDbSymbolTableRecord
100
AcDbLinetypeTableRecord
  2
CENTER2
 70
     0
  3
Center (.5x) ___ _ ___ _ ___ _ ___ _ ___ _ ___
 72
    65
 73
     4
 40
1.125
 49
0.75
 74
     0
 49
-0.125
 74
     0
 49
0.125
 74
     0
 49
-0.125
 74
     0
  0
ENDTAB
  0
TABLE
  2
LAYER
  5
2
330
0
100
AcDbSymbolTable
 70
    22
  0
LAYER
  5
10
102
{ACAD_XDICTIONARY
360
36D
102
}
330
2
100
AcDbSymbolTableRecord
100
AcDbLayerTableRecord
  2
0
 70
     0
 62
     7
  6
Continuous
370
    -3
390
F
  0
LAYER
  5
E9
102
{ACAD_XDICTIONARY
360
36F
102
}
330
2
100
AcDbSymbolTableRecord
100
AcDbLayerTableRecord
  2
95
 70
     0
 62
     7
420
 16777215
  6
Continuous
370
    -3
390
F
  0
LAYER
  5
21B
330
2
100
AcDbSymbolTableRecord
100
AcDbLayerTableRecord
  2
Defpoints
 70
     0
 62
     7
  6
Continuous
290
     0
370
    -3
390
F
  0
LAYER
  5
35F
102
{ACAD_XDICTIONARY
360
371
102
}
330
2
100
AcDbSymbolTableRecord
100
AcDbLayerTableRecord
  2
1
 70
     0
 62
     4
  6
Continuous
370
    -3
390
F
  0
LAYER
  5
360
102
{ACAD_XDICTIONARY
360
373
102
}
330
2
100
AcDbSymbolTableRecord
100
AcDbLayerTableRecord
  2
2
 70
     0
 62
     7
  6
Continuous
370
    -3
390
F
  0
LAYER
  5
361
102
{ACAD_XDICTIONARY
360
375
102
}
330
2
100
AcDbSymbolTableRecord
100
AcDbLayerTableRecord
  2
4
 70
     0
 62
     2
  6
CENTER2
370
    -3
390
F
  0
LAYER
  5
363
102
{ACAD_XDICTIONARY
360
377
102
}
330
2
100
AcDbSymbolTableRecord
100
AcDbLayerTableRecord
  2
SK1
 70
     0
 62
     4
  6
Continuous
370
    -3
390
F
  0
LAYER
  5
364
102
{ACAD_XDICTIONARY
360
379
102
}
330
2
100
AcDbSymbolTableRecord
100
AcDbLayerTableRecord
  2
SK2
 70
     0
 62
     7
  6
Continuous
370
    -3
390
F
  0
LAYER
  5
366
102
{ACAD_XDICTIONARY
360
37B
102
}
330
2
100
AcDbSymbolTableRecord
100
AcDbLayerTableRecord
  2
SK4
 70
     0
 62
     2
  6
CENTER2
370
    -3
390
F
  0
LAYER
  5
367
102
{ACAD_XDICTIONARY
360
37D
102
}
330
2
100
AcDbSymbolTableRecord
100
AcDbLayerTableRecord
  2
SK6
 70
     0
 62
     5
  6
Continuous
370
    -3
390
F
  0
LAYER
  5
368
102
{ACAD_XDICTIONARY
360
37F
102
}
330
2
100
AcDbSymbolTableRecord
100
AcDbLayerTableRecord
  2
CUT
 70
     0
 62
     1
  6
Continuous
370
    -3
390
F
  0
LAYER
  5
369
102
{ACAD_XDICTIONARY
360
381
102
}
330
2
100
AcDbSymbolTableRecord
100
AcDbLayerTableRecord
  2
NOCUT
 70
     0
 62
     7
  6
Continuous
370
    -3
390
F
  0
LAYER
  5
36A
102
{ACAD_XDICTIONARY
360
383
102
}
330
2
100
AcDbSymbolTableRecord
100
AcDbLayerTableRecord
  2
80
 70
     0
 62
     6
  6
Continuous
370
    -3
390
F
  0
LAYER
  5
36B
102
{ACAD_XDICTIONARY
360
385
102
}
330
2
100
AcDbSymbolTableRecord
100
AcDbLayerTableRecord
  2
81
 70
     0
 62
     3
  6
Continuous
370
    -3
390
F
  0
ENDTAB
  0
TABLE
  2
STYLE
  5
3
330
0
100
AcDbSymbolTable
 70
     3
  0
STYLE
  5
11
330
3
100
AcDbSymbolTableRecord
100
AcDbTextStyleTableRecord
  2
Standard
 70
     0
 40
0.0
 41
1.0
 50
0.0
 71
     0
 42
0.2
  3
txt
  4

  0
STYLE
  5
20F
330
3
100
AcDbSymbolTableRecord
100
AcDbTextStyleTableRecord
  2
cesky
 70
     0
 40
0.0
 41
1.0
 50
0.0
 71
     0
 42
0.2
  3
simplex.shx
  4

  0
STYLE
  5
210
330
3
100
AcDbSymbolTableRecord
100
AcDbTextStyleTableRecord
  2
DWGDirectTextStyle
 70
     0
 40
0.0
 41
1.0
 50
0.0
 71
     0
 42
0.2
  3
simplex
  4

  0
ENDTAB
  0
TABLE
  2
VIEW
  5
6
330
0
100
AcDbSymbolTable
 70
     0
  0
ENDTAB
  0
TABLE
  2
UCS
  5
7
330
0
100
AcDbSymbolTable
 70
     0
  0
ENDTAB
  0
TABLE
  2
APPID
  5
9
330
0
100
AcDbSymbolTable
 70
     7
  0
APPID
  5
12
330
9
100
AcDbSymbolTableRecord
100
AcDbRegAppTableRecord
  2
ACAD
 70
     0
  0
APPID
  5
217
330
9
100
AcDbSymbolTableRecord
100
AcDbRegAppTableRecord
  2
ACAD_DSTYLE_DIMBREAK
 70
     0
  0
APPID
  5
2D0
330
9
100
AcDbSymbolTableRecord
100
AcDbRegAppTableRecord
  2
ACAD_DSTYLE_DIM_LINETYPE
 70
     0
  0
APPID
  5
2D1
330
9
100
AcDbSymbolTableRecord
100
AcDbRegAppTableRecord
  2
ACAD_DSTYLE_DIM_EXT1_LINETYPE
 70
     0
  0
APPID
  5
2D2
330
9
100
AcDbSymbolTableRecord
100
AcDbRegAppTableRecord
  2
ACAD_DSTYLE_DIM_EXT2_LINETYPE
 70
     0
  0
APPID
  5
312
330
9
100
AcDbSymbolTableRecord
100
AcDbRegAppTableRecord
  2
ACAD_MLEADERVER
 70
     0
  0
APPID
  5
38A
330
9
100
AcDbSymbolTableRecord
100
AcDbRegAppTableRecord
  2
ACAD_NAV_VCDISPLAY
 70
     0
  0
ENDTAB
  0
TABLE
  2
DIMSTYLE
  5
A
330
0
100
AcDbSymbolTable
 70
     1
100
AcDbDimStyleTable
 71
     0
  0
DIMSTYLE
105
27
330
A
100
AcDbSymbolTableRecord
100
AcDbDimStyleTableRecord
  2
Standard
 70
     0
340
11
1001
ACAD_DSTYLE_DIMBREAK
1070
   391
1040
6.349999999999999
  0
ENDTAB
  0
TABLE
  2
BLOCK_RECORD
  5
1
330
0
100
AcDbSymbolTable
 70
    16
  0
BLOCK_RECORD
  5
1F
102
{ACAD_XDICTIONARY
360
322
102
}
330
1
100
AcDbSymbolTableRecord
100
AcDbBlockTableRecord
  2
*Model_Space
340
22
  0
BLOCK_RECORD
  5
1B
330
1
100
AcDbSymbolTableRecord
100
AcDbBlockTableRecord
  2
*Paper_Space
340
1E
  0
BLOCK_RECORD
  5
23
330
1
100
AcDbSymbolTableRecord
100
AcDbBlockTableRecord
  2
*Paper_Space0
340
26
  0
BLOCK_RECORD
  5
212
330
1
100
AcDbSymbolTableRecord
100
AcDbBlockTableRecord
  2
ASSORTED_DRAFT1
340
0
  0
BLOCK_RECORD
  5
21C
330
1
100
AcDbSymbolTableRecord
100
AcDbBlockTableRecord
  2
*D2
340
0
  0
BLOCK_RECORD
  5
228
330
1
100
AcDbSymbolTableRecord
100
AcDbBlockTableRecord
  2
_U0
340
0
  0
BLOCK_RECORD
  5
234
330
1
100
AcDbSymbolTableRecord
100
AcDbBlockTableRecord
  2
*D4
340
0
  0
BLOCK_RECORD
  5
23F
330
1
100
AcDbSymbolTableRecord
100
AcDbBlockTableRecord
  2
_U1
340
0
  0
BLOCK_RECORD
  5
24A
330
1
100
AcDbSymbolTableRecord
100
AcDbBlockTableRecord
  2
*D6
340
0
  0
BLOCK_RECORD
  5
256
330
1
100
AcDbSymbolTableRecord
100
AcDbBlockTableRecord
  2
_U2
340
0
  0
BLOCK_RECORD
  5
263
330
1
100
AcDbSymbolTableRecord
100
AcDbBlockTableRecord
  2
*D8
340
0
  0
BLOCK_RECORD
  5
26F
330
1
100
AcDbSymbolTableRecord
100
AcDbBlockTableRecord
  2
_U3
340
0
  0
BLOCK_RECORD
  5
27C
330
1
100
AcDbSymbolTableRecord
100
AcDbBlockTableRecord
  2
*D10
340
0
  0
BLOCK_RECORD
  5
288
330
1
100
AcDbSymbolTableRecord
100
AcDbBlockTableRecord
  2
_U4
340
0
  0
BLOCK_RECORD
  5
294
330
1
100
AcDbSymbolTableRecord
100
AcDbBlockTableRecord
  2
*D12
340
0
  0
BLOCK_RECORD
  5
2A0
330
1
100
AcDbSymbolTableRecord
100
AcDbBlockTableRecord
  2
_U5
340
0
  0
BLOCK_RECORD
  5
2AC
330
1
100
AcDbSymbolTableRecord
100
AcDbBlockTableRecord
  2
*D14
340
0
  0
BLOCK_RECORD
  5
2B8
330
1
100
AcDbSymbolTableRecord
100
AcDbBlockTableRecord
  2
_U6
340
0
  0
ENDTAB
  0
ENDSEC
  0
SECTION
  2
BLOCKS
  0
BLOCK
  5
20
330
1F
100
AcDbEntity
  8
0
100
AcDbBlockBegin
  2
*Model_Space
 70
     0
 10
0.0
 20
0.0
 30
0.0
  3
*Model_Space
  1

  0
ENDBLK
  5
21
330
1F
100
AcDbEntity
  8
0
100
AcDbBlockEnd
  0
BLOCK
  5
1C
330
1B
100
AcDbEntity
 67
     1
  8
0
100
AcDbBlockBegin
  2
*Paper_Space
 70
     0
 10
0.0
 20
0.0
 30
0.0
  3
*Paper_Space
  1

  0
ENDBLK
  5
1D
330
1B
100
AcDbEntity
 67
     1
  8
0
100
AcDbBlockEnd
  0
BLOCK
  5
24
330
23
100
AcDbEntity
 67
     1
  8
0
100
AcDbBlockBegin
  2
*Paper_Space0
 70
     0
 10
0.0
 20
0.0
 30
0.0
  3
*Paper_Space0
  1

  0
ENDBLK
  5
25
330
23
100
AcDbEntity
 67
     1
  8
0
100
AcDbBlockEnd
  0
BLOCK
  5
215
330
212
100
AcDbEntity
  8
0
100
AcDbBlockBegin
  2
ASSORTED_DRAFT1
 70
     0
 10
0.0
 20
0.0
 30
0.0
  3
ASSORTED_DRAFT1
  1

  0
SOLID
  5
213
330
212
100
AcDbEntity
  8
0
 62
   254
370
    13
100
AcDbTrace
 10
270.185042
 20
168.534924
 30
0.0
 11
265.185046
 21
167.42645
 31
0.0
 12
265.1850379999999
 22
169.643397
 32
0.0
 13
270.185042
 23
168.534924
 33
0.0
  0
ENDBLK
  5
216
330
212
100
AcDbEntity
  8
0
100
AcDbBlockEnd
  0
BLOCK
  5
21D
330
21C
100
AcDbEntity
  8
0
100
AcDbBlockBegin
  2
*D2
 70
     1
 10
0.0
 20
0.0
 30
0.0
  3
*D2
  1

  0
LINE
  5
21F
330
21C
100
AcDbEntity
  8
0
 62
   254
370
    -2
100
AcDbLine
 10
451.804842
 20
307.957994
 30
0.0
 11
451.804842
 21
331.120893
 31
0.0
  0
LINE
  5
220
330
21C
100
AcDbEntity
  8
0
 62
   254
370
    -2
100
AcDbLine
 10
274.404842
 20
288.907994
 30
0.0
 11
274.404842
 21
331.120893
 31
0.0
  0
LINE
  5
221
330
21C
100
AcDbEntity
  8
0
 62
   254
370
    -2
100
AcDbLine
 10
448.304842
 20
330.120893
 30
0.0
 11
277.904842
 21
330.120893
 31
0.0
  0
SOLID
  5
222
330
21C
100
AcDbEntity
  8
0
 62
   254
100
AcDbTrace
 10
448.304842
 20
329.53756
 30
0.0
 11
448.304842
 21
330.704227
 31
0.0
 12
451.804842
 22
330.120893
 32
0.0
 13
451.804842
 23
330.120893
 33
0.0
  0
SOLID
  5
223
330
21C
100
AcDbEntity
  8
0
 62
   254
100
AcDbTrace
 10
277.904842
 20
330.704227
 30
0.0
 11
277.904842
 21
329.53756
 31
0.0
 12
274.404842
 22
330.120893
 32
0.0
 13
274.404842
 23
330.120893
 33
0.0
  0
MTEXT
  5
224
330
21C
100
AcDbEntity
  8
0
 62
   254
370
    13
100
AcDbMText
 10
363.104842
 20
335.370893
 30
0.0
 40
3.5
 41
0.0
 71
     5
 72
     1
  1
\A1;177.4
  7
cesky
 73
     1
 44
1.0
  0
POINT
  5
225
330
21C
100
AcDbEntity
  8
Defpoints
 62
     0
100
AcDbPoint
 10
451.804842
 20
307.957994
 30
0.0
  0
POINT
  5
226
330
21C
100
AcDbEntity
  8
Defpoints
 62
     0
100
AcDbPoint
 10
274.404842
 20
288.907994
 30
0.0
  0
POINT
  5
227
330
21C
100
AcDbEntity
  8
Defpoints
 62
     0
100
AcDbPoint
 10
274.404842
 20
330.120893
 30
0.0
  0
ENDBLK
  5
21E
330
21C
100
AcDbEntity
  8
0
100
AcDbBlockEnd
  0
BLOCK
  5
22F
330
228
100
AcDbEntity
  8
0
100
AcDbBlockBegin
  2
_U0
 70
     0
 10
0.0
 20
0.0
 30
0.0
  3
_U0
  1

  0
ENDBLK
  5
230
330
228
100
AcDbEntity
  8
0
100
AcDbBlockEnd
  0
BLOCK
  5
235
330
234
100
AcDbEntity
  8
0
100
AcDbBlockBegin
  2
*D4
 70
     1
 10
0.0
 20
0.0
 30
0.0
  3
*D4
  1

  0
LINE
  5
237
330
234
100
AcDbEntity
  8
0
 62
   254
370
    -2
100
AcDbLine
 10
292.482259
 20
288.907994
 30
0.0
 11
469.192844
 21
288.907994
 31
0.0
  0
LINE
  5
238
330
234
100
AcDbEntity
  8
0
 62
   254
370
    -2
100
AcDbLine
 10
330.83929
 20
307.957994
 30
0.0
 11
469.192844
 21
307.957994
 31
0.0
  0
LINE
  5
239
330
234
100
AcDbEntity
  8
0
 62
   254
370
    -2
100
AcDbLine
 10
468.192844
 20
288.907994
 30
0.0
 11
468.192844
 21
307.957994
 31
0.0
  0
SOLID
  5
23A
330
234
100
AcDbEntity
  8
0
 62
   254
100
AcDbTrace
 10
468.776178
 20
304.457994
 30
0.0
 11
467.609511
 21
304.457994
 31
0.0
 12
468.192844
 22
307.957994
 32
0.0
 13
468.192844
 23
307.957994
 33
0.0
  0
MTEXT
  5
23B
330
234
100
AcDbEntity
  8
0
 62
   254
370
    13
100
AcDbMText
 10
462.942844
 20
277.32466
 30
0.0
 40
3.5
 41
0.0
 71
     5
 72
     1
  1
\A1;38.1
  7
cesky
 11
0.0
 21
1.0
 31
0.0
 73
     1
 44
1.0
  0
POINT
  5
23C
330
234
100
AcDbEntity
  8
Defpoints
 62
     0
100
AcDbPoint
 10
292.482259
 20
288.907994
 30
0.0
  0
POINT
  5
23D
330
234
100
AcDbEntity
  8
Defpoints
 62
     0
100
AcDbPoint
 10
330.83929
 20
307.957994
 30
0.0
  0
POINT
  5
23E
330
234
100
AcDbEntity
  8
Defpoints
 62
     0
100
AcDbPoint
 10
468.192844
 20
307.957994
 30
0.0
  0
ENDBLK
  5
236
330
234
100
AcDbEntity
  8
0
100
AcDbBlockEnd
  0
BLOCK
  5
245
330
23F
100
AcDbEntity
  8
0
100
AcDbBlockBegin
  2
_U1
 70
     0
 10
0.0
 20
0.0
 30
0.0
  3
_U1
  1

  0
ENDBLK
  5
246
330
23F
100
AcDbEntity
  8
0
100
AcDbBlockEnd
  0
BLOCK
  5
24B
330
24A
100
AcDbEntity
  8
0
100
AcDbBlockBegin
  2
*D6
 70
     1
 10
0.0
 20
0.0
 30
0.0
  3
*D6
  1

  0
LINE
  5
24D
330
24A
100
AcDbEntity
  8
0
 62
    95
370
    -2
100
AcDbLine
 10
209.004842
 20
307.957994
 30
0.0
 11
192.833766
 21
307.957994
 31
0.0
  0
LINE
  5
24E
330
24A
100
AcDbEntity
  8
0
 62
    95
370
    -2
100
AcDbLine
 10
209.004842
 20
269.857994
 30
0.0
 11
192.833766
 21
269.857994
 31
0.0
  0
LINE
  5
24F
330
24A
100
AcDbEntity
  8
0
 62
    95
370
    -2
100
AcDbLine
 10
193.833766
 20
304.457994
 30
0.0
 11
193.833766
 21
273.357994
 31
0.0
  0
SOLID
  5
250
330
24A
100
AcDbEntity
  8
0
 62
    95
100
AcDbTrace
 10
194.417099
 20
304.457994
 30
0.0
 11
193.250432
 21
304.457994
 31
0.0
 12
193.833766
 22
307.957994
 32
0.0
 13
193.833766
 23
307.957994
 33
0.0
  0
SOLID
  5
251
330
24A
100
AcDbEntity
  8
0
 62
    95
100
AcDbTrace
 10
193.250432
 20
273.357994
 30
0.0
 11
194.417099
 21
273.357994
 31
0.0
 12
193.833766
 22
269.857994
 32
0.0
 13
193.833766
 23
269.857994
 33
0.0
  0
MTEXT
  5
252
330
24A
100
AcDbEntity
  8
0
 62
    95
370
    13
100
AcDbMText
 10
188.583766
 20
288.907994
 30
0.0
 40
3.5
 41
0.0
 71
     5
 72
     1
  1
\A1;38.1
  7
cesky
 11
0.0
 21
1.0
 31
0.0
 73
     1
 44
1.0
  0
POINT
  5
253
330
24A
100
AcDbEntity
  8
Defpoints
 62
     0
100
AcDbPoint
 10
209.004842
 20
307.957994
 30
0.0
  0
POINT
  5
254
330
24A
100
AcDbEntity
  8
Defpoints
 62
     0
100
AcDbPoint
 10
209.004842
 20
269.857994
 30
0.0
  0
POINT
  5
255
330
24A
100
AcDbEntity
  8
Defpoints
 62
     0
100
AcDbPoint
 10
193.833766
 20
269.857994
 30
0.0
  0
ENDBLK
  5
24C
330
24A
100
AcDbEntity
  8
0
100
AcDbBlockEnd
  0
BLOCK
  5
25E
330
256
100
AcDbEntity
  8
0
100
AcDbBlockBegin
  2
_U2
 70
     0
 10
0.0
 20
0.0
 30
0.0
  3
_U2
  1

  0
ENDBLK
  5
25F
330
256
100
AcDbEntity
  8
0
100
AcDbBlockEnd
  0
BLOCK
  5
264
330
263
100
AcDbEntity
  8
0
100
AcDbBlockBegin
  2
*D8
 70
     1
 10
0.0
 20
0.0
 30
0.0
  3
*D8
  1

  0
LINE
  5
266
330
263
100
AcDbEntity
  8
0
 62
    95
370
    -2
100
AcDbLine
 10
277.154842
 20
313.907994
 30
0.0
 11
179.948543
 21
313.907994
 31
0.0
  0
LINE
  5
267
330
263
100
AcDbEntity
  8
0
 62
    95
370
    -2
100
AcDbLine
 10
277.154842
 20
263.907994
 30
0.0
 11
179.948543
 21
263.907994
 31
0.0
  0
LINE
  5
268
330
263
100
AcDbEntity
  8
0
 62
    95
370
    -2
100
AcDbLine
 10
180.948543
 20
310.407994
 30
0.0
 11
180.948543
 21
267.407994
 31
0.0
  0
SOLID
  5
269
330
263
100
AcDbEntity
  8
0
 62
    95
100
AcDbTrace
 10
181.531877
 20
310.407994
 30
0.0
 11
180.36521
 21
310.407994
 31
0.0
 12
180.948543
 22
313.907994
 32
0.0
 13
180.948543
 23
313.907994
 33
0.0
  0
SOLID
  5
26A
330
263
100
AcDbEntity
  8
0
 62
    95
100
AcDbTrace
 10
180.36521
 20
267.407994
 30
0.0
 11
181.531877
 21
267.407994
 31
0.0
 12
180.948543
 22
263.907994
 32
0.0
 13
180.948543
 23
263.907994
 33
0.0
  0
MTEXT
  5
26B
330
263
100
AcDbEntity
  8
0
 62
    95
370
    13
100
AcDbMText
 10
175.698543
 20
288.907994
 30
0.0
 40
3.5
 41
0.0
 71
     5
 72
     1
  1
\A1;50
  7
cesky
 11
0.0
 21
1.0
 31
0.0
 73
     1
 44
1.0
  0
POINT
  5
26C
330
263
100
AcDbEntity
  8
Defpoints
 62
     0
100
AcDbPoint
 10
277.154842
 20
313.907994
 30
0.0
  0
POINT
  5
26D
330
263
100
AcDbEntity
  8
Defpoints
 62
     0
100
AcDbPoint
 10
277.154842
 20
263.907994
 30
0.0
  0
POINT
  5
26E
330
263
100
AcDbEntity
  8
Defpoints
 62
     0
100
AcDbPoint
 10
180.948543
 20
263.907994
 30
0.0
  0
ENDBLK
  5
265
330
263
100
AcDbEntity
  8
0
100
AcDbBlockEnd
  0
BLOCK
  5
277
330
26F
100
AcDbEntity
  8
0
100
AcDbBlockBegin
  2
_U3
 70
     0
 10
0.0
 20
0.0
 30
0.0
  3
_U3
  1

  0
ENDBLK
  5
278
330
26F
100
AcDbEntity
  8
0
100
AcDbBlockEnd
  0
BLOCK
  5
27D
330
27C
100
AcDbEntity
  8
0
100
AcDbBlockBegin
  2
*D10
 70
     1
 10
0.0
 20
0.0
 30
0.0
  3
*D10
  1

  0
LINE
  5
27F
330
27C
100
AcDbEntity
  8
0
 62
   254
370
    -2
100
AcDbLine
 10
451.804842
 20
309.957994
 30
0.0
 11
451.804842
 21
344.81834
 31
0.0
  0
LINE
  5
280
330
27C
100
AcDbEntity
  8
0
 62
   254
370
    -2
100
AcDbLine
 10
207.404842
 20
306.357994
 30
0.0
 11
207.404842
 21
344.81834
 31
0.0
  0
LINE
  5
281
330
27C
100
AcDbEntity
  8
0
 62
   254
370
    -2
100
AcDbLine
 10
448.304842
 20
343.81834
 30
0.0
 11
210.904842
 21
343.81834
 31
0.0
  0
SOLID
  5
282
330
27C
100
AcDbEntity
  8
0
 62
   254
100
AcDbTrace
 10
448.304842
 20
343.235007
 30
0.0
 11
448.304842
 21
344.401674
 31
0.0
 12
451.804842
 22
343.81834
 32
0.0
 13
451.804842
 23
343.81834
 33
0.0
  0
SOLID
  5
283
330
27C
100
AcDbEntity
  8
0
 62
   254
100
AcDbTrace
 10
210.904842
 20
344.401674
 30
0.0
 11
210.904842
 21
343.235007
 31
0.0
 12
207.404842
 22
343.81834
 32
0.0
 13
207.404842
 23
343.81834
 33
0.0
  0
MTEXT
  5
284
330
27C
100
AcDbEntity
  8
0
 62
   254
370
    13
100
AcDbMText
 10
329.604842
 20
349.06834
 30
0.0
 40
3.5
 41
0.0
 71
     5
 72
     1
  1
\A1;244.4
  7
cesky
 73
     1
 44
1.0
  0
POINT
  5
285
330
27C
100
AcDbEntity
  8
Defpoints
 62
     0
100
AcDbPoint
 10
451.804842
 20
309.957994
 30
0.0
  0
POINT
  5
286
330
27C
100
AcDbEntity
  8
Defpoints
 62
     0
100
AcDbPoint
 10
207.404842
 20
306.357994
 30
0.0
  0
POINT
  5
287
330
27C
100
AcDbEntity
  8
Defpoints
 62
     0
100
AcDbPoint
 10
207.404842
 20
343.81834
 30
0.0
  0
ENDBLK
  5
27E
330
27C
100
AcDbEntity
  8
0
100
AcDbBlockEnd
  0
BLOCK
  5
28F
330
288
100
AcDbEntity
  8
0
100
AcDbBlockBegin
  2
_U4
 70
     0
 10
0.0
 20
0.0
 30
0.0
  3
_U4
  1

  0
ENDBLK
  5
290
330
288
100
AcDbEntity
  8
0
100
AcDbBlockEnd
  0
BLOCK
  5
295
330
294
100
AcDbEntity
  8
0
100
AcDbBlockBegin
  2
*D12
 70
     1
 10
0.0
 20
0.0
 30
0.0
  3
*D12
  1

  0
LINE
  5
297
330
294
100
AcDbEntity
  8
0
 62
   254
370
    -2
100
AcDbLine
 10
274.404842
 20
288.907994
 30
0.0
 11
274.404842
 21
331.120893
 31
0.0
  0
LINE
  5
298
330
294
100
AcDbEntity
  8
0
 62
   254
370
    -2
100
AcDbLine
 10
207.404842
 20
297.632994
 30
0.0
 11
207.404842
 21
331.120893
 31
0.0
  0
LINE
  5
299
330
294
100
AcDbEntity
  8
0
 62
   254
370
    -2
100
AcDbLine
 10
270.904842
 20
330.120893
 30
0.0
 11
210.904842
 21
330.120893
 31
0.0
  0
SOLID
  5
29A
330
294
100
AcDbEntity
  8
0
 62
   254
100
AcDbTrace
 10
270.904842
 20
329.53756
 30
0.0
 11
270.904842
 21
330.704227
 31
0.0
 12
274.404842
 22
330.120893
 32
0.0
 13
274.404842
 23
330.120893
 33
0.0
  0
SOLID
  5
29B
330
294
100
AcDbEntity
  8
0
 62
   254
100
AcDbTrace
 10
210.904842
 20
330.704227
 30
0.0
 11
210.904842
 21
329.53756
 31
0.0
 12
207.404842
 22
330.120893
 32
0.0
 13
207.404842
 23
330.120893
 33
0.0
  0
MTEXT
  5
29C
330
294
100
AcDbEntity
  8
0
 62
   254
370
    13
100
AcDbMText
 10
240.904842
 20
335.370893
 30
0.0
 40
3.5
 41
0.0
 71
     5
 72
     1
  1
\A1;67
  7
cesky
 73
     1
 44
1.0
  0
POINT
  5
29D
330
294
100
AcDbEntity
  8
Defpoints
 62
     0
100
AcDbPoint
 10
274.404842
 20
288.907994
 30
0.0
  0
POINT
  5
29E
330
294
100
AcDbEntity
  8
Defpoints
 62
     0
100
AcDbPoint
 10
207.404842
 20
297.632994
 30
0.0
  0
POINT
  5
29F
330
294
100
AcDbEntity
  8
Defpoints
 62
     0
100
AcDbPoint
 10
207.404842
 20
330.120893
 30
0.0
  0
ENDBLK
  5
296
330
294
100
AcDbEntity
  8
0
100
AcDbBlockEnd
  0
BLOCK
  5
2A7
330
2A0
100
AcDbEntity
  8
0
100
AcDbBlockBegin
  2
_U5
 70
     0
 10
0.0
 20
0.0
 30
0.0
  3
_U5
  1

  0
ENDBLK
  5
2A8
330
2A0
100
AcDbEntity
  8
0
100
AcDbBlockEnd
  0
BLOCK
  5
2AD
330
2AC
100
AcDbEntity
  8
0
100
AcDbBlockBegin
  2
*D14
 70
     1
 10
0.0
 20
0.0
 30
0.0
  3
*D14
  1

  0
LINE
  5
2AF
330
2AC
100
AcDbEntity
  8
0
 62
   254
370
    -2
100
AcDbLine
 10
451.804842
 20
307.957994
 30
0.0
 11
451.804842
 21
317.733995
 31
0.0
  0
LINE
  5
2B0
330
2AC
100
AcDbEntity
  8
0
 62
   254
370
    -2
100
AcDbLine
 10
292.876289
 20
308.010735
 30
0.0
 11
292.876289
 21
317.733995
 31
0.0
  0
LINE
  5
2B1
330
2AC
100
AcDbEntity
  8
0
 62
   254
370
    -2
100
AcDbLine
 10
448.304842
 20
316.733995
 30
0.0
 11
296.376289
 21
316.733995
 31
0.0
  0
SOLID
  5
2B2
330
2AC
100
AcDbEntity
  8
0
 62
   254
100
AcDbTrace
 10
448.304842
 20
316.150662
 30
0.0
 11
448.304842
 21
317.317328
 31
0.0
 12
451.804842
 22
316.733995
 32
0.0
 13
451.804842
 23
316.733995
 33
0.0
  0
SOLID
  5
2B3
330
2AC
100
AcDbEntity
  8
0
 62
   254
100
AcDbTrace
 10
296.376289
 20
317.317328
 30
0.0
 11
296.376289
 21
316.150662
 31
0.0
 12
292.876289
 22
316.733995
 32
0.0
 13
292.876289
 23
316.733995
 33
0.0
  0
MTEXT
  5
2B4
330
2AC
100
AcDbEntity
  8
0
 62
   254
370
    13
100
AcDbMText
 10
372.340566
 20
321.983995
 30
0.0
 40
3.5
 41
0.0
 71
     5
 72
     1
  1
\A1;158.9
  7
cesky
 73
     1
 44
1.0
  0
POINT
  5
2B5
330
2AC
100
AcDbEntity
  8
Defpoints
 62
     0
100
AcDbPoint
 10
451.804842
 20
307.957994
 30
0.0
  0
POINT
  5
2B6
330
2AC
100
AcDbEntity
  8
Defpoints
 62
     0
100
AcDbPoint
 10
292.876289
 20
308.010735
 30
0.0
  0
POINT
  5
2B7
330
2AC
100
AcDbEntity
  8
Defpoints
 62
     0
100
AcDbPoint
 10
292.876289
 20
316.733995
 30
0.0
  0
ENDBLK
  5
2AE
330
2AC
100
AcDbEntity
  8
0
100
AcDbBlockEnd
  0
BLOCK
  5
2BF
330
2B8
100
AcDbEntity
  8
0
100
AcDbBlockBegin
  2
_U6
 70
     0
 10
0.0
 20
0.0
 30
0.0
  3
_U6
  1

  0
ENDBLK
  5
2C0
330
2B8
100
AcDbEntity
  8
0
100
AcDbBlockEnd
  0
ENDSEC
  0
SECTION
  2
ENTITIES
  0
POINT
  5
73
102
{ACAD_REACTORS
330
36C
102
}
330
1F
100
AcDbEntity
  8
80
100
AcDbPoint
 10
274.404842
 20
288.907994
 30
0.0
  0
POINT
  5
76
330
1F
100
AcDbEntity
  8
4
 60
     1
100
AcDbPoint
 10
292.482259
 20
288.907994
 30
0.0
  0
POINT
  5
78
330
1F
100
AcDbEntity
  8
4
 60
     1
100
AcDbPoint
 10
450.784748
 20
288.907994
 30
0.0
  0
POINT
  5
79
330
1F
100
AcDbEntity
  8
SK4
 60
     1
100
AcDbPoint
 10
209.004842
 20
288.907994
 30
0.0
  0
POINT
  5
7A
330
1F
100
AcDbEntity
  8
SK4
 60
     1
100
AcDbPoint
 10
274.404842
 20
288.907994
 30
0.0
  0
POINT
  5
7B
330
1F
100
AcDbEntity
  8
SK6
 60
     1
100
AcDbPoint
 10
274.404842
 20
288.907994
 30
0.0
  0
POINT
  5
7C
330
1F
100
AcDbEntity
  8
SK6
 60
     1
100
AcDbPoint
 10
292.876289
 20
308.010735
 30
0.0
  0
LINE
  5
7D
330
1F
100
AcDbEntity
  8
1
100
AcDbLine
 10
436.0941829999999
 20
294.295657
 30
0.0
 11
436.12287
 21
293.457216
 31
0.0
  0
LINE
  5
7F
330
1F
100
AcDbEntity
  8
1
100
AcDbLine
 10
436.1905179999999
 20
291.479998
 30
0.0
 11
436.223764
 21
290.50831
 31
0.0
  0
LINE
  5
80
330
1F
100
AcDbEntity
  8
1
100
AcDbLine
 10
292.482259
 20
270.357994
 30
0.0
 11
301.445505
 21
270.357994
 31
0.0
  0
LINE
  5
81
330
1F
100
AcDbEntity
  8
1
100
AcDbLine
 10
438.1951299999999
 20
307.457994
 30
0.0
 11
427.850808
 21
307.457994
 31
0.0
  0
LINE
  5
82
330
1F
100
AcDbEntity
  8
1
100
AcDbLine
 10
304.315659
 20
307.457994
 30
0.0
 11
292.482259
 21
307.457994
 31
0.0
  0
LINE
  5
83
330
1F
100
AcDbEntity
  8
1
100
AcDbLine
 10
440.295842
 20
291.317605
 30
0.0
 11
440.295842
 21
291.321116
 31
0.0
  0
LINE
  5
84
330
1F
100
AcDbEntity
  8
1
100
AcDbLine
 10
449.767048
 20
280.178237
 30
0.0
 11
449.939934
 21
280.274069
 31
0.0
  0
LINE
  5
86
330
1F
100
AcDbEntity
  8
1
100
AcDbLine
 10
443.0117519999999
 20
301.962209
 30
0.0
 11
442.977925
 21
301.866305
 31
0.0
  0
LINE
  5
88
330
1F
100
AcDbEntity
  8
1
100
AcDbLine
 10
443.0768829999999
 20
301.902569
 30
0.0
 11
443.0425059999999
 21
301.805106
 31
0.0
  0
LINE
  5
89
330
1F
100
AcDbEntity
  8
1
100
AcDbLine
 10
445.832899
 20
301.16044
 30
0.0
 11
445.867291
 21
301.257945
 31
0.0
  0
LINE
  5
8A
330
1F
100
AcDbEntity
  8
1
100
AcDbLine
 10
443.12569
 20
300.420258
 30
0.0
 11
443.0913669999999
 21
300.322949
 31
0.0
  0
LINE
  5
8B
330
1F
100
AcDbEntity
  8
1
100
AcDbLine
 10
443.0823779999999
 20
300.399697
 30
0.0
 11
443.0483559999999
 21
300.303238
 31
0.0
  0
LINE
  5
8C
330
1F
100
AcDbEntity
  8
1
100
AcDbLine
 10
445.1413940000001
 20
299.8515339999999
 30
0.0
 11
445.1757299999999
 21
299.948883
 31
0.0
  0
LINE
  5
8D
330
1F
100
AcDbEntity
  8
1
100
AcDbLine
 10
445.1789650000001
 20
299.808581
 30
0.0
 11
445.21294
 21
299.904904
 31
0.0
  0
LINE
  5
8E
330
1F
100
AcDbEntity
  8
1
100
AcDbLine
 10
451.0826579999999
 20
289.337775
 30
0.0
 11
450.5907579999999
 21
288.862752
 31
0.0
  0
LINE
  5
8F
330
1F
100
AcDbEntity
  8
1
100
AcDbLine
 10
450.108098
 20
288.396653
 30
0.0
 11
450.5907579999999
 21
288.862752
 31
0.0
  0
LINE
  5
90
330
1F
100
AcDbEntity
  8
1
100
AcDbLine
 10
451.788062
 20
288.06519
 30
0.0
 11
451.124553
 21
287.8997589999999
 31
0.0
  0
LINE
  5
91
330
1F
100
AcDbEntity
  8
1
100
AcDbLine
 10
450.4735079999999
 20
287.737435
 30
0.0
 11
451.124553
 21
287.8997589999999
 31
0.0
  0
LINE
  5
92
330
1F
100
AcDbEntity
  8
1
100
AcDbLine
 10
450.99984
 20
280.754907
 30
0.0
 11
450.3548559999999
 21
280.939853
 31
0.0
  0
LINE
  5
93
330
1F
100
AcDbEntity
  8
1
100
AcDbLine
 10
450.99984
 20
280.754907
 30
0.0
 11
451.664067
 21
280.564443
 31
0.0
  0
LINE
  5
94
330
1F
100
AcDbEntity
  8
1
100
AcDbLine
 10
449.966662
 20
280.293789
 30
0.0
 11
450.432761
 21
279.81113
 31
0.0
  0
LINE
  5
95
330
1F
100
AcDbEntity
  8
1
100
AcDbLine
 10
450.9077829999999
 20
279.31923
 30
0.0
 11
450.432761
 21
279.81113
 31
0.0
  0
LINE
  5
96
330
1F
100
AcDbEntity
  8
1
100
AcDbLine
 10
432.955161
 20
295.616042
 30
0.0
 11
430.508899
 21
297.0261759999999
 31
0.0
  0
LINE
  5
97
330
1F
100
AcDbEntity
  8
1
100
AcDbLine
 10
436.2395349999999
 20
294.259701
 30
0.0
 11
436.2429
 21
294.269241
 31
0.0
  0
LINE
  5
98
330
1F
100
AcDbEntity
  8
1
100
AcDbLine
 10
448.914949
 20
294.261169
 30
0.0
 11
439.6852389999999
 21
293.939196
 31
0.0
  0
LINE
  5
99
330
1F
100
AcDbEntity
  8
1
100
AcDbLine
 10
285.854842
 20
307.395089
 30
0.0
 11
285.854842
 21
285.34901
 31
0.0
  0
LINE
  5
9A
330
1F
100
AcDbEntity
  8
1
100
AcDbLine
 10
440.984867
 20
302.385312
 30
0.0
 11
440.984759
 21
302.385004
 31
0.0
  0
LINE
  5
9B
330
1F
100
AcDbEntity
  8
1
100
AcDbLine
 10
450.676191
 20
307.110812
 30
0.0
 11
451.074777
 21
295.984227
 31
0.0
  0
LINE
  5
9C
330
1F
100
AcDbEntity
  8
1
100
AcDbLine
 10
438.734364
 20
307.470272
 30
0.0
 11
449.8725429999999
 21
307.858821
 31
0.0
  0
LINE
  5
9D
330
1F
100
AcDbEntity
  8
1
100
AcDbLine
 10
438.384832
 20
295.541545
 30
0.0
 11
437.986246
 21
306.668131
 31
0.0
  0
LINE
  5
9E
330
1F
100
AcDbEntity
  8
1
100
AcDbLine
 10
450.3266589999999
 20
295.182085
 30
0.0
 11
439.1884799999999
 21
294.793536
 31
0.0
  0
LINE
  5
9F
330
1F
100
AcDbEntity
  8
1
100
AcDbLine
 10
440.190848
 20
296.665847
 30
0.0
 11
439.8690329999999
 21
305.64936
 31
0.0
  0
LINE
  5
A0
330
1F
100
AcDbEntity
  8
1
100
AcDbLine
 10
449.1837219999999
 20
296.979558
 30
0.0
 11
440.190848
 21
296.665847
 31
0.0
  0
LINE
  5
A1
330
1F
100
AcDbEntity
  8
1
100
AcDbLine
 10
448.861908
 20
305.963071
 30
0.0
 11
449.1837219999999
 21
296.979558
 31
0.0
  0
LINE
  5
A2
330
1F
100
AcDbEntity
  8
1
100
AcDbLine
 10
439.8690329999999
 20
305.64936
 30
0.0
 11
448.861908
 21
305.963071
 31
0.0
  0
LINE
  5
A3
330
1F
100
AcDbEntity
  8
1
100
AcDbLine
 10
450.127819
 20
288.369925
 30
0.0
 11
450.461292
 21
287.768323
 31
0.0
  0
LINE
  5
A4
330
1F
100
AcDbEntity
  8
1
100
AcDbLine
 10
450.082861
 20
289.180902
 30
0.0
 11
450.531403
 21
288.911391
 31
0.0
  0
LINE
  5
A5
330
1F
100
AcDbEntity
  8
1
100
AcDbLine
 10
450.35972
 20
280.972711
 30
0.0
 11
450.477223
 21
287.704428
 31
0.0
  0
LINE
  5
A6
330
1F
100
AcDbEntity
  8
1
100
AcDbLine
 10
449.987303
 20
280.319813
 30
0.0
 11
450.341569
 21
280.90941
 31
0.0
  0
LINE
  5
A7
330
1F
100
AcDbEntity
  8
1
100
AcDbLine
 10
451.759382
 20
288.136592
 30
0.0
 11
451.128011
 21
289.275615
 31
0.0
  0
LINE
  5
A8
330
1F
100
AcDbEntity
  8
1
100
AcDbLine
 10
451.023573
 20
289.386675
 30
0.0
 11
450.838136
 21
289.504481
 31
0.0
  0
LINE
  5
A9
330
1F
100
AcDbEntity
  8
1
100
AcDbLine
 10
450.402021
 20
289.766525
 30
0.0
 11
450.838136
 21
289.504481
 31
0.0
  0
LINE
  5
AA
330
1F
100
AcDbEntity
  8
1
100
AcDbLine
 10
451.799861
 20
287.769483
 30
0.0
 11
451.675424
 21
280.640477
 31
0.0
  0
LINE
  5
AB
330
1F
100
AcDbEntity
  8
1
100
AcDbLine
 10
451.799861
 20
287.769483
 30
0.0
 11
451.7982219999999
 21
287.989171
 31
0.0
  0
LINE
  5
AC
330
1F
100
AcDbEntity
  8
1
100
AcDbLine
 10
449.9395129999999
 20
278.771611
 30
0.0
 11
450.845624
 21
279.273876
 31
0.0
  0
LINE
  5
AD
330
1F
100
AcDbEntity
  8
1
100
AcDbLine
 10
450.9566829999999
 20
279.378314
 30
0.0
 11
451.07449
 21
279.563751
 31
0.0
  0
LINE
  5
AE
330
1F
100
AcDbEntity
  8
1
100
AcDbLine
 10
451.633406
 20
280.493944
 30
0.0
 11
451.07449
 21
279.563751
 31
0.0
  0
LINE
  5
AF
330
1F
100
AcDbEntity
  8
1
100
AcDbLine
 10
450.970267
 20
280.684096
 30
0.0
 11
450.4814
 21
279.870484
 31
0.0
  0
LINE
  5
B0
330
1F
100
AcDbEntity
  8
1
100
AcDbLine
 10
450.637296
 20
288.801736
 30
0.0
 11
451.09747
 21
287.971559
 31
0.0
  0
LINE
  5
B1
330
1F
100
AcDbEntity
  8
1
100
AcDbLine
 10
451.134349
 20
287.823649
 30
0.0
 11
451.012285
 21
280.830629
 31
0.0
  0
LINE
  5
B2
330
1F
100
AcDbEntity
  8
1
100
AcDbLine
 10
450.371745
 20
279.764592
 30
0.0
 11
449.68262
 21
279.3826029999999
 31
0.0
  0
LINE
  5
B3
330
1F
100
AcDbEntity
  8
1
100
AcDbLine
 10
432.933664
 20
295.56544
 30
0.0
 11
431.970418
 21
296.114527
 31
0.0
  0
LINE
  5
B4
330
1F
100
AcDbEntity
  8
1
100
AcDbLine
 10
448.176424
 20
283.153494
 30
0.0
 11
448.739275
 21
283.153494
 31
0.0
  0
LINE
  5
B5
330
1F
100
AcDbEntity
  8
1
100
AcDbLine
 10
438.277533
 20
307.29585
 30
0.0
 11
438.272237
 21
307.449937
 31
0.0
  0
LINE
  5
B6
330
1F
100
AcDbEntity
  8
1
100
AcDbLine
 10
450.6548419999999
 20
290.28985
 30
0.0
 11
450.6548419999999
 21
290.389866
 31
0.0
  0
LINE
  5
B7
330
1F
100
AcDbEntity
  8
1
100
AcDbLine
 10
438.00771
 20
306.861229
 30
0.0
 11
437.989221
 21
307.399222
 31
0.0
  0
LINE
  5
B8
330
1F
100
AcDbEntity
  8
1
100
AcDbLine
 10
441.7440159999999
 20
294.677917
 30
0.0
 11
450.461062
 21
294.982007
 31
0.0
  0
LINE
  5
B9
330
1F
100
AcDbEntity
  8
1
100
AcDbLine
 10
450.4622219999999
 20
294.814852
 30
0.0
 11
450.461062
 21
294.982007
 31
0.0
  0
LINE
  5
BA
330
1F
100
AcDbEntity
  8
1
100
AcDbLine
 10
450.3863019999999
 20
294.284803
 30
0.0
 11
439.6930709999999
 21
293.911776
 31
0.0
  0
LINE
  5
BB
330
1F
100
AcDbEntity
  8
1
100
AcDbLine
 10
450.3863019999999
 20
294.284803
 30
0.0
 11
448.056541
 21
290.424923
 31
0.0
  0
LINE
  5
BC
330
1F
100
AcDbEntity
  8
1
100
AcDbLine
 10
449.875194
 20
278.876144
 30
0.0
 11
449.699424
 21
278.878956
 31
0.0
  0
LINE
  5
BD
330
1F
100
AcDbEntity
  8
1
100
AcDbLine
 10
449.6822579999999
 20
279.379295
 30
0.0
 11
450.082841
 21
283.153494
 31
0.0
  0
LINE
  5
BE
330
1F
100
AcDbEntity
  8
1
100
AcDbLine
 10
450.082841
 20
283.153494
 30
0.0
 11
450.082841
 21
289.1720259999999
 31
0.0
  0
LINE
  5
BF
330
1F
100
AcDbEntity
  8
1
100
AcDbLine
 10
450.153111
 20
289.670876
 30
0.0
 11
450.32918
 21
289.667803
 31
0.0
  0
LINE
  5
C0
330
1F
100
AcDbEntity
  8
1
100
AcDbLine
 10
279.404842
 20
263.907994
 30
0.0
 11
279.404842
 21
268.138382
 31
0.0
  0
LINE
  5
C1
330
1F
100
AcDbEntity
  8
1
100
AcDbLine
 10
279.404842
 20
313.907994
 30
0.0
 11
279.404842
 21
278.484892
 31
0.0
  0
LINE
  5
C2
330
1F
100
AcDbEntity
  8
1
100
AcDbLine
 10
450.3863019999999
 20
294.284803
 30
0.0
 11
450.3956819999999
 21
294.288403
 31
0.0
  0
LINE
  5
C3
330
1F
100
AcDbEntity
  8
1
100
AcDbLine
 10
450.503067
 20
294.998124
 30
0.0
 11
441.7492489999999
 21
294.692752
 31
0.0
  0
LINE
  5
C4
330
1F
100
AcDbEntity
  8
1
100
AcDbLine
 10
441.7440159999999
 20
294.677917
 30
0.0
 11
441.7492489999999
 21
294.692752
 31
0.0
  0
LINE
  5
C5
330
1F
100
AcDbEntity
  8
1
100
AcDbLine
 10
450.32918
 20
289.667803
 30
0.0
 11
450.6126799999999
 21
290.051976
 31
0.0
  0
LINE
  5
C6
330
1F
100
AcDbEntity
  8
1
100
AcDbLine
 10
450.6126799999999
 20
290.290586
 30
0.0
 11
450.6126799999999
 21
290.051976
 31
0.0
  0
LINE
  5
C7
330
1F
100
AcDbEntity
  8
1
100
AcDbLine
 10
450.6126799999999
 20
290.290586
 30
0.0
 11
450.6548419999999
 21
290.28985
 31
0.0
  0
LINE
  5
C8
330
1F
100
AcDbEntity
  8
1
100
AcDbLine
 10
450.6548419999999
 20
295.279958
 30
0.0
 11
450.6548419999999
 21
290.389866
 31
0.0
  0
LINE
  5
C9
330
1F
100
AcDbEntity
  8
1
100
AcDbLine
 10
450.503067
 20
294.998124
 30
0.0
 11
450.501511
 21
295.222201
 31
0.0
  0
LINE
  5
CA
330
1F
100
AcDbEntity
  8
1
100
AcDbLine
 10
450.503067
 20
294.998124
 30
0.0
 11
450.461062
 21
294.982007
 31
0.0
  0
LINE
  5
CB
330
1F
100
AcDbEntity
  8
1
100
AcDbLine
 10
449.2967639999999
 20
270.357994
 30
0.0
 11
450.133793
 21
278.244289
 31
0.0
  0
LINE
  5
CC
330
1F
100
AcDbEntity
  8
1
100
AcDbLine
 10
450.133793
 20
278.244289
 30
0.0
 11
450.0917019999999
 21
278.244963
 31
0.0
  0
LINE
  5
CD
330
1F
100
AcDbEntity
  8
1
100
AcDbLine
 10
450.116984
 20
278.483163
 30
0.0
 11
450.0917019999999
 21
278.244963
 31
0.0
  0
LINE
  5
CE
330
1F
100
AcDbEntity
  8
1
100
AcDbLine
 10
450.116984
 20
278.483163
 30
0.0
 11
449.875194
 21
278.876144
 31
0.0
  0
LINE
  5
CF
330
1F
100
AcDbEntity
  8
1
100
AcDbLine
 10
449.316461
 20
283.153494
 30
0.0
 11
450.082841
 21
283.153494
 31
0.0
  0
LINE
  5
D0
330
1F
100
AcDbEntity
  8
SK1
100
AcDbLine
 10
209.004842
 20
307.957994
 30
0.0
 11
209.004842
 21
269.857994
 31
0.0
  0
LINE
  5
D1
330
1F
100
AcDbEntity
  8
SK1
100
AcDbLine
 10
207.404842
 20
306.357994
 30
0.0
 11
207.404842
 21
271.457994
 31
0.0
  0
LINE
  5
D2
330
1F
100
AcDbEntity
  8
1
100
AcDbLine
 10
438.085225
 20
298.077233
 30
0.0
 11
438.079992
 21
298.062398
 31
0.0
  0
LINE
  5
D3
330
1F
100
AcDbEntity
  8
1
100
AcDbLine
 10
438.085225
 20
298.077233
 30
0.0
 11
437.7648579999999
 21
307.399533
 31
0.0
  0
LINE
  5
D4
330
1F
100
AcDbEntity
  8
1
100
AcDbLine
 10
437.760017
 20
307.3733
 30
0.0
 11
438.079992
 21
298.062398
 31
0.0
  0
LINE
  5
D5
330
1F
100
AcDbEntity
  8
1
100
AcDbLine
 10
449.2967639999999
 20
270.357994
 30
0.0
 11
423.897724
 21
270.357994
 31
0.0
  0
LINE
  5
D6
330
1F
100
AcDbEntity
  8
1
100
AcDbLine
 10
274.904842
 20
263.907994
 30
0.0
 11
274.904842
 21
288.907994
 31
0.0
  0
LINE
  5
D7
330
1F
100
AcDbEntity
  8
1
100
AcDbLine
 10
274.904842
 20
288.907994
 30
0.0
 11
274.904842
 21
313.907994
 31
0.0
  0
LINE
  5
D8
330
1F
100
AcDbEntity
  8
1
100
AcDbLine
 10
443.6517059999999
 20
299.794912
 30
0.0
 11
443.685989
 21
299.89211
 31
0.0
  0
LINE
  5
D9
330
1F
100
AcDbEntity
  8
1
100
AcDbLine
 10
444.447474
 20
299.73889
 30
0.0
 11
444.41306
 21
299.641321
 31
0.0
  0
LINE
  5
DA
330
1F
100
AcDbEntity
  8
1
100
AcDbLine
 10
443.0775769999999
 20
301.338693
 30
0.0
 11
443.1130679999999
 21
301.439314
 31
0.0
  0
LINE
  5
DB
330
1F
100
AcDbEntity
  8
1
100
AcDbLine
 10
445.665332
 20
300.989256
 30
0.0
 11
445.629841
 21
300.888635
 31
0.0
  0
LINE
  5
DC
330
1F
100
AcDbEntity
  8
1
100
AcDbLine
 10
444.2943589999999
 20
302.586006
 30
0.0
 11
444.328773
 21
302.683575
 31
0.0
  0
LINE
  5
DD
330
1F
100
AcDbEntity
  8
1
100
AcDbLine
 10
445.071759
 20
302.477912
 30
0.0
 11
445.055712
 21
302.432416
 31
0.0
  0
LINE
  5
DE
330
1F
100
AcDbEntity
  8
1
100
AcDbLine
 10
440.984867
 20
302.385312
 30
0.0
 11
440.968737
 21
302.339582
 31
0.0
  0
LINE
  5
DF
330
1F
100
AcDbEntity
  8
1
100
AcDbLine
 10
447.7587469999999
 20
299.944636
 30
0.0
 11
447.7748769999999
 21
299.990366
 31
0.0
  0
LINE
  5
E0
330
1F
100
AcDbEntity
  8
1
100
AcDbLine
 10
279.404842
 20
263.907994
 30
0.0
 11
281.16855
 21
265.671702
 31
0.0
  0
LINE
  5
E1
330
1F
100
AcDbEntity
  8
1
100
AcDbLine
 10
281.16855
 20
312.144285
 30
0.0
 11
279.404842
 21
313.907994
 31
0.0
  0
LINE
  5
E2
330
1F
100
AcDbEntity
  8
SK1
100
AcDbLine
 10
207.404842
 20
271.457994
 30
0.0
 11
209.004842
 21
269.857994
 31
0.0
  0
LINE
  5
E3
330
1F
100
AcDbEntity
  8
SK1
100
AcDbLine
 10
209.004842
 20
307.957994
 30
0.0
 11
207.404842
 21
306.357994
 31
0.0
  0
LINE
  5
E4
330
1F
100
AcDbEntity
  8
SK1
100
AcDbLine
 10
274.404842
 20
307.957994
 30
0.0
 11
209.004842
 21
307.957994
 31
0.0
  0
LINE
  5
E5
330
1F
100
AcDbEntity
  8
1
100
AcDbLine
 10
274.904842
 20
263.907994
 30
0.0
 11
274.404842
 21
264.407994
 31
0.0
  0
LINE
  5
E6
330
1F
100
AcDbEntity
  8
1
100
AcDbLine
 10
274.404842
 20
313.407994
 30
0.0
 11
274.904842
 21
313.907994
 31
0.0
  0
LINE
  5
E7
330
1F
100
AcDbEntity
  8
1
100
AcDbLine
 10
279.404842
 20
313.907994
 30
0.0
 11
274.904842
 21
313.907994
 31
0.0
  0
LINE
  5
EC
330
1F
100
AcDbEntity
  8
80
100
AcDbLine
 10
275.404416
 20
288.907994
 30
0.0
 11
273.405268
 21
288.907994
 31
0.0
  0
LINE
  5
ED
330
1F
100
AcDbEntity
  8
1
100
AcDbLine
 10
274.404842
 20
313.407994
 30
0.0
 11
274.404842
 21
288.907994
 31
0.0
  0
LINE
  5
EE
330
1F
100
AcDbEntity
  8
1
100
AcDbLine
 10
274.404842
 20
288.907994
 30
0.0
 11
274.404842
 21
264.407994
 31
0.0
  0
LINE
  5
EF
330
1F
100
AcDbEntity
  8
81
100
AcDbLine
 10
449.8048419999999
 20
307.957994
 30
0.0
 11
453.8048419999999
 21
307.957994
 31
0.0
  0
LINE
  5
F0
330
1F
100
AcDbEntity
  8
SK1
100
AcDbLine
 10
209.004842
 20
269.857994
 30
0.0
 11
274.404842
 21
269.857994
 31
0.0
  0
LINE
  5
F1
330
1F
100
AcDbEntity
  8
81
100
AcDbLine
 10
451.804842
 20
309.957994
 30
0.0
 11
451.804842
 21
305.957994
 31
0.0
  0
LINE
  5
F2
330
1F
100
AcDbEntity
  8
80
100
AcDbLine
 10
274.404842
 20
287.90842
 30
0.0
 11
274.404842
 21
289.907567
 31
0.0
  0
LINE
  5
F3
330
1F
100
AcDbEntity
  8
1
100
AcDbLine
 10
274.904842
 20
263.907994
 30
0.0
 11
279.404842
 21
263.907994
 31
0.0
  0
LINE
  5
121
330
1F
100
AcDbEntity
  8
NOCUT
100
AcDbLine
 10
279.404842
 20
313.907994
 30
0.0
 11
281.16855
 21
312.144285
 31
0.0
  0
LINE
  5
122
330
1F
100
AcDbEntity
  8
NOCUT
100
AcDbLine
 10
450.2346059999999
 20
307.457994
 30
0.0
 11
450.6548419999999
 21
295.5273509999999
 31
0.0
  0
LINE
  5
123
330
1F
100
AcDbEntity
  8
NOCUT
100
AcDbLine
 10
450.6548419999999
 20
295.5273509999999
 30
0.0
 11
450.6548419999999
 21
288.907994
 31
0.0
  0
LINE
  5
124
330
1F
100
AcDbEntity
  8
NOCUT
100
AcDbLine
 10
450.6548419999999
 20
288.907994
 30
0.0
 11
207.404842
 21
288.907994
 31
0.0
  0
LINE
  5
125
330
1F
100
AcDbEntity
  8
NOCUT
100
AcDbLine
 10
292.482259
 20
307.457994
 30
0.0
 11
450.2346059999999
 21
307.457994
 31
0.0
  0
LINE
  5
126
330
1F
100
AcDbEntity
  8
NOCUT
100
AcDbLine
 10
274.404842
 20
307.957994
 30
0.0
 11
274.404842
 21
313.407994
 31
0.0
  0
LINE
  5
127
330
1F
100
AcDbEntity
  8
NOCUT
100
AcDbLine
 10
274.404842
 20
313.407994
 30
0.0
 11
274.904842
 21
313.907994
 31
0.0
  0
LINE
  5
128
330
1F
100
AcDbEntity
  8
NOCUT
100
AcDbLine
 10
207.404842
 20
306.357994
 30
0.0
 11
209.004842
 21
307.957994
 31
0.0
  0
LINE
  5
129
330
1F
100
AcDbEntity
  8
NOCUT
100
AcDbLine
 10
274.404842
 20
307.957994
 30
0.0
 11
209.004842
 21
307.957994
 31
0.0
  0
LINE
  5
12A
330
1F
100
AcDbEntity
  8
NOCUT
100
AcDbLine
 10
207.404842
 20
306.357994
 30
0.0
 11
207.404842
 21
288.907994
 31
0.0
  0
LINE
  5
12B
330
1F
100
AcDbEntity
  8
NOCUT
100
AcDbLine
 10
279.404842
 20
313.907994
 30
0.0
 11
274.904842
 21
313.907994
 31
0.0
  0
ARC
  5
134
330
1F
100
AcDbEntity
  8
1
100
AcDbCircle
 10
445.818941
 20
284.5888799999999
 30
0.0
 40
1.75
100
AcDbArc
 50
75.0
 51
345.0
  0
CIRCLE
  5
135
330
1F
100
AcDbEntity
  8
1
100
AcDbCircle
 10
445.818941
 20
284.5888799999999
 30
0.0
 40
1.35
  0
ARC
  5
136
330
1F
100
AcDbEntity
  8
1
100
AcDbCircle
 10
292.482259
 20
254.357994
 30
0.0
 40
16.0
100
AcDbArc
 50
90.0
 51
135.0
  0
ARC
  5
137
330
1F
100
AcDbEntity
  8
1
100
AcDbCircle
 10
292.482259
 20
323.457994
 30
0.0
 40
16.0
100
AcDbArc
 50
225.0
 51
270.0
  0
ARC
  5
146
330
1F
100
AcDbEntity
  8
NOCUT
100
AcDbCircle
 10
292.482259
 20
323.457994
 30
0.0
 40
16.0
100
AcDbArc
 50
225.0
 51
270.0
  0
ELLIPSE
  5
147
330
1F
100
AcDbEntity
  8
1
100
AcDbEllipse
 10
248.890433
 20
288.907994
 30
0.0
 11
69.18680543793311
 21
-14.41877457831571
 31
0.0
210
0.0
220
0.0
230
1.0
 40
0.168682
 41
5.446258657348271
 42
5.563305112826441
  0
ELLIPSE
  5
148
330
1F
100
AcDbEntity
  8
1
100
AcDbEllipse
 10
440.6661099999999
 20
291.883451
 30
0.0
 11
-2.500114748052609
 21
-0.09812345750578
 31
0.0
210
0.0
220
0.0
230
1.0
 40
0.22151
 41
1.413461418020833
 42
4.852336840281765
  0
ELLIPSE
  5
149
330
1F
100
AcDbEntity
  8
1
100
AcDbEllipse
 10
449.877134
 20
288.173614
 30
0.0
 11
-0.2309634552664436
 21
-0.2230388161414585
 31
0.0
210
0.0
220
0.0
230
1.0
 40
0.6229040000000001
 41
2.976210626445521
 42
3.306974680734081
  0
ELLIPSE
  5
14A
330
1F
100
AcDbEntity
  8
1
100
AcDbEllipse
 10
444.379872
 20
301.187839
 30
0.0
 11
-3.395004864809728
 21
1.197473159581582
 31
0.0
210
0.0
220
0.0
230
1.0
 40
0.9986239999999998
 41
3.141585274248857
 42
5.872218228534559
  0
ELLIPSE
  5
14B
330
1F
100
AcDbEntity
  8
1
100
AcDbEllipse
 10
444.379872
 20
301.187839
 30
0.0
 11
-3.395004864809728
 21
1.197473159581582
 31
0.0
210
0.0
220
0.0
230
1.0
 40
0.9986239999999998
 41
5.872218228534568
 42
6.283185307179585
  0
ELLIPSE
  5
14C
330
1F
100
AcDbEntity
  8
1
100
AcDbEllipse
 10
444.3637419999999
 20
301.142109
 30
0.0
 11
3.395004864809727
 21
-1.197473159581582
 31
0.0
210
0.0
220
0.0
230
1.0
 40
0.9986239999999998
 41
0.0
 42
6.283185307179585
  0
ELLIPSE
  5
14D
330
1F
100
AcDbEntity
  8
1
100
AcDbEllipse
 10
442.9752589999999
 20
301.737705
 30
0.0
 11
-0.0898897536456661
 21
0.0317055708602404
 31
0.0
210
0.0
220
0.0
230
1.0
 40
0.998624
 41
3.886489476374958
 42
4.563221393255596
  0
ELLIPSE
  5
14E
330
1F
100
AcDbEntity
  8
1
100
AcDbEllipse
 10
443.064598
 20
301.90582
 30
0.0
 11
-0.089889753645666
 21
0.0317055708602404
 31
0.0
210
0.0
220
0.0
230
1.0
 40
0.998624
 41
0.221298047186771
 42
1.421628739665488
  0
ELLIPSE
  5
14F
330
1F
100
AcDbEntity
  8
1
100
AcDbEllipse
 10
443.5666209999999
 20
301.84626
 30
0.0
 11
-0.5666776289729548
 21
0.1998763706833375
 31
0.0
210
0.0
220
0.0
230
0.9999999999999998
 40
0.9986239999999998
 41
5.239953310136215
 42
6.504483354366396
  0
ELLIPSE
  5
150
330
1F
100
AcDbEntity
  8
1
100
AcDbEllipse
 10
443.4716969999999
 20
302.342317
 30
0.0
 11
-0.0898897536456681
 21
0.0317055708602411
 31
0.0
210
0.0
220
0.0
230
1.0
 40
0.9986239999999998
 41
4.03962261765735
 42
5.239953310136113
  0
ELLIPSE
  5
151
330
1F
100
AcDbEntity
  8
1
100
AcDbEllipse
 10
443.633253
 20
302.443214
 30
0.0
 11
-0.0898897536456681
 21
0.0317055708602411
 31
0.0
210
0.0
220
0.0
230
1.0
 40
0.9986239999999998
 41
0.8980299640676975
 42
1.574761880948186
  0
ELLIPSE
  5
152
330
1F
100
AcDbEntity
  8
1
100
AcDbEllipse
 10
443.7993
 20
302.920009
 30
0.0
 11
-0.5666776289729544
 21
0.1998763706833374
 31
0.0
210
0.0
220
0.0
230
0.9999999999999998
 40
0.9986239999999998
 41
1.574761880948108
 42
2.839291925178266
  0
ELLIPSE
  5
153
330
1F
100
AcDbEntity
  8
1
100
AcDbEllipse
 10
444.204469
 20
302.617712
 30
0.0
 11
-0.0898897536456661
 21
0.0317055708602404
 31
0.0
210
0.0
220
0.0
230
1.0
 40
0.998624
 41
2.839291925178153
 42
3.516023842059044
  0
ELLIPSE
  5
154
330
1F
100
AcDbEntity
  8
1
100
AcDbEllipse
 10
444.394953
 20
302.624357
 30
0.0
 11
-0.089889753645666
 21
0.0317055708602404
 31
0.0
210
0.0
220
0.0
230
1.0
 40
0.998624
 41
5.457285803169636
 42
6.657616495648838
  0
ELLIPSE
  5
155
330
1F
100
AcDbEntity
  8
1
100
AcDbEllipse
 10
444.594704
 20
302.160322
 30
0.0
 11
-0.5666776289729548
 21
0.1998763706833375
 31
0.0
210
0.0
220
0.0
230
0.9999999999999998
 40
0.9986239999999998
 41
4.192755758939666
 42
5.457285803169854
  0
ELLIPSE
  5
156
330
1F
100
AcDbEntity
  8
1
100
AcDbEllipse
 10
444.9772299999999
 20
302.490098
 30
0.0
 11
-0.0898897536456681
 21
0.0317055708602411
 31
0.0
210
0.0
220
0.0
230
1.0
 40
0.9986239999999998
 41
2.992425066460755
 42
4.19275575893989
  0
ELLIPSE
  5
157
330
1F
100
AcDbEntity
  8
1
100
AcDbEllipse
 10
445.1456019999999
 20
302.40071
 30
0.0
 11
-0.0898897536456681
 21
0.0317055708602411
 31
0.0
210
0.0
220
0.0
230
1.0
 40
0.9986239999999998
 41
6.134017720050592
 42
6.810749636931333
  0
ELLIPSE
  5
158
330
1F
100
AcDbEntity
  8
1
100
AcDbEllipse
 10
445.6421099999999
 20
302.495104
 30
0.0
 11
-0.5666776289729544
 21
0.1998763706833374
 31
0.0
210
0.0
220
0.0
230
0.9999999999999998
 40
0.9986239999999998
 41
0.5275643297515007
 42
1.792094373981725
  0
ELLIPSE
  5
159
330
1F
100
AcDbEntity
  8
1
100
AcDbEllipse
 10
445.5829190000001
 20
301.99367
 30
0.0
 11
-0.0898897536456661
 21
0.0317055708602404
 31
0.0
210
0.0
220
0.0
230
1.0
 40
0.998624
 41
1.7920943739819
 42
2.468826290862588
  0
ELLIPSE
  5
15A
330
1F
100
AcDbEntity
  8
1
100
AcDbEllipse
 10
445.684064
 20
301.8322
 30
0.0
 11
-0.089889753645666
 21
0.0317055708602404
 31
0.0
210
0.0
220
0.0
230
1.0
 40
0.998624
 41
4.410088251973014
 42
5.610418944451843
  0
ELLIPSE
  5
15B
330
1F
100
AcDbEntity
  8
1
100
AcDbEllipse
 10
445.381792
 20
301.427727
 30
0.0
 11
-0.5666776289729548
 21
0.1998763706833375
 31
0.0
210
0.0
220
0.0
230
0.9999999999999998
 40
0.9986239999999998
 41
3.145558207742977
 42
4.410088251973153
  0
ELLIPSE
  5
15C
330
1F
100
AcDbEntity
  8
1
100
AcDbEllipse
 10
445.859242
 20
301.261445
 30
0.0
 11
-0.0898897536456681
 21
0.0317055708602411
 31
0.0
210
0.0
220
0.0
230
1.0
 40
0.9986239999999998
 41
1.94522751526386
 42
3.145558207743123
  0
ELLIPSE
  5
15D
330
1F
100
AcDbEntity
  8
1
100
AcDbEllipse
 10
445.866059
 20
301.07116
 30
0.0
 11
-0.0898897536456681
 21
0.0317055708602411
 31
0.0
210
0.0
220
0.0
230
1.0
 40
0.9986239999999998
 41
5.086820168853931
 42
5.763552085734623
  0
ELLIPSE
  5
15E
330
1F
100
AcDbEntity
  8
1
100
AcDbEllipse
 10
446.1965189999999
 20
300.688758
 30
0.0
 11
-0.5666776289729544
 21
0.1998763706833374
 31
0.0
210
0.0
220
0.0
230
0.9999999999999998
 40
0.9986239999999998
 41
5.76355208573454
 42
7.028082129964674
  0
ELLIPSE
  5
15F
330
1F
100
AcDbEntity
  8
1
100
AcDbEllipse
 10
445.7321589999999
 20
300.489622
 30
0.0
 11
-0.0898897536456661
 21
0.0317055708602404
 31
0.0
210
0.0
220
0.0
230
1.0
 40
0.998624
 41
0.7448968227852922
 42
1.421628739666121
  0
ELLIPSE
  5
160
330
1F
100
AcDbEntity
  8
1
100
AcDbEllipse
 10
445.64282
 20
300.321508
 30
0.0
 11
-0.089889753645666
 21
0.0317055708602404
 31
0.0
210
0.0
220
0.0
230
1.0
 40
0.998624
 41
3.362890700776643
 42
4.563221393255302
  0
ELLIPSE
  5
161
330
1F
100
AcDbEntity
  8
1
100
AcDbEllipse
 10
445.1407979999999
 20
300.381068
 30
0.0
 11
-0.5666776289729548
 21
0.1998763706833375
 31
0.0
210
0.0
220
0.0
230
0.9999999999999998
 40
0.9986239999999998
 41
2.098360656546422
 42
3.362890700776613
  0
ELLIPSE
  5
162
330
1F
100
AcDbEntity
  8
1
100
AcDbEllipse
 10
445.235721
 20
299.885011
 30
0.0
 11
-0.0898897536456681
 21
0.0317055708602411
 31
0.0
210
0.0
220
0.0
230
1.0
 40
0.9986239999999998
 41
0.898029964067231
 42
2.098360656546214
  0
ELLIPSE
  5
163
330
1F
100
AcDbEntity
  8
1
100
AcDbEllipse
 10
445.074166
 20
299.784113
 30
0.0
 11
-0.0898897536456681
 21
0.0317055708602411
 31
0.0
210
0.0
220
0.0
230
1.0
 40
0.9986239999999998
 41
4.039622617657303
 42
4.71635453453798
  0
ELLIPSE
  5
164
330
1F
100
AcDbEntity
  8
1
100
AcDbEllipse
 10
444.9081179999999
 20
299.307318
 30
0.0
 11
-0.5666776289729544
 21
0.1998763706833374
 31
0.0
210
0.0
220
0.0
230
0.9999999999999998
 40
0.9986239999999998
 41
4.716354534537853
 42
5.980884578768058
  0
ELLIPSE
  5
165
330
1F
100
AcDbEntity
  8
1
100
AcDbEllipse
 10
444.502949
 20
299.609616
 30
0.0
 11
-0.0898897536456661
 21
0.0317055708602404
 31
0.0
210
0.0
220
0.0
230
1.0
 40
0.998624
 41
5.980884578768034
 42
6.657616495648838
  0
ELLIPSE
  5
166
330
1F
100
AcDbEntity
  8
1
100
AcDbEllipse
 10
444.312466
 20
299.602971
 30
0.0
 11
-0.089889753645666
 21
0.0317055708602404
 31
0.0
210
0.0
220
0.0
230
1.0
 40
0.998624
 41
2.315693149580484
 42
3.516023842058904
  0
ELLIPSE
  5
167
330
1F
100
AcDbEntity
  8
1
100
AcDbEllipse
 10
444.112715
 20
300.067005
 30
0.0
 11
-0.5666776289729548
 21
0.1998763706833375
 31
0.0
210
0.0
220
0.0
230
0.9999999999999998
 40
0.9986239999999998
 41
1.051163105349833
 42
2.315693149580029
  0
ELLIPSE
  5
168
330
1F
100
AcDbEntity
  8
1
100
AcDbEllipse
 10
443.7301889999999
 20
299.737229
 30
0.0
 11
-0.0898897536456681
 21
0.0317055708602411
 31
0.0
210
0.0
220
0.0
230
1.0
 40
0.9986239999999998
 41
6.134017720050548
 42
7.334348412529275
  0
ELLIPSE
  5
169
330
1F
100
AcDbEntity
  8
1
100
AcDbEllipse
 10
443.561816
 20
299.826618
 30
0.0
 11
-0.0898897536456681
 21
0.0317055708602411
 31
0.0
210
0.0
220
0.0
230
1.0
 40
0.9986239999999998
 41
2.992425066460696
 42
3.669156983341133
  0
ELLIPSE
  5
16A
330
1F
100
AcDbEntity
  8
1
100
AcDbEllipse
 10
443.0653089999999
 20
299.732224
 30
0.0
 11
-0.5666776289729544
 21
0.1998763706833374
 31
0.0
210
0.0
220
0.0
230
0.9999999999999998
 40
0.9986239999999998
 41
3.669156983341338
 42
4.933687027571512
  0
ELLIPSE
  5
16B
330
1F
100
AcDbEntity
  8
1
100
AcDbEllipse
 10
443.1245
 20
300.233657
 30
0.0
 11
-0.0898897536456661
 21
0.0317055708602404
 31
0.0
210
0.0
220
0.0
230
1.0
 40
0.998624
 41
4.93368702757166
 42
5.610418944452263
  0
ELLIPSE
  5
16C
330
1F
100
AcDbEntity
  8
1
100
AcDbEllipse
 10
443.0233539999999
 20
300.395127
 30
0.0
 11
-0.089889753645666
 21
0.0317055708602404
 31
0.0
210
0.0
220
0.0
230
1.0
 40
0.998624
 41
1.268495598383505
 42
2.468826290862539
  0
ELLIPSE
  5
16D
330
1F
100
AcDbEntity
  8
1
100
AcDbEllipse
 10
443.3256269999999
 20
300.799601
 30
0.0
 11
-0.5666776289729548
 21
0.1998763706833375
 31
0.0
210
0.0
220
0.0
230
0.9999999999999998
 40
0.9986239999999998
 41
0.0039655541531845
 42
1.268495598383353
  0
ELLIPSE
  5
16E
330
1F
100
AcDbEntity
  8
1
100
AcDbEllipse
 10
442.8481759999999
 20
300.965883
 30
0.0
 11
-0.0898897536456681
 21
0.0317055708602411
 31
0.0
210
0.0
220
0.0
230
1.0
 40
0.9986239999999998
 41
5.086820168853653
 42
6.287150861332767
  0
ELLIPSE
  5
16F
330
1F
100
AcDbEntity
  8
1
100
AcDbEllipse
 10
442.8413599999999
 20
301.156168
 30
0.0
 11
-0.0898897536456681
 21
0.0317055708602411
 31
0.0
210
0.0
220
0.0
230
1.0
 40
0.9986239999999998
 41
1.945227515264138
 42
2.621959432144812
  0
ELLIPSE
  5
170
330
1F
100
AcDbEntity
  8
1
100
AcDbEllipse
 10
442.5108999999999
 20
301.53857
 30
0.0
 11
-0.5666776289729544
 21
0.1998763706833374
 31
0.0
210
0.0
220
0.0
230
0.9999999999999998
 40
0.9986239999999998
 41
2.621959432144723
 42
3.886489476374944
  0
ELLIPSE
  5
171
330
1F
100
AcDbEntity
  8
1
100
AcDbEllipse
 10
444.3537089999999
 20
301.113664
 30
0.0
 11
1.98041950447234
 21
-0.6985260097559227
 31
0.0
210
0.0
220
0.0
230
0.9999999999999998
 40
0.9986239999999998
 41
0.0
 42
6.283185307179585
  0
ELLIPSE
  5
172
330
1F
100
AcDbEntity
  8
1
100
AcDbEllipse
 10
444.5490519999999
 20
301.378744
 30
0.0
 11
3.531988007444663
 21
-1.245789330883936
 31
0.0
210
0.0
220
0.0
230
0.9999999999999998
 40
0.9986239999999998
 41
1.945227552038381
 42
3.356097206659881
  0
ELLIPSE
  5
173
330
1F
100
AcDbEntity
  8
1
100
AcDbEllipse
 10
444.5490519999999
 20
301.378744
 30
0.0
 11
3.531988007444663
 21
-1.245789330883936
 31
0.0
210
0.0
220
0.0
230
0.9999999999999998
 40
0.9986239999999998
 41
5.419043491545753
 42
6.283185307179585
  0
ELLIPSE
  5
174
330
1F
100
AcDbEntity
  8
1
100
AcDbEllipse
 10
444.5490519999999
 20
301.378744
 30
0.0
 11
3.531988007444663
 21
-1.245789330883936
 31
0.0
210
0.0
220
0.0
230
0.9999999999999998
 40
0.9986239999999998
 41
0.0
 42
1.508938775396913
  0
ELLIPSE
  5
175
330
1F
100
AcDbEntity
  8
1
100
AcDbEllipse
 10
444.5490519999999
 20
301.378744
 30
0.0
 11
3.531988007444663
 21
-1.245789330883936
 31
0.0
210
0.0
220
0.0
230
0.9999999999999998
 40
0.9986239999999998
 41
1.632540859458624
 42
1.945227552038381
  0
ELLIPSE
  5
176
330
1F
100
AcDbEntity
  8
1
100
AcDbEllipse
 10
439.7765599999999
 20
296.213555
 30
0.0
 11
0.4817434591618344
 21
0.5170545785385727
 31
0.0
210
0.0
220
0.0
230
1.0
 40
0.01483
 41
0.5198738242201389
 42
1.536779664893156
  0
ELLIPSE
  5
177
330
1F
100
AcDbEntity
  8
1
100
AcDbEllipse
 10
444.5292559999999
 20
301.322618
 30
0.0
 11
3.588083700633128
 21
-1.265575189707757
 31
0.0
210
0.0
220
0.0
230
0.9999999999999998
 40
0.9986239999999998
 41
1.945227451328571
 42
3.745261875445962
  0
ELLIPSE
  5
178
330
1F
100
AcDbEntity
  8
1
100
AcDbEllipse
 10
444.5292559999999
 20
301.322618
 30
0.0
 11
3.588083700633128
 21
-1.265575189707757
 31
0.0
210
0.0
220
0.0
230
0.9999999999999998
 40
0.9986239999999998
 41
4.874566385899282
 42
6.283185307179585
  0
ELLIPSE
  5
179
330
1F
100
AcDbEntity
  8
1
100
AcDbEllipse
 10
444.5292559999999
 20
301.322618
 30
0.0
 11
3.588083700633128
 21
-1.265575189707757
 31
0.0
210
0.0
220
0.0
230
0.9999999999999998
 40
0.9986239999999998
 41
0.0
 42
1.945227440221053
  0
ELLIPSE
  5
17A
330
1F
100
AcDbEntity
  8
1
100
AcDbEllipse
 10
449.6192459999999
 20
296.556912
 30
0.0
 11
0.5172967687502027
 21
-0.4819691095150039
 31
0.0
210
0.0
220
0.0
230
1.0
 40
0.033998
 41
1.585610887763961
 42
2.602516728112981
  0
ELLIPSE
  5
17B
330
1F
100
AcDbEntity
  8
1
100
AcDbEllipse
 10
444.526378
 20
301.314459
 30
0.0
 11
-3.677921936877203
 21
1.297262589546713
 31
0.0
210
0.0
220
0.0
230
1.0
 40
0.9986239999999998
 41
0.0
 42
6.283185307179585
  0
ELLIPSE
  5
17C
330
1F
100
AcDbEntity
  8
1
100
AcDbEllipse
 10
439.4243349999999
 20
306.045996
 30
0.0
 11
0.5172967686539853
 21
-0.4819691094297818
 31
0.0
210
0.0
220
0.0
230
1.0
 40
0.033998
 41
0.5687050474019033
 42
1.585610887906951
  0
ELLIPSE
  5
17D
330
1F
100
AcDbEntity
  8
1
100
AcDbEllipse
 10
449.2670209999999
 20
306.389352
 30
0.0
 11
0.4817434592350924
 21
0.5170545786240769
 31
0.0
210
0.0
220
0.0
230
1.0
 40
0.01483
 41
1.536779664421445
 42
2.553685504966749
  0
ELLIPSE
  5
17E
330
1F
100
AcDbEntity
  8
1
100
AcDbEllipse
 10
450.161969
 20
287.65976
 30
0.0
 11
-0.3115396276772998
 21
-0.0776755531752887
 31
0.0
210
-0.0000000000000001
220
0.0
230
1.0
 40
0.6229040000000001
 41
2.976210626445514
 42
3.306974680734071
  0
ELLIPSE
  5
17F
330
1F
100
AcDbEntity
  8
1
100
AcDbEllipse
 10
449.743623
 20
280.524753
 30
0.0
 11
-0.223038816141459
 21
0.2309634552664429
 31
0.0
210
-0.0000000000000001
220
0.0
230
0.9999999999999998
 40
0.6229040000000001
 41
2.97621062644554
 42
3.306974680734076
  0
ELLIPSE
  5
180
330
1F
100
AcDbEntity
  8
1
100
AcDbEllipse
 10
450.046217
 20
281.028354
 30
0.0
 11
-0.3086390084417319
 21
0.0885008115358406
 31
0.0
210
0.0
220
0.0
230
0.9999999999999998
 40
0.6229040000000001
 41
2.976210626445484
 42
3.306974680734093
  0
ELLIPSE
  5
181
330
1F
100
AcDbEntity
  8
1
100
AcDbEllipse
 10
450.8734269999999
 20
289.135723
 30
0.0
 11
0.1593661330702229
 21
-0.2546671896240316
 31
0.0
210
0.0
220
0.0
230
1.0
 40
0.9668320000000001
 41
1.515965208533689
 42
2.029724467138476
  0
ELLIPSE
  5
182
330
1F
100
AcDbEntity
  8
1
100
AcDbEllipse
 10
451.505838
 20
287.994824
 30
0.0
 11
0.1315188410211988
 21
-0.2701031955695277
 31
0.0
210
0.0
220
0.0
230
1.0
 40
0.9668319999999999
 41
1.111868187433885
 42
1.625627446153182
  0
ELLIPSE
  5
183
330
1F
100
AcDbEntity
  8
1
100
AcDbEllipse
 10
450.705732
 20
279.52846
 30
0.0
 11
0.2546671892542218
 21
0.1593661334786172
 31
0.0
210
0.0
220
0.0
230
1.0
 40
0.9668319999999999
 41
4.657557860238203
 42
5.171317119006083
  0
ELLIPSE
  5
184
330
1F
100
AcDbEntity
  8
1
100
AcDbEllipse
 10
451.369907
 20
280.648792
 30
0.0
 11
-0.2941597133632818
 21
0.0843489404830548
 31
0.0
210
0.0
220
0.0
230
0.9999999999999998
 40
0.9803469999999999
 41
2.884713024277096
 42
3.398472282902498
  0
ELLIPSE
  5
185
330
1F
100
AcDbEntity
  8
1
100
AcDbEllipse
 10
450.1790349999999
 20
280.07387
 30
0.0
 11
0.2800576596328124
 21
-0.2346916624868068
 31
0.0
210
0.0
220
0.0
230
1.0
 40
0.81881
 41
6.264719803938762
 42
6.411625114617133
  0
ELLIPSE
  5
186
330
1F
100
AcDbEntity
  8
1
100
AcDbEllipse
 10
450.648736
 20
280.855584
 30
0.0
 11
0.338699512488124
 21
-0.1370951556941504
 31
0.0
210
0.0
220
0.0
230
1.0
 40
0.81881
 41
6.154745481068616
 42
6.301650799379362
  0
ELLIPSE
  5
187
330
1F
100
AcDbEntity
  8
1
100
AcDbEllipse
 10
450.77015
 20
287.811396
 30
0.0
 11
0.3432777661731935
 21
0.1251912131659322
 31
0.0
210
0.0
220
0.0
230
1.0
 40
0.81881
 41
6.264719806689477
 42
6.411625118626496
  0
ELLIPSE
  5
188
330
1F
100
AcDbEntity
  8
1
100
AcDbEllipse
 10
450.328017
 20
288.6090259999999
 30
0.0
 11
0.2880776793062114
 21
0.2247748246740822
 31
0.0
210
0.0
220
0.0
230
0.9999999999999998
 40
0.81881
 41
6.154745500997642
 42
6.301650811137317
  0
ELLIPSE
  5
189
330
1F
100
AcDbEntity
  8
1
100
AcDbEllipse
 10
450.328017
 20
288.6090259999999
 30
0.0
 11
0.234691652215684
 21
0.2800576433428565
 31
0.0
210
0.0
220
0.0
230
1.0
 40
0.8188099999999998
 41
6.264719809260514
 42
6.411625123781924
  0
ELLIPSE
  5
18A
330
1F
100
AcDbEntity
  8
1
100
AcDbEllipse
 10
450.648736
 20
280.855584
 30
0.0
 11
0.3598828968501124
 21
-0.0632201123860992
 31
0.0
210
0.0
220
0.0
230
1.0
 40
0.8188099999999998
 41
6.264719798424967
 42
6.411625105549249
  0
ELLIPSE
  5
18B
330
1F
100
AcDbEntity
  8
1
100
AcDbEllipse
 10
450.77015
 20
287.811396
 30
0.0
 11
0.3618700070399233
 21
0.0506218687656991
 31
0.0
210
0.0
220
0.0
230
1.0
 40
0.8188099999999998
 41
6.154745503721454
 42
6.3016508126281
  0
ELLIPSE
  5
18C
330
1F
100
AcDbEntity
  8
1
100
AcDbEllipse
 10
450.1790349999999
 20
280.07387
 30
0.0
 11
0.2247748194579038
 21
-0.2880776701226028
 31
0.0
210
0.0
220
0.0
230
1.0
 40
0.8188100000000002
 41
6.154745495714157
 42
6.301650807958472
  0
ELLIPSE
  5
18D
330
1F
100
AcDbEntity
  8
1
100
AcDbEllipse
 10
440.814662
 20
310.975068
 30
0.0
 11
7.101851696299366
 21
15.80565005655151
 31
0.0
210
0.0
220
0.0
230
1.0
 40
0.724936
 41
3.072038260138961
 42
3.078245484898161
  0
ELLIPSE
  5
18E
330
1F
100
AcDbEntity
  8
1
100
AcDbEllipse
 10
438.704983
 20
288.907993
 30
0.0
 11
0.5201310863043862
 21
-18.54985598708658
 31
0.0
210
0.0
220
0.0
230
1.0
 40
0.140543
 41
3.108178860925543
 42
3.217275150998023
  0
ELLIPSE
  5
18F
330
1F
100
AcDbEntity
  8
1
100
AcDbEllipse
 10
438.881648
 20
288.907994
 30
0.0
 11
0.6203591100323925
 21
-18.54999614691042
 31
0.0
210
0.0
220
0.0
230
0.9999999999999998
 40
0.0191
 41
3.021028433956016
 42
3.111480857223873
  0
ELLIPSE
  5
190
330
1F
100
AcDbEntity
  8
1
100
AcDbEllipse
 10
444.9023320000001
 20
288.907994
 30
0.0
 11
31.81511048641616
 21
-18.3008094073331
 31
0.0
210
0.0
220
0.0
230
1.0
 40
0.095248
 41
4.242738452706989
 42
4.388592244657294
  0
ELLIPSE
  5
191
330
1F
100
AcDbEntity
  8
1
100
AcDbEllipse
 10
304.008035
 20
288.912316
 30
0.0
 11
3.864128958938156
 21
18.54477947862123
 31
0.0
210
0.0
220
0.0
230
1.0
 40
0.168717
 41
4.330468588031041
 42
4.335055616800623
  0
ELLIPSE
  5
192
330
1F
100
AcDbEntity
  8
1
100
AcDbEllipse
 10
440.0242539999999
 20
296.491435
 30
0.0
 11
2.357642267228976
 21
-0.831578583042765
 31
0.0
210
0.0
220
0.0
230
1.0
 40
0.9986239999999998
 41
5.70184449999591
 42
5.809792633311539
  0
ELLIPSE
  5
193
330
1F
100
AcDbEntity
  8
1
100
AcDbEllipse
 10
302.321495
 20
288.907992
 30
0.0
 11
484.699575569782
 21
18.08980597388214
 31
0.0
210
0.0
220
0.0
230
1.0
 40
0.008472
 41
4.999707849039121
 42
5.01746878136725
  0
ELLIPSE
  5
194
330
1F
100
AcDbEntity
  8
1
100
AcDbEllipse
 10
449.7524089999999
 20
279.378172
 30
0.0
 11
0.0538770024364581
 21
0.4991611425139079
 31
0.0
210
0.0
220
0.0
230
0.9999999999999998
 40
0.139171
 41
1.583568179257909
 42
3.154364506041845
  0
ELLIPSE
  5
195
330
1F
100
AcDbEntity
  8
1
100
AcDbEllipse
 10
450.153111
 20
289.1708
 30
0.0
 11
0.0001758288822675
 21
-0.5000776676664116
 31
0.0
210
0.0
220
0.0
230
0.9999999999999998
 40
0.140519
 41
3.139090475969511
 42
4.709886802763112
  0
ELLIPSE
  5
196
330
1F
100
AcDbEntity
  8
1
100
AcDbEllipse
 10
326.1644990000001
 20
288.907994
 30
0.0
 11
69.18680543465133
 21
-14.41877457808952
 31
0.0
210
0.0
220
0.0
230
0.9999999999999998
 40
0.168682
 41
4.278846892617397
 42
4.444310125129417
  0
ELLIPSE
  5
197
330
1F
100
AcDbEntity
  8
1
100
AcDbEllipse
 10
440.029486
 20
296.50627
 30
0.0
 11
-2.357642267228976
 21
0.8315785830427646
 31
0.0
210
0.0
220
0.0
230
1.0
 40
0.9986239999999998
 41
2.66819997972175
 42
2.776747666076896
  0
ELLIPSE
  5
198
330
1F
100
AcDbEntity
  8
1
100
AcDbEllipse
 10
450.3922139999999
 20
294.787989
 30
0.0
 11
0.0003016037634493
 21
0.5003084758555819
 31
0.0
210
0.0
220
0.0
230
1.0
 40
0.140101
 41
3.195395734393274
 42
4.76619206119359
  0
ELLIPSE
  5
199
330
1F
100
AcDbEntity
  8
1
100
AcDbEllipse
 10
451.265608
 20
288.907994
 30
0.0
 11
2.007829172746689
 21
18.54790209166631
 31
0.0
210
0.0
220
0.0
230
1.0
 40
0.138944
 41
1.901255916388693
 42
3.156632395651096
  0
ELLIPSE
  5
19A
330
1F
100
AcDbEntity
  8
1
100
AcDbEllipse
 10
450.6548419999999
 20
288.907994
 30
0.0
 11
0.0
 21
18.54999999969412
 31
0.0
210
0.0
220
0.0
230
1.0
 40
0.140541
 41
1.488929744647026
 42
1.886216174332696
  0
ELLIPSE
  5
19B
330
1F
100
AcDbEntity
  8
1
100
AcDbEllipse
 10
440.110765
 20
296.736707
 30
0.0
 11
-2.357642267228976
 21
0.8315785830427646
 31
0.0
210
0.0
220
0.0
230
1.0
 40
0.9986239999999998
 41
0.0520252572636146
 42
1.945227431237598
  0
ELLIPSE
  5
19C
330
1F
100
AcDbEntity
  8
1
100
AcDbEllipse
 10
440.110765
 20
296.736707
 30
0.0
 11
-2.357642267228976
 21
0.8315785830427646
 31
0.0
210
0.0
220
0.0
230
1.0
 40
0.9986239999999998
 41
1.945227431237596
 42
2.645311779347059
  0
ELLIPSE
  5
19D
330
1F
100
AcDbEntity
  8
1
100
AcDbEllipse
 10
440.029486
 20
296.50627
 30
0.0
 11
-2.357642267228976
 21
0.8315785830427646
 31
0.0
210
0.0
220
0.0
230
1.0
 40
0.9986239999999998
 41
5.822888314034118
 42
5.942244189143298
  0
ELLIPSE
  5
19E
330
1F
100
AcDbEntity
  8
1
100
AcDbEllipse
 10
440.0242539999999
 20
296.491435
 30
0.0
 11
2.357642267228976
 21
-0.831578583042765
 31
0.0
210
0.0
220
0.0
230
1.0
 40
0.9986239999999998
 41
2.800651535553508
 42
4.438709040114677
  0
ELLIPSE
  5
19F
330
1F
100
AcDbEntity
  8
1
100
AcDbEllipse
 10
438.411183
 20
288.90774
 30
0.0
 11
0.6203679934392437
 21
-18.55024933001769
 31
0.0
210
0.0
220
0.0
230
1.0
 40
0.0191
 41
3.220365523053471
 42
3.236547701584294
  0
ELLIPSE
  5
1A0
330
1F
100
AcDbEntity
  8
1
100
AcDbEllipse
 10
388.756461
 20
288.915249
 30
0.0
 11
1063.165908904973
 21
-0.917856211806969
 31
0.0
210
0.0
220
0.0
230
1.0
 40
0.01742
 41
1.524702923764444
 42
1.527944971235094
  0
ELLIPSE
  5
1A1
330
1F
100
AcDbEntity
  8
1
100
AcDbEllipse
 10
439.2330239999999
 20
306.491636
 30
0.0
 11
-11.88251702683405
 21
4.191156058535535
 31
0.0
210
0.0
220
0.0
230
1.0
 40
0.9986239999999998
 41
1.386722154625863
 42
1.945227515264127
  0
SPLINE
  5
1A7
330
1F
100
AcDbEntity
  8
CUT
100
AcDbSpline
210
0.0
220
0.0
230
1.0
 70
     8
 71
     5
 72
    12
 73
     6
 74
     0
 42
0.000000001
 43
0.0000000001
 40
0.0
 40
0.0
 40
0.0
 40
0.0
 40
0.0
 40
0.0
 40
1.0
 40
1.0
 40
1.0
 40
1.0
 40
1.0
 40
1.0
 10
450.9929060490761
 20
298.381408865437
 30
0.0
 10
451.0092212402978
 20
298.355680256668
 30
0.0
 10
451.025537194155
 20
298.3299521315064
 30
0.0
 10
451.0418539211264
 20
298.3042244966419
 30
0.0
 10
451.0581714319799
 20
298.2784973589475
 30
0.0
 10
451.0744897377933
 20
298.2527707254933
 30
0.0
  0
SPLINE
  5
1A8
330
1F
100
AcDbEntity
  8
1
100
AcDbSpline
210
0.0
220
0.0
230
1.0
 70
     8
 71
     3
 72
     8
 73
     4
 74
     0
 42
0.000000001
 43
0.0000000001
 40
0.0
 40
0.0
 40
0.0
 40
0.0
 40
1.0
 40
1.0
 40
1.0
 40
1.0
 10
440.2958419452956
 20
291.3211160296132
 30
0.0
 10
440.1246991889354
 20
291.3136344556362
 30
0.0
 10
439.953551118318
 20
291.3069748751468
 30
0.0
 10
439.7823990544958
 20
291.30093295172
 30
0.0
  0
SPLINE
  5
1A9
330
1F
100
AcDbEntity
  8
1
100
AcDbSpline
210
0.0
220
0.0
230
1.0
 70
    24
 71
     3
 72
    14
 73
    10
 74
     0
 42
0.000000001
 43
0.0000000001
 40
0.0
 40
0.0
 40
0.0
 40
0.0
 40
0.3120487003743466
 40
0.3120487003743466
 40
0.6240974007486932
 40
0.6240974007486932
 40
0.9361461011230396
 40
0.9361461011230396
 40
1.0
 40
1.0
 40
1.0
 40
1.0
 10
440.2958419452956
 20
292.4181508860598
 30
0.0
 10
440.2958419452956
 20
292.2280904590746
 30
0.0
 10
440.2958419452956
 20
292.0612444630978
 30
0.0
 10
440.2958419452956
 20
291.7765830856004
 30
0.0
 10
440.2958419452956
 20
291.6587688622929
 30
0.0
 10
440.2958419452956
 20
291.474010510474
 30
0.0
 10
440.2958419452956
 20
291.4070671336962
 30
0.0
 10
440.2958419452956
 20
291.3576946977819
 30
0.0
 10
440.2958419452956
 20
291.3503948235821
 30
0.0
 10
440.2958419452956
 20
291.3441828860578
 30
0.0
  0
SPLINE
  5
1AA
330
1F
100
AcDbEntity
  8
1
100
AcDbSpline
210
0.0
220
0.0
230
1.0
 70
     8
 71
     3
 72
     8
 73
     4
 74
     0
 42
0.000000001
 43
0.0000000001
 40
0.0
 40
0.0
 40
0.0
 40
0.0
 40
1.0
 40
1.0
 40
1.0
 40
1.0
 10
439.7424589900661
 20
292.4682909477933
 30
0.0
 10
439.9293229810862
 20
292.4526073971474
 30
0.0
 10
440.1139449476267
 20
292.4359630315117
 30
0.0
 10
440.2958419452956
 20
292.4181508860581
 30
0.0
  0
SPLINE
  5
1AB
330
1F
100
AcDbEntity
  8
1
100
AcDbSpline
210
0.0
220
0.0
230
1.0
 70
     8
 71
     3
 72
    30
 73
    26
 74
     0
 42
0.000000001
 43
0.0000000001
 40
0.0
 40
0.0
 40
0.0
 40
0.0
 40
0.1250000000000054
 40
0.1250000000000054
 40
0.2500000000000108
 40
0.2500000000000108
 40
0.3750000000000163
 40
0.3750000000000163
 40
0.5000000000000219
 40
0.5000000000000219
 40
0.6250000000000275
 40
0.6250000000000275
 40
0.6875000000000267
 40
0.6875000000000267
 40
0.7500000000000259
 40
0.7500000000000259
 40
0.7812500000000254
 40
0.7812500000000254
 40
0.812500000000025
 40
0.812500000000025
 40
0.8750000000000166
 40
0.8750000000000166
 40
0.9375000000000085
 40
0.9375000000000085
 40
1.0
 40
1.0
 40
1.0
 40
1.0
 10
433.008382893226
 20
295.3317803358401
 30
0.0
 10
433.2630288021852
 20
295.1360721324777
 30
0.0
 10
433.5194508879093
 20
294.950531724045
 30
0.0
 10
434.0364026441726
 20
294.5983347009209
 30
0.0
 10
434.2969301245234
 20
294.4316812148813
 30
0.0
 10
434.8228710867476
 20
294.1164096545153
 30
0.0
 10
435.0882801588306
 20
293.9677918190305
 30
0.0
 10
435.6250821731186
 20
293.6882841303831
 30
0.0
 10
435.8964663596511
 20
293.5573909873075
 30
0.0
 10
436.4468232087315
 20
293.3136079849639
 30
0.0
 10
436.7257775183266
 20
293.2007085387814
 30
0.0
 10
437.1517691715265
 20
293.0456395389726
 30
0.0
 10
437.2950802809111
 20
292.996342353003
 30
0.0
 10
437.5844535786715
 20
292.9027291470244
 30
0.0
 10
437.7304977150046
 20
292.8584078780943
 30
0.0
 10
437.9521098257354
 20
292.795899065272
 30
0.0
 10
438.0264066644335
 20
292.7757260004353
 30
0.0
 10
438.1759647605155
 20
292.7367624305655
 30
0.0
 10
438.2512256410514
 20
292.7179736814764
 30
0.0
 10
438.4779356296256
 20
292.6639471309539
 30
0.0
 10
438.630524274664
 20
292.6309797470561
 30
0.0
 10
438.939644211778
 20
292.5717743940187
 30
0.0
 10
439.096168799253
 20
292.5455309728659
 30
0.0
 10
439.4146733944666
 20
292.5007522553828
 30
0.0
 10
439.5766434291823
 20
292.4822078974037
 30
0.0
 10
439.7424589900662
 20
292.4682909477935
 30
0.0
  0
SPLINE
  5
1AC
330
1F
100
AcDbEntity
  8
1
100
AcDbSpline
210
0.0
220
0.0
230
1.0
 70
     8
 71
     3
 72
    10
 73
     6
 74
     0
 42
0.000000001
 43
0.0000000001
 40
0.0
 40
0.0
 40
0.0
 40
0.0
 40
0.5
 40
0.5
 40
1.0
 40
1.0
 40
1.0
 40
1.0
 10
294.892801240981
 20
284.3743255564299
 30
0.0
 10
294.501994508271
 20
284.4881394166872
 30
0.0
 10
294.1060764851578
 20
284.5895643793255
 30
0.0
 10
293.3029289892277
 20
284.7644989157715
 30
0.0
 10
292.8957047915295
 20
284.8380204121599
 30
0.0
 10
292.4822589432653
 20
284.8959965015697
 30
0.0
  0
SPLINE
  5
1AD
330
1F
100
AcDbEntity
  8
1
100
AcDbSpline
210
0.0
220
0.0
230
1.0
 70
     8
 71
     3
 72
     8
 73
     4
 74
     0
 42
0.000000001
 43
0.0000000001
 40
0.0
 40
0.0
 40
0.0
 40
0.0
 40
1.0
 40
1.0
 40
1.0
 40
1.0
 10
443.0035743088757
 20
302.0123765394885
 30
0.0
 10
443.0048538840135
 20
302.0233751804785
 30
0.0
 10
443.0064380761206
 20
302.0343069102901
 30
0.0
 10
443.0083251945883
 20
302.0451718525468
 30
0.0
  0
SPLINE
  5
1AE
330
1F
100
AcDbEntity
  8
1
100
AcDbSpline
210
0.0
220
0.0
230
1.0
 70
     8
 71
     3
 72
    10
 73
     6
 74
     0
 42
0.000000001
 43
0.0000000001
 40
0.0
 40
0.0
 40
0.0
 40
0.0
 40
0.6628244121305764
 40
0.6628244121305764
 40
1.0
 40
1.0
 40
1.0
 40
1.0
 10
444.3316430189331
 20
302.6934266371622
 30
0.0
 10
444.3311394495857
 20
302.6912551354681
 30
0.0
 10
444.3305547173476
 20
302.6890940159313
 30
0.0
 10
444.32954980135
 20
302.6858504848108
 30
0.0
 10
444.3291917404311
 20
302.6847651493115
 30
0.0
 10
444.3288143230693
 20
302.68368816408
 30
0.0
  0
SPLINE
  5
1AF
330
1F
100
AcDbEntity
  8
1
100
AcDbSpline
210
0.0
220
0.0
230
1.0
 70
     8
 71
     3
 72
    27
 73
    23
 74
     0
 42
0.000000001
 43
0.0000000001
 40
0.0
 40
0.0
 40
0.0
 40
0.0
 40
0.1249999999998281
 40
0.1249999999998281
 40
0.1874999999997941
 40
0.1874999999997941
 40
0.24999999999976
 40
0.24999999999976
 40
0.3749999999998003
 40
0.3749999999998003
 40
0.4374999999998201
 40
0.4374999999998201
 40
0.4999999999998401
 40
0.4999999999998401
 40
0.6249999999998798
 40
0.6249999999998798
 40
0.6874999999999011
 40
0.6874999999999011
 40
0.7499999999999223
 40
0.7499999999999223
 40
0.874999999999961
 40
1.0
 40
1.0
 40
1.0
 40
1.0
 10
444.3837484445196
 20
299.6108130874317
 30
0.0
 10
444.3545324688028
 20
299.5980916396743
 30
0.0
 10
444.3245945217206
 20
299.5877995571267
 30
0.0
 10
444.2786256693759
 20
299.5759493980056
 30
0.0
 10
444.2631249023216
 20
299.5726000815772
 30
0.0
 10
444.2317611254241
 20
299.5671272521864
 30
0.0
 10
444.2158520516165
 20
299.5650038491099
 30
0.0
 10
444.1683364264116
 20
299.5605908386819
 30
0.0
 10
444.1367250448411
 20
299.5601941862403
 30
0.0
 10
444.0894056024456
 20
299.5633563974889
 30
0.0
 10
444.0736487975241
 20
299.5650395854381
 30
0.0
 10
444.0421685945737
 20
299.5696898457965
 30
0.0
 10
444.0263733430068
 20
299.5726760031956
 30
0.0
 10
443.9797442789576
 20
299.5834595901678
 30
0.0
 10
443.9495916654011
 20
299.5930525858442
 30
0.0
 10
443.9057208665983
 20
299.6109391313603
 30
0.0
 10
443.8913247184191
 20
299.6174869699015
 30
0.0
 10
443.8629933289404
 20
299.6317691549902
 30
0.0
 10
443.8490078316814
 20
299.6395347202625
 30
0.0
 10
443.8081237705066
 20
299.6644463666923
 30
0.0
 10
443.7569958498954
 20
299.7015703888759
 30
0.0
 10
443.7123471596298
 20
299.7461645430793
 30
0.0
 10
443.6916937484839
 20
299.770383557135
 30
0.0
  0
SPLINE
  5
1B0
330
1F
100
AcDbEntity
  8
1
100
AcDbSpline
210
0.0
220
0.0
230
1.0
 70
     8
 71
     3
 72
    16
 73
    12
 74
     0
 42
0.000000001
 43
0.0000000001
 40
0.0
 40
0.0
 40
0.0
 40
0.0
 40
0.3587940320749174
 40
0.3587940320749174
 40
0.5381910481124047
 40
0.5381910481124047
 40
0.7175880641498921
 40
0.7175880641498921
 40
0.8969850801873791
 40
0.8969850801873791
 40
1.0
 40
1.0
 40
1.0
 40
1.0
 10
443.6916937484839
 20
299.770383557135
 30
0.0
 10
443.6852268953836
 20
299.7779668471312
 30
0.0
 10
443.6800406714115
 20
299.7865029597585
 30
0.0
 10
443.6744266137973
 20
299.79991259077
 30
0.0
 10
443.6728974990693
 20
299.8045089205183
 30
0.0
 10
443.6705288732871
 20
299.8139556994972
 30
0.0
 10
443.6697066014551
 20
299.8187603449283
 30
0.0
 10
443.6687859973643
 20
299.8283039901535
 30
0.0
 10
443.6686789455999
 20
299.8330766273058
 30
0.0
 10
443.6690582180156
 20
299.8405905751607
 30
0.0
 10
443.6693145966503
 20
299.8433436390762
 30
0.0
 10
443.6696846198715
 20
299.8460776129139
 30
0.0
  0
SPLINE
  5
1B1
330
1F
100
AcDbEntity
  8
1
100
AcDbSpline
210
0.0
220
0.0
230
1.0
 70
     8
 71
     3
 72
    10
 73
     6
 74
     0
 42
0.000000001
 43
0.0000000001
 40
0.0
 40
0.0
 40
0.0
 40
0.0
 40
0.1325035073483186
 40
0.1325035073483186
 40
1.0
 40
1.0
 40
1.0
 40
1.0
 10
444.411819257673
 20
299.6295261090574
 30
0.0
 10
444.4107403971234
 20
299.6284917464444
 30
0.0
 10
444.4096358283227
 20
299.6274806013876
 30
0.0
 10
444.401118553366
 20
299.6200437206137
 30
0.0
 10
444.3928830631102
 20
299.6147905542226
 30
0.0
 10
444.3837484445196
 20
299.6108130874317
 30
0.0
  0
SPLINE
  5
1B2
330
1F
100
AcDbEntity
  8
1
100
AcDbSpline
210
0.0
220
0.0
230
1.0
 70
     8
 71
     3
 72
    10
 73
     6
 74
     0
 42
0.000000001
 43
0.0000000001
 40
0.0
 40
0.0
 40
0.0
 40
0.0
 40
0.6419716905430867
 40
0.6419716905430867
 40
1.0
 40
1.0
 40
1.0
 40
1.0
 10
443.6899969140483
 20
299.9424328390253
 30
0.0
 10
443.6920123256443
 20
299.9314660489264
 30
0.0
 10
443.6921145031184
 20
299.9204826691717
 30
0.0
 10
443.6894684104617
 20
299.9035932313199
 30
0.0
 10
443.6879876748146
 20
299.8977296428213
 30
0.0
 10
443.6859774450051
 20
299.892047686399
 30
0.0
  0
SPLINE
  5
1B3
330
1F
100
AcDbEntity
  8
1
100
AcDbSpline
210
0.0
220
0.0
230
1.0
 70
     8
 71
     3
 72
     8
 73
     4
 74
     0
 42
0.000000001
 43
0.0000000001
 40
0.0
 40
0.0
 40
0.0
 40
0.0
 40
1.0
 40
1.0
 40
1.0
 40
1.0
 10
444.4474350580653
 20
299.7387847530023
 30
0.0
 10
444.4506656614166
 20
299.7480014153897
 30
0.0
 10
444.4552084621556
 20
299.7566252606564
 30
0.0
 10
444.4611350605273
 20
299.7646277075166
 30
0.0
  0
SPLINE
  5
1B4
330
1F
100
AcDbEntity
  8
1
100
AcDbSpline
210
0.0
220
0.0
230
1.0
 70
     8
 71
     3
 72
    20
 73
    16
 74
     0
 42
0.000000001
 43
0.0000000001
 40
0.0
 40
0.0
 40
0.0
 40
0.0
 40
0.1249999999999982
 40
0.1249999999999982
 40
0.2499999999999967
 40
0.2499999999999967
 40
0.374999999999995
 40
0.374999999999995
 40
0.4999999999999933
 40
0.4999999999999933
 40
0.6249999999999917
 40
0.6249999999999917
 40
0.7499999999999901
 40
0.7499999999999901
 40
1.0
 40
1.0
 40
1.0
 40
1.0
 10
443.1081219647103
 20
300.4113397309145
 30
0.0
 10
443.1041063916683
 20
300.4087658548268
 30
0.0
 10
443.0999333468001
 20
300.4065020166116
 30
0.0
 10
443.0912745055223
 20
300.4025904218438
 30
0.0
 10
443.0867810366325
 20
300.4009455471217
 30
0.0
 10
443.0776912724251
 20
300.3983536165561
 30
0.0
 10
443.0730695642693
 20
300.3973933004581
 30
0.0
 10
443.0636705709188
 20
300.3961551982978
 30
0.0
 10
443.0588551504285
 20
300.395879940709
 30
0.0
 10
443.0492959649932
 20
300.3960577373422
 30
0.0
 10
443.0445477188539
 20
300.3965032774746
 30
0.0
 10
443.0351153542254
 20
300.3981145973392
 30
0.0
 10
443.0304005079148
 20
300.3992908929624
 30
0.0
 10
443.0165781471727
 20
300.4039112388643
 30
0.0
 10
443.0079636185616
 20
300.4083387787387
 30
0.0
 10
442.9999899797418
 20
300.4141983640969
 30
0.0
  0
SPLINE
  5
1B5
330
1F
100
AcDbEntity
  8
1
100
AcDbSpline
210
0.0
220
0.0
230
1.0
 70
     8
 71
     3
 72
    10
 73
     6
 74
     0
 42
0.000000001
 43
0.0000000001
 40
0.0
 40
0.0
 40
0.0
 40
0.0
 40
0.5
 40
0.5
 40
1.0
 40
1.0
 40
1.0
 40
1.0
 10
443.1081219647103
 20
300.4113397309145
 30
0.0
 10
443.1173006634466
 20
300.4172230339812
 30
0.0
 10
443.1272260444521
 20
300.4214756894525
 30
0.0
 10
443.1484396162895
 20
300.4265968785844
 30
0.0
 10
443.1592337606161
 20
300.4273583394764
 30
0.0
 10
443.1702319495133
 20
300.4262127393665
 30
0.0
  0
SPLINE
  5
1B6
330
1F
100
AcDbEntity
  8
1
100
AcDbSpline
210
0.0
220
0.0
230
1.0
 70
     8
 71
     3
 72
    24
 73
    20
 74
     0
 42
0.000000001
 43
0.0000000001
 40
0.0
 40
0.0
 40
0.0
 40
0.0
 40
0.1250000000001329
 40
0.1250000000001329
 40
0.2500000000002656
 40
0.2500000000002656
 40
0.3125000000002826
 40
0.3125000000002826
 40
0.3750000000002995
 40
0.3750000000002995
 40
0.5000000000002397
 40
0.5000000000002397
 40
0.6250000000001796
 40
0.6250000000001796
 40
0.7500000000001199
 40
0.7500000000001199
 40
0.87500000000006
 40
0.87500000000006
 40
1.0
 40
1.0
 40
1.0
 40
1.0
 10
443.1702319495133
 20
300.4262127393665
 30
0.0
 10
443.2013803228765
 20
300.4229682433607
 30
0.0
 10
443.2320120322763
 20
300.4173151946229
 30
0.0
 10
443.2922897737892
 20
300.4011921161293
 30
0.0
 10
443.3219362310465
 20
300.3907244422792
 30
0.0
 10
443.3656434515691
 20
300.3711100901087
 30
0.0
 10
443.3799913222213
 20
300.3639520785323
 30
0.0
 10
443.4078998541339
 20
300.3485751602445
 30
0.0
 10
443.4215146422256
 20
300.3403324867921
 30
0.0
 10
443.4613431017176
 20
300.3139406915745
 30
0.0
 10
443.4865852562661
 20
300.2941046431753
 30
0.0
 10
443.5340703701021
 20
300.2498943899504
 30
0.0
 10
443.5556226346323
 20
300.2261747869511
 30
0.0
 10
443.5945978993769
 20
300.17568743271
 30
0.0
 10
443.6120256542669
 20
300.1489088239255
 30
0.0
 10
443.6426557154663
 20
300.0922778549608
 30
0.0
 10
443.6554152747786
 20
300.06325390005
 30
0.0
 10
443.6762330878393
 20
300.0038619041838
 30
0.0
 10
443.6842888261405
 20
299.9734931951712
 30
0.0
 10
443.6899969140484
 20
299.9424328390253
 30
0.0
  0
SPLINE
  5
1B7
330
1F
100
AcDbEntity
  8
1
100
AcDbSpline
210
0.0
220
0.0
230
1.0
 70
     8
 71
     3
 72
    18
 73
    14
 74
     0
 42
0.000000001
 43
0.0000000001
 40
0.0
 40
0.0
 40
0.0
 40
0.0
 40
0.2499999999999887
 40
0.2499999999999887
 40
0.3749999999999859
 40
0.3749999999999859
 40
0.4999999999999832
 40
0.4999999999999832
 40
0.6249999999999804
 40
0.6249999999999804
 40
0.7499999999999777
 40
0.7499999999999777
 40
1.0
 40
1.0
 40
1.0
 40
1.0
 10
445.2872411729291
 20
299.8868155584931
 30
0.0
 10
445.2775126272541
 20
299.8850322557124
 30
0.0
 10
445.2676215886997
 20
299.8848384120411
 30
0.0
 10
445.2533678162773
 20
299.8867290120065
 30
0.0
 10
445.248682481311
 20
299.8877194754214
 30
0.0
 10
445.2394453989226
 20
299.8904260161297
 30
0.0
 10
445.2349413529528
 20
299.8921339596857
 30
0.0
 10
445.226356436946
 20
299.89614415303
 30
0.0
 10
445.2222425287731
 20
299.8984557930049
 30
0.0
 10
445.2143672063255
 20
299.9036826904855
 30
0.0
 10
445.2105797421832
 20
299.9066250256597
 30
0.0
 10
445.2000547003946
 20
299.9161286067505
 30
0.0
 10
445.1940741340571
 20
299.9233653967108
 30
0.0
 10
445.1891385826467
 20
299.9315094500323
 30
0.0
  0
SPLINE
  5
1B8
330
1F
100
AcDbEntity
  8
1
100
AcDbSpline
210
0.0
220
0.0
230
1.0
 70
     8
 71
     3
 72
    10
 73
     6
 74
     0
 42
0.000000001
 43
0.0000000001
 40
0.0
 40
0.0
 40
0.0
 40
0.0
 40
0.5
 40
0.5
 40
1.0
 40
1.0
 40
1.0
 40
1.0
 10
445.1400439911428
 20
299.9720234469439
 30
0.0
 10
445.1503987720646
 20
299.9682455735403
 30
0.0
 10
445.1597942450374
 20
299.9628008744934
 30
0.0
 10
445.1765153263766
 20
299.9489319510169
 30
0.0
 10
445.1835032933791
 20
299.9408081266059
 30
0.0
 10
445.1891385826467
 20
299.9315094500323
 30
0.0
  0
SPLINE
  5
1B9
330
1F
100
AcDbEntity
  8
1
100
AcDbSpline
210
0.0
220
0.0
230
1.0
 70
     8
 71
     3
 72
    24
 73
    20
 74
     0
 42
0.000000001
 43
0.0000000001
 40
0.0
 40
0.0
 40
0.0
 40
0.0
 40
0.1249999999999971
 40
0.1249999999999971
 40
0.2499999999999942
 40
0.2499999999999942
 40
0.3124999999999947
 40
0.3124999999999947
 40
0.3749999999999951
 40
0.3749999999999951
 40
0.4999999999999961
 40
0.4999999999999961
 40
0.6249999999999972
 40
0.6249999999999972
 40
0.7499999999999979
 40
0.7499999999999979
 40
0.8749999999999989
 40
0.8749999999999989
 40
1.0
 40
1.0
 40
1.0
 40
1.0
 10
444.4611350605273
 20
299.7646277075166
 30
0.0
 10
444.4799507192346
 20
299.7900337329469
 30
0.0
 10
444.5005568222545
 20
299.813779248199
 30
0.0
 10
444.5453628753406
 20
299.857988586372
 30
0.0
 10
444.5695610525136
 20
299.8784539670431
 30
0.0
 10
444.6087880769503
 20
299.9065177898262
 30
0.0
 10
444.6222757552089
 20
299.9153676892398
 30
0.0
 10
444.6497447080168
 20
299.9318492330714
 30
0.0
 10
444.6637740071958
 20
299.9395158135802
 30
0.0
 10
444.7067471374689
 20
299.9607943036376
 30
0.0
 10
444.7366190770946
 20
299.9727119457361
 30
0.0
 10
444.7986534581128
 20
299.9916526409466
 30
0.0
 10
444.8299048173097
 20
299.9984064132681
 30
0.0
 10
444.8928562249233
 20
300.0067907723576
 30
0.0
 10
444.9245685200219
 20
300.0084200036452
 30
0.0
 10
444.9884209673199
 20
300.0064605263348
 30
0.0
 10
445.0196311089733
 20
300.0029051818331
 30
0.0
 10
445.0807799338796
 20
299.9910376213501
 30
0.0
 10
445.1107178796244
 20
299.9827228849689
 30
0.0
 10
445.1400439911428
 20
299.9720234469439
 30
0.0
  0
SPLINE
  5
1BA
330
1F
100
AcDbEntity
  8
1
100
AcDbSpline
210
0.0
220
0.0
230
1.0
 70
     8
 71
     3
 72
    27
 73
    23
 74
     0
 42
0.000000001
 43
0.0000000001
 40
0.0
 40
0.0
 40
0.0
 40
0.0
 40
0.1358119458615277
 40
0.1358119458615277
 40
0.203717918792289
 40
0.203717918792289
 40
0.2716238917230503
 40
0.2716238917230503
 40
0.4074358375846349
 40
0.4074358375846349
 40
0.4753418105154271
 40
0.4753418105154271
 40
0.5432477834462194
 40
0.5432477834462194
 40
0.6790597293077693
 40
0.6790597293077693
 40
0.7469657022385443
 40
0.7469657022385443
 40
0.8148716751693193
 40
0.8148716751693193
 40
0.9506836210308717
 40
1.0
 40
1.0
 40
1.0
 40
1.0
 10
442.9999899797418
 20
300.4141983640969
 30
0.0
 10
442.9744877936522
 20
300.4329391472691
 30
0.0
 10
442.9507102950486
 20
300.4535406846102
 30
0.0
 10
442.9175951106208
 20
300.487185372945
 30
0.0
 10
442.9069838288265
 20
300.4988594500704
 30
0.0
 10
442.8866333104751
 20
300.5231437760638
 30
0.0
 10
442.8768711321141
 20
300.5357938975495
 30
0.0
 10
442.8493713519548
 20
300.5745570553524
 30
0.0
 10
442.8332574894356
 20
300.6016367715648
 30
0.0
 10
442.8123636642836
 20
300.6440817163703
 30
0.0
 10
442.8059477552388
 20
300.6585356890513
 30
0.0
 10
442.7942357909397
 20
300.6880672840573
 30
0.0
 10
442.7889202719308
 20
300.7032166331502
 30
0.0
 10
442.774919445955
 20
300.7489395388615
 30
0.0
 10
442.7681170083026
 20
300.7798375316544
 30
0.0
 10
442.7615957088068
 20
300.8267898407633
 30
0.0
 10
442.7600386298983
 20
300.8425419859754
 30
0.0
 10
442.7581737827956
 20
300.8742516917016
 30
0.0
 10
442.7578677579448
 20
300.8902684195199
 30
0.0
 10
442.7588719661164
 20
300.9382150495235
 30
0.0
 10
442.7632235524863
 20
300.9811506422297
 30
0.0
 10
442.7720559574249
 20
301.0232552522067
 30
0.0
 10
442.7747302010981
 20
301.0344118171967
 30
0.0
  0
SPLINE
  5
1BB
330
1F
100
AcDbEntity
  8
1
100
AcDbSpline
210
0.0
220
0.0
230
1.0
 70
     8
 71
     3
 72
    21
 73
    17
 74
     0
 42
0.000000001
 43
0.0000000001
 40
0.0
 40
0.0
 40
0.0
 40
0.0
 40
0.1243620819538693
 40
0.1243620819538693
 40
0.2119258737584849
 40
0.2119258737584849
 40
0.2994896655631007
 40
0.2994896655631007
 40
0.4746172491723323
 40
0.4746172491723323
 40
0.5621810409769451
 40
0.5621810409769451
 40
0.6497448327815578
 40
0.6497448327815578
 40
0.8248724163907789
 40
1.0
 40
1.0
 40
1.0
 40
1.0
 10
445.7071006161868
 20
300.1979877283305
 30
0.0
 10
445.6967154740477
 20
300.1780146907148
 30
0.0
 10
445.6852545245646
 20
300.1587129563668
 30
0.0
 10
445.6639111511022
 20
300.1269518774391
 30
0.0
 10
445.6545626543634
 20
300.114159382881
 30
0.0
 10
445.6347843800873
 20
300.0892490625594
 30
0.0
 10
445.6243021888295
 20
300.0770785937939
 30
0.0
 10
445.5916736284323
 20
300.0421393322233
 30
0.0
 10
445.5683336503692
 20
300.0208636218017
 30
0.0
 10
445.5310147630544
 20
299.9918845821557
 30
0.0
 10
445.5181884650608
 20
299.9827163575697
 30
0.0
 10
445.4917527272426
 20
299.9653756694795
 30
0.0
 10
445.4780915383245
 20
299.9571754942971
 30
0.0
 10
445.4362641873769
 20
299.9343147379897
 30
0.0
 10
445.3788521889388
 20
299.9087293623771
 30
0.0
 10
445.3183122080759
 20
299.8925110720085
 30
0.0
 10
445.2872411729291
 20
299.8868155584931
 30
0.0
  0
SPLINE
  5
1BC
330
1F
100
AcDbEntity
  8
1
100
AcDbSpline
210
0.0
220
0.0
230
1.0
 70
     8
 71
     3
 72
    18
 73
    14
 74
     0
 42
0.000000001
 43
0.0000000001
 40
0.0
 40
0.0
 40
0.0
 40
0.0
 40
0.2127774583467529
 40
0.2127774583467529
 40
0.4255549166935058
 40
0.4255549166935058
 40
0.5319436458668677
 40
0.5319436458668677
 40
0.6383323750402298
 40
0.6383323750402298
 40
0.8511098333869428
 40
0.8511098333869428
 40
1.0
 40
1.0
 40
1.0
 40
1.0
 10
443.097379031825
 20
301.8732678898684
 30
0.0
 10
443.1098647121224
 20
301.8450503441384
 30
0.0
 10
443.1200298443434
 20
301.8160465878729
 30
0.0
 10
443.1357500436528
 20
301.7564172326046
 30
0.0
 10
443.1413073287619
 20
301.7257924860477
 30
0.0
 10
443.1459232837743
 20
301.6784982622095
 30
0.0
 10
443.1468234260746
 20
301.662604595758
 30
0.0
 10
443.1473319533997
 20
301.6309423339383
 30
0.0
 10
443.1469464784485
 20
301.6151156373202
 30
0.0
 10
443.1438720729502
 20
301.5676449459194
 30
0.0
 10
443.139267036005
 20
301.5359597183225
 30
0.0
 10
443.1269014627925
 20
301.4822898541687
 30
0.0
 10
443.1206118611338
 20
301.4607009303519
 30
0.0
 10
443.1131703361223
 20
301.4395974964961
 30
0.0
  0
SPLINE
  5
1BD
330
1F
100
AcDbEntity
  8
1
100
AcDbSpline
210
0.0
220
0.0
230
1.0
 70
     8
 71
     3
 72
    10
 73
     6
 74
     0
 42
0.000000001
 43
0.0000000001
 40
0.0
 40
0.0
 40
0.0
 40
0.0
 40
0.5
 40
0.5
 40
1.0
 40
1.0
 40
1.0
 40
1.0
 10
443.0541237026175
 20
301.9187101202648
 30
0.0
 10
443.0636866990367
 20
301.9138628786113
 30
0.0
 10
443.0722136216034
 20
301.9075515110468
 30
0.0
 10
443.0870217163926
 20
301.8920529868738
 30
0.0
 10
443.0929703105194
 20
301.8832315676248
 30
0.0
 10
443.097379031825
 20
301.8732678898684
 30
0.0
  0
SPLINE
  5
1BE
330
1F
100
AcDbEntity
  8
1
100
AcDbSpline
210
0.0
220
0.0
230
1.0
 70
     8
 71
     3
 72
    20
 73
    16
 74
     0
 42
0.000000001
 43
0.0000000001
 40
0.0
 40
0.0
 40
0.0
 40
0.0
 40
0.125
 40
0.125
 40
0.25
 40
0.25
 40
0.375
 40
0.375
 40
0.5
 40
0.5
 40
0.625
 40
0.625
 40
0.75
 40
0.75
 40
1.0
 40
1.0
 40
1.0
 40
1.0
 10
443.0541237026175
 20
301.9187101202648
 30
0.0
 10
443.0499399467571
 20
301.9208307605731
 30
0.0
 10
443.0459458181973
 20
301.9232428274404
 30
0.0
 10
443.0383344298973
 20
301.9286458388617
 30
0.0
 10
443.0347154547405
 20
301.9316451316218
 30
0.0
 10
443.0280278374525
 20
301.9380849515113
 30
0.0
 10
443.0249353348424
 20
301.9415403834775
 30
0.0
 10
443.0192616345793
 20
301.9489294313174
 30
0.0
 10
443.0166638596123
 20
301.9528968705802
 30
0.0
 10
443.0121298445622
 20
301.9611404553826
 30
0.0
 10
443.0101853165097
 20
301.9654160026949
 30
0.0
 10
443.006947879493
 20
301.9742767055307
 30
0.0
 10
443.0056490153743
 20
301.9788929984741
 30
0.0
 10
443.0028495748667
 20
301.9930224240733
 30
0.0
 10
443.0024382043771
 20
302.0026111063072
 30
0.0
 10
443.0035743088757
 20
302.0123765394885
 30
0.0
  0
SPLINE
  5
1BF
330
1F
100
AcDbEntity
  8
1
100
AcDbSpline
210
0.0
220
0.0
230
1.0
 70
     8
 71
     3
 72
    14
 73
    10
 74
     0
 42
0.000000001
 43
0.0000000001
 40
0.0
 40
0.0
 40
0.0
 40
0.0
 40
0.0909779694664396
 40
0.0909779694664396
 40
0.3939853129776266
 40
0.3939853129776266
 40
0.6969926564888133
 40
0.6969926564888133
 40
1.0
 40
1.0
 40
1.0
 40
1.0
 10
445.6653588342986
 20
300.9893389442979
 30
0.0
 10
445.6685319445991
 20
300.998337570174
 30
0.0
 10
445.6719129914386
 20
301.0072350509195
 30
0.0
 10
445.6874396508653
 20
301.0453363114408
 30
0.0
 10
445.7016547991628
 20
301.0735486076338
 30
0.0
 10
445.7346964555211
 20
301.1277061657768
 30
0.0
 10
445.7530381135899
 20
301.1528656603055
 30
0.0
 10
445.7931209055415
 20
301.1996861155478
 30
0.0
 10
445.8148637942533
 20
301.2213451655153
 30
0.0
 10
445.8383292199333
 20
301.241273465937
 30
0.0
  0
SPLINE
  5
1C0
330
1F
100
AcDbEntity
  8
1
100
AcDbSpline
210
0.0
220
0.0
230
1.0
 70
     8
 71
     3
 72
    10
 73
     6
 74
     0
 42
0.000000001
 43
0.0000000001
 40
0.0
 40
0.0
 40
0.0
 40
0.0
 40
0.5
 40
0.5
 40
1.0
 40
1.0
 40
1.0
 40
1.0
 10
445.8383292199333
 20
301.241273465937
 30
0.0
 10
445.8466150270691
 20
301.2483102892228
 30
0.0
 10
445.8558461767218
 20
301.2536777403132
 30
0.0
 10
445.8758381057501
 20
301.2611282383992
 30
0.0
 10
445.8861733067418
 20
301.2630685601162
 30
0.0
 10
445.8968452684161
 20
301.2632497670747
 30
0.0
  0
SPLINE
  5
1C1
330
1F
100
AcDbEntity
  8
1
100
AcDbSpline
210
0.0
220
0.0
230
1.0
 70
     8
 71
     3
 72
    16
 73
    12
 74
     0
 42
0.000000001
 43
0.0000000001
 40
0.0
 40
0.0
 40
0.0
 40
0.0
 40
0.0631184671076876
 40
0.0631184671076876
 40
0.2504947736863359
 40
0.2504947736863359
 40
0.4378710802649843
 40
0.4378710802649843
 40
0.6252473868436324
 40
0.6252473868436324
 40
1.0
 40
1.0
 40
1.0
 40
1.0
 10
445.9631980011738
 20
301.2927113840776
 30
0.0
 10
445.9621116109949
 20
301.2915436242462
 30
0.0
 10
445.960993948168
 20
301.2904030776137
 30
0.0
 10
445.9564339953092
 20
301.2859849513112
 30
0.0
 10
445.9527757579966
 20
301.282956455412
 30
0.0
 10
445.945161311499
 20
301.2775652447822
 30
0.0
 10
445.9411805549133
 20
301.2751783129293
 30
0.0
 10
445.9328780335153
 20
301.2710128809431
 30
0.0
 10
445.9285202865856
 20
301.2692253982911
 30
0.0
 10
445.9152787770661
 20
301.264925964904
 30
0.0
 10
445.9061919022451
 20
301.2634084703329
 30
0.0
 10
445.8968452684161
 20
301.2632497670747
 30
0.0
  0
SPLINE
  5
1C2
330
1F
100
AcDbEntity
  8
1
100
AcDbSpline
210
0.0
220
0.0
230
1.0
 70
     8
 71
     3
 72
    36
 73
    32
 74
     0
 42
0.000000001
 43
0.0000000001
 40
0.0
 40
0.0
 40
0.0
 40
0.0
 40
0.1250000000001702
 40
0.1250000000001702
 40
0.1875000000002594
 40
0.1875000000002594
 40
0.218750000000304
 40
0.218750000000304
 40
0.2500000000003487
 40
0.2500000000003487
 40
0.3750000000004931
 40
0.3750000000004931
 40
0.4062500000005126
 40
0.4062500000005126
 40
0.4375000000005321
 40
0.4375000000005321
 40
0.5000000000005196
 40
0.5000000000005196
 40
0.6250000000004446
 40
0.6250000000004446
 40
0.6562500000003979
 40
0.6562500000003979
 40
0.6875000000003516
 40
0.7500000000002548
 40
0.8125000000001579
 40
0.8125000000001579
 40
0.8437500000001424
 40
0.8437500000001424
 40
0.8750000000001271
 40
0.8750000000001271
 40
1.0
 40
1.0
 40
1.0
 40
1.0
 10
450.6761911676126
 20
307.1108118778683
 30
0.0
 10
450.6743599710298
 20
307.1619300324011
 30
0.0
 10
450.6673991469297
 20
307.2119889986564
 30
0.0
 10
450.6497034293873
 20
307.2855795104937
 30
0.0
 10
450.6425859747553
 20
307.3098580009118
 30
0.0
 10
450.6300517129012
 20
307.3458920719453
 30
0.0
 10
450.6255507776947
 20
307.3578696826683
 30
0.0
 10
450.6159805819536
 20
307.3815381340996
 30
0.0
 10
450.6109212989715
 20
307.3932094670722
 30
0.0
 10
450.5842842441069
 20
307.4507696608267
 30
0.0
 10
450.5587239391407
 20
307.4942925078783
 30
0.0
 10
450.5215325172348
 20
307.5455823764883
 30
0.0
 10
450.5138297408
 20
307.5556832160907
 30
0.0
 10
450.4978870853388
 20
307.5755658038827
 30
0.0
 10
450.489627140103
 20
307.585368550188
 30
0.0
 10
450.464280931164
 20
307.614005772871
 30
0.0
 10
450.4465773473556
 20
307.6321455983642
 30
0.0
 10
450.3911170303876
 20
307.6837912901717
 30
0.0
 10
450.3510338714176
 20
307.7145506894762
 30
0.0
 10
450.2969185926963
 20
307.7482643543098
 30
0.0
 10
450.2858726015654
 20
307.7547778130912
 30
0.0
 10
450.263607057556
 20
307.7671854970254
 30
0.0
 10
450.2298731801221
 20
307.7849176653138
 30
0.0
 10
450.1720023984102
 20
307.8101535124853
 30
0.0
 10
450.1239630650283
 20
307.8257753256585
 30
0.0
 10
450.0872658032745
 20
307.8357417783243
 30
0.0
 10
450.074921883477
 20
307.8387717392415
 30
0.0
 10
450.0500060183044
 20
307.8442341071981
 30
0.0
 10
450.0374157327398
 20
307.8466682117893
 30
0.0
 10
449.9744671769774
 20
307.8572139519073
 30
0.0
 10
449.9237095705809
 20
307.8606059668637
 30
0.0
 10
449.8725427394181
 20
307.8588210416814
 30
0.0
  0
SPLINE
  5
1C3
330
1F
100
AcDbEntity
  8
1
100
AcDbSpline
210
0.0
220
0.0
230
1.0
 70
     8
 71
     3
 72
    36
 73
    32
 74
     0
 42
0.000000001
 43
0.0000000001
 40
0.0
 40
0.0
 40
0.0
 40
0.0
 40
0.1249999999997942
 40
0.1249999999997942
 40
0.1874999999996569
 40
0.1874999999996569
 40
0.2187499999995883
 40
0.2187499999995883
 40
0.2499999999995196
 40
0.2499999999995196
 40
0.3749999999994238
 40
0.3749999999994238
 40
0.4062499999994138
 40
0.4062499999994138
 40
0.4374999999994037
 40
0.4374999999994037
 40
0.4999999999994401
 40
0.4999999999994401
 40
0.6249999999995597
 40
0.6249999999995597
 40
0.6562499999995843
 40
0.6562499999995843
 40
0.6874999999996087
 40
0.7499999999996879
 40
0.8124999999997672
 40
0.8124999999997672
 40
0.8437499999998026
 40
0.8437499999998026
 40
0.8749999999998383
 40
0.8749999999998383
 40
1.0
 40
1.0
 40
1.0
 40
1.0
 10
438.7343635403399
 20
307.4702721304824
 30
0.0
 10
438.6831921194791
 20
307.4684870451912
 30
0.0
 10
438.6330854537456
 20
307.461576911759
 30
0.0
 10
438.5594312655056
 20
307.4439637065166
 30
0.0
 10
438.5351328723933
 20
307.4368748441182
 30
0.0
 10
438.4990709637707
 20
307.4243851293795
 30
0.0
 10
438.487084388899
 20
307.4198993598575
 30
0.0
 10
438.463398807717
 20
307.4103598565216
 30
0.0
 10
438.4517193214565
 20
307.4053160727252
 30
0.0
 10
438.3941203737366
 20
307.3787572618057
 30
0.0
 10
438.3505729043051
 20
307.353261923674
 30
0.0
 10
438.2992601252012
 20
307.3161546345772
 30
0.0
 10
438.2891551005366
 20
307.3084688322791
 30
0.0
 10
438.2692649488813
 20
307.2925604247701
 30
0.0
 10
438.2594588185751
 20
307.284317792978
 30
0.0
 10
438.2308127603299
 20
307.2590234650796
 30
0.0
 10
438.2126687617796
 20
307.2413545101011
 30
0.0
 10
438.1610155562532
 20
307.1859982004923
 30
0.0
 10
438.1302577724433
 20
307.1459845397316
 30
0.0
 10
438.0965546726095
 20
307.0919563401292
 30
0.0
 10
438.0900437653768
 20
307.0809278055807
 30
0.0
 10
438.0776419988571
 20
307.0586968258098
 30
0.0
 10
438.0599199400283
 20
307.0250143946551
 30
0.0
 10
438.0347069214643
 20
306.9672274214309
 30
0.0
 10
438.0191099138333
 20
306.9192530046368
 30
0.0
 10
438.0091644623838
 20
306.882603656021
 30
0.0
 10
438.0061419116812
 20
306.8702755743329
 30
0.0
 10
438.0006952022498
 20
306.8453911135117
 30
0.0
 10
437.9982693599875
 20
306.8328164152991
 30
0.0
 10
437.9877666723663
 20
306.7699443899209
 30
0.0
 10
437.9844148564578
 20
306.7192440780098
 30
0.0
 10
437.986245888796
 20
306.6681305083975
 30
0.0
  0
SPLINE
  5
1C4
330
1F
100
AcDbEntity
  8
1
100
AcDbSpline
210
0.0
220
0.0
230
1.0
 70
     8
 71
     3
 72
    36
 73
    32
 74
     0
 42
0.000000001
 43
0.0000000001
 40
0.0
 40
0.0
 40
0.0
 40
0.0
 40
0.12499999999985
 40
0.12499999999985
 40
0.187499999999776
 40
0.187499999999776
 40
0.218749999999739
 40
0.218749999999739
 40
0.249999999999702
 40
0.249999999999702
 40
0.3749999999996075
 40
0.3749999999996075
 40
0.406249999999603
 40
0.406249999999603
 40
0.4374999999995987
 40
0.4374999999995987
 40
0.4999999999996348
 40
0.4999999999996348
 40
0.6249999999997059
 40
0.6249999999997059
 40
0.6562499999997528
 40
0.6562499999997528
 40
0.6874999999997997
 40
0.7499999999998925
 40
0.8124999999999852
 40
0.8124999999999852
 40
0.8437499999999989
 40
0.8437499999999989
 40
0.8750000000000126
 40
0.8750000000000126
 40
1.0
 40
1.0
 40
1.0
 40
1.0
 10
438.3848315709242
 20
295.5415454745022
 30
0.0
 10
438.3866627675071
 20
295.4904273199692
 30
0.0
 10
438.3936235916071
 20
295.440368353714
 30
0.0
 10
438.4113193091496
 20
295.3667778418766
 30
0.0
 10
438.4184367637816
 20
295.3424993514586
 30
0.0
 10
438.4309710256358
 20
295.306465280425
 30
0.0
 10
438.4354719608422
 20
295.2944876697021
 30
0.0
 10
438.4450421565833
 20
295.2708192182708
 30
0.0
 10
438.4501014395655
 20
295.2591478852982
 30
0.0
 10
438.4767384944299
 20
295.2015876915437
 30
0.0
 10
438.5022987993962
 20
295.1580648444919
 30
0.0
 10
438.5394902213021
 20
295.106774975882
 30
0.0
 10
438.5471929977367
 20
295.0966741362797
 30
0.0
 10
438.563135653198
 20
295.0767915484876
 30
0.0
 10
438.5713955984337
 20
295.0669888021823
 30
0.0
 10
438.5967418073731
 20
295.0383515794994
 30
0.0
 10
438.6144453911813
 20
295.0202117540062
 30
0.0
 10
438.6699057081493
 20
294.9685660621987
 30
0.0
 10
438.7099888671196
 20
294.9378066628942
 30
0.0
 10
438.7641041458408
 20
294.9040929980605
 30
0.0
 10
438.7751501369715
 20
294.8975795392792
 30
0.0
 10
438.7974156809809
 20
294.885171855345
 30
0.0
 10
438.8311495584148
 20
294.8674396870566
 30
0.0
 10
438.8890203110327
 20
294.8422037636431
 30
0.0
 10
438.9370596735086
 20
294.8265820267118
 30
0.0
 10
438.9737569352623
 20
294.8166155740461
 30
0.0
 10
438.9861008550599
 20
294.8135856131289
 30
0.0
 10
439.0110167202324
 20
294.8081232451722
 30
0.0
 10
439.0236070057971
 20
294.805689140581
 30
0.0
 10
439.0865555615595
 20
294.7951434004631
 30
0.0
 10
439.137313167956
 20
294.7917513855066
 30
0.0
 10
439.1884799991187
 20
294.7935363106889
 30
0.0
  0
SPLINE
  5
1C5
330
1F
100
AcDbEntity
  8
1
100
AcDbSpline
210
0.0
220
0.0
230
1.0
 70
     8
 71
     3
 72
    36
 73
    32
 74
     0
 42
0.000000001
 43
0.0000000001
 40
0.0
 40
0.0
 40
0.0
 40
0.0
 40
0.1249999999999708
 40
0.1249999999999708
 40
0.1874999999999228
 40
0.1874999999999228
 40
0.2187499999998984
 40
0.2187499999998984
 40
0.2499999999998741
 40
0.2499999999998741
 40
0.3749999999997767
 40
0.3749999999997767
 40
0.4062499999997656
 40
0.4062499999997656
 40
0.4374999999997545
 40
0.4374999999997545
 40
0.4999999999997846
 40
0.4999999999997846
 40
0.6249999999997995
 40
0.6249999999997995
 40
0.6562499999998033
 40
0.6562499999998033
 40
0.6874999999998071
 40
0.7499999999998429
 40
0.8124999999998788
 40
0.8124999999998788
 40
0.8437499999998967
 40
0.8437499999998967
 40
0.8749999999999149
 40
0.8749999999999149
 40
1.0
 40
1.0
 40
1.0
 40
1.0
 10
450.3266591981968
 20
295.1820852218879
 30
0.0
 10
450.3778306190578
 20
295.1838703071792
 30
0.0
 10
450.4279372847912
 20
295.1907804406114
 30
0.0
 10
450.5015914730313
 20
295.2083936458538
 30
0.0
 10
450.5258898661436
 20
295.2154825082521
 30
0.0
 10
450.5619517747661
 20
295.2279722229908
 30
0.0
 10
450.573938349638
 20
295.2324579925129
 30
0.0
 10
450.59762393082
 20
295.2419974958488
 30
0.0
 10
450.6093034170805
 20
295.2470412796452
 30
0.0
 10
450.6669023648004
 20
295.2736000905647
 30
0.0
 10
450.7104498342319
 20
295.2990954286964
 30
0.0
 10
450.7617626133358
 20
295.3362027177932
 30
0.0
 10
450.7718676380001
 20
295.3438885200912
 30
0.0
 10
450.7917577896556
 20
295.3597969276003
 30
0.0
 10
450.8015639199618
 20
295.3680395593924
 30
0.0
 10
450.8302099782071
 20
295.3933338872908
 30
0.0
 10
450.8483539767573
 20
295.4110028422693
 30
0.0
 10
450.9000071822836
 20
295.466359151878
 30
0.0
 10
450.9307649660935
 20
295.5063728126387
 30
0.0
 10
450.9644680659272
 20
295.5604010122412
 30
0.0
 10
450.9709789731601
 20
295.5714295467897
 30
0.0
 10
450.9833807396797
 20
295.5936605265606
 30
0.0
 10
451.0011027985085
 20
295.6273429577153
 30
0.0
 10
451.0263157407236
 20
295.6851299600678
 30
0.0
 10
451.0419128247038
 20
295.7331043477336
 30
0.0
 10
451.051858276153
 20
295.7697536963494
 30
0.0
 10
451.0548808268556
 20
295.7820817780375
 30
0.0
 10
451.0603275362871
 20
295.8069662388587
 30
0.0
 10
451.0627533785493
 20
295.8195409370712
 30
0.0
 10
451.0732560661706
 20
295.8824129624495
 30
0.0
 10
451.0766078820791
 20
295.9331132743606
 30
0.0
 10
451.0747768497409
 20
295.9842268439729
 30
0.0
  0
SPLINE
  5
1C6
330
1F
100
AcDbEntity
  8
1
100
AcDbSpline
210
0.0
220
0.0
230
1.0
 70
     8
 71
     3
 72
     8
 73
     4
 74
     0
 42
0.000000001
 43
0.0000000001
 40
0.0
 40
0.0
 40
0.0
 40
0.0
 40
1.0
 40
1.0
 40
1.0
 40
1.0
 10
450.4081269389876
 20
279.7892402055163
 30
0.0
 10
450.4251824081698
 20
279.803177814217
 30
0.0
 10
450.4409723155492
 20
279.8184259505285
 30
0.0
 10
450.4554966611258
 20
279.8349846144508
 30
0.0
  0
SPLINE
  5
1C7
330
1F
100
AcDbEntity
  8
1
100
AcDbSpline
210
0.0
220
0.0
230
1.0
 70
     8
 71
     3
 72
     8
 73
     4
 74
     0
 42
0.000000001
 43
0.0000000001
 40
0.0
 40
0.0
 40
0.0
 40
0.0
 40
1.0
 40
1.0
 40
1.0
 40
1.0
 10
450.9894505876547
 20
280.7236331788933
 30
0.0
 10
450.9972522528896
 20
280.7442312366872
 30
0.0
 10
451.0033026456478
 20
280.7653314637832
 30
0.0
 10
451.0076017659293
 20
280.7869338601809
 30
0.0
  0
SPLINE
  5
1C8
330
1F
100
AcDbEntity
  8
1
100
AcDbSpline
210
0.0
220
0.0
230
1.0
 70
     8
 71
     3
 72
     8
 73
     4
 74
     0
 42
0.000000001
 43
0.0000000001
 40
0.0
 40
0.0
 40
0.0
 40
0.0
 40
1.0
 40
1.0
 40
1.0
 40
1.0
 10
450.6126469442884
 20
288.8381183071029
 30
0.0
 10
450.5987093355878
 20
288.8551737762852
 30
0.0
 10
450.5834611992762
 20
288.8709636836646
 30
0.0
 10
450.5669025353539
 20
288.8854880292411
 30
0.0
  0
SPLINE
  5
1C9
330
1F
100
AcDbEntity
  8
1
100
AcDbSpline
210
0.0
220
0.0
230
1.0
 70
     8
 71
     3
 72
     8
 73
     4
 74
     0
 42
0.000000001
 43
0.0000000001
 40
0.0
 40
0.0
 40
0.0
 40
0.0
 40
1.0
 40
1.0
 40
1.0
 40
1.0
 10
451.1311931720172
 20
287.8674807728481
 30
0.0
 10
451.1276505834055
 20
287.8892200467837
 30
0.0
 10
451.1223402636891
 20
287.9105185758535
 30
0.0
 10
451.1152622128678
 20
287.9313763600573
 30
0.0
  0
SPLINE
  5
1CA
330
1F
100
AcDbEntity
  8
1
100
AcDbSpline
210
0.0
220
0.0
230
1.0
 70
     8
 71
     3
 72
    17
 73
    13
 74
     0
 42
0.000000001
 43
0.0000000001
 40
0.0
 40
0.0
 40
0.0
 40
0.0
 40
0.25
 40
0.5
 40
0.5
 40
0.75
 40
0.75
 40
0.8749999999999978
 40
0.8749999999999978
 40
0.9374999999999989
 40
0.9374999999999989
 40
1.0
 40
1.0
 40
1.0
 40
1.0
 10
300.3175186207893
 20
270.3610571745226
 30
0.0
 10
300.5250060294833
 20
270.3595919345294
 30
0.0
 10
300.9440540180709
 20
270.3580529059612
 30
0.0
 10
301.3712456137142
 20
270.3579517326895
 30
0.0
 10
301.8025747236444
 20
270.3580802197773
 30
0.0
 10
302.0203077516179
 20
270.358259159127
 30
0.0
 10
302.3501135600381
 20
270.358467718053
 30
0.0
 10
302.4605837958638
 20
270.3585286771381
 30
0.0
 10
302.6271103075708
 20
270.3585915939576
 30
0.0
 10
302.6828223626507
 20
270.3586079119808
 30
0.0
 10
302.7939697288463
 20
270.358629733618
 30
0.0
 10
302.8494513770519
 20
270.3586352673005
 30
0.0
 10
302.9048419452962
 20
270.3586352673005
 30
0.0
  0
SPLINE
  5
1CB
330
1F
100
AcDbEntity
  8
1
100
AcDbSpline
210
0.0
220
0.0
230
1.0
 70
     8
 71
     3
 72
     8
 73
     4
 74
     0
 42
0.000000001
 43
0.0000000001
 40
0.0
 40
0.0
 40
0.0
 40
0.0
 40
1.0
 40
1.0
 40
1.0
 40
1.0
 10
304.0351726364542
 20
270.361009218871
 30
0.0
 10
303.6584663613278
 20
270.3599200921439
 30
0.0
 10
303.2816901253279
 20
270.359132030055
 30
0.0
 10
302.9048419452957
 20
270.3586352673012
 30
0.0
  0
SPLINE
  5
1CC
330
1F
100
AcDbEntity
  8
1
100
AcDbSpline
210
0.0
220
0.0
230
1.0
 70
     8
 71
     3
 72
   134
 73
   130
 74
     0
 42
0.000000001
 43
0.0000000001
 40
0.0
 40
0.0
 40
0.0
 40
0.0
 40
0.015625
 40
0.015625
 40
0.0312500000000001
 40
0.0312500000000001
 40
0.0468750000000001
 40
0.0468750000000001
 40
0.0625000000000002
 40
0.0625000000000002
 40
0.0781250000000002
 40
0.0781250000000002
 40
0.0937500000000003
 40
0.1093750000000003
 40
0.1093750000000003
 40
0.1171875000000002
 40
0.1171875000000002
 40
0.1250000000000002
 40
0.1406249999999989
 40
0.1406249999999989
 40
0.1484374999999987
 40
0.1484374999999987
 40
0.1562499999999984
 40
0.1562499999999984
 40
0.1874999999999994
 40
0.1874999999999994
 40
0.2031249999999999
 40
0.2031249999999999
 40
0.2187500000000007
 40
0.2187500000000007
 40
0.2343750000000015
 40
0.2343750000000015
 40
0.2500000000000023
 40
0.2500000000000023
 40
0.2656250000000032
 40
0.2656250000000032
 40
0.2812500000000039
 40
0.2968750000000048
 40
0.2968750000000048
 40
0.3046875000000051
 40
0.3046875000000051
 40
0.3125000000000054
 40
0.3281250000000059
 40
0.3281250000000059
 40
0.3359375000000063
 40
0.3359375000000063
 40
0.3437500000000067
 40
0.3437500000000067
 40
0.3750000000000077
 40
0.3750000000000077
 40
0.3906250000000079
 40
0.3906250000000079
 40
0.4062500000000081
 40
0.4062500000000081
 40
0.4218750000000084
 40
0.4218750000000084
 40
0.4375000000000086
 40
0.4531250000000088
 40
0.4531250000000088
 40
0.4687500000000089
 40
0.4687500000000089
 40
0.4843750000000093
 40
0.4843750000000093
 40
0.5000000000000094
 40
0.5000000000000094
 40
0.5312500000000114
 40
0.5312500000000114
 40
0.5390625000000118
 40
0.5390625000000118
 40
0.5468750000000123
 40
0.5625000000000135
 40
0.5625000000000135
 40
0.5703125000000147
 40
0.5703125000000147
 40
0.5781250000000159
 40
0.5781250000000159
 40
0.5937500000000186
 40
0.6093750000000214
 40
0.6093750000000214
 40
0.6171875000000224
 40
0.6171875000000224
 40
0.6250000000000236
 40
0.6406250000000246
 40
0.6406250000000246
 40
0.6484375000000242
 40
0.6484375000000242
 40
0.6562500000000239
 40
0.6562500000000239
 40
0.6875000000000197
 40
0.6875000000000197
 40
0.7031250000000168
 40
0.7031250000000168
 40
0.7187500000000141
 40
0.7187500000000141
 40
0.7343750000000111
 40
0.7343750000000111
 40
0.7500000000000084
 40
0.7500000000000084
 40
0.7656250000000055
 40
0.7656250000000055
 40
0.7812500000000026
 40
0.7968749999999999
 40
0.7968749999999999
 40
0.8046874999999989
 40
0.8046874999999989
 40
0.8124999999999978
 40
0.8281249999999975
 40
0.8281249999999975
 40
0.8359374999999971
 40
0.8359374999999971
 40
0.8437499999999969
 40
0.8437499999999969
 40
0.874999999999996
 40
0.874999999999996
 40
0.8828124999999962
 40
0.8828124999999962
 40
0.8906249999999966
 40
0.9062499999999971
 40
0.9062499999999971
 40
0.9218749999999975
 40
0.9218749999999975
 40
0.9374999999999978
 40
0.9374999999999978
 40
0.9531249999999985
 40
0.9531249999999985
 40
0.9687499999999989
 40
0.9843749999999996
 40
0.9843749999999996
 40
1.0
 40
1.0
 40
1.0
 40
1.0
 10
448.739275342337
 20
283.153493513694
 30
0.0
 10
448.7300014322261
 20
283.1071684235047
 30
0.0
 10
448.7208493137327
 20
283.0598097667795
 30
0.0
 10
448.702832613727
 20
282.9632750671052
 30
0.0
 10
448.6939606087499
 20
282.9140620412637
 30
0.0
 10
448.6764905129509
 20
282.8137361473136
 30
0.0
 10
448.6678810926836
 20
282.7625482226393
 30
0.0
 10
448.6510617213487
 20
282.6590002540066
 30
0.0
 10
448.6428383179779
 20
282.6065677767601
 30
0.0
 10
448.6267633097114
 20
282.5003885445712
 30
0.0
 10
448.6189041895256
 20
282.4465882433246
 30
0.0
 10
448.6035949081851
 20
282.3378908330239
 30
0.0
 10
448.5887492453203
 20
282.2284930036278
 30
0.0
 10
448.5748228521548
 20
282.1177063726961
 30
0.0
 10
448.564724622297
 20
282.0340928208053
 30
0.0
 10
448.5614133779476
 20
282.0061080803463
 30
0.0
 10
448.5549278337614
 20
281.950140659095
 30
0.0
 10
448.5454016730149
 20
281.8661683006201
 30
0.0
 10
448.5364776380446
 20
281.7821327181434
 30
0.0
 10
448.5279544944185
 20
281.6980550415461
 30
0.0
 10
448.5251803196884
 20
281.6700221275785
 30
0.0
 10
448.5197663357606
 20
281.6139421910849
 30
0.0
 10
448.5171255202665
 20
281.5858827781172
 30
0.0
 10
448.5043069451013
 20
281.4460753023791
 30
0.0
 10
448.4952408836481
 20
281.3353918579623
 30
0.0
 10
448.4834226488112
 20
281.1711082066318
 30
0.0
 10
448.4797946081712
 20
281.1168173298059
 30
0.0
 10
448.4731805824146
 20
281.0095469037992
 30
0.0
 10
448.4701902294319
 20
280.9565071192634
 30
0.0
 10
448.4648429091383
 20
280.8516185310029
 30
0.0
 10
448.4624836687706
 20
280.7996937061603
 30
0.0
 10
448.4584321307621
 20
280.6977481626852
 30
0.0
 10
448.4567354371243
 20
280.647658282753
 30
0.0
 10
448.4539964051903
 20
280.5492341236657
 30
0.0
 10
448.4529535782002
 20
280.5008662046774
 30
0.0
 10
448.4515296147068
 20
280.4060427625993
 30
0.0
 10
448.4507721042525
 20
280.3135113544827
 30
0.0
 10
448.4513324469713
 20
280.2255122450463
 30
0.0
 10
448.4522480990511
 20
280.1612166523042
 30
0.0
 10
448.4526364312142
 20
280.1400501531905
 30
0.0
 10
448.4535766469118
 20
280.0984024603464
 30
0.0
 10
448.4552318327387
 20
280.0369572279681
 30
0.0
 10
448.4576158217288
 20
279.9785666747595
 30
0.0
 10
448.4604842359867
 20
279.9222065240647
 30
0.0
 10
448.4615211805333
 20
279.9037584964381
 30
0.0
 10
448.4637572797229
 20
279.8675423227036
 30
0.0
 10
448.4649573330613
 20
279.8497640853058
 30
0.0
 10
448.4713428433
 20
279.7628787216697
 30
0.0
 10
448.4776903373048
 20
279.6995424193317
 30
0.0
 10
448.4890662479882
 20
279.6137762283522
 30
0.0
 10
448.4931592639499
 20
279.5868114239997
 30
0.0
 10
448.5019103937087
 20
279.536315373052
 30
0.0
 10
448.5065730372521
 20
279.5127492165254
 30
0.0
 10
448.516473019465
 20
279.4689837920952
 30
0.0
 10
448.5217198540366
 20
279.4487586913525
 30
0.0
 10
448.5327213404312
 20
279.4119526152132
 30
0.0
 10
448.5442395459111
 20
279.378731821553
 30
0.0
 10
448.5567861568795
 20
279.3526466733258
 30
0.0
 10
448.5698514601694
 20
279.3301604989823
 30
0.0
 10
448.5766285982824
 20
279.3207467573284
 30
0.0
 10
448.5906332226565
 20
279.3056304993569
 30
0.0
 10
448.5978709578253
 20
279.2999190336784
 30
0.0
 10
448.6127545016587
 20
279.2922404812143
 30
0.0
 10
448.6204159616798
 20
279.2902652693095
 30
0.0
 10
448.643960748962
 20
279.2899609103416
 30
0.0
 10
448.66036358025
 20
279.2972065996943
 30
0.0
 10
448.6817521335791
 20
279.3155969306104
 30
0.0
 10
448.6860776110523
 20
279.3197477021363
 30
0.0
 10
448.694788305242
 20
279.3289613184726
 30
0.0
 10
448.70795194135
 20
279.3441554947781
 30
0.0
 10
448.72140678705
 20
279.3634487583828
 30
0.0
 10
448.7350561599993
 20
279.3854802016329
 30
0.0
 10
448.7396383996463
 20
279.3932807657932
 30
0.0
 10
448.7488681783651
 20
279.4098010535456
 30
0.0
 10
448.7535188701505
 20
279.4185275445151
 30
0.0
 10
448.767520027152
 20
279.4459978557481
 30
0.0
 10
448.7863457891208
 20
279.486107889063
 30
0.0
 10
448.8054853949424
 20
279.5331559401445
 30
0.0
 10
448.8199589370286
 20
279.5710690753542
 30
0.0
 10
448.8248055206848
 20
279.5841519693506
 30
0.0
 10
448.834502820726
 20
279.6111004158831
 30
0.0
 10
448.8490674687348
 20
279.652729281937
 30
0.0
 10
448.8636879457333
 20
279.6979596513367
 30
0.0
 10
448.8783457697647
 20
279.7455992612405
 30
0.0
 10
448.8832379409271
 20
279.76188101404
 30
0.0
 10
448.8930348297042
 20
279.7952538857099
 30
0.0
 10
448.8979395982546
 20
279.8123461492182
 30
0.0
 10
448.9224022849238
 20
279.8995115993138
 30
0.0
 10
448.9418514904556
 20
279.9749215136734
 30
0.0
 10
448.9708423728305
 20
280.0966236118852
 30
0.0
 10
448.9804415390673
 20
280.1384883281946
 30
0.0
 10
448.999450014644
 20
280.2245290737466
 30
0.0
 10
449.0088691288096
 20
280.2687460806087
 30
0.0
 10
449.0275363127435
 20
280.3595845685441
 30
0.0
 10
449.0367986413548
 20
280.4062846915485
 30
0.0
 10
449.0550221610687
 20
280.5014549683094
 30
0.0
 10
449.063995461894
 20
280.5499788708031
 30
0.0
 10
449.0816656455214
 20
280.6489008136992
 30
0.0
 10
449.090367726648
 20
280.6993300729971
 30
0.0
 10
449.1074703335314
 20
280.8019547010451
 30
0.0
 10
449.1241950686356
 20
280.9058830553901
 30
0.0
 10
449.1401703566425
 20
281.0123971383928
 30
0.0
 10
449.1518692036511
 20
281.0932577875342
 30
0.0
 10
449.155725273165
 20
281.1204000500135
 30
0.0
 10
449.1633219829091
 20
281.1748653491221
 30
0.0
 10
449.1745420023623
 20
281.2568180245711
 30
0.0
 10
449.1852405877404
 20
281.3395294940594
 30
0.0
 10
449.1955919247232
 20
281.4227462815259
 30
0.0
 10
449.1989844454381
 20
281.4505695034153
 30
0.0
 10
449.2056530862198
 20
281.5063853341258
 30
0.0
 10
449.2089315257922
 20
281.534399004765
 30
0.0
 10
449.2249737724258
 20
281.6743927187975
 30
0.0
 10
449.2367308553401
 20
281.7864565312756
 30
0.0
 10
449.250082769698
 20
281.9266222554934
 30
0.0
 10
449.2526852772988
 20
281.9546577197908
 30
0.0
 10
449.2577355287455
 20
282.0105238038086
 30
0.0
 10
449.2650864131564
 20
282.0940959641862
 30
0.0
 10
449.2717682118488
 20
282.1769916685608
 30
0.0
 10
449.2800825751078
 20
282.2869180218195
 30
0.0
 10
449.2839478704937
 20
282.3416730559372
 30
0.0
 10
449.2910308431731
 20
282.4498561258855
 30
0.0
 10
449.2942536918221
 20
282.5033393943715
 30
0.0
 10
449.3000660111986
 20
282.6090968384605
 30
0.0
 10
449.3026561630941
 20
282.6613865492781
 30
0.0
 10
449.3071954007446
 20
282.7646840160784
 30
0.0
 10
449.3110712955288
 20
282.8661843417897
 30
0.0
 10
449.3136363448996
 20
282.9641333002186
 30
0.0
 10
449.3155447654046
 20
283.0603033072563
 30
0.0
 10
449.3161693834328
 20
283.1075155942539
 30
0.0
 10
449.3164612202784
 20
283.1534935136886
 30
0.0
  0
SPLINE
  5
1CD
330
1F
100
AcDbEntity
  8
1
100
AcDbSpline
210
0.0
220
0.0
230
1.0
 70
     8
 71
     3
 72
    58
 73
    54
 74
     0
 42
0.000000001
 43
0.0000000001
 40
0.0
 40
0.0
 40
0.0
 40
0.0
 40
0.0312499999999984
 40
0.0312499999999984
 40
0.0624999999999968
 40
0.0624999999999968
 40
0.1249999999999926
 40
0.1249999999999926
 40
0.1562499999999904
 40
0.1562499999999904
 40
0.1874999999999881
 40
0.2187499999999859
 40
0.2187499999999859
 40
0.2499999999999837
 40
0.2499999999999837
 40
0.3124999999999813
 40
0.3124999999999813
 40
0.3437499999999817
 40
0.3437499999999817
 40
0.3749999999999822
 40
0.3749999999999822
 40
0.4062499999999826
 40
0.4062499999999826
 40
0.437499999999983
 40
0.4687499999999835
 40
0.4687499999999835
 40
0.499999999999984
 40
0.499999999999984
 40
0.5624999999999872
 40
0.5624999999999872
 40
0.5937499999999887
 40
0.5937499999999887
 40
0.6249999999999903
 40
0.656249999999992
 40
0.656249999999992
 40
0.6874999999999935
 40
0.6874999999999935
 40
0.7187499999999952
 40
0.7187499999999952
 40
0.7499999999999967
 40
0.7499999999999967
 40
0.8124999999999992
 40
0.8124999999999992
 40
0.8437499999999992
 40
0.8437499999999992
 40
0.8749999999999994
 40
0.9062499999999996
 40
0.9062499999999996
 40
0.9374999999999998
 40
0.9374999999999998
 40
0.96875
 40
0.96875
 40
1.0
 40
1.0
 40
1.0
 40
1.0
 10
449.3164612202791
 20
283.1534935136887
 30
0.0
 10
449.3123968027403
 20
283.1949422426729
 30
0.0
 10
449.3081639359743
 20
283.235495841464
 30
0.0
 10
449.2993614843086
 20
283.3148137368742
 30
0.0
 10
449.2947848826623
 20
283.3536329821712
 30
0.0
 10
449.2805976154762
 20
283.4669632106189
 30
0.0
 10
449.2705559663013
 20
283.538190547671
 30
0.0
 10
449.2546227162288
 20
283.6385751786071
 30
0.0
 10
449.2491580061795
 20
283.670999126884
 30
0.0
 10
449.2380000610326
 20
283.7333028383674
 30
0.0
 10
449.2266038708823
 20
283.7931349974184
 30
0.0
 10
449.2147333030112
 20
283.8480459644418
 30
0.0
 10
449.2026240155593
 20
283.900480455765
 30
0.0
 10
449.1964507926996
 20
283.925448728614
 30
0.0
 10
449.1776921728766
 20
283.996148226639
 30
0.0
 10
449.1648299010279
 20
284.0378639945603
 30
0.0
 10
449.1449968524916
 20
284.0922380641404
 30
0.0
 10
449.1383178584648
 20
284.1089291255851
 30
0.0
 10
449.1248545680161
 20
284.1393866584908
 30
0.0
 10
449.1180655494367
 20
284.1531661685157
 30
0.0
 10
449.1043724846015
 20
284.1778195784946
 30
0.0
 10
449.0974605237058
 20
284.1887038795993
 30
0.0
 10
449.0835561453188
 20
284.2074802292797
 30
0.0
 10
449.0696045252217
 20
284.2232271118606
 30
0.0
 10
449.0555589244508
 20
284.2329472998044
 30
0.0
 10
449.041466068051
 20
284.23963712806
 30
0.0
 10
449.0343843226248
 20
284.2414652159932
 30
0.0
 10
449.0131824818421
 20
284.2423358839468
 30
0.0
 10
448.9990943668627
 20
284.2368110017142
 30
0.0
 10
448.9780323033389
 20
284.2193077654624
 30
0.0
 10
448.9710207340141
 20
284.2119236130663
 30
0.0
 10
448.9571152364166
 20
284.1941580665058
 30
0.0
 10
448.9433038733553
 20
284.1733800998169
 30
0.0
 10
448.9296808788508
 20
284.1465741092779
 30
0.0
 10
448.9161531707026
 20
284.1167188389771
 30
0.0
 10
448.9094588950883
 20
284.1003119498495
 30
0.0
 10
448.8962455286654
 20
284.0646434926983
 30
0.0
 10
448.8897205647988
 20
284.045369115644
 30
0.0
 10
448.8768346287628
 20
284.003930318862
 30
0.0
 10
448.8704647224088
 20
283.9817316196201
 30
0.0
 10
448.8516694551968
 20
283.9109851667134
 30
0.0
 10
448.8395984990837
 20
283.8584802252105
 30
0.0
 10
448.8221816830522
 20
283.7717027231308
 30
0.0
 10
448.8164848074013
 20
283.7413940155061
 30
0.0
 10
448.8053970161094
 20
283.6784755364613
 30
0.0
 10
448.794598774672
 20
283.6131836582701
 30
0.0
 10
448.7843782851014
 20
283.5431560298588
 30
0.0
 10
448.7744492571358
 20
283.4707393319524
 30
0.0
 10
448.7696421204486
 20
283.4334150382325
 30
0.0
 10
448.7603810251575
 20
283.3568603873518
 30
0.0
 10
448.755920712142
 20
283.3175842506911
 30
0.0
 10
448.7473406765612
 20
283.2370336438789
 30
0.0
 10
448.7432157558294
 20
283.1957026715015
 30
0.0
 10
448.739275342337
 20
283.153493513694
 30
0.0
  0
SPLINE
  5
1CE
330
1F
100
AcDbEntity
  8
1
100
AcDbSpline
210
0.0
220
0.0
230
1.0
 70
     8
 71
     3
 72
     8
 73
     4
 74
     0
 42
0.000000001
 43
0.0000000001
 40
0.0
 40
0.0
 40
0.0
 40
0.0
 40
1.0
 40
1.0
 40
1.0
 40
1.0
 10
299.3074114358861
 20
270.3724150539878
 30
0.0
 10
299.6440478580639
 20
270.3672259136266
 30
0.0
 10
299.9806134411398
 20
270.3634363403053
 30
0.0
 10
300.317518620789
 20
270.3610571745226
 30
0.0
  0
SPLINE
  5
1CF
330
1F
100
AcDbEntity
  8
1
100
AcDbSpline
210
0.0
220
0.0
230
1.0
 70
     8
 71
     3
 72
     8
 73
     4
 74
     0
 42
0.000000001
 43
0.0000000001
 40
0.0
 40
0.0
 40
0.0
 40
0.0
 40
1.0
 40
1.0
 40
1.0
 40
1.0
 10
292.4822589432654
 20
270.6389809846416
 30
0.0
 10
292.7953512414987
 20
270.6197946585663
 30
0.0
 10
293.1087066535597
 20
270.6017310679198
 30
0.0
 10
293.4220639250778
 20
270.5846409770646
 30
0.0
  0
SPLINE
  5
1D0
330
1F
100
AcDbEntity
  8
1
100
AcDbSpline
210
0.0
220
0.0
230
1.0
 70
     8
 71
     3
 72
     8
 73
     4
 74
     0
 42
0.000000001
 43
0.0000000001
 40
0.0
 40
0.0
 40
0.0
 40
0.0
 40
1.0
 40
1.0
 40
1.0
 40
1.0
 10
431.9704178406531
 20
296.1145268421226
 30
0.0
 10
432.325998063989
 20
295.8510795663833
 30
0.0
 10
432.6722914164357
 20
295.5900835591543
 30
0.0
 10
433.0083828932258
 20
295.3317803358398
 30
0.0
  0
SPLINE
  5
1D1
330
1F
100
AcDbEntity
  8
1
100
AcDbSpline
210
0.0
220
0.0
230
1.0
 70
     8
 71
     3
 72
    41
 73
    37
 74
     0
 42
0.000000001
 43
0.0000000001
 40
0.0
 40
0.0
 40
0.0
 40
0.0
 40
0.1250000000000016
 40
0.1250000000000016
 40
0.2500000000000032
 40
0.2500000000000032
 40
0.3125000000000037
 40
0.3125000000000037
 40
0.3750000000000042
 40
0.3750000000000042
 40
0.3906250000000041
 40
0.3906250000000041
 40
0.4062500000000041
 40
0.4375000000000038
 40
0.4375000000000038
 40
0.5000000000000028
 40
0.5000000000000028
 40
0.5625000000000022
 40
0.5625000000000022
 40
0.6250000000000013
 40
0.6250000000000013
 40
0.6875000000000005
 40
0.6875000000000005
 40
0.7031250000000005
 40
0.7031250000000005
 40
0.7187500000000004
 40
0.7187500000000004
 40
0.7500000000000005
 40
0.7500000000000005
 40
0.8125000000000007
 40
0.8125000000000007
 40
0.8750000000000003
 40
0.8750000000000003
 40
0.9375000000000001
 40
0.9375000000000001
 40
1.0
 40
1.0
 40
1.0
 40
1.0
 10
281.1685504442806
 20
280.5395598282359
 30
0.0
 10
281.5157844335382
 20
280.8998705869998
 30
0.0
 10
281.8793543292823
 20
281.2425779085097
 30
0.0
 10
282.6402989294898
 20
281.892821803599
 30
0.0
 10
283.0376602451359
 20
282.2003701945167
 30
0.0
 10
283.6609333539302
 20
282.6342644203671
 30
0.0
 10
283.8732415445008
 20
282.7743121485462
 30
0.0
 10
284.3074498027353
 20
283.0448839037667
 30
0.0
 10
284.5293486335572
 20
283.1754092206685
 30
0.0
 10
284.8131187214807
 20
283.3322940558755
 30
0.0
 10
284.8702336641202
 20
283.3633785269829
 30
0.0
 10
284.9848680129392
 20
283.4247776708899
 30
0.0
 10
285.1574304554146
 20
283.515726505525
 30
0.0
 10
285.33183737588
 20
283.6032123042332
 30
0.0
 10
285.683148775495
 20
283.7735152343678
 30
0.0
 10
285.9206836061639
 20
283.8808320554162
 30
0.0
 10
286.4026762309017
 20
284.0826107265143
 30
0.0
 10
286.6471334601286
 20
284.1770740141974
 30
0.0
 10
287.1433363168839
 20
284.3525071854268
 30
0.0
 10
287.3950811291122
 20
284.4334791976953
 30
0.0
 10
287.9063426847224
 20
284.58101649238
 30
0.0
 10
288.1658582507284
 20
284.6475849266644
 30
0.0
 10
288.4955045567593
 20
284.7210000451902
 30
0.0
 10
288.5616968246369
 20
284.7351922908942
 30
0.0
 10
288.6946190223333
 20
284.7625710610178
 30
0.0
 10
288.7612292933964
 20
284.7757321526134
 30
0.0
 10
288.961108243192
 20
284.8135375541523
 30
0.0
 10
289.0945906397736
 20
284.8365388713395
 30
0.0
 10
289.4957293166099
 20
284.8988338741644
 30
0.0
 10
289.7640769121256
 20
284.9314283982059
 30
0.0
 10
290.3026324957011
 20
284.9779761854941
 30
0.0
 10
290.5728405896811
 20
284.9919307633649
 30
0.0
 10
291.1151383738207
 20
285.000101477605
 30
0.0
 10
291.3872282006311
 20
284.9943195142373
 30
0.0
 10
291.9333113325392
 20
284.9615436414602
 30
0.0
 10
292.2073048271394
 20
284.9345523716722
 30
0.0
 10
292.4822589432653
 20
284.8959965015697
 30
0.0
  0
SPLINE
  5
1D2
330
1F
100
AcDbEntity
  8
1
100
AcDbSpline
210
0.0
220
0.0
230
1.0
 70
     8
 71
     3
 72
    38
 73
    34
 74
     0
 42
0.000000001
 43
0.0000000001
 40
0.0
 40
0.0
 40
0.0
 40
0.0
 40
0.0176472698898668
 40
0.0176472698898668
 40
0.0527312959652286
 40
0.0527312959652286
 40
0.0878153220405904
 40
0.0878153220405904
 40
0.1579833741913143
 40
0.1579833741913143
 40
0.2281514263420382
 40
0.2281514263420382
 40
0.2983194784927618
 40
0.2983194784927618
 40
0.3684875306434857
 40
0.3684875306434857
 40
0.4386555827942095
 40
0.4386555827942095
 40
0.5088236349449335
 40
0.5088236349449335
 40
0.5789916870956571
 40
0.5789916870956571
 40
0.649159739246381
 40
0.649159739246381
 40
0.7193277913971049
 40
0.7193277913971049
 40
0.7894958435478287
 40
0.7894958435478287
 40
0.8596638956985522
 40
0.8596638956985522
 40
0.9298319478492761
 40
0.9298319478492761
 40
1.0
 40
1.0
 40
1.0
 40
1.0
 10
356.806018189321
 20
273.9354872609662
 30
0.0
 10
356.4952912599848
 20
273.8962891430489
 30
0.0
 10
356.1845187129796
 20
273.8575635967217
 30
0.0
 10
355.2557613727401
 20
273.7432637741199
 30
0.0
 10
354.6376230348999
 20
273.6691082488468
 30
0.0
 10
353.4009728416673
 20
273.5243423505373
 30
0.0
 10
352.7824719222916
 20
273.4537009154117
 30
0.0
 10
350.9266120133455
 20
273.2463706937797
 30
0.0
 10
349.6889006443354
 20
273.1142439825663
 30
0.0
 10
347.2133381392311
 20
272.8596293819432
 30
0.0
 10
345.975487486444
 20
272.7371462374315
 30
0.0
 10
343.5002929749772
 20
272.5002466579479
 30
0.0
 10
342.2629493239175
 20
272.3858348607742
 30
0.0
 10
339.7892474149081
 20
272.1643309491487
 30
0.0
 10
338.5528892798206
 20
272.0572432963073
 30
0.0
 10
336.0814647507751
 20
271.8503292190745
 30
0.0
 10
334.8463985043123
 20
271.7505072337959
 30
0.0
 10
332.3776881510515
 20
271.5586218612354
 30
0.0
 10
331.1440442546923
 20
271.4665631768449
 30
0.0
 10
328.6781277710467
 20
271.2911216709289
 30
0.0
 10
327.4458554367371
 20
271.2077441497139
 30
0.0
 10
324.9824429370702
 20
271.0508533848939
 30
0.0
 10
323.7513030010056
 20
270.9773463266404
 30
0.0
 10
321.2897203181635
 20
270.8414847897467
 30
0.0
 10
320.0592776798975
 20
270.7791375124745
 30
0.0
 10
317.5984533060187
 20
270.6667832141337
 30
0.0
 10
316.3680714503819
 20
270.6167842557534
 30
0.0
 10
313.9065308029705
 20
270.5299837193367
 30
0.0
 10
312.6753715735764
 20
270.4931904906592
 30
0.0
 10
310.211244843194
 20
270.4330790682814
 30
0.0
 10
308.9782765578217
 20
270.4097684124
 30
0.0
 10
306.5093251865333
 20
270.3760771628371
 30
0.0
 10
305.2733410519426
 20
270.3657016641951
 30
0.0
 10
304.0351726364542
 20
270.361009218871
 30
0.0
  0
SPLINE
  5
1D3
330
1F
100
AcDbEntity
  8
1
100
AcDbSpline
210
0.0
220
0.0
230
1.0
 70
     8
 71
     3
 72
    39
 73
    35
 74
     0
 42
0.000000001
 43
0.0000000001
 40
0.0
 40
0.0
 40
0.0
 40
0.0
 40
0.0581750491290598
 40
0.0581750491290598
 40
0.1163500982581195
 40
0.1163500982581195
 40
0.1745251473871793
 40
0.1745251473871793
 40
0.2327001965162391
 40
0.2908752456452988
 40
0.3490502947743586
 40
0.4072253439034184
 40
0.4072253439034184
 40
0.4654003930324782
 40
0.4654003930324782
 40
0.5235754421615379
 40
0.5235754421615379
 40
0.5817504912905977
 40
0.5817504912905977
 40
0.6399255404196575
 40
0.6399255404196575
 40
0.6981005895487172
 40
0.6981005895487172
 40
0.756275638677777
 40
0.756275638677777
 40
0.8144506878068368
 40
0.8144506878068368
 40
0.8726257369358966
 40
0.8726257369358966
 40
0.9308007860649563
 40
0.9308007860649563
 40
0.9889758351940162
 40
0.9889758351940162
 40
1.0
 40
1.0
 40
1.0
 40
1.0
 10
304.0351726364542
 20
270.3610092188709
 30
0.0
 10
304.8537228030534
 20
270.4142483074594
 30
0.0
 10
305.6709517874454
 20
270.4736687842103
 30
0.0
 10
307.3034977837748
 20
270.6039739776734
 30
0.0
 10
308.1188143083871
 20
270.6748601150653
 30
0.0
 10
309.7481792452921
 20
270.8271306473098
 30
0.0
 10
310.5622273428465
 20
270.9085157050631
 30
0.0
 10
312.1896258946903
 20
271.0807159562509
 30
0.0
 10
313.8163265308597
 20
271.2623467626747
 30
0.0
 10
316.2557985614758
 20
271.5595343501099
 30
0.0
 10
318.6960273319547
 20
271.8775507650386
 30
0.0
 10
320.3241314132017
 20
272.1005887059726
 30
0.0
 10
321.9532172027639
 20
272.327579295459
 30
0.0
 10
322.7682287606576
 20
272.4430481429234
 30
0.0
 10
324.3990308153507
 20
272.6761695194036
 30
0.0
 10
325.2148840597671
 20
272.7938305043367
 30
0.0
 10
326.8477734205315
 20
273.0295254517195
 30
0.0
 10
327.6648096908397
 20
273.1475583120697
 30
0.0
 10
329.3003093678915
 20
273.3820564595275
 30
0.0
 10
330.1187731461678
 20
273.4985189068602
 30
0.0
 10
331.7573303256692
 20
273.7278787187556
 30
0.0
 10
332.5774243767715
 20
273.8407705266409
 30
0.0
 10
334.2193876770862
 20
274.0610568232117
 30
0.0
 10
335.0412578278124
 20
274.1684425162236
 30
0.0
 10
336.6868384716855
 20
274.3760638783795
 30
0.0
 10
337.5105499099364
 20
274.4762884873712
 30
0.0
 10
339.1597691096855
 20
274.668518276288
 30
0.0
 10
339.9852774509376
 20
274.7605133577909
 30
0.0
 10
341.6379126692103
 20
274.9361300555248
 30
0.0
 10
342.4648563426159
 20
275.019727720071
 30
0.0
 10
344.1196969122092
 20
275.179522502593
 30
0.0
 10
344.9476006872268
 20
275.2557239674608
 30
0.0
 10
345.9327701174132
 20
275.3432688770346
 30
0.0
 10
346.0897293725945
 20
275.3571225672297
 30
0.0
 10
346.2466987070646
 20
275.3708937966906
 30
0.0
  0
SPLINE
  5
1D4
330
1F
100
AcDbEntity
  8
1
100
AcDbSpline
210
0.0
220
0.0
230
1.0
 70
     8
 71
     3
 72
     8
 73
     4
 74
     0
 42
0.000000001
 43
0.0000000001
 40
0.0
 40
0.0
 40
0.0
 40
0.0
 40
1.0
 40
1.0
 40
1.0
 40
1.0
 10
305.4712510329565
 20
281.3956454248169
 30
0.0
 10
305.4715039077307
 20
281.4234397342582
 30
0.0
 10
305.4717568573174
 20
281.451234249877
 30
0.0
 10
305.472009881784
 20
281.4790289718597
 30
0.0
  0
SPLINE
  5
1D5
330
1F
100
AcDbEntity
  8
1
100
AcDbSpline
210
0.0
220
0.0
230
1.0
 70
     8
 71
     3
 72
    19
 73
    15
 74
     0
 42
0.000000001
 43
0.0000000001
 40
0.0
 40
0.0
 40
0.0
 40
0.0
 40
0.125000000000005
 40
0.125000000000005
 40
0.25000000000001
 40
0.25000000000001
 40
0.5000000000000063
 40
0.5000000000000063
 40
0.7500000000000027
 40
0.7500000000000027
 40
0.8125000000000019
 40
0.8125000000000019
 40
0.8750000000000012
 40
1.0
 40
1.0
 40
1.0
 40
1.0
 10
433.1087328893986
 20
292.3987762931465
 30
0.0
 10
432.9441728171192
 20
292.4737297341322
 30
0.0
 10
432.7781683800633
 20
292.5506408333945
 30
0.0
 10
432.443573256255
 20
292.7079683743439
 30
0.0
 10
432.2749819923583
 20
292.7883855982781
 30
0.0
 10
431.7656967911341
 20
293.0343965525363
 30
0.0
 10
431.4215059666644
 20
293.2047298820048
 30
0.0
 10
430.7252986581723
 20
293.556003257091
 30
0.0
 10
430.3732758432921
 20
293.7369518834052
 30
0.0
 10
429.9290407551057
 20
293.9688391524488
 30
0.0
 10
429.8400792054591
 20
294.0154524112133
 30
0.0
 10
429.662133009158
 20
294.109027244619
 30
0.0
 10
429.3950845784997
 20
294.2499615231554
 30
0.0
 10
429.1276659864853
 20
294.3925354875958
 30
0.0
 10
428.9492357176647
 20
294.4882545936943
 30
0.0
  0
SPLINE
  5
1D6
330
1F
100
AcDbEntity
  8
1
100
AcDbSpline
210
0.0
220
0.0
230
1.0
 70
     8
 71
     3
 72
     8
 73
     4
 74
     0
 42
0.000000001
 43
0.0000000001
 40
0.0
 40
0.0
 40
0.0
 40
0.0
 40
1.0
 40
1.0
 40
1.0
 40
1.0
 10
431.9704178406547
 20
296.1145268421242
 30
0.0
 10
431.571245847918
 20
296.3585202175091
 30
0.0
 10
431.1665843227149
 20
296.604906038159
 30
0.0
 10
430.7567887361923
 20
296.8535293828183
 30
0.0
  0
SPLINE
  5
1D7
330
1F
100
AcDbEntity
  8
1
100
AcDbSpline
210
0.0
220
0.0
230
1.0
 70
     8
 71
     3
 72
    43
 73
    39
 74
     0
 42
0.000000001
 43
0.0000000001
 40
0.0
 40
0.0
 40
0.0
 40
0.0
 40
0.1249999999999898
 40
0.1249999999999898
 40
0.2499999999999795
 40
0.2499999999999795
 40
0.3749999999999692
 40
0.3749999999999692
 40
0.4374999999999642
 40
0.4374999999999642
 40
0.499999999999959
 40
0.499999999999959
 40
0.5624999999999539
 40
0.5624999999999539
 40
0.6249999999999489
 40
0.6249999999999489
 40
0.6874999999999437
 40
0.6874999999999437
 40
0.7499999999999386
 40
0.7499999999999386
 40
0.7812499999999299
 40
0.7812499999999299
 40
0.8124999999999211
 40
0.8124999999999211
 40
0.8281249999999168
 40
0.8281249999999168
 40
0.8437499999999124
 40
0.8593749999999079
 40
0.8593749999999079
 40
0.8749999999999037
 40
0.8749999999999037
 40
0.9062499999999275
 40
0.9062499999999275
 40
0.9374999999999518
 40
0.9374999999999518
 40
0.968749999999976
 40
0.968749999999976
 40
1.0
 40
1.0
 40
1.0
 40
1.0
 10
430.7567887361924
 20
296.8535293828183
 30
0.0
 10
430.7147542016826
 20
296.8790317720697
 30
0.0
 10
430.6736484221572
 20
296.9055851191214
 30
0.0
 10
430.5934685980564
 20
296.9610078597345
 30
0.0
 10
430.5543916625998
 20
296.9898740159475
 30
0.0
 10
430.4785980228543
 20
297.0503075965157
 30
0.0
 10
430.4418738116557
 20
297.0818666607185
 30
0.0
 10
430.389026873003
 20
297.1317680315611
 30
0.0
 10
430.3717872676148
 20
297.1488320801109
 30
0.0
 10
430.3381977162975
 20
297.1839762074008
 30
0.0
 10
430.321862340676
 20
297.2020439948021
 30
0.0
 10
430.2905303398394
 20
297.2391128524019
 30
0.0
 10
430.2755020833708
 20
297.2581418497562
 30
0.0
 10
430.2470509156681
 20
297.2974390242899
 30
0.0
 10
430.2336046129823
 20
297.3177512394303
 30
0.0
 10
430.2092071524622
 20
297.3593980916188
 30
0.0
 10
430.1982005650406
 20
297.380782556034
 30
0.0
 10
430.1795053659493
 20
297.4250991697956
 30
0.0
 10
430.1717790859586
 20
297.4480142723577
 30
0.0
 10
430.1641278190032
 20
297.4842063750068
 30
0.0
 10
430.1622620265766
 20
297.4965820897726
 30
0.0
 10
430.1603729098066
 20
297.5213834614958
 30
0.0
 10
430.1603265621714
 20
297.5338867521127
 30
0.0
 10
430.1619851157223
 20
297.5528357954664
 30
0.0
 10
430.1628292600353
 20
297.5591620222039
 30
0.0
 10
430.1651206421531
 20
297.5716404084302
 30
0.0
 10
430.1680189410513
 20
297.5839980350088
 30
0.0
 10
430.1722126612623
 20
297.5960968854905
 30
0.0
 10
430.17710309426
 20
297.608056022127
 30
0.0
 10
430.179910580631
 20
297.6139909980842
 30
0.0
 10
430.1893735293242
 20
297.6313993745755
 30
0.0
 10
430.1969001436747
 20
297.6421967453083
 30
0.0
 10
430.2142025979334
 20
297.6622961969273
 30
0.0
 10
430.2241031813811
 20
297.6716785039743
 30
0.0
 10
430.2451481689877
 20
297.6884054639582
 30
0.0
 10
430.2563230033148
 20
297.695831298854
 30
0.0
 10
430.2797176806784
 20
297.7091803503831
 30
0.0
 10
430.291980222124
 20
297.7151144979631
 30
0.0
 10
430.3045046278268
 20
297.7203546786003
 30
0.0
  0
SPLINE
  5
1D8
330
1F
100
AcDbEntity
  8
1
100
AcDbSpline
210
0.0
220
0.0
230
1.0
 70
     8
 71
     3
 72
    36
 73
    32
 74
     0
 42
0.000000001
 43
0.0000000001
 40
0.0
 40
0.0
 40
0.0
 40
0.0
 40
0.0625000000000098
 40
0.0625000000000098
 40
0.1250000000000196
 40
0.1250000000000196
 40
0.2500000000000398
 40
0.2500000000000398
 40
0.3750000000000601
 40
0.3750000000000601
 40
0.5000000000000803
 40
0.5000000000000803
 40
0.5625000000000905
 40
0.5625000000000905
 40
0.6250000000001005
 40
0.6250000000001005
 40
0.6562500000001057
 40
0.6562500000001057
 40
0.687500000000111
 40
0.687500000000111
 40
0.7500000000000808
 40
0.7500000000000808
 40
0.8125000000000506
 40
0.8125000000000506
 40
0.8750000000000204
 40
0.8750000000000204
 40
0.9062500000000051
 40
0.9062500000000051
 40
0.9374999999999902
 40
0.9374999999999902
 40
1.0
 40
1.0
 40
1.0
 40
1.0
 10
441.5385703493706
 20
294.5035558742193
 30
0.0
 10
441.5049980074922
 20
294.4780482781189
 30
0.0
 10
441.4710143832222
 20
294.4535038698763
 30
0.0
 10
441.4022022779135
 20
294.4062492006698
 30
0.0
 10
441.3673740130828
 20
294.3835393180366
 30
0.0
 10
441.2615919396483
 20
294.3180746684847
 30
0.0
 10
441.1893333555573
 20
294.2779691698452
 30
0.0
 10
441.0411954909133
 20
294.2046944539037
 30
0.0
 10
440.9665521675067
 20
294.1721263497269
 30
0.0
 10
440.815622446716
 20
294.1144352319638
 30
0.0
 10
440.739349702238
 20
294.0893142486526
 30
0.0
 10
440.6231436570271
 20
294.0570742245708
 30
0.0
 10
440.5841056123213
 20
294.0472379829534
 30
0.0
 10
440.5052533372792
 20
294.0294148916075
 30
0.0
 10
440.4654403404022
 20
294.0214273228342
 30
0.0
 10
440.4049448185565
 20
294.0108930317576
 30
0.0
 10
440.3846494622796
 20
294.0076232569688
 30
0.0
 10
440.3437548090412
 20
294.0015842713131
 30
0.0
 10
440.3231111242086
 20
293.9988098076379
 30
0.0
 10
440.2609573748854
 20
293.9913086265134
 30
0.0
 10
440.2195361265799
 20
293.9874380371915
 30
0.0
 10
440.1367492336433
 20
293.9819834403495
 30
0.0
 10
440.0953840466049
 20
293.9804002515111
 30
0.0
 10
440.0127118269264
 20
293.9795163489013
 30
0.0
 10
439.9714044025941
 20
293.980214818225
 30
0.0
 10
439.909468044487
 20
293.9829447667698
 30
0.0
 10
439.8887920261151
 20
293.984137589526
 30
0.0
 10
439.847620111572
 20
293.9870654002569
 30
0.0
 10
439.8271472513438
 20
293.9887974424542
 30
0.0
 10
439.7660058533612
 20
293.9947725830657
 30
0.0
 10
439.7256114891134
 20
293.9997925739515
 30
0.0
 10
439.6854531464568
 20
294.0058106121884
 30
0.0
  0
SPLINE
  5
1D9
330
1F
100
AcDbEntity
  8
1
100
AcDbSpline
210
0.0
220
0.0
230
1.0
 70
     8
 71
     3
 72
    27
 73
    23
 74
     0
 42
0.000000001
 43
0.0000000001
 40
0.0
 40
0.0
 40
0.0
 40
0.0
 40
0.1250000000000147
 40
0.2500000000000292
 40
0.3750000000000437
 40
0.4062500000000445
 40
0.4062500000000445
 40
0.4375000000000452
 40
0.4375000000000452
 40
0.5000000000000467
 40
0.5000000000000467
 40
0.6250000000000381
 40
0.6250000000000381
 40
0.687500000000028
 40
0.687500000000028
 40
0.718750000000023
 40
0.718750000000023
 40
0.7500000000000179
 40
0.7500000000000179
 40
0.875000000000009
 40
0.875000000000009
 40
1.0
 40
1.0
 40
1.0
 40
1.0
 10
439.6823956729576
 20
293.9114024019346
 30
0.0
 10
439.3907947639556
 20
293.9011588476704
 30
0.0
 10
438.8092526476009
 20
293.9007457007193
 30
0.0
 10
437.9418320264614
 20
293.9592643853501
 30
0.0
 10
437.2949254900598
 20
294.0473379178613
 30
0.0
 10
436.9368183722563
 20
294.1117687502894
 30
0.0
 10
436.793679106556
 20
294.1387896036033
 30
0.0
 10
436.7221939064675
 20
294.1529183527872
 30
0.0
 10
436.5083894949306
 20
294.1970759945199
 30
0.0
 10
436.3665690587748
 20
294.228904036429
 30
0.0
 10
435.9432421237207
 20
294.3315042441351
 30
0.0
 10
435.6638674014836
 20
294.4093843635812
 30
0.0
 10
435.2490649785015
 20
294.5403633307144
 30
0.0
 10
435.1115080974369
 20
294.5863848294798
 30
0.0
 10
434.9062439174463
 20
294.6589705283363
 30
0.0
 10
434.8379686580648
 20
294.6837705176389
 30
0.0
 10
434.7019971714978
 20
294.7344751393464
 30
0.0
 10
434.6342904826352
 20
294.7603827475277
 30
0.0
 10
434.2971467416678
 20
294.892682640705
 30
0.0
 10
434.0318736590612
 20
295.0073513788339
 30
0.0
 10
433.510151864744
 20
295.254120793002
 30
0.0
 10
433.2537031273176
 20
295.3862219856292
 30
0.0
 10
433.0017023233114
 20
295.5270383260184
 30
0.0
  0
SPLINE
  5
1DA
330
1F
100
AcDbEntity
  8
1
100
AcDbSpline
210
0.0
220
0.0
230
1.0
 70
     8
 71
     3
 72
    27
 73
    23
 74
     0
 42
0.000000001
 43
0.0000000001
 40
0.0
 40
0.0
 40
0.0
 40
0.0
 40
0.1250000000000115
 40
0.1250000000000115
 40
0.250000000000023
 40
0.250000000000023
 40
0.3125000000000288
 40
0.3125000000000288
 40
0.3750000000000345
 40
0.3750000000000345
 40
0.5000000000000461
 40
0.5000000000000461
 40
0.5312500000000431
 40
0.5312500000000431
 40
0.5625000000000402
 40
0.5625000000000402
 40
0.6250000000000345
 40
0.6250000000000345
 40
0.750000000000023
 40
0.8750000000000113
 40
0.8750000000000113
 40
1.0
 40
1.0
 40
1.0
 40
1.0
 10
433.1272392236262
 20
291.8578778858097
 30
0.0
 10
433.3765241193212
 20
291.7036792805039
 30
0.0
 10
433.6309274268834
 20
291.5590238989899
 30
0.0
 10
434.1498813284591
 20
291.2888179848538
 30
0.0
 10
434.4144315698009
 20
291.1632666024944
 30
0.0
 10
434.8189064498411
 20
290.9894658759509
 30
0.0
 10
434.9550786703981
 20
290.9339340473896
 30
0.0
 10
435.2288456508275
 20
290.8281950851332
 30
0.0
 10
435.366571861883
 20
290.777928036246
 30
0.0
 10
435.7822635130321
 20
290.6349055156922
 30
0.0
 10
436.0627385262618
 20
290.549918553382
 30
0.0
 10
436.4175168591656
 20
290.4566900065479
 30
0.0
 10
436.488682023962
 20
290.4386953472765
 30
0.0
 10
436.6314324586011
 20
290.404012688599
 30
0.0
 10
436.7030662737831
 20
290.3873141274521
 30
0.0
 10
436.9181804061283
 20
290.3392793599602
 30
0.0
 10
437.0618477448217
 20
290.3100041033356
 30
0.0
 10
437.4936132729067
 20
290.2303211850665
 30
0.0
 10
438.071334452236
 20
290.1457688805625
 30
0.0
 10
438.6530689350685
 20
290.104083355355
 30
0.0
 10
439.2368185107586
 20
290.0839370961312
 30
0.0
 10
439.5297007554748
 20
290.0846326586667
 30
0.0
 10
439.8236131179938
 20
290.0963388364585
 30
0.0
  0
SPLINE
  5
1DB
330
1F
100
AcDbEntity
  8
1
100
AcDbSpline
210
0.0
220
0.0
230
1.0
 70
     8
 71
     3
 72
     8
 73
     4
 74
     0
 42
0.000000001
 43
0.0000000001
 40
0.0
 40
0.0
 40
0.0
 40
0.0
 40
1.0
 40
1.0
 40
1.0
 40
1.0
 10
439.6823956729576
 20
293.9114024019346
 30
0.0
 10
439.6859532754781
 20
293.9115273758059
 30
0.0
 10
439.6895118811986
 20
293.9116519505511
 30
0.0
 10
439.6930714918053
 20
293.9117761254993
 30
0.0
  0
SPLINE
  5
1DC
330
1F
100
AcDbEntity
  8
1
100
AcDbSpline
210
0.0
220
0.0
230
1.0
 70
     8
 71
     3
 72
    36
 73
    32
 74
     0
 42
0.000000001
 43
0.0000000001
 40
0.0
 40
0.0
 40
0.0
 40
0.0
 40
0.0624999999999943
 40
0.0624999999999943
 40
0.1249999999999886
 40
0.1249999999999886
 40
0.1874999999999829
 40
0.1874999999999829
 40
0.2499999999999772
 40
0.2499999999999772
 40
0.2812499999999743
 40
0.2812499999999743
 40
0.3124999999999714
 40
0.3124999999999714
 40
0.3749999999999759
 40
0.3749999999999759
 40
0.499999999999975
 40
0.499999999999975
 40
0.5624999999999746
 40
0.5624999999999746
 40
0.5937499999999744
 40
0.5937499999999744
 40
0.6249999999999742
 40
0.6249999999999742
 40
0.749999999999983
 40
0.749999999999983
 40
0.8749999999999914
 40
0.8749999999999914
 40
0.937499999999996
 40
0.937499999999996
 40
1.0
 40
1.0
 40
1.0
 40
1.0
 10
439.7823990544958
 20
291.30093295172
 30
0.0
 10
439.6254116503275
 20
291.2953910619304
 30
0.0
 10
439.470150438971
 20
291.2909523243487
 30
0.0
 10
439.1623773910881
 20
291.2847485462073
 30
0.0
 10
439.0098660565657
 20
291.2829841582853
 30
0.0
 10
438.7070472772454
 20
291.2825329364466
 30
0.0
 10
438.5567408251479
 20
291.2838458399723
 30
0.0
 10
438.257919914374
 20
291.28988224933
 30
0.0
 10
438.1094064255033
 20
291.294605216524
 30
0.0
 10
437.8877481879888
 20
291.3044548723308
 30
0.0
 10
437.8140481497281
 20
291.3081985715164
 30
0.0
 10
437.6669887093946
 20
291.3166376654646
 30
0.0
 10
437.5935604283523
 20
291.3213381328415
 30
0.0
 10
437.3742955816665
 20
291.3368699550679
 30
0.0
 10
437.2295962895635
 20
291.3491186585922
 30
0.0
 10
436.7992764591968
 20
291.3916922794756
 30
0.0
 10
436.5173995508639
 20
291.4278437039231
 30
0.0
 10
436.1003889426251
 20
291.4942625819885
 30
0.0
 10
435.9623630066773
 20
291.5184340913415
 30
0.0
 10
435.7566483893942
 20
291.5578108291642
 30
0.0
 10
435.6883091476096
 20
291.5714549676991
 30
0.0
 10
435.5523385314022
 20
291.59973294062
 30
0.0
 10
435.4846709300828
 20
291.6143735601238
 30
0.0
 10
435.1478568908328
 20
291.6900960353493
 30
0.0
 10
434.8832586809391
 20
291.7587282920572
 30
0.0
 10
434.3625407988388
 20
291.9125060920597
 30
0.0
 10
434.1064280758753
 20
291.9976502041782
 30
0.0
 10
433.7280609521786
 20
292.138219395556
 30
0.0
 10
433.6029085862512
 20
292.1872198270232
 30
0.0
 10
433.3544807136198
 20
292.2896115656384
 30
0.0
 10
433.2312172633534
 20
292.3429873938848
 30
0.0
 10
433.1087328893984
 20
292.3987762931465
 30
0.0
  0
SPLINE
  5
1DD
330
1F
100
AcDbEntity
  8
1
100
AcDbSpline
210
0.0
220
0.0
230
1.0
 70
     8
 71
     3
 72
    12
 73
     8
 74
     0
 42
0.000000001
 43
0.0000000001
 40
0.0
 40
0.0
 40
0.0
 40
0.0
 40
0.4999999999999999
 40
0.4999999999999999
 40
0.75
 40
0.75
 40
1.0
 40
1.0
 40
1.0
 40
1.0
 10
281.1685504442804
 20
280.5395598282359
 30
0.0
 10
280.8630951504183
 20
280.2226011430126
 30
0.0
 10
280.5631037793443
 20
279.8939522239522
 30
0.0
 10
280.121925232372
 20
279.3811916508134
 30
0.0
 10
279.9763360461702
 20
279.2069660712273
 30
0.0
 10
279.6882367402156
 20
278.8514091749773
 30
0.0
 10
279.5457262390293
 20
278.6700790461076
 30
0.0
 10
279.4048419452957
 20
278.4848919122937
 30
0.0
  0
SPLINE
  5
1DE
330
1F
100
AcDbEntity
  8
1
100
AcDbSpline
210
0.0
220
0.0
230
1.0
 70
     8
 71
     3
 72
    22
 73
    18
 74
     0
 42
0.000000001
 43
0.0000000001
 40
0.0
 40
0.0
 40
0.0
 40
0.0
 40
0.1250000000000145
 40
0.1250000000000145
 40
0.2500000000000289
 40
0.2500000000000289
 40
0.5000000000000585
 40
0.5000000000000585
 40
0.6250000000000732
 40
0.6250000000000732
 40
0.6875000000000807
 40
0.6875000000000807
 40
0.7500000000000881
 40
0.7500000000000881
 40
0.875000000000044
 40
0.875000000000044
 40
1.0
 40
1.0
 40
1.0
 40
1.0
 10
439.6854531464568
 20
294.0058106121884
 30
0.0
 10
439.6366412179032
 20
294.0131254571999
 30
0.0
 10
439.5883718826557
 20
294.0218631147158
 30
0.0
 10
439.492686590119
 20
294.042091550921
 30
0.0
 10
439.4452725627002
 20
294.0535830874124
 30
0.0
 10
439.3040976282078
 20
294.0921521460979
 30
0.0
 10
439.2113977888197
 20
294.1232992327517
 30
0.0
 10
439.0739189510648
 20
294.1784963534186
 30
0.0
 10
439.0283572228731
 20
294.1983142364125
 30
0.0
 10
438.9603508283252
 20
294.2302738418017
 30
0.0
 10
438.937738042123
 20
294.2412996679221
 30
0.0
 10
438.8926134247311
 20
294.2641208527847
 30
0.0
 10
438.8700569268923
 20
294.2759408829042
 30
0.0
 10
438.802896016416
 20
294.3123934430475
 30
0.0
 10
438.7588426452571
 20
294.3379860847193
 30
0.0
 10
438.6721357727905
 20
294.3917545450011
 30
0.0
 10
438.6294825878709
 20
294.419930253142
 30
0.0
 10
438.5875109502578
 20
294.4494161187395
 30
0.0
  0
SPLINE
  5
1DF
330
1F
100
AcDbEntity
  8
1
100
AcDbSpline
210
0.0
220
0.0
230
1.0
 70
     8
 71
     3
 72
    10
 73
     6
 74
     0
 42
0.000000001
 43
0.0000000001
 40
0.0
 40
0.0
 40
0.0
 40
0.0
 40
0.5
 40
0.5
 40
1.0
 40
1.0
 40
1.0
 40
1.0
 10
434.5096030203213
 20
301.7404594630062
 30
0.0
 10
434.4689730099116
 20
302.6799041573049
 30
0.0
 10
434.4336083679981
 20
303.6195520004343
 30
0.0
 10
434.3701374835862
 20
305.4991006431561
 30
0.0
 10
434.3420549570193
 20
306.438982847733
 30
0.0
 10
434.3165941357205
 20
307.3789424803217
 30
0.0
  0
SPLINE
  5
1E0
330
1F
100
AcDbEntity
  8
1
100
AcDbSpline
210
0.0
220
0.0
230
1.0
 70
     8
 71
     3
 72
    44
 73
    40
 74
     0
 42
0.000000001
 43
0.0000000001
 40
0.0
 40
0.0
 40
0.0
 40
0.0
 40
0.0577183915915176
 40
0.0577183915915176
 40
0.1154367831830352
 40
0.1154367831830352
 40
0.1731551747745528
 40
0.1731551747745528
 40
0.2020143705703122
 40
0.2020143705703122
 40
0.2308735663660715
 40
0.2308735663660715
 40
0.2885919579575891
 40
0.2885919579575891
 40
0.3463103495491068
 40
0.3463103495491068
 40
0.4040287411406244
 40
0.4040287411406244
 40
0.4617471327321421
 40
0.4617471327321421
 40
0.5194655243236596
 40
0.5194655243236596
 40
0.5771839159151765
 40
0.5771839159151765
 40
0.6926206990982106
 40
0.6926206990982106
 40
0.750339090689728
 40
0.750339090689728
 40
0.8080574822812451
 40
0.8080574822812451
 40
0.8657758738727624
 40
0.8657758738727624
 40
0.8946350696685213
 40
0.8946350696685213
 40
0.9234942654642804
 40
0.9234942654642804
 40
0.9812126570557978
 40
0.9812126570557978
 40
1.0
 40
1.0
 40
1.0
 40
1.0
 10
434.3165941357205
 20
307.3789424803217
 30
0.0
 10
433.0075521601516
 20
307.4140819429047
 30
0.0
 10
431.6935894216023
 20
307.4357975622044
 30
0.0
 10
429.0559442068836
 20
307.4590057128672
 30
0.0
 10
427.7322644971109
 20
307.4605078476679
 30
0.0
 10
425.0758210364963
 20
307.4488801695436
 30
0.0
 10
423.7430593099718
 20
307.4357554683916
 30
0.0
 10
421.7379073702382
 20
307.4083288581754
 30
0.0
 10
421.068525058457
 20
307.3978863121454
 30
0.0
 10
419.7279337780042
 20
307.3748100695183
 30
0.0
 10
419.0570553214433
 20
307.362182154025
 30
0.0
 10
417.0430284835198
 20
307.3215213427994
 30
0.0
 10
415.6983998957618
 20
307.2907548897742
 30
0.0
 10
413.006343072732
 20
307.2234249440124
 30
0.0
 10
411.6589160470684
 20
307.1868604941258
 30
0.0
 10
408.9625637011444
 20
307.108029767178
 30
0.0
 10
407.613640018861
 20
307.0657633125336
 30
0.0
 10
404.9157655547503
 20
306.9742189042453
 30
0.0
 10
403.5668118809834
 20
306.9248976036275
 30
0.0
 10
400.8689616190163
 20
306.8189822530205
 30
0.0
 10
399.5200365747538
 20
306.7623857415992
 30
0.0
 10
396.8225902802105
 20
306.641645808167
 30
0.0
 10
395.4740477445597
 20
306.5775007540545
 30
0.0
 10
391.4290891216328
 20
306.3732026377793
 30
0.0
 10
388.7333458064373
 20
306.2212191719034
 30
0.0
 10
384.6914645224507
 20
305.9668627851822
 30
0.0
 10
383.3444580876717
 20
305.8776742742464
 30
0.0
 10
380.6510947162167
 20
305.6898815288616
 30
0.0
 10
379.3046566169846
 20
305.5912756275271
 30
0.0
 10
376.6131799474272
 20
305.3838629542253
 30
0.0
 10
375.2680937359077
 20
305.275061010351
 30
0.0
 10
373.2516399200071
 20
305.1032793238491
 30
0.0
 10
372.5796863686037
 20
305.0445827990082
 30
0.0
 10
371.2362164228899
 20
304.9241166457329
 30
0.0
 10
370.564696127033
 20
304.8623565136613
 30
0.0
 10
368.5507381580018
 20
304.6724663451552
 30
0.0
 10
367.2089067762379
 20
304.539712556276
 30
0.0
 10
365.431200069448
 20
304.3556342040586
 30
0.0
 10
364.9947240073742
 20
304.3097809833073
 30
0.0
 10
364.5583124737968
 20
304.2632892952054
 30
0.0
  0
SPLINE
  5
1E1
330
1F
100
AcDbEntity
  8
1
100
AcDbSpline
210
0.0
220
0.0
230
1.0
 70
    28
 71
     4
 72
    13
 73
     8
 74
     0
 42
0.000000001
 43
0.0000000001
 40
0.0
 40
0.0
 40
0.0
 40
0.0
 40
0.0
 40
0.2333139171470358
 40
0.2333139171470358
 40
0.2333139171470358
 40
1.0
 40
1.0
 40
1.0
 40
1.0
 40
1.0
 10
302.9048419452957
 20
282.154272267313
 30
0.0
 41
0.9985729779831292
 10
302.9048419452957
 20
281.487846793817
 30
0.0
 41
0.9994711500700315
 10
302.9048419452957
 20
280.7935912174076
 30
0.0
 41
1.000587441093736
 10
302.9048419452957
 20
280.0870748564955
 30
0.0
 41
1.00156323924462
 10
302.9048419452957
 20
277.0857713194885
 30
0.0
 41
1.00156323924462
 10
302.9048419452957
 20
274.3997416745568
 30
0.0
 41
0.9910263149399288
 10
302.9048419452957
 20
272.0336878638512
 30
0.0
 41
0.9995923182554701
 10
302.9048419452957
 20
270.358635267303
 30
0.0
 41
1.00131746673181
  0
SPLINE
  5
1E2
330
1F
100
AcDbEntity
  8
1
100
AcDbSpline
210
0.0
220
0.0
230
1.0
 70
     8
 71
     3
 72
    60
 73
    56
 74
     0
 42
0.000000001
 43
0.0000000001
 40
0.0
 40
0.0
 40
0.0
 40
0.0
 40
0.0625000000000002
 40
0.0625000000000002
 40
0.1250000000000004
 40
0.1250000000000004
 40
0.1562500000000004
 40
0.1562500000000004
 40
0.1718750000000005
 40
0.1718750000000005
 40
0.1875000000000005
 40
0.1875000000000005
 40
0.2500000000000009
 40
0.2500000000000009
 40
0.3125000000000013
 40
0.3125000000000013
 40
0.3437500000000017
 40
0.3437500000000017
 40
0.3750000000000021
 40
0.3750000000000021
 40
0.4062500000000024
 40
0.4062500000000024
 40
0.4218750000000026
 40
0.4218750000000026
 40
0.4375000000000028
 40
0.4375000000000028
 40
0.4687500000000031
 40
0.4687500000000031
 40
0.5000000000000035
 40
0.5000000000000035
 40
0.5156250000000036
 40
0.5156250000000036
 40
0.5312500000000038
 40
0.5312500000000038
 40
0.5625000000000038
 40
0.5625000000000038
 40
0.5937500000000038
 40
0.5937500000000038
 40
0.6250000000000038
 40
0.6250000000000038
 40
0.6562500000000038
 40
0.6562500000000038
 40
0.6875000000000038
 40
0.6875000000000038
 40
0.7500000000000035
 40
0.7500000000000035
 40
0.812500000000003
 40
0.812500000000003
 40
0.8437500000000024
 40
0.8437500000000024
 40
0.8750000000000021
 40
0.8750000000000021
 40
0.9375000000000012
 40
0.9375000000000012
 40
1.0
 40
1.0
 40
1.0
 40
1.0
 10
305.4712510329565
 20
281.3956454248169
 30
0.0
 10
307.9440363405743
 20
281.0053024913938
 30
0.0
 10
310.4166668857281
 20
280.6212110158626
 30
0.0
 10
315.3612185971949
 20
279.8636107993369
 30
0.0
 10
317.8331363944277
 20
279.4900786653142
 30
0.0
 10
321.5400476038064
 20
278.9360279770695
 30
0.0
 10
322.7755227226515
 20
278.7523855966122
 30
0.0
 10
324.6284340951534
 20
278.47830304373
 30
0.0
 10
325.2460406110217
 20
278.3871698112167
 30
0.0
 10
326.480971599509
 20
278.2053645972163
 30
0.0
 10
327.0983110928003
 20
278.114690349195
 30
0.0
 10
330.1843447982132
 20
277.6624106350194
 30
0.0
 10
332.6510426020012
 20
277.3040092312192
 30
0.0
 10
337.5793687107888
 20
276.593775480832
 30
0.0
 10
340.0409883934409
 20
276.2419161269204
 30
0.0
 10
343.7291992515794
 20
275.7205177442561
 30
0.0
 10
344.9579026952158
 20
275.5478038967388
 30
0.0
 10
347.4138893797132
 20
275.2050692203775
 30
0.0
 10
348.6411723080189
 20
275.0350480876853
 30
0.0
 10
351.0943410878874
 20
274.6984195141401
 30
0.0
 10
352.320226632706
 20
274.5318121062015
 30
0.0
 10
354.15806418638
 20
274.2851550714246
 30
0.0
 10
354.7705108142404
 20
274.2034763760062
 30
0.0
 10
355.9950951460842
 20
274.0413567143448
 30
0.0
 10
356.6072415884405
 20
273.9609440698152
 30
0.0
 10
358.4434999986535
 20
273.722505239762
 30
0.0
 10
359.6674390242524
 20
273.5673231478553
 30
0.0
 10
362.1160364294959
 20
273.2679830747336
 30
0.0
 10
363.3406949130971
 20
273.1238188324611
 30
0.0
 10
365.1789199153457
 20
272.9174146872265
 30
0.0
 10
365.7918657688415
 20
272.8502436166606
 30
0.0
 10
367.0182593017452
 20
272.719317673208
 30
0.0
 10
367.6317484716749
 20
272.6555582956999
 30
0.0
 10
369.4727374233595
 20
272.4695832236981
 30
0.0
 10
370.7007255603845
 20
272.3526892778755
 30
0.0
 10
373.1585924071804
 20
272.1332893103048
 30
0.0
 10
374.3884814109675
 20
272.0307768309496
 30
0.0
 10
376.8498467587621
 20
271.8381137796376
 30
0.0
 10
378.0813238373929
 20
271.7479711322751
 30
0.0
 10
380.5456790442162
 20
271.5786752625005
 30
0.0
 10
381.7785588102698
 20
271.4995293269211
 30
0.0
 10
384.2456262885237
 20
271.3512285768699
 30
0.0
 10
385.4798153650743
 20
271.2820783164111
 30
0.0
 10
389.1842731300808
 20
271.0884066696049
 30
0.0
 10
391.6564422068233
 20
270.9776479804488
 30
0.0
 10
396.6054791372109
 20
270.7873082485228
 30
0.0
 10
399.0823518307946
 20
270.7077219471125
 30
0.0
 10
402.8006643978736
 20
270.6081404590984
 30
0.0
 10
404.0406652609889
 20
270.5782518215146
 30
0.0
 10
406.5210974406537
 20
270.5246123979413
 30
0.0
 10
407.7615551862806
 20
270.5008612174341
 30
0.0
 10
411.4835461405132
 20
270.4382053591642
 30
0.0
 10
413.9657022705216
 20
270.4078644917014
 30
0.0
 10
418.9310975909867
 20
270.3677635975162
 30
0.0
 10
421.4143404579676
 20
270.3579935137005
 30
0.0
 10
423.8977237555454
 20
270.3579935137005
 30
0.0
  0
SPLINE
  5
1E3
330
1F
100
AcDbEntity
  8
1
100
AcDbSpline
210
0.0
220
0.0
230
1.0
 70
     8
 71
     3
 72
    68
 73
    64
 74
     0
 42
0.000000001
 43
0.0000000001
 40
0.0
 40
0.0
 40
0.0
 40
0.0
 40
0.0519379994447024
 40
0.0519379994447024
 40
0.1151421328150559
 40
0.1151421328150559
 40
0.1467441995002326
 40
0.1467441995002326
 40
0.1783462661854093
 40
0.1783462661854093
 40
0.2415503995557627
 40
0.2415503995557627
 40
0.3047545329261162
 40
0.3047545329261162
 40
0.3679586662964696
 40
0.3679586662964696
 40
0.3995607329816463
 40
0.3995607329816463
 40
0.4153617663242347
 40
0.4153617663242347
 40
0.4311627996668231
 40
0.4311627996668231
 40
0.4627648663519995
 40
0.4627648663519995
 40
0.4943669330371759
 40
0.4943669330371759
 40
0.5259689997223522
 40
0.5259689997223522
 40
0.5575710664075286
 40
0.5575710664075286
 40
0.5891731330927048
 40
0.5891731330927048
 40
0.6207751997778813
 40
0.6207751997778813
 40
0.6523772664630576
 40
0.6523772664630576
 40
0.6839793331482341
 40
0.6839793331482341
 40
0.7155813998334103
 40
0.7155813998334103
 40
0.7471834665185867
 40
0.7471834665185867
 40
0.7787855332037632
 40
0.7787855332037632
 40
0.8103875998889394
 40
0.8103875998889394
 40
0.8419896665741159
 40
0.8419896665741159
 40
0.8735917332592922
 40
0.8735917332592922
 40
0.9051937999444687
 40
0.9051937999444687
 40
0.9209948332870572
 40
0.9209948332870572
 40
0.9367958666296457
 40
0.9367958666296457
 40
0.9525968999722344
 40
0.9525968999722344
 40
0.9683979333148228
 40
0.9683979333148228
 40
0.9841989666574114
 40
0.9841989666574114
 40
1.0
 40
1.0
 40
1.0
 40
1.0
 10
304.3169971297974
 20
307.4579917582556
 30
0.0
 10
306.4866378198777
 20
307.4580406160674
 30
0.0
 10
308.6543683159569
 20
307.448788628167
 30
0.0
 10
313.4563226438171
 20
307.4037897466314
 30
0.0
 10
316.0897402710939
 20
307.3626996215235
 30
0.0
 10
320.037106158523
 20
307.2725843350287
 30
0.0
 10
321.3523768532335
 20
307.2378115653402
 30
0.0
 10
323.9815678407859
 20
307.1583470058643
 30
0.0
 10
325.2955607807554
 20
307.1136529543782
 30
0.0
 10
329.2360644773601
 20
306.9642204511802
 30
0.0
 10
331.8610934977411
 20
306.8440416601382
 30
0.0
 10
337.1092136169937
 20
306.5621432377837
 30
0.0
 10
339.7323143700498
 20
306.4004320294155
 30
0.0
 10
344.9786963497705
 20
306.037813729831
 30
0.0
 10
347.6019872634207
 20
305.8369373172351
 30
0.0
 10
351.5384933944866
 20
305.5096371905208
 30
0.0
 10
352.8509972311537
 20
305.3962133174112
 30
0.0
 10
354.8199553103809
 20
305.2201386256901
 30
0.0
 10
355.4763119448301
 20
305.1604712952944
 30
0.0
 10
356.7890831162186
 20
305.0391689596707
 30
0.0
 10
357.4454912624006
 20
304.9775180783636
 30
0.0
 10
359.4147018111297
 20
304.7893682074097
 30
0.0
 10
360.7274829768893
 20
304.6596581047704
 30
0.0
 10
363.3527375475667
 20
304.3908958916309
 30
0.0
 10
364.6652118809071
 20
304.251839885355
 30
0.0
 10
367.2898216448273
 20
303.9640778505832
 30
0.0
 10
368.6019857909747
 20
303.8153684501697
 30
0.0
 10
371.2260118307476
 20
303.5085637426121
 30
0.0
 10
372.5377563619577
 20
303.3504453434027
 30
0.0
 10
375.1610668937925
 20
303.0258260900451
 30
0.0
 10
376.4726578277879
 20
302.8594072708722
 30
0.0
 10
379.096098156769
 20
302.5197175651589
 30
0.0
 10
380.4079462353682
 20
302.3464461975016
 30
0.0
 10
383.0321306878403
 20
301.9940344318215
 30
0.0
 10
384.3444660120964
 20
301.8148933016612
 30
0.0
 10
386.9697360784675
 20
301.4513607683663
 30
0.0
 10
388.282583192783
 20
301.2669805830951
 30
0.0
 10
390.9085092166855
 20
300.8933040369393
 30
0.0
 10
392.2216218419883
 20
300.7040027922703
 30
0.0
 10
394.8481028078252
 20
300.3204269451587
 30
0.0
 10
396.1614710561386
 20
300.1261532988958
 30
0.0
 10
398.7883548367881
 20
299.7322479640058
 30
0.0
 10
400.1018706639575
 20
299.5326190128249
 30
0.0
 10
402.7288743252431
 20
299.1272288282955
 30
0.0
 10
404.0423706941439
 20
298.9214715069446
 30
0.0
 10
406.6686491851493
 20
298.5026112103492
 30
0.0
 10
407.9814883581046
 20
298.2895271352976
 30
0.0
 10
410.6060841031912
 20
297.8536824770699
 30
0.0
 10
411.9178294839268
 20
297.6308672876197
 30
0.0
 10
414.5400174455377
 20
297.1741893447173
 30
0.0
 10
415.8504542135959
 20
296.9402919501718
 30
0.0
 10
417.8153344117836
 20
296.5817936140222
 30
0.0
 10
418.4701696253461
 20
296.4610390786686
 30
0.0
 10
419.7796850362376
 20
296.2174284852127
 30
0.0
 10
420.4343464825658
 20
296.0945747422979
 30
0.0
 10
421.7435548708474
 20
295.8474353215197
 30
0.0
 10
422.3981118545998
 20
295.7231470302526
 30
0.0
 10
423.7073299870148
 20
295.4740571049844
 30
0.0
 10
424.3619912044318
 20
295.3492554697111
 30
0.0
 10
425.6716703947848
 20
295.1003457675092
 30
0.0
 10
426.3266886660538
 20
294.9762388433561
 30
0.0
 10
427.6373835140531
 20
294.7301945337392
 30
0.0
 10
428.2930606731132
 20
294.6082597737608
 30
0.0
 10
428.9492357176777
 20
294.4882545936918
 30
0.0
  0
SPLINE
  5
1E4
330
1F
100
AcDbEntity
  8
1
100
AcDbSpline
210
0.0
220
0.0
230
1.0
 70
     8
 71
     3
 72
    44
 73
    40
 74
     0
 42
0.000000001
 43
0.0000000001
 40
0.0
 40
0.0
 40
0.0
 40
0.0
 40
0.0624999999999982
 40
0.0624999999999982
 40
0.1249999999999963
 40
0.1249999999999963
 40
0.2500000000000046
 40
0.2500000000000046
 40
0.3750000000000128
 40
0.3750000000000128
 40
0.4375000000000167
 40
0.4375000000000167
 40
0.5000000000000206
 40
0.5000000000000206
 40
0.5312500000000279
 40
0.5312500000000279
 40
0.5625000000000351
 40
0.5625000000000351
 40
0.6250000000000497
 40
0.6250000000000497
 40
0.6875000000000641
 40
0.6875000000000641
 40
0.7031250000000635
 40
0.7031250000000635
 40
0.7187500000000627
 40
0.7187500000000627
 40
0.7500000000000605
 40
0.7500000000000605
 40
0.8125000000000486
 40
0.8125000000000486
 40
0.8750000000000369
 40
0.8750000000000369
 40
0.8906250000000325
 40
0.8906250000000325
 40
0.9062500000000282
 40
0.9062500000000282
 40
0.9375000000000188
 40
0.9375000000000188
 40
1.0
 40
1.0
 40
1.0
 40
1.0
 10
430.3045046278273
 20
297.7203546786005
 30
0.0
 10
430.4221895253711
 20
297.7695937511808
 30
0.0
 10
430.5394687382683
 20
297.8201941189035
 30
0.0
 10
430.7723558988231
 20
297.9240127473864
 30
0.0
 10
430.8880225667649
 20
297.9772535227515
 30
0.0
 10
431.232488917646
 20
298.1413179866167
 30
0.0
 10
431.4587725746571
 20
298.2564536039614
 30
0.0
 10
431.9031944835483
 20
298.5006843161515
 30
0.0
 10
432.1213474809736
 20
298.6297541402947
 30
0.0
 10
432.4408645703136
 20
298.8365762877293
 30
0.0
 10
432.5460779925126
 20
298.9077316844553
 30
0.0
 10
432.7535301762221
 20
299.0551404083703
 30
0.0
 10
432.8557706315542
 20
299.1313908327127
 30
0.0
 10
433.0065146785728
 20
299.2502508221214
 30
0.0
 10
433.0563862435528
 20
299.290671645263
 30
0.0
 10
433.1548413997126
 20
299.3728720200898
 30
0.0
 10
433.2034037357762
 20
299.4146304674118
 30
0.0
 10
433.3469462443022
 20
299.5420278012526
 30
0.0
 10
433.4397917614851
 20
299.6297789385836
 30
0.0
 10
433.6187915607939
 20
299.8119022198405
 30
0.0
 10
433.7049518303728
 20
299.9062684391553
 30
0.0
 10
433.8076148792873
 20
300.029210632046
 30
0.0
 10
433.8278943991438
 20
300.0540495042224
 30
0.0
 10
433.8679202089988
 20
300.1042548818709
 30
0.0
 10
433.8876870780288
 20
300.1296493893087
 30
0.0
 10
433.9458955890728
 20
300.2063370259569
 30
0.0
 10
433.9832999504229
 20
300.2581960288271
 30
0.0
 10
434.0910040488552
 20
300.4161345358179
 30
0.0
 10
434.1568162581661
 20
300.5245643001657
 30
0.0
 10
434.2744014297993
 20
300.7487766265481
 30
0.0
 10
434.3261879675261
 20
300.8645520787141
 30
0.0
 10
434.3803444664676
 20
301.0148107322086
 30
0.0
 10
434.390644219373
 20
301.0451408508221
 30
0.0
 10
434.4101229691487
 20
301.1063880634323
 30
0.0
 10
434.4193114231434
 20
301.1373397211763
 30
0.0
 10
434.4450386120793
 20
301.2309009711728
 30
0.0
 10
434.4595902851125
 20
301.2936532271365
 30
0.0
 10
434.4951866155726
 20
301.4830819775053
 30
0.0
 10
434.5081878096514
 20
301.6109282401607
 30
0.0
 10
434.5096030203221
 20
301.7404594630063
 30
0.0
  0
SPLINE
  5
1E5
330
1F
100
AcDbEntity
  8
1
100
AcDbSpline
210
0.0
220
0.0
230
1.0
 70
    12
 71
     3
 72
     9
 73
     5
 74
     0
 42
0.000000001
 43
0.0000000001
 40
0.0
 40
0.0
 40
0.0
 40
0.0
 40
0.4063000473737001
 40
1.0
 40
1.0
 40
1.0
 40
1.0
 10
387.1154304100709
 20
301.4287288299659
 30
0.0
 41
1.004092105410552
 10
393.5190483511449
 20
301.4550794814131
 30
0.0
 41
1.005369329724765
 10
409.2204911179035
 20
301.1075665806755
 30
0.0
 41
1.007720533396469
 10
425.2557044283504
 20
300.753295366038
 30
0.0
 41
0.9966169027046696
 10
434.5096030203216
 20
301.7404594630063
 30
0.0
 41
1.000983914239842
  0
SPLINE
  5
1E6
330
1F
100
AcDbEntity
  8
1
100
AcDbSpline
210
0.0
220
0.0
230
1.0
 70
     8
 71
     3
 72
    12
 73
     8
 74
     0
 42
0.000000001
 43
0.0000000001
 40
0.0
 40
0.0
 40
0.0
 40
0.0
 40
0.2499999999999998
 40
0.2499999999999998
 40
0.4999999999999997
 40
0.4999999999999997
 40
1.0
 40
1.0
 40
1.0
 40
1.0
 10
279.4048419452957
 20
268.138381522699
 30
0.0
 10
279.5469644920568
 20
268.169674233585
 30
0.0
 10
279.6905195174279
 20
268.2059469173078
 30
0.0
 10
279.9801461114762
 20
268.2872835832106
 30
0.0
 10
280.1262180682244
 20
268.3323492902555
 30
0.0
 10
280.5677421584554
 20
268.4792706224144
 30
0.0
 10
280.8664921643748
 20
268.5927939923182
 30
0.0
 10
281.1685504442906
 20
268.7188153792841
 30
0.0
  0
SPLINE
  5
1E7
330
1F
100
AcDbEntity
  8
1
100
AcDbSpline
210
0.0
220
0.0
230
1.0
 70
     8
 71
     3
 72
    30
 73
    26
 74
     0
 42
0.000000001
 43
0.0000000001
 40
0.0
 40
0.0
 40
0.0
 40
0.0
 40
0.0625000000000002
 40
0.0625000000000002
 40
0.1250000000000004
 40
0.1250000000000004
 40
0.1875000000000006
 40
0.1875000000000006
 40
0.2500000000000007
 40
0.2500000000000007
 40
0.3750000000000011
 40
0.3750000000000011
 40
0.4062500000000013
 40
0.4062500000000013
 40
0.4375000000000013
 40
0.4375000000000013
 40
0.5000000000000013
 40
0.5000000000000013
 40
0.6250000000000008
 40
0.6250000000000008
 40
0.7500000000000006
 40
0.7500000000000006
 40
0.8750000000000001
 40
0.8750000000000001
 40
1.0
 40
1.0
 40
1.0
 40
1.0
 10
292.4822589432654
 20
270.6389809846416
 30
0.0
 10
292.1960461202025
 20
270.6565201338995
 30
0.0
 10
291.9134842250232
 20
270.6682721272254
 30
0.0
 10
291.3548645478564
 20
270.6814980139962
 30
0.0
 10
291.0788091372573
 20
270.6829696180768
 30
0.0
 10
290.5326300923413
 20
270.6766806101064
 30
0.0
 10
290.262507999237
 20
270.6689184031601
 30
0.0
 10
289.7277843996849
 20
270.6450209268061
 30
0.0
 10
289.4631839303201
 20
270.6288845053676
 30
0.0
 10
288.6772319898149
 20
270.5689847939552
 30
0.0
 10
288.1636920877739
 20
270.5137757636179
 30
0.0
 10
287.5340517584006
 20
270.4284158000947
 30
0.0
 10
287.4087409862215
 20
270.4105227665857
 30
0.0
 10
287.1593467151316
 20
270.3731499561695
 30
0.0
 10
287.0351879378011
 20
270.3536562398042
 30
0.0
 10
286.6660118209633
 20
270.2931209211765
 30
0.0
 10
286.4238374004029
 20
270.2499645047779
 30
0.0
 10
285.7087009295052
 20
270.1129044213984
 30
0.0
 10
285.2470894692256
 20
270.0114393214489
 30
0.0
 10
284.3528851414785
 20
269.791733648036
 30
0.0
 10
283.920304109211
 20
269.6734808851338
 30
0.0
 10
283.083949352571
 20
269.4227715456066
 30
0.0
 10
282.6801807154479
 20
269.290307181481
 30
0.0
 10
281.9020176938996
 20
269.0132364273408
 30
0.0
 10
281.5276239767338
 20
268.8686240340699
 30
0.0
 10
281.1685504442906
 20
268.7188153792841
 30
0.0
  0
SPLINE
  5
1E8
330
1F
100
AcDbEntity
  8
1
100
AcDbSpline
210
0.0
220
0.0
230
1.0
 70
     8
 71
     3
 72
    56
 73
    52
 74
     0
 42
0.000000001
 43
0.0000000001
 40
0.0
 40
0.0
 40
0.0
 40
0.0
 40
0.0625000000000008
 40
0.0625000000000008
 40
0.1250000000000015
 40
0.1250000000000015
 40
0.1875000000000023
 40
0.1875000000000023
 40
0.2031250000000024
 40
0.2031250000000024
 40
0.2187500000000026
 40
0.2187500000000026
 40
0.2500000000000026
 40
0.2500000000000026
 40
0.3125000000000021
 40
0.3125000000000021
 40
0.3750000000000014
 40
0.3750000000000014
 40
0.4062500000000011
 40
0.4062500000000011
 40
0.4218750000000007
 40
0.4218750000000007
 40
0.4375000000000004
 40
0.4375000000000004
 40
0.4999999999999984
 40
0.4999999999999984
 40
0.5624999999999965
 40
0.5624999999999965
 40
0.5937499999999952
 40
0.5937499999999952
 40
0.6093749999999947
 40
0.6171874999999949
 40
0.6171874999999949
 40
0.6249999999999951
 40
0.6249999999999951
 40
0.6874999999999954
 40
0.6874999999999954
 40
0.7499999999999956
 40
0.7499999999999956
 40
0.781249999999996
 40
0.781249999999996
 40
0.7968749999999963
 40
0.8046874999999962
 40
0.8046874999999962
 40
0.8124999999999962
 40
0.8124999999999962
 40
0.8749999999999975
 40
0.8749999999999975
 40
0.9374999999999987
 40
0.9374999999999987
 40
1.0
 40
1.0
 40
1.0
 40
1.0
 10
279.4048419452957
 20
278.4848919122936
 30
0.0
 10
279.177123053682
 20
278.2779150760181
 30
0.0
 10
278.961377872032
 20
278.0644297979644
 30
0.0
 10
278.5535456863727
 20
277.6253088279686
 30
0.0
 10
278.3614581342544
 20
277.3996721947985
 30
0.0
 10
278.0013175845704
 20
276.936734804051
 30
0.0
 10
277.833260596109
 20
276.6994348750174
 30
0.0
 10
277.6389002605504
 20
276.3955908164315
 30
0.0
 10
277.6008157257427
 20
276.3344600792411
 30
0.0
 10
277.5262474761539
 20
276.2114724824491
 30
0.0
 10
277.4897285669977
 20
276.1495499571333
 30
0.0
 10
277.383215065626
 20
275.9637554250456
 30
0.0
 10
277.3160757665599
 20
275.8395640114263
 30
0.0
 10
277.1261404054586
 20
275.4661379057196
 30
0.0
 10
277.0147996348192
 20
275.2160571450688
 30
0.0
 10
276.8226730590963
 20
274.7141935421492
 30
0.0
 10
276.7418848760537
 20
274.4624100786571
 30
0.0
 10
276.6442862228176
 20
274.0837413584879
 30
0.0
 10
276.6156911803134
 20
273.9573515302159
 30
0.0
 10
276.5788603526096
 20
273.7675398056195
 30
0.0
 10
276.5675942261184
 20
273.7042313157528
 30
0.0
 10
276.5471161411805
 20
273.5775413645123
 30
0.0
 10
276.5379486912801
 20
273.5144299524881
 30
0.0
 10
276.4974652672951
 20
273.2004200639161
 30
0.0
 10
276.4821046283916
 20
272.9537562121434
 30
0.0
 10
276.4843941157551
 20
272.4693600346062
 30
0.0
 10
276.5020471504263
 20
272.231628004661
 30
0.0
 10
276.5532383890269
 20
271.8816610912145
 30
0.0
 10
276.5744280474385
 20
271.7661111286336
 30
0.0
 10
276.6124613001831
 20
271.5944404252958
 30
0.0
 10
276.6330408135985
 20
271.5090186765134
 30
0.0
 10
276.6559823148235
 20
271.4242169135466
 30
0.0
 10
276.671803954104
 20
271.3678201591962
 30
0.0
 10
276.679976660429
 20
271.3396987374931
 30
0.0
 10
276.7556733759837
 20
271.0879892352829
 30
0.0
 10
276.8385244261235
 20
270.8727169860285
 30
0.0
 10
277.0337257983913
 20
270.457744896383
 30
0.0
 10
277.146082344282
 20
270.2580486448669
 30
0.0
 10
277.3361963264244
 20
269.9694173766563
 30
0.0
 10
277.403170534641
 20
269.8750281003176
 30
0.0
 10
277.5090213272561
 20
269.7360979109297
 30
0.0
 10
277.5632946406133
 20
269.6672964223823
 30
0.0
 10
277.6195919521669
 20
269.599477225175
 30
0.0
 10
277.6575738435365
 20
269.554481354893
 30
0.0
 10
277.6768011543451
 20
269.5320792724838
 30
0.0
 10
277.8515061835909
 20
269.3318508313394
 30
0.0
 10
278.0188850702074
 20
269.1633264561225
 30
0.0
 10
278.3764587351026
 20
268.8431829501169
 30
0.0
 10
278.5666585463653
 20
268.6915690006054
 30
0.0
 10
278.9691867473221
 20
268.4037258651593
 30
0.0
 10
279.1815172187847
 20
268.2674996778034
 30
0.0
 10
279.4048419452957
 20
268.1383815226991
 30
0.0
  0
SPLINE
  5
1E9
330
1F
100
AcDbEntity
  8
1
100
AcDbSpline
210
0.0
220
0.0
230
1.0
 70
     9
 71
     3
 72
   133
 73
   129
 74
     0
 42
0.000000001
 43
0.0000000001
 40
0.0
 40
0.0
 40
0.0
 40
0.0
 40
0.0312500000000365
 40
0.0312500000000365
 40
0.0468750000000546
 40
0.0468750000000546
 40
0.0625000000000726
 40
0.0625000000000726
 40
0.0937500000001088
 40
0.0937500000001088
 40
0.1093750000001268
 40
0.1093750000001268
 40
0.1250000000001449
 40
0.1250000000001449
 40
0.1562500000001746
 40
0.1562500000001746
 40
0.1640625000001782
 40
0.1640625000001782
 40
0.1718750000001818
 40
0.1718750000001818
 40
0.1875000000001811
 40
0.2031250000001804
 40
0.2031250000001804
 40
0.2109375000001801
 40
0.2109375000001801
 40
0.2187500000001797
 40
0.2187500000001797
 40
0.2500000000001784
 40
0.2500000000001784
 40
0.2656250000001777
 40
0.2656250000001777
 40
0.2734375000001774
 40
0.2734375000001774
 40
0.281250000000177
 40
0.281250000000177
 40
0.3125000000001846
 40
0.3125000000001846
 40
0.3203125000001865
 40
0.3203125000001865
 40
0.3281250000001884
 40
0.3281250000001884
 40
0.3437500000001844
 40
0.3593750000001805
 40
0.3593750000001805
 40
0.367187500000182
 40
0.367187500000182
 40
0.3750000000001834
 40
0.3750000000001834
 40
0.4062500000001832
 40
0.4062500000001832
 40
0.421875000000181
 40
0.421875000000181
 40
0.4296875000001816
 40
0.4296875000001816
 40
0.4375000000001821
 40
0.4375000000001821
 40
0.4687500000001818
 40
0.4687500000001818
 40
0.4765625000001818
 40
0.4765625000001818
 40
0.4843750000001818
 40
0.4843750000001818
 40
0.5000000000001813
 40
0.5000000000001813
 40
0.5312500000001807
 40
0.5312500000001807
 40
0.5390625000001808
 40
0.5390625000001808
 40
0.5468750000001809
 40
0.5468750000001809
 40
0.5625000000001811
 40
0.5781250000001814
 40
0.5781250000001814
 40
0.5859375000001816
 40
0.5859375000001816
 40
0.5937500000001817
 40
0.5937500000001817
 40
0.6250000000001866
 40
0.6250000000001866
 40
0.6406250000001857
 40
0.6406250000001857
 40
0.6484375000001852
 40
0.6484375000001852
 40
0.6562500000001847
 40
0.6562500000001847
 40
0.6875000000001601
 40
0.6875000000001601
 40
0.6953125000001604
 40
0.6953125000001604
 40
0.7031250000001604
 40
0.7031250000001604
 40
0.7187500000001521
 40
0.7187500000001521
 40
0.7500000000001356
 40
0.7500000000001356
 40
0.7578125000001292
 40
0.7578125000001292
 40
0.7656250000001227
 40
0.7656250000001227
 40
0.7812500000001101
 40
0.7968750000000973
 40
0.7968750000000973
 40
0.8046875000000866
 40
0.8046875000000866
 40
0.812500000000076
 40
0.812500000000076
 40
0.8437500000000579
 40
0.8437500000000579
 40
0.8515625000000568
 40
0.8515625000000568
 40
0.8593750000000557
 40
0.8593750000000557
 40
0.8750000000000538
 40
0.8750000000000538
 40
0.9062500000000495
 40
0.9062500000000495
 40
0.914062500000046
 40
0.914062500000046
 40
0.9218750000000426
 40
0.9218750000000426
 40
0.9375000000000357
 40
0.9531250000000291
 40
0.9531250000000291
 40
0.9609375000000241
 40
0.9609375000000241
 40
0.9687500000000193
 40
0.9687500000000193
 40
1.0
 40
1.0
 40
1.0
 40
1.0
 10
444.3691615337857
 20
284.614186265565
 30
0.0
 10
444.3708111434058
 20
284.7086923374126
 30
0.0
 10
444.3815915816059
 20
284.801716615362
 30
0.0
 10
444.4110847514506
 20
284.9390725009577
 30
0.0
 10
444.4231517996915
 20
284.9844915837019
 30
0.0
 10
444.4518853333048
 20
285.0745700792326
 30
0.0
 10
444.4686506918018
 20
285.1194119429248
 30
0.0
 10
444.5249503720999
 20
285.2499981069198
 30
0.0
 10
444.5705959834145
 20
285.3326062120377
 30
0.0
 10
444.6512199544155
 20
285.449796343094
 30
0.0
 10
444.6801341376276
 20
285.4877317810002
 30
0.0
 10
444.7422172232815
 20
285.5612387326599
 30
0.0
 10
444.7748804383567
 20
285.596207618029
 30
0.0
 10
444.8774529035853
 20
285.6957594429941
 30
0.0
 10
444.9519596549906
 20
285.7551073335032
 30
0.0
 10
445.0529290732799
 20
285.8202631592336
 30
0.0
 10
445.0735438544178
 20
285.8328534709159
 30
0.0
 10
445.1154745223445
 20
285.8570368528028
 30
0.0
 10
445.1366608020078
 20
285.8685569310743
 30
0.0
 10
445.2008692304516
 20
285.9014351607902
 30
0.0
 10
445.2882094566371
 20
285.9407957258504
 30
0.0
 10
445.3789467697371
 20
285.9713463775901
 30
0.0
 10
445.4482887595353
 20
285.9909123508793
 30
0.0
 10
445.4716179818507
 20
285.9968755002446
 30
0.0
 10
445.518714341966
 20
286.0076641761091
 30
0.0
 10
445.5425507611371
 20
286.0125009723824
 30
0.0
 10
445.6618683875736
 20
286.0336033553872
 30
0.0
 10
445.7575551846282
 20
286.0407536182685
 30
0.0
 10
445.901423585512
 20
286.0373269158039
 30
0.0
 10
445.9494365125634
 20
286.033808401946
 30
0.0
 10
446.0215436482644
 20
286.0248603088042
 30
0.0
 10
446.0456201227026
 20
286.0212563533449
 30
0.0
 10
446.0932578197322
 20
286.0129009586657
 30
0.0
 10
446.1168858039622
 20
286.008142955206
 30
0.0
 10
446.2340880236062
 20
285.9815030399053
 30
0.0
 10
446.3248767643473
 20
285.9511543687002
 30
0.0
 10
446.4346283334383
 20
285.9018949767094
 30
0.0
 10
446.4563902006815
 20
285.8914717306703
 30
0.0
 10
446.4995294365484
 20
285.8694603534111
 30
0.0
 10
446.520787836761
 20
285.857930875876
 30
0.0
 10
446.5833608252055
 20
285.821956279369
 30
0.0
 10
446.6638399160472
 20
285.7701762948827
 30
0.0
 10
446.7385578691018
 20
285.7109693585032
 30
0.0
 10
446.792426258375
 20
285.6637736509201
 30
0.0
 10
446.8100200660363
 20
285.647575840258
 30
0.0
 10
446.8444734857127
 20
285.6142373418107
 30
0.0
 10
446.8613715220075
 20
285.5970550324345
 30
0.0
 10
446.9435220963546
 20
285.5092446946589
 30
0.0
 10
447.0011487513981
 20
285.4337717160269
 30
0.0
 10
447.0759959688812
 20
285.3131394774809
 30
0.0
 10
447.0989986707599
 20
285.2716823142015
 30
0.0
 10
447.1305260166488
 20
285.2075972541017
 30
0.0
 10
447.1405592423713
 20
285.1858647531332
 30
0.0
 10
447.1594334854373
 20
285.1421841069441
 30
0.0
 10
447.1682936350362
 20
285.1202037247893
 30
0.0
 10
447.2097701561507
 20
285.0096188662635
 30
0.0
 10
447.2339914983421
 20
284.9189854591017
 30
0.0
 10
447.2532283822084
 20
284.8030559274976
 30
0.0
 10
447.2565189539088
 20
284.7797369003982
 30
0.0
 10
447.2619708988162
 20
284.7328293377582
 30
0.0
 10
447.2641306396109
 20
284.7092165249374
 30
0.0
 10
447.2688496578863
 20
284.6387118165782
 30
0.0
 10
447.2696867241132
 20
284.5919146044195
 30
0.0
 10
447.265485024325
 20
284.4521231044053
 30
0.0
 10
447.2537957883927
 20
284.3597246252509
 30
0.0
 10
447.2278252492005
 20
284.2452298068486
 30
0.0
 10
447.2220481531831
 20
284.2223571803298
 30
0.0
 10
447.2094644725661
 20
284.1771845838282
 30
0.0
 10
447.2026463496436
 20
284.154826881489
 30
0.0
 10
447.1806387503093
 20
284.0884270424742
 30
0.0
 10
447.1471601372086
 20
284.001686380657
 30
0.0
 10
447.1055010495089
 20
283.9184736640739
 30
0.0
 10
447.0711332631505
 20
283.8574027242188
 30
0.0
 10
447.0591558260998
 20
283.8372692273787
 30
0.0
 10
447.0341367458547
 20
283.7974566865427
 30
0.0
 10
447.02105945089
 20
283.7777295727108
 30
0.0
 10
446.9535975638143
 20
283.6811725145674
 30
0.0
 10
446.8928270841103
 20
283.610075340816
 30
0.0
 10
446.7915770238953
 20
283.5124619854486
 30
0.0
 10
446.7561326015077
 20
283.4814403764499
 30
0.0
 10
446.7003230519114
 20
283.4372605095336
 30
0.0
 10
446.6812267484773
 20
283.4228903822106
 30
0.0
 10
446.6423841649316
 20
283.3951422299841
 30
0.0
 10
446.6226819434676
 20
283.3817912413638
 30
0.0
 10
446.5227853299231
 20
283.3176109381469
 30
0.0
 10
446.4384747410021
 20
283.2744297346845
 30
0.0
 10
446.3274912782371
 20
283.2307767391183
 30
0.0
 10
446.3050122818669
 20
283.222567088381
 30
0.0
 10
446.2594764525467
 20
283.2072126021972
 30
0.0
 10
446.2363570447378
 20
283.2000505714526
 30
0.0
 10
446.1665671274661
 20
283.1803373043542
 30
0.0
 10
446.1197207311772
 20
283.1696109520511
 30
0.0
 10
445.9782471994848
 20
283.1444781081108
 30
0.0
 10
445.8826947503933
 20
283.1370480434808
 30
0.0
 10
445.7616541465799
 20
283.1398100260382
 30
0.0
 10
445.7373138715609
 20
283.1409773134652
 30
0.0
 10
445.6890309646558
 20
283.1445086515564
 30
0.0
 10
445.6650286492445
 20
283.1468714831617
 30
0.0
 10
445.5934308192333
 20
283.1557165355475
 30
0.0
 10
445.4990560165561
 20
283.1721853398315
 30
0.0
 10
445.4068202632786
 20
283.1978504718098
 30
0.0
 10
445.3384543996744
 20
283.2205931301224
 30
0.0
 10
445.3157820590811
 20
283.228764851924
 30
0.0
 10
445.2707925253029
 20
283.2462648567283
 30
0.0
 10
445.2486286519096
 20
283.2555323344361
 30
0.0
 10
445.1394192146143
 20
283.3043914794212
 30
0.0
 10
445.0571563609615
 20
283.3514736865696
 30
0.0
 10
444.9604964035986
 20
283.4200623664206
 30
0.0
 10
444.9414757310828
 20
283.4342714909516
 30
0.0
 10
444.9040632781811
 20
283.4636845055387
 30
0.0
 10
444.8856488090103
 20
283.4789121053161
 30
0.0
 10
444.8319190820386
 20
283.5256114215387
 30
0.0
 10
444.7979254088724
 20
283.5582360138158
 30
0.0
 10
444.7012189615971
 20
283.6604421533103
 30
0.0
 10
444.6437305944199
 20
283.7343148796034
 30
0.0
 10
444.5807136503801
 20
283.8339961173264
 30
0.0
 10
444.5686006462225
 20
283.8542375011517
 30
0.0
 10
444.5454920282493
 20
283.8950656483556
 30
0.0
 10
444.5344718406687
 20
283.9156908860421
 30
0.0
 10
444.502986298814
 20
283.9781914420514
 30
0.0
 10
444.4651983104185
 20
284.0631890711161
 30
0.0
 10
444.4356920727731
 20
284.1514927075854
 30
0.0
 10
444.4167192667562
 20
284.2189867347374
 30
0.0
 10
444.4109220767095
 20
284.2416961514052
 30
0.0
 10
444.4004022318807
 20
284.2875467820705
 30
0.0
 10
444.3956938991145
 20
284.3106361150116
 30
0.0
 10
444.3750382242241
 20
284.4261977608537
 30
0.0
 10
444.3675119241655
 20
284.5196801937176
 30
0.0
 10
444.3691615337857
 20
284.614186265565
 30
0.0
  0
SPLINE
  5
1EA
330
1F
100
AcDbEntity
  8
1
100
AcDbSpline
210
0.0
220
0.0
230
1.0
 70
    12
 71
     2
 72
     6
 73
     3
 74
     0
 42
0.000000001
 43
0.0000000001
 40
0.0
 40
0.0
 40
0.0
 40
1.0
 40
1.0
 40
1.0
 10
437.7648575059048
 20
307.3995334024952
 30
0.0
 41
0.5000038350692241
 10
437.8770397727246
 20
307.3993780899204
 30
0.0
 41
0.499996164930776
 10
437.9892213291277
 20
307.3992223653755
 30
0.0
 41
0.5000038350692241
  0
LINE
  5
20C
330
1F
100
AcDbEntity
  8
4
100
AcDbLine
 10
269.482259
 20
288.907994
 30
0.0
 11
455.584748
 21
288.907994
 31
0.0
  0
LINE
  5
20D
330
1F
100
AcDbEntity
  8
SK4
100
AcDbLine
 10
203.504842
 20
288.907994
 30
0.0
 11
277.404842
 21
288.907994
 31
0.0
  0
MTEXT
  5
20E
330
1F
100
AcDbEntity
  8
SK6
100
AcDbMText
 10
295.492493
 20
241.516688
 30
0.0
 40
3.5
 41
0.0
 71
     7
 72
     5
  1
\W0.7291;804D-1500-600-S150
  7
cesky
 73
     2
 44
0.8433729999999998
  0
MTEXT
  5
324
330
1F
100
AcDbEntity
  8
2
100
AcDbMText
 10
357.502842
 20
329.99506
 30
0.0
 40
3.5
 41
0.0
 71
     7
 72
     5
  1
\W0.8547;177,4
  7
cesky
 73
     2
 44
0.8433729999999998
  0
LINE
  5
325
330
1F
100
AcDbEntity
  8
2
100
AcDbLine
 10
451.804842
 20
307.957994
 30
0.0
 11
451.804842
 21
331.120893
 31
0.0
  0
LINE
  5
326
330
1F
100
AcDbEntity
  8
2
100
AcDbLine
 10
274.404842
 20
289.907567
 30
0.0
 11
274.404842
 21
331.120893
 31
0.0
  0
LINE
  5
327
330
1F
100
AcDbEntity
  8
2
100
AcDbLine
 10
451.804842
 20
330.120893
 30
0.0
 11
274.404842
 21
330.120893
 31
0.0
  0
SOLID
  5
328
330
1F
100
AcDbEntity
  8
2
100
AcDbTrace
 10
451.804842
 20
330.120893
 30
0.0
 11
448.3048440000001
 21
329.503749
 31
0.0
 12
448.30484
 22
330.738038
 32
0.0
 13
448.30484
 23
330.738038
 33
0.0
  0
SOLID
  5
329
330
1F
100
AcDbEntity
  8
2
100
AcDbTrace
 10
274.404842
 20
330.120893
 30
0.0
 11
277.90484
 21
330.738038
 31
0.0
 12
277.904844
 22
329.503749
 32
0.0
 13
277.904844
 23
329.503749
 33
0.0
  0
MTEXT
  5
32A
330
1F
100
AcDbEntity
  8
2
100
AcDbMText
 10
468.005428
 20
284.100058
 30
0.0
 40
3.5
 41
0.0
 71
     7
 72
     5
  1
\W0.9844;38,1
  7
cesky
 11
0.0000000000000001
 21
1.0
 31
0.0
 73
     2
 44
0.8433729999999998
  0
MTEXT
  5
32B
330
1F
100
AcDbEntity
  8
2
100
AcDbMText
 10
468.005428
 20
277.362558
 30
0.0
 40
3.5
 41
0.0
 71
     7
 72
     5
  1
\W3.0115;\H2.63;%%c\H3.50;
  7
cesky
 11
0.0000000000000001
 21
1.0
 31
0.0
 73
     2
 44
0.8433729999999998
  0
LINE
  5
32C
330
1F
100
AcDbEntity
  8
2
100
AcDbLine
 10
453.8048419999999
 20
307.957994
 30
0.0
 11
469.192844
 21
307.957994
 31
0.0
  0
LINE
  5
32D
330
1F
100
AcDbEntity
  8
2
100
AcDbLine
 10
468.192844
 20
307.957994
 30
0.0
 11
468.192844
 21
277.205058
 31
0.0
  0
SOLID
  5
32E
330
1F
100
AcDbEntity
  8
2
100
AcDbTrace
 10
468.192844
 20
307.957994
 30
0.0
 11
468.809989
 21
304.457996
 31
0.0
 12
467.5756999999999
 22
304.457991
 32
0.0
 13
467.5756999999999
 23
304.457991
 33
0.0
  0
MTEXT
  5
32F
330
1F
100
AcDbEntity
  8
2
100
AcDbMText
 10
324.002842
 20
343.692507
 30
0.0
 40
3.5
 41
0.0
 71
     7
 72
     5
  1
\W0.8145;244,4
  7
cesky
 73
     2
 44
0.8433729999999998
  0
LINE
  5
330
330
1F
100
AcDbEntity
  8
2
100
AcDbLine
 10
451.804842
 20
309.957994
 30
0.0
 11
451.804842
 21
344.81834
 31
0.0
  0
LINE
  5
331
330
1F
100
AcDbEntity
  8
2
100
AcDbLine
 10
207.404842
 20
306.357994
 30
0.0
 11
207.404842
 21
344.81834
 31
0.0
  0
LINE
  5
332
330
1F
100
AcDbEntity
  8
2
100
AcDbLine
 10
451.804842
 20
343.81834
 30
0.0
 11
207.404842
 21
343.81834
 31
0.0
  0
SOLID
  5
333
330
1F
100
AcDbEntity
  8
2
100
AcDbTrace
 10
451.804842
 20
343.81834
 30
0.0
 11
448.3048440000001
 21
343.201196
 31
0.0
 12
448.30484
 22
344.435485
 32
0.0
 13
448.30484
 23
344.435485
 33
0.0
  0
SOLID
  5
334
330
1F
100
AcDbEntity
  8
2
100
AcDbTrace
 10
207.404842
 20
343.81834
 30
0.0
 11
210.90484
 21
344.435485
 31
0.0
 12
210.904844
 22
343.201196
 32
0.0
 13
210.904844
 23
343.201196
 33
0.0
  0
MTEXT
  5
335
330
1F
100
AcDbEntity
  8
2
100
AcDbMText
 10
239.090342
 20
329.99506
 30
0.0
 40
3.5
 41
0.0
 71
     7
 72
     5
  1
\W0.7045;67
  7
cesky
 73
     2
 44
0.8433729999999998
  0
LINE
  5
336
330
1F
100
AcDbEntity
  8
2
100
AcDbLine
 10
274.404842
 20
288.907994
 30
0.0
 11
274.404842
 21
331.120893
 31
0.0
  0
LINE
  5
337
330
1F
100
AcDbEntity
  8
2
100
AcDbLine
 10
207.404842
 20
306.357994
 30
0.0
 11
207.404842
 21
331.120893
 31
0.0
  0
LINE
  5
338
330
1F
100
AcDbEntity
  8
2
100
AcDbLine
 10
274.404842
 20
330.120893
 30
0.0
 11
207.404842
 21
330.120893
 31
0.0
  0
SOLID
  5
339
330
1F
100
AcDbEntity
  8
2
100
AcDbTrace
 10
274.404842
 20
330.120893
 30
0.0
 11
270.904844
 21
329.503749
 31
0.0
 12
270.90484
 22
330.738038
 32
0.0
 13
270.90484
 23
330.738038
 33
0.0
  0
SOLID
  5
33A
330
1F
100
AcDbEntity
  8
2
100
AcDbTrace
 10
207.404842
 20
330.120893
 30
0.0
 11
210.90484
 21
330.738038
 31
0.0
 12
210.904844
 22
329.503749
 32
0.0
 13
210.904844
 23
329.503749
 33
0.0
  0
MTEXT
  5
33B
330
1F
100
AcDbEntity
  8
2
100
AcDbMText
 10
366.738566
 20
316.608162
 30
0.0
 40
3.5
 41
0.0
 71
     7
 72
     5
  1
\W0.8764;158,9
  7
cesky
 73
     2
 44
0.8433729999999998
  0
LINE
  5
33C
330
1F
100
AcDbEntity
  8
2
100
AcDbLine
 10
451.804842
 20
309.957994
 30
0.0
 11
451.804842
 21
317.733995
 31
0.0
  0
LINE
  5
33D
330
1F
100
AcDbEntity
  8
2
100
AcDbLine
 10
292.876289
 20
308.010735
 30
0.0
 11
292.876289
 21
317.733995
 31
0.0
  0
LINE
  5
33E
330
1F
100
AcDbEntity
  8
2
100
AcDbLine
 10
451.804842
 20
316.733995
 30
0.0
 11
292.876289
 21
316.733995
 31
0.0
  0
SOLID
  5
33F
330
1F
100
AcDbEntity
  8
2
100
AcDbTrace
 10
451.804842
 20
316.733995
 30
0.0
 11
448.3048440000001
 21
316.116851
 31
0.0
 12
448.30484
 22
317.35114
 32
0.0
 13
448.30484
 23
317.35114
 33
0.0
  0
SOLID
  5
340
330
1F
100
AcDbEntity
  8
2
100
AcDbTrace
 10
292.876289
 20
316.733995
 30
0.0
 11
296.376287
 21
317.35114
 31
0.0
 12
296.376292
 22
316.116851
 32
0.0
 13
296.376292
 23
316.116851
 33
0.0
  0
MTEXT
  5
341
330
1F
100
AcDbEntity
  8
SK2
100
AcDbMText
 10
193.646349
 20
287.909244
 30
0.0
 40
3.5
 41
0.0
 71
     7
 72
     5
  1
\W0.9844;38,1
  7
cesky
 11
0.0000000000000001
 21
1.0
 31
0.0
 73
     2
 44
0.8433729999999998
  0
MTEXT
  5
342
330
1F
100
AcDbEntity
  8
SK2
100
AcDbMText
 10
193.646349
 20
281.171744
 30
0.0
 40
3.5
 41
0.0
 71
     7
 72
     5
  1
\W3.0115;\H2.63;%%c\H3.50;
  7
cesky
 11
0.0000000000000001
 21
1.0
 31
0.0
 73
     2
 44
0.8433729999999998
  0
LINE
  5
343
330
1F
100
AcDbEntity
  8
SK2
100
AcDbLine
 10
209.004842
 20
307.957994
 30
0.0
 11
192.833766
 21
307.957994
 31
0.0
  0
LINE
  5
344
330
1F
100
AcDbEntity
  8
SK2
100
AcDbLine
 10
209.004842
 20
269.857994
 30
0.0
 11
192.833766
 21
269.857994
 31
0.0
  0
LINE
  5
345
330
1F
100
AcDbEntity
  8
SK2
100
AcDbLine
 10
193.833766
 20
307.957994
 30
0.0
 11
193.833766
 21
269.857994
 31
0.0
  0
SOLID
  5
346
330
1F
100
AcDbEntity
  8
SK2
100
AcDbTrace
 10
193.833766
 20
307.957994
 30
0.0
 11
194.45091
 21
304.457996
 31
0.0
 12
193.216621
 22
304.457991
 32
0.0
 13
193.216621
 23
304.457991
 33
0.0
  0
SOLID
  5
347
330
1F
100
AcDbEntity
  8
SK2
100
AcDbTrace
 10
193.833766
 20
269.857994
 30
0.0
 11
193.216621
 21
273.357991
 31
0.0
 12
194.45091
 22
273.357996
 32
0.0
 13
194.45091
 23
273.357996
 33
0.0
  0
MTEXT
  5
348
330
1F
100
AcDbEntity
  8
SK2
100
AcDbMText
 10
180.761127
 20
290.434244
 30
0.0
 40
3.5
 41
0.0
 71
     7
 72
     5
  1
\W0.7045;50
  7
cesky
 11
0.0000000000000001
 21
1.0
 31
0.0
 73
     2
 44
0.8433729999999998
  0
MTEXT
  5
349
330
1F
100
AcDbEntity
  8
SK2
100
AcDbMText
 10
180.761127
 20
283.696744
 30
0.0
 40
3.5
 41
0.0
 71
     7
 72
     5
  1
\W3.0115;\H2.63;%%c\H3.50;
  7
cesky
 11
0.0000000000000001
 21
1.0
 31
0.0
 73
     2
 44
0.8433729999999998
  0
LINE
  5
34A
330
1F
100
AcDbEntity
  8
SK2
100
AcDbLine
 10
274.904842
 20
313.907994
 30
0.0
 11
179.948543
 21
313.907994
 31
0.0
  0
LINE
  5
34B
330
1F
100
AcDbEntity
  8
SK2
100
AcDbLine
 10
274.904842
 20
263.907994
 30
0.0
 11
179.948543
 21
263.907994
 31
0.0
  0
LINE
  5
34C
330
1F
100
AcDbEntity
  8
SK2
100
AcDbLine
 10
180.948543
 20
313.907994
 30
0.0
 11
180.948543
 21
263.907994
 31
0.0
  0
SOLID
  5
34D
330
1F
100
AcDbEntity
  8
SK2
100
AcDbTrace
 10
180.948543
 20
313.907994
 30
0.0
 11
181.565688
 21
310.407996
 31
0.0
 12
180.331399
 22
310.407991
 32
0.0
 13
180.331399
 23
310.407991
 33
0.0
  0
SOLID
  5
34E
330
1F
100
AcDbEntity
  8
SK2
100
AcDbTrace
 10
180.948543
 20
263.907994
 30
0.0
 11
180.331399
 21
267.4079910000001
 31
0.0
 12
181.565688
 22
267.407996
 32
0.0
 13
181.565688
 23
267.407996
 33
0.0
  0
LINE
  5
351
330
1F
100
AcDbEntity
  8
CUT
100
AcDbLine
 10
438.7343635403399
 20
307.5472512470523
 30
0.0
 11
449.8725427394181
 21
307.9544325761438
 31
0.0
  0
LINE
  5
352
330
1F
100
AcDbEntity
  8
CUT
100
AcDbLine
 10
450.6761911676126
 20
307.2079501020121
 30
0.0
 11
450.9929060490761
 21
298.381408865437
 31
0.0
  0
LINE
  5
353
330
1F
100
AcDbEntity
  8
CUT
100
AcDbLine
 10
451.6754235247553
 20
297.176114721899
 30
0.0
 11
451.7998607906598
 21
290.0508870445028
 31
0.0
  0
LINE
  5
354
330
1F
100
AcDbEntity
  8
CUT
100
AcDbLine
 10
451.0744897377931
 20
298.2527707254933
 30
0.0
 11
451.6334058386329
 21
297.3226372761576
 31
0.0
  0
LINE
  5
356
330
1F
100
AcDbEntity
  8
CUT
100
AcDbLine
 10
451.799861
 20
288.907994
 30
0.0
 11
437.986246
 21
288.907994
 31
0.0
  0
LINE
  5
357
330
1F
100
AcDbEntity
  8
CUT
100
AcDbLine
 10
437.986246
 20
288.907994
 30
0.0
 11
437.986246
 21
306.743641
 31
0.0
  0
LINE
  5
358
330
1F
100
AcDbEntity
  8
CUT
100
AcDbLine
 10
451.799861
 20
290.050887
 30
0.0
 11
451.799861
 21
288.907994
 31
0.0
  0
LINE
  5
359
330
1F
100
AcDbEntity
  8
CUT
100
AcDbLine
 10
437.986245888796
 20
306.7436413948168
 30
0.0
 11
437.986245888796
 21
306.7436413948168
 31
0.0
  0
ARC
  5
35A
330
1F
100
AcDbEntity
  8
CUT
100
AcDbCircle
 10
438.7680837509561
 20
306.7658259190654
 30
0.0
 40
0.7821525399967082
100
AcDbArc
 50
92.4709051600659
 51
181.6253224707861
  0
LINE
  5
35B
330
1F
100
AcDbEntity
  8
CUT
100
AcDbLine
 10
449.8725427394181
 20
307.9544325761438
 30
0.0
 11
449.8725427394181
 21
307.9544325761438
 31
0.0
  0
ARC
  5
35C
330
1F
100
AcDbEntity
  8
CUT
100
AcDbCircle
 10
449.896295842668
 20
307.1741673773545
 30
0.0
 40
0.7806266651580259
100
AcDbArc
 50
2.480330640373591
 51
91.74367944066085
  0
LINE
  5
35D
330
1F
100
AcDbEntity
  8
CUT
100
AcDbLine
 10
451.6334058386329
 20
297.3226372761577
 30
0.0
 11
451.6334058386329
 21
297.3226372761577
 31
0.0
  0
ARC
  5
35E
330
1F
100
AcDbEntity
  8
CUT
100
AcDbCircle
 10
451.3810530726127
 20
297.1709851850924
 30
0.0
 40
0.294415140987237
100
AcDbArc
 50
0.9983035520850121
 51
31.00387869656727
  0
ENDSEC
  0
SECTION
  2
OBJECTS
  0
DICTIONARY
  5
C
330
0
100
AcDbDictionary
281
     1
  3
ACAD_CIP_PREVIOUS_PRODUCT_INFO
350
321
  3
ACAD_COLOR
350
31C
  3
ACAD_DETAILVIEWSTYLE
350
318
  3
ACAD_GROUP
350
D
  3
ACAD_LAYOUT
350
1A
  3
ACAD_MATERIAL
350
43
  3
ACAD_MLEADERSTYLE
350
6B
  3
ACAD_MLINESTYLE
350
17
  3
ACAD_PLOTSETTINGS
350
19
  3
ACAD_PLOTSTYLENAME
350
E
  3
ACAD_SCALELIST
350
47
  3
ACAD_SECTIONVIEWSTYLE
350
319
  3
ACAD_TABLESTYLE
350
69
  3
ACAD_VISUALSTYLE
350
2A
  3
ACDB_RECOMPOSE_DATA
350
38C
  3
AcDbVariableDictionary
350
2D5
  0
DICTIONARY
  5
36D
330
10
100
AcDbDictionary
280
     1
281
     1
  3
ADSK_XREC_LAYER_RECONCILED
360
36E
  0
DICTIONARY
  5
36F
330
E9
100
AcDbDictionary
280
     1
281
     1
  3
ADSK_XREC_LAYER_RECONCILED
360
370
  0
DICTIONARY
  5
371
330
35F
100
AcDbDictionary
280
     1
281
     1
  3
ADSK_XREC_LAYER_RECONCILED
360
372
  0
DICTIONARY
  5
373
330
360
100
AcDbDictionary
280
     1
281
     1
  3
ADSK_XREC_LAYER_RECONCILED
360
374
  0
DICTIONARY
  5
375
330
361
100
AcDbDictionary
280
     1
281
     1
  3
ADSK_XREC_LAYER_RECONCILED
360
376
  0
DICTIONARY
  5
377
330
363
100
AcDbDictionary
280
     1
281
     1
  3
ADSK_XREC_LAYER_RECONCILED
360
378
  0
DICTIONARY
  5
379
330
364
100
AcDbDictionary
280
     1
281
     1
  3
ADSK_XREC_LAYER_RECONCILED
360
37A
  0
DICTIONARY
  5
37B
330
366
100
AcDbDictionary
280
     1
281
     1
  3
ADSK_XREC_LAYER_RECONCILED
360
37C
  0
DICTIONARY
  5
37D
330
367
100
AcDbDictionary
280
     1
281
     1
  3
ADSK_XREC_LAYER_RECONCILED
360
37E
  0
DICTIONARY
  5
37F
330
368
100
AcDbDictionary
280
     1
281
     1
  3
ADSK_XREC_LAYER_RECONCILED
360
380
  0
DICTIONARY
  5
381
330
369
100
AcDbDictionary
280
     1
281
     1
  3
ADSK_XREC_LAYER_RECONCILED
360
382
  0
DICTIONARY
  5
383
330
36A
100
AcDbDictionary
280
     1
281
     1
  3
ADSK_XREC_LAYER_RECONCILED
360
384
  0
DICTIONARY
  5
385
330
36B
100
AcDbDictionary
280
     1
281
     1
  3
ADSK_XREC_LAYER_RECONCILED
360
386
  0
DICTIONARY
  5
322
330
1F
100
AcDbDictionary
280
     1
281
     1
  3
ACAD_SORTENTS
360
323
  0
XRECORD
  5
321
102
{ACAD_REACTORS
330
C
102
}
330
C
100
AcDbXrecord
280
     1
300
ACD
300
2019
300

  0
DICTIONARY
  5
31C
102
{ACAD_REACTORS
330
C
102
}
330
C
100
AcDbDictionary
281
     1
  0
DICTIONARY
  5
318
102
{ACAD_REACTORS
330
C
102
}
330
C
100
AcDbDictionary
281
     1
  3
Metric50
350
31E
  0
DICTIONARY
  5
D
102
{ACAD_REACTORS
330
C
102
}
330
C
100
AcDbDictionary
281
     1
  3
NULOVY_BOD
350
36C
  0
DICTIONARY
  5
1A
102
{ACAD_REACTORS
330
C
102
}
330
C
100
AcDbDictionary
281
     1
  3
Layout1
350
1E
  3
Layout2
350
26
  3
Model
350
22
  0
DICTIONARY
  5
43
102
{ACAD_REACTORS
330
C
102
}
330
C
100
AcDbDictionary
281
     1
  3
ByBlock
350
45
  3
ByLayer
350
44
  3
Global
350
46
  0
DICTIONARY
  5
6B
102
{ACAD_REACTORS
330
C
102
}
330
C
100
AcDbDictionary
281
     1
  3
Standard
350
6C
  0
DICTIONARY
  5
17
102
{ACAD_REACTORS
330
C
102
}
330
C
100
AcDbDictionary
281
     1
  3
Standard
350
18
  0
DICTIONARY
  5
19
102
{ACAD_REACTORS
330
C
102
}
330
C
100
AcDbDictionary
281
     1
  0
ACDBDICTIONARYWDFLT
  5
E
102
{ACAD_REACTORS
330
C
102
}
330
C
100
AcDbDictionary
281
     1
  3
Normal
350
F
100
AcDbDictionaryWithDefault
340
F
  0
DICTIONARY
  5
47
102
{ACAD_REACTORS
330
C
102
}
330
C
100
AcDbDictionary
281
     1
  3
A0
350
48
  3
A1
350
49
  3
A2
350
4A
  3
A3
350
4B
  3
A4
350
4C
  3
A5
350
4D
  3
A6
350
4E
  3
A7
350
4F
  3
A8
350
50
  3
A9
350
51
  3
B0
350
52
  3
B1
350
53
  3
B2
350
54
  3
B3
350
55
  3
B4
350
56
  3
B5
350
57
  3
B6
350
58
  3
B7
350
59
  3
B8
350
5A
  3
B9
350
5B
  3
C0
350
5C
  3
C1
350
5D
  3
C2
350
5E
  3
C3
350
5F
  3
C4
350
60
  3
C5
350
61
  3
C6
350
62
  3
C7
350
63
  3
C8
350
64
  3
C9
350
65
  3
D0
350
66
  3
D1
350
67
  3
D2
350
68
  0
DICTIONARY
  5
319
102
{ACAD_REACTORS
330
C
102
}
330
C
100
AcDbDictionary
281
     1
  3
Metric50
350
31D
  0
DICTIONARY
  5
69
102
{ACAD_REACTORS
330
C
102
}
330
C
100
AcDbDictionary
281
     1
  3
Standard
350
6A
  0
DICTIONARY
  5
2A
102
{ACAD_REACTORS
330
C
102
}
330
C
100
AcDbDictionary
281
     1
  3
2dWireframe
350
2F
  3
Basic
350
32
  3
Brighten
350
36
  3
ColorChange
350
3A
  3
Conceptual
350
34
  3
Dim
350
35
  3
EdgeColorOff
350
3D
  3
Facepattern
350
39
  3
Flat
350
2B
  3
FlatWithEdges
350
2C
  3
Gouraud
350
2D
  3
GouraudWithEdges
350
2E
  3
Hidden
350
31
  3
JitterOff
350
3B
  3
Linepattern
350
38
  3
OverhangOff
350
3C
  3
Realistic
350
33
  3
Shaded
350
42
  3
Shaded with edges
350
41
  3
Shades of Gray
350
3E
  3
Sketchy
350
3F
  3
Thicken
350
37
  3
Wireframe
350
30
  3
X-Ray
350
40
  0
XRECORD
  5
38C
102
{ACAD_REACTORS
330
C
102
}
330
C
100
AcDbXrecord
280
     1
 90
        1
330
6A
  0
DICTIONARY
  5
2D5
102
{ACAD_REACTORS
330
C
102
}
330
C
100
AcDbDictionary
281
     1
  3
CANNOSCALE
350
2D6
  3
CMLEADERSTYLE
350
317
  3
CTABLESTYLE
350
316
  3
CVIEWDETAILSTYLE
350
387
  3
CVIEWSECTIONSTYLE
350
388
  3
MSLTSCALE
350
2D7
  3
XCLIPFRAME
350
389
  0
XRECORD
  5
36E
102
{ACAD_REACTORS
330
36D
102
}
330
36D
100
AcDbXrecord
280
     1
290
     1
  0
XRECORD
  5
370
102
{ACAD_REACTORS
330
36F
102
}
330
36F
100
AcDbXrecord
280
     1
290
     1
  0
XRECORD
  5
372
102
{ACAD_REACTORS
330
371
102
}
330
371
100
AcDbXrecord
280
     1
290
     1
  0
XRECORD
  5
374
102
{ACAD_REACTORS
330
373
102
}
330
373
100
AcDbXrecord
280
     1
290
     1
  0
XRECORD
  5
376
102
{ACAD_REACTORS
330
375
102
}
330
375
100
AcDbXrecord
280
     1
290
     1
  0
XRECORD
  5
378
102
{ACAD_REACTORS
330
377
102
}
330
377
100
AcDbXrecord
280
     1
290
     1
  0
XRECORD
  5
37A
102
{ACAD_REACTORS
330
379
102
}
330
379
100
AcDbXrecord
280
     1
290
     1
  0
XRECORD
  5
37C
102
{ACAD_REACTORS
330
37B
102
}
330
37B
100
AcDbXrecord
280
     1
290
     1
  0
XRECORD
  5
37E
102
{ACAD_REACTORS
330
37D
102
}
330
37D
100
AcDbXrecord
280
     1
290
     1
  0
XRECORD
  5
380
102
{ACAD_REACTORS
330
37F
102
}
330
37F
100
AcDbXrecord
280
     1
290
     1
  0
XRECORD
  5
382
102
{ACAD_REACTORS
330
381
102
}
330
381
100
AcDbXrecord
280
     1
290
     1
  0
XRECORD
  5
384
102
{ACAD_REACTORS
330
383
102
}
330
383
100
AcDbXrecord
280
     1
290
     1
  0
XRECORD
  5
386
102
{ACAD_REACTORS
330
385
102
}
330
385
100
AcDbXrecord
280
     1
290
     1
  0
SORTENTSTABLE
  5
323
102
{ACAD_REACTORS
330
322
102
}
330
322
100
AcDbSortentsTable
330
1F
331
324
  5
247
331
325
  5
260
331
326
  5
324
331
327
  5
325
331
328
  5
326
331
329
  5
327
331
32A
  5
328
331
32B
  5
329
331
32C
  5
32A
331
32D
  5
32B
331
32E
  5
32C
331
32F
  5
33D
331
330
  5
33E
331
331
  5
33F
331
332
  5
340
331
333
  5
341
331
334
  5
342
331
335
  5
343
331
336
  5
344
331
337
  5
345
331
338
  5
346
331
339
  5
347
331
33A
  5
348
331
33B
  5
349
331
33C
  5
34A
331
33D
  5
34B
331
33E
  5
34C
331
33F
  5
34D
331
340
  5
34E
331
341
  5
32F
331
342
  5
330
331
343
  5
331
331
344
  5
332
331
345
  5
333
331
346
  5
334
331
347
  5
335
331
348
  5
336
331
349
  5
337
331
34A
  5
338
331
34B
  5
339
331
34C
  5
33A
331
34D
  5
33B
331
34E
  5
33C
331
351
  5
356
331
352
  5
357
331
353
  5
358
331
354
  5
359
331
356
  5
35C
331
357
  5
35D
331
358
  5
35E
331
359
  5
351
331
35A
  5
352
331
35B
  5
353
331
35C
  5
354
331
35D
  5
35A
331
35E
  5
35B
  0
ACDBDETAILVIEWSTYLE
  5
31E
102
{ACAD_XDICTIONARY
360
3C0
102
}
102
{ACAD_REACTORS
330
318
102
}
330
318
100
AcDbModelDocViewStyle
 70
     0
  3
Metric50
290
     0
100
AcDbDetailViewStyle
 70
     0
 71
     0
 90
        3
 71
     1
340
11
 62
   256
 40
5.0
340
0
 62
   256
 40
5.0
300

 40
0.0
280
     1
 71
     2
340
16
 90
       25
 62
   256
 71
     3
340
11
 62
   256
 40
5.0
 90
        0
 40
15.0
 90
        1
300
%<\AcVar ViewDetailId>% (%<\AcVar ViewScale \f "%sn">%)
 71
     4
340
16
 90
       25
 62
   256
340
16
 90
       25
 62
   256
280
     0
  0
GROUP
  5
36C
102
{ACAD_REACTORS
330
D
102
}
330
D
100
AcDbGroup
300

 70
     0
 71
     1
340
73
  0
LAYOUT
  5
1E
102
{ACAD_REACTORS
330
1A
102
}
330
1A
100
AcDbPlotSettings
  1

  2
none_device
  4

  6

 40
0.0
 41
0.0
 42
0.0
 43
0.0
 44
0.0
 45
0.0
 46
0.0
 47
0.0
 48
0.0
 49
0.0
140
0.0
141
0.0
142
1.0
143
1.0
 70
   688
 72
     0
 73
     0
 74
     5
  7

 75
    16
147
1.0
 76
     0
 77
     2
 78
   300
148
0.0
149
0.0
100
AcDbLayout
  1
Layout1
 70
     1
 71
     1
 10
-0.5
 20
-0.5
 11
5.0
 21
5.0
 12
0.0
 22
0.0
 32
0.0
 14
-0.5
 24
-0.5
 34
-0.5
 15
5.0
 25
5.0
 35
5.0
146
0.0
 13
0.0
 23
0.0
 33
0.0
 16
1.0
 26
0.0
 36
0.0
 17
0.0
 27
1.0
 37
0.0
 76
     0
330
1B
  0
LAYOUT
  5
26
102
{ACAD_REACTORS
330
1A
102
}
330
1A
100
AcDbPlotSettings
  1

  2
none_device
  4

  6

 40
0.0
 41
0.0
 42
0.0
 43
0.0
 44
0.0
 45
0.0
 46
0.0
 47
0.0
 48
0.0
 49
0.0
140
0.0
141
0.0
142
1.0
143
1.0
 70
   688
 72
     0
 73
     0
 74
     5
  7

 75
    16
147
1.0
 76
     0
 77
     2
 78
   300
148
0.0
149
0.0
100
AcDbLayout
  1
Layout2
 70
     1
 71
     2
 10
0.0
 20
0.0
 11
0.0
 21
0.0
 12
0.0
 22
0.0
 32
0.0
 14
0.0
 24
0.0
 34
0.0
 15
0.0
 25
0.0
 35
0.0
146
0.0
 13
0.0
 23
0.0
 33
0.0
 16
1.0
 26
0.0
 36
0.0
 17
0.0
 27
1.0
 37
0.0
 76
     0
330
23
  0
LAYOUT
  5
22
102
{ACAD_REACTORS
330
1A
102
}
330
1A
100
AcDbPlotSettings
  1

  2
none_device
  4
Letter_(8.50_x_11.00_Inches)
  6

 40
6.349999999999999
 41
6.349999999999999
 42
6.350005
 43
6.350005
 44
215.9
 45
279.4
 46
0.0
 47
0.0
 48
0.0
 49
0.0
140
0.0
141
0.0
142
1.0
143
1.0
 70
  1712
 72
     0
 73
     0
 74
     0
  7

 75
     0
147
1.0
 76
     0
 77
     2
 78
   300
148
0.0
149
0.0
100
AcDbLayout
  1
Model
 70
     1
 71
     0
 10
-0.5
 20
-0.5
 11
5.0
 21
5.0
 12
0.0
 22
0.0
 32
0.0
 14
-0.5
 24
-0.5
 34
-0.5
 15
5.0
 25
5.0
 35
5.0
146
0.0
 13
0.0
 23
0.0
 33
0.0
 16
1.0
 26
0.0
 36
0.0
 17
0.0
 27
1.0
 37
0.0
 76
     0
330
1F
331
29
  0
MATERIAL
  5
45
102
{ACAD_XDICTIONARY
360
30B
102
}
102
{ACAD_REACTORS
330
43
102
}
330
43
100
AcDbMaterial
  1
ByBlock
  0
MATERIAL
  5
44
102
{ACAD_XDICTIONARY
360
309
102
}
102
{ACAD_REACTORS
330
43
102
}
330
43
100
AcDbMaterial
  1
ByLayer
  0
MATERIAL
  5
46
102
{ACAD_XDICTIONARY
360
30D
102
}
102
{ACAD_REACTORS
330
43
102
}
330
43
100
AcDbMaterial
  1
Global
  0
MLEADERSTYLE
  5
6C
102
{ACAD_REACTORS
330
6B
102
}
330
6B
100
AcDbMLeaderStyle
170
     2
171
     1
172
     0
 90
        2
 40
0.0
 41
0.0
173
     1
 91
-1056964608
340
14
 92
       -2
290
     1
 42
0.09
291
     1
 43
0.36
  3
Standard
 44
0.18
300

342
11
174
     1
178
     6
175
     1
176
     0
 93
-1056964608
 45
0.18
292
     0
297
     0
 46
0.18
 94
-1056964608
 47
1.0
 49
1.0
140
1.0
293
     1
141
0.0
294
     1
177
     0
142
1.0
295
     0
296
     0
143
0.125
1001
ACAD_MLEADERVER
1070
     2
  0
MLINESTYLE
  5
18
102
{ACAD_REACTORS
330
17
102
}
330
17
100
AcDbMlineStyle
  2
STANDARD
 70
     0
  3

 62
   256
 51
90.0
 52
90.0
 71
     2
 49
0.5
 62
   256
  6
BYLAYER
 49
-0.5
 62
   256
  6
BYLAYER
  0
ACDBPLACEHOLDER
  5
F
102
{ACAD_REACTORS
330
E
102
}
330
E
  0
SCALE
  5
48
102
{ACAD_REACTORS
330
47
102
}
330
47
100
AcDbScale
 70
     0
300
1:1
140
1.0
141
1.0
290
     1
  0
SCALE
  5
49
102
{ACAD_REACTORS
330
47
102
}
330
47
100
AcDbScale
 70
     0
300
1:2
140
1.0
141
2.0
290
     0
  0
SCALE
  5
4A
102
{ACAD_REACTORS
330
47
102
}
330
47
100
AcDbScale
 70
     0
300
1:4
140
1.0
141
4.0
290
     0
  0
SCALE
  5
4B
102
{ACAD_REACTORS
330
47
102
}
330
47
100
AcDbScale
 70
     0
300
1:5
140
1.0
141
5.0
290
     0
  0
SCALE
  5
4C
102
{ACAD_REACTORS
330
47
102
}
330
47
100
AcDbScale
 70
     0
300
1:8
140
1.0
141
8.0
290
     0
  0
SCALE
  5
4D
102
{ACAD_REACTORS
330
47
102
}
330
47
100
AcDbScale
 70
     0
300
1:10
140
1.0
141
10.0
290
     0
  0
SCALE
  5
4E
102
{ACAD_REACTORS
330
47
102
}
330
47
100
AcDbScale
 70
     0
300
1:16
140
1.0
141
16.0
290
     0
  0
SCALE
  5
4F
102
{ACAD_REACTORS
330
47
102
}
330
47
100
AcDbScale
 70
     0
300
1:20
140
1.0
141
20.0
290
     0
  0
SCALE
  5
50
102
{ACAD_REACTORS
330
47
102
}
330
47
100
AcDbScale
 70
     0
300
1:30
140
1.0
141
30.0
290
     0
  0
SCALE
  5
51
102
{ACAD_REACTORS
330
47
102
}
330
47
100
AcDbScale
 70
     0
300
1:40
140
1.0
141
40.0
290
     0
  0
SCALE
  5
52
102
{ACAD_REACTORS
330
47
102
}
330
47
100
AcDbScale
 70
     0
300
1:50
140
1.0
141
50.0
290
     0
  0
SCALE
  5
53
102
{ACAD_REACTORS
330
47
102
}
330
47
100
AcDbScale
 70
     0
300
1:100
140
1.0
141
100.0
290
     0
  0
SCALE
  5
54
102
{ACAD_REACTORS
330
47
102
}
330
47
100
AcDbScale
 70
     0
300
2:1
140
2.0
141
1.0
290
     0
  0
SCALE
  5
55
102
{ACAD_REACTORS
330
47
102
}
330
47
100
AcDbScale
 70
     0
300
4:1
140
4.0
141
1.0
290
     0
  0
SCALE
  5
56
102
{ACAD_REACTORS
330
47
102
}
330
47
100
AcDbScale
 70
     0
300
8:1
140
8.0
141
1.0
290
     0
  0
SCALE
  5
57
102
{ACAD_REACTORS
330
47
102
}
330
47
100
AcDbScale
 70
     0
300
10:1
140
10.0
141
1.0
290
     0
  0
SCALE
  5
58
102
{ACAD_REACTORS
330
47
102
}
330
47
100
AcDbScale
 70
     0
300
100:1
140
100.0
141
1.0
290
     0
  0
SCALE
  5
59
102
{ACAD_REACTORS
330
47
102
}
330
47
100
AcDbScale
 70
     0
300
1/128" = 1'-0"
140
0.007812
141
12.0
290
     0
  0
SCALE
  5
5A
102
{ACAD_REACTORS
330
47
102
}
330
47
100
AcDbScale
 70
     0
300
1/64" = 1'-0"
140
0.015625
141
12.0
290
     0
  0
SCALE
  5
5B
102
{ACAD_REACTORS
330
47
102
}
330
47
100
AcDbScale
 70
     0
300
1/32" = 1'-0"
140
0.03125
141
12.0
290
     0
  0
SCALE
  5
5C
102
{ACAD_REACTORS
330
47
102
}
330
47
100
AcDbScale
 70
     0
300
1/16" = 1'-0"
140
0.0625
141
12.0
290
     0
  0
SCALE
  5
5D
102
{ACAD_REACTORS
330
47
102
}
330
47
100
AcDbScale
 70
     0
300
3/32" = 1'-0"
140
0.09375
141
12.0
290
     0
  0
SCALE
  5
5E
102
{ACAD_REACTORS
330
47
102
}
330
47
100
AcDbScale
 70
     0
300
1/8" = 1'-0"
140
0.125
141
12.0
290
     0
  0
SCALE
  5
5F
102
{ACAD_REACTORS
330
47
102
}
330
47
100
AcDbScale
 70
     0
300
3/16" = 1'-0"
140
0.1875
141
12.0
290
     0
  0
SCALE
  5
60
102
{ACAD_REACTORS
330
47
102
}
330
47
100
AcDbScale
 70
     0
300
1/4" = 1'-0"
140
0.25
141
12.0
290
     0
  0
SCALE
  5
61
102
{ACAD_REACTORS
330
47
102
}
330
47
100
AcDbScale
 70
     0
300
3/8" = 1'-0"
140
0.375
141
12.0
290
     0
  0
SCALE
  5
62
102
{ACAD_REACTORS
330
47
102
}
330
47
100
AcDbScale
 70
     0
300
1/2" = 1'-0"
140
0.5
141
12.0
290
     0
  0
SCALE
  5
63
102
{ACAD_REACTORS
330
47
102
}
330
47
100
AcDbScale
 70
     0
300
3/4" = 1'-0"
140
0.75
141
12.0
290
     0
  0
SCALE
  5
64
102
{ACAD_REACTORS
330
47
102
}
330
47
100
AcDbScale
 70
     0
300
1" = 1'-0"
140
1.0
141
12.0
290
     0
  0
SCALE
  5
65
102
{ACAD_REACTORS
330
47
102
}
330
47
100
AcDbScale
 70
     0
300
1-1/2" = 1'-0"
140
1.5
141
12.0
290
     0
  0
SCALE
  5
66
102
{ACAD_REACTORS
330
47
102
}
330
47
100
AcDbScale
 70
     0
300
3" = 1'-0"
140
3.0
141
12.0
290
     0
  0
SCALE
  5
67
102
{ACAD_REACTORS
330
47
102
}
330
47
100
AcDbScale
 70
     0
300
6" = 1'-0"
140
6.0
141
12.0
290
     0
  0
SCALE
  5
68
102
{ACAD_REACTORS
330
47
102
}
330
47
100
AcDbScale
 70
     0
300
1'-0" = 1'-0"
140
12.0
141
12.0
290
     0
  0
ACDBSECTIONVIEWSTYLE
  5
31D
102
{ACAD_XDICTIONARY
360
3BE
102
}
102
{ACAD_REACTORS
330
319
102
}
330
319
100
AcDbModelDocViewStyle
 70
     0
  3
Metric50
290
     0
100
AcDbSectionViewStyle
 70
     0
 71
     0
 90
      102
 71
     1
340
11
 62
   256
 40
5.0
340
0
340
0
 62
   256
 40
5.0
300
I, O, Q, S, X, Z
 40
10.0
 90
        0
 40
2.5
 90
        0
 71
     2
340
16
 90
       25
 62
   256
340
16
 90
       50
 62
   256
 40
5.0
 40
2.5
 40
5.0
 71
     3
340
11
 62
   256
 40
5.0
 90
        0
 40
15.0
 90
        1
300
%<\AcVar ViewSectionStartId>%-%<\AcVar ViewSectionEndId>% (%<\AcVar ViewScale \f "%sn">%)
 71
     4
 62
   256
 62
   257
300
ANSI31
 40
1.0
 90
        0
290
     0
290
     0
 90
        6
 40
0.0
 40
1.570796326794896
 40
0.2617993877991494
 40
1.308996938995747
 40
-0.2617993877991494
 40
1.832595714594046
  0
TABLESTYLE
  5
6A
102
{ACAD_XDICTIONARY
360
30F
102
}
102
{ACAD_REACTORS
330
69
102
}
330
69
100
AcDbTableStyle
  3
Standard
 70
     0
 71
     0
 40
0.06
 41
0.06
280
     0
281
     0
  7
Standard
140
0.18
170
     2
 62
     0
 63
     7
283
     0
274
    -2
284
     1
 64
     0
275
    -2
285
     1
 65
     0
276
    -2
286
     1
 66
     0
277
    -2
287
     1
 67
     0
278
    -2
288
     1
 68
     0
279
    -2
289
     1
 69
     0
  7
Standard
140
0.25
170
     5
 62
     0
 63
     7
283
     0
274
    -2
284
     1
 64
     0
275
    -2
285
     1
 65
     0
276
    -2
286
     1
 66
     0
277
    -2
287
     1
 67
     0
278
    -2
288
     1
 68
     0
279
    -2
289
     1
 69
     0
  7
Standard
140
0.18
170
     5
 62
     0
 63
     7
283
     0
274
    -2
284
     1
 64
     0
275
    -2
285
     1
 65
     0
276
    -2
286
     1
 66
     0
277
    -2
287
     1
 67
     0
278
    -2
288
     1
 68
     0
279
    -2
289
     1
 69
     0
  0
VISUALSTYLE
  5
2F
102
{ACAD_XDICTIONARY
360
395
102
}
102
{ACAD_REACTORS
330
2A
102
}
330
2A
100
AcDbVisualStyle
  2

 70
     4
 71
     0
 72
     2
 73
     0
 90
        0
 40
-0.6
 41
-30.0
 62
     5
 63
     7
421
 16777215
 74
     1
 91
        4
 64
     7
 65
   257
 75
     1
175
     1
 42
1.0
 92
        0
 66
   257
 43
1.0
 76
     1
 77
     6
 78
     2
 67
     7
 79
     5
170
     0
171
     0
290
     0
174
     0
 93
        1
 44
0.0
173
     0
291
     0
 45
0.0
1001
ACAD
1000
AcDbSavedByObjectVersion
1070
     0
  0
VISUALSTYLE
  5
32
102
{ACAD_XDICTIONARY
360
39B
102
}
102
{ACAD_REACTORS
330
2A
102
}
330
2A
100
AcDbVisualStyle
  2

 70
     7
 71
     1
 72
     0
 73
     1
 90
        0
 40
-0.6
 41
-30.0
 62
     5
 63
     7
421
 16777215
 74
     0
 91
        4
 64
     7
 65
   257
 75
     1
175
     1
 42
1.0
 92
        8
 66
     7
 43
1.0
 76
     1
 77
     6
 78
     2
 67
     7
 79
     5
170
     0
171
     0
290
     0
174
     0
 93
        1
 44
0.0
173
     0
291
     1
 45
0.0
1001
ACAD
1000
AcDbSavedByObjectVersion
1070
     0
  0
VISUALSTYLE
  5
36
102
{ACAD_XDICTIONARY
360
3A3
102
}
102
{ACAD_REACTORS
330
2A
102
}
330
2A
100
AcDbVisualStyle
  2

 70
    12
 71
     2
 72
     2
 73
     0
 90
        0
 40
-0.6
 41
-30.0
 62
     5
 63
     7
421
 16777215
 74
     1
 91
        4
 64
     7
 65
   257
 75
     1
175
     1
 42
1.0
 92
        8
 66
     7
 43
1.0
 76
     1
 77
     6
 78
     2
 67
     7
 79
     5
170
     0
171
     0
290
     0
174
     0
 93
        1
 44
50.0
173
     0
291
     1
 45
0.0
1001
ACAD
1000
AcDbSavedByObjectVersion
1070
     0
  0
VISUALSTYLE
  5
3A
102
{ACAD_XDICTIONARY
360
3AB
102
}
102
{ACAD_REACTORS
330
2A
102
}
330
2A
100
AcDbVisualStyle
  2

 70
    16
 71
     2
 72
     2
 73
     3
 90
        0
 40
-0.6
 41
-30.0
 62
     5
 63
     8
421
  8421504
 74
     1
 91
        4
 64
     7
 65
   257
 75
     1
175
     1
 42
1.0
 92
        8
 66
     8
424
  8421504
 43
1.0
 76
     1
 77
     6
 78
     2
 67
     7
 79
     5
170
     0
171
     0
290
     0
174
     0
 93
        1
 44
0.0
173
     0
291
     1
 45
0.0
1001
ACAD
1000
AcDbSavedByObjectVersion
1070
     0
  0
VISUALSTYLE
  5
34
102
{ACAD_XDICTIONARY
360
39F
102
}
102
{ACAD_REACTORS
330
2A
102
}
330
2A
100
AcDbVisualStyle
  2

 70
     9
 71
     3
 72
     2
 73
     0
 90
        0
 40
-0.6
 41
-30.0
 62
     5
 63
     7
421
 16777215
 74
     2
 91
        2
 64
     7
 65
   257
 75
     1
175
     1
 42
179.0
 92
        8
 66
     7
 43
1.0
 76
     1
 77
     6
 78
     2
 67
     7
 79
     3
170
     0
171
     0
290
     0
174
     0
 93
        1
 44
0.0
173
     0
291
     0
 45
0.0
1001
ACAD
1000
AcDbSavedByObjectVersion
1070
     0
  0
VISUALSTYLE
  5
35
102
{ACAD_XDICTIONARY
360
3A1
102
}
102
{ACAD_REACTORS
330
2A
102
}
330
2A
100
AcDbVisualStyle
  2

 70
    11
 71
     2
 72
     2
 73
     0
 90
        0
 40
-0.6
 41
-30.0
 62
     5
 63
     7
421
 16777215
 74
     1
 91
        4
 64
     7
 65
   257
 75
     1
175
     1
 42
1.0
 92
        8
 66
     7
 43
1.0
 76
     1
 77
     6
 78
     2
 67
     7
 79
     5
170
     0
171
     0
290
     0
174
     0
 93
        1
 44
-50.0
173
     0
291
     1
 45
0.0
1001
ACAD
1000
AcDbSavedByObjectVersion
1070
     0
  0
VISUALSTYLE
  5
3D
102
{ACAD_XDICTIONARY
360
3B1
102
}
102
{ACAD_REACTORS
330
2A
102
}
330
2A
100
AcDbVisualStyle
  2

 70
    22
 71
     2
 72
     2
 73
     0
 90
        0
 40
-0.6
 41
-30.0
 62
     5
 63
     7
421
 16777215
 74
     1
 91
        4
 64
     7
 65
   257
 75
     1
175
     1
 42
1.0
 92
        8
 66
     7
 43
1.0
 76
     1
 77
     6
 78
     2
 67
     7
 79
     5
170
     0
171
     0
290
     0
174
     0
 93
        1
 44
0.0
173
     0
291
     1
 45
0.0
1001
ACAD
1000
AcDbSavedByObjectVersion
1070
     0
  0
VISUALSTYLE
  5
39
102
{ACAD_XDICTIONARY
360
3A9
102
}
102
{ACAD_REACTORS
330
2A
102
}
330
2A
100
AcDbVisualStyle
  2

 70
    15
 71
     2
 72
     2
 73
     0
 90
        0
 40
-0.6
 41
-30.0
 62
     5
 63
     7
421
 16777215
 74
     1
 91
        4
 64
     7
 65
   257
 75
     1
175
     1
 42
1.0
 92
        8
 66
     7
 43
1.0
 76
     1
 77
     6
 78
     2
 67
     7
 79
     5
170
     0
171
     0
290
     0
174
     0
 93
        1
 44
0.0
173
     0
291
     1
 45
0.0
1001
ACAD
1000
AcDbSavedByObjectVersion
1070
     0
  0
VISUALSTYLE
  5
2B
102
{ACAD_XDICTIONARY
360
38D
102
}
102
{ACAD_REACTORS
330
2A
102
}
330
2A
100
AcDbVisualStyle
  2

 70
     0
 71
     2
 72
     1
 73
     1
 90
        2
 40
-0.6
 41
30.0
 62
     5
 63
     7
421
 16777215
 74
     0
 91
        0
 64
     7
 65
   257
 75
     1
175
     1
 42
1.0
 92
        8
 66
     7
 43
1.0
 76
     1
 77
     6
 78
     2
 67
     7
 79
     5
170
     0
171
     0
290
     0
174
     0
 93
       13
 44
0.0
173
     0
291
     1
 45
0.0
1001
ACAD
1000
AcDbSavedByObjectVersion
1070
     0
  0
VISUALSTYLE
  5
2C
102
{ACAD_XDICTIONARY
360
38F
102
}
102
{ACAD_REACTORS
330
2A
102
}
330
2A
100
AcDbVisualStyle
  2

 70
     1
 71
     2
 72
     1
 73
     1
 90
        2
 40
-0.6
 41
30.0
 62
     5
 63
     7
421
 16777215
 74
     1
 91
        0
 64
     7
 65
   257
 75
     1
175
     1
 42
1.0
 92
        0
 66
   257
 43
1.0
 76
     1
 77
     6
 78
     2
 67
     7
 79
     5
170
     0
171
     0
290
     0
174
     0
 93
       13
 44
0.0
173
     0
291
     1
 45
0.0
1001
ACAD
1000
AcDbSavedByObjectVersion
1070
     0
  0
VISUALSTYLE
  5
2D
102
{ACAD_XDICTIONARY
360
391
102
}
102
{ACAD_REACTORS
330
2A
102
}
330
2A
100
AcDbVisualStyle
  2

 70
     2
 71
     2
 72
     2
 73
     1
 90
        2
 40
-0.6
 41
30.0
 62
     5
 63
     7
421
 16777215
 74
     0
 91
        0
 64
     7
 65
   257
 75
     1
175
     1
 42
1.0
 92
        0
 66
     7
 43
1.0
 76
     1
 77
     6
 78
     2
 67
     7
 79
     5
170
     0
171
     0
290
     0
174
     0
 93
       13
 44
0.0
173
     0
291
     1
 45
0.0
1001
ACAD
1000
AcDbSavedByObjectVersion
1070
     0
  0
VISUALSTYLE
  5
2E
102
{ACAD_XDICTIONARY
360
393
102
}
102
{ACAD_REACTORS
330
2A
102
}
330
2A
100
AcDbVisualStyle
  2

 70
     3
 71
     2
 72
     2
 73
     1
 90
        2
 40
-0.6
 41
30.0
 62
     5
 63
     7
421
 16777215
 74
     1
 91
        0
 64
     7
 65
   257
 75
     1
175
     1
 42
1.0
 92
        0
 66
   257
 43
1.0
 76
     1
 77
     6
 78
     2
 67
     7
 79
     5
170
     0
171
     0
290
     0
174
     0
 93
       13
 44
0.0
173
     0
291
     1
 45
0.0
1001
ACAD
1000
AcDbSavedByObjectVersion
1070
     0
  0
VISUALSTYLE
  5
31
102
{ACAD_XDICTIONARY
360
399
102
}
102
{ACAD_REACTORS
330
2A
102
}
330
2A
100
AcDbVisualStyle
  2

 70
     6
 71
     1
 72
     2
 73
     2
 90
        0
 40
-0.6
 41
-30.0
 62
     5
 63
     7
421
 16777215
 74
     2
 91
        2
 64
     7
 65
   257
 75
     2
175
     1
 42
40.0
 92
        0
 66
   257
 43
1.0
 76
     1
 77
     6
 78
     2
 67
     7
 79
     3
170
     0
171
     0
290
     0
174
     0
 93
        1
 44
0.0
173
     0
291
     0
 45
0.0
1001
ACAD
1000
AcDbSavedByObjectVersion
1070
     0
  0
VISUALSTYLE
  5
3B
102
{ACAD_XDICTIONARY
360
3AD
102
}
102
{ACAD_REACTORS
330
2A
102
}
330
2A
100
AcDbVisualStyle
  2

 70
    20
 71
     2
 72
     2
 73
     0
 90
        0
 40
-0.6
 41
-30.0
 62
     5
 63
     7
421
 16777215
 74
     1
 91
        4
 64
     7
 65
   257
 75
     1
175
     1
 42
1.0
 92
       10
 66
     7
 43
1.0
 76
     1
 77
     6
 78
     2
 67
     7
 79
     5
170
     0
171
     0
290
     0
174
     0
 93
        1
 44
0.0
173
     0
291
     1
 45
0.0
1001
ACAD
1000
AcDbSavedByObjectVersion
1070
     0
  0
VISUALSTYLE
  5
38
102
{ACAD_XDICTIONARY
360
3A7
102
}
102
{ACAD_REACTORS
330
2A
102
}
330
2A
100
AcDbVisualStyle
  2

 70
    14
 71
     2
 72
     2
 73
     0
 90
        0
 40
-0.6
 41
-30.0
 62
     5
 63
     7
421
 16777215
 74
     1
 91
        4
 64
     7
 65
   257
 75
     7
175
     7
 42
1.0
 92
        8
 66
     7
 43
1.0
 76
     1
 77
     6
 78
     2
 67
     7
 79
     5
170
     0
171
     0
290
     0
174
     0
 93
        1
 44
0.0
173
     0
291
     1
 45
0.0
1001
ACAD
1000
AcDbSavedByObjectVersion
1070
     0
  0
VISUALSTYLE
  5
3C
102
{ACAD_XDICTIONARY
360
3AF
102
}
102
{ACAD_REACTORS
330
2A
102
}
330
2A
100
AcDbVisualStyle
  2

 70
    21
 71
     2
 72
     2
 73
     0
 90
        0
 40
-0.6
 41
-30.0
 62
     5
 63
     7
421
 16777215
 74
     1
 91
        4
 64
     7
 65
   257
 75
     1
175
     1
 42
1.0
 92
        9
 66
     7
 43
1.0
 76
     1
 77
     6
 78
     2
 67
     7
 79
     5
170
     0
171
     0
290
     0
174
     0
 93
        1
 44
0.0
173
     0
291
     1
 45
0.0
1001
ACAD
1000
AcDbSavedByObjectVersion
1070
     0
  0
VISUALSTYLE
  5
33
102
{ACAD_XDICTIONARY
360
39D
102
}
102
{ACAD_REACTORS
330
2A
102
}
330
2A
100
AcDbVisualStyle
  2

 70
     8
 71
     2
 72
     3
 73
     0
 90
        2
 40
-0.6
 41
30.0
 62
     5
 63
     7
421
 16777215
 74
     0
 91
        0
 64
     7
 65
   257
 75
     1
175
     1
 42
1.0
 92
        8
 66
   257
 43
1.0
 76
     1
 77
     6
 78
     2
 67
     7
 79
     3
170
     0
171
     0
290
     0
174
     0
 93
       13
 44
0.0
173
     0
291
     0
 45
0.0
1001
ACAD
1000
AcDbSavedByObjectVersion
1070
     0
  0
VISUALSTYLE
  5
42
102
{ACAD_XDICTIONARY
360
3BB
102
}
102
{ACAD_REACTORS
330
2A
102
}
330
2A
100
AcDbVisualStyle
  2

 70
    27
 71
     2
 72
     2
 73
     1
 90
        2
 40
-0.6
 41
30.0
 62
     5
 63
     7
421
 16777215
 74
     0
 91
        4
 64
     7
 65
   257
 75
     1
175
     1
 42
1.0
 92
        8
 66
   257
 43
1.0
 76
     1
 77
     6
 78
     2
 67
     8
425
  7895160
 79
     3
170
     0
171
     0
290
     0
174
     0
 93
        5
 44
0.0
173
     0
291
     0
 45
0.0
1001
ACAD
1000
AcDbSavedByObjectVersion
1070
     0
  0
VISUALSTYLE
  5
41
102
{ACAD_XDICTIONARY
360
3B9
102
}
102
{ACAD_REACTORS
330
2A
102
}
330
2A
100
AcDbVisualStyle
  2

 70
    26
 71
     2
 72
     2
 73
     1
 90
        2
 40
-0.6
 41
30.0
 62
     5
 63
     7
421
 16777215
 74
     1
 91
       10
 64
     7
 65
   257
 75
     2
175
     1
 42
1.0
 92
        8
 66
   257
 43
1.0
 76
     1
 77
     6
 78
     2
 67
     7
 79
     3
170
     0
171
     0
290
     0
174
     0
 93
        5
 44
0.0
173
     0
291
     0
 45
0.0
1001
ACAD
1000
AcDbSavedByObjectVersion
1070
     0
  0
VISUALSTYLE
  5
3E
102
{ACAD_XDICTIONARY
360
3B3
102
}
102
{ACAD_REACTORS
330
2A
102
}
330
2A
100
AcDbVisualStyle
  2

 70
    23
 71
     2
 72
     2
 73
     3
 90
        0
 40
-0.6
 41
-30.0
 62
     5
 63
     7
421
 16777215
 74
     2
 91
        2
 64
     7
 65
     7
 75
     1
175
     1
 42
40.0
 92
        8
 66
     7
 43
1.0
 76
     1
 77
     6
 78
     2
 67
     7
 79
     3
170
     0
171
     0
290
     0
174
     0
 93
        1
 44
0.0
173
     0
291
     0
 45
0.0
1001
ACAD
1000
AcDbSavedByObjectVersion
1070
     0
  0
VISUALSTYLE
  5
3F
102
{ACAD_XDICTIONARY
360
3B5
102
}
102
{ACAD_REACTORS
330
2A
102
}
330
2A
100
AcDbVisualStyle
  2

 70
    24
 71
     1
 72
     2
 73
     2
 90
        0
 40
-0.6
 41
-30.0
 62
     5
 63
     7
421
 16777215
 74
     2
 91
        2
 64
     7
 65
     7
 75
     1
175
     1
 42
40.0
 92
       11
 66
     7
 43
1.0
 76
     1
 77
     6
 78
     2
 67
     7
 79
     6
170
     0
171
     0
290
     0
174
     0
 93
        1
 44
0.0
173
     0
291
     0
 45
0.0
1001
ACAD
1000
AcDbSavedByObjectVersion
1070
     0
  0
VISUALSTYLE
  5
37
102
{ACAD_XDICTIONARY
360
3A5
102
}
102
{ACAD_REACTORS
330
2A
102
}
330
2A
100
AcDbVisualStyle
  2

 70
    13
 71
     2
 72
     2
 73
     0
 90
        0
 40
-0.6
 41
-30.0
 62
     5
 63
     7
421
 16777215
 74
     1
 91
        4
 64
     7
 65
   257
 75
     1
175
     1
 42
1.0
 92
       12
 66
     7
 43
1.0
 76
     1
 77
     6
 78
     2
 67
     7
 79
     5
170
     0
171
     0
290
     0
174
     0
 93
        1
 44
0.0
173
     0
291
     1
 45
0.0
1001
ACAD
1000
AcDbSavedByObjectVersion
1070
     0
  0
VISUALSTYLE
  5
30
102
{ACAD_XDICTIONARY
360
397
102
}
102
{ACAD_REACTORS
330
2A
102
}
330
2A
100
AcDbVisualStyle
  2

 70
     5
 71
     0
 72
     2
 73
     0
 90
        0
 40
-0.6
 41
-30.0
 62
     5
 63
     7
421
 16777215
 74
     1
 91
        4
 64
     7
 65
   257
 75
     1
175
     1
 42
1.0
 92
        0
 66
   257
 43
1.0
 76
     1
 77
     6
 78
     2
 67
     7
 79
     3
170
     0
171
     0
290
     0
174
     0
 93
        1
 44
0.0
173
     0
291
     0
 45
0.0
1001
ACAD
1000
AcDbSavedByObjectVersion
1070
     0
  0
VISUALSTYLE
  5
40
102
{ACAD_XDICTIONARY
360
3B7
102
}
102
{ACAD_REACTORS
330
2A
102
}
330
2A
100
AcDbVisualStyle
  2

 70
    25
 71
     2
 72
     2
 73
     1
 90
        1
 40
0.5
 41
-30.0
 62
     5
 63
     7
421
 16777215
 74
     1
 91
        0
 64
     7
 65
   257
 75
     1
175
     1
 42
1.0
 92
        8
 66
     7
 43
1.0
 76
     1
 77
     6
 78
     2
 67
     7
 79
     3
170
     0
171
     0
290
     0
174
     0
 93
       13
 44
0.0
173
     0
291
     0
 45
0.0
1001
ACAD
1000
AcDbSavedByObjectVersion
1070
     0
  0
DICTIONARYVAR
  5
2D6
102
{ACAD_REACTORS
330
2D5
102
}
330
2D5
100
DictionaryVariables
280
     0
  1
1:1
  0
DICTIONARYVAR
  5
317
102
{ACAD_REACTORS
330
2D5
102
}
330
2D5
100
DictionaryVariables
280
     0
  1
STANDARD
  0
DICTIONARYVAR
  5
316
102
{ACAD_REACTORS
330
2D5
102
}
330
2D5
100
DictionaryVariables
280
     0
  1
STANDARD
  0
DICTIONARYVAR
  5
387
102
{ACAD_REACTORS
330
2D5
102
}
330
2D5
100
DictionaryVariables
280
     0
  1
Metric50
  0
DICTIONARYVAR
  5
388
102
{ACAD_REACTORS
330
2D5
102
}
330
2D5
100
DictionaryVariables
280
     0
  1
Metric50
  0
DICTIONARYVAR
  5
2D7
102
{ACAD_REACTORS
330
2D5
102
}
330
2D5
100
DictionaryVariables
280
     0
  1
1
  0
DICTIONARYVAR
  5
389
102
{ACAD_REACTORS
330
2D5
102
}
330
2D5
100
DictionaryVariables
280
     0
  1
2
  0
DICTIONARY
  5
3C0
330
31E
100
AcDbDictionary
280
     1
281
     1
  3
ACAD_XREC_ROUNDTRIP
360
3C1
  0
DICTIONARY
  5
30B
330
45
100
AcDbDictionary
280
     1
281
     1
  3
ACAD_XREC_ROUNDTRIP
360
30C
  0
DICTIONARY
  5
309
330
44
100
AcDbDictionary
280
     1
281
     1
  3
ACAD_XREC_ROUNDTRIP
360
30A
  0
DICTIONARY
  5
30D
330
46
100
AcDbDictionary
280
     1
281
     1
  3
ACAD_XREC_ROUNDTRIP
360
30E
  0
DICTIONARY
  5
3BE
330
31D
100
AcDbDictionary
280
     1
281
     1
  3
ACAD_XREC_ROUNDTRIP
360
3BF
  0
DICTIONARY
  5
30F
330
6A
100
AcDbDictionary
280
     1
281
     1
  3
ACAD_ROUNDTRIP_2008_TABLESTYLE_CELLSTYLEMAP
360
38B
  3
ACAD_XREC_ROUNDTRIP
360
3BD
  0
DICTIONARY
  5
395
330
2F
100
AcDbDictionary
280
     1
281
     1
  3
ACAD_XREC_ROUNDTRIP
360
396
  0
DICTIONARY
  5
39B
330
32
100
AcDbDictionary
280
     1
281
     1
  3
ACAD_XREC_ROUNDTRIP
360
39C
  0
DICTIONARY
  5
3A3
330
36
100
AcDbDictionary
280
     1
281
     1
  3
ACAD_XREC_ROUNDTRIP
360
3A4
  0
DICTIONARY
  5
3AB
330
3A
100
AcDbDictionary
280
     1
281
     1
  3
ACAD_XREC_ROUNDTRIP
360
3AC
  0
DICTIONARY
  5
39F
330
34
100
AcDbDictionary
280
     1
281
     1
  3
ACAD_XREC_ROUNDTRIP
360
3A0
  0
DICTIONARY
  5
3A1
330
35
100
AcDbDictionary
280
     1
281
     1
  3
ACAD_XREC_ROUNDTRIP
360
3A2
  0
DICTIONARY
  5
3B1
330
3D
100
AcDbDictionary
280
     1
281
     1
  3
ACAD_XREC_ROUNDTRIP
360
3B2
  0
DICTIONARY
  5
3A9
330
39
100
AcDbDictionary
280
     1
281
     1
  3
ACAD_XREC_ROUNDTRIP
360
3AA
  0
DICTIONARY
  5
38D
330
2B
100
AcDbDictionary
280
     1
281
     1
  3
ACAD_XREC_ROUNDTRIP
360
38E
  0
DICTIONARY
  5
38F
330
2C
100
AcDbDictionary
280
     1
281
     1
  3
ACAD_XREC_ROUNDTRIP
360
390
  0
DICTIONARY
  5
391
330
2D
100
AcDbDictionary
280
     1
281
     1
  3
ACAD_XREC_ROUNDTRIP
360
392
  0
DICTIONARY
  5
393
330
2E
100
AcDbDictionary
280
     1
281
     1
  3
ACAD_XREC_ROUNDTRIP
360
394
  0
DICTIONARY
  5
399
330
31
100
AcDbDictionary
280
     1
281
     1
  3
ACAD_XREC_ROUNDTRIP
360
39A
  0
DICTIONARY
  5
3AD
330
3B
100
AcDbDictionary
280
     1
281
     1
  3
ACAD_XREC_ROUNDTRIP
360
3AE
  0
DICTIONARY
  5
3A7
330
38
100
AcDbDictionary
280
     1
281
     1
  3
ACAD_XREC_ROUNDTRIP
360
3A8
  0
DICTIONARY
  5
3AF
330
3C
100
AcDbDictionary
280
     1
281
     1
  3
ACAD_XREC_ROUNDTRIP
360
3B0
  0
DICTIONARY
  5
39D
330
33
100
AcDbDictionary
280
     1
281
     1
  3
ACAD_XREC_ROUNDTRIP
360
39E
  0
DICTIONARY
  5
3BB
330
42
100
AcDbDictionary
280
     1
281
     1
  3
ACAD_XREC_ROUNDTRIP
360
3BC
  0
DICTIONARY
  5
3B9
330
41
100
AcDbDictionary
280
     1
281
     1
  3
ACAD_XREC_ROUNDTRIP
360
3BA
  0
DICTIONARY
  5
3B3
330
3E
100
AcDbDictionary
280
     1
281
     1
  3
ACAD_XREC_ROUNDTRIP
360
3B4
  0
DICTIONARY
  5
3B5
330
3F
100
AcDbDictionary
280
     1
281
     1
  3
ACAD_XREC_ROUNDTRIP
360
3B6
  0
DICTIONARY
  5
3A5
330
37
100
AcDbDictionary
280
     1
281
     1
  3
ACAD_XREC_ROUNDTRIP
360
3A6
  0
DICTIONARY
  5
397
330
30
100
AcDbDictionary
280
     1
281
     1
  3
ACAD_XREC_ROUNDTRIP
360
398
  0
DICTIONARY
  5
3B7
330
40
100
AcDbDictionary
280
     1
281
     1
  3
ACAD_XREC_ROUNDTRIP
360
3B8
  0
XRECORD
  5
3C1
102
{ACAD_REACTORS
330
3C0
102
}
330
3C0
100
AcDbXrecord
280
     1
102
DISPLAYNAME
  1
Metric50
102
FLAGS
 90
        0
  0
XRECORD
  5
30C
102
{ACAD_REACTORS
330
30B
102
}
330
30B
100
AcDbXrecord
280
     1
102
MATERIAL
148
0.0
149
0.0
149
0.0
 93
        0
 94
      127
282
     0
 72
     1
 77
     1
171
     1
175
     1
179
     1
273
     0
  0
XRECORD
  5
30A
102
{ACAD_REACTORS
330
309
102
}
330
309
100
AcDbXrecord
280
     1
102
MATERIAL
148
0.0
149
0.0
149
0.0
 93
        0
 94
      127
282
     0
 72
     1
 77
     1
171
     1
175
     1
179
     1
273
     0
  0
XRECORD
  5
30E
102
{ACAD_REACTORS
330
30D
102
}
330
30D
100
AcDbXrecord
280
     1
102
MATERIAL
148
0.0
149
0.0
149
0.0
 93
        0
 94
      127
282
     0
 72
     1
 77
     1
171
     1
175
     1
179
     1
273
     0
  0
XRECORD
  5
3BF
102
{ACAD_REACTORS
330
3BE
102
}
330
3BE
100
AcDbXrecord
280
     1
102
DISPLAYNAME
  1
Metric50
102
FLAGS
 90
        0
  0
CELLSTYLEMAP
  5
38B
102
{ACAD_REACTORS
330
30F
102
}
330
30F
100
AcDbCellStyleMap
 90
        3
300
CELLSTYLE
  1
TABLEFORMAT_BEGIN
 90
        5
170
     1
 91
        0
 92
    32768
 62
   257
 93
        1
300
CONTENTFORMAT
  1
CONTENTFORMAT_BEGIN
 90
        0
 91
        0
 92
        4
 93
        0
300

 40
0.0
140
1.0
 94
        5
 62
     0
340
11
144
0.25
309
CONTENTFORMAT_END
171
     1
301
MARGIN
  1
CELLMARGIN_BEGIN
 40
0.06
 40
0.06
 40
0.06
 40
0.06
 40
0.18
 40
0.18
309
CELLMARGIN_END
 94
        6
 95
        1
302
GRIDFORMAT
  1
GRIDFORMAT_BEGIN
 90
        0
 91
        1
 62
     0
 92
       -2
340
14
 93
        0
 40
0.045
309
GRIDFORMAT_END
 95
        2
302
GRIDFORMAT
  1
GRIDFORMAT_BEGIN
 90
        0
 91
        1
 62
     0
 92
       -2
340
14
 93
        0
 40
0.045
309
GRIDFORMAT_END
 95
        4
302
GRIDFORMAT
  1
GRIDFORMAT_BEGIN
 90
        0
 91
        1
 62
     0
 92
       -2
340
14
 93
        0
 40
0.045
309
GRIDFORMAT_END
 95
        8
302
GRIDFORMAT
  1
GRIDFORMAT_BEGIN
 90
        0
 91
        1
 62
     0
 92
       -2
340
14
 93
        0
 40
0.045
309
GRIDFORMAT_END
 95
       16
302
GRIDFORMAT
  1
GRIDFORMAT_BEGIN
 90
        0
 91
        1
 62
     0
 92
       -2
340
14
 93
        0
 40
0.045
309
GRIDFORMAT_END
 95
       32
302
GRIDFORMAT
  1
GRIDFORMAT_BEGIN
 90
        0
 91
        1
 62
     0
 92
       -2
340
14
 93
        0
 40
0.045
309
GRIDFORMAT_END
309
TABLEFORMAT_END
  1
CELLSTYLE_BEGIN
 90
        1
 91
        1
300
_TITLE
309
CELLSTYLE_END
300
CELLSTYLE
  1
TABLEFORMAT_BEGIN
 90
        5
170
     1
 91
        0
 92
        0
 62
   257
 93
        1
300
CONTENTFORMAT
  1
CONTENTFORMAT_BEGIN
 90
        0
 91
        0
 92
        4
 93
        0
300

 40
0.0
140
1.0
 94
        5
 62
     0
340
11
144
0.18
309
CONTENTFORMAT_END
171
     1
301
MARGIN
  1
CELLMARGIN_BEGIN
 40
0.06
 40
0.06
 40
0.06
 40
0.06
 40
0.18
 40
0.18
309
CELLMARGIN_END
 94
        6
 95
        1
302
GRIDFORMAT
  1
GRIDFORMAT_BEGIN
 90
        0
 91
        1
 62
     0
 92
       -2
340
14
 93
        0
 40
0.045
309
GRIDFORMAT_END
 95
        2
302
GRIDFORMAT
  1
GRIDFORMAT_BEGIN
 90
        0
 91
        1
 62
     0
 92
       -2
340
14
 93
        0
 40
0.045
309
GRIDFORMAT_END
 95
        4
302
GRIDFORMAT
  1
GRIDFORMAT_BEGIN
 90
        0
 91
        1
 62
     0
 92
       -2
340
14
 93
        0
 40
0.045
309
GRIDFORMAT_END
 95
        8
302
GRIDFORMAT
  1
GRIDFORMAT_BEGIN
 90
        0
 91
        1
 62
     0
 92
       -2
340
14
 93
        0
 40
0.045
309
GRIDFORMAT_END
 95
       16
302
GRIDFORMAT
  1
GRIDFORMAT_BEGIN
 90
        0
 91
        1
 62
     0
 92
       -2
340
14
 93
        0
 40
0.045
309
GRIDFORMAT_END
 95
       32
302
GRIDFORMAT
  1
GRIDFORMAT_BEGIN
 90
        0
 91
        1
 62
     0
 92
       -2
340
14
 93
        0
 40
0.045
309
GRIDFORMAT_END
309
TABLEFORMAT_END
  1
CELLSTYLE_BEGIN
 90
        2
 91
        1
300
_HEADER
309
CELLSTYLE_END
300
CELLSTYLE
  1
TABLEFORMAT_BEGIN
 90
        5
170
     1
 91
        0
 92
        0
 62
   257
 93
        1
300
CONTENTFORMAT
  1
CONTENTFORMAT_BEGIN
 90
        0
 91
        0
 92
        4
 93
        0
300

 40
0.0
140
1.0
 94
        2
 62
     0
340
11
144
0.18
309
CONTENTFORMAT_END
171
     1
301
MARGIN
  1
CELLMARGIN_BEGIN
 40
0.06
 40
0.06
 40
0.06
 40
0.06
 40
0.18
 40
0.18
309
CELLMARGIN_END
 94
        6
 95
        1
302
GRIDFORMAT
  1
GRIDFORMAT_BEGIN
 90
        0
 91
        1
 62
     0
 92
       -2
340
14
 93
        0
 40
0.045
309
GRIDFORMAT_END
 95
        2
302
GRIDFORMAT
  1
GRIDFORMAT_BEGIN
 90
        0
 91
        1
 62
     0
 92
       -2
340
14
 93
        0
 40
0.045
309
GRIDFORMAT_END
 95
        4
302
GRIDFORMAT
  1
GRIDFORMAT_BEGIN
 90
        0
 91
        1
 62
     0
 92
       -2
340
14
 93
        0
 40
0.045
309
GRIDFORMAT_END
 95
        8
302
GRIDFORMAT
  1
GRIDFORMAT_BEGIN
 90
        0
 91
        1
 62
     0
 92
       -2
340
14
 93
        0
 40
0.045
309
GRIDFORMAT_END
 95
       16
302
GRIDFORMAT
  1
GRIDFORMAT_BEGIN
 90
        0
 91
        1
 62
     0
 92
       -2
340
14
 93
        0
 40
0.045
309
GRIDFORMAT_END
 95
       32
302
GRIDFORMAT
  1
GRIDFORMAT_BEGIN
 90
        0
 91
        1
 62
     0
 92
       -2
340
14
 93
        0
 40
0.045
309
GRIDFORMAT_END
309
TABLEFORMAT_END
  1
CELLSTYLE_BEGIN
 90
        3
 91
        2
300
_DATA
309
CELLSTYLE_END
  0
XRECORD
  5
3BD
102
{ACAD_REACTORS
330
30F
102
}
330
30F
100
AcDbXrecord
280
     1
102
ACAD_ROUNDTRIP_PRE2007_TABLESTYLE
 90
        4
 91
        0
  1

 92
        4
 93
        0
  2

 94
        4
 95
        0
  3

  0
XRECORD
  5
396
102
{ACAD_REACTORS
330
395
102
}
330
395
100
AcDbXrecord
280
     1
102
RTVSPost2010Prop28
280
     1
102
RTVSPost2010PropOp28
 70
     1
102
RTVSPost2010Prop29
280
     1
102
RTVSPost2010PropOp29
 70
     1
102
RTVSPost2010Prop30
280
     0
102
RTVSPost2010PropOp30
 70
     1
102
RTVSPost2010Prop31
280
     0
102
RTVSPost2010PropOp31
 70
     1
102
RTVSPost2010Prop32
280
     0
102
RTVSPost2010PropOp32
 70
     1
102
RTVSPost2010Prop33
280
     0
102
RTVSPost2010PropOp33
 70
     1
102
RTVSPost2010Prop34
280
     0
102
RTVSPost2010PropOp34
 70
     1
102
RTVSPost2010Prop35
280
     0
102
RTVSPost2010PropOp35
 70
     1
102
RTVSPost2010Prop36
280
     0
102
RTVSPost2010PropOp36
 70
     1
102
RTVSPost2010Prop37
 90
       50
102
RTVSPost2010PropOp37
 70
     1
102
RTVSPost2010Prop38
140
0.0
102
RTVSPost2010PropOp38
 70
     1
102
RTVSPost2010Prop39
140
1.0
102
RTVSPost2010PropOp39
 70
     1
102
RTVSPost2010Prop40
 90
        0
102
RTVSPost2010PropOp40
 70
     1
102
RTVSPost2010Prop41ColorIndex
 90
       18
102
RTVSPost2010Prop41ColorRGB
 90
        0
102
RTVSPost2010PropOp41
 70
     1
102
RTVSPost2010Prop42
 90
       50
102
RTVSPost2010PropOp42
 70
     1
102
RTVSPost2010Prop43
 90
        3
102
RTVSPost2010PropOp43
 70
     1
102
RTVSPost2010Prop44ColorIndex
 90
        5
102
RTVSPost2010Prop44ColorRGB
 90
      255
102
RTVSPost2010PropOp44
 70
     1
102
RTVSPost2010Prop45
280
     0
102
RTVSPost2010PropOp45
 70
     1
102
RTVSPost2010Prop46
 90
       50
102
RTVSPost2010PropOp46
 70
     1
102
RTVSPost2010Prop47
 90
       50
102
RTVSPost2010PropOp47
 70
     1
102
RTVSPost2010Prop48
 90
       50
102
RTVSPost2010PropOp48
 70
     1
102
RTVSPost2010Prop49
280
     0
102
RTVSPost2010PropOp49
 70
     1
102
RTVSPost2010Prop50
 90
       50
102
RTVSPost2010PropOp50
 70
     1
102
RTVSPost2010Prop51ColorIndex
 90
      256
102
RTVSPost2010Prop51ColorRGB
 90
-16777216
102
RTVSPost2010PropOp51
 70
     0
102
RTVSPost2010Prop52
140
1.0
102
RTVSPost2010PropOp52
 70
     0
102
RTVSPost2010Prop53
 90
        2
102
RTVSPost2010PropOp53
 70
     1
102
RTVSPost2010Prop54
  1
strokes_ogs.tif
102
RTVSPost2010PropOp54
 70
     1
102
RTVSPost2010Prop55
280
     0
102
RTVSPost2010PropOp55
 70
     1
102
RTVSPost2010Prop56
140
1.0
102
RTVSPost2010PropOp56
 70
     1
102
RTVSPost2010Prop57
140
1.0
102
RTVSPost2010PropOp57
 70
     1
102
RTVSPropertyOp0
 70
     1
102
RTVSPropertyOp1
 70
     1
102
RTVSPropertyOp2
 70
     1
102
RTVSPropertyOp3
 70
     1
102
RTVSPropertyOp4
 70
     1
102
RTVSPropertyOp5
 70
     1
102
RTVSPropertyOp6
 70
     1
102
RTVSPropertyOp7
 70
     1
102
RTVSPropertyOp8
 70
     1
102
RTVSPropertyOp9
 70
     1
102
RTVSPropertyOp10
 70
     1
102
RTVSPropertyOp11
 70
     1
102
RTVSPropertyOp12
 70
     1
102
RTVSPropertyOp13
 70
     1
102
RTVSPropertyOp14
 70
     1
102
RTVSPropertyOp15
 70
     1
102
RTVSPropertyOp16
 70
     1
102
RTVSPropertyOp17
 70
     1
102
RTVSPropertyOp18
 70
     1
102
RTVSPropertyOp19
 70
     1
102
RTVSPropertyOp20
 70
     1
102
RTVSPropertyOp21
 70
     1
102
RTVSPropertyOp22
 70
     1
102
RTVSPropertyOp23
 70
     1
102
RTVSPropertyOp24
 70
     1
102
RTVSPropertyOp25
 70
     1
102
RTVSPropertyOp26
 70
     1
102
RTVSPropertyOp27
 70
     1
102
RTVSPropertyOp28
 70
     1
102
RTVSPropertyOp29
 70
     1
102
RTVSPropertyOp30
 70
     1
102
RTVSPropertyOp31
 70
     1
102
RTVSPropertyOp32
 70
     1
102
RTVSPropertyOp33
 70
     1
102
RTVSPropertyOp34
 70
     1
102
RTVSPropertyOp35
 70
     1
102
RTVSPropertyOp36
 70
     1
102
RTVSPropertyOp37
 70
     1
102
RTVSPropertyOp38
 70
     1
102
RTVSPropertyOp39
 70
     1
102
RTVSPropertyOp40
 70
     1
102
RTVSPropertyOp41
 70
     1
102
RTVSPropertyOp42
 70
     1
102
RTVSPropertyOp43
 70
     1
102
RTVSPropertyOp44
 70
     1
102
RTVSPropertyOp45
 70
     1
102
RTVSPropertyOp46
 70
     1
102
RTVSPropertyOp47
 70
     1
102
RTVSPropertyOp48
 70
     1
102
RTVSPropertyOp49
 70
     1
102
RTVSPropertyOp50
 70
     1
102
RTVSPropertyOp51
 70
     0
102
RTVSPropertyOp52
 70
     0
102
RTVSPropertyOp53
 70
     1
102
RTVSPropertyOp54
 70
     1
102
RTVSPropertyOp55
 70
     1
102
RTVSPropertyOp56
 70
     1
102
RTVSPropertyOp57
 70
     1
102
RTVSPropertyOp58
 70
     1
102
RTVSPropertyOp59
 70
     1
102
RTVSPropertyOp60
 70
     1
102
RTVSPropertyOp61
 70
     1
102
RTVSPropertyOp62
 70
     1
  0
XRECORD
  5
39C
102
{ACAD_REACTORS
330
39B
102
}
330
39B
100
AcDbXrecord
280
     1
102
RTVSPost2010Prop28
280
     0
102
RTVSPost2010PropOp28
 70
     1
102
RTVSPost2010Prop29
280
     1
102
RTVSPost2010PropOp29
 70
     1
102
RTVSPost2010Prop30
280
     1
102
RTVSPost2010PropOp30
 70
     1
102
RTVSPost2010Prop31
280
     0
102
RTVSPost2010PropOp31
 70
     1
102
RTVSPost2010Prop32
280
     0
102
RTVSPost2010PropOp32
 70
     1
102
RTVSPost2010Prop33
280
     0
102
RTVSPost2010PropOp33
 70
     1
102
RTVSPost2010Prop34
280
     0
102
RTVSPost2010PropOp34
 70
     1
102
RTVSPost2010Prop35
280
     0
102
RTVSPost2010PropOp35
 70
     1
102
RTVSPost2010Prop36
280
     0
102
RTVSPost2010PropOp36
 70
     1
102
RTVSPost2010Prop37
 90
       50
102
RTVSPost2010PropOp37
 70
     1
102
RTVSPost2010Prop38
140
0.0
102
RTVSPost2010PropOp38
 70
     1
102
RTVSPost2010Prop39
140
1.0
102
RTVSPost2010PropOp39
 70
     1
102
RTVSPost2010Prop40
 90
        0
102
RTVSPost2010PropOp40
 70
     1
102
RTVSPost2010Prop41ColorIndex
 90
       18
102
RTVSPost2010Prop41ColorRGB
 90
        0
102
RTVSPost2010PropOp41
 70
     1
102
RTVSPost2010Prop42
 90
       50
102
RTVSPost2010PropOp42
 70
     1
102
RTVSPost2010Prop43
 90
        3
102
RTVSPost2010PropOp43
 70
     1
102
RTVSPost2010Prop44ColorIndex
 90
        5
102
RTVSPost2010Prop44ColorRGB
 90
      255
102
RTVSPost2010PropOp44
 70
     1
102
RTVSPost2010Prop45
280
     0
102
RTVSPost2010PropOp45
 70
     1
102
RTVSPost2010Prop46
 90
       50
102
RTVSPost2010PropOp46
 70
     1
102
RTVSPost2010Prop47
 90
       50
102
RTVSPost2010PropOp47
 70
     1
102
RTVSPost2010Prop48
 90
       50
102
RTVSPost2010PropOp48
 70
     1
102
RTVSPost2010Prop49
280
     0
102
RTVSPost2010PropOp49
 70
     1
102
RTVSPost2010Prop50
 90
       50
102
RTVSPost2010PropOp50
 70
     1
102
RTVSPost2010Prop51ColorIndex
 90
      256
102
RTVSPost2010Prop51ColorRGB
 90
-16777216
102
RTVSPost2010PropOp51
 70
     0
102
RTVSPost2010Prop52
140
1.0
102
RTVSPost2010PropOp52
 70
     0
102
RTVSPost2010Prop53
 90
        2
102
RTVSPost2010PropOp53
 70
     1
102
RTVSPost2010Prop54
  1
strokes_ogs.tif
102
RTVSPost2010PropOp54
 70
     1
102
RTVSPost2010Prop55
280
     0
102
RTVSPost2010PropOp55
 70
     1
102
RTVSPost2010Prop56
140
1.0
102
RTVSPost2010PropOp56
 70
     1
102
RTVSPost2010Prop57
140
1.0
102
RTVSPost2010PropOp57
 70
     1
102
RTVSPropertyOp0
 70
     1
102
RTVSPropertyOp1
 70
     1
102
RTVSPropertyOp2
 70
     1
102
RTVSPropertyOp3
 70
     1
102
RTVSPropertyOp4
 70
     1
102
RTVSPropertyOp5
 70
     1
102
RTVSPropertyOp6
 70
     1
102
RTVSPropertyOp7
 70
     1
102
RTVSPropertyOp8
 70
     1
102
RTVSPropertyOp9
 70
     1
102
RTVSPropertyOp10
 70
     1
102
RTVSPropertyOp11
 70
     1
102
RTVSPropertyOp12
 70
     1
102
RTVSPropertyOp13
 70
     1
102
RTVSPropertyOp14
 70
     1
102
RTVSPropertyOp15
 70
     1
102
RTVSPropertyOp16
 70
     1
102
RTVSPropertyOp17
 70
     1
102
RTVSPropertyOp18
 70
     1
102
RTVSPropertyOp19
 70
     1
102
RTVSPropertyOp20
 70
     1
102
RTVSPropertyOp21
 70
     1
102
RTVSPropertyOp22
 70
     1
102
RTVSPropertyOp23
 70
     1
102
RTVSPropertyOp24
 70
     1
102
RTVSPropertyOp25
 70
     1
102
RTVSPropertyOp26
 70
     1
102
RTVSPropertyOp27
 70
     1
102
RTVSPropertyOp28
 70
     1
102
RTVSPropertyOp29
 70
     1
102
RTVSPropertyOp30
 70
     1
102
RTVSPropertyOp31
 70
     1
102
RTVSPropertyOp32
 70
     1
102
RTVSPropertyOp33
 70
     1
102
RTVSPropertyOp34
 70
     1
102
RTVSPropertyOp35
 70
     1
102
RTVSPropertyOp36
 70
     1
102
RTVSPropertyOp37
 70
     1
102
RTVSPropertyOp38
 70
     1
102
RTVSPropertyOp39
 70
     1
102
RTVSPropertyOp40
 70
     1
102
RTVSPropertyOp41
 70
     1
102
RTVSPropertyOp42
 70
     1
102
RTVSPropertyOp43
 70
     1
102
RTVSPropertyOp44
 70
     1
102
RTVSPropertyOp45
 70
     1
102
RTVSPropertyOp46
 70
     1
102
RTVSPropertyOp47
 70
     1
102
RTVSPropertyOp48
 70
     1
102
RTVSPropertyOp49
 70
     1
102
RTVSPropertyOp50
 70
     1
102
RTVSPropertyOp51
 70
     0
102
RTVSPropertyOp52
 70
     0
102
RTVSPropertyOp53
 70
     1
102
RTVSPropertyOp54
 70
     1
102
RTVSPropertyOp55
 70
     1
102
RTVSPropertyOp56
 70
     1
102
RTVSPropertyOp57
 70
     1
102
RTVSPropertyOp58
 70
     1
102
RTVSPropertyOp59
 70
     1
102
RTVSPropertyOp60
 70
     1
102
RTVSPropertyOp61
 70
     1
102
RTVSPropertyOp62
 70
     1
  0
XRECORD
  5
3A4
102
{ACAD_REACTORS
330
3A3
102
}
330
3A3
100
AcDbXrecord
280
     1
102
RTVSPost2010Prop28
280
     0
102
RTVSPost2010PropOp28
 70
     1
102
RTVSPost2010Prop29
280
     1
102
RTVSPost2010PropOp29
 70
     1
102
RTVSPost2010Prop30
280
     1
102
RTVSPost2010PropOp30
 70
     1
102
RTVSPost2010Prop31
280
     0
102
RTVSPost2010PropOp31
 70
     1
102
RTVSPost2010Prop32
280
     0
102
RTVSPost2010PropOp32
 70
     1
102
RTVSPost2010Prop33
280
     0
102
RTVSPost2010PropOp33
 70
     1
102
RTVSPost2010Prop34
280
     0
102
RTVSPost2010PropOp34
 70
     1
102
RTVSPost2010Prop35
280
     0
102
RTVSPost2010PropOp35
 70
     1
102
RTVSPost2010Prop36
280
     0
102
RTVSPost2010PropOp36
 70
     1
102
RTVSPost2010Prop37
 90
       50
102
RTVSPost2010PropOp37
 70
     1
102
RTVSPost2010Prop38
140
0.0
102
RTVSPost2010PropOp38
 70
     1
102
RTVSPost2010Prop39
140
1.0
102
RTVSPost2010PropOp39
 70
     1
102
RTVSPost2010Prop40
 90
        0
102
RTVSPost2010PropOp40
 70
     1
102
RTVSPost2010Prop41ColorIndex
 90
       18
102
RTVSPost2010Prop41ColorRGB
 90
        0
102
RTVSPost2010PropOp41
 70
     1
102
RTVSPost2010Prop42
 90
       50
102
RTVSPost2010PropOp42
 70
     1
102
RTVSPost2010Prop43
 90
        3
102
RTVSPost2010PropOp43
 70
     1
102
RTVSPost2010Prop44ColorIndex
 90
        5
102
RTVSPost2010Prop44ColorRGB
 90
      255
102
RTVSPost2010PropOp44
 70
     1
102
RTVSPost2010Prop45
280
     0
102
RTVSPost2010PropOp45
 70
     1
102
RTVSPost2010Prop46
 90
       50
102
RTVSPost2010PropOp46
 70
     1
102
RTVSPost2010Prop47
 90
       50
102
RTVSPost2010PropOp47
 70
     1
102
RTVSPost2010Prop48
 90
       50
102
RTVSPost2010PropOp48
 70
     1
102
RTVSPost2010Prop49
280
     0
102
RTVSPost2010PropOp49
 70
     1
102
RTVSPost2010Prop50
 90
       50
102
RTVSPost2010PropOp50
 70
     1
102
RTVSPost2010Prop51ColorIndex
 90
      256
102
RTVSPost2010Prop51ColorRGB
 90
-16777216
102
RTVSPost2010PropOp51
 70
     0
102
RTVSPost2010Prop52
140
1.0
102
RTVSPost2010PropOp52
 70
     0
102
RTVSPost2010Prop53
 90
        2
102
RTVSPost2010PropOp53
 70
     1
102
RTVSPost2010Prop54
  1
strokes_ogs.tif
102
RTVSPost2010PropOp54
 70
     1
102
RTVSPost2010Prop55
280
     0
102
RTVSPost2010PropOp55
 70
     1
102
RTVSPost2010Prop56
140
1.0
102
RTVSPost2010PropOp56
 70
     1
102
RTVSPost2010Prop57
140
1.0
102
RTVSPost2010PropOp57
 70
     1
102
RTVSPropertyOp0
 70
     1
102
RTVSPropertyOp1
 70
     1
102
RTVSPropertyOp2
 70
     1
102
RTVSPropertyOp3
 70
     1
102
RTVSPropertyOp4
 70
     1
102
RTVSPropertyOp5
 70
     1
102
RTVSPropertyOp6
 70
     1
102
RTVSPropertyOp7
 70
     1
102
RTVSPropertyOp8
 70
     1
102
RTVSPropertyOp9
 70
     1
102
RTVSPropertyOp10
 70
     1
102
RTVSPropertyOp11
 70
     1
102
RTVSPropertyOp12
 70
     1
102
RTVSPropertyOp13
 70
     1
102
RTVSPropertyOp14
 70
     1
102
RTVSPropertyOp15
 70
     1
102
RTVSPropertyOp16
 70
     1
102
RTVSPropertyOp17
 70
     1
102
RTVSPropertyOp18
 70
     1
102
RTVSPropertyOp19
 70
     1
102
RTVSPropertyOp20
 70
     1
102
RTVSPropertyOp21
 70
     1
102
RTVSPropertyOp22
 70
     1
102
RTVSPropertyOp23
 70
     1
102
RTVSPropertyOp24
 70
     1
102
RTVSPropertyOp25
 70
     1
102
RTVSPropertyOp26
 70
     1
102
RTVSPropertyOp27
 70
     1
102
RTVSPropertyOp28
 70
     1
102
RTVSPropertyOp29
 70
     1
102
RTVSPropertyOp30
 70
     1
102
RTVSPropertyOp31
 70
     1
102
RTVSPropertyOp32
 70
     1
102
RTVSPropertyOp33
 70
     1
102
RTVSPropertyOp34
 70
     1
102
RTVSPropertyOp35
 70
     1
102
RTVSPropertyOp36
 70
     1
102
RTVSPropertyOp37
 70
     1
102
RTVSPropertyOp38
 70
     1
102
RTVSPropertyOp39
 70
     1
102
RTVSPropertyOp40
 70
     1
102
RTVSPropertyOp41
 70
     1
102
RTVSPropertyOp42
 70
     1
102
RTVSPropertyOp43
 70
     1
102
RTVSPropertyOp44
 70
     1
102
RTVSPropertyOp45
 70
     1
102
RTVSPropertyOp46
 70
     1
102
RTVSPropertyOp47
 70
     1
102
RTVSPropertyOp48
 70
     1
102
RTVSPropertyOp49
 70
     1
102
RTVSPropertyOp50
 70
     1
102
RTVSPropertyOp51
 70
     0
102
RTVSPropertyOp52
 70
     0
102
RTVSPropertyOp53
 70
     1
102
RTVSPropertyOp54
 70
     1
102
RTVSPropertyOp55
 70
     1
102
RTVSPropertyOp56
 70
     1
102
RTVSPropertyOp57
 70
     1
102
RTVSPropertyOp58
 70
     1
102
RTVSPropertyOp59
 70
     1
102
RTVSPropertyOp60
 70
     1
102
RTVSPropertyOp61
 70
     1
102
RTVSPropertyOp62
 70
     1
  0
XRECORD
  5
3AC
102
{ACAD_REACTORS
330
3AB
102
}
330
3AB
100
AcDbXrecord
280
     1
102
RTVSPost2010Prop28
280
     0
102
RTVSPost2010PropOp28
 70
     1
102
RTVSPost2010Prop29
280
     1
102
RTVSPost2010PropOp29
 70
     1
102
RTVSPost2010Prop30
280
     1
102
RTVSPost2010PropOp30
 70
     1
102
RTVSPost2010Prop31
280
     0
102
RTVSPost2010PropOp31
 70
     1
102
RTVSPost2010Prop32
280
     0
102
RTVSPost2010PropOp32
 70
     1
102
RTVSPost2010Prop33
280
     0
102
RTVSPost2010PropOp33
 70
     1
102
RTVSPost2010Prop34
280
     0
102
RTVSPost2010PropOp34
 70
     1
102
RTVSPost2010Prop35
280
     0
102
RTVSPost2010PropOp35
 70
     1
102
RTVSPost2010Prop36
280
     0
102
RTVSPost2010PropOp36
 70
     1
102
RTVSPost2010Prop37
 90
       50
102
RTVSPost2010PropOp37
 70
     1
102
RTVSPost2010Prop38
140
0.0
102
RTVSPost2010PropOp38
 70
     1
102
RTVSPost2010Prop39
140
1.0
102
RTVSPost2010PropOp39
 70
     1
102
RTVSPost2010Prop40
 90
        0
102
RTVSPost2010PropOp40
 70
     1
102
RTVSPost2010Prop41ColorIndex
 90
       18
102
RTVSPost2010Prop41ColorRGB
 90
        0
102
RTVSPost2010PropOp41
 70
     1
102
RTVSPost2010Prop42
 90
       50
102
RTVSPost2010PropOp42
 70
     1
102
RTVSPost2010Prop43
 90
        3
102
RTVSPost2010PropOp43
 70
     1
102
RTVSPost2010Prop44ColorIndex
 90
        5
102
RTVSPost2010Prop44ColorRGB
 90
      255
102
RTVSPost2010PropOp44
 70
     1
102
RTVSPost2010Prop45
280
     0
102
RTVSPost2010PropOp45
 70
     1
102
RTVSPost2010Prop46
 90
       50
102
RTVSPost2010PropOp46
 70
     1
102
RTVSPost2010Prop47
 90
       50
102
RTVSPost2010PropOp47
 70
     1
102
RTVSPost2010Prop48
 90
       50
102
RTVSPost2010PropOp48
 70
     1
102
RTVSPost2010Prop49
280
     0
102
RTVSPost2010PropOp49
 70
     1
102
RTVSPost2010Prop50
 90
       50
102
RTVSPost2010PropOp50
 70
     1
102
RTVSPost2010Prop51ColorIndex
 90
      256
102
RTVSPost2010Prop51ColorRGB
 90
-16777216
102
RTVSPost2010PropOp51
 70
     0
102
RTVSPost2010Prop52
140
1.0
102
RTVSPost2010PropOp52
 70
     0
102
RTVSPost2010Prop53
 90
        2
102
RTVSPost2010PropOp53
 70
     1
102
RTVSPost2010Prop54
  1
strokes_ogs.tif
102
RTVSPost2010PropOp54
 70
     1
102
RTVSPost2010Prop55
280
     0
102
RTVSPost2010PropOp55
 70
     1
102
RTVSPost2010Prop56
140
1.0
102
RTVSPost2010PropOp56
 70
     1
102
RTVSPost2010Prop57
140
1.0
102
RTVSPost2010PropOp57
 70
     1
102
RTVSPropertyOp0
 70
     1
102
RTVSPropertyOp1
 70
     1
102
RTVSPropertyOp2
 70
     1
102
RTVSPropertyOp3
 70
     1
102
RTVSPropertyOp4
 70
     1
102
RTVSPropertyOp5
 70
     1
102
RTVSPropertyOp6
 70
     1
102
RTVSPropertyOp7
 70
     1
102
RTVSPropertyOp8
 70
     1
102
RTVSPropertyOp9
 70
     1
102
RTVSPropertyOp10
 70
     1
102
RTVSPropertyOp11
 70
     1
102
RTVSPropertyOp12
 70
     1
102
RTVSPropertyOp13
 70
     1
102
RTVSPropertyOp14
 70
     1
102
RTVSPropertyOp15
 70
     1
102
RTVSPropertyOp16
 70
     1
102
RTVSPropertyOp17
 70
     1
102
RTVSPropertyOp18
 70
     1
102
RTVSPropertyOp19
 70
     1
102
RTVSPropertyOp20
 70
     1
102
RTVSPropertyOp21
 70
     1
102
RTVSPropertyOp22
 70
     1
102
RTVSPropertyOp23
 70
     1
102
RTVSPropertyOp24
 70
     1
102
RTVSPropertyOp25
 70
     1
102
RTVSPropertyOp26
 70
     1
102
RTVSPropertyOp27
 70
     1
102
RTVSPropertyOp28
 70
     1
102
RTVSPropertyOp29
 70
     1
102
RTVSPropertyOp30
 70
     1
102
RTVSPropertyOp31
 70
     1
102
RTVSPropertyOp32
 70
     1
102
RTVSPropertyOp33
 70
     1
102
RTVSPropertyOp34
 70
     1
102
RTVSPropertyOp35
 70
     1
102
RTVSPropertyOp36
 70
     1
102
RTVSPropertyOp37
 70
     1
102
RTVSPropertyOp38
 70
     1
102
RTVSPropertyOp39
 70
     1
102
RTVSPropertyOp40
 70
     1
102
RTVSPropertyOp41
 70
     1
102
RTVSPropertyOp42
 70
     1
102
RTVSPropertyOp43
 70
     1
102
RTVSPropertyOp44
 70
     1
102
RTVSPropertyOp45
 70
     1
102
RTVSPropertyOp46
 70
     1
102
RTVSPropertyOp47
 70
     1
102
RTVSPropertyOp48
 70
     1
102
RTVSPropertyOp49
 70
     1
102
RTVSPropertyOp50
 70
     1
102
RTVSPropertyOp51
 70
     0
102
RTVSPropertyOp52
 70
     0
102
RTVSPropertyOp53
 70
     1
102
RTVSPropertyOp54
 70
     1
102
RTVSPropertyOp55
 70
     1
102
RTVSPropertyOp56
 70
     1
102
RTVSPropertyOp57
 70
     1
102
RTVSPropertyOp58
 70
     1
102
RTVSPropertyOp59
 70
     1
102
RTVSPropertyOp60
 70
     1
102
RTVSPropertyOp61
 70
     1
102
RTVSPropertyOp62
 70
     1
  0
XRECORD
  5
3A0
102
{ACAD_REACTORS
330
39F
102
}
330
39F
100
AcDbXrecord
280
     1
102
RTVSPost2010Prop28
280
     0
102
RTVSPost2010PropOp28
 70
     1
102
RTVSPost2010Prop29
280
     1
102
RTVSPost2010PropOp29
 70
     1
102
RTVSPost2010Prop30
280
     1
102
RTVSPost2010PropOp30
 70
     1
102
RTVSPost2010Prop31
280
     0
102
RTVSPost2010PropOp31
 70
     1
102
RTVSPost2010Prop32
280
     0
102
RTVSPost2010PropOp32
 70
     1
102
RTVSPost2010Prop33
280
     0
102
RTVSPost2010PropOp33
 70
     1
102
RTVSPost2010Prop34
280
     0
102
RTVSPost2010PropOp34
 70
     1
102
RTVSPost2010Prop35
280
     0
102
RTVSPost2010PropOp35
 70
     1
102
RTVSPost2010Prop36
280
     0
102
RTVSPost2010PropOp36
 70
     1
102
RTVSPost2010Prop37
 90
       50
102
RTVSPost2010PropOp37
 70
     1
102
RTVSPost2010Prop38
140
0.0
102
RTVSPost2010PropOp38
 70
     1
102
RTVSPost2010Prop39
140
1.0
102
RTVSPost2010PropOp39
 70
     1
102
RTVSPost2010Prop40
 90
        0
102
RTVSPost2010PropOp40
 70
     1
102
RTVSPost2010Prop41ColorIndex
 90
       18
102
RTVSPost2010Prop41ColorRGB
 90
        0
102
RTVSPost2010PropOp41
 70
     1
102
RTVSPost2010Prop42
 90
       50
102
RTVSPost2010PropOp42
 70
     1
102
RTVSPost2010Prop43
 90
        3
102
RTVSPost2010PropOp43
 70
     1
102
RTVSPost2010Prop44ColorIndex
 90
        5
102
RTVSPost2010Prop44ColorRGB
 90
      255
102
RTVSPost2010PropOp44
 70
     1
102
RTVSPost2010Prop45
280
     0
102
RTVSPost2010PropOp45
 70
     1
102
RTVSPost2010Prop46
 90
       50
102
RTVSPost2010PropOp46
 70
     1
102
RTVSPost2010Prop47
 90
       50
102
RTVSPost2010PropOp47
 70
     1
102
RTVSPost2010Prop48
 90
       50
102
RTVSPost2010PropOp48
 70
     1
102
RTVSPost2010Prop49
280
     0
102
RTVSPost2010PropOp49
 70
     1
102
RTVSPost2010Prop50
 90
       50
102
RTVSPost2010PropOp50
 70
     1
102
RTVSPost2010Prop51ColorIndex
 90
      256
102
RTVSPost2010Prop51ColorRGB
 90
-16777216
102
RTVSPost2010PropOp51
 70
     0
102
RTVSPost2010Prop52
140
1.0
102
RTVSPost2010PropOp52
 70
     0
102
RTVSPost2010Prop53
 90
        2
102
RTVSPost2010PropOp53
 70
     1
102
RTVSPost2010Prop54
  1
strokes_ogs.tif
102
RTVSPost2010PropOp54
 70
     1
102
RTVSPost2010Prop55
280
     0
102
RTVSPost2010PropOp55
 70
     1
102
RTVSPost2010Prop56
140
1.0
102
RTVSPost2010PropOp56
 70
     1
102
RTVSPost2010Prop57
140
1.0
102
RTVSPost2010PropOp57
 70
     1
102
RTVSPropertyOp0
 70
     1
102
RTVSPropertyOp1
 70
     1
102
RTVSPropertyOp2
 70
     1
102
RTVSPropertyOp3
 70
     1
102
RTVSPropertyOp4
 70
     1
102
RTVSPropertyOp5
 70
     1
102
RTVSPropertyOp6
 70
     1
102
RTVSPropertyOp7
 70
     1
102
RTVSPropertyOp8
 70
     1
102
RTVSPropertyOp9
 70
     1
102
RTVSPropertyOp10
 70
     1
102
RTVSPropertyOp11
 70
     1
102
RTVSPropertyOp12
 70
     1
102
RTVSPropertyOp13
 70
     1
102
RTVSPropertyOp14
 70
     1
102
RTVSPropertyOp15
 70
     1
102
RTVSPropertyOp16
 70
     1
102
RTVSPropertyOp17
 70
     1
102
RTVSPropertyOp18
 70
     1
102
RTVSPropertyOp19
 70
     1
102
RTVSPropertyOp20
 70
     1
102
RTVSPropertyOp21
 70
     1
102
RTVSPropertyOp22
 70
     1
102
RTVSPropertyOp23
 70
     1
102
RTVSPropertyOp24
 70
     1
102
RTVSPropertyOp25
 70
     1
102
RTVSPropertyOp26
 70
     1
102
RTVSPropertyOp27
 70
     1
102
RTVSPropertyOp28
 70
     1
102
RTVSPropertyOp29
 70
     1
102
RTVSPropertyOp30
 70
     1
102
RTVSPropertyOp31
 70
     1
102
RTVSPropertyOp32
 70
     1
102
RTVSPropertyOp33
 70
     1
102
RTVSPropertyOp34
 70
     1
102
RTVSPropertyOp35
 70
     1
102
RTVSPropertyOp36
 70
     1
102
RTVSPropertyOp37
 70
     1
102
RTVSPropertyOp38
 70
     1
102
RTVSPropertyOp39
 70
     1
102
RTVSPropertyOp40
 70
     1
102
RTVSPropertyOp41
 70
     1
102
RTVSPropertyOp42
 70
     1
102
RTVSPropertyOp43
 70
     1
102
RTVSPropertyOp44
 70
     1
102
RTVSPropertyOp45
 70
     1
102
RTVSPropertyOp46
 70
     1
102
RTVSPropertyOp47
 70
     1
102
RTVSPropertyOp48
 70
     1
102
RTVSPropertyOp49
 70
     1
102
RTVSPropertyOp50
 70
     1
102
RTVSPropertyOp51
 70
     0
102
RTVSPropertyOp52
 70
     0
102
RTVSPropertyOp53
 70
     1
102
RTVSPropertyOp54
 70
     1
102
RTVSPropertyOp55
 70
     1
102
RTVSPropertyOp56
 70
     1
102
RTVSPropertyOp57
 70
     1
102
RTVSPropertyOp58
 70
     1
102
RTVSPropertyOp59
 70
     1
102
RTVSPropertyOp60
 70
     1
102
RTVSPropertyOp61
 70
     1
102
RTVSPropertyOp62
 70
     1
  0
XRECORD
  5
3A2
102
{ACAD_REACTORS
330
3A1
102
}
330
3A1
100
AcDbXrecord
280
     1
102
RTVSPost2010Prop28
280
     0
102
RTVSPost2010PropOp28
 70
     1
102
RTVSPost2010Prop29
280
     1
102
RTVSPost2010PropOp29
 70
     1
102
RTVSPost2010Prop30
280
     1
102
RTVSPost2010PropOp30
 70
     1
102
RTVSPost2010Prop31
280
     0
102
RTVSPost2010PropOp31
 70
     1
102
RTVSPost2010Prop32
280
     0
102
RTVSPost2010PropOp32
 70
     1
102
RTVSPost2010Prop33
280
     0
102
RTVSPost2010PropOp33
 70
     1
102
RTVSPost2010Prop34
280
     0
102
RTVSPost2010PropOp34
 70
     1
102
RTVSPost2010Prop35
280
     0
102
RTVSPost2010PropOp35
 70
     1
102
RTVSPost2010Prop36
280
     0
102
RTVSPost2010PropOp36
 70
     1
102
RTVSPost2010Prop37
 90
       50
102
RTVSPost2010PropOp37
 70
     1
102
RTVSPost2010Prop38
140
0.0
102
RTVSPost2010PropOp38
 70
     1
102
RTVSPost2010Prop39
140
1.0
102
RTVSPost2010PropOp39
 70
     1
102
RTVSPost2010Prop40
 90
        0
102
RTVSPost2010PropOp40
 70
     1
102
RTVSPost2010Prop41ColorIndex
 90
       18
102
RTVSPost2010Prop41ColorRGB
 90
        0
102
RTVSPost2010PropOp41
 70
     1
102
RTVSPost2010Prop42
 90
       50
102
RTVSPost2010PropOp42
 70
     1
102
RTVSPost2010Prop43
 90
        3
102
RTVSPost2010PropOp43
 70
     1
102
RTVSPost2010Prop44ColorIndex
 90
        5
102
RTVSPost2010Prop44ColorRGB
 90
      255
102
RTVSPost2010PropOp44
 70
     1
102
RTVSPost2010Prop45
280
     0
102
RTVSPost2010PropOp45
 70
     1
102
RTVSPost2010Prop46
 90
       50
102
RTVSPost2010PropOp46
 70
     1
102
RTVSPost2010Prop47
 90
       50
102
RTVSPost2010PropOp47
 70
     1
102
RTVSPost2010Prop48
 90
       50
102
RTVSPost2010PropOp48
 70
     1
102
RTVSPost2010Prop49
280
     0
102
RTVSPost2010PropOp49
 70
     1
102
RTVSPost2010Prop50
 90
       50
102
RTVSPost2010PropOp50
 70
     1
102
RTVSPost2010Prop51ColorIndex
 90
      256
102
RTVSPost2010Prop51ColorRGB
 90
-16777216
102
RTVSPost2010PropOp51
 70
     0
102
RTVSPost2010Prop52
140
1.0
102
RTVSPost2010PropOp52
 70
     0
102
RTVSPost2010Prop53
 90
        2
102
RTVSPost2010PropOp53
 70
     1
102
RTVSPost2010Prop54
  1
strokes_ogs.tif
102
RTVSPost2010PropOp54
 70
     1
102
RTVSPost2010Prop55
280
     0
102
RTVSPost2010PropOp55
 70
     1
102
RTVSPost2010Prop56
140
1.0
102
RTVSPost2010PropOp56
 70
     1
102
RTVSPost2010Prop57
140
1.0
102
RTVSPost2010PropOp57
 70
     1
102
RTVSPropertyOp0
 70
     1
102
RTVSPropertyOp1
 70
     1
102
RTVSPropertyOp2
 70
     1
102
RTVSPropertyOp3
 70
     1
102
RTVSPropertyOp4
 70
     1
102
RTVSPropertyOp5
 70
     1
102
RTVSPropertyOp6
 70
     1
102
RTVSPropertyOp7
 70
     1
102
RTVSPropertyOp8
 70
     1
102
RTVSPropertyOp9
 70
     1
102
RTVSPropertyOp10
 70
     1
102
RTVSPropertyOp11
 70
     1
102
RTVSPropertyOp12
 70
     1
102
RTVSPropertyOp13
 70
     1
102
RTVSPropertyOp14
 70
     1
102
RTVSPropertyOp15
 70
     1
102
RTVSPropertyOp16
 70
     1
102
RTVSPropertyOp17
 70
     1
102
RTVSPropertyOp18
 70
     1
102
RTVSPropertyOp19
 70
     1
102
RTVSPropertyOp20
 70
     1
102
RTVSPropertyOp21
 70
     1
102
RTVSPropertyOp22
 70
     1
102
RTVSPropertyOp23
 70
     1
102
RTVSPropertyOp24
 70
     1
102
RTVSPropertyOp25
 70
     1
102
RTVSPropertyOp26
 70
     1
102
RTVSPropertyOp27
 70
     1
102
RTVSPropertyOp28
 70
     1
102
RTVSPropertyOp29
 70
     1
102
RTVSPropertyOp30
 70
     1
102
RTVSPropertyOp31
 70
     1
102
RTVSPropertyOp32
 70
     1
102
RTVSPropertyOp33
 70
     1
102
RTVSPropertyOp34
 70
     1
102
RTVSPropertyOp35
 70
     1
102
RTVSPropertyOp36
 70
     1
102
RTVSPropertyOp37
 70
     1
102
RTVSPropertyOp38
 70
     1
102
RTVSPropertyOp39
 70
     1
102
RTVSPropertyOp40
 70
     1
102
RTVSPropertyOp41
 70
     1
102
RTVSPropertyOp42
 70
     1
102
RTVSPropertyOp43
 70
     1
102
RTVSPropertyOp44
 70
     1
102
RTVSPropertyOp45
 70
     1
102
RTVSPropertyOp46
 70
     1
102
RTVSPropertyOp47
 70
     1
102
RTVSPropertyOp48
 70
     1
102
RTVSPropertyOp49
 70
     1
102
RTVSPropertyOp50
 70
     1
102
RTVSPropertyOp51
 70
     0
102
RTVSPropertyOp52
 70
     0
102
RTVSPropertyOp53
 70
     1
102
RTVSPropertyOp54
 70
     1
102
RTVSPropertyOp55
 70
     1
102
RTVSPropertyOp56
 70
     1
102
RTVSPropertyOp57
 70
     1
102
RTVSPropertyOp58
 70
     1
102
RTVSPropertyOp59
 70
     1
102
RTVSPropertyOp60
 70
     1
102
RTVSPropertyOp61
 70
     1
102
RTVSPropertyOp62
 70
     1
  0
XRECORD
  5
3B2
102
{ACAD_REACTORS
330
3B1
102
}
330
3B1
100
AcDbXrecord
280
     1
102
RTVSPost2010Prop28
280
     0
102
RTVSPost2010PropOp28
 70
     0
102
RTVSPost2010Prop29
280
     1
102
RTVSPost2010PropOp29
 70
     0
102
RTVSPost2010Prop30
280
     1
102
RTVSPost2010PropOp30
 70
     0
102
RTVSPost2010Prop31
280
     0
102
RTVSPost2010PropOp31
 70
     0
102
RTVSPost2010Prop32
280
     0
102
RTVSPost2010PropOp32
 70
     0
102
RTVSPost2010Prop33
280
     0
102
RTVSPost2010PropOp33
 70
     0
102
RTVSPost2010Prop34
280
     0
102
RTVSPost2010PropOp34
 70
     0
102
RTVSPost2010Prop35
280
     0
102
RTVSPost2010PropOp35
 70
     0
102
RTVSPost2010Prop36
280
     0
102
RTVSPost2010PropOp36
 70
     0
102
RTVSPost2010Prop37
 90
       50
102
RTVSPost2010PropOp37
 70
     0
102
RTVSPost2010Prop38
140
0.0
102
RTVSPost2010PropOp38
 70
     0
102
RTVSPost2010Prop39
140
1.0
102
RTVSPost2010PropOp39
 70
     0
102
RTVSPost2010Prop40
 90
        0
102
RTVSPost2010PropOp40
 70
     0
102
RTVSPost2010Prop41ColorIndex
 90
       18
102
RTVSPost2010Prop41ColorRGB
 90
        0
102
RTVSPost2010PropOp41
 70
     0
102
RTVSPost2010Prop42
 90
       50
102
RTVSPost2010PropOp42
 70
     0
102
RTVSPost2010Prop43
 90
        3
102
RTVSPost2010PropOp43
 70
     0
102
RTVSPost2010Prop44ColorIndex
 90
        5
102
RTVSPost2010Prop44ColorRGB
 90
      255
102
RTVSPost2010PropOp44
 70
     0
102
RTVSPost2010Prop45
280
     0
102
RTVSPost2010PropOp45
 70
     0
102
RTVSPost2010Prop46
 90
       50
102
RTVSPost2010PropOp46
 70
     0
102
RTVSPost2010Prop47
 90
       50
102
RTVSPost2010PropOp47
 70
     0
102
RTVSPost2010Prop48
 90
       50
102
RTVSPost2010PropOp48
 70
     0
102
RTVSPost2010Prop49
280
     0
102
RTVSPost2010PropOp49
 70
     0
102
RTVSPost2010Prop50
 90
       50
102
RTVSPost2010PropOp50
 70
     0
102
RTVSPost2010Prop51ColorIndex
 90
      256
102
RTVSPost2010Prop51ColorRGB
 90
-16777216
102
RTVSPost2010PropOp51
 70
     0
102
RTVSPost2010Prop52
140
1.0
102
RTVSPost2010PropOp52
 70
     0
102
RTVSPost2010Prop53
 90
        2
102
RTVSPost2010PropOp53
 70
     0
102
RTVSPost2010Prop54
  1
strokes_ogs.tif
102
RTVSPost2010PropOp54
 70
     0
102
RTVSPost2010Prop55
280
     0
102
RTVSPost2010PropOp55
 70
     0
102
RTVSPost2010Prop56
140
1.0
102
RTVSPost2010PropOp56
 70
     0
102
RTVSPost2010Prop57
140
1.0
102
RTVSPost2010PropOp57
 70
     0
102
RTVSPropertyOp0
 70
     0
102
RTVSPropertyOp1
 70
     0
102
RTVSPropertyOp2
 70
     0
102
RTVSPropertyOp3
 70
     0
102
RTVSPropertyOp4
 70
     0
102
RTVSPropertyOp5
 70
     0
102
RTVSPropertyOp6
 70
     0
102
RTVSPropertyOp7
 70
     0
102
RTVSPropertyOp8
 70
     0
102
RTVSPropertyOp9
 70
     0
102
RTVSPropertyOp10
 70
     0
102
RTVSPropertyOp11
 70
     0
102
RTVSPropertyOp12
 70
     0
102
RTVSPropertyOp13
 70
     0
102
RTVSPropertyOp14
 70
     2
102
RTVSPropertyOp15
 70
     0
102
RTVSPropertyOp16
 70
     0
102
RTVSPropertyOp17
 70
     0
102
RTVSPropertyOp18
 70
     0
102
RTVSPropertyOp19
 70
     0
102
RTVSPropertyOp20
 70
     0
102
RTVSPropertyOp21
 70
     0
102
RTVSPropertyOp22
 70
     0
102
RTVSPropertyOp23
 70
     0
102
RTVSPropertyOp24
 70
     0
102
RTVSPropertyOp25
 70
     0
102
RTVSPropertyOp26
 70
     0
102
RTVSPropertyOp27
 70
     0
102
RTVSPropertyOp28
 70
     0
102
RTVSPropertyOp29
 70
     0
102
RTVSPropertyOp30
 70
     0
102
RTVSPropertyOp31
 70
     0
102
RTVSPropertyOp32
 70
     0
102
RTVSPropertyOp33
 70
     0
102
RTVSPropertyOp34
 70
     0
102
RTVSPropertyOp35
 70
     0
102
RTVSPropertyOp36
 70
     0
102
RTVSPropertyOp37
 70
     0
102
RTVSPropertyOp38
 70
     0
102
RTVSPropertyOp39
 70
     0
102
RTVSPropertyOp40
 70
     0
102
RTVSPropertyOp41
 70
     0
102
RTVSPropertyOp42
 70
     0
102
RTVSPropertyOp43
 70
     0
102
RTVSPropertyOp44
 70
     0
102
RTVSPropertyOp45
 70
     0
102
RTVSPropertyOp46
 70
     0
102
RTVSPropertyOp47
 70
     0
102
RTVSPropertyOp48
 70
     0
102
RTVSPropertyOp49
 70
     0
102
RTVSPropertyOp50
 70
     0
102
RTVSPropertyOp51
 70
     0
102
RTVSPropertyOp52
 70
     0
102
RTVSPropertyOp53
 70
     0
102
RTVSPropertyOp54
 70
     0
102
RTVSPropertyOp55
 70
     0
102
RTVSPropertyOp56
 70
     0
102
RTVSPropertyOp57
 70
     0
102
RTVSPropertyOp58
 70
     1
102
RTVSPropertyOp59
 70
     1
102
RTVSPropertyOp60
 70
     1
102
RTVSPropertyOp61
 70
     1
102
RTVSPropertyOp62
 70
     1
  0
XRECORD
  5
3AA
102
{ACAD_REACTORS
330
3A9
102
}
330
3A9
100
AcDbXrecord
280
     1
102
RTVSPost2010Prop28
280
     0
102
RTVSPost2010PropOp28
 70
     1
102
RTVSPost2010Prop29
280
     1
102
RTVSPost2010PropOp29
 70
     1
102
RTVSPost2010Prop30
280
     1
102
RTVSPost2010PropOp30
 70
     1
102
RTVSPost2010Prop31
280
     0
102
RTVSPost2010PropOp31
 70
     1
102
RTVSPost2010Prop32
280
     0
102
RTVSPost2010PropOp32
 70
     1
102
RTVSPost2010Prop33
280
     0
102
RTVSPost2010PropOp33
 70
     1
102
RTVSPost2010Prop34
280
     0
102
RTVSPost2010PropOp34
 70
     1
102
RTVSPost2010Prop35
280
     0
102
RTVSPost2010PropOp35
 70
     1
102
RTVSPost2010Prop36
280
     0
102
RTVSPost2010PropOp36
 70
     1
102
RTVSPost2010Prop37
 90
       50
102
RTVSPost2010PropOp37
 70
     1
102
RTVSPost2010Prop38
140
0.0
102
RTVSPost2010PropOp38
 70
     1
102
RTVSPost2010Prop39
140
1.0
102
RTVSPost2010PropOp39
 70
     1
102
RTVSPost2010Prop40
 90
        0
102
RTVSPost2010PropOp40
 70
     1
102
RTVSPost2010Prop41ColorIndex
 90
       18
102
RTVSPost2010Prop41ColorRGB
 90
        0
102
RTVSPost2010PropOp41
 70
     1
102
RTVSPost2010Prop42
 90
       50
102
RTVSPost2010PropOp42
 70
     1
102
RTVSPost2010Prop43
 90
        3
102
RTVSPost2010PropOp43
 70
     1
102
RTVSPost2010Prop44ColorIndex
 90
        5
102
RTVSPost2010Prop44ColorRGB
 90
      255
102
RTVSPost2010PropOp44
 70
     1
102
RTVSPost2010Prop45
280
     0
102
RTVSPost2010PropOp45
 70
     1
102
RTVSPost2010Prop46
 90
       50
102
RTVSPost2010PropOp46
 70
     1
102
RTVSPost2010Prop47
 90
       50
102
RTVSPost2010PropOp47
 70
     1
102
RTVSPost2010Prop48
 90
       50
102
RTVSPost2010PropOp48
 70
     1
102
RTVSPost2010Prop49
280
     0
102
RTVSPost2010PropOp49
 70
     1
102
RTVSPost2010Prop50
 90
       50
102
RTVSPost2010PropOp50
 70
     1
102
RTVSPost2010Prop51ColorIndex
 90
      256
102
RTVSPost2010Prop51ColorRGB
 90
-16777216
102
RTVSPost2010PropOp51
 70
     0
102
RTVSPost2010Prop52
140
1.0
102
RTVSPost2010PropOp52
 70
     0
102
RTVSPost2010Prop53
 90
        2
102
RTVSPost2010PropOp53
 70
     1
102
RTVSPost2010Prop54
  1
strokes_ogs.tif
102
RTVSPost2010PropOp54
 70
     1
102
RTVSPost2010Prop55
280
     0
102
RTVSPost2010PropOp55
 70
     1
102
RTVSPost2010Prop56
140
1.0
102
RTVSPost2010PropOp56
 70
     1
102
RTVSPost2010Prop57
140
1.0
102
RTVSPost2010PropOp57
 70
     1
102
RTVSPropertyOp0
 70
     1
102
RTVSPropertyOp1
 70
     1
102
RTVSPropertyOp2
 70
     1
102
RTVSPropertyOp3
 70
     1
102
RTVSPropertyOp4
 70
     1
102
RTVSPropertyOp5
 70
     1
102
RTVSPropertyOp6
 70
     1
102
RTVSPropertyOp7
 70
     1
102
RTVSPropertyOp8
 70
     1
102
RTVSPropertyOp9
 70
     1
102
RTVSPropertyOp10
 70
     1
102
RTVSPropertyOp11
 70
     1
102
RTVSPropertyOp12
 70
     1
102
RTVSPropertyOp13
 70
     1
102
RTVSPropertyOp14
 70
     1
102
RTVSPropertyOp15
 70
     1
102
RTVSPropertyOp16
 70
     1
102
RTVSPropertyOp17
 70
     1
102
RTVSPropertyOp18
 70
     1
102
RTVSPropertyOp19
 70
     1
102
RTVSPropertyOp20
 70
     1
102
RTVSPropertyOp21
 70
     1
102
RTVSPropertyOp22
 70
     1
102
RTVSPropertyOp23
 70
     1
102
RTVSPropertyOp24
 70
     1
102
RTVSPropertyOp25
 70
     1
102
RTVSPropertyOp26
 70
     1
102
RTVSPropertyOp27
 70
     1
102
RTVSPropertyOp28
 70
     1
102
RTVSPropertyOp29
 70
     1
102
RTVSPropertyOp30
 70
     1
102
RTVSPropertyOp31
 70
     1
102
RTVSPropertyOp32
 70
     1
102
RTVSPropertyOp33
 70
     1
102
RTVSPropertyOp34
 70
     1
102
RTVSPropertyOp35
 70
     1
102
RTVSPropertyOp36
 70
     1
102
RTVSPropertyOp37
 70
     1
102
RTVSPropertyOp38
 70
     1
102
RTVSPropertyOp39
 70
     1
102
RTVSPropertyOp40
 70
     1
102
RTVSPropertyOp41
 70
     1
102
RTVSPropertyOp42
 70
     1
102
RTVSPropertyOp43
 70
     1
102
RTVSPropertyOp44
 70
     1
102
RTVSPropertyOp45
 70
     1
102
RTVSPropertyOp46
 70
     1
102
RTVSPropertyOp47
 70
     1
102
RTVSPropertyOp48
 70
     1
102
RTVSPropertyOp49
 70
     1
102
RTVSPropertyOp50
 70
     1
102
RTVSPropertyOp51
 70
     0
102
RTVSPropertyOp52
 70
     0
102
RTVSPropertyOp53
 70
     1
102
RTVSPropertyOp54
 70
     1
102
RTVSPropertyOp55
 70
     1
102
RTVSPropertyOp56
 70
     1
102
RTVSPropertyOp57
 70
     1
102
RTVSPropertyOp58
 70
     1
102
RTVSPropertyOp59
 70
     1
102
RTVSPropertyOp60
 70
     1
102
RTVSPropertyOp61
 70
     1
102
RTVSPropertyOp62
 70
     1
  0
XRECORD
  5
38E
102
{ACAD_REACTORS
330
38D
102
}
330
38D
100
AcDbXrecord
280
     1
102
RTVSPost2010Prop28
280
     0
102
RTVSPost2010PropOp28
 70
     1
102
RTVSPost2010Prop29
280
     1
102
RTVSPost2010PropOp29
 70
     1
102
RTVSPost2010Prop30
280
     1
102
RTVSPost2010PropOp30
 70
     1
102
RTVSPost2010Prop31
280
     0
102
RTVSPost2010PropOp31
 70
     1
102
RTVSPost2010Prop32
280
     0
102
RTVSPost2010PropOp32
 70
     1
102
RTVSPost2010Prop33
280
     0
102
RTVSPost2010PropOp33
 70
     1
102
RTVSPost2010Prop34
280
     0
102
RTVSPost2010PropOp34
 70
     1
102
RTVSPost2010Prop35
280
     0
102
RTVSPost2010PropOp35
 70
     1
102
RTVSPost2010Prop36
280
     0
102
RTVSPost2010PropOp36
 70
     1
102
RTVSPost2010Prop37
 90
       50
102
RTVSPost2010PropOp37
 70
     1
102
RTVSPost2010Prop38
140
0.0
102
RTVSPost2010PropOp38
 70
     1
102
RTVSPost2010Prop39
140
1.0
102
RTVSPost2010PropOp39
 70
     1
102
RTVSPost2010Prop40
 90
        0
102
RTVSPost2010PropOp40
 70
     1
102
RTVSPost2010Prop41ColorIndex
 90
       18
102
RTVSPost2010Prop41ColorRGB
 90
        0
102
RTVSPost2010PropOp41
 70
     1
102
RTVSPost2010Prop42
 90
       50
102
RTVSPost2010PropOp42
 70
     1
102
RTVSPost2010Prop43
 90
        3
102
RTVSPost2010PropOp43
 70
     1
102
RTVSPost2010Prop44ColorIndex
 90
        5
102
RTVSPost2010Prop44ColorRGB
 90
      255
102
RTVSPost2010PropOp44
 70
     1
102
RTVSPost2010Prop45
280
     0
102
RTVSPost2010PropOp45
 70
     1
102
RTVSPost2010Prop46
 90
       50
102
RTVSPost2010PropOp46
 70
     1
102
RTVSPost2010Prop47
 90
       50
102
RTVSPost2010PropOp47
 70
     1
102
RTVSPost2010Prop48
 90
       50
102
RTVSPost2010PropOp48
 70
     1
102
RTVSPost2010Prop49
280
     0
102
RTVSPost2010PropOp49
 70
     1
102
RTVSPost2010Prop50
 90
       50
102
RTVSPost2010PropOp50
 70
     1
102
RTVSPost2010Prop51ColorIndex
 90
      256
102
RTVSPost2010Prop51ColorRGB
 90
-16777216
102
RTVSPost2010PropOp51
 70
     0
102
RTVSPost2010Prop52
140
1.0
102
RTVSPost2010PropOp52
 70
     0
102
RTVSPost2010Prop53
 90
        2
102
RTVSPost2010PropOp53
 70
     1
102
RTVSPost2010Prop54
  1
strokes_ogs.tif
102
RTVSPost2010PropOp54
 70
     1
102
RTVSPost2010Prop55
280
     0
102
RTVSPost2010PropOp55
 70
     1
102
RTVSPost2010Prop56
140
1.0
102
RTVSPost2010PropOp56
 70
     1
102
RTVSPost2010Prop57
140
1.0
102
RTVSPost2010PropOp57
 70
     1
102
RTVSPropertyOp0
 70
     1
102
RTVSPropertyOp1
 70
     1
102
RTVSPropertyOp2
 70
     1
102
RTVSPropertyOp3
 70
     1
102
RTVSPropertyOp4
 70
     1
102
RTVSPropertyOp5
 70
     1
102
RTVSPropertyOp6
 70
     1
102
RTVSPropertyOp7
 70
     1
102
RTVSPropertyOp8
 70
     1
102
RTVSPropertyOp9
 70
     1
102
RTVSPropertyOp10
 70
     1
102
RTVSPropertyOp11
 70
     1
102
RTVSPropertyOp12
 70
     1
102
RTVSPropertyOp13
 70
     1
102
RTVSPropertyOp14
 70
     1
102
RTVSPropertyOp15
 70
     1
102
RTVSPropertyOp16
 70
     1
102
RTVSPropertyOp17
 70
     1
102
RTVSPropertyOp18
 70
     1
102
RTVSPropertyOp19
 70
     1
102
RTVSPropertyOp20
 70
     1
102
RTVSPropertyOp21
 70
     1
102
RTVSPropertyOp22
 70
     1
102
RTVSPropertyOp23
 70
     1
102
RTVSPropertyOp24
 70
     1
102
RTVSPropertyOp25
 70
     1
102
RTVSPropertyOp26
 70
     1
102
RTVSPropertyOp27
 70
     1
102
RTVSPropertyOp28
 70
     1
102
RTVSPropertyOp29
 70
     1
102
RTVSPropertyOp30
 70
     1
102
RTVSPropertyOp31
 70
     1
102
RTVSPropertyOp32
 70
     1
102
RTVSPropertyOp33
 70
     1
102
RTVSPropertyOp34
 70
     1
102
RTVSPropertyOp35
 70
     1
102
RTVSPropertyOp36
 70
     1
102
RTVSPropertyOp37
 70
     1
102
RTVSPropertyOp38
 70
     1
102
RTVSPropertyOp39
 70
     1
102
RTVSPropertyOp40
 70
     1
102
RTVSPropertyOp41
 70
     1
102
RTVSPropertyOp42
 70
     1
102
RTVSPropertyOp43
 70
     1
102
RTVSPropertyOp44
 70
     1
102
RTVSPropertyOp45
 70
     1
102
RTVSPropertyOp46
 70
     1
102
RTVSPropertyOp47
 70
     1
102
RTVSPropertyOp48
 70
     1
102
RTVSPropertyOp49
 70
     1
102
RTVSPropertyOp50
 70
     1
102
RTVSPropertyOp51
 70
     0
102
RTVSPropertyOp52
 70
     0
102
RTVSPropertyOp53
 70
     1
102
RTVSPropertyOp54
 70
     1
102
RTVSPropertyOp55
 70
     1
102
RTVSPropertyOp56
 70
     1
102
RTVSPropertyOp57
 70
     1
102
RTVSPropertyOp58
 70
     1
102
RTVSPropertyOp59
 70
     1
102
RTVSPropertyOp60
 70
     1
102
RTVSPropertyOp61
 70
     1
102
RTVSPropertyOp62
 70
     1
  0
XRECORD
  5
390
102
{ACAD_REACTORS
330
38F
102
}
330
38F
100
AcDbXrecord
280
     1
102
RTVSPost2010Prop28
280
     0
102
RTVSPost2010PropOp28
 70
     1
102
RTVSPost2010Prop29
280
     1
102
RTVSPost2010PropOp29
 70
     1
102
RTVSPost2010Prop30
280
     1
102
RTVSPost2010PropOp30
 70
     1
102
RTVSPost2010Prop31
280
     0
102
RTVSPost2010PropOp31
 70
     1
102
RTVSPost2010Prop32
280
     0
102
RTVSPost2010PropOp32
 70
     1
102
RTVSPost2010Prop33
280
     0
102
RTVSPost2010PropOp33
 70
     1
102
RTVSPost2010Prop34
280
     0
102
RTVSPost2010PropOp34
 70
     1
102
RTVSPost2010Prop35
280
     0
102
RTVSPost2010PropOp35
 70
     1
102
RTVSPost2010Prop36
280
     0
102
RTVSPost2010PropOp36
 70
     1
102
RTVSPost2010Prop37
 90
       50
102
RTVSPost2010PropOp37
 70
     1
102
RTVSPost2010Prop38
140
0.0
102
RTVSPost2010PropOp38
 70
     1
102
RTVSPost2010Prop39
140
1.0
102
RTVSPost2010PropOp39
 70
     1
102
RTVSPost2010Prop40
 90
        0
102
RTVSPost2010PropOp40
 70
     1
102
RTVSPost2010Prop41ColorIndex
 90
       18
102
RTVSPost2010Prop41ColorRGB
 90
        0
102
RTVSPost2010PropOp41
 70
     1
102
RTVSPost2010Prop42
 90
       50
102
RTVSPost2010PropOp42
 70
     1
102
RTVSPost2010Prop43
 90
        3
102
RTVSPost2010PropOp43
 70
     1
102
RTVSPost2010Prop44ColorIndex
 90
        5
102
RTVSPost2010Prop44ColorRGB
 90
      255
102
RTVSPost2010PropOp44
 70
     1
102
RTVSPost2010Prop45
280
     0
102
RTVSPost2010PropOp45
 70
     1
102
RTVSPost2010Prop46
 90
       50
102
RTVSPost2010PropOp46
 70
     1
102
RTVSPost2010Prop47
 90
       50
102
RTVSPost2010PropOp47
 70
     1
102
RTVSPost2010Prop48
 90
       50
102
RTVSPost2010PropOp48
 70
     1
102
RTVSPost2010Prop49
280
     0
102
RTVSPost2010PropOp49
 70
     1
102
RTVSPost2010Prop50
 90
       50
102
RTVSPost2010PropOp50
 70
     1
102
RTVSPost2010Prop51ColorIndex
 90
      256
102
RTVSPost2010Prop51ColorRGB
 90
-16777216
102
RTVSPost2010PropOp51
 70
     0
102
RTVSPost2010Prop52
140
1.0
102
RTVSPost2010PropOp52
 70
     0
102
RTVSPost2010Prop53
 90
        2
102
RTVSPost2010PropOp53
 70
     1
102
RTVSPost2010Prop54
  1
strokes_ogs.tif
102
RTVSPost2010PropOp54
 70
     1
102
RTVSPost2010Prop55
280
     0
102
RTVSPost2010PropOp55
 70
     1
102
RTVSPost2010Prop56
140
1.0
102
RTVSPost2010PropOp56
 70
     1
102
RTVSPost2010Prop57
140
1.0
102
RTVSPost2010PropOp57
 70
     1
102
RTVSPropertyOp0
 70
     1
102
RTVSPropertyOp1
 70
     1
102
RTVSPropertyOp2
 70
     1
102
RTVSPropertyOp3
 70
     1
102
RTVSPropertyOp4
 70
     1
102
RTVSPropertyOp5
 70
     1
102
RTVSPropertyOp6
 70
     1
102
RTVSPropertyOp7
 70
     1
102
RTVSPropertyOp8
 70
     1
102
RTVSPropertyOp9
 70
     1
102
RTVSPropertyOp10
 70
     1
102
RTVSPropertyOp11
 70
     1
102
RTVSPropertyOp12
 70
     1
102
RTVSPropertyOp13
 70
     1
102
RTVSPropertyOp14
 70
     1
102
RTVSPropertyOp15
 70
     1
102
RTVSPropertyOp16
 70
     1
102
RTVSPropertyOp17
 70
     1
102
RTVSPropertyOp18
 70
     1
102
RTVSPropertyOp19
 70
     1
102
RTVSPropertyOp20
 70
     1
102
RTVSPropertyOp21
 70
     1
102
RTVSPropertyOp22
 70
     1
102
RTVSPropertyOp23
 70
     1
102
RTVSPropertyOp24
 70
     1
102
RTVSPropertyOp25
 70
     1
102
RTVSPropertyOp26
 70
     1
102
RTVSPropertyOp27
 70
     1
102
RTVSPropertyOp28
 70
     1
102
RTVSPropertyOp29
 70
     1
102
RTVSPropertyOp30
 70
     1
102
RTVSPropertyOp31
 70
     1
102
RTVSPropertyOp32
 70
     1
102
RTVSPropertyOp33
 70
     1
102
RTVSPropertyOp34
 70
     1
102
RTVSPropertyOp35
 70
     1
102
RTVSPropertyOp36
 70
     1
102
RTVSPropertyOp37
 70
     1
102
RTVSPropertyOp38
 70
     1
102
RTVSPropertyOp39
 70
     1
102
RTVSPropertyOp40
 70
     1
102
RTVSPropertyOp41
 70
     1
102
RTVSPropertyOp42
 70
     1
102
RTVSPropertyOp43
 70
     1
102
RTVSPropertyOp44
 70
     1
102
RTVSPropertyOp45
 70
     1
102
RTVSPropertyOp46
 70
     1
102
RTVSPropertyOp47
 70
     1
102
RTVSPropertyOp48
 70
     1
102
RTVSPropertyOp49
 70
     1
102
RTVSPropertyOp50
 70
     1
102
RTVSPropertyOp51
 70
     0
102
RTVSPropertyOp52
 70
     0
102
RTVSPropertyOp53
 70
     1
102
RTVSPropertyOp54
 70
     1
102
RTVSPropertyOp55
 70
     1
102
RTVSPropertyOp56
 70
     1
102
RTVSPropertyOp57
 70
     1
102
RTVSPropertyOp58
 70
     1
102
RTVSPropertyOp59
 70
     1
102
RTVSPropertyOp60
 70
     1
102
RTVSPropertyOp61
 70
     1
102
RTVSPropertyOp62
 70
     1
  0
XRECORD
  5
392
102
{ACAD_REACTORS
330
391
102
}
330
391
100
AcDbXrecord
280
     1
102
RTVSPost2010Prop28
280
     0
102
RTVSPost2010PropOp28
 70
     1
102
RTVSPost2010Prop29
280
     1
102
RTVSPost2010PropOp29
 70
     1
102
RTVSPost2010Prop30
280
     1
102
RTVSPost2010PropOp30
 70
     1
102
RTVSPost2010Prop31
280
     0
102
RTVSPost2010PropOp31
 70
     1
102
RTVSPost2010Prop32
280
     0
102
RTVSPost2010PropOp32
 70
     1
102
RTVSPost2010Prop33
280
     0
102
RTVSPost2010PropOp33
 70
     1
102
RTVSPost2010Prop34
280
     0
102
RTVSPost2010PropOp34
 70
     1
102
RTVSPost2010Prop35
280
     0
102
RTVSPost2010PropOp35
 70
     1
102
RTVSPost2010Prop36
280
     0
102
RTVSPost2010PropOp36
 70
     1
102
RTVSPost2010Prop37
 90
       50
102
RTVSPost2010PropOp37
 70
     1
102
RTVSPost2010Prop38
140
0.0
102
RTVSPost2010PropOp38
 70
     1
102
RTVSPost2010Prop39
140
1.0
102
RTVSPost2010PropOp39
 70
     1
102
RTVSPost2010Prop40
 90
        0
102
RTVSPost2010PropOp40
 70
     1
102
RTVSPost2010Prop41ColorIndex
 90
       18
102
RTVSPost2010Prop41ColorRGB
 90
        0
102
RTVSPost2010PropOp41
 70
     1
102
RTVSPost2010Prop42
 90
       50
102
RTVSPost2010PropOp42
 70
     1
102
RTVSPost2010Prop43
 90
        3
102
RTVSPost2010PropOp43
 70
     1
102
RTVSPost2010Prop44ColorIndex
 90
        5
102
RTVSPost2010Prop44ColorRGB
 90
      255
102
RTVSPost2010PropOp44
 70
     1
102
RTVSPost2010Prop45
280
     0
102
RTVSPost2010PropOp45
 70
     1
102
RTVSPost2010Prop46
 90
       50
102
RTVSPost2010PropOp46
 70
     1
102
RTVSPost2010Prop47
 90
       50
102
RTVSPost2010PropOp47
 70
     1
102
RTVSPost2010Prop48
 90
       50
102
RTVSPost2010PropOp48
 70
     1
102
RTVSPost2010Prop49
280
     0
102
RTVSPost2010PropOp49
 70
     1
102
RTVSPost2010Prop50
 90
       50
102
RTVSPost2010PropOp50
 70
     1
102
RTVSPost2010Prop51ColorIndex
 90
      256
102
RTVSPost2010Prop51ColorRGB
 90
-16777216
102
RTVSPost2010PropOp51
 70
     0
102
RTVSPost2010Prop52
140
1.0
102
RTVSPost2010PropOp52
 70
     0
102
RTVSPost2010Prop53
 90
        2
102
RTVSPost2010PropOp53
 70
     1
102
RTVSPost2010Prop54
  1
strokes_ogs.tif
102
RTVSPost2010PropOp54
 70
     1
102
RTVSPost2010Prop55
280
     0
102
RTVSPost2010PropOp55
 70
     1
102
RTVSPost2010Prop56
140
1.0
102
RTVSPost2010PropOp56
 70
     1
102
RTVSPost2010Prop57
140
1.0
102
RTVSPost2010PropOp57
 70
     1
102
RTVSPropertyOp0
 70
     1
102
RTVSPropertyOp1
 70
     1
102
RTVSPropertyOp2
 70
     1
102
RTVSPropertyOp3
 70
     1
102
RTVSPropertyOp4
 70
     1
102
RTVSPropertyOp5
 70
     1
102
RTVSPropertyOp6
 70
     1
102
RTVSPropertyOp7
 70
     1
102
RTVSPropertyOp8
 70
     1
102
RTVSPropertyOp9
 70
     1
102
RTVSPropertyOp10
 70
     1
102
RTVSPropertyOp11
 70
     1
102
RTVSPropertyOp12
 70
     1
102
RTVSPropertyOp13
 70
     1
102
RTVSPropertyOp14
 70
     1
102
RTVSPropertyOp15
 70
     1
102
RTVSPropertyOp16
 70
     1
102
RTVSPropertyOp17
 70
     1
102
RTVSPropertyOp18
 70
     1
102
RTVSPropertyOp19
 70
     1
102
RTVSPropertyOp20
 70
     1
102
RTVSPropertyOp21
 70
     1
102
RTVSPropertyOp22
 70
     1
102
RTVSPropertyOp23
 70
     1
102
RTVSPropertyOp24
 70
     1
102
RTVSPropertyOp25
 70
     1
102
RTVSPropertyOp26
 70
     1
102
RTVSPropertyOp27
 70
     1
102
RTVSPropertyOp28
 70
     1
102
RTVSPropertyOp29
 70
     1
102
RTVSPropertyOp30
 70
     1
102
RTVSPropertyOp31
 70
     1
102
RTVSPropertyOp32
 70
     1
102
RTVSPropertyOp33
 70
     1
102
RTVSPropertyOp34
 70
     1
102
RTVSPropertyOp35
 70
     1
102
RTVSPropertyOp36
 70
     1
102
RTVSPropertyOp37
 70
     1
102
RTVSPropertyOp38
 70
     1
102
RTVSPropertyOp39
 70
     1
102
RTVSPropertyOp40
 70
     1
102
RTVSPropertyOp41
 70
     1
102
RTVSPropertyOp42
 70
     1
102
RTVSPropertyOp43
 70
     1
102
RTVSPropertyOp44
 70
     1
102
RTVSPropertyOp45
 70
     1
102
RTVSPropertyOp46
 70
     1
102
RTVSPropertyOp47
 70
     1
102
RTVSPropertyOp48
 70
     1
102
RTVSPropertyOp49
 70
     1
102
RTVSPropertyOp50
 70
     1
102
RTVSPropertyOp51
 70
     0
102
RTVSPropertyOp52
 70
     0
102
RTVSPropertyOp53
 70
     1
102
RTVSPropertyOp54
 70
     1
102
RTVSPropertyOp55
 70
     1
102
RTVSPropertyOp56
 70
     1
102
RTVSPropertyOp57
 70
     1
102
RTVSPropertyOp58
 70
     1
102
RTVSPropertyOp59
 70
     1
102
RTVSPropertyOp60
 70
     1
102
RTVSPropertyOp61
 70
     1
102
RTVSPropertyOp62
 70
     1
  0
XRECORD
  5
394
102
{ACAD_REACTORS
330
393
102
}
330
393
100
AcDbXrecord
280
     1
102
RTVSPost2010Prop28
280
     0
102
RTVSPost2010PropOp28
 70
     1
102
RTVSPost2010Prop29
280
     1
102
RTVSPost2010PropOp29
 70
     1
102
RTVSPost2010Prop30
280
     1
102
RTVSPost2010PropOp30
 70
     1
102
RTVSPost2010Prop31
280
     0
102
RTVSPost2010PropOp31
 70
     1
102
RTVSPost2010Prop32
280
     0
102
RTVSPost2010PropOp32
 70
     1
102
RTVSPost2010Prop33
280
     0
102
RTVSPost2010PropOp33
 70
     1
102
RTVSPost2010Prop34
280
     0
102
RTVSPost2010PropOp34
 70
     1
102
RTVSPost2010Prop35
280
     0
102
RTVSPost2010PropOp35
 70
     1
102
RTVSPost2010Prop36
280
     0
102
RTVSPost2010PropOp36
 70
     1
102
RTVSPost2010Prop37
 90
       50
102
RTVSPost2010PropOp37
 70
     1
102
RTVSPost2010Prop38
140
0.0
102
RTVSPost2010PropOp38
 70
     1
102
RTVSPost2010Prop39
140
1.0
102
RTVSPost2010PropOp39
 70
     1
102
RTVSPost2010Prop40
 90
        0
102
RTVSPost2010PropOp40
 70
     1
102
RTVSPost2010Prop41ColorIndex
 90
       18
102
RTVSPost2010Prop41ColorRGB
 90
        0
102
RTVSPost2010PropOp41
 70
     1
102
RTVSPost2010Prop42
 90
       50
102
RTVSPost2010PropOp42
 70
     1
102
RTVSPost2010Prop43
 90
        3
102
RTVSPost2010PropOp43
 70
     1
102
RTVSPost2010Prop44ColorIndex
 90
        5
102
RTVSPost2010Prop44ColorRGB
 90
      255
102
RTVSPost2010PropOp44
 70
     1
102
RTVSPost2010Prop45
280
     0
102
RTVSPost2010PropOp45
 70
     1
102
RTVSPost2010Prop46
 90
       50
102
RTVSPost2010PropOp46
 70
     1
102
RTVSPost2010Prop47
 90
       50
102
RTVSPost2010PropOp47
 70
     1
102
RTVSPost2010Prop48
 90
       50
102
RTVSPost2010PropOp48
 70
     1
102
RTVSPost2010Prop49
280
     0
102
RTVSPost2010PropOp49
 70
     1
102
RTVSPost2010Prop50
 90
       50
102
RTVSPost2010PropOp50
 70
     1
102
RTVSPost2010Prop51ColorIndex
 90
      256
102
RTVSPost2010Prop51ColorRGB
 90
-16777216
102
RTVSPost2010PropOp51
 70
     0
102
RTVSPost2010Prop52
140
1.0
102
RTVSPost2010PropOp52
 70
     0
102
RTVSPost2010Prop53
 90
        2
102
RTVSPost2010PropOp53
 70
     1
102
RTVSPost2010Prop54
  1
strokes_ogs.tif
102
RTVSPost2010PropOp54
 70
     1
102
RTVSPost2010Prop55
280
     0
102
RTVSPost2010PropOp55
 70
     1
102
RTVSPost2010Prop56
140
1.0
102
RTVSPost2010PropOp56
 70
     1
102
RTVSPost2010Prop57
140
1.0
102
RTVSPost2010PropOp57
 70
     1
102
RTVSPropertyOp0
 70
     1
102
RTVSPropertyOp1
 70
     1
102
RTVSPropertyOp2
 70
     1
102
RTVSPropertyOp3
 70
     1
102
RTVSPropertyOp4
 70
     1
102
RTVSPropertyOp5
 70
     1
102
RTVSPropertyOp6
 70
     1
102
RTVSPropertyOp7
 70
     1
102
RTVSPropertyOp8
 70
     1
102
RTVSPropertyOp9
 70
     1
102
RTVSPropertyOp10
 70
     1
102
RTVSPropertyOp11
 70
     1
102
RTVSPropertyOp12
 70
     1
102
RTVSPropertyOp13
 70
     1
102
RTVSPropertyOp14
 70
     1
102
RTVSPropertyOp15
 70
     1
102
RTVSPropertyOp16
 70
     1
102
RTVSPropertyOp17
 70
     1
102
RTVSPropertyOp18
 70
     1
102
RTVSPropertyOp19
 70
     1
102
RTVSPropertyOp20
 70
     1
102
RTVSPropertyOp21
 70
     1
102
RTVSPropertyOp22
 70
     1
102
RTVSPropertyOp23
 70
     1
102
RTVSPropertyOp24
 70
     1
102
RTVSPropertyOp25
 70
     1
102
RTVSPropertyOp26
 70
     1
102
RTVSPropertyOp27
 70
     1
102
RTVSPropertyOp28
 70
     1
102
RTVSPropertyOp29
 70
     1
102
RTVSPropertyOp30
 70
     1
102
RTVSPropertyOp31
 70
     1
102
RTVSPropertyOp32
 70
     1
102
RTVSPropertyOp33
 70
     1
102
RTVSPropertyOp34
 70
     1
102
RTVSPropertyOp35
 70
     1
102
RTVSPropertyOp36
 70
     1
102
RTVSPropertyOp37
 70
     1
102
RTVSPropertyOp38
 70
     1
102
RTVSPropertyOp39
 70
     1
102
RTVSPropertyOp40
 70
     1
102
RTVSPropertyOp41
 70
     1
102
RTVSPropertyOp42
 70
     1
102
RTVSPropertyOp43
 70
     1
102
RTVSPropertyOp44
 70
     1
102
RTVSPropertyOp45
 70
     1
102
RTVSPropertyOp46
 70
     1
102
RTVSPropertyOp47
 70
     1
102
RTVSPropertyOp48
 70
     1
102
RTVSPropertyOp49
 70
     1
102
RTVSPropertyOp50
 70
     1
102
RTVSPropertyOp51
 70
     0
102
RTVSPropertyOp52
 70
     0
102
RTVSPropertyOp53
 70
     1
102
RTVSPropertyOp54
 70
     1
102
RTVSPropertyOp55
 70
     1
102
RTVSPropertyOp56
 70
     1
102
RTVSPropertyOp57
 70
     1
102
RTVSPropertyOp58
 70
     1
102
RTVSPropertyOp59
 70
     1
102
RTVSPropertyOp60
 70
     1
102
RTVSPropertyOp61
 70
     1
102
RTVSPropertyOp62
 70
     1
  0
XRECORD
  5
39A
102
{ACAD_REACTORS
330
399
102
}
330
399
100
AcDbXrecord
280
     1
102
RTVSPost2010Prop28
280
     0
102
RTVSPost2010PropOp28
 70
     1
102
RTVSPost2010Prop29
280
     1
102
RTVSPost2010PropOp29
 70
     1
102
RTVSPost2010Prop30
280
     1
102
RTVSPost2010PropOp30
 70
     1
102
RTVSPost2010Prop31
280
     0
102
RTVSPost2010PropOp31
 70
     1
102
RTVSPost2010Prop32
280
     0
102
RTVSPost2010PropOp32
 70
     1
102
RTVSPost2010Prop33
280
     0
102
RTVSPost2010PropOp33
 70
     1
102
RTVSPost2010Prop34
280
     0
102
RTVSPost2010PropOp34
 70
     1
102
RTVSPost2010Prop35
280
     0
102
RTVSPost2010PropOp35
 70
     1
102
RTVSPost2010Prop36
280
     0
102
RTVSPost2010PropOp36
 70
     1
102
RTVSPost2010Prop37
 90
       50
102
RTVSPost2010PropOp37
 70
     1
102
RTVSPost2010Prop38
140
0.0
102
RTVSPost2010PropOp38
 70
     1
102
RTVSPost2010Prop39
140
1.0
102
RTVSPost2010PropOp39
 70
     1
102
RTVSPost2010Prop40
 90
        0
102
RTVSPost2010PropOp40
 70
     1
102
RTVSPost2010Prop41ColorIndex
 90
       18
102
RTVSPost2010Prop41ColorRGB
 90
        0
102
RTVSPost2010PropOp41
 70
     1
102
RTVSPost2010Prop42
 90
       50
102
RTVSPost2010PropOp42
 70
     1
102
RTVSPost2010Prop43
 90
        3
102
RTVSPost2010PropOp43
 70
     1
102
RTVSPost2010Prop44ColorIndex
 90
        5
102
RTVSPost2010Prop44ColorRGB
 90
      255
102
RTVSPost2010PropOp44
 70
     1
102
RTVSPost2010Prop45
280
     0
102
RTVSPost2010PropOp45
 70
     1
102
RTVSPost2010Prop46
 90
       50
102
RTVSPost2010PropOp46
 70
     1
102
RTVSPost2010Prop47
 90
       50
102
RTVSPost2010PropOp47
 70
     1
102
RTVSPost2010Prop48
 90
       50
102
RTVSPost2010PropOp48
 70
     1
102
RTVSPost2010Prop49
280
     0
102
RTVSPost2010PropOp49
 70
     1
102
RTVSPost2010Prop50
 90
       50
102
RTVSPost2010PropOp50
 70
     1
102
RTVSPost2010Prop51ColorIndex
 90
      256
102
RTVSPost2010Prop51ColorRGB
 90
-16777216
102
RTVSPost2010PropOp51
 70
     0
102
RTVSPost2010Prop52
140
1.0
102
RTVSPost2010PropOp52
 70
     0
102
RTVSPost2010Prop53
 90
        2
102
RTVSPost2010PropOp53
 70
     1
102
RTVSPost2010Prop54
  1
strokes_ogs.tif
102
RTVSPost2010PropOp54
 70
     1
102
RTVSPost2010Prop55
280
     0
102
RTVSPost2010PropOp55
 70
     1
102
RTVSPost2010Prop56
140
1.0
102
RTVSPost2010PropOp56
 70
     1
102
RTVSPost2010Prop57
140
1.0
102
RTVSPost2010PropOp57
 70
     1
102
RTVSPropertyOp0
 70
     1
102
RTVSPropertyOp1
 70
     1
102
RTVSPropertyOp2
 70
     1
102
RTVSPropertyOp3
 70
     1
102
RTVSPropertyOp4
 70
     1
102
RTVSPropertyOp5
 70
     1
102
RTVSPropertyOp6
 70
     1
102
RTVSPropertyOp7
 70
     1
102
RTVSPropertyOp8
 70
     1
102
RTVSPropertyOp9
 70
     1
102
RTVSPropertyOp10
 70
     1
102
RTVSPropertyOp11
 70
     1
102
RTVSPropertyOp12
 70
     1
102
RTVSPropertyOp13
 70
     1
102
RTVSPropertyOp14
 70
     1
102
RTVSPropertyOp15
 70
     1
102
RTVSPropertyOp16
 70
     1
102
RTVSPropertyOp17
 70
     1
102
RTVSPropertyOp18
 70
     1
102
RTVSPropertyOp19
 70
     1
102
RTVSPropertyOp20
 70
     1
102
RTVSPropertyOp21
 70
     1
102
RTVSPropertyOp22
 70
     1
102
RTVSPropertyOp23
 70
     1
102
RTVSPropertyOp24
 70
     1
102
RTVSPropertyOp25
 70
     1
102
RTVSPropertyOp26
 70
     1
102
RTVSPropertyOp27
 70
     1
102
RTVSPropertyOp28
 70
     1
102
RTVSPropertyOp29
 70
     1
102
RTVSPropertyOp30
 70
     1
102
RTVSPropertyOp31
 70
     1
102
RTVSPropertyOp32
 70
     1
102
RTVSPropertyOp33
 70
     1
102
RTVSPropertyOp34
 70
     1
102
RTVSPropertyOp35
 70
     1
102
RTVSPropertyOp36
 70
     1
102
RTVSPropertyOp37
 70
     1
102
RTVSPropertyOp38
 70
     1
102
RTVSPropertyOp39
 70
     1
102
RTVSPropertyOp40
 70
     1
102
RTVSPropertyOp41
 70
     1
102
RTVSPropertyOp42
 70
     1
102
RTVSPropertyOp43
 70
     1
102
RTVSPropertyOp44
 70
     1
102
RTVSPropertyOp45
 70
     1
102
RTVSPropertyOp46
 70
     1
102
RTVSPropertyOp47
 70
     1
102
RTVSPropertyOp48
 70
     1
102
RTVSPropertyOp49
 70
     1
102
RTVSPropertyOp50
 70
     1
102
RTVSPropertyOp51
 70
     0
102
RTVSPropertyOp52
 70
     0
102
RTVSPropertyOp53
 70
     1
102
RTVSPropertyOp54
 70
     1
102
RTVSPropertyOp55
 70
     1
102
RTVSPropertyOp56
 70
     1
102
RTVSPropertyOp57
 70
     1
102
RTVSPropertyOp58
 70
     1
102
RTVSPropertyOp59
 70
     1
102
RTVSPropertyOp60
 70
     1
102
RTVSPropertyOp61
 70
     1
102
RTVSPropertyOp62
 70
     1
  0
XRECORD
  5
3AE
102
{ACAD_REACTORS
330
3AD
102
}
330
3AD
100
AcDbXrecord
280
     1
102
RTVSPost2010Prop28
280
     0
102
RTVSPost2010PropOp28
 70
     0
102
RTVSPost2010Prop29
280
     1
102
RTVSPost2010PropOp29
 70
     0
102
RTVSPost2010Prop30
280
     1
102
RTVSPost2010PropOp30
 70
     0
102
RTVSPost2010Prop31
280
     0
102
RTVSPost2010PropOp31
 70
     0
102
RTVSPost2010Prop32
280
     0
102
RTVSPost2010PropOp32
 70
     0
102
RTVSPost2010Prop33
280
     0
102
RTVSPost2010PropOp33
 70
     0
102
RTVSPost2010Prop34
280
     0
102
RTVSPost2010PropOp34
 70
     0
102
RTVSPost2010Prop35
280
     0
102
RTVSPost2010PropOp35
 70
     0
102
RTVSPost2010Prop36
280
     0
102
RTVSPost2010PropOp36
 70
     0
102
RTVSPost2010Prop37
 90
       50
102
RTVSPost2010PropOp37
 70
     0
102
RTVSPost2010Prop38
140
0.0
102
RTVSPost2010PropOp38
 70
     0
102
RTVSPost2010Prop39
140
1.0
102
RTVSPost2010PropOp39
 70
     0
102
RTVSPost2010Prop40
 90
        0
102
RTVSPost2010PropOp40
 70
     0
102
RTVSPost2010Prop41ColorIndex
 90
       18
102
RTVSPost2010Prop41ColorRGB
 90
        0
102
RTVSPost2010PropOp41
 70
     0
102
RTVSPost2010Prop42
 90
       50
102
RTVSPost2010PropOp42
 70
     0
102
RTVSPost2010Prop43
 90
        3
102
RTVSPost2010PropOp43
 70
     0
102
RTVSPost2010Prop44ColorIndex
 90
        5
102
RTVSPost2010Prop44ColorRGB
 90
      255
102
RTVSPost2010PropOp44
 70
     0
102
RTVSPost2010Prop45
280
     0
102
RTVSPost2010PropOp45
 70
     0
102
RTVSPost2010Prop46
 90
       50
102
RTVSPost2010PropOp46
 70
     0
102
RTVSPost2010Prop47
 90
       50
102
RTVSPost2010PropOp47
 70
     0
102
RTVSPost2010Prop48
 90
       50
102
RTVSPost2010PropOp48
 70
     0
102
RTVSPost2010Prop49
280
     0
102
RTVSPost2010PropOp49
 70
     0
102
RTVSPost2010Prop50
 90
       50
102
RTVSPost2010PropOp50
 70
     0
102
RTVSPost2010Prop51ColorIndex
 90
      256
102
RTVSPost2010Prop51ColorRGB
 90
-16777216
102
RTVSPost2010PropOp51
 70
     0
102
RTVSPost2010Prop52
140
1.0
102
RTVSPost2010PropOp52
 70
     0
102
RTVSPost2010Prop53
 90
        2
102
RTVSPost2010PropOp53
 70
     0
102
RTVSPost2010Prop54
  1
strokes_ogs.tif
102
RTVSPost2010PropOp54
 70
     0
102
RTVSPost2010Prop55
280
     0
102
RTVSPost2010PropOp55
 70
     0
102
RTVSPost2010Prop56
140
1.0
102
RTVSPost2010PropOp56
 70
     0
102
RTVSPost2010Prop57
140
1.0
102
RTVSPost2010PropOp57
 70
     0
102
RTVSPropertyOp0
 70
     0
102
RTVSPropertyOp1
 70
     0
102
RTVSPropertyOp2
 70
     0
102
RTVSPropertyOp3
 70
     0
102
RTVSPropertyOp4
 70
     0
102
RTVSPropertyOp5
 70
     0
102
RTVSPropertyOp6
 70
     0
102
RTVSPropertyOp7
 70
     0
102
RTVSPropertyOp8
 70
     0
102
RTVSPropertyOp9
 70
     0
102
RTVSPropertyOp10
 70
     0
102
RTVSPropertyOp11
 70
     0
102
RTVSPropertyOp12
 70
     0
102
RTVSPropertyOp13
 70
     0
102
RTVSPropertyOp14
 70
     2
102
RTVSPropertyOp15
 70
     0
102
RTVSPropertyOp16
 70
     0
102
RTVSPropertyOp17
 70
     0
102
RTVSPropertyOp18
 70
     0
102
RTVSPropertyOp19
 70
     0
102
RTVSPropertyOp20
 70
     0
102
RTVSPropertyOp21
 70
     0
102
RTVSPropertyOp22
 70
     0
102
RTVSPropertyOp23
 70
     0
102
RTVSPropertyOp24
 70
     0
102
RTVSPropertyOp25
 70
     0
102
RTVSPropertyOp26
 70
     0
102
RTVSPropertyOp27
 70
     0
102
RTVSPropertyOp28
 70
     0
102
RTVSPropertyOp29
 70
     0
102
RTVSPropertyOp30
 70
     0
102
RTVSPropertyOp31
 70
     0
102
RTVSPropertyOp32
 70
     0
102
RTVSPropertyOp33
 70
     0
102
RTVSPropertyOp34
 70
     0
102
RTVSPropertyOp35
 70
     0
102
RTVSPropertyOp36
 70
     0
102
RTVSPropertyOp37
 70
     0
102
RTVSPropertyOp38
 70
     0
102
RTVSPropertyOp39
 70
     0
102
RTVSPropertyOp40
 70
     0
102
RTVSPropertyOp41
 70
     0
102
RTVSPropertyOp42
 70
     0
102
RTVSPropertyOp43
 70
     0
102
RTVSPropertyOp44
 70
     0
102
RTVSPropertyOp45
 70
     0
102
RTVSPropertyOp46
 70
     0
102
RTVSPropertyOp47
 70
     0
102
RTVSPropertyOp48
 70
     0
102
RTVSPropertyOp49
 70
     0
102
RTVSPropertyOp50
 70
     0
102
RTVSPropertyOp51
 70
     0
102
RTVSPropertyOp52
 70
     0
102
RTVSPropertyOp53
 70
     0
102
RTVSPropertyOp54
 70
     0
102
RTVSPropertyOp55
 70
     0
102
RTVSPropertyOp56
 70
     0
102
RTVSPropertyOp57
 70
     0
102
RTVSPropertyOp58
 70
     1
102
RTVSPropertyOp59
 70
     1
102
RTVSPropertyOp60
 70
     1
102
RTVSPropertyOp61
 70
     1
102
RTVSPropertyOp62
 70
     1
  0
XRECORD
  5
3A8
102
{ACAD_REACTORS
330
3A7
102
}
330
3A7
100
AcDbXrecord
280
     1
102
RTVSPost2010Prop28
280
     0
102
RTVSPost2010PropOp28
 70
     1
102
RTVSPost2010Prop29
280
     1
102
RTVSPost2010PropOp29
 70
     1
102
RTVSPost2010Prop30
280
     1
102
RTVSPost2010PropOp30
 70
     1
102
RTVSPost2010Prop31
280
     0
102
RTVSPost2010PropOp31
 70
     1
102
RTVSPost2010Prop32
280
     0
102
RTVSPost2010PropOp32
 70
     1
102
RTVSPost2010Prop33
280
     0
102
RTVSPost2010PropOp33
 70
     1
102
RTVSPost2010Prop34
280
     0
102
RTVSPost2010PropOp34
 70
     1
102
RTVSPost2010Prop35
280
     0
102
RTVSPost2010PropOp35
 70
     1
102
RTVSPost2010Prop36
280
     0
102
RTVSPost2010PropOp36
 70
     1
102
RTVSPost2010Prop37
 90
       50
102
RTVSPost2010PropOp37
 70
     1
102
RTVSPost2010Prop38
140
0.0
102
RTVSPost2010PropOp38
 70
     1
102
RTVSPost2010Prop39
140
1.0
102
RTVSPost2010PropOp39
 70
     1
102
RTVSPost2010Prop40
 90
        0
102
RTVSPost2010PropOp40
 70
     1
102
RTVSPost2010Prop41ColorIndex
 90
       18
102
RTVSPost2010Prop41ColorRGB
 90
        0
102
RTVSPost2010PropOp41
 70
     1
102
RTVSPost2010Prop42
 90
       50
102
RTVSPost2010PropOp42
 70
     1
102
RTVSPost2010Prop43
 90
        3
102
RTVSPost2010PropOp43
 70
     1
102
RTVSPost2010Prop44ColorIndex
 90
        5
102
RTVSPost2010Prop44ColorRGB
 90
      255
102
RTVSPost2010PropOp44
 70
     1
102
RTVSPost2010Prop45
280
     0
102
RTVSPost2010PropOp45
 70
     1
102
RTVSPost2010Prop46
 90
       50
102
RTVSPost2010PropOp46
 70
     1
102
RTVSPost2010Prop47
 90
       50
102
RTVSPost2010PropOp47
 70
     1
102
RTVSPost2010Prop48
 90
       50
102
RTVSPost2010PropOp48
 70
     1
102
RTVSPost2010Prop49
280
     0
102
RTVSPost2010PropOp49
 70
     1
102
RTVSPost2010Prop50
 90
       50
102
RTVSPost2010PropOp50
 70
     1
102
RTVSPost2010Prop51ColorIndex
 90
      256
102
RTVSPost2010Prop51ColorRGB
 90
-16777216
102
RTVSPost2010PropOp51
 70
     0
102
RTVSPost2010Prop52
140
1.0
102
RTVSPost2010PropOp52
 70
     0
102
RTVSPost2010Prop53
 90
        2
102
RTVSPost2010PropOp53
 70
     1
102
RTVSPost2010Prop54
  1
strokes_ogs.tif
102
RTVSPost2010PropOp54
 70
     1
102
RTVSPost2010Prop55
280
     0
102
RTVSPost2010PropOp55
 70
     1
102
RTVSPost2010Prop56
140
1.0
102
RTVSPost2010PropOp56
 70
     1
102
RTVSPost2010Prop57
140
1.0
102
RTVSPost2010PropOp57
 70
     1
102
RTVSPropertyOp0
 70
     1
102
RTVSPropertyOp1
 70
     1
102
RTVSPropertyOp2
 70
     1
102
RTVSPropertyOp3
 70
     1
102
RTVSPropertyOp4
 70
     1
102
RTVSPropertyOp5
 70
     1
102
RTVSPropertyOp6
 70
     1
102
RTVSPropertyOp7
 70
     1
102
RTVSPropertyOp8
 70
     1
102
RTVSPropertyOp9
 70
     1
102
RTVSPropertyOp10
 70
     1
102
RTVSPropertyOp11
 70
     1
102
RTVSPropertyOp12
 70
     1
102
RTVSPropertyOp13
 70
     1
102
RTVSPropertyOp14
 70
     1
102
RTVSPropertyOp15
 70
     1
102
RTVSPropertyOp16
 70
     1
102
RTVSPropertyOp17
 70
     1
102
RTVSPropertyOp18
 70
     1
102
RTVSPropertyOp19
 70
     1
102
RTVSPropertyOp20
 70
     1
102
RTVSPropertyOp21
 70
     1
102
RTVSPropertyOp22
 70
     1
102
RTVSPropertyOp23
 70
     1
102
RTVSPropertyOp24
 70
     1
102
RTVSPropertyOp25
 70
     1
102
RTVSPropertyOp26
 70
     1
102
RTVSPropertyOp27
 70
     1
102
RTVSPropertyOp28
 70
     1
102
RTVSPropertyOp29
 70
     1
102
RTVSPropertyOp30
 70
     1
102
RTVSPropertyOp31
 70
     1
102
RTVSPropertyOp32
 70
     1
102
RTVSPropertyOp33
 70
     1
102
RTVSPropertyOp34
 70
     1
102
RTVSPropertyOp35
 70
     1
102
RTVSPropertyOp36
 70
     1
102
RTVSPropertyOp37
 70
     1
102
RTVSPropertyOp38
 70
     1
102
RTVSPropertyOp39
 70
     1
102
RTVSPropertyOp40
 70
     1
102
RTVSPropertyOp41
 70
     1
102
RTVSPropertyOp42
 70
     1
102
RTVSPropertyOp43
 70
     1
102
RTVSPropertyOp44
 70
     1
102
RTVSPropertyOp45
 70
     1
102
RTVSPropertyOp46
 70
     1
102
RTVSPropertyOp47
 70
     1
102
RTVSPropertyOp48
 70
     1
102
RTVSPropertyOp49
 70
     1
102
RTVSPropertyOp50
 70
     1
102
RTVSPropertyOp51
 70
     0
102
RTVSPropertyOp52
 70
     0
102
RTVSPropertyOp53
 70
     1
102
RTVSPropertyOp54
 70
     1
102
RTVSPropertyOp55
 70
     1
102
RTVSPropertyOp56
 70
     1
102
RTVSPropertyOp57
 70
     1
102
RTVSPropertyOp58
 70
     1
102
RTVSPropertyOp59
 70
     1
102
RTVSPropertyOp60
 70
     1
102
RTVSPropertyOp61
 70
     1
102
RTVSPropertyOp62
 70
     1
  0
XRECORD
  5
3B0
102
{ACAD_REACTORS
330
3AF
102
}
330
3AF
100
AcDbXrecord
280
     1
102
RTVSPost2010Prop28
280
     0
102
RTVSPost2010PropOp28
 70
     0
102
RTVSPost2010Prop29
280
     1
102
RTVSPost2010PropOp29
 70
     0
102
RTVSPost2010Prop30
280
     1
102
RTVSPost2010PropOp30
 70
     0
102
RTVSPost2010Prop31
280
     0
102
RTVSPost2010PropOp31
 70
     0
102
RTVSPost2010Prop32
280
     0
102
RTVSPost2010PropOp32
 70
     0
102
RTVSPost2010Prop33
280
     0
102
RTVSPost2010PropOp33
 70
     0
102
RTVSPost2010Prop34
280
     0
102
RTVSPost2010PropOp34
 70
     0
102
RTVSPost2010Prop35
280
     0
102
RTVSPost2010PropOp35
 70
     0
102
RTVSPost2010Prop36
280
     0
102
RTVSPost2010PropOp36
 70
     0
102
RTVSPost2010Prop37
 90
       50
102
RTVSPost2010PropOp37
 70
     0
102
RTVSPost2010Prop38
140
0.0
102
RTVSPost2010PropOp38
 70
     0
102
RTVSPost2010Prop39
140
1.0
102
RTVSPost2010PropOp39
 70
     0
102
RTVSPost2010Prop40
 90
        0
102
RTVSPost2010PropOp40
 70
     0
102
RTVSPost2010Prop41ColorIndex
 90
       18
102
RTVSPost2010Prop41ColorRGB
 90
        0
102
RTVSPost2010PropOp41
 70
     0
102
RTVSPost2010Prop42
 90
       50
102
RTVSPost2010PropOp42
 70
     0
102
RTVSPost2010Prop43
 90
        3
102
RTVSPost2010PropOp43
 70
     0
102
RTVSPost2010Prop44ColorIndex
 90
        5
102
RTVSPost2010Prop44ColorRGB
 90
      255
102
RTVSPost2010PropOp44
 70
     0
102
RTVSPost2010Prop45
280
     0
102
RTVSPost2010PropOp45
 70
     0
102
RTVSPost2010Prop46
 90
       50
102
RTVSPost2010PropOp46
 70
     0
102
RTVSPost2010Prop47
 90
       50
102
RTVSPost2010PropOp47
 70
     0
102
RTVSPost2010Prop48
 90
       50
102
RTVSPost2010PropOp48
 70
     0
102
RTVSPost2010Prop49
280
     0
102
RTVSPost2010PropOp49
 70
     0
102
RTVSPost2010Prop50
 90
       50
102
RTVSPost2010PropOp50
 70
     0
102
RTVSPost2010Prop51ColorIndex
 90
      256
102
RTVSPost2010Prop51ColorRGB
 90
-16777216
102
RTVSPost2010PropOp51
 70
     0
102
RTVSPost2010Prop52
140
1.0
102
RTVSPost2010PropOp52
 70
     0
102
RTVSPost2010Prop53
 90
        2
102
RTVSPost2010PropOp53
 70
     0
102
RTVSPost2010Prop54
  1
strokes_ogs.tif
102
RTVSPost2010PropOp54
 70
     0
102
RTVSPost2010Prop55
280
     0
102
RTVSPost2010PropOp55
 70
     0
102
RTVSPost2010Prop56
140
1.0
102
RTVSPost2010PropOp56
 70
     0
102
RTVSPost2010Prop57
140
1.0
102
RTVSPost2010PropOp57
 70
     0
102
RTVSPropertyOp0
 70
     0
102
RTVSPropertyOp1
 70
     0
102
RTVSPropertyOp2
 70
     0
102
RTVSPropertyOp3
 70
     0
102
RTVSPropertyOp4
 70
     0
102
RTVSPropertyOp5
 70
     0
102
RTVSPropertyOp6
 70
     0
102
RTVSPropertyOp7
 70
     0
102
RTVSPropertyOp8
 70
     0
102
RTVSPropertyOp9
 70
     0
102
RTVSPropertyOp10
 70
     0
102
RTVSPropertyOp11
 70
     0
102
RTVSPropertyOp12
 70
     0
102
RTVSPropertyOp13
 70
     0
102
RTVSPropertyOp14
 70
     2
102
RTVSPropertyOp15
 70
     0
102
RTVSPropertyOp16
 70
     0
102
RTVSPropertyOp17
 70
     0
102
RTVSPropertyOp18
 70
     0
102
RTVSPropertyOp19
 70
     0
102
RTVSPropertyOp20
 70
     0
102
RTVSPropertyOp21
 70
     0
102
RTVSPropertyOp22
 70
     0
102
RTVSPropertyOp23
 70
     0
102
RTVSPropertyOp24
 70
     0
102
RTVSPropertyOp25
 70
     0
102
RTVSPropertyOp26
 70
     0
102
RTVSPropertyOp27
 70
     0
102
RTVSPropertyOp28
 70
     0
102
RTVSPropertyOp29
 70
     0
102
RTVSPropertyOp30
 70
     0
102
RTVSPropertyOp31
 70
     0
102
RTVSPropertyOp32
 70
     0
102
RTVSPropertyOp33
 70
     0
102
RTVSPropertyOp34
 70
     0
102
RTVSPropertyOp35
 70
     0
102
RTVSPropertyOp36
 70
     0
102
RTVSPropertyOp37
 70
     0
102
RTVSPropertyOp38
 70
     0
102
RTVSPropertyOp39
 70
     0
102
RTVSPropertyOp40
 70
     0
102
RTVSPropertyOp41
 70
     0
102
RTVSPropertyOp42
 70
     0
102
RTVSPropertyOp43
 70
     0
102
RTVSPropertyOp44
 70
     0
102
RTVSPropertyOp45
 70
     0
102
RTVSPropertyOp46
 70
     0
102
RTVSPropertyOp47
 70
     0
102
RTVSPropertyOp48
 70
     0
102
RTVSPropertyOp49
 70
     0
102
RTVSPropertyOp50
 70
     0
102
RTVSPropertyOp51
 70
     0
102
RTVSPropertyOp52
 70
     0
102
RTVSPropertyOp53
 70
     0
102
RTVSPropertyOp54
 70
     0
102
RTVSPropertyOp55
 70
     0
102
RTVSPropertyOp56
 70
     0
102
RTVSPropertyOp57
 70
     0
102
RTVSPropertyOp58
 70
     1
102
RTVSPropertyOp59
 70
     1
102
RTVSPropertyOp60
 70
     1
102
RTVSPropertyOp61
 70
     1
102
RTVSPropertyOp62
 70
     1
  0
XRECORD
  5
39E
102
{ACAD_REACTORS
330
39D
102
}
330
39D
100
AcDbXrecord
280
     1
102
RTVSPost2010Prop28
280
     0
102
RTVSPost2010PropOp28
 70
     1
102
RTVSPost2010Prop29
280
     1
102
RTVSPost2010PropOp29
 70
     1
102
RTVSPost2010Prop30
280
     1
102
RTVSPost2010PropOp30
 70
     1
102
RTVSPost2010Prop31
280
     0
102
RTVSPost2010PropOp31
 70
     1
102
RTVSPost2010Prop32
280
     0
102
RTVSPost2010PropOp32
 70
     1
102
RTVSPost2010Prop33
280
     0
102
RTVSPost2010PropOp33
 70
     1
102
RTVSPost2010Prop34
280
     0
102
RTVSPost2010PropOp34
 70
     1
102
RTVSPost2010Prop35
280
     0
102
RTVSPost2010PropOp35
 70
     1
102
RTVSPost2010Prop36
280
     0
102
RTVSPost2010PropOp36
 70
     1
102
RTVSPost2010Prop37
 90
       50
102
RTVSPost2010PropOp37
 70
     1
102
RTVSPost2010Prop38
140
0.0
102
RTVSPost2010PropOp38
 70
     1
102
RTVSPost2010Prop39
140
1.0
102
RTVSPost2010PropOp39
 70
     1
102
RTVSPost2010Prop40
 90
        0
102
RTVSPost2010PropOp40
 70
     1
102
RTVSPost2010Prop41ColorIndex
 90
       18
102
RTVSPost2010Prop41ColorRGB
 90
        0
102
RTVSPost2010PropOp41
 70
     1
102
RTVSPost2010Prop42
 90
       50
102
RTVSPost2010PropOp42
 70
     1
102
RTVSPost2010Prop43
 90
        3
102
RTVSPost2010PropOp43
 70
     1
102
RTVSPost2010Prop44ColorIndex
 90
        5
102
RTVSPost2010Prop44ColorRGB
 90
      255
102
RTVSPost2010PropOp44
 70
     1
102
RTVSPost2010Prop45
280
     0
102
RTVSPost2010PropOp45
 70
     1
102
RTVSPost2010Prop46
 90
       50
102
RTVSPost2010PropOp46
 70
     1
102
RTVSPost2010Prop47
 90
       50
102
RTVSPost2010PropOp47
 70
     1
102
RTVSPost2010Prop48
 90
       50
102
RTVSPost2010PropOp48
 70
     1
102
RTVSPost2010Prop49
280
     0
102
RTVSPost2010PropOp49
 70
     1
102
RTVSPost2010Prop50
 90
       50
102
RTVSPost2010PropOp50
 70
     1
102
RTVSPost2010Prop51ColorIndex
 90
      256
102
RTVSPost2010Prop51ColorRGB
 90
-16777216
102
RTVSPost2010PropOp51
 70
     0
102
RTVSPost2010Prop52
140
1.0
102
RTVSPost2010PropOp52
 70
     0
102
RTVSPost2010Prop53
 90
        2
102
RTVSPost2010PropOp53
 70
     1
102
RTVSPost2010Prop54
  1
strokes_ogs.tif
102
RTVSPost2010PropOp54
 70
     1
102
RTVSPost2010Prop55
280
     0
102
RTVSPost2010PropOp55
 70
     1
102
RTVSPost2010Prop56
140
1.0
102
RTVSPost2010PropOp56
 70
     1
102
RTVSPost2010Prop57
140
1.0
102
RTVSPost2010PropOp57
 70
     1
102
RTVSPropertyOp0
 70
     1
102
RTVSPropertyOp1
 70
     1
102
RTVSPropertyOp2
 70
     1
102
RTVSPropertyOp3
 70
     1
102
RTVSPropertyOp4
 70
     1
102
RTVSPropertyOp5
 70
     1
102
RTVSPropertyOp6
 70
     1
102
RTVSPropertyOp7
 70
     1
102
RTVSPropertyOp8
 70
     1
102
RTVSPropertyOp9
 70
     1
102
RTVSPropertyOp10
 70
     1
102
RTVSPropertyOp11
 70
     1
102
RTVSPropertyOp12
 70
     1
102
RTVSPropertyOp13
 70
     1
102
RTVSPropertyOp14
 70
     1
102
RTVSPropertyOp15
 70
     1
102
RTVSPropertyOp16
 70
     1
102
RTVSPropertyOp17
 70
     1
102
RTVSPropertyOp18
 70
     1
102
RTVSPropertyOp19
 70
     1
102
RTVSPropertyOp20
 70
     1
102
RTVSPropertyOp21
 70
     1
102
RTVSPropertyOp22
 70
     1
102
RTVSPropertyOp23
 70
     1
102
RTVSPropertyOp24
 70
     1
102
RTVSPropertyOp25
 70
     1
102
RTVSPropertyOp26
 70
     1
102
RTVSPropertyOp27
 70
     1
102
RTVSPropertyOp28
 70
     1
102
RTVSPropertyOp29
 70
     1
102
RTVSPropertyOp30
 70
     1
102
RTVSPropertyOp31
 70
     1
102
RTVSPropertyOp32
 70
     1
102
RTVSPropertyOp33
 70
     1
102
RTVSPropertyOp34
 70
     1
102
RTVSPropertyOp35
 70
     1
102
RTVSPropertyOp36
 70
     1
102
RTVSPropertyOp37
 70
     1
102
RTVSPropertyOp38
 70
     1
102
RTVSPropertyOp39
 70
     1
102
RTVSPropertyOp40
 70
     1
102
RTVSPropertyOp41
 70
     1
102
RTVSPropertyOp42
 70
     1
102
RTVSPropertyOp43
 70
     1
102
RTVSPropertyOp44
 70
     1
102
RTVSPropertyOp45
 70
     1
102
RTVSPropertyOp46
 70
     1
102
RTVSPropertyOp47
 70
     1
102
RTVSPropertyOp48
 70
     1
102
RTVSPropertyOp49
 70
     1
102
RTVSPropertyOp50
 70
     1
102
RTVSPropertyOp51
 70
     0
102
RTVSPropertyOp52
 70
     0
102
RTVSPropertyOp53
 70
     1
102
RTVSPropertyOp54
 70
     1
102
RTVSPropertyOp55
 70
     1
102
RTVSPropertyOp56
 70
     1
102
RTVSPropertyOp57
 70
     1
102
RTVSPropertyOp58
 70
     1
102
RTVSPropertyOp59
 70
     1
102
RTVSPropertyOp60
 70
     1
102
RTVSPropertyOp61
 70
     1
102
RTVSPropertyOp62
 70
     1
  0
XRECORD
  5
3BC
102
{ACAD_REACTORS
330
3BB
102
}
330
3BB
100
AcDbXrecord
280
     1
102
RTVSPost2010Prop28
280
     0
102
RTVSPost2010PropOp28
 70
     1
102
RTVSPost2010Prop29
280
     1
102
RTVSPost2010PropOp29
 70
     1
102
RTVSPost2010Prop30
280
     1
102
RTVSPost2010PropOp30
 70
     1
102
RTVSPost2010Prop31
280
     0
102
RTVSPost2010PropOp31
 70
     1
102
RTVSPost2010Prop32
280
     0
102
RTVSPost2010PropOp32
 70
     1
102
RTVSPost2010Prop33
280
     0
102
RTVSPost2010PropOp33
 70
     1
102
RTVSPost2010Prop34
280
     0
102
RTVSPost2010PropOp34
 70
     1
102
RTVSPost2010Prop35
280
     0
102
RTVSPost2010PropOp35
 70
     1
102
RTVSPost2010Prop36
280
     0
102
RTVSPost2010PropOp36
 70
     1
102
RTVSPost2010Prop37
 90
       50
102
RTVSPost2010PropOp37
 70
     1
102
RTVSPost2010Prop38
140
0.0
102
RTVSPost2010PropOp38
 70
     1
102
RTVSPost2010Prop39
140
1.0
102
RTVSPost2010PropOp39
 70
     1
102
RTVSPost2010Prop40
 90
        0
102
RTVSPost2010PropOp40
 70
     1
102
RTVSPost2010Prop41ColorIndex
 90
       18
102
RTVSPost2010Prop41ColorRGB
 90
        0
102
RTVSPost2010PropOp41
 70
     1
102
RTVSPost2010Prop42
 90
       50
102
RTVSPost2010PropOp42
 70
     1
102
RTVSPost2010Prop43
 90
        3
102
RTVSPost2010PropOp43
 70
     1
102
RTVSPost2010Prop44ColorIndex
 90
        5
102
RTVSPost2010Prop44ColorRGB
 90
      255
102
RTVSPost2010PropOp44
 70
     1
102
RTVSPost2010Prop45
280
     0
102
RTVSPost2010PropOp45
 70
     1
102
RTVSPost2010Prop46
 90
       50
102
RTVSPost2010PropOp46
 70
     1
102
RTVSPost2010Prop47
 90
       50
102
RTVSPost2010PropOp47
 70
     1
102
RTVSPost2010Prop48
 90
       50
102
RTVSPost2010PropOp48
 70
     1
102
RTVSPost2010Prop49
280
     0
102
RTVSPost2010PropOp49
 70
     1
102
RTVSPost2010Prop50
 90
       50
102
RTVSPost2010PropOp50
 70
     1
102
RTVSPost2010Prop51ColorIndex
 90
      256
102
RTVSPost2010Prop51ColorRGB
 90
-16777216
102
RTVSPost2010PropOp51
 70
     0
102
RTVSPost2010Prop52
140
1.0
102
RTVSPost2010PropOp52
 70
     0
102
RTVSPost2010Prop53
 90
        2
102
RTVSPost2010PropOp53
 70
     1
102
RTVSPost2010Prop54
  1
strokes_ogs.tif
102
RTVSPost2010PropOp54
 70
     1
102
RTVSPost2010Prop55
280
     0
102
RTVSPost2010PropOp55
 70
     1
102
RTVSPost2010Prop56
140
1.0
102
RTVSPost2010PropOp56
 70
     1
102
RTVSPost2010Prop57
140
1.0
102
RTVSPost2010PropOp57
 70
     1
102
RTVSPropertyOp0
 70
     1
102
RTVSPropertyOp1
 70
     1
102
RTVSPropertyOp2
 70
     1
102
RTVSPropertyOp3
 70
     1
102
RTVSPropertyOp4
 70
     1
102
RTVSPropertyOp5
 70
     1
102
RTVSPropertyOp6
 70
     1
102
RTVSPropertyOp7
 70
     1
102
RTVSPropertyOp8
 70
     1
102
RTVSPropertyOp9
 70
     1
102
RTVSPropertyOp10
 70
     1
102
RTVSPropertyOp11
 70
     1
102
RTVSPropertyOp12
 70
     1
102
RTVSPropertyOp13
 70
     1
102
RTVSPropertyOp14
 70
     1
102
RTVSPropertyOp15
 70
     1
102
RTVSPropertyOp16
 70
     1
102
RTVSPropertyOp17
 70
     1
102
RTVSPropertyOp18
 70
     1
102
RTVSPropertyOp19
 70
     1
102
RTVSPropertyOp20
 70
     1
102
RTVSPropertyOp21
 70
     1
102
RTVSPropertyOp22
 70
     1
102
RTVSPropertyOp23
 70
     1
102
RTVSPropertyOp24
 70
     1
102
RTVSPropertyOp25
 70
     1
102
RTVSPropertyOp26
 70
     1
102
RTVSPropertyOp27
 70
     1
102
RTVSPropertyOp28
 70
     1
102
RTVSPropertyOp29
 70
     1
102
RTVSPropertyOp30
 70
     1
102
RTVSPropertyOp31
 70
     1
102
RTVSPropertyOp32
 70
     1
102
RTVSPropertyOp33
 70
     1
102
RTVSPropertyOp34
 70
     1
102
RTVSPropertyOp35
 70
     1
102
RTVSPropertyOp36
 70
     1
102
RTVSPropertyOp37
 70
     1
102
RTVSPropertyOp38
 70
     1
102
RTVSPropertyOp39
 70
     1
102
RTVSPropertyOp40
 70
     1
102
RTVSPropertyOp41
 70
     1
102
RTVSPropertyOp42
 70
     1
102
RTVSPropertyOp43
 70
     1
102
RTVSPropertyOp44
 70
     1
102
RTVSPropertyOp45
 70
     1
102
RTVSPropertyOp46
 70
     1
102
RTVSPropertyOp47
 70
     1
102
RTVSPropertyOp48
 70
     1
102
RTVSPropertyOp49
 70
     1
102
RTVSPropertyOp50
 70
     1
102
RTVSPropertyOp51
 70
     0
102
RTVSPropertyOp52
 70
     0
102
RTVSPropertyOp53
 70
     1
102
RTVSPropertyOp54
 70
     1
102
RTVSPropertyOp55
 70
     1
102
RTVSPropertyOp56
 70
     1
102
RTVSPropertyOp57
 70
     1
102
RTVSPropertyOp58
 70
     1
102
RTVSPropertyOp59
 70
     1
102
RTVSPropertyOp60
 70
     1
102
RTVSPropertyOp61
 70
     1
102
RTVSPropertyOp62
 70
     1
  0
XRECORD
  5
3BA
102
{ACAD_REACTORS
330
3B9
102
}
330
3B9
100
AcDbXrecord
280
     1
102
RTVSPost2010Prop28
280
     0
102
RTVSPost2010PropOp28
 70
     1
102
RTVSPost2010Prop29
280
     1
102
RTVSPost2010PropOp29
 70
     1
102
RTVSPost2010Prop30
280
     1
102
RTVSPost2010PropOp30
 70
     1
102
RTVSPost2010Prop31
280
     0
102
RTVSPost2010PropOp31
 70
     1
102
RTVSPost2010Prop32
280
     0
102
RTVSPost2010PropOp32
 70
     1
102
RTVSPost2010Prop33
280
     0
102
RTVSPost2010PropOp33
 70
     1
102
RTVSPost2010Prop34
280
     0
102
RTVSPost2010PropOp34
 70
     1
102
RTVSPost2010Prop35
280
     0
102
RTVSPost2010PropOp35
 70
     1
102
RTVSPost2010Prop36
280
     0
102
RTVSPost2010PropOp36
 70
     1
102
RTVSPost2010Prop37
 90
       50
102
RTVSPost2010PropOp37
 70
     1
102
RTVSPost2010Prop38
140
0.0
102
RTVSPost2010PropOp38
 70
     1
102
RTVSPost2010Prop39
140
1.0
102
RTVSPost2010PropOp39
 70
     1
102
RTVSPost2010Prop40
 90
        0
102
RTVSPost2010PropOp40
 70
     1
102
RTVSPost2010Prop41ColorIndex
 90
       18
102
RTVSPost2010Prop41ColorRGB
 90
        0
102
RTVSPost2010PropOp41
 70
     1
102
RTVSPost2010Prop42
 90
       50
102
RTVSPost2010PropOp42
 70
     1
102
RTVSPost2010Prop43
 90
        3
102
RTVSPost2010PropOp43
 70
     1
102
RTVSPost2010Prop44ColorIndex
 90
        5
102
RTVSPost2010Prop44ColorRGB
 90
      255
102
RTVSPost2010PropOp44
 70
     1
102
RTVSPost2010Prop45
280
     0
102
RTVSPost2010PropOp45
 70
     1
102
RTVSPost2010Prop46
 90
       50
102
RTVSPost2010PropOp46
 70
     1
102
RTVSPost2010Prop47
 90
       50
102
RTVSPost2010PropOp47
 70
     1
102
RTVSPost2010Prop48
 90
       50
102
RTVSPost2010PropOp48
 70
     1
102
RTVSPost2010Prop49
280
     0
102
RTVSPost2010PropOp49
 70
     1
102
RTVSPost2010Prop50
 90
       50
102
RTVSPost2010PropOp50
 70
     1
102
RTVSPost2010Prop51ColorIndex
 90
      256
102
RTVSPost2010Prop51ColorRGB
 90
-16777216
102
RTVSPost2010PropOp51
 70
     0
102
RTVSPost2010Prop52
140
1.0
102
RTVSPost2010PropOp52
 70
     0
102
RTVSPost2010Prop53
 90
        2
102
RTVSPost2010PropOp53
 70
     1
102
RTVSPost2010Prop54
  1
strokes_ogs.tif
102
RTVSPost2010PropOp54
 70
     1
102
RTVSPost2010Prop55
280
     0
102
RTVSPost2010PropOp55
 70
     1
102
RTVSPost2010Prop56
140
1.0
102
RTVSPost2010PropOp56
 70
     1
102
RTVSPost2010Prop57
140
1.0
102
RTVSPost2010PropOp57
 70
     1
102
RTVSPropertyOp0
 70
     1
102
RTVSPropertyOp1
 70
     1
102
RTVSPropertyOp2
 70
     1
102
RTVSPropertyOp3
 70
     1
102
RTVSPropertyOp4
 70
     1
102
RTVSPropertyOp5
 70
     1
102
RTVSPropertyOp6
 70
     1
102
RTVSPropertyOp7
 70
     1
102
RTVSPropertyOp8
 70
     1
102
RTVSPropertyOp9
 70
     1
102
RTVSPropertyOp10
 70
     1
102
RTVSPropertyOp11
 70
     1
102
RTVSPropertyOp12
 70
     1
102
RTVSPropertyOp13
 70
     1
102
RTVSPropertyOp14
 70
     1
102
RTVSPropertyOp15
 70
     1
102
RTVSPropertyOp16
 70
     1
102
RTVSPropertyOp17
 70
     1
102
RTVSPropertyOp18
 70
     1
102
RTVSPropertyOp19
 70
     1
102
RTVSPropertyOp20
 70
     1
102
RTVSPropertyOp21
 70
     1
102
RTVSPropertyOp22
 70
     1
102
RTVSPropertyOp23
 70
     1
102
RTVSPropertyOp24
 70
     1
102
RTVSPropertyOp25
 70
     1
102
RTVSPropertyOp26
 70
     1
102
RTVSPropertyOp27
 70
     1
102
RTVSPropertyOp28
 70
     1
102
RTVSPropertyOp29
 70
     1
102
RTVSPropertyOp30
 70
     1
102
RTVSPropertyOp31
 70
     1
102
RTVSPropertyOp32
 70
     1
102
RTVSPropertyOp33
 70
     1
102
RTVSPropertyOp34
 70
     1
102
RTVSPropertyOp35
 70
     1
102
RTVSPropertyOp36
 70
     1
102
RTVSPropertyOp37
 70
     1
102
RTVSPropertyOp38
 70
     1
102
RTVSPropertyOp39
 70
     1
102
RTVSPropertyOp40
 70
     1
102
RTVSPropertyOp41
 70
     1
102
RTVSPropertyOp42
 70
     1
102
RTVSPropertyOp43
 70
     1
102
RTVSPropertyOp44
 70
     1
102
RTVSPropertyOp45
 70
     1
102
RTVSPropertyOp46
 70
     1
102
RTVSPropertyOp47
 70
     1
102
RTVSPropertyOp48
 70
     1
102
RTVSPropertyOp49
 70
     1
102
RTVSPropertyOp50
 70
     1
102
RTVSPropertyOp51
 70
     0
102
RTVSPropertyOp52
 70
     0
102
RTVSPropertyOp53
 70
     1
102
RTVSPropertyOp54
 70
     1
102
RTVSPropertyOp55
 70
     1
102
RTVSPropertyOp56
 70
     1
102
RTVSPropertyOp57
 70
     1
102
RTVSPropertyOp58
 70
     1
102
RTVSPropertyOp59
 70
     1
102
RTVSPropertyOp60
 70
     1
102
RTVSPropertyOp61
 70
     1
102
RTVSPropertyOp62
 70
     1
  0
XRECORD
  5
3B4
102
{ACAD_REACTORS
330
3B3
102
}
330
3B3
100
AcDbXrecord
280
     1
102
RTVSPost2010Prop28
280
     0
102
RTVSPost2010PropOp28
 70
     1
102
RTVSPost2010Prop29
280
     1
102
RTVSPost2010PropOp29
 70
     1
102
RTVSPost2010Prop30
280
     1
102
RTVSPost2010PropOp30
 70
     1
102
RTVSPost2010Prop31
280
     0
102
RTVSPost2010PropOp31
 70
     1
102
RTVSPost2010Prop32
280
     0
102
RTVSPost2010PropOp32
 70
     1
102
RTVSPost2010Prop33
280
     0
102
RTVSPost2010PropOp33
 70
     1
102
RTVSPost2010Prop34
280
     0
102
RTVSPost2010PropOp34
 70
     1
102
RTVSPost2010Prop35
280
     0
102
RTVSPost2010PropOp35
 70
     1
102
RTVSPost2010Prop36
280
     0
102
RTVSPost2010PropOp36
 70
     1
102
RTVSPost2010Prop37
 90
       50
102
RTVSPost2010PropOp37
 70
     1
102
RTVSPost2010Prop38
140
0.0
102
RTVSPost2010PropOp38
 70
     1
102
RTVSPost2010Prop39
140
1.0
102
RTVSPost2010PropOp39
 70
     1
102
RTVSPost2010Prop40
 90
        0
102
RTVSPost2010PropOp40
 70
     1
102
RTVSPost2010Prop41ColorIndex
 90
       18
102
RTVSPost2010Prop41ColorRGB
 90
        0
102
RTVSPost2010PropOp41
 70
     1
102
RTVSPost2010Prop42
 90
       50
102
RTVSPost2010PropOp42
 70
     1
102
RTVSPost2010Prop43
 90
        3
102
RTVSPost2010PropOp43
 70
     1
102
RTVSPost2010Prop44ColorIndex
 90
        5
102
RTVSPost2010Prop44ColorRGB
 90
      255
102
RTVSPost2010PropOp44
 70
     1
102
RTVSPost2010Prop45
280
     0
102
RTVSPost2010PropOp45
 70
     1
102
RTVSPost2010Prop46
 90
       50
102
RTVSPost2010PropOp46
 70
     1
102
RTVSPost2010Prop47
 90
       50
102
RTVSPost2010PropOp47
 70
     1
102
RTVSPost2010Prop48
 90
       50
102
RTVSPost2010PropOp48
 70
     1
102
RTVSPost2010Prop49
280
     0
102
RTVSPost2010PropOp49
 70
     1
102
RTVSPost2010Prop50
 90
       50
102
RTVSPost2010PropOp50
 70
     1
102
RTVSPost2010Prop51ColorIndex
 90
      256
102
RTVSPost2010Prop51ColorRGB
 90
-16777216
102
RTVSPost2010PropOp51
 70
     0
102
RTVSPost2010Prop52
140
1.0
102
RTVSPost2010PropOp52
 70
     0
102
RTVSPost2010Prop53
 90
        2
102
RTVSPost2010PropOp53
 70
     1
102
RTVSPost2010Prop54
  1
strokes_ogs.tif
102
RTVSPost2010PropOp54
 70
     1
102
RTVSPost2010Prop55
280
     0
102
RTVSPost2010PropOp55
 70
     1
102
RTVSPost2010Prop56
140
1.0
102
RTVSPost2010PropOp56
 70
     1
102
RTVSPost2010Prop57
140
1.0
102
RTVSPost2010PropOp57
 70
     1
102
RTVSPropertyOp0
 70
     1
102
RTVSPropertyOp1
 70
     1
102
RTVSPropertyOp2
 70
     1
102
RTVSPropertyOp3
 70
     1
102
RTVSPropertyOp4
 70
     1
102
RTVSPropertyOp5
 70
     1
102
RTVSPropertyOp6
 70
     1
102
RTVSPropertyOp7
 70
     1
102
RTVSPropertyOp8
 70
     1
102
RTVSPropertyOp9
 70
     1
102
RTVSPropertyOp10
 70
     1
102
RTVSPropertyOp11
 70
     1
102
RTVSPropertyOp12
 70
     1
102
RTVSPropertyOp13
 70
     1
102
RTVSPropertyOp14
 70
     1
102
RTVSPropertyOp15
 70
     1
102
RTVSPropertyOp16
 70
     1
102
RTVSPropertyOp17
 70
     1
102
RTVSPropertyOp18
 70
     1
102
RTVSPropertyOp19
 70
     1
102
RTVSPropertyOp20
 70
     1
102
RTVSPropertyOp21
 70
     1
102
RTVSPropertyOp22
 70
     1
102
RTVSPropertyOp23
 70
     1
102
RTVSPropertyOp24
 70
     1
102
RTVSPropertyOp25
 70
     1
102
RTVSPropertyOp26
 70
     1
102
RTVSPropertyOp27
 70
     1
102
RTVSPropertyOp28
 70
     1
102
RTVSPropertyOp29
 70
     1
102
RTVSPropertyOp30
 70
     1
102
RTVSPropertyOp31
 70
     1
102
RTVSPropertyOp32
 70
     1
102
RTVSPropertyOp33
 70
     1
102
RTVSPropertyOp34
 70
     1
102
RTVSPropertyOp35
 70
     1
102
RTVSPropertyOp36
 70
     1
102
RTVSPropertyOp37
 70
     1
102
RTVSPropertyOp38
 70
     1
102
RTVSPropertyOp39
 70
     1
102
RTVSPropertyOp40
 70
     1
102
RTVSPropertyOp41
 70
     1
102
RTVSPropertyOp42
 70
     1
102
RTVSPropertyOp43
 70
     1
102
RTVSPropertyOp44
 70
     1
102
RTVSPropertyOp45
 70
     1
102
RTVSPropertyOp46
 70
     1
102
RTVSPropertyOp47
 70
     1
102
RTVSPropertyOp48
 70
     1
102
RTVSPropertyOp49
 70
     1
102
RTVSPropertyOp50
 70
     1
102
RTVSPropertyOp51
 70
     0
102
RTVSPropertyOp52
 70
     0
102
RTVSPropertyOp53
 70
     1
102
RTVSPropertyOp54
 70
     1
102
RTVSPropertyOp55
 70
     1
102
RTVSPropertyOp56
 70
     1
102
RTVSPropertyOp57
 70
     1
102
RTVSPropertyOp58
 70
     1
102
RTVSPropertyOp59
 70
     1
102
RTVSPropertyOp60
 70
     1
102
RTVSPropertyOp61
 70
     1
102
RTVSPropertyOp62
 70
     1
  0
XRECORD
  5
3B6
102
{ACAD_REACTORS
330
3B5
102
}
330
3B5
100
AcDbXrecord
280
     1
102
RTVSPost2010Prop28
280
     0
102
RTVSPost2010PropOp28
 70
     1
102
RTVSPost2010Prop29
280
     1
102
RTVSPost2010PropOp29
 70
     1
102
RTVSPost2010Prop30
280
     1
102
RTVSPost2010PropOp30
 70
     1
102
RTVSPost2010Prop31
280
     0
102
RTVSPost2010PropOp31
 70
     1
102
RTVSPost2010Prop32
280
     0
102
RTVSPost2010PropOp32
 70
     1
102
RTVSPost2010Prop33
280
     0
102
RTVSPost2010PropOp33
 70
     1
102
RTVSPost2010Prop34
280
     0
102
RTVSPost2010PropOp34
 70
     1
102
RTVSPost2010Prop35
280
     0
102
RTVSPost2010PropOp35
 70
     1
102
RTVSPost2010Prop36
280
     0
102
RTVSPost2010PropOp36
 70
     1
102
RTVSPost2010Prop37
 90
       50
102
RTVSPost2010PropOp37
 70
     1
102
RTVSPost2010Prop38
140
0.0
102
RTVSPost2010PropOp38
 70
     1
102
RTVSPost2010Prop39
140
1.0
102
RTVSPost2010PropOp39
 70
     1
102
RTVSPost2010Prop40
 90
        0
102
RTVSPost2010PropOp40
 70
     1
102
RTVSPost2010Prop41ColorIndex
 90
       18
102
RTVSPost2010Prop41ColorRGB
 90
        0
102
RTVSPost2010PropOp41
 70
     1
102
RTVSPost2010Prop42
 90
       50
102
RTVSPost2010PropOp42
 70
     1
102
RTVSPost2010Prop43
 90
        3
102
RTVSPost2010PropOp43
 70
     1
102
RTVSPost2010Prop44ColorIndex
 90
        5
102
RTVSPost2010Prop44ColorRGB
 90
      255
102
RTVSPost2010PropOp44
 70
     1
102
RTVSPost2010Prop45
280
     0
102
RTVSPost2010PropOp45
 70
     1
102
RTVSPost2010Prop46
 90
       50
102
RTVSPost2010PropOp46
 70
     1
102
RTVSPost2010Prop47
 90
       50
102
RTVSPost2010PropOp47
 70
     1
102
RTVSPost2010Prop48
 90
       50
102
RTVSPost2010PropOp48
 70
     1
102
RTVSPost2010Prop49
280
     0
102
RTVSPost2010PropOp49
 70
     1
102
RTVSPost2010Prop50
 90
       50
102
RTVSPost2010PropOp50
 70
     1
102
RTVSPost2010Prop51ColorIndex
 90
      256
102
RTVSPost2010Prop51ColorRGB
 90
-16777216
102
RTVSPost2010PropOp51
 70
     0
102
RTVSPost2010Prop52
140
1.0
102
RTVSPost2010PropOp52
 70
     0
102
RTVSPost2010Prop53
 90
        2
102
RTVSPost2010PropOp53
 70
     1
102
RTVSPost2010Prop54
  1
strokes_ogs.tif
102
RTVSPost2010PropOp54
 70
     1
102
RTVSPost2010Prop55
280
     0
102
RTVSPost2010PropOp55
 70
     1
102
RTVSPost2010Prop56
140
1.0
102
RTVSPost2010PropOp56
 70
     1
102
RTVSPost2010Prop57
140
1.0
102
RTVSPost2010PropOp57
 70
     1
102
RTVSPropertyOp0
 70
     1
102
RTVSPropertyOp1
 70
     1
102
RTVSPropertyOp2
 70
     1
102
RTVSPropertyOp3
 70
     1
102
RTVSPropertyOp4
 70
     1
102
RTVSPropertyOp5
 70
     1
102
RTVSPropertyOp6
 70
     1
102
RTVSPropertyOp7
 70
     1
102
RTVSPropertyOp8
 70
     1
102
RTVSPropertyOp9
 70
     1
102
RTVSPropertyOp10
 70
     1
102
RTVSPropertyOp11
 70
     1
102
RTVSPropertyOp12
 70
     1
102
RTVSPropertyOp13
 70
     1
102
RTVSPropertyOp14
 70
     1
102
RTVSPropertyOp15
 70
     1
102
RTVSPropertyOp16
 70
     1
102
RTVSPropertyOp17
 70
     1
102
RTVSPropertyOp18
 70
     1
102
RTVSPropertyOp19
 70
     1
102
RTVSPropertyOp20
 70
     1
102
RTVSPropertyOp21
 70
     1
102
RTVSPropertyOp22
 70
     1
102
RTVSPropertyOp23
 70
     1
102
RTVSPropertyOp24
 70
     1
102
RTVSPropertyOp25
 70
     1
102
RTVSPropertyOp26
 70
     1
102
RTVSPropertyOp27
 70
     1
102
RTVSPropertyOp28
 70
     1
102
RTVSPropertyOp29
 70
     1
102
RTVSPropertyOp30
 70
     1
102
RTVSPropertyOp31
 70
     1
102
RTVSPropertyOp32
 70
     1
102
RTVSPropertyOp33
 70
     1
102
RTVSPropertyOp34
 70
     1
102
RTVSPropertyOp35
 70
     1
102
RTVSPropertyOp36
 70
     1
102
RTVSPropertyOp37
 70
     1
102
RTVSPropertyOp38
 70
     1
102
RTVSPropertyOp39
 70
     1
102
RTVSPropertyOp40
 70
     1
102
RTVSPropertyOp41
 70
     1
102
RTVSPropertyOp42
 70
     1
102
RTVSPropertyOp43
 70
     1
102
RTVSPropertyOp44
 70
     1
102
RTVSPropertyOp45
 70
     1
102
RTVSPropertyOp46
 70
     1
102
RTVSPropertyOp47
 70
     1
102
RTVSPropertyOp48
 70
     1
102
RTVSPropertyOp49
 70
     1
102
RTVSPropertyOp50
 70
     1
102
RTVSPropertyOp51
 70
     0
102
RTVSPropertyOp52
 70
     0
102
RTVSPropertyOp53
 70
     1
102
RTVSPropertyOp54
 70
     1
102
RTVSPropertyOp55
 70
     1
102
RTVSPropertyOp56
 70
     1
102
RTVSPropertyOp57
 70
     1
102
RTVSPropertyOp58
 70
     1
102
RTVSPropertyOp59
 70
     1
102
RTVSPropertyOp60
 70
     1
102
RTVSPropertyOp61
 70
     1
102
RTVSPropertyOp62
 70
     1
  0
XRECORD
  5
3A6
102
{ACAD_REACTORS
330
3A5
102
}
330
3A5
100
AcDbXrecord
280
     1
102
RTVSPost2010Prop28
280
     0
102
RTVSPost2010PropOp28
 70
     1
102
RTVSPost2010Prop29
280
     1
102
RTVSPost2010PropOp29
 70
     1
102
RTVSPost2010Prop30
280
     1
102
RTVSPost2010PropOp30
 70
     1
102
RTVSPost2010Prop31
280
     0
102
RTVSPost2010PropOp31
 70
     1
102
RTVSPost2010Prop32
280
     0
102
RTVSPost2010PropOp32
 70
     1
102
RTVSPost2010Prop33
280
     0
102
RTVSPost2010PropOp33
 70
     1
102
RTVSPost2010Prop34
280
     0
102
RTVSPost2010PropOp34
 70
     1
102
RTVSPost2010Prop35
280
     0
102
RTVSPost2010PropOp35
 70
     1
102
RTVSPost2010Prop36
280
     0
102
RTVSPost2010PropOp36
 70
     1
102
RTVSPost2010Prop37
 90
       50
102
RTVSPost2010PropOp37
 70
     1
102
RTVSPost2010Prop38
140
0.0
102
RTVSPost2010PropOp38
 70
     1
102
RTVSPost2010Prop39
140
1.0
102
RTVSPost2010PropOp39
 70
     1
102
RTVSPost2010Prop40
 90
        0
102
RTVSPost2010PropOp40
 70
     1
102
RTVSPost2010Prop41ColorIndex
 90
       18
102
RTVSPost2010Prop41ColorRGB
 90
        0
102
RTVSPost2010PropOp41
 70
     1
102
RTVSPost2010Prop42
 90
       50
102
RTVSPost2010PropOp42
 70
     1
102
RTVSPost2010Prop43
 90
        3
102
RTVSPost2010PropOp43
 70
     1
102
RTVSPost2010Prop44ColorIndex
 90
        5
102
RTVSPost2010Prop44ColorRGB
 90
      255
102
RTVSPost2010PropOp44
 70
     1
102
RTVSPost2010Prop45
280
     0
102
RTVSPost2010PropOp45
 70
     1
102
RTVSPost2010Prop46
 90
       50
102
RTVSPost2010PropOp46
 70
     1
102
RTVSPost2010Prop47
 90
       50
102
RTVSPost2010PropOp47
 70
     1
102
RTVSPost2010Prop48
 90
       50
102
RTVSPost2010PropOp48
 70
     1
102
RTVSPost2010Prop49
280
     0
102
RTVSPost2010PropOp49
 70
     1
102
RTVSPost2010Prop50
 90
       50
102
RTVSPost2010PropOp50
 70
     1
102
RTVSPost2010Prop51ColorIndex
 90
      256
102
RTVSPost2010Prop51ColorRGB
 90
-16777216
102
RTVSPost2010PropOp51
 70
     0
102
RTVSPost2010Prop52
140
1.0
102
RTVSPost2010PropOp52
 70
     0
102
RTVSPost2010Prop53
 90
        2
102
RTVSPost2010PropOp53
 70
     1
102
RTVSPost2010Prop54
  1
strokes_ogs.tif
102
RTVSPost2010PropOp54
 70
     1
102
RTVSPost2010Prop55
280
     0
102
RTVSPost2010PropOp55
 70
     1
102
RTVSPost2010Prop56
140
1.0
102
RTVSPost2010PropOp56
 70
     1
102
RTVSPost2010Prop57
140
1.0
102
RTVSPost2010PropOp57
 70
     1
102
RTVSPropertyOp0
 70
     1
102
RTVSPropertyOp1
 70
     1
102
RTVSPropertyOp2
 70
     1
102
RTVSPropertyOp3
 70
     1
102
RTVSPropertyOp4
 70
     1
102
RTVSPropertyOp5
 70
     1
102
RTVSPropertyOp6
 70
     1
102
RTVSPropertyOp7
 70
     1
102
RTVSPropertyOp8
 70
     1
102
RTVSPropertyOp9
 70
     1
102
RTVSPropertyOp10
 70
     1
102
RTVSPropertyOp11
 70
     1
102
RTVSPropertyOp12
 70
     1
102
RTVSPropertyOp13
 70
     1
102
RTVSPropertyOp14
 70
     1
102
RTVSPropertyOp15
 70
     1
102
RTVSPropertyOp16
 70
     1
102
RTVSPropertyOp17
 70
     1
102
RTVSPropertyOp18
 70
     1
102
RTVSPropertyOp19
 70
     1
102
RTVSPropertyOp20
 70
     1
102
RTVSPropertyOp21
 70
     1
102
RTVSPropertyOp22
 70
     1
102
RTVSPropertyOp23
 70
     1
102
RTVSPropertyOp24
 70
     1
102
RTVSPropertyOp25
 70
     1
102
RTVSPropertyOp26
 70
     1
102
RTVSPropertyOp27
 70
     1
102
RTVSPropertyOp28
 70
     1
102
RTVSPropertyOp29
 70
     1
102
RTVSPropertyOp30
 70
     1
102
RTVSPropertyOp31
 70
     1
102
RTVSPropertyOp32
 70
     1
102
RTVSPropertyOp33
 70
     1
102
RTVSPropertyOp34
 70
     1
102
RTVSPropertyOp35
 70
     1
102
RTVSPropertyOp36
 70
     1
102
RTVSPropertyOp37
 70
     1
102
RTVSPropertyOp38
 70
     1
102
RTVSPropertyOp39
 70
     1
102
RTVSPropertyOp40
 70
     1
102
RTVSPropertyOp41
 70
     1
102
RTVSPropertyOp42
 70
     1
102
RTVSPropertyOp43
 70
     1
102
RTVSPropertyOp44
 70
     1
102
RTVSPropertyOp45
 70
     1
102
RTVSPropertyOp46
 70
     1
102
RTVSPropertyOp47
 70
     1
102
RTVSPropertyOp48
 70
     1
102
RTVSPropertyOp49
 70
     1
102
RTVSPropertyOp50
 70
     1
102
RTVSPropertyOp51
 70
     0
102
RTVSPropertyOp52
 70
     0
102
RTVSPropertyOp53
 70
     1
102
RTVSPropertyOp54
 70
     1
102
RTVSPropertyOp55
 70
     1
102
RTVSPropertyOp56
 70
     1
102
RTVSPropertyOp57
 70
     1
102
RTVSPropertyOp58
 70
     1
102
RTVSPropertyOp59
 70
     1
102
RTVSPropertyOp60
 70
     1
102
RTVSPropertyOp61
 70
     1
102
RTVSPropertyOp62
 70
     1
  0
XRECORD
  5
398
102
{ACAD_REACTORS
330
397
102
}
330
397
100
AcDbXrecord
280
     1
102
RTVSPost2010Prop28
280
     0
102
RTVSPost2010PropOp28
 70
     1
102
RTVSPost2010Prop29
280
     1
102
RTVSPost2010PropOp29
 70
     1
102
RTVSPost2010Prop30
280
     1
102
RTVSPost2010PropOp30
 70
     1
102
RTVSPost2010Prop31
280
     0
102
RTVSPost2010PropOp31
 70
     1
102
RTVSPost2010Prop32
280
     0
102
RTVSPost2010PropOp32
 70
     1
102
RTVSPost2010Prop33
280
     0
102
RTVSPost2010PropOp33
 70
     1
102
RTVSPost2010Prop34
280
     0
102
RTVSPost2010PropOp34
 70
     1
102
RTVSPost2010Prop35
280
     0
102
RTVSPost2010PropOp35
 70
     1
102
RTVSPost2010Prop36
280
     0
102
RTVSPost2010PropOp36
 70
     1
102
RTVSPost2010Prop37
 90
       50
102
RTVSPost2010PropOp37
 70
     1
102
RTVSPost2010Prop38
140
0.0
102
RTVSPost2010PropOp38
 70
     1
102
RTVSPost2010Prop39
140
1.0
102
RTVSPost2010PropOp39
 70
     1
102
RTVSPost2010Prop40
 90
        0
102
RTVSPost2010PropOp40
 70
     1
102
RTVSPost2010Prop41ColorIndex
 90
       18
102
RTVSPost2010Prop41ColorRGB
 90
        0
102
RTVSPost2010PropOp41
 70
     1
102
RTVSPost2010Prop42
 90
       50
102
RTVSPost2010PropOp42
 70
     1
102
RTVSPost2010Prop43
 90
        3
102
RTVSPost2010PropOp43
 70
     1
102
RTVSPost2010Prop44ColorIndex
 90
        5
102
RTVSPost2010Prop44ColorRGB
 90
      255
102
RTVSPost2010PropOp44
 70
     1
102
RTVSPost2010Prop45
280
     0
102
RTVSPost2010PropOp45
 70
     1
102
RTVSPost2010Prop46
 90
       50
102
RTVSPost2010PropOp46
 70
     1
102
RTVSPost2010Prop47
 90
       50
102
RTVSPost2010PropOp47
 70
     1
102
RTVSPost2010Prop48
 90
       50
102
RTVSPost2010PropOp48
 70
     1
102
RTVSPost2010Prop49
280
     0
102
RTVSPost2010PropOp49
 70
     1
102
RTVSPost2010Prop50
 90
       50
102
RTVSPost2010PropOp50
 70
     1
102
RTVSPost2010Prop51ColorIndex
 90
      256
102
RTVSPost2010Prop51ColorRGB
 90
-16777216
102
RTVSPost2010PropOp51
 70
     0
102
RTVSPost2010Prop52
140
1.0
102
RTVSPost2010PropOp52
 70
     0
102
RTVSPost2010Prop53
 90
        2
102
RTVSPost2010PropOp53
 70
     1
102
RTVSPost2010Prop54
  1
strokes_ogs.tif
102
RTVSPost2010PropOp54
 70
     1
102
RTVSPost2010Prop55
280
     0
102
RTVSPost2010PropOp55
 70
     1
102
RTVSPost2010Prop56
140
1.0
102
RTVSPost2010PropOp56
 70
     1
102
RTVSPost2010Prop57
140
1.0
102
RTVSPost2010PropOp57
 70
     1
102
RTVSPropertyOp0
 70
     1
102
RTVSPropertyOp1
 70
     1
102
RTVSPropertyOp2
 70
     1
102
RTVSPropertyOp3
 70
     1
102
RTVSPropertyOp4
 70
     1
102
RTVSPropertyOp5
 70
     1
102
RTVSPropertyOp6
 70
     1
102
RTVSPropertyOp7
 70
     1
102
RTVSPropertyOp8
 70
     1
102
RTVSPropertyOp9
 70
     1
102
RTVSPropertyOp10
 70
     1
102
RTVSPropertyOp11
 70
     1
102
RTVSPropertyOp12
 70
     1
102
RTVSPropertyOp13
 70
     1
102
RTVSPropertyOp14
 70
     1
102
RTVSPropertyOp15
 70
     1
102
RTVSPropertyOp16
 70
     1
102
RTVSPropertyOp17
 70
     1
102
RTVSPropertyOp18
 70
     1
102
RTVSPropertyOp19
 70
     1
102
RTVSPropertyOp20
 70
     1
102
RTVSPropertyOp21
 70
     1
102
RTVSPropertyOp22
 70
     1
102
RTVSPropertyOp23
 70
     1
102
RTVSPropertyOp24
 70
     1
102
RTVSPropertyOp25
 70
     1
102
RTVSPropertyOp26
 70
     1
102
RTVSPropertyOp27
 70
     1
102
RTVSPropertyOp28
 70
     1
102
RTVSPropertyOp29
 70
     1
102
RTVSPropertyOp30
 70
     1
102
RTVSPropertyOp31
 70
     1
102
RTVSPropertyOp32
 70
     1
102
RTVSPropertyOp33
 70
     1
102
RTVSPropertyOp34
 70
     1
102
RTVSPropertyOp35
 70
     1
102
RTVSPropertyOp36
 70
     1
102
RTVSPropertyOp37
 70
     1
102
RTVSPropertyOp38
 70
     1
102
RTVSPropertyOp39
 70
     1
102
RTVSPropertyOp40
 70
     1
102
RTVSPropertyOp41
 70
     1
102
RTVSPropertyOp42
 70
     1
102
RTVSPropertyOp43
 70
     1
102
RTVSPropertyOp44
 70
     1
102
RTVSPropertyOp45
 70
     1
102
RTVSPropertyOp46
 70
     1
102
RTVSPropertyOp47
 70
     1
102
RTVSPropertyOp48
 70
     1
102
RTVSPropertyOp49
 70
     1
102
RTVSPropertyOp50
 70
     1
102
RTVSPropertyOp51
 70
     0
102
RTVSPropertyOp52
 70
     0
102
RTVSPropertyOp53
 70
     1
102
RTVSPropertyOp54
 70
     1
102
RTVSPropertyOp55
 70
     1
102
RTVSPropertyOp56
 70
     1
102
RTVSPropertyOp57
 70
     1
102
RTVSPropertyOp58
 70
     1
102
RTVSPropertyOp59
 70
     1
102
RTVSPropertyOp60
 70
     1
102
RTVSPropertyOp61
 70
     1
102
RTVSPropertyOp62
 70
     1
  0
XRECORD
  5
3B8
102
{ACAD_REACTORS
330
3B7
102
}
330
3B7
100
AcDbXrecord
280
     1
102
RTVSPost2010Prop28
280
     0
102
RTVSPost2010PropOp28
 70
     1
102
RTVSPost2010Prop29
280
     1
102
RTVSPost2010PropOp29
 70
     1
102
RTVSPost2010Prop30
280
     1
102
RTVSPost2010PropOp30
 70
     1
102
RTVSPost2010Prop31
280
     0
102
RTVSPost2010PropOp31
 70
     1
102
RTVSPost2010Prop32
280
     0
102
RTVSPost2010PropOp32
 70
     1
102
RTVSPost2010Prop33
280
     0
102
RTVSPost2010PropOp33
 70
     1
102
RTVSPost2010Prop34
280
     0
102
RTVSPost2010PropOp34
 70
     1
102
RTVSPost2010Prop35
280
     0
102
RTVSPost2010PropOp35
 70
     1
102
RTVSPost2010Prop36
280
     0
102
RTVSPost2010PropOp36
 70
     1
102
RTVSPost2010Prop37
 90
       50
102
RTVSPost2010PropOp37
 70
     1
102
RTVSPost2010Prop38
140
0.0
102
RTVSPost2010PropOp38
 70
     1
102
RTVSPost2010Prop39
140
1.0
102
RTVSPost2010PropOp39
 70
     1
102
RTVSPost2010Prop40
 90
        0
102
RTVSPost2010PropOp40
 70
     1
102
RTVSPost2010Prop41ColorIndex
 90
       18
102
RTVSPost2010Prop41ColorRGB
 90
        0
102
RTVSPost2010PropOp41
 70
     1
102
RTVSPost2010Prop42
 90
       50
102
RTVSPost2010PropOp42
 70
     1
102
RTVSPost2010Prop43
 90
        3
102
RTVSPost2010PropOp43
 70
     1
102
RTVSPost2010Prop44ColorIndex
 90
        5
102
RTVSPost2010Prop44ColorRGB
 90
      255
102
RTVSPost2010PropOp44
 70
     1
102
RTVSPost2010Prop45
280
     0
102
RTVSPost2010PropOp45
 70
     1
102
RTVSPost2010Prop46
 90
       50
102
RTVSPost2010PropOp46
 70
     1
102
RTVSPost2010Prop47
 90
       50
102
RTVSPost2010PropOp47
 70
     1
102
RTVSPost2010Prop48
 90
       50
102
RTVSPost2010PropOp48
 70
     1
102
RTVSPost2010Prop49
280
     0
102
RTVSPost2010PropOp49
 70
     1
102
RTVSPost2010Prop50
 90
       50
102
RTVSPost2010PropOp50
 70
     1
102
RTVSPost2010Prop51ColorIndex
 90
      256
102
RTVSPost2010Prop51ColorRGB
 90
-16777216
102
RTVSPost2010PropOp51
 70
     0
102
RTVSPost2010Prop52
140
1.0
102
RTVSPost2010PropOp52
 70
     0
102
RTVSPost2010Prop53
 90
        2
102
RTVSPost2010PropOp53
 70
     1
102
RTVSPost2010Prop54
  1
strokes_ogs.tif
102
RTVSPost2010PropOp54
 70
     1
102
RTVSPost2010Prop55
280
     0
102
RTVSPost2010PropOp55
 70
     1
102
RTVSPost2010Prop56
140
1.0
102
RTVSPost2010PropOp56
 70
     1
102
RTVSPost2010Prop57
140
1.0
102
RTVSPost2010PropOp57
 70
     1
102
RTVSPropertyOp0
 70
     1
102
RTVSPropertyOp1
 70
     1
102
RTVSPropertyOp2
 70
     1
102
RTVSPropertyOp3
 70
     1
102
RTVSPropertyOp4
 70
     1
102
RTVSPropertyOp5
 70
     1
102
RTVSPropertyOp6
 70
     1
102
RTVSPropertyOp7
 70
     1
102
RTVSPropertyOp8
 70
     1
102
RTVSPropertyOp9
 70
     1
102
RTVSPropertyOp10
 70
     1
102
RTVSPropertyOp11
 70
     1
102
RTVSPropertyOp12
 70
     1
102
RTVSPropertyOp13
 70
     1
102
RTVSPropertyOp14
 70
     1
102
RTVSPropertyOp15
 70
     1
102
RTVSPropertyOp16
 70
     1
102
RTVSPropertyOp17
 70
     1
102
RTVSPropertyOp18
 70
     1
102
RTVSPropertyOp19
 70
     1
102
RTVSPropertyOp20
 70
     1
102
RTVSPropertyOp21
 70
     1
102
RTVSPropertyOp22
 70
     1
102
RTVSPropertyOp23
 70
     1
102
RTVSPropertyOp24
 70
     1
102
RTVSPropertyOp25
 70
     1
102
RTVSPropertyOp26
 70
     1
102
RTVSPropertyOp27
 70
     1
102
RTVSPropertyOp28
 70
     1
102
RTVSPropertyOp29
 70
     1
102
RTVSPropertyOp30
 70
     1
102
RTVSPropertyOp31
 70
     1
102
RTVSPropertyOp32
 70
     1
102
RTVSPropertyOp33
 70
     1
102
RTVSPropertyOp34
 70
     1
102
RTVSPropertyOp35
 70
     1
102
RTVSPropertyOp36
 70
     1
102
RTVSPropertyOp37
 70
     1
102
RTVSPropertyOp38
 70
     1
102
RTVSPropertyOp39
 70
     1
102
RTVSPropertyOp40
 70
     1
102
RTVSPropertyOp41
 70
     1
102
RTVSPropertyOp42
 70
     1
102
RTVSPropertyOp43
 70
     1
102
RTVSPropertyOp44
 70
     1
102
RTVSPropertyOp45
 70
     1
102
RTVSPropertyOp46
 70
     1
102
RTVSPropertyOp47
 70
     1
102
RTVSPropertyOp48
 70
     1
102
RTVSPropertyOp49
 70
     1
102
RTVSPropertyOp50
 70
     1
102
RTVSPropertyOp51
 70
     0
102
RTVSPropertyOp52
 70
     0
102
RTVSPropertyOp53
 70
     1
102
RTVSPropertyOp54
 70
     1
102
RTVSPropertyOp55
 70
     1
102
RTVSPropertyOp56
 70
     1
102
RTVSPropertyOp57
 70
     1
102
RTVSPropertyOp58
 70
     1
102
RTVSPropertyOp59
 70
     1
102
RTVSPropertyOp60
 70
     1
102
RTVSPropertyOp61
 70
     1
102
RTVSPropertyOp62
 70
     1
  0
ENDSEC
  0
EOF
