  0
SECTION
  2
HEADER
  9
$ACADVER
  1
AC1018
  9
$ACADMAINTVER
 70
   104
  9
$DWGCODEPAGE
  3
ANSI_1250
  9
$LASTSAVEDBY
  1
wq7085
  9
$INSBASE
 10
0.0
 20
0.0
 30
0.0
  9
$EXTMIN
 10
187.3182523333333
 20
122.034924
 30
0.0
  9
$EXTMAX
 10
394.630859
 20
336.3252656666668
 30
0.0
  9
$LIMMIN
 10
-0.5
 20
-0.5
  9
$LIMMAX
 10
5.0
 20
5.0
  9
$ORTHOMODE
 70
     0
  9
$REGENMODE
 70
     1
  9
$FILLMODE
 70
     1
  9
$QTEXTMODE
 70
     0
  9
$MIRRTEXT
 70
     1
  9
$LTSCALE
 40
1.0
  9
$ATTMODE
 70
     1
  9
$TEXTSIZE
 40
0.2
  9
$TRACEWID
 40
0.05
  9
$TEXTSTYLE
  7
Standard
  9
$CLAYER
  8
0
  9
$CELTYPE
  6
ByLayer
  9
$CECOLOR
 62
   256
  9
$CELTSCALE
 40
1.0
  9
$DISPSILH
 70
     0
  9
$DIMSCALE
 40
1.0
  9
$DIMASZ
 40
0.18
  9
$DIMEXO
 40
0.0625
  9
$DIMDLI
 40
0.38
  9
$DIMRND
 40
0.0
  9
$DIMDLE
 40
0.0
  9
$DIMEXE
 40
0.18
  9
$DIMTP
 40
0.0
  9
$DIMTM
 40
0.0
  9
$DIMTXT
 40
0.18
  9
$DIMCEN
 40
0.09
  9
$DIMTSZ
 40
0.0
  9
$DIMTOL
 70
     0
  9
$DIMLIM
 70
     0
  9
$DIMTIH
 70
     1
  9
$DIMTOH
 70
     1
  9
$DIMSE1
 70
     0
  9
$DIMSE2
 70
     0
  9
$DIMTAD
 70
     0
  9
$DIMZIN
 70
     0
  9
$DIMBLK
  1

  9
$DIMASO
 70
     1
  9
$DIMSHO
 70
     1
  9
$DIMPOST
  1

  9
$DIMAPOST
  1

  9
$DIMALT
 70
     0
  9
$DIMALTD
 70
     2
  9
$DIMALTF
 40
25.4
  9
$DIMLFAC
 40
1.0
  9
$DIMTOFL
 70
     0
  9
$DIMTVP
 40
0.0
  9
$DIMTIX
 70
     0
  9
$DIMSOXD
 70
     0
  9
$DIMSAH
 70
     0
  9
$DIMBLK1
  1

  9
$DIMBLK2
  1

  9
$DIMSTYLE
  2
Standard
  9
$DIMCLRD
 70
     0
  9
$DIMCLRE
 70
     0
  9
$DIMCLRT
 70
     0
  9
$DIMTFAC
 40
1.0
  9
$DIMGAP
 40
0.09
  9
$DIMJUST
 70
     0
  9
$DIMSD1
 70
     0
  9
$DIMSD2
 70
     0
  9
$DIMTOLJ
 70
     1
  9
$DIMTZIN
 70
     0
  9
$DIMALTZ
 70
     0
  9
$DIMALTTZ
 70
     0
  9
$DIMUPT
 70
     0
  9
$DIMDEC
 70
     4
  9
$DIMTDEC
 70
     4
  9
$DIMALTU
 70
     2
  9
$DIMALTTD
 70
     2
  9
$DIMTXSTY
  7
Standard
  9
$DIMAUNIT
 70
     0
  9
$DIMADEC
 70
     0
  9
$DIMALTRND
 40
0.0
  9
$DIMAZIN
 70
     0
  9
$DIMDSEP
 70
    46
  9
$DIMATFIT
 70
     3
  9
$DIMFRAC
 70
     0
  9
$DIMLDRBLK
  1

  9
$DIMLUNIT
 70
     2
  9
$DIMLWD
 70
    -2
  9
$DIMLWE
 70
    -2
  9
$DIMTMOVE
 70
     0
  9
$LUNITS
 70
     2
  9
$LUPREC
 70
     4
  9
$SKETCHINC
 40
0.1
  9
$FILLETRAD
 40
0.5
  9
$AUNITS
 70
     0
  9
$AUPREC
 70
     0
  9
$MENU
  1
.
  9
$ELEVATION
 40
0.0
  9
$PELEVATION
 40
0.0
  9
$THICKNESS
 40
0.0
  9
$LIMCHECK
 70
     0
  9
$CHAMFERA
 40
0.0
  9
$CHAMFERB
 40
0.0
  9
$CHAMFERC
 40
0.0
  9
$CHAMFERD
 40
0.0
  9
$SKPOLY
 70
     0
  9
$TDCREATE
 40
2459087.312905093
  9
$TDUCREATE
 40
2459087.229578230
  9
$TDUPDATE
 40
2459087.324629630
  9
$TDUUPDATE
 40
2459087.241296296
  9
$TDINDWG
 40
0.0005439931
  9
$TDUSRTIMER
 40
0.0005439931
  9
$USRTIMER
 70
     1
  9
$ANGBASE
 50
0.0
  9
$ANGDIR
 70
     0
  9
$PDMODE
 70
     0
  9
$PDSIZE
 40
0.0
  9
$PLINEWID
 40
0.0
  9
$SPLFRAME
 70
     0
  9
$SPLINETYPE
 70
     6
  9
$SPLINESEGS
 70
     8
  9
$HANDSEED
  5
3A1
  9
$SURFTAB1
 70
     6
  9
$SURFTAB2
 70
     6
  9
$SURFTYPE
 70
     6
  9
$SURFU
 70
     6
  9
$SURFV
 70
     6
  9
$UCSBASE
  2

  9
$UCSNAME
  2

  9
$UCSORG
 10
274.404842
 20
288.907994
 30
0.0
  9
$UCSXDIR
 10
1.0
 20
0.0
 30
0.0
  9
$UCSYDIR
 10
0.0
 20
1.0
 30
0.0
  9
$UCSORTHOREF
  2

  9
$UCSORTHOVIEW
 70
     0
  9
$UCSORGTOP
 10
0.0
 20
0.0
 30
0.0
  9
$UCSORGBOTTOM
 10
0.0
 20
0.0
 30
0.0
  9
$UCSORGLEFT
 10
0.0
 20
0.0
 30
0.0
  9
$UCSORGRIGHT
 10
0.0
 20
0.0
 30
0.0
  9
$UCSORGFRONT
 10
0.0
 20
0.0
 30
0.0
  9
$UCSORGBACK
 10
0.0
 20
0.0
 30
0.0
  9
$PUCSBASE
  2

  9
$PUCSNAME
  2

  9
$PUCSORG
 10
0.0
 20
0.0
 30
0.0
  9
$PUCSXDIR
 10
1.0
 20
0.0
 30
0.0
  9
$PUCSYDIR
 10
0.0
 20
1.0
 30
0.0
  9
$PUCSORTHOREF
  2

  9
$PUCSORTHOVIEW
 70
     0
  9
$PUCSORGTOP
 10
0.0
 20
0.0
 30
0.0
  9
$PUCSORGBOTTOM
 10
0.0
 20
0.0
 30
0.0
  9
$PUCSORGLEFT
 10
0.0
 20
0.0
 30
0.0
  9
$PUCSORGRIGHT
 10
0.0
 20
0.0
 30
0.0
  9
$PUCSORGFRONT
 10
0.0
 20
0.0
 30
0.0
  9
$PUCSORGBACK
 10
0.0
 20
0.0
 30
0.0
  9
$USERI1
 70
     0
  9
$USERI2
 70
     0
  9
$USERI3
 70
     0
  9
$USERI4
 70
     0
  9
$USERI5
 70
     0
  9
$USERR1
 40
0.0
  9
$USERR2
 40
0.0
  9
$USERR3
 40
0.0
  9
$USERR4
 40
0.0
  9
$USERR5
 40
0.0
  9
$WORLDVIEW
 70
     1
  9
$SHADEDGE
 70
     3
  9
$SHADEDIF
 70
    70
  9
$TILEMODE
 70
     1
  9
$MAXACTVP
 70
    64
  9
$PINSBASE
 10
0.0
 20
0.0
 30
0.0
  9
$PLIMCHECK
 70
     0
  9
$PEXTMIN
 10
-0.5
 20
-0.5
 30
-0.5
  9
$PEXTMAX
 10
5.0
 20
5.0
 30
5.0
  9
$PLIMMIN
 10
-0.5
 20
-0.5
  9
$PLIMMAX
 10
5.0
 20
5.0
  9
$UNITMODE
 70
     0
  9
$VISRETAIN
 70
     1
  9
$PLINEGEN
 70
     0
  9
$PSLTSCALE
 70
     1
  9
$TREEDEPTH
 70
  3020
  9
$CMLSTYLE
  2
Standard
  9
$CMLJUST
 70
     0
  9
$CMLSCALE
 40
1.0
  9
$PROXYGRAPHICS
 70
     1
  9
$MEASUREMENT
 70
     1
  9
$CELWEIGHT
370
    13
  9
$ENDCAPS
280
     0
  9
$JOINSTYLE
280
     0
  9
$LWDISPLAY
290
     0
  9
$INSUNITS
 70
     4
  9
$HYPERLINKBASE
  1

  9
$STYLESHEET
  1

  9
$XEDIT
290
     1
  9
$CEPSNTYPE
380
     0
  9
$PSTYLEMODE
290
     1
  9
$FINGERPRINTGUID
  2
{F94684EF-4497-4701-B8D3-ECB63AE9A32F}
  9
$VERSIONGUID
  2
{83EDD299-3F57-D143-8C95-309797692E2D}
  9
$EXTNAMES
290
     1
  9
$PSVPSCALE
 40
0.0
  9
$OLESTARTUP
290
     0
  9
$SORTENTS
280
   127
  9
$INDEXCTL
280
     0
  9
$HIDETEXT
280
     1
  9
$XCLIPFRAME
290
     0
  9
$HALOGAP
280
     0
  9
$OBSCOLOR
 70
   257
  9
$OBSLTYPE
280
     0
  9
$INTERSECTIONDISPLAY
280
     0
  9
$INTERSECTIONCOLOR
 70
   257
  9
$DIMASSOC
280
     2
  9
$PROJECTNAME
  1

  0
ENDSEC
  0
SECTION
  2
CLASSES
  0
CLASS
  1
ACDBDICTIONARYWDFLT
  2
AcDbDictionaryWithDefault
  3
ObjectDBX Classes
 90
        0
 91
        1
280
     0
281
     0
  0
CLASS
  1
VISUALSTYLE
  2
AcDbVisualStyle
  3
ObjectDBX Classes
 90
     4095
 91
       24
280
     0
281
     0
  0
CLASS
  1
MATERIAL
  2
AcDbMaterial
  3
ObjectDBX Classes
 90
     1153
 91
        3
280
     0
281
     0
  0
CLASS
  1
SCALE
  2
AcDbScale
  3
ObjectDBX Classes
 90
     1153
 91
       33
280
     0
281
     0
  0
CLASS
  1
TABLESTYLE
  2
AcDbTableStyle
  3
ObjectDBX Classes
 90
     4095
 91
        1
280
     0
281
     0
  0
CLASS
  1
MLEADERSTYLE
  2
AcDbMLeaderStyle
  3
ACDB_MLEADERSTYLE_CLASS
 90
     4095
 91
        1
280
     0
281
     0
  0
CLASS
  1
SUN
  2
AcDbSun
  3
SCENEOE
 90
     1153
 91
        0
280
     0
281
     0
  0
CLASS
  1
DIMASSOC
  2
AcDbDimAssoc
  3
"AcDbDimAssoc|Product Desc:     AcDim ARX App For Dimension|Company:          Autodesk, Inc.|WEB Address:      www.autodesk.com"
 90
        0
 91
        7
280
     0
281
     0
  0
CLASS
  1
DICTIONARYVAR
  2
AcDbDictionaryVar
  3
ObjectDBX Classes
 90
        0
 91
        8
280
     0
281
     0
  0
CLASS
  1
CELLSTYLEMAP
  2
AcDbCellStyleMap
  3
ObjectDBX Classes
 90
     1152
 91
        2
280
     0
281
     0
  0
CLASS
  1
ACDBSECTIONVIEWSTYLE
  2
AcDbSectionViewStyle
  3
ObjectDBX Classes
 90
     1025
 91
        1
280
     0
281
     0
  0
CLASS
  1
ACDBDETAILVIEWSTYLE
  2
AcDbDetailViewStyle
  3
ObjectDBX Classes
 90
     1025
 91
        1
280
     0
281
     0
  0
CLASS
  1
SORTENTSTABLE
  2
AcDbSortentsTable
  3
ObjectDBX Classes
 90
        0
 91
        1
280
     0
281
     0
  0
ENDSEC
  0
SECTION
  2
TABLES
  0
TABLE
  2
VPORT
  5
8
330
0
100
AcDbSymbolTable
 70
    16
  0
VPORT
  5
29
330
8
100
AcDbSymbolTableRecord
100
AcDbViewportTableRecord
  2
*Active
 70
     0
 10
0.0
 20
0.0
 11
1.0
 21
1.0
 12
292.774925498847
 22
278.9958563225123
 13
0.0
 23
0.0
 14
0.5
 24
0.5
 15
0.5
 25
0.5
 16
0.0
 26
0.0
 36
1.0
 17
0.0
 27
0.0
 37
0.0
 40
207.4880386686154
 41
2.292712066905615
 42
50.0
 43
393.273515
 44
-393.273515
 50
0.0
 51
0.0
 71
     0
 72
   100
 73
     1
 74
     3
 75
     0
 76
     0
 77
     0
 78
     0
281
     0
 65
     1
110
274.404842
120
288.907994
130
0.0
111
1.0
121
0.0
131
0.0
112
0.0
122
1.0
132
0.0
 79
     0
146
0.0
1001
ACAD_NAV_VCDISPLAY
1070
     3
  0
VPORT
  5
2A5
330
8
100
AcDbSymbolTableRecord
100
AcDbViewportTableRecord
  2
L1
 70
     0
 10
0.0
 20
0.0
 11
1.0
 21
1.0
 12
290.470345
 22
229.133193
 13
0.0
 23
0.0
 14
0.5
 24
0.5
 15
0.5
 25
0.5
 16
0.0
 26
0.0
 36
1.0
 17
0.0
 27
0.0
 37
0.0
 40
207.433333
 41
0.085602
 42
50.0
 43
393.273515
 44
-393.273515
 50
0.0
 51
0.0
 71
     0
 72
   100
 73
     1
 74
     3
 75
     0
 76
     0
 77
     0
 78
     0
281
     0
 65
     1
110
0.0
120
0.0
130
0.0
111
1.0
121
0.0
131
0.0
112
0.0
122
1.0
132
0.0
 79
     0
146
0.0
  0
VPORT
  5
2A6
330
8
100
AcDbSymbolTableRecord
100
AcDbViewportTableRecord
  2
L2
 70
     0
 10
0.0
 20
0.0
 11
0.5
 21
1.0
 12
0.0
 22
0.0
 13
0.0
 23
0.0
 14
0.5
 24
0.5
 15
0.5
 25
0.5
 16
0.0
 26
-1.0
 36
0.0
 17
0.0
 27
0.0
 37
0.0
 40
1316.18997
 41
0.013491
 42
50.0
 43
678.00864
 44
-678.00864
 50
0.0
 51
0.0
 71
     0
 72
   100
 73
     1
 74
     3
 75
     0
 76
     0
 77
     0
 78
     0
281
     0
 65
     1
110
0.0
120
0.0
130
0.0
111
1.0
121
0.0
131
0.0
112
0.0
122
1.0
132
0.0
 79
     0
146
0.0
  0
VPORT
  5
2A7
330
8
100
AcDbSymbolTableRecord
100
AcDbViewportTableRecord
  2
L2
 70
     0
 10
0.5
 20
0.0
 11
1.0
 21
1.0
 12
0.0
 22
0.0
 13
0.0
 23
0.0
 14
0.5
 24
0.5
 15
0.5
 25
0.5
 16
1.0
 26
0.0
 36
0.0
 17
0.0
 27
0.0
 37
0.0
 40
1316.18997
 41
0.013491
 42
50.0
 43
666.2177989999999
 44
-666.2177989999999
 50
0.0
 51
0.0
 71
     0
 72
   100
 73
     1
 74
     3
 75
     0
 76
     0
 77
     0
 78
     0
281
     0
 65
     1
110
0.0
120
0.0
130
0.0
111
1.0
121
0.0
131
0.0
112
0.0
122
1.0
132
0.0
 79
     0
146
0.0
  0
VPORT
  5
2A8
330
8
100
AcDbSymbolTableRecord
100
AcDbViewportTableRecord
  2
L3
 70
     0
 10
0.0
 20
0.5
 11
1.0
 21
1.0
 12
290.470345
 22
229.133193
 13
0.0
 23
0.0
 14
0.5
 24
0.5
 15
0.5
 25
0.5
 16
0.0
 26
0.0
 36
1.0
 17
0.0
 27
0.0
 37
0.0
 40
207.433333
 41
0.085602
 42
50.0
 43
393.273515
 44
-393.273515
 50
0.0
 51
0.0
 71
     0
 72
   100
 73
     1
 74
     3
 75
     0
 76
     0
 77
     0
 78
     0
281
     0
 65
     1
110
0.0
120
0.0
130
0.0
111
1.0
121
0.0
131
0.0
112
0.0
122
1.0
132
0.0
 79
     0
146
0.0
  0
VPORT
  5
2A9
330
8
100
AcDbSymbolTableRecord
100
AcDbViewportTableRecord
  2
L3
 70
     0
 10
0.0
 20
0.0
 11
1.0
 21
0.5
 12
0.0
 22
0.0
 13
0.0
 23
0.0
 14
0.5
 24
0.5
 15
0.5
 25
0.5
 16
0.0
 26
-1.0
 36
0.0
 17
0.0
 27
0.0
 37
0.0
 40
1316.18997
 41
0.013491
 42
50.0
 43
678.00864
 44
-678.00864
 50
0.0
 51
0.0
 71
     0
 72
   100
 73
     1
 74
     3
 75
     0
 76
     0
 77
     0
 78
     0
281
     0
 65
     1
110
0.0
120
0.0
130
0.0
111
1.0
121
0.0
131
0.0
112
0.0
122
1.0
132
0.0
 79
     0
146
0.0
  0
VPORT
  5
2AA
330
8
100
AcDbSymbolTableRecord
100
AcDbViewportTableRecord
  2
L4
 70
     0
 10
0.0
 20
0.5
 11
0.5
 21
1.0
 12
290.470345
 22
229.133193
 13
0.0
 23
0.0
 14
0.5
 24
0.5
 15
0.5
 25
0.5
 16
0.0
 26
0.0
 36
1.0
 17
0.0
 27
0.0
 37
0.0
 40
207.433333
 41
0.085602
 42
50.0
 43
393.273515
 44
-393.273515
 50
0.0
 51
0.0
 71
     0
 72
   100
 73
     1
 74
     3
 75
     0
 76
     0
 77
     0
 78
     0
281
     0
 65
     1
110
0.0
120
0.0
130
0.0
111
1.0
121
0.0
131
0.0
112
0.0
122
1.0
132
0.0
 79
     0
146
0.0
  0
VPORT
  5
2AB
330
8
100
AcDbSymbolTableRecord
100
AcDbViewportTableRecord
  2
L4
 70
     0
 10
0.0
 20
0.0
 11
0.5
 21
0.5
 12
0.0
 22
0.0
 13
0.0
 23
0.0
 14
0.5
 24
0.5
 15
0.5
 25
0.5
 16
0.0
 26
-1.0
 36
0.0
 17
0.0
 27
0.0
 37
0.0
 40
1316.18997
 41
0.013491
 42
50.0
 43
678.00864
 44
-678.00864
 50
0.0
 51
0.0
 71
     0
 72
   100
 73
     1
 74
     3
 75
     0
 76
     0
 77
     0
 78
     0
281
     0
 65
     1
110
0.0
120
0.0
130
0.0
111
1.0
121
0.0
131
0.0
112
0.0
122
1.0
132
0.0
 79
     0
146
0.0
  0
VPORT
  5
2AC
330
8
100
AcDbSymbolTableRecord
100
AcDbViewportTableRecord
  2
L4
 70
     0
 10
0.5
 20
0.0
 11
1.0
 21
0.5
 12
0.0
 22
0.0
 13
0.0
 23
0.0
 14
0.5
 24
0.5
 15
0.5
 25
0.5
 16
1.0
 26
0.0
 36
0.0
 17
0.0
 27
0.0
 37
0.0
 40
1316.18997
 41
0.013491
 42
50.0
 43
666.2177989999999
 44
-666.2177989999999
 50
0.0
 51
0.0
 71
     0
 72
   100
 73
     1
 74
     3
 75
     0
 76
     0
 77
     0
 78
     0
281
     0
 65
     1
110
0.0
120
0.0
130
0.0
111
1.0
121
0.0
131
0.0
112
0.0
122
1.0
132
0.0
 79
     0
146
0.0
  0
VPORT
  5
2AD
330
8
100
AcDbSymbolTableRecord
100
AcDbViewportTableRecord
  2
L4
 70
     0
 10
0.5
 20
0.5
 11
1.0
 21
1.0
 12
0.0
 22
0.0
 13
0.0
 23
0.0
 14
0.5
 24
0.5
 15
0.5
 25
0.5
 16
0.5773502691896259
 26
-0.5773502691896259
 36
0.5773502691896259
 17
0.0
 27
0.0
 37
0.0
 40
1292.532264
 41
0.013738
 42
50.0
 43
673.245608
 44
-673.245608
 50
0.0
 51
0.0
 71
     0
 72
   100
 73
     1
 74
     3
 75
     0
 76
     0
 77
     0
 78
     0
281
     0
 65
     1
110
0.0
120
0.0
130
0.0
111
1.0
121
0.0
131
0.0
112
0.0
122
1.0
132
0.0
 79
     0
146
0.0
  0
VPORT
  5
2AE
330
8
100
AcDbSymbolTableRecord
100
AcDbViewportTableRecord
  2
L6
 70
     0
 10
0.0
 20
0.5
 11
0.333333
 21
1.0
 12
0.0
 22
0.0
 13
0.0
 23
0.0
 14
0.5
 24
0.5
 15
0.5
 25
0.5
 16
0.7188730927569434
 26
-0.5850486126764433
 36
0.3754192287502549
 17
0.0
 27
0.0
 37
0.0
 40
1364.064247
 41
0.013018
 42
50.0
 43
706.2613849999999
 44
-706.2613849999999
 50
0.0
 51
0.0
 71
     0
 72
   100
 73
     1
 74
     3
 75
     0
 76
     0
 77
     0
 78
     0
281
     0
 65
     1
110
0.0
120
0.0
130
0.0
111
1.0
121
0.0
131
0.0
112
0.0
122
1.0
132
0.0
 79
     0
146
0.0
  0
VPORT
  5
2AF
330
8
100
AcDbSymbolTableRecord
100
AcDbViewportTableRecord
  2
L6
 70
     0
 10
0.0
 20
0.0
 11
0.333333
 21
0.5
 12
0.0
 22
0.0
 13
0.0
 23
0.0
 14
0.5
 24
0.5
 15
0.5
 25
0.5
 16
-1.0
 26
0.0
 36
0.0
 17
0.0
 27
0.0
 37
0.0
 40
1316.18997
 41
0.013491
 42
50.0
 43
666.2177989999999
 44
-666.2177989999999
 50
0.0
 51
0.0
 71
     0
 72
   100
 73
     1
 74
     3
 75
     0
 76
     0
 77
     0
 78
     0
281
     0
 65
     1
110
0.0
120
0.0
130
0.0
111
1.0
121
0.0
131
0.0
112
0.0
122
1.0
132
0.0
 79
     0
146
0.0
  0
VPORT
  5
2B0
330
8
100
AcDbSymbolTableRecord
100
AcDbViewportTableRecord
  2
L6
 70
     0
 10
0.333333
 20
0.5
 11
0.666667
 21
1.0
 12
290.470345
 22
229.133193
 13
0.0
 23
0.0
 14
0.5
 24
0.5
 15
0.5
 25
0.5
 16
0.0
 26
0.0
 36
1.0
 17
0.0
 27
0.0
 37
0.0
 40
207.433333
 41
0.085602
 42
50.0
 43
393.273515
 44
-393.273515
 50
0.0
 51
0.0
 71
     0
 72
   100
 73
     1
 74
     3
 75
     0
 76
     0
 77
     0
 78
     0
281
     0
 65
     1
110
0.0
120
0.0
130
0.0
111
1.0
121
0.0
131
0.0
112
0.0
122
1.0
132
0.0
 79
     0
146
0.0
  0
VPORT
  5
2B1
330
8
100
AcDbSymbolTableRecord
100
AcDbViewportTableRecord
  2
L6
 70
     0
 10
0.333333
 20
0.0
 11
0.666667
 21
0.5
 12
0.0
 22
0.0
 13
0.0
 23
0.0
 14
0.5
 24
0.5
 15
0.5
 25
0.5
 16
0.0
 26
-1.0
 36
0.0
 17
0.0
 27
0.0
 37
0.0
 40
1316.18997
 41
0.013491
 42
50.0
 43
678.00864
 44
-678.00864
 50
0.0
 51
0.0
 71
     0
 72
   100
 73
     1
 74
     3
 75
     0
 76
     0
 77
     0
 78
     0
281
     0
 65
     1
110
0.0
120
0.0
130
0.0
111
1.0
121
0.0
131
0.0
112
0.0
122
1.0
132
0.0
 79
     0
146
0.0
  0
VPORT
  5
2B2
330
8
100
AcDbSymbolTableRecord
100
AcDbViewportTableRecord
  2
L6
 70
     0
 10
0.666667
 20
0.5
 11
1.0
 21
1.0
 12
0.0
 22
0.0
 13
0.0
 23
0.0
 14
0.5
 24
0.5
 15
0.5
 25
0.5
 16
0.5773502691896259
 26
-0.5773502691896259
 36
0.5773502691896259
 17
0.0
 27
0.0
 37
0.0
 40
1292.532264
 41
0.013738
 42
50.0
 43
673.245608
 44
-673.245608
 50
0.0
 51
0.0
 71
     0
 72
   100
 73
     1
 74
     3
 75
     0
 76
     0
 77
     0
 78
     0
281
     0
 65
     1
110
0.0
120
0.0
130
0.0
111
1.0
121
0.0
131
0.0
112
0.0
122
1.0
132
0.0
 79
     0
146
0.0
  0
VPORT
  5
2B3
330
8
100
AcDbSymbolTableRecord
100
AcDbViewportTableRecord
  2
L6
 70
     0
 10
0.666667
 20
0.0
 11
1.0
 21
0.5
 12
0.0
 22
0.0
 13
0.0
 23
0.0
 14
0.5
 24
0.5
 15
0.5
 25
0.5
 16
1.0
 26
0.0
 36
0.0
 17
0.0
 27
0.0
 37
0.0
 40
1316.18997
 41
0.013491
 42
50.0
 43
666.2177989999999
 44
-666.2177989999999
 50
0.0
 51
0.0
 71
     0
 72
   100
 73
     1
 74
     3
 75
     0
 76
     0
 77
     0
 78
     0
281
     0
 65
     1
110
0.0
120
0.0
130
0.0
111
1.0
121
0.0
131
0.0
112
0.0
122
1.0
132
0.0
 79
     0
146
0.0
  0
ENDTAB
  0
TABLE
  2
LTYPE
  5
5
330
0
100
AcDbSymbolTable
 70
     7
  0
LTYPE
  5
14
330
5
100
AcDbSymbolTableRecord
100
AcDbLinetypeTableRecord
  2
ByBlock
 70
     0
  3

 72
    65
 73
     0
 40
0.0
  0
LTYPE
  5
15
330
5
100
AcDbSymbolTableRecord
100
AcDbLinetypeTableRecord
  2
ByLayer
 70
     0
  3

 72
    65
 73
     0
 40
0.0
  0
LTYPE
  5
16
330
5
100
AcDbSymbolTableRecord
100
AcDbLinetypeTableRecord
  2
Continuous
 70
     0
  3
Solid line
 72
    65
 73
     0
 40
0.0
  0
LTYPE
  5
6E
330
5
100
AcDbSymbolTableRecord
100
AcDbLinetypeTableRecord
  2
CENTER
 70
     0
  3
____ _ ____ _ ____ _ ____
 72
    65
 73
     4
 40
47.4
 49
22.0
 74
     4
 75
     0
340
0
 46
0.0
 50
0.0
 44
0.0
 45
0.0
 49
-8.5
 74
     4
 75
     0
340
0
 46
0.0
 50
0.0
 44
0.0
 45
0.0
 49
8.5
 74
     4
 75
     0
340
0
 46
0.0
 50
0.0
 44
0.0
 45
0.0
 49
-8.5
 74
     4
 75
     0
340
0
 46
0.0
 50
0.0
 44
0.0
 45
0.0
  0
LTYPE
  5
6F
330
5
100
AcDbSymbolTableRecord
100
AcDbLinetypeTableRecord
  2
DASHDOT
 70
     0
  3
_._._._._._._._._._._._._._._._.
 72
    65
 73
     4
 40
70.0
 49
31.0
 74
     4
 75
     0
340
0
 46
0.0
 50
0.0
 44
0.0
 45
0.0
 49
-13.0
 74
     4
 75
     0
340
0
 46
0.0
 50
0.0
 44
0.0
 45
0.0
 49
13.0
 74
     4
 75
     0
340
0
 46
0.0
 50
0.0
 44
0.0
 45
0.0
 49
-13.0
 74
     4
 75
     0
340
0
 46
0.0
 50
0.0
 44
0.0
 45
0.0
  0
LTYPE
  5
70
330
5
100
AcDbSymbolTableRecord
100
AcDbLinetypeTableRecord
  2
DASHED
 70
     0
  3
__ __ __ __ __ __ __ __ __
 72
    65
 73
     2
 40
25.72
 49
12.86
 74
     4
 75
     0
340
0
 46
0.0
 50
0.0
 44
0.0
 45
0.0
 49
-12.86
 74
     4
 75
     0
340
0
 46
0.0
 50
0.0
 44
0.0
 45
0.0
  0
LTYPE
  5
71
330
5
100
AcDbSymbolTableRecord
100
AcDbLinetypeTableRecord
  2
DOT
 70
     0
  3
.........................
 72
    65
 73
     2
 40
10.0
 49
0.0
 74
     4
 75
     0
340
0
 46
0.0
 50
0.0
 44
0.0
 45
0.0
 49
-10.0
 74
     4
 75
     0
340
0
 46
0.0
 50
0.0
 44
0.0
 45
0.0
  0
LTYPE
  5
72
330
5
100
AcDbSymbolTableRecord
100
AcDbLinetypeTableRecord
  2
PHANTOM
 70
     0
  3
____ _ _ ____ _ _ _____ _ _ ____
 72
    65
 73
     6
 40
50.5
 49
18.0
 74
     4
 75
     0
340
0
 46
0.0
 50
0.0
 44
0.0
 45
0.0
 49
-6.5
 74
     4
 75
     0
340
0
 46
0.0
 50
0.0
 44
0.0
 45
0.0
 49
6.5
 74
     4
 75
     0
340
0
 46
0.0
 50
0.0
 44
0.0
 45
0.0
 49
-6.5
 74
     4
 75
     0
340
0
 46
0.0
 50
0.0
 44
0.0
 45
0.0
 49
6.5
 74
     4
 75
     0
340
0
 46
0.0
 50
0.0
 44
0.0
 45
0.0
 49
-6.5
 74
     4
 75
     0
340
0
 46
0.0
 50
0.0
 44
0.0
 45
0.0
  0
LTYPE
  5
343
330
5
100
AcDbSymbolTableRecord
100
AcDbLinetypeTableRecord
  2
CENTER2
 70
     0
  3
Center (.5x) ___ _ ___ _ ___ _ ___ _ ___ _ ___
 72
    65
 73
     4
 40
1.125
 49
0.75
 74
     0
 49
-0.125
 74
     0
 49
0.125
 74
     0
 49
-0.125
 74
     0
  0
ENDTAB
  0
TABLE
  2
LAYER
  5
2
330
0
100
AcDbSymbolTable
 70
    22
  0
LAYER
  5
10
102
{ACAD_XDICTIONARY
360
34E
102
}
330
2
100
AcDbSymbolTableRecord
100
AcDbLayerTableRecord
  2
0
 70
     0
 62
     7
  6
Continuous
370
    -3
390
F
  0
LAYER
  5
1FF
330
2
100
AcDbSymbolTableRecord
100
AcDbLayerTableRecord
  2
Defpoints
 70
     0
 62
     7
  6
Continuous
290
     0
370
    -3
390
F
  0
LAYER
  5
340
102
{ACAD_XDICTIONARY
360
350
102
}
330
2
100
AcDbSymbolTableRecord
100
AcDbLayerTableRecord
  2
1
 70
     0
 62
     4
  6
Continuous
370
    -3
390
F
  0
LAYER
  5
341
102
{ACAD_XDICTIONARY
360
352
102
}
330
2
100
AcDbSymbolTableRecord
100
AcDbLayerTableRecord
  2
2
 70
     0
 62
     7
  6
Continuous
370
    -3
390
F
  0
LAYER
  5
342
102
{ACAD_XDICTIONARY
360
354
102
}
330
2
100
AcDbSymbolTableRecord
100
AcDbLayerTableRecord
  2
4
 70
     0
 62
     2
  6
CENTER2
370
    -3
390
F
  0
LAYER
  5
344
102
{ACAD_XDICTIONARY
360
356
102
}
330
2
100
AcDbSymbolTableRecord
100
AcDbLayerTableRecord
  2
SK1
 70
     0
 62
     4
  6
Continuous
370
    -3
390
F
  0
LAYER
  5
345
102
{ACAD_XDICTIONARY
360
358
102
}
330
2
100
AcDbSymbolTableRecord
100
AcDbLayerTableRecord
  2
SK2
 70
     0
 62
     7
  6
Continuous
370
    -3
390
F
  0
LAYER
  5
347
102
{ACAD_XDICTIONARY
360
35A
102
}
330
2
100
AcDbSymbolTableRecord
100
AcDbLayerTableRecord
  2
SK4
 70
     0
 62
     2
  6
CENTER2
370
    -3
390
F
  0
LAYER
  5
348
102
{ACAD_XDICTIONARY
360
35C
102
}
330
2
100
AcDbSymbolTableRecord
100
AcDbLayerTableRecord
  2
SK6
 70
     0
 62
     5
  6
Continuous
370
    -3
390
F
  0
LAYER
  5
349
102
{ACAD_XDICTIONARY
360
35E
102
}
330
2
100
AcDbSymbolTableRecord
100
AcDbLayerTableRecord
  2
CUT
 70
     0
 62
     1
  6
Continuous
370
    -3
390
F
  0
LAYER
  5
34A
102
{ACAD_XDICTIONARY
360
360
102
}
330
2
100
AcDbSymbolTableRecord
100
AcDbLayerTableRecord
  2
NOCUT
 70
     0
 62
     7
  6
Continuous
370
    -3
390
F
  0
LAYER
  5
34B
102
{ACAD_XDICTIONARY
360
362
102
}
330
2
100
AcDbSymbolTableRecord
100
AcDbLayerTableRecord
  2
80
 70
     0
 62
     6
  6
Continuous
370
    -3
390
F
  0
LAYER
  5
34C
102
{ACAD_XDICTIONARY
360
364
102
}
330
2
100
AcDbSymbolTableRecord
100
AcDbLayerTableRecord
  2
81
 70
     0
 62
     3
  6
Continuous
370
    -3
390
F
  0
ENDTAB
  0
TABLE
  2
STYLE
  5
3
330
0
100
AcDbSymbolTable
 70
     3
  0
STYLE
  5
11
330
3
100
AcDbSymbolTableRecord
100
AcDbTextStyleTableRecord
  2
Standard
 70
     0
 40
0.0
 41
1.0
 50
0.0
 71
     0
 42
0.2
  3
txt
  4

  0
STYLE
  5
1F3
330
3
100
AcDbSymbolTableRecord
100
AcDbTextStyleTableRecord
  2
cesky
 70
     0
 40
0.0
 41
1.0
 50
0.0
 71
     0
 42
0.2
  3
simplex.shx
  4

  0
STYLE
  5
1F4
330
3
100
AcDbSymbolTableRecord
100
AcDbTextStyleTableRecord
  2
DWGDirectTextStyle
 70
     0
 40
0.0
 41
1.0
 50
0.0
 71
     0
 42
0.2
  3
simplex
  4

  0
ENDTAB
  0
TABLE
  2
VIEW
  5
6
330
0
100
AcDbSymbolTable
 70
     0
  0
ENDTAB
  0
TABLE
  2
UCS
  5
7
330
0
100
AcDbSymbolTable
 70
     0
  0
ENDTAB
  0
TABLE
  2
APPID
  5
9
330
0
100
AcDbSymbolTable
 70
     7
  0
APPID
  5
12
330
9
100
AcDbSymbolTableRecord
100
AcDbRegAppTableRecord
  2
ACAD
 70
     0
  0
APPID
  5
1FB
330
9
100
AcDbSymbolTableRecord
100
AcDbRegAppTableRecord
  2
ACAD_DSTYLE_DIMBREAK
 70
     0
  0
APPID
  5
2B4
330
9
100
AcDbSymbolTableRecord
100
AcDbRegAppTableRecord
  2
ACAD_DSTYLE_DIM_LINETYPE
 70
     0
  0
APPID
  5
2B5
330
9
100
AcDbSymbolTableRecord
100
AcDbRegAppTableRecord
  2
ACAD_DSTYLE_DIM_EXT1_LINETYPE
 70
     0
  0
APPID
  5
2B6
330
9
100
AcDbSymbolTableRecord
100
AcDbRegAppTableRecord
  2
ACAD_DSTYLE_DIM_EXT2_LINETYPE
 70
     0
  0
APPID
  5
2F6
330
9
100
AcDbSymbolTableRecord
100
AcDbRegAppTableRecord
  2
ACAD_MLEADERVER
 70
     0
  0
APPID
  5
369
330
9
100
AcDbSymbolTableRecord
100
AcDbRegAppTableRecord
  2
ACAD_NAV_VCDISPLAY
 70
     0
  0
ENDTAB
  0
TABLE
  2
DIMSTYLE
  5
A
330
0
100
AcDbSymbolTable
 70
     1
100
AcDbDimStyleTable
 71
     0
  0
DIMSTYLE
105
27
330
A
100
AcDbSymbolTableRecord
100
AcDbDimStyleTableRecord
  2
Standard
 70
     0
340
11
1001
ACAD_DSTYLE_DIMBREAK
1070
   391
1040
6.349999999999999
  0
ENDTAB
  0
TABLE
  2
BLOCK_RECORD
  5
1
330
0
100
AcDbSymbolTable
 70
    16
  0
BLOCK_RECORD
  5
1F
102
{ACAD_XDICTIONARY
360
306
102
}
330
1
100
AcDbSymbolTableRecord
100
AcDbBlockTableRecord
  2
*Model_Space
340
22
  0
BLOCK_RECORD
  5
1B
330
1
100
AcDbSymbolTableRecord
100
AcDbBlockTableRecord
  2
*Paper_Space
340
1E
  0
BLOCK_RECORD
  5
23
330
1
100
AcDbSymbolTableRecord
100
AcDbBlockTableRecord
  2
*Paper_Space0
340
26
  0
BLOCK_RECORD
  5
1F6
330
1
100
AcDbSymbolTableRecord
100
AcDbBlockTableRecord
  2
ASSORTED_DRAFT1
340
0
  0
BLOCK_RECORD
  5
200
330
1
100
AcDbSymbolTableRecord
100
AcDbBlockTableRecord
  2
*D2
340
0
  0
BLOCK_RECORD
  5
20B
330
1
100
AcDbSymbolTableRecord
100
AcDbBlockTableRecord
  2
_U0
340
0
  0
BLOCK_RECORD
  5
216
330
1
100
AcDbSymbolTableRecord
100
AcDbBlockTableRecord
  2
*D4
340
0
  0
BLOCK_RECORD
  5
222
330
1
100
AcDbSymbolTableRecord
100
AcDbBlockTableRecord
  2
_U1
340
0
  0
BLOCK_RECORD
  5
22F
330
1
100
AcDbSymbolTableRecord
100
AcDbBlockTableRecord
  2
*D6
340
0
  0
BLOCK_RECORD
  5
23B
330
1
100
AcDbSymbolTableRecord
100
AcDbBlockTableRecord
  2
_U2
340
0
  0
BLOCK_RECORD
  5
248
330
1
100
AcDbSymbolTableRecord
100
AcDbBlockTableRecord
  2
*D8
340
0
  0
BLOCK_RECORD
  5
254
330
1
100
AcDbSymbolTableRecord
100
AcDbBlockTableRecord
  2
_U3
340
0
  0
BLOCK_RECORD
  5
260
330
1
100
AcDbSymbolTableRecord
100
AcDbBlockTableRecord
  2
*D10
340
0
  0
BLOCK_RECORD
  5
26C
330
1
100
AcDbSymbolTableRecord
100
AcDbBlockTableRecord
  2
_U4
340
0
  0
BLOCK_RECORD
  5
278
330
1
100
AcDbSymbolTableRecord
100
AcDbBlockTableRecord
  2
*D12
340
0
  0
BLOCK_RECORD
  5
284
330
1
100
AcDbSymbolTableRecord
100
AcDbBlockTableRecord
  2
_U5
340
0
  0
BLOCK_RECORD
  5
290
330
1
100
AcDbSymbolTableRecord
100
AcDbBlockTableRecord
  2
*D14
340
0
  0
BLOCK_RECORD
  5
29C
330
1
100
AcDbSymbolTableRecord
100
AcDbBlockTableRecord
  2
_U6
340
0
  0
ENDTAB
  0
ENDSEC
  0
SECTION
  2
BLOCKS
  0
BLOCK
  5
20
330
1F
100
AcDbEntity
  8
0
100
AcDbBlockBegin
  2
*Model_Space
 70
     0
 10
0.0
 20
0.0
 30
0.0
  3
*Model_Space
  1

  0
ENDBLK
  5
21
330
1F
100
AcDbEntity
  8
0
100
AcDbBlockEnd
  0
BLOCK
  5
1C
330
1B
100
AcDbEntity
 67
     1
  8
0
100
AcDbBlockBegin
  2
*Paper_Space
 70
     0
 10
0.0
 20
0.0
 30
0.0
  3
*Paper_Space
  1

  0
ENDBLK
  5
1D
330
1B
100
AcDbEntity
 67
     1
  8
0
100
AcDbBlockEnd
  0
BLOCK
  5
24
330
23
100
AcDbEntity
 67
     1
  8
0
100
AcDbBlockBegin
  2
*Paper_Space0
 70
     0
 10
0.0
 20
0.0
 30
0.0
  3
*Paper_Space0
  1

  0
ENDBLK
  5
25
330
23
100
AcDbEntity
 67
     1
  8
0
100
AcDbBlockEnd
  0
BLOCK
  5
1F9
330
1F6
100
AcDbEntity
  8
0
100
AcDbBlockBegin
  2
ASSORTED_DRAFT1
 70
     0
 10
0.0
 20
0.0
 30
0.0
  3
ASSORTED_DRAFT1
  1

  0
SOLID
  5
1F7
330
1F6
100
AcDbEntity
  8
0
 62
   254
370
    13
100
AcDbTrace
 10
270.185042
 20
161.034924
 30
0.0
 11
265.185046
 21
159.92645
 31
0.0
 12
265.1850379999999
 22
162.143397
 32
0.0
 13
270.185042
 23
161.034924
 33
0.0
  0
ENDBLK
  5
1FA
330
1F6
100
AcDbEntity
  8
0
100
AcDbBlockEnd
  0
BLOCK
  5
201
330
200
100
AcDbEntity
  8
0
100
AcDbBlockBegin
  2
*D2
 70
     1
 10
0.0
 20
0.0
 30
0.0
  3
*D2
  1

  0
LINE
  5
203
330
200
100
AcDbEntity
  8
0
 62
   254
370
    -2
100
AcDbLine
 10
294.332259
 20
288.907994
 30
0.0
 11
394.630859
 21
288.907994
 31
0.0
  0
LINE
  5
204
330
200
100
AcDbEntity
  8
0
 62
   254
370
    -2
100
AcDbLine
 10
330.83929
 20
298.636194
 30
0.0
 11
394.630859
 21
298.636194
 31
0.0
  0
LINE
  5
205
330
200
100
AcDbEntity
  8
0
 62
   254
370
    -2
100
AcDbLine
 10
393.630859
 20
302.136194
 30
0.0
 11
393.630859
 21
305.636194
 31
0.0
  0
SOLID
  5
206
330
200
100
AcDbEntity
  8
0
 62
   254
100
AcDbTrace
 10
393.047525
 20
302.136194
 30
0.0
 11
394.214192
 21
302.136194
 31
0.0
 12
393.630859
 22
298.636194
 32
0.0
 13
393.630859
 23
298.636194
 33
0.0
  0
MTEXT
  5
207
330
200
100
AcDbEntity
  8
0
 62
   254
370
    13
100
AcDbMText
 10
388.380859
 20
273.407994
 30
0.0
 40
3.5
 41
0.0
 71
     5
 72
     1
  1
\A1;19.5
  7
cesky
 11
0.0
 21
1.0
 31
0.0
 73
     1
 44
1.0
  0
POINT
  5
208
330
200
100
AcDbEntity
  8
Defpoints
 62
     0
100
AcDbPoint
 10
294.332259
 20
288.907994
 30
0.0
  0
POINT
  5
209
330
200
100
AcDbEntity
  8
Defpoints
 62
     0
100
AcDbPoint
 10
330.83929
 20
298.636194
 30
0.0
  0
POINT
  5
20A
330
200
100
AcDbEntity
  8
Defpoints
 62
     0
100
AcDbPoint
 10
393.630859
 20
298.636194
 30
0.0
  0
ENDBLK
  5
202
330
200
100
AcDbEntity
  8
0
100
AcDbBlockEnd
  0
BLOCK
  5
211
330
20B
100
AcDbEntity
  8
0
100
AcDbBlockBegin
  2
_U0
 70
     0
 10
0.0
 20
0.0
 30
0.0
  3
_U0
  1

  0
ENDBLK
  5
212
330
20B
100
AcDbEntity
  8
0
100
AcDbBlockEnd
  0
BLOCK
  5
217
330
216
100
AcDbEntity
  8
0
100
AcDbBlockBegin
  2
*D4
 70
     1
 10
0.0
 20
0.0
 30
0.0
  3
*D4
  1

  0
LINE
  5
219
330
216
100
AcDbEntity
  8
0
 62
    95
370
    -2
100
AcDbLine
 10
219.004842
 20
301.607994
 30
0.0
 11
204.240188
 21
301.607994
 31
0.0
  0
LINE
  5
21A
330
216
100
AcDbEntity
  8
0
 62
    95
370
    -2
100
AcDbLine
 10
219.004842
 20
276.207994
 30
0.0
 11
204.240188
 21
276.207994
 31
0.0
  0
LINE
  5
21B
330
216
100
AcDbEntity
  8
0
 62
    95
370
    -2
100
AcDbLine
 10
205.240188
 20
298.107994
 30
0.0
 11
205.240188
 21
279.707994
 31
0.0
  0
SOLID
  5
21C
330
216
100
AcDbEntity
  8
0
 62
    95
100
AcDbTrace
 10
205.823522
 20
298.107994
 30
0.0
 11
204.656855
 21
298.107994
 31
0.0
 12
205.240188
 22
301.607994
 32
0.0
 13
205.240188
 23
301.607994
 33
0.0
  0
SOLID
  5
21D
330
216
100
AcDbEntity
  8
0
 62
    95
100
AcDbTrace
 10
204.656855
 20
279.707994
 30
0.0
 11
205.823522
 21
279.707994
 31
0.0
 12
205.240188
 22
276.207994
 32
0.0
 13
205.240188
 23
276.207994
 33
0.0
  0
MTEXT
  5
21E
330
216
100
AcDbEntity
  8
0
 62
    95
370
    13
100
AcDbMText
 10
199.990188
 20
288.907994
 30
0.0
 40
3.5
 41
0.0
 71
     5
 72
     1
  1
\A1;25.4
  7
cesky
 11
0.0
 21
1.0
 31
0.0
 73
     1
 44
1.0
  0
POINT
  5
21F
330
216
100
AcDbEntity
  8
Defpoints
 62
     0
100
AcDbPoint
 10
219.004842
 20
301.607994
 30
0.0
  0
POINT
  5
220
330
216
100
AcDbEntity
  8
Defpoints
 62
     0
100
AcDbPoint
 10
219.004842
 20
276.207994
 30
0.0
  0
POINT
  5
221
330
216
100
AcDbEntity
  8
Defpoints
 62
     0
100
AcDbPoint
 10
205.240188
 20
276.207994
 30
0.0
  0
ENDBLK
  5
218
330
216
100
AcDbEntity
  8
0
100
AcDbBlockEnd
  0
BLOCK
  5
22A
330
222
100
AcDbEntity
  8
0
100
AcDbBlockBegin
  2
_U1
 70
     0
 10
0.0
 20
0.0
 30
0.0
  3
_U1
  1

  0
ENDBLK
  5
22B
330
222
100
AcDbEntity
  8
0
100
AcDbBlockEnd
  0
BLOCK
  5
230
330
22F
100
AcDbEntity
  8
0
100
AcDbBlockBegin
  2
*D6
 70
     1
 10
0.0
 20
0.0
 30
0.0
  3
*D6
  1

  0
LINE
  5
232
330
22F
100
AcDbEntity
  8
0
 62
    95
370
    -2
100
AcDbLine
 10
277.154842
 20
306.407994
 30
0.0
 11
191.172336
 21
306.407994
 31
0.0
  0
LINE
  5
233
330
22F
100
AcDbEntity
  8
0
 62
    95
370
    -2
100
AcDbLine
 10
277.154842
 20
271.407994
 30
0.0
 11
191.172336
 21
271.407994
 31
0.0
  0
LINE
  5
234
330
22F
100
AcDbEntity
  8
0
 62
    95
370
    -2
100
AcDbLine
 10
192.172336
 20
302.907994
 30
0.0
 11
192.172336
 21
274.907994
 31
0.0
  0
SOLID
  5
235
330
22F
100
AcDbEntity
  8
0
 62
    95
100
AcDbTrace
 10
192.755669
 20
302.907994
 30
0.0
 11
191.589002
 21
302.907994
 31
0.0
 12
192.172336
 22
306.407994
 32
0.0
 13
192.172336
 23
306.407994
 33
0.0
  0
SOLID
  5
236
330
22F
100
AcDbEntity
  8
0
 62
    95
100
AcDbTrace
 10
191.589002
 20
274.907994
 30
0.0
 11
192.755669
 21
274.907994
 31
0.0
 12
192.172336
 22
271.407994
 32
0.0
 13
192.172336
 23
271.407994
 33
0.0
  0
MTEXT
  5
237
330
22F
100
AcDbEntity
  8
0
 62
    95
370
    13
100
AcDbMText
 10
186.922336
 20
288.907994
 30
0.0
 40
3.5
 41
0.0
 71
     5
 72
     1
  1
\A1;35
  7
cesky
 11
0.0
 21
1.0
 31
0.0
 73
     1
 44
1.0
  0
POINT
  5
238
330
22F
100
AcDbEntity
  8
Defpoints
 62
     0
100
AcDbPoint
 10
277.154842
 20
306.407994
 30
0.0
  0
POINT
  5
239
330
22F
100
AcDbEntity
  8
Defpoints
 62
     0
100
AcDbPoint
 10
277.154842
 20
271.407994
 30
0.0
  0
POINT
  5
23A
330
22F
100
AcDbEntity
  8
Defpoints
 62
     0
100
AcDbPoint
 10
192.172336
 20
271.407994
 30
0.0
  0
ENDBLK
  5
231
330
22F
100
AcDbEntity
  8
0
100
AcDbBlockEnd
  0
BLOCK
  5
243
330
23B
100
AcDbEntity
  8
0
100
AcDbBlockBegin
  2
_U2
 70
     0
 10
0.0
 20
0.0
 30
0.0
  3
_U2
  1

  0
ENDBLK
  5
244
330
23B
100
AcDbEntity
  8
0
100
AcDbBlockEnd
  0
BLOCK
  5
249
330
248
100
AcDbEntity
  8
0
100
AcDbBlockBegin
  2
*D8
 70
     1
 10
0.0
 20
0.0
 30
0.0
  3
*D8
  1

  0
LINE
  5
24B
330
248
100
AcDbEntity
  8
0
 62
   254
370
    -2
100
AcDbLine
 10
377.230442
 20
300.636194
 30
0.0
 11
377.230442
 21
332.784432
 31
0.0
  0
LINE
  5
24C
330
248
100
AcDbEntity
  8
0
 62
   254
370
    -2
100
AcDbLine
 10
217.404842
 20
300.007994
 30
0.0
 11
217.404842
 21
332.784432
 31
0.0
  0
LINE
  5
24D
330
248
100
AcDbEntity
  8
0
 62
   254
370
    -2
100
AcDbLine
 10
373.730442
 20
331.784432
 30
0.0
 11
220.904842
 21
331.784432
 31
0.0
  0
SOLID
  5
24E
330
248
100
AcDbEntity
  8
0
 62
   254
100
AcDbTrace
 10
373.730442
 20
331.201099
 30
0.0
 11
373.730442
 21
332.367766
 31
0.0
 12
377.230442
 22
331.784432
 32
0.0
 13
377.230442
 23
331.784432
 33
0.0
  0
SOLID
  5
24F
330
248
100
AcDbEntity
  8
0
 62
   254
100
AcDbTrace
 10
220.904842
 20
332.367766
 30
0.0
 11
220.904842
 21
331.201099
 31
0.0
 12
217.404842
 22
331.784432
 32
0.0
 13
217.404842
 23
331.784432
 33
0.0
  0
MTEXT
  5
250
330
248
100
AcDbEntity
  8
0
 62
   254
370
    13
100
AcDbMText
 10
297.317642
 20
337.034432
 30
0.0
 40
3.5
 41
0.0
 71
     5
 72
     1
  1
\A1;159.8
  7
cesky
 73
     1
 44
1.0
  0
POINT
  5
251
330
248
100
AcDbEntity
  8
Defpoints
 62
     0
100
AcDbPoint
 10
377.230442
 20
300.636194
 30
0.0
  0
POINT
  5
252
330
248
100
AcDbEntity
  8
Defpoints
 62
     0
100
AcDbPoint
 10
217.404842
 20
300.007994
 30
0.0
  0
POINT
  5
253
330
248
100
AcDbEntity
  8
Defpoints
 62
     0
100
AcDbPoint
 10
217.404842
 20
331.784432
 30
0.0
  0
ENDBLK
  5
24A
330
248
100
AcDbEntity
  8
0
100
AcDbBlockEnd
  0
BLOCK
  5
25B
330
254
100
AcDbEntity
  8
0
100
AcDbBlockBegin
  2
_U3
 70
     0
 10
0.0
 20
0.0
 30
0.0
  3
_U3
  1

  0
ENDBLK
  5
25C
330
254
100
AcDbEntity
  8
0
100
AcDbBlockEnd
  0
BLOCK
  5
261
330
260
100
AcDbEntity
  8
0
100
AcDbBlockBegin
  2
*D10
 70
     1
 10
0.0
 20
0.0
 30
0.0
  3
*D10
  1

  0
LINE
  5
263
330
260
100
AcDbEntity
  8
0
 62
   254
370
    -2
100
AcDbLine
 10
274.404842
 20
288.907994
 30
0.0
 11
274.404842
 21
318.511205
 31
0.0
  0
LINE
  5
264
330
260
100
AcDbEntity
  8
0
 62
   254
370
    -2
100
AcDbLine
 10
217.404842
 20
294.457994
 30
0.0
 11
217.404842
 21
318.511205
 31
0.0
  0
LINE
  5
265
330
260
100
AcDbEntity
  8
0
 62
   254
370
    -2
100
AcDbLine
 10
270.904842
 20
317.511205
 30
0.0
 11
220.904842
 21
317.511205
 31
0.0
  0
SOLID
  5
266
330
260
100
AcDbEntity
  8
0
 62
   254
100
AcDbTrace
 10
270.904842
 20
316.927872
 30
0.0
 11
270.904842
 21
318.094538
 31
0.0
 12
274.404842
 22
317.511205
 32
0.0
 13
274.404842
 23
317.511205
 33
0.0
  0
SOLID
  5
267
330
260
100
AcDbEntity
  8
0
 62
   254
100
AcDbTrace
 10
220.904842
 20
318.094538
 30
0.0
 11
220.904842
 21
316.927872
 31
0.0
 12
217.404842
 22
317.511205
 32
0.0
 13
217.404842
 23
317.511205
 33
0.0
  0
MTEXT
  5
268
330
260
100
AcDbEntity
  8
0
 62
   254
370
    13
100
AcDbMText
 10
245.904842
 20
322.761205
 30
0.0
 40
3.5
 41
0.0
 71
     5
 72
     1
  1
\A1;57
  7
cesky
 73
     1
 44
1.0
  0
POINT
  5
269
330
260
100
AcDbEntity
  8
Defpoints
 62
     0
100
AcDbPoint
 10
274.404842
 20
288.907994
 30
0.0
  0
POINT
  5
26A
330
260
100
AcDbEntity
  8
Defpoints
 62
     0
100
AcDbPoint
 10
217.404842
 20
294.457994
 30
0.0
  0
POINT
  5
26B
330
260
100
AcDbEntity
  8
Defpoints
 62
     0
100
AcDbPoint
 10
217.404842
 20
317.511205
 30
0.0
  0
ENDBLK
  5
262
330
260
100
AcDbEntity
  8
0
100
AcDbBlockEnd
  0
BLOCK
  5
273
330
26C
100
AcDbEntity
  8
0
100
AcDbBlockBegin
  2
_U4
 70
     0
 10
0.0
 20
0.0
 30
0.0
  3
_U4
  1

  0
ENDBLK
  5
274
330
26C
100
AcDbEntity
  8
0
100
AcDbBlockEnd
  0
BLOCK
  5
279
330
278
100
AcDbEntity
  8
0
100
AcDbBlockBegin
  2
*D12
 70
     1
 10
0.0
 20
0.0
 30
0.0
  3
*D12
  1

  0
LINE
  5
27B
330
278
100
AcDbEntity
  8
0
 62
   254
370
    -2
100
AcDbLine
 10
377.230442
 20
298.636194
 30
0.0
 11
377.230442
 21
309.625019
 31
0.0
  0
LINE
  5
27C
330
278
100
AcDbEntity
  8
0
 62
   254
370
    -2
100
AcDbLine
 10
294.752587
 20
298.262483
 30
0.0
 11
294.752587
 21
309.625019
 31
0.0
  0
LINE
  5
27D
330
278
100
AcDbEntity
  8
0
 62
   254
370
    -2
100
AcDbLine
 10
373.730442
 20
308.625019
 30
0.0
 11
298.252587
 21
308.625019
 31
0.0
  0
SOLID
  5
27E
330
278
100
AcDbEntity
  8
0
 62
   254
100
AcDbTrace
 10
373.730442
 20
308.041686
 30
0.0
 11
373.730442
 21
309.208353
 31
0.0
 12
377.230442
 22
308.625019
 32
0.0
 13
377.230442
 23
308.625019
 33
0.0
  0
SOLID
  5
27F
330
278
100
AcDbEntity
  8
0
 62
   254
100
AcDbTrace
 10
298.252587
 20
309.208353
 30
0.0
 11
298.252587
 21
308.041686
 31
0.0
 12
294.752587
 22
308.625019
 32
0.0
 13
294.752587
 23
308.625019
 33
0.0
  0
MTEXT
  5
280
330
278
100
AcDbEntity
  8
0
 62
   254
370
    13
100
AcDbMText
 10
335.991515
 20
313.875019
 30
0.0
 40
3.5
 41
0.0
 71
     5
 72
     1
  1
\A1;82.5
  7
cesky
 73
     1
 44
1.0
  0
POINT
  5
281
330
278
100
AcDbEntity
  8
Defpoints
 62
     0
100
AcDbPoint
 10
377.230442
 20
298.636194
 30
0.0
  0
POINT
  5
282
330
278
100
AcDbEntity
  8
Defpoints
 62
     0
100
AcDbPoint
 10
294.752587
 20
298.262483
 30
0.0
  0
POINT
  5
283
330
278
100
AcDbEntity
  8
Defpoints
 62
     0
100
AcDbPoint
 10
294.752587
 20
308.625019
 30
0.0
  0
ENDBLK
  5
27A
330
278
100
AcDbEntity
  8
0
100
AcDbBlockEnd
  0
BLOCK
  5
28B
330
284
100
AcDbEntity
  8
0
100
AcDbBlockBegin
  2
_U5
 70
     0
 10
0.0
 20
0.0
 30
0.0
  3
_U5
  1

  0
ENDBLK
  5
28C
330
284
100
AcDbEntity
  8
0
100
AcDbBlockEnd
  0
BLOCK
  5
291
330
290
100
AcDbEntity
  8
0
100
AcDbBlockBegin
  2
*D14
 70
     1
 10
0.0
 20
0.0
 30
0.0
  3
*D14
  1

  0
LINE
  5
293
330
290
100
AcDbEntity
  8
0
 62
   254
370
    -2
100
AcDbLine
 10
377.230442
 20
298.636194
 30
0.0
 11
377.230442
 21
318.511205
 31
0.0
  0
LINE
  5
294
330
290
100
AcDbEntity
  8
0
 62
   254
370
    -2
100
AcDbLine
 10
274.404842
 20
288.907994
 30
0.0
 11
274.404842
 21
318.511205
 31
0.0
  0
LINE
  5
295
330
290
100
AcDbEntity
  8
0
 62
   254
370
    -2
100
AcDbLine
 10
373.730442
 20
317.511205
 30
0.0
 11
277.904842
 21
317.511205
 31
0.0
  0
SOLID
  5
296
330
290
100
AcDbEntity
  8
0
 62
   254
100
AcDbTrace
 10
373.730442
 20
316.927872
 30
0.0
 11
373.730442
 21
318.094538
 31
0.0
 12
377.230442
 22
317.511205
 32
0.0
 13
377.230442
 23
317.511205
 33
0.0
  0
SOLID
  5
297
330
290
100
AcDbEntity
  8
0
 62
   254
100
AcDbTrace
 10
277.904842
 20
318.094538
 30
0.0
 11
277.904842
 21
316.927872
 31
0.0
 12
274.404842
 22
317.511205
 32
0.0
 13
274.404842
 23
317.511205
 33
0.0
  0
MTEXT
  5
298
330
290
100
AcDbEntity
  8
0
 62
   254
370
    13
100
AcDbMText
 10
325.817642
 20
322.761205
 30
0.0
 40
3.5
 41
0.0
 71
     5
 72
     1
  1
\A1;102.8
  7
cesky
 73
     1
 44
1.0
  0
POINT
  5
299
330
290
100
AcDbEntity
  8
Defpoints
 62
     0
100
AcDbPoint
 10
377.230442
 20
298.636194
 30
0.0
  0
POINT
  5
29A
330
290
100
AcDbEntity
  8
Defpoints
 62
     0
100
AcDbPoint
 10
274.404842
 20
288.907994
 30
0.0
  0
POINT
  5
29B
330
290
100
AcDbEntity
  8
Defpoints
 62
     0
100
AcDbPoint
 10
274.404842
 20
317.511205
 30
0.0
  0
ENDBLK
  5
292
330
290
100
AcDbEntity
  8
0
100
AcDbBlockEnd
  0
BLOCK
  5
2A3
330
29C
100
AcDbEntity
  8
0
100
AcDbBlockBegin
  2
_U6
 70
     0
 10
0.0
 20
0.0
 30
0.0
  3
_U6
  1

  0
ENDBLK
  5
2A4
330
29C
100
AcDbEntity
  8
0
100
AcDbBlockEnd
  0
ENDSEC
  0
SECTION
  2
ENTITIES
  0
POINT
  5
73
102
{ACAD_REACTORS
330
34D
102
}
330
1F
100
AcDbEntity
  8
80
100
AcDbPoint
 10
274.404842
 20
288.907994
 30
0.0
  0
POINT
  5
76
330
1F
100
AcDbEntity
  8
4
 60
     1
100
AcDbPoint
 10
294.332259
 20
288.907994
 30
0.0
  0
POINT
  5
78
330
1F
100
AcDbEntity
  8
4
 60
     1
100
AcDbPoint
 10
376.762133
 20
288.907994
 30
0.0
  0
POINT
  5
79
330
1F
100
AcDbEntity
  8
SK4
 60
     1
100
AcDbPoint
 10
219.004842
 20
288.907994
 30
0.0
  0
POINT
  5
7A
330
1F
100
AcDbEntity
  8
SK4
 60
     1
100
AcDbPoint
 10
274.404842
 20
288.907994
 30
0.0
  0
POINT
  5
7B
330
1F
100
AcDbEntity
  8
SK6
 60
     1
100
AcDbPoint
 10
274.404842
 20
288.907994
 30
0.0
  0
POINT
  5
7C
330
1F
100
AcDbEntity
  8
SK6
 60
     1
100
AcDbPoint
 10
294.752587
 20
298.262483
 30
0.0
  0
LINE
  5
7D
330
1F
100
AcDbEntity
  8
1
100
AcDbLine
 10
294.332259
 20
279.707994
 30
0.0
 11
295.424044
 21
279.707994
 31
0.0
  0
LINE
  5
7F
330
1F
100
AcDbEntity
  8
1
100
AcDbLine
 10
370.461082
 20
298.107994
 30
0.0
 11
359.311262
 21
298.107994
 31
0.0
  0
LINE
  5
80
330
1F
100
AcDbEntity
  8
1
100
AcDbLine
 10
376.476339
 20
291.9369200000001
 30
0.0
 11
376.476067
 21
291.975999
 31
0.0
  0
LINE
  5
81
330
1F
100
AcDbEntity
  8
1
100
AcDbLine
 10
295.082749
 20
298.107994
 30
0.0
 11
294.332259
 21
298.107994
 31
0.0
  0
LINE
  5
82
330
1F
100
AcDbEntity
  8
1
100
AcDbLine
 10
375.239728
 20
294.543355
 30
0.0
 11
375.2471450000001
 21
294.564456
 31
0.0
  0
LINE
  5
84
330
1F
100
AcDbEntity
  8
1
100
AcDbLine
 10
373.163385
 20
294.303491
 30
0.0
 11
373.181607
 21
294.355331
 31
0.0
  0
LINE
  5
85
330
1F
100
AcDbEntity
  8
1
100
AcDbLine
 10
373.6480279999999
 20
294.273111
 30
0.0
 11
373.629683
 21
294.220922
 31
0.0
  0
LINE
  5
86
330
1F
100
AcDbEntity
  8
1
100
AcDbLine
 10
374.065483
 20
294.3502759999999
 30
0.0
 11
374.083777
 21
294.402319
 31
0.0
  0
LINE
  5
87
330
1F
100
AcDbEntity
  8
1
100
AcDbLine
 10
374.104104
 20
294.308389
 30
0.0
 11
374.122039
 21
294.359413
 31
0.0
  0
LINE
  5
88
330
1F
100
AcDbEntity
  8
1
100
AcDbLine
 10
374.92968
 20
291.369583
 30
0.0
 11
371.518367
 21
291.220797
 31
0.0
  0
LINE
  5
89
330
1F
100
AcDbEntity
  8
1
100
AcDbLine
 10
296.838455
 20
279.721421
 30
0.0
 11
296.695232
 21
279.718747
 31
0.0
  0
LINE
  5
8A
330
1F
100
AcDbEntity
  8
1
100
AcDbLine
 10
372.797273
 20
295.231244
 30
0.0
 11
372.816199
 21
295.285087
 31
0.0
  0
LINE
  5
8B
330
1F
100
AcDbEntity
  8
1
100
AcDbLine
 10
374.3895950000001
 20
295.042756
 30
0.0
 11
374.370668
 21
294.988912
 31
0.0
  0
LINE
  5
8C
330
1F
100
AcDbEntity
  8
1
100
AcDbLine
 10
373.538257
 20
295.999234
 30
0.0
 11
373.556603
 21
296.051423
 31
0.0
  0
LINE
  5
8D
330
1F
100
AcDbEntity
  8
1
100
AcDbLine
 10
374.017972
 20
295.954833
 30
0.0
 11
374.004556
 21
295.916665
 31
0.0
  0
LINE
  5
8E
330
1F
100
AcDbEntity
  8
SK1
100
AcDbLine
 10
219.004842
 20
276.207994
 30
0.0
 11
274.404842
 21
276.207994
 31
0.0
  0
LINE
  5
8F
330
1F
100
AcDbEntity
  8
81
100
AcDbLine
 10
377.230442
 20
300.636194
 30
0.0
 11
377.230442
 21
296.636194
 31
0.0
  0
LINE
  5
90
330
1F
100
AcDbEntity
  8
80
100
AcDbLine
 10
274.404842
 20
287.90842
 30
0.0
 11
274.404842
 21
289.907567
 31
0.0
  0
LINE
  5
91
330
1F
100
AcDbEntity
  8
81
100
AcDbLine
 10
375.230442
 20
298.636194
 30
0.0
 11
379.230442
 21
298.636194
 31
0.0
  0
LINE
  5
92
330
1F
100
AcDbEntity
  8
1
100
AcDbLine
 10
274.904842
 20
271.407994
 30
0.0
 11
279.404842
 21
271.407994
 31
0.0
  0
LINE
  5
93
330
1F
100
AcDbEntity
  8
1
100
AcDbLine
 10
274.404842
 20
305.907994
 30
0.0
 11
274.404842
 21
288.907994
 31
0.0
  0
LINE
  5
94
330
1F
100
AcDbEntity
  8
1
100
AcDbLine
 10
274.404842
 20
288.907994
 30
0.0
 11
274.404842
 21
271.907994
 31
0.0
  0
LINE
  5
95
330
1F
100
AcDbEntity
  8
1
100
AcDbLine
 10
370.413373
 20
298.00662
 30
0.0
 11
370.412036
 21
298.037647
 31
0.0
  0
LINE
  5
96
330
1F
100
AcDbEntity
  8
1
100
AcDbLine
 10
372.015171
 20
291.781435
 30
0.0
 11
376.476067
 21
291.975999
 31
0.0
  0
LINE
  5
97
330
1F
100
AcDbEntity
  8
1
100
AcDbLine
 10
372.740993
 20
295.6372120000001
 30
0.0
 11
372.723226
 21
295.586669
 31
0.0
  0
LINE
  5
98
330
1F
100
AcDbEntity
  8
1
100
AcDbLine
 10
372.808315
 20
295.568307
 30
0.0
 11
372.789976
 21
295.516133
 31
0.0
  0
LINE
  5
99
330
1F
100
AcDbEntity
  8
1
100
AcDbLine
 10
374.471594
 20
295.141424
 30
0.0
 11
374.489961
 21
295.193674
 31
0.0
  0
LINE
  5
9A
330
1F
100
AcDbEntity
  8
1
100
AcDbLine
 10
372.842356
 20
294.675449
 30
0.0
 11
372.824087
 21
294.623478
 31
0.0
  0
LINE
  5
9B
330
1F
100
AcDbEntity
  8
1
100
AcDbLine
 10
372.801749
 20
294.656019
 30
0.0
 11
372.783756
 21
294.604832
 31
0.0
  0
LINE
  5
9C
330
1F
100
AcDbEntity
  8
1
100
AcDbLine
 10
376.733561
 20
298.1526160000001
 30
0.0
 11
376.98148
 21
292.590794
 31
0.0
  0
LINE
  5
9E
330
1F
100
AcDbEntity
  8
1
100
AcDbLine
 10
370.76112
 20
298.28004
 30
0.0
 11
376.328737
 21
298.522875
 31
0.0
  0
LINE
  5
9F
330
1F
100
AcDbEntity
  8
1
100
AcDbLine
 10
370.63873
 20
292.314152
 30
0.0
 11
370.390812
 21
297.875974
 31
0.0
  0
LINE
  5
A0
330
1F
100
AcDbEntity
  8
1
100
AcDbLine
 10
376.611172
 20
292.186728
 30
0.0
 11
371.043554
 21
291.943893
 31
0.0
  0
LINE
  5
A1
330
1F
100
AcDbEntity
  8
1
100
AcDbLine
 10
371.77477
 20
293.143175
 30
0.0
 11
371.596858
 21
297.134449
 31
0.0
  0
LINE
  5
A2
330
1F
100
AcDbEntity
  8
1
100
AcDbLine
 10
375.770203
 20
293.317438
 30
0.0
 11
371.77477
 21
293.143175
 31
0.0
  0
LINE
  5
A3
330
1F
100
AcDbEntity
  8
1
100
AcDbLine
 10
371.596858
 20
297.134449
 30
0.0
 11
375.592291
 21
297.308712
 31
0.0
  0
LINE
  5
A4
330
1F
100
AcDbEntity
  8
1
100
AcDbLine
 10
375.592291
 20
297.308712
 30
0.0
 11
375.770203
 21
293.317438
 31
0.0
  0
LINE
  5
A5
330
1F
100
AcDbEntity
  8
1
100
AcDbLine
 10
377.230267
 20
288.37653
 30
0.0
 11
377.158791
 21
284.281676
 31
0.0
  0
LINE
  5
A6
330
1F
100
AcDbEntity
  8
1
100
AcDbLine
 10
376.791445
 20
284.387011
 30
0.0
 11
377.158791
 21
284.281676
 31
0.0
  0
LINE
  5
A7
330
1F
100
AcDbEntity
  8
1
100
AcDbLine
 10
377.158791
 20
284.281676
 30
0.0
 11
376.740811
 21
283.5860399999999
 31
0.0
  0
LINE
  5
A8
330
1F
100
AcDbEntity
  8
1
100
AcDbLine
 10
376.859469
 20
288.28408
 30
0.0
 11
377.230267
 21
288.37653
 31
0.0
  0
LINE
  5
A9
330
1F
100
AcDbEntity
  8
1
100
AcDbLine
 10
376.823574
 20
289.110225
 30
0.0
 11
377.230267
 21
288.37653
 31
0.0
  0
LINE
  5
AA
330
1F
100
AcDbEntity
  8
1
100
AcDbLine
 10
376.475347
 20
283.860936
 30
0.0
 11
376.740811
 21
283.5860399999999
 31
0.0
  0
LINE
  5
AB
330
1F
100
AcDbEntity
  8
1
100
AcDbLine
 10
376.740811
 20
283.5860399999999
 30
0.0
 11
376.192202
 21
283.281942
 31
0.0
  0
LINE
  5
AC
330
1F
100
AcDbEntity
  8
1
100
AcDbLine
 10
376.548678
 20
288.844761
 30
0.0
 11
376.823574
 21
289.110225
 31
0.0
  0
LINE
  5
AD
330
1F
100
AcDbEntity
  8
1
100
AcDbLine
 10
376.484723
 20
289.313827
 30
0.0
 11
376.823574
 21
289.110225
 31
0.0
  0
LINE
  5
AE
330
1F
100
AcDbEntity
  8
1
100
AcDbLine
 10
376.548678
 20
288.844761
 30
0.0
 11
376.859469
 21
288.28408
 31
0.0
  0
LINE
  5
AF
330
1F
100
AcDbEntity
  8
1
100
AcDbLine
 10
376.169407
 20
284.484685
 30
0.0
 11
376.210766
 21
284.553518
 31
0.0
  0
LINE
  5
B0
330
1F
100
AcDbEntity
  8
1
100
AcDbLine
 10
376.791445
 20
284.387011
 30
0.0
 11
376.475347
 21
283.860936
 31
0.0
  0
LINE
  5
B1
330
1F
100
AcDbEntity
  8
1
100
AcDbLine
 10
376.859469
 20
288.28408
 30
0.0
 11
376.301907
 21
288.145064
 31
0.0
  0
LINE
  5
B2
330
1F
100
AcDbEntity
  8
1
100
AcDbLine
 10
376.210766
 20
284.553518
 30
0.0
 11
376.217469
 21
284.937499
 31
0.0
  0
LINE
  5
B3
330
1F
100
AcDbEntity
  8
1
100
AcDbLine
 10
376.791445
 20
284.387011
 30
0.0
 11
376.210766
 21
284.553518
 31
0.0
  0
LINE
  5
B4
330
1F
100
AcDbEntity
  8
1
100
AcDbLine
 10
376.859469
 20
288.28408
 30
0.0
 11
376.791445
 21
284.387011
 31
0.0
  0
LINE
  5
B5
330
1F
100
AcDbEntity
  8
1
100
AcDbLine
 10
376.475347
 20
283.860936
 30
0.0
 11
376.140057
 21
284.208139
 31
0.0
  0
LINE
  5
B6
330
1F
100
AcDbEntity
  8
1
100
AcDbLine
 10
376.475347
 20
283.860936
 30
0.0
 11
376.079944
 21
283.641761
 31
0.0
  0
LINE
  5
B7
330
1F
100
AcDbEntity
  8
1
100
AcDbLine
 10
376.548678
 20
288.844761
 30
0.0
 11
376.301901
 21
288.606451
 31
0.0
  0
LINE
  5
B8
330
1F
100
AcDbEntity
  8
1
100
AcDbLine
 10
376.301998
 20
288.992981
 30
0.0
 11
376.548678
 21
288.844761
 31
0.0
  0
LINE
  5
B9
330
1F
100
AcDbEntity
  8
1
100
AcDbLine
 10
376.452256
 20
289.269811
 30
0.0
 11
376.60828
 21
289.48124
 31
0.0
  0
LINE
  5
BA
330
1F
100
AcDbEntity
  8
1
100
AcDbLine
 10
376.60828
 20
289.719851
 30
0.0
 11
376.60828
 21
289.48124
 31
0.0
  0
LINE
  5
BB
330
1F
100
AcDbEntity
  8
1
100
AcDbLine
 10
376.60828
 20
289.719851
 30
0.0
 11
376.650442
 21
289.719115
 31
0.0
  0
LINE
  5
BC
330
1F
100
AcDbEntity
  8
1
100
AcDbLine
 10
376.650442
 20
292.1951620000001
 30
0.0
 11
376.650442
 21
289.719115
 31
0.0
  0
LINE
  5
BD
330
1F
100
AcDbEntity
  8
1
100
AcDbLine
 10
376.51807
 20
291.992483
 30
0.0
 11
376.516746
 21
292.182606
 31
0.0
  0
LINE
  5
BE
330
1F
100
AcDbEntity
  8
1
100
AcDbLine
 10
376.51807
 20
291.992483
 30
0.0
 11
376.476067
 21
291.975999
 31
0.0
  0
LINE
  5
BF
330
1F
100
AcDbEntity
  8
1
100
AcDbLine
 10
376.010966
 20
279.707994
 30
0.0
 11
376.341999
 21
282.82691
 31
0.0
  0
LINE
  5
C0
330
1F
100
AcDbEntity
  8
1
100
AcDbLine
 10
376.341999
 20
282.82691
 30
0.0
 11
376.299908
 21
282.827584
 31
0.0
  0
LINE
  5
C1
330
1F
100
AcDbEntity
  8
1
100
AcDbLine
 10
376.32519
 20
283.065784
 30
0.0
 11
376.299908
 21
282.827584
 31
0.0
  0
LINE
  5
C2
330
1F
100
AcDbEntity
  8
1
100
AcDbLine
 10
376.32519
 20
283.065784
 30
0.0
 11
376.192121
 21
283.282061
 31
0.0
  0
LINE
  5
C3
330
1F
100
AcDbEntity
  8
1
100
AcDbLine
 10
375.992991
 20
285.732994
 30
0.0
 11
376.301901
 21
285.732994
 31
0.0
  0
LINE
  5
C4
330
1F
100
AcDbEntity
  8
SK1
100
AcDbLine
 10
219.004842
 20
301.607994
 30
0.0
 11
219.004842
 21
276.207994
 31
0.0
  0
LINE
  5
C5
330
1F
100
AcDbEntity
  8
SK1
100
AcDbLine
 10
217.404842
 20
300.007994
 30
0.0
 11
217.404842
 21
277.807994
 31
0.0
  0
LINE
  5
C6
330
1F
100
AcDbEntity
  8
1
100
AcDbLine
 10
370.39307
 20
293.272438
 30
0.0
 11
370.387839
 21
293.257558
 31
0.0
  0
LINE
  5
C7
330
1F
100
AcDbEntity
  8
1
100
AcDbLine
 10
370.39307
 20
293.272438
 30
0.0
 11
370.187587
 21
298.03813
 31
0.0
  0
LINE
  5
C8
330
1F
100
AcDbEntity
  8
1
100
AcDbLine
 10
370.183523
 20
297.996194
 30
0.0
 11
370.387839
 21
293.257558
 31
0.0
  0
LINE
  5
C9
330
1F
100
AcDbEntity
  8
1
100
AcDbLine
 10
376.010966
 20
279.707994
 30
0.0
 11
358.590355
 21
279.707994
 31
0.0
  0
LINE
  5
CA
330
1F
100
AcDbEntity
  8
1
100
AcDbLine
 10
274.904842
 20
271.407994
 30
0.0
 11
274.904842
 21
288.907994
 31
0.0
  0
LINE
  5
CB
330
1F
100
AcDbEntity
  8
1
100
AcDbLine
 10
274.904842
 20
288.907994
 30
0.0
 11
274.904842
 21
306.407994
 31
0.0
  0
LINE
  5
CC
330
1F
100
AcDbEntity
  8
1
100
AcDbLine
 10
279.404842
 20
271.407994
 30
0.0
 11
283.01855
 21
275.021702
 31
0.0
  0
LINE
  5
CD
330
1F
100
AcDbEntity
  8
1
100
AcDbLine
 10
283.01855
 20
302.794285
 30
0.0
 11
279.404842
 21
306.407994
 31
0.0
  0
LINE
  5
CE
330
1F
100
AcDbEntity
  8
SK1
100
AcDbLine
 10
217.404842
 20
277.807994
 30
0.0
 11
219.004842
 21
276.207994
 31
0.0
  0
LINE
  5
CF
330
1F
100
AcDbEntity
  8
SK1
100
AcDbLine
 10
219.004842
 20
301.607994
 30
0.0
 11
217.404842
 21
300.007994
 31
0.0
  0
LINE
  5
D0
330
1F
100
AcDbEntity
  8
SK1
100
AcDbLine
 10
274.404842
 20
301.607994
 30
0.0
 11
219.004842
 21
301.607994
 31
0.0
  0
LINE
  5
D1
330
1F
100
AcDbEntity
  8
1
100
AcDbLine
 10
274.904842
 20
271.407994
 30
0.0
 11
274.404842
 21
271.907994
 31
0.0
  0
LINE
  5
D2
330
1F
100
AcDbEntity
  8
1
100
AcDbLine
 10
274.404842
 20
305.907994
 30
0.0
 11
274.904842
 21
306.407994
 31
0.0
  0
LINE
  5
D3
330
1F
100
AcDbEntity
  8
1
100
AcDbLine
 10
279.404842
 20
306.407994
 30
0.0
 11
274.904842
 21
306.407994
 31
0.0
  0
LINE
  5
D8
330
1F
100
AcDbEntity
  8
80
100
AcDbLine
 10
275.404416
 20
288.907994
 30
0.0
 11
273.405268
 21
288.907994
 31
0.0
  0
LINE
  5
D9
330
1F
100
AcDbEntity
  8
1
100
AcDbLine
 10
287.704842
 20
298.044931
 30
0.0
 11
287.704842
 21
287.702895
 31
0.0
  0
LINE
  5
DA
330
1F
100
AcDbEntity
  8
1
100
AcDbLine
 10
376.400436
 20
291.406038
 30
0.0
 11
371.525483
 21
291.193415
 31
0.0
  0
LINE
  5
DB
330
1F
100
AcDbEntity
  8
1
100
AcDbLine
 10
376.400436
 20
291.406038
 30
0.0
 11
375.361978
 21
289.675874
 31
0.0
  0
LINE
  5
DC
330
1F
100
AcDbEntity
  8
1
100
AcDbLine
 10
376.192121
 20
283.282061
 30
0.0
 11
376.084111
 21
283.283789
 31
0.0
  0
LINE
  5
DD
330
1F
100
AcDbEntity
  8
1
100
AcDbLine
 10
376.073812
 20
283.583992
 30
0.0
 11
376.301901
 21
285.732994
 31
0.0
  0
LINE
  5
DE
330
1F
100
AcDbEntity
  8
1
100
AcDbLine
 10
376.301901
 20
285.732994
 30
0.0
 11
376.301901
 21
288.97239
 31
0.0
  0
LINE
  5
DF
330
1F
100
AcDbEntity
  8
1
100
AcDbLine
 10
376.344063
 20
289.2717
 30
0.0
 11
376.452256
 21
289.269811
 31
0.0
  0
LINE
  5
E0
330
1F
100
AcDbEntity
  8
1
100
AcDbLine
 10
279.404842
 20
271.407994
 30
0.0
 11
279.404842
 21
274.646919
 31
0.0
  0
LINE
  5
E1
330
1F
100
AcDbEntity
  8
1
100
AcDbLine
 10
279.404842
 20
306.407994
 30
0.0
 11
279.404842
 21
281.259655
 31
0.0
  0
LINE
  5
E2
330
1F
100
AcDbEntity
  8
1
100
AcDbLine
 10
376.400436
 20
291.406038
 30
0.0
 11
376.409815
 21
291.409719
 31
0.0
  0
LINE
  5
E3
330
1F
100
AcDbEntity
  8
1
100
AcDbLine
 10
375.436903
 20
285.732994
 30
0.0
 11
375.623752
 21
285.732994
 31
0.0
  0
LINE
  5
E4
330
1F
100
AcDbEntity
  8
1
100
AcDbLine
 10
376.51807
 20
291.992483
 30
0.0
 11
372.020401
 21
291.796315
 31
0.0
  0
LINE
  5
E5
330
1F
100
AcDbEntity
  8
1
100
AcDbLine
 10
372.015171
 20
291.781435
 30
0.0
 11
372.020401
 21
291.796315
 31
0.0
  0
LINE
  5
126
330
1F
100
AcDbEntity
  8
NOCUT
100
AcDbLine
 10
274.404842
 20
301.607994
 30
0.0
 11
219.004842
 21
301.607994
 31
0.0
  0
LINE
  5
127
330
1F
100
AcDbEntity
  8
NOCUT
100
AcDbLine
 10
279.404842
 20
306.407994
 30
0.0
 11
274.904842
 21
306.407994
 31
0.0
  0
LINE
  5
128
330
1F
100
AcDbEntity
  8
NOCUT
100
AcDbLine
 10
217.404842
 20
300.007994
 30
0.0
 11
217.404842
 21
288.907994
 31
0.0
  0
LINE
  5
129
330
1F
100
AcDbEntity
  8
NOCUT
100
AcDbLine
 10
274.404842
 20
301.607994
 30
0.0
 11
274.404842
 21
305.907994
 31
0.0
  0
LINE
  5
12A
330
1F
100
AcDbEntity
  8
NOCUT
100
AcDbLine
 10
274.404842
 20
305.907994
 30
0.0
 11
274.904842
 21
306.407994
 31
0.0
  0
LINE
  5
12B
330
1F
100
AcDbEntity
  8
NOCUT
100
AcDbLine
 10
217.404842
 20
300.007994
 30
0.0
 11
219.004842
 21
301.607994
 31
0.0
  0
LINE
  5
12C
330
1F
100
AcDbEntity
  8
NOCUT
100
AcDbLine
 10
279.404842
 20
306.407994
 30
0.0
 11
283.01855
 21
302.794285
 31
0.0
  0
LINE
  5
12D
330
1F
100
AcDbEntity
  8
NOCUT
100
AcDbLine
 10
294.332259
 20
298.107994
 30
0.0
 11
376.399279
 21
298.107994
 31
0.0
  0
LINE
  5
12E
330
1F
100
AcDbEntity
  8
NOCUT
100
AcDbLine
 10
376.399279
 20
298.107994
 30
0.0
 11
376.650442
 21
292.4048410000001
 31
0.0
  0
LINE
  5
12F
330
1F
100
AcDbEntity
  8
NOCUT
100
AcDbLine
 10
376.650442
 20
292.4048410000001
 30
0.0
 11
376.650442
 21
288.907994
 31
0.0
  0
LINE
  5
130
330
1F
100
AcDbEntity
  8
NOCUT
100
AcDbLine
 10
376.650442
 20
288.907994
 30
0.0
 11
217.404842
 21
288.907994
 31
0.0
  0
ARC
  5
139
330
1F
100
AcDbEntity
  8
1
100
AcDbCircle
 10
294.332259
 20
314.107994
 30
0.0
 40
16.0
100
AcDbArc
 50
225.0
 51
270.0
  0
CIRCLE
  5
13A
330
1F
100
AcDbEntity
  8
1
100
AcDbCircle
 10
373.921861
 20
286.491244
 30
0.0
 40
0.7000000000000009
  0
ARC
  5
13B
330
1F
100
AcDbEntity
  8
1
100
AcDbCircle
 10
294.332259
 20
263.707994
 30
0.0
 40
16.0
100
AcDbArc
 50
90.0
 51
135.0
  0
ARC
  5
13C
330
1F
100
AcDbEntity
  8
1
100
AcDbCircle
 10
373.921861
 20
286.491244
 30
0.0
 40
1.1
100
AcDbArc
 50
75.0
 51
345.0
  0
ARC
  5
14B
330
1F
100
AcDbEntity
  8
NOCUT
100
AcDbCircle
 10
294.332259
 20
314.107994
 30
0.0
 40
16.0
100
AcDbArc
 50
225.0
 51
270.0
  0
ELLIPSE
  5
14C
330
1F
100
AcDbEntity
  8
1
100
AcDbEllipse
 10
270.73367
 20
288.907993
 30
0.0
 11
36.88137109636276
 21
-6.365446782763183
 31
0.0
210
0.0
220
0.0
230
0.9999999999999998
 40
0.180101
 41
5.437365754047009
 42
5.523887228733179
  0
ELLIPSE
  5
14D
330
1F
100
AcDbEntity
  8
1
100
AcDbEllipse
 10
373.596175
 20
295.1447990000001
 30
0.0
 11
-1.650970041143471
 21
0.5803429358980124
 31
0.0
210
0.0
220
0.0
230
1.0
 40
0.9986169999999999
 41
3.141587919873796
 42
5.879878490359351
  0
ELLIPSE
  5
14E
330
1F
100
AcDbEntity
  8
1
100
AcDbEllipse
 10
371.166539
 20
292.481025
 30
0.0
 11
1.037752597290183
 21
-0.3647869882787497
 31
0.0
210
0.0
220
0.0
230
1.0
 40
0.9986169999999999
 41
5.882364203772201
 42
5.931335259946561
  0
ELLIPSE
  5
14F
330
1F
100
AcDbEntity
  8
1
100
AcDbEllipse
 10
373.588758
 20
295.123698
 30
0.0
 11
1.650970041143471
 21
-0.5803429358980108
 31
0.0
210
0.0
220
0.0
230
0.9999999999999998
 40
0.9986169999999999
 41
2.738286252944958
 42
3.141686341718189
  0
ELLIPSE
  5
150
330
1F
100
AcDbEntity
  8
1
100
AcDbEllipse
 10
373.588758
 20
295.123698
 30
0.0
 11
1.650970041143471
 21
-0.5803429358980108
 31
0.0
210
0.0
220
0.0
230
0.9999999999999998
 40
0.9986169999999999
 41
0.0
 42
2.738285992692068
  0
ELLIPSE
  5
151
330
1F
100
AcDbEntity
  8
1
100
AcDbEllipse
 10
372.7264
 20
295.461025
 30
0.0
 11
-0.0794580284109328
 21
0.0279307948294025
 31
0.0
210
0.0
220
0.0
230
0.9999999999999998
 40
0.9986169999999997
 41
3.731853534954141
 42
4.570881727131742
  0
ELLIPSE
  5
152
330
1F
100
AcDbEntity
  8
1
100
AcDbEllipse
 10
372.80404
 20
295.610257
 30
0.0
 11
-0.0794580284109329
 21
0.0279307948294025
 31
0.0
210
0.0
220
0.0
230
1.0
 40
0.9986169999999997
 41
0.0666621057658728
 42
1.42928907354196
  0
ELLIPSE
  5
153
330
1F
100
AcDbEntity
  8
1
100
AcDbEllipse
 10
373.139042
 20
295.517017
 30
0.0
 11
-0.4075175559138354
 21
0.1432490771699385
 31
0.0
210
0.0
220
0.0
230
1.0
 40
0.9986169999999999
 41
5.409909919309363
 42
6.349847412945445
  0
ELLIPSE
  5
154
330
1F
100
AcDbEntity
  8
1
100
AcDbEllipse
 10
373.016585
 20
295.842177
 30
0.0
 11
-0.0794580284109326
 21
0.0279307948294024
 31
0.0
210
0.0
220
0.0
230
1.0
 40
0.9986169999999997
 41
4.047282951533025
 42
5.409909919309157
  0
ELLIPSE
  5
155
330
1F
100
AcDbEntity
  8
1
100
AcDbEllipse
 10
373.158552
 20
295.932573
 30
0.0
 11
-0.0794580284109327
 21
0.0279307948294024
 31
0.0
210
0.0
220
0.0
230
0.9999999999999998
 40
0.9986169999999997
 41
0.90569029794355
 42
1.744718490121235
  0
ELLIPSE
  5
156
330
1F
100
AcDbEntity
  8
1
100
AcDbEllipse
 10
373.215204
 20
296.275192
 30
0.0
 11
-0.4075175559138354
 21
0.1432490771699385
 31
0.0
210
0.0
220
0.0
230
1.0
 40
0.9986169999999999
 41
1.744718490121245
 42
2.684655983757376
  0
ELLIPSE
  5
157
330
1F
100
AcDbEntity
  8
1
100
AcDbEllipse
 10
373.458799
 20
296.027164
 30
0.0
 11
-0.0794580284109328
 21
0.0279307948294025
 31
0.0
210
0.0
220
0.0
230
0.9999999999999998
 40
0.9986169999999997
 41
2.684655983757131
 42
3.523684175935136
  0
ELLIPSE
  5
158
330
1F
100
AcDbEntity
  8
1
100
AcDbEllipse
 10
373.627055
 20
296.034503
 30
0.0
 11
-0.0794580284109329
 21
0.0279307948294025
 31
0.0
210
0.0
220
0.0
230
1.0
 40
0.9986169999999997
 41
5.302649861748811
 42
6.665276829524693
  0
ELLIPSE
  5
159
330
1F
100
AcDbEntity
  8
1
100
AcDbEllipse
 10
373.713973
 20
295.698146
 30
0.0
 11
-0.4075175559138354
 21
0.1432490771699385
 31
0.0
210
0.0
220
0.0
230
1.0
 40
0.9986169999999999
 41
4.36271236811271
 42
5.302649861748881
  0
ELLIPSE
  5
15A
330
1F
100
AcDbEntity
  8
1
100
AcDbEllipse
 10
373.934554
 20
295.966419
 30
0.0
 11
-0.0794580284109326
 21
0.0279307948294024
 31
0.0
210
0.0
220
0.0
230
1.0
 40
0.9986169999999997
 41
3.000085400336865
 42
4.362712368112868
  0
ELLIPSE
  5
15B
330
1F
100
AcDbEntity
  8
1
100
AcDbEllipse
 10
374.084014
 20
295.888734
 30
0.0
 11
-0.0794580284109327
 21
0.0279307948294024
 31
0.0
210
0.0
220
0.0
230
0.9999999999999998
 40
0.9986169999999997
 41
6.141678053926598
 42
6.980706246104193
  0
ELLIPSE
  5
15C
330
1F
100
AcDbEntity
  8
1
100
AcDbEllipse
 10
374.409419
 20
296.010777
 30
0.0
 11
-0.4075175559138354
 21
0.1432490771699385
 31
0.0
210
0.0
220
0.0
230
1.0
 40
0.9986169999999999
 41
0.6975209389246507
 42
1.637458432560736
  0
ELLIPSE
  5
15D
330
1F
100
AcDbEntity
  8
1
100
AcDbEllipse
 10
374.316369
 20
295.676218
 30
0.0
 11
-0.0794580284109328
 21
0.0279307948294025
 31
0.0
210
0.0
220
0.0
230
0.9999999999999998
 40
0.9986169999999997
 41
1.637458432560791
 42
2.476486624738455
  0
ELLIPSE
  5
15E
330
1F
100
AcDbEntity
  8
1
100
AcDbEllipse
 10
374.406986
 20
295.534325
 30
0.0
 11
-0.0794580284109329
 21
0.0279307948294025
 31
0.0
210
0.0
220
0.0
230
1.0
 40
0.9986169999999997
 41
4.255452310552431
 42
5.618079278328352
  0
ELLIPSE
  5
15F
330
1F
100
AcDbEntity
  8
1
100
AcDbEllipse
 10
374.158901
 20
295.291207
 30
0.0
 11
-0.4075175559138354
 21
0.1432490771699385
 31
0.0
210
0.0
220
0.0
230
1.0
 40
0.9986169999999999
 41
3.315514816916167
 42
4.255452310552231
  0
ELLIPSE
  5
160
330
1F
100
AcDbEntity
  8
1
100
AcDbEllipse
 10
374.501939
 20
295.234319
 30
0.0
 11
-0.0794580284109326
 21
0.0279307948294024
 31
0.0
210
0.0
220
0.0
230
1.0
 40
0.9986169999999997
 41
1.952887849139889
 42
3.315514816916041
  0
ELLIPSE
  5
161
330
1F
100
AcDbEntity
  8
1
100
AcDbEllipse
 10
374.509431
 20
295.066239
 30
0.0
 11
-0.0794580284109327
 21
0.0279307948294024
 31
0.0
210
0.0
220
0.0
230
0.9999999999999998
 40
0.9986169999999997
 41
5.094480502730027
 42
5.933508694907717
  0
ELLIPSE
  5
162
330
1F
100
AcDbEntity
  8
1
100
AcDbEllipse
 10
374.778185
 20
294.845663
 30
0.0
 11
-0.4075175559138354
 21
0.1432490771699385
 31
0.0
210
0.0
220
0.0
230
1.0
 40
0.9986169999999999
 41
5.933508694907694
 42
6.873446188543755
  0
ELLIPSE
  5
163
330
1F
100
AcDbEntity
  8
1
100
AcDbEllipse
 10
374.44154
 20
294.759131
 30
0.0
 11
-0.0794580284109328
 21
0.0279307948294025
 31
0.0
210
0.0
220
0.0
230
0.9999999999999998
 40
0.9986169999999997
 41
0.5902608813643483
 42
1.429289073541781
  0
ELLIPSE
  5
164
330
1F
100
AcDbEntity
  8
1
100
AcDbEllipse
 10
374.3639
 20
294.6099
 30
0.0
 11
-0.0794580284109329
 21
0.0279307948294025
 31
0.0
210
0.0
220
0.0
230
1.0
 40
0.9986169999999997
 41
3.208254759355823
 42
4.570881727131742
  0
ELLIPSE
  5
165
330
1F
100
AcDbEntity
  8
1
100
AcDbEllipse
 10
374.028899
 20
294.703139
 30
0.0
 11
-0.4075175559138354
 21
0.1432490771699385
 31
0.0
210
0.0
220
0.0
230
1.0
 40
0.9986169999999999
 41
2.26831726571958
 42
3.208254759355683
  0
ELLIPSE
  5
166
330
1F
100
AcDbEntity
  8
1
100
AcDbEllipse
 10
374.151356
 20
294.377979
 30
0.0
 11
-0.0794580284109326
 21
0.0279307948294024
 31
0.0
210
0.0
220
0.0
230
1.0
 40
0.9986169999999997
 41
0.9056902979435783
 42
2.268317265719546
  0
ELLIPSE
  5
167
330
1F
100
AcDbEntity
  8
1
100
AcDbEllipse
 10
374.009388
 20
294.287583
 30
0.0
 11
-0.0794580284109327
 21
0.0279307948294024
 31
0.0
210
0.0
220
0.0
230
0.9999999999999998
 40
0.9986169999999997
 41
4.047282951533475
 42
4.886311143711195
  0
ELLIPSE
  5
168
330
1F
100
AcDbEntity
  8
1
100
AcDbEllipse
 10
373.952736
 20
293.944964
 30
0.0
 11
-0.4075175559138354
 21
0.1432490771699385
 31
0.0
210
0.0
220
0.0
230
1.0
 40
0.9986169999999999
 41
4.886311143711066
 42
5.826248637347169
  0
ELLIPSE
  5
169
330
1F
100
AcDbEntity
  8
1
100
AcDbEllipse
 10
373.709141
 20
294.192992
 30
0.0
 11
-0.0794580284109328
 21
0.0279307948294025
 31
0.0
210
0.0
220
0.0
230
0.9999999999999998
 40
0.9986169999999997
 41
5.826248637347079
 42
6.665276829524928
  0
ELLIPSE
  5
16A
330
1F
100
AcDbEntity
  8
1
100
AcDbEllipse
 10
373.540885
 20
294.185653
 30
0.0
 11
-0.0794580284109329
 21
0.0279307948294025
 31
0.0
210
0.0
220
0.0
230
1.0
 40
0.9986169999999997
 41
2.161057208159204
 42
3.523684175934993
  0
ELLIPSE
  5
16B
330
1F
100
AcDbEntity
  8
1
100
AcDbEllipse
 10
373.4539680000001
 20
294.52201
 30
0.0
 11
-0.4075175559138354
 21
0.1432490771699385
 31
0.0
210
0.0
220
0.0
230
1.0
 40
0.9986169999999999
 41
1.221119714522979
 42
2.161057208159106
  0
ELLIPSE
  5
16C
330
1F
100
AcDbEntity
  8
1
100
AcDbEllipse
 10
373.233387
 20
294.253737
 30
0.0
 11
-0.0794580284109326
 21
0.0279307948294024
 31
0.0
210
0.0
220
0.0
230
1.0
 40
0.9986169999999997
 41
6.141678053926741
 42
7.504305021703006
  0
ELLIPSE
  5
16D
330
1F
100
AcDbEntity
  8
1
100
AcDbEllipse
 10
373.083927
 20
294.331422
 30
0.0
 11
-0.0794580284109327
 21
0.0279307948294024
 31
0.0
210
0.0
220
0.0
230
0.9999999999999998
 40
0.9986169999999997
 41
3.00008540033678
 42
3.839113592514399
  0
ELLIPSE
  5
16E
330
1F
100
AcDbEntity
  8
1
100
AcDbEllipse
 10
372.758521
 20
294.209379
 30
0.0
 11
-0.4075175559138354
 21
0.1432490771699385
 31
0.0
210
0.0
220
0.0
230
1.0
 40
0.9986169999999999
 41
3.839113592514443
 42
4.779051086150559
  0
ELLIPSE
  5
16F
330
1F
100
AcDbEntity
  8
1
100
AcDbEllipse
 10
372.851571
 20
294.543939
 30
0.0
 11
-0.0794580284109328
 21
0.0279307948294025
 31
0.0
210
0.0
220
0.0
230
0.9999999999999998
 40
0.9986169999999997
 41
4.779051086150416
 42
5.618079278328388
  0
ELLIPSE
  5
170
330
1F
100
AcDbEntity
  8
1
100
AcDbEllipse
 10
372.760955
 20
294.685832
 30
0.0
 11
-0.0794580284109329
 21
0.0279307948294025
 31
0.0
210
0.0
220
0.0
230
1.0
 40
0.9986169999999997
 41
1.113859656962638
 42
2.476486624738321
  0
ELLIPSE
  5
171
330
1F
100
AcDbEntity
  8
1
100
AcDbEllipse
 10
373.009039
 20
294.928949
 30
0.0
 11
-0.4075175559138354
 21
0.1432490771699385
 31
0.0
210
0.0
220
0.0
230
1.0
 40
0.9986169999999999
 41
0.17392216332638
 42
1.113859656962491
  0
ELLIPSE
  5
172
330
1F
100
AcDbEntity
  8
1
100
AcDbEllipse
 10
372.666001
 20
294.985837
 30
0.0
 11
-0.0794580284109326
 21
0.0279307948294024
 31
0.0
210
0.0
220
0.0
230
1.0
 40
0.9986169999999997
 41
5.094480502729996
 42
6.457107470505973
  0
ELLIPSE
  5
173
330
1F
100
AcDbEntity
  8
1
100
AcDbEllipse
 10
372.658509
 20
295.153917
 30
0.0
 11
-0.0794580284109327
 21
0.0279307948294024
 31
0.0
210
0.0
220
0.0
230
0.9999999999999998
 40
0.9986169999999997
 41
1.952887849139889
 42
2.791916041317945
  0
ELLIPSE
  5
174
330
1F
100
AcDbEntity
  8
1
100
AcDbEllipse
 10
372.389755
 20
295.374493
 30
0.0
 11
-0.4075175559138354
 21
0.1432490771699385
 31
0.0
210
0.0
220
0.0
230
1.0
 40
0.9986169999999999
 41
2.791916041317844
 42
3.731853534953966
  0
ELLIPSE
  5
175
330
1F
100
AcDbEntity
  8
1
100
AcDbEllipse
 10
373.58397
 20
295.110078
 30
0.0
 11
1.08492316989428
 21
-0.3813682150186927
 31
0.0
210
0.0
220
0.0
230
0.9999999999999998
 40
0.9986169999999997
 41
0.0
 42
6.283185307179585
  0
ELLIPSE
  5
176
330
1F
100
AcDbEntity
  8
1
100
AcDbEllipse
 10
373.695736
 20
295.260665
 30
0.0
 11
1.652572938396774
 21
-0.5809063804637766
 31
0.0
210
0.0
220
0.0
230
1.0
 40
0.9986169999999999
 41
5.899022697473661
 42
6.283185307179585
  0
ELLIPSE
  5
177
330
1F
100
AcDbEntity
  8
1
100
AcDbEllipse
 10
373.695736
 20
295.260665
 30
0.0
 11
1.652572938396774
 21
-0.5809063804637766
 31
0.0
210
0.0
220
0.0
230
1.0
 40
0.9986169999999999
 41
0.0
 42
1.666708259525901
  0
ELLIPSE
  5
178
330
1F
100
AcDbEntity
  8
1
100
AcDbEllipse
 10
371.257198
 20
292.552431
 30
0.0
 11
0.9544181520918142
 21
1.042471549771984
 31
0.0
210
0.0
220
0.0
230
1.0
 40
0.014608
 41
0.9817638393597524
 42
1.536574872002715
  0
ELLIPSE
  5
179
330
1F
100
AcDbEntity
  8
1
100
AcDbEllipse
 10
373.683531
 20
295.225944
 30
0.0
 11
-1.768896472653717
 21
0.6217960027478699
 31
0.0
210
0.0
220
0.0
230
1.0
 40
0.9986169999999999
 41
0.0
 42
6.283185307179585
  0
ELLIPSE
  5
17A
330
1F
100
AcDbEntity
  8
1
100
AcDbEllipse
 10
371.032427
 20
297.594972
 30
0.0
 11
1.042970518873892
 21
-0.9548749752690852
 31
0.0
210
0.0
220
0.0
230
1.0
 40
0.034202
 41
1.030578139274465
 42
1.585389171993246
  0
ELLIPSE
  5
17B
330
1F
100
AcDbEntity
  8
1
100
AcDbEllipse
 10
376.080222
 20
297.815134
 30
0.0
 11
0.9544181520921359
 21
1.042471549750615
 31
0.0
210
0.0
220
0.0
230
0.9999999999999998
 40
0.014608
 41
1.536574872724033
 42
2.091385905350088
  0
ELLIPSE
  5
17C
330
1F
100
AcDbEntity
  8
1
100
AcDbEllipse
 10
376.304994
 20
292.772593
 30
0.0
 11
1.042970518597459
 21
-0.9548749750384796
 31
0.0
210
0.0
220
0.0
230
0.9999999999999998
 40
0.034202
 41
1.585389172343931
 42
2.140200205205091
  0
ELLIPSE
  5
17D
330
1F
100
AcDbEntity
  8
1
100
AcDbEllipse
 10
376.406335
 20
291.909447
 30
0.0
 11
0.0003755628771343
 21
0.5004820718028884
 31
0.0
210
0.0
220
0.0
230
0.9999999999999998
 40
0.140044
 41
3.196620263475868
 42
4.767416590273652
  0
ELLIPSE
  5
17E
330
1F
100
AcDbEntity
  8
1
100
AcDbEllipse
 10
376.987427
 20
288.907994
 30
0.0
 11
0.9957966786686332
 21
9.198959527951574
 31
0.0
210
0.0
220
0.0
230
1.0
 40
0.138944
 41
1.938190662237483
 42
3.156632395651048
  0
ELLIPSE
  5
17F
330
1F
100
AcDbEntity
  8
1
100
AcDbEllipse
 10
376.650442
 20
288.907994
 30
0.0
 11
0.0
 21
9.199999999507037
 31
0.0
210
0.0
220
0.0
230
1.0
 40
0.140541
 41
1.487233866174211
 42
1.923150920194894
  0
ELLIPSE
  5
180
330
1F
100
AcDbEntity
  8
1
100
AcDbEllipse
 10
371.211523
 20
292.608998
 30
0.0
 11
-1.037752597290181
 21
0.3647869882787505
 31
0.0
210
0.0
220
0.0
230
1.0
 40
0.9986169999999999
 41
0.0617470360453914
 42
1.952887366749434
  0
ELLIPSE
  5
181
330
1F
100
AcDbEntity
  8
1
100
AcDbEllipse
 10
371.211523
 20
292.608998
 30
0.0
 11
-1.037752597290181
 21
0.3647869882787505
 31
0.0
210
0.0
220
0.0
230
1.0
 40
0.9986169999999999
 41
1.952888276015085
 42
2.882603670849407
  0
ELLIPSE
  5
182
330
1F
100
AcDbEntity
  8
1
100
AcDbEllipse
 10
371.171769
 20
292.495906
 30
0.0
 11
-1.037752597290181
 21
0.3647869882787506
 31
0.0
210
0.0
220
0.0
230
0.9999999999999998
 40
0.9986169999999999
 41
5.608353607745575
 42
5.836666734888797
  0
ELLIPSE
  5
183
330
1F
100
AcDbEntity
  8
1
100
AcDbEllipse
 10
371.166539
 20
292.481025
 30
0.0
 11
1.037752597290183
 21
-0.3647869882787497
 31
0.0
210
0.0
220
0.0
230
1.0
 40
0.9986169999999999
 41
2.695074081298981
 42
4.24067786195172
  0
ELLIPSE
  5
184
330
1F
100
AcDbEntity
  8
1
100
AcDbEllipse
 10
370.594645
 20
288.908014
 30
0.0
 11
0.3880228992041454
 21
-9.19997626525159
 31
0.0
210
0.0
220
0.0
230
1.0
 40
0.019519
 41
3.264085985245912
 42
3.296826103480256
  0
ELLIPSE
  5
185
330
1F
100
AcDbEntity
  8
1
100
AcDbEllipse
 10
314.143694
 20
288.90828
 30
0.0
 11
527.5603252911292
 21
-0.4565666270816898
 31
0.0
210
0.0
220
0.0
230
1.0
 40
0.017417
 41
1.464386116112771
 42
1.471020948940472
  0
ELLIPSE
  5
186
330
1F
100
AcDbEntity
  8
1
100
AcDbEllipse
 10
370.95643
 20
303.768823
 30
0.0
 11
-11.886984296233
 21
4.17846913846569
 31
0.0
210
0.0
220
0.0
230
0.9999999999999998
 40
0.9986169999999999
 41
1.586763935636259
 42
1.952887849140188
  0
ELLIPSE
  5
187
330
1F
100
AcDbEntity
  8
1
100
AcDbEllipse
 10
371.081085
 20
290.303546
 30
0.0
 11
-2.574461399572081
 21
-0.1237761673998796
 31
0.0
210
0.0
220
0.0
230
1.0
 40
0.221493
 41
1.752927283201339
 42
4.52412639862015
  0
ELLIPSE
  5
188
330
1F
100
AcDbEntity
  8
1
100
AcDbEllipse
 10
316.02914
 20
288.907993
 30
0.0
 11
196.2389220680244
 21
8.971951427837597
 31
0.0
210
0.0
220
0.0
230
1.0
 40
0.010374
 41
4.998935996775602
 42
5.019071745926278
  0
ELLIPSE
  5
189
330
1F
100
AcDbEntity
  8
1
100
AcDbEllipse
 10
376.115903
 20
283.583319
 30
0.0
 11
0.0323262014611773
 21
0.2994966855051429
 31
0.0
210
0.0
220
0.0
230
1.0
 40
0.139171
 41
1.583568179247051
 42
3.154364506042524
  0
ELLIPSE
  5
18A
330
1F
100
AcDbEntity
  8
1
100
AcDbEllipse
 10
376.344063
 20
288.971654
 30
0.0
 11
0.0001054973293692
 21
-0.3000466005998833
 31
0.0
210
0.0
220
0.0
230
1.0
 40
0.140519
 41
3.139090475970026
 42
4.709886802762983
  0
ELLIPSE
  5
18B
330
1F
100
AcDbEntity
  8
1
100
AcDbEllipse
 10
312.069325
 20
288.907994
 30
0.0
 11
36.88137113687678
 21
-6.365446796441246
 31
0.0
210
0.0
220
0.0
230
0.9999999999999998
 40
0.180101
 41
4.242021711149828
 42
4.384729848552768
  0
ELLIPSE
  5
18C
330
1F
100
AcDbEntity
  8
1
100
AcDbEllipse
 10
371.171769
 20
292.495906
 30
0.0
 11
-1.037752597290181
 21
0.3647869882787506
 31
0.0
210
0.0
220
0.0
230
0.9999999999999998
 40
0.9986169999999999
 41
2.789742606356793
 42
3.003700138744412
  0
SPLINE
  5
193
330
1F
100
AcDbEntity
  8
1
100
AcDbSpline
210
0.0
220
0.0
230
1.0
 70
     8
 71
     3
 72
    32
 73
    28
 74
     0
 42
0.000000001
 43
0.0000000001
 40
0.0
 40
0.0
 40
0.0
 40
0.0
 40
0.0624999999999995
 40
0.0624999999999995
 40
0.1249999999999989
 40
0.1249999999999989
 40
0.1874999999999984
 40
0.1874999999999984
 40
0.2499999999999979
 40
0.2499999999999979
 40
0.3124999999999973
 40
0.3749999999999968
 40
0.3749999999999968
 40
0.4999999999999963
 40
0.4999999999999963
 40
0.5156249999999964
 40
0.5156249999999964
 40
0.5312499999999965
 40
0.5312499999999965
 40
0.5624999999999966
 40
0.6249999999999973
 40
0.6249999999999973
 40
0.7499999999999982
 40
0.7499999999999982
 40
0.8749999999999989
 40
0.8749999999999989
 40
1.0
 40
1.0
 40
1.0
 40
1.0
 10
294.3322589432653
 20
279.7150379437882
 30
0.0
 10
294.0614667707289
 20
279.7184741526408
 30
0.0
 10
293.7932092159205
 20
279.7164622792652
 30
0.0
 10
293.2611933083819
 20
279.7027676371299
 30
0.0
 10
292.9974357633767
 20
279.6910831321907
 30
0.0
 10
292.4739924824029
 20
279.6589618950214
 30
0.0
 10
292.214307434234
 20
279.6385236843871
 30
0.0
 10
291.6987001198421
 20
279.589559279979
 30
0.0
 10
291.4427784282281
 20
279.5610318511012
 30
0.0
 10
290.9344882563441
 20
279.4963394757173
 30
0.0
 10
290.4297518618707
 20
279.4240083659629
 30
0.0
 10
289.931871532253
 20
279.3369403573515
 30
0.0
 10
289.1901105283829
 20
279.1954631263367
 30
0.0
 10
288.7023229179088
 20
279.0867011308189
 30
0.0
 10
288.1612741476833
 20
278.9477665542526
 30
0.0
 10
288.1012652796031
 20
278.9320979630656
 30
0.0
 10
287.9814643087946
 20
278.900294850288
 30
0.0
 10
287.9216520342465
 20
278.8841546409685
 30
0.0
 10
287.7428211870853
 20
278.8351071394678
 30
0.0
 10
287.3873737111035
 20
278.7344504232711
 30
0.0
 10
287.0385761255176
 20
278.6261001966104
 30
0.0
 10
286.3499520724371
 20
278.3990207164483
 30
0.0
 10
285.9028089373282
 20
278.2338210584117
 30
0.0
 10
285.0335712119625
 20
277.8744421305775
 30
0.0
 10
284.611478993973
 20
277.6802601162137
 30
0.0
 10
283.7942011724587
 20
277.2607668045041
 30
0.0
 10
283.3990119969129
 20
277.0354596397647
 30
0.0
 10
283.0185504442805
 20
276.7931135293814
 30
0.0
  0
SPLINE
  5
194
330
1F
100
AcDbEntity
  8
1
100
AcDbSpline
210
0.0
220
0.0
230
1.0
 70
     8
 71
     3
 72
    70
 73
    66
 74
     0
 42
0.000000001
 43
0.0000000001
 40
0.0
 40
0.0
 40
0.0
 40
0.0
 40
0.0312499999999998
 40
0.0312499999999998
 40
0.0624999999999997
 40
0.0624999999999997
 40
0.0937499999999995
 40
0.0937499999999995
 40
0.1249999999999993
 40
0.1249999999999993
 40
0.1562499999999992
 40
0.1562499999999992
 40
0.187499999999999
 40
0.187499999999999
 40
0.2187499999999988
 40
0.2187499999999988
 40
0.2499999999999987
 40
0.2499999999999987
 40
0.2812499999999987
 40
0.2812499999999987
 40
0.3124999999999988
 40
0.3124999999999988
 40
0.3437499999999988
 40
0.3437499999999988
 40
0.3749999999999989
 40
0.3749999999999989
 40
0.406249999999999
 40
0.406249999999999
 40
0.437499999999999
 40
0.437499999999999
 40
0.4687499999999992
 40
0.4687499999999992
 40
0.4999999999999992
 40
0.4999999999999992
 40
0.5312499999999992
 40
0.5312499999999992
 40
0.5624999999999992
 40
0.5624999999999992
 40
0.5937499999999992
 40
0.5937499999999992
 40
0.6249999999999993
 40
0.6249999999999993
 40
0.6562499999999993
 40
0.6562499999999993
 40
0.6874999999999995
 40
0.6874999999999995
 40
0.7187499999999995
 40
0.7187499999999995
 40
0.7499999999999996
 40
0.7499999999999996
 40
0.7812499999999996
 40
0.7812499999999996
 40
0.8124999999999996
 40
0.8124999999999996
 40
0.8437499999999996
 40
0.8437499999999996
 40
0.8749999999999998
 40
0.8749999999999998
 40
0.9062499999999998
 40
0.9062499999999998
 40
0.9375
 40
0.9375
 40
0.96875
 40
0.96875
 40
1.0
 40
1.0
 40
1.0
 40
1.0
 10
375.6237515238888
 20
285.7329935137014
 30
0.0
 10
375.6211812004465
 20
285.6964444259953
 30
0.0
 10
375.6188771927253
 20
285.660393662317
 30
0.0
 10
375.6147960971857
 20
285.5892780957114
 30
0.0
 10
375.6130169873317
 20
285.5541659203715
 30
0.0
 10
375.6100002405905
 20
285.4851479226791
 30
0.0
 10
375.6087678584755
 20
285.4513787464294
 30
0.0
 10
375.6068493129798
 20
285.3853045887329
 30
0.0
 10
375.6061625284094
 20
285.3529429864027
 30
0.0
 10
375.6053440811467
 20
285.2899670157928
 30
0.0
 10
375.6052124126512
 20
285.25943471713
 30
0.0
 10
375.6054987296402
 20
285.2002627058112
 30
0.0
 10
375.6059183709125
 20
285.1715660470595
 30
0.0
 10
375.6073053349762
 20
285.1163766012511
 30
0.0
 10
375.6082702159994
 20
285.0899221832591
 30
0.0
 10
375.6107379823891
 20
285.0392738162336
 30
0.0
 10
375.6122451113327
 20
285.0150300684291
 30
0.0
 10
375.6157808594803
 20
284.969109059671
 30
0.0
 10
375.617806935865
 20
284.9474388463557
 30
0.0
 10
375.6223716521441
 20
284.9066598070106
 30
0.0
 10
375.6249169039693
 20
284.8875136195724
 30
0.0
 10
375.630486814352
 20
284.8520533823147
 30
0.0
 10
375.6335105572258
 20
284.8357274112944
 30
0.0
 10
375.6400329061232
 20
284.805867815781
 30
0.0
 10
375.6435401231331
 20
284.7923111800442
 30
0.0
 10
375.6509768237054
 20
284.7682068554677
 30
0.0
 10
375.6549081878702
 20
284.7576387092681
 30
0.0
 10
375.6631947895548
 20
284.7394554398485
 30
0.0
 10
375.6675611504896
 20
284.7318279934492
 30
0.0
 10
375.6766597458429
 20
284.7196487937424
 30
0.0
 10
375.681390001905
 20
284.7150886758346
 30
0.0
 10
375.6912101570026
 20
284.7090081854996
 30
0.0
 10
375.6963094252188
 20
284.7074884226818
 30
0.0
 10
375.7068290084695
 20
284.707529997652
 30
0.0
 10
375.7122335740742
 20
284.7090852639177
 30
0.0
 10
375.7233302736145
 20
284.7152437716731
 30
0.0
 10
375.729031335127
 20
284.7198567656944
 30
0.0
 10
375.7406844792916
 20
284.7321288965271
 30
0.0
 10
375.7466166505813
 20
284.7397624764523
 30
0.0
 10
375.7586908790528
 20
284.7580060522801
 30
0.0
 10
375.7648409763437
 20
284.7686318343525
 30
0.0
 10
375.7773186634696
 20
284.792833510715
 30
0.0
 10
375.7836210332035
 20
284.8063569458322
 30
0.0
 10
375.7963521018309
 20
284.8362328150837
 30
0.0
 10
375.802787806942
 20
284.8526045464936
 30
0.0
 10
375.8157572225034
 20
284.8881364872225
 30
0.0
 10
375.8222613412205
 20
284.9072127979734
 30
0.0
 10
375.8353081963266
 20
284.9479723156347
 30
0.0
 10
375.8418573691642
 20
284.9696781564789
 30
0.0
 10
375.8549674214485
 20
285.0156407127612
 30
0.0
 10
375.8614966698864
 20
285.0397839940557
 30
0.0
 10
375.8745038651242
 20
285.0903831235399
 30
0.0
 10
375.8809884763245
 20
285.1168675925173
 30
0.0
 10
375.8938769719019
 20
285.1720634319432
 30
0.0
 10
375.9002502935238
 20
285.2006411667635
 30
0.0
 10
375.9128557496459
 20
285.2597470770012
 30
0.0
 10
375.9190954991471
 20
285.2903143673112
 30
0.0
 10
375.9313982058023
 20
285.3532604520741
 30
0.0
 10
375.9374348022143
 20
285.385500848257
 30
0.0
 10
375.9492795280197
 20
285.4515093484235
 30
0.0
 10
375.9550964516475
 20
285.4853311624152
 30
0.0
 10
375.9664582424532
 20
285.5542850962216
 30
0.0
 10
375.9719832722687
 20
285.5892918862029
 30
0.0
 10
375.9827230112683
 20
285.6603603175603
 30
0.0
 10
375.9879472209836
 20
285.6964914493918
 30
0.0
 10
375.9929910264797
 20
285.7329935137014
 30
0.0
  0
SPLINE
  5
195
330
1F
100
AcDbEntity
  8
1
100
AcDbSpline
210
0.0
220
0.0
230
1.0
 70
     8
 71
     3
 72
    92
 73
    88
 74
     0
 42
0.000000001
 43
0.0000000001
 40
0.0
 40
0.0
 40
0.0
 40
0.0
 40
0.0312500000000012
 40
0.0312500000000012
 40
0.0468750000000019
 40
0.0468750000000019
 40
0.0625000000000026
 40
0.0781250000000032
 40
0.0781250000000032
 40
0.0937500000000039
 40
0.0937500000000039
 40
0.1250000000000054
 40
0.1250000000000054
 40
0.1562500000000068
 40
0.1562500000000068
 40
0.1875000000000083
 40
0.1875000000000083
 40
0.203125000000009
 40
0.203125000000009
 40
0.2187500000000097
 40
0.2187500000000097
 40
0.2500000000000114
 40
0.2500000000000114
 40
0.2656250000000124
 40
0.2656250000000124
 40
0.2812500000000133
 40
0.2968750000000143
 40
0.2968750000000143
 40
0.3125000000000153
 40
0.3125000000000153
 40
0.3437500000000181
 40
0.3437500000000181
 40
0.3593750000000188
 40
0.3593750000000188
 40
0.3750000000000195
 40
0.3906250000000202
 40
0.3906250000000202
 40
0.4062500000000208
 40
0.4062500000000208
 40
0.437500000000021
 40
0.437500000000021
 40
0.4531250000000212
 40
0.4531250000000212
 40
0.4687500000000214
 40
0.4687500000000214
 40
0.500000000000021
 40
0.5312500000000206
 40
0.5312500000000206
 40
0.5625000000000204
 40
0.5625000000000204
 40
0.5937500000000201
 40
0.5937500000000201
 40
0.6250000000000198
 40
0.6250000000000198
 40
0.6562500000000195
 40
0.6562500000000195
 40
0.6875000000000191
 40
0.6875000000000191
 40
0.7031250000000191
 40
0.7031250000000191
 40
0.7187500000000188
 40
0.7187500000000188
 40
0.7500000000000173
 40
0.7500000000000173
 40
0.7656250000000165
 40
0.7656250000000165
 40
0.7812500000000157
 40
0.7968750000000148
 40
0.7968750000000148
 40
0.812500000000014
 40
0.812500000000014
 40
0.8437500000000117
 40
0.8437500000000117
 40
0.8593750000000104
 40
0.8593750000000104
 40
0.875000000000009
 40
0.8906250000000078
 40
0.8906250000000078
 40
0.9062500000000065
 40
0.9062500000000065
 40
0.9375000000000044
 40
0.9375000000000044
 40
0.9531250000000031
 40
0.9531250000000031
 40
0.9687500000000024
 40
0.9687500000000024
 40
1.0
 40
1.0
 40
1.0
 40
1.0
 10
375.9929910264797
 20
285.7329935137014
 30
0.0
 10
375.994566201106
 20
285.7827446411109
 30
0.0
 10
375.9957381842104
 20
285.8330015360234
 30
0.0
 10
375.9968918864204
 20
285.9091448838307
 30
0.0
 10
375.9971750221436
 20
285.9346492947648
 30
0.0
 10
375.9975360154705
 20
285.9855886398479
 30
0.0
 10
375.9976931467662
 20
286.0365391645798
 30
0.0
 10
375.9974444836041
 20
286.0875119427909
 30
0.0
 10
375.9969919266844
 20
286.1384959023907
 30
0.0
 10
375.9966637756546
 20
286.1639518571337
 30
0.0
 10
375.9953804760261
 20
286.239881646788
 30
0.0
 10
375.9941264024409
 20
286.2900496661693
 30
0.0
 10
375.9908198592703
 20
286.3894805332895
 30
0.0
 10
375.9887803492571
 20
286.438339785011
 30
0.0
 10
375.9839462216878
 20
286.5342043470388
 30
0.0
 10
375.9811425884261
 20
286.5813215989159
 30
0.0
 10
375.9764174691469
 20
286.6498314384246
 30
0.0
 10
375.9747544119843
 20
286.6723381519238
 30
0.0
 10
375.9712525386119
 20
286.7166928131552
 30
0.0
 10
375.969411324813
 20
286.7385670974305
 30
0.0
 10
375.9636392396257
 20
286.8030035529221
 30
0.0
 10
375.959473307303
 20
286.8442570998055
 30
0.0
 10
375.9527520369138
 20
286.9036050946967
 30
0.0
 10
375.9504291016205
 20
286.9229921297387
 30
0.0
 10
375.9456448636857
 20
286.9607503458929
 30
0.0
 10
375.9407233133019
 20
286.997492504972
 30
0.0
 10
375.9355291905713
 20
287.0322177379632
 30
0.0
 10
375.9301985215956
 20
287.065932583482
 30
0.0
 10
375.9274612227878
 20
287.0823040977155
 30
0.0
 10
375.9190867153001
 20
287.1296435845763
 30
0.0
 10
375.9132790113812
 20
287.1589049524431
 30
0.0
 10
375.9042309280031
 20
287.1993548970138
 30
0.0
 10
375.901156468503
 20
287.212269563155
 30
0.0
 10
375.8949298625058
 20
287.2367999308523
 30
0.0
 10
375.8886175370554
 20
287.2600697640663
 30
0.0
 10
375.8821343461792
 20
287.2808269615522
 30
0.0
 10
375.8755652062812
 20
287.3003202486694
 30
0.0
 10
375.8722387938752
 20
287.3094288438771
 30
0.0
 10
375.8621880158926
 20
287.3346994803072
 30
0.0
 10
375.8553736668457
 20
287.348870411152
 30
0.0
 10
375.8449802125107
 20
287.3660847036709
 30
0.0
 10
375.8414968534956
 20
287.3711286319646
 30
0.0
 10
375.8345304460733
 20
287.3797955746795
 30
0.0
 10
375.8310417086836
 20
287.3834282282513
 30
0.0
 10
375.8205591056177
 20
287.3922503487813
 30
0.0
 10
375.8065386922368
 20
287.3984902372068
 30
0.0
 10
375.7924308583912
 20
287.3936586806877
 30
0.0
 10
375.7782775469118
 20
287.3830675675055
 30
0.0
 10
375.7712718121912
 20
287.3749599182714
 30
0.0
 10
375.7574128508105
 20
287.3531528608389
 30
0.0
 10
375.7505415445406
 20
287.3393990737433
 30
0.0
 10
375.7371094094692
 20
287.3065429250292
 30
0.0
 10
375.7305301558533
 20
287.2874220644848
 30
0.0
 10
375.7176626012689
 20
287.2437544352903
 30
0.0
 10
375.7114306372586
 20
287.2194009380882
 30
0.0
 10
375.699369256694
 20
287.1656680513663
 30
0.0
 10
375.6935314153639
 20
287.1362190502054
 30
0.0
 10
375.6851879276615
 20
287.0887761027351
 30
0.0
 10
375.6824712698092
 20
287.07239849294
 30
0.0
 10
375.6771674616629
 20
287.0385123354524
 30
0.0
 10
375.6745767742714
 20
287.0209779690603
 30
0.0
 10
375.667028094756
 20
286.9668480476537
 30
0.0
 10
375.6623046718879
 20
286.9288295725134
 30
0.0
 10
375.6556824701705
 20
286.8689078982634
 30
0.0
 10
375.653549203174
 20
286.8484163701516
 30
0.0
 10
375.6494591145878
 20
286.8066584860261
 30
0.0
 10
375.6455445811705
 20
286.7641277410939
 30
0.0
 10
375.6419793220446
 20
286.7200593575228
 30
0.0
 10
375.638589481094
 20
286.6752187162425
 30
0.0
 10
375.6369803918667
 20
286.6523799933199
 30
0.0
 10
375.6324454839323
 20
286.5830997141898
 30
0.0
 10
375.6298031608344
 20
286.5358087904803
 30
0.0
 10
375.6264109437036
 20
286.4632167499392
 30
0.0
 10
375.6253753730467
 20
286.4387261330076
 30
0.0
 10
375.6235084637337
 20
286.389500261852
 30
0.0
 10
375.6218420133005
 20
286.3399563797379
 30
0.0
 10
375.6205746095354
 20
286.2897794440333
 30
0.0
 10
375.6195077312638
 20
286.239284391693
 30
0.0
 10
375.619075233203
 20
286.2138909866234
 30
0.0
 10
375.6180862705608
 20
286.1377146792943
 30
0.0
 10
375.617833729905
 20
286.0867788207763
 30
0.0
 10
375.6180658200824
 20
286.0101472731173
 30
0.0
 10
375.61824532846
 20
285.9846204912709
 30
0.0
 10
375.6188055253082
 20
285.9337877556394
 30
0.0
 10
375.6191862803071
 20
285.9084531852582
 30
0.0
 10
375.6206294538779
 20
285.8326940040848
 30
0.0
 10
375.6219978622136
 20
285.7823941010813
 30
0.0
 10
375.6237515238887
 20
285.7329935137014
 30
0.0
  0
SPLINE
  5
196
330
1F
100
AcDbEntity
  8
1
100
AcDbSpline
210
0.0
220
0.0
230
1.0
 70
     8
 71
     3
 72
     8
 73
     4
 74
     0
 42
0.000000001
 43
0.0000000001
 40
0.0
 40
0.0
 40
0.0
 40
0.0
 40
1.0
 40
1.0
 40
1.0
 40
1.0
 10
282.2841283975647
 20
276.3285465968144
 30
0.0
 10
282.5295986555487
 20
276.4827968577618
 30
0.0
 10
282.7744407819567
 20
276.6376207423656
 30
0.0
 10
283.0185504442805
 20
276.7931135293814
 30
0.0
  0
SPLINE
  5
197
330
1F
100
AcDbEntity
  8
1
100
AcDbSpline
210
0.0
220
0.0
230
1.0
 70
     8
 71
     3
 72
    19
 73
    15
 74
     0
 42
0.000000001
 43
0.0000000001
 40
0.0
 40
0.0
 40
0.0
 40
0.0
 40
0.2499999999999243
 40
0.2499999999999243
 40
0.3749999999998864
 40
0.3749999999998864
 40
0.4999999999998485
 40
0.6249999999998107
 40
0.6249999999998107
 40
0.6874999999998409
 40
0.6874999999998409
 40
0.7499999999998709
 40
0.7499999999998709
 40
1.0
 40
1.0
 40
1.0
 40
1.0
 10
373.5795481545933
 20
294.1542863762791
 30
0.0
 10
373.5465564593352
 20
294.1456546443017
 30
0.0
 10
373.513067524265
 20
294.1410225247361
 30
0.0
 10
373.4620958765821
 20
294.1400410554128
 30
0.0
 10
373.4449580703097
 20
294.1407359807148
 30
0.0
 10
373.4112817649461
 20
294.1441112884501
 30
0.0
 10
373.3779896158899
 20
294.1494580392368
 30
0.0
 10
373.3454572036575
 20
294.1587037138877
 30
0.0
 10
373.3213515421955
 20
294.167144933812
 30
0.0
 10
373.3133596391763
 20
294.1702151464984
 30
0.0
 10
373.2976908835962
 20
294.1767767980953
 30
0.0
 10
373.2899864019283
 20
294.1802771433939
 30
0.0
 10
373.2521008806178
 20
294.1988549394914
 30
0.0
 10
373.2238042671054
 20
294.2171165814754
 30
0.0
 10
373.1975719371339
 20
294.2388608802993
 30
0.0
  0
SPLINE
  5
198
330
1F
100
AcDbEntity
  8
1
100
AcDbSpline
210
0.0
220
0.0
230
1.0
 70
     8
 71
     3
 72
    18
 73
    14
 74
     0
 42
0.000000001
 43
0.0000000001
 40
0.0
 40
0.0
 40
0.0
 40
0.0
 40
0.1595697195020642
 40
0.1595697195020642
 40
0.3191394390041283
 40
0.3191394390041283
 40
0.4787091585061927
 40
0.4787091585061927
 40
0.6382788780082568
 40
0.6382788780082568
 40
0.957418317012333
 40
0.957418317012333
 40
1.0
 40
1.0
 40
1.0
 40
1.0
 10
373.1975719371339
 20
294.2388608802993
 30
0.0
 10
373.193722392532
 20
294.2420518148542
 30
0.0
 10
373.190219261309
 20
294.2455358039178
 30
0.0
 10
373.1838702582045
 20
294.2530591839256
 30
0.0
 10
373.1810021809061
 20
294.2571428581579
 30
0.0
 10
373.1760883751083
 20
294.2656259898059
 30
0.0
 10
373.1740325085642
 20
294.270020388581
 30
0.0
 10
373.1706860789702
 20
294.2790996652129
 30
0.0
 10
373.1693887661219
 20
294.2838304819945
 30
0.0
 10
373.1667492584799
 20
294.2981133809283
 30
0.0
 10
373.1666151247181
 20
294.307712620016
 30
0.0
 10
373.1682403292468
 20
294.3184734040517
 30
0.0
 10
373.1684581802192
 20
294.3197313563274
 30
0.0
 10
373.1687025238805
 20
294.3209805129427
 30
0.0
  0
SPLINE
  5
199
330
1F
100
AcDbEntity
  8
1
100
AcDbSpline
210
0.0
220
0.0
230
1.0
 70
     8
 71
     3
 72
    16
 73
    12
 74
     0
 42
0.000000001
 43
0.0000000001
 40
0.0
 40
0.0
 40
0.0
 40
0.0
 40
0.0474155536069798
 40
0.0474155536069798
 40
0.2855616652052349
 40
0.2855616652052349
 40
0.5237077768034898
 40
0.5237077768034898
 40
0.761853888401745
 40
0.761853888401745
 40
1.0
 40
1.0
 40
1.0
 40
1.0
 10
373.6286490295673
 20
294.189453880584
 30
0.0
 10
373.6281158147325
 20
294.1886538836843
 30
0.0
 10
373.627568091257
 20
294.1878610616379
 30
0.0
 10
373.624181260378
 20
294.1831298920933
 30
0.0
 10
373.6209975417923
 20
294.1793948955803
 30
0.0
 10
373.6140929121894
 20
294.172569883853
 30
0.0
 10
373.6103493683576
 20
294.1694457579168
 30
0.0
 10
373.6022458120165
 20
294.1638095652582
 30
0.0
 10
373.5979485311127
 20
294.1613480265408
 30
0.0
 10
373.5890321261998
 20
294.1572284961765
 30
0.0
 10
373.5843886881162
 20
294.1555528219002
 30
0.0
 10
373.5795481545933
 20
294.1542863762791
 30
0.0
  0
SPLINE
  5
19A
330
1F
100
AcDbEntity
  8
1
100
AcDbSpline
210
0.0
220
0.0
230
1.0
 70
     8
 71
     3
 72
    14
 73
    10
 74
     0
 42
0.000000001
 43
0.0000000001
 40
0.0
 40
0.0
 40
0.0
 40
0.0
 40
0.3011499971031829
 40
0.3011499971031829
 40
0.6022999942063658
 40
0.6022999942063658
 40
0.9034499913095487
 40
0.9034499913095487
 40
1.0
 40
1.0
 40
1.0
 40
1.0
 10
373.1812850249822
 20
294.4137337650945
 30
0.0
 10
373.183400910582
 20
294.4079788799983
 30
0.0
 10
373.1848764676175
 20
294.4020171187088
 30
0.0
 10
373.1865360843378
 20
294.3901337344814
 30
0.0
 10
373.1867387320174
 20
294.3841892641955
 30
0.0
 10
373.185923956602
 20
294.3722920290932
 30
0.0
 10
373.1848901129926
 20
294.3663555770405
 30
0.0
 10
373.1827841174861
 20
294.3588557601755
 30
0.0
 10
373.1822150140869
 20
294.3570543287298
 30
0.0
 10
373.1815874759539
 20
294.3552723932846
 30
0.0
  0
SPLINE
  5
19B
330
1F
100
AcDbEntity
  8
1
100
AcDbSpline
210
0.0
220
0.0
230
1.0
 70
     8
 71
     3
 72
    12
 73
     8
 74
     0
 42
0.000000001
 43
0.0000000001
 40
0.0
 40
0.0
 40
0.0
 40
0.0
 40
0.0747699892255007
 40
0.0747699892255007
 40
0.5373849946127504
 40
0.5373849946127504
 40
1.0
 40
1.0
 40
1.0
 40
1.0
 10
373.6480350106914
 20
294.2731320265092
 30
0.0
 10
373.6483535436418
 20
294.2740371032802
 30
0.0
 10
373.648687483752
 20
294.2749382409532
 30
0.0
 10
373.6511985681475
 20
294.2813865283171
 30
0.0
 10
373.6539765885219
 20
294.2867976520575
 30
0.0
 10
373.6605309675634
 20
294.2968217370099
 30
0.0
 10
373.6643256546518
 20
294.3015001615079
 30
0.0
 10
373.6686838144063
 20
294.3058173321035
 30
0.0
  0
SPLINE
  5
19C
330
1F
100
AcDbEntity
  8
1
100
AcDbSpline
210
0.0
220
0.0
230
1.0
 70
     8
 71
     3
 72
    20
 73
    16
 74
     0
 42
0.000000001
 43
0.0000000001
 40
0.0
 40
0.0
 40
0.0
 40
0.0
 40
0.2499999999999993
 40
0.2499999999999993
 40
0.3749999999999994
 40
0.3749999999999994
 40
0.4999999999999997
 40
0.4999999999999997
 40
0.6249999999999997
 40
0.6249999999999997
 40
0.7499999999999999
 40
0.7499999999999999
 40
0.8749999999999998
 40
0.8749999999999998
 40
1.0
 40
1.0
 40
1.0
 40
1.0
 10
372.8244111678839
 20
294.6665138741433
 30
0.0
 10
372.8164191062183
 20
294.6612931669478
 30
0.0
 10
372.8078202576828
 20
294.65750834455
 30
0.0
 10
372.7940161474623
 20
294.6539834578871
 30
0.0
 10
372.7892729607938
 20
294.6531867824738
 30
0.0
 10
372.7798120957524
 20
294.6524074981137
 30
0.0
 10
372.7750533713513
 20
294.6524125972246
 30
0.0
 10
372.7654782058971
 20
294.6532492693422
 30
0.0
 10
372.7606915695842
 20
294.6540863598441
 30
0.0
 10
372.7514000405583
 20
294.6565560687231
 30
0.0
 10
372.7468548888518
 20
294.6581907687805
 30
0.0
 10
372.7379792133517
 20
294.6623073578085
 30
0.0
 10
372.7337244453117
 20
294.6647602660909
 30
0.0
 10
372.7257399560932
 20
294.6703568575947
 30
0.0
 10
372.7219834190457
 20
294.6735122928095
 30
0.0
 10
372.7184782873572
 20
294.6770480298408
 30
0.0
  0
SPLINE
  5
19D
330
1F
100
AcDbEntity
  8
1
100
AcDbSpline
210
0.0
220
0.0
230
1.0
 70
     8
 71
     3
 72
    14
 73
    10
 74
     0
 42
0.000000001
 43
0.0000000001
 40
0.0
 40
0.0
 40
0.0
 40
0.0
 40
0.25
 40
0.25
 40
0.5
 40
0.5
 40
0.75
 40
0.75
 40
1.0
 40
1.0
 40
1.0
 40
1.0
 10
372.8244111678839
 20
294.6665138741433
 30
0.0
 10
372.8293851024628
 20
294.6697630302602
 30
0.0
 10
372.8346894733587
 20
294.6724940940681
 30
0.0
 10
372.8456835177327
 20
294.6767936969788
 30
0.0
 10
372.8513443908608
 20
294.6783621565162
 30
0.0
 10
372.8630007680749
 20
294.6803199760227
 30
0.0
 10
372.86901875313
 20
294.680693298091
 30
0.0
 10
372.8808735469879
 20
294.6801648532103
 30
0.0
 10
372.8867754120054
 20
294.6792808679774
 30
0.0
 10
372.8926514607356
 20
294.6777229013272
 30
0.0
  0
SPLINE
  5
19E
330
1F
100
AcDbEntity
  8
1
100
AcDbSpline
210
0.0
220
0.0
230
1.0
 70
     8
 71
     3
 72
    10
 73
     6
 74
     0
 42
0.000000001
 43
0.0000000001
 40
0.0
 40
0.0
 40
0.0
 40
0.0
 40
0.7280338802240846
 40
0.7280338802240846
 40
1.0
 40
1.0
 40
1.0
 40
1.0
 10
296.7328386124869
 20
298.0945999784143
 30
0.0
 10
296.3308078067473
 20
298.1007892377892
 30
0.0
 10
295.9301101351344
 20
298.1050713530366
 30
0.0
 10
295.3807790572543
 20
298.1076259985186
 30
0.0
 10
295.2314856817958
 20
298.1079835134835
 30
0.0
 10
295.0822772680533
 20
298.1079904561641
 30
0.0
  0
SPLINE
  5
19F
330
1F
100
AcDbEntity
  8
1
100
AcDbSpline
210
0.0
220
0.0
230
1.0
 70
     8
 71
     3
 72
    20
 73
    16
 74
     0
 42
0.000000001
 43
0.0000000001
 40
0.0
 40
0.0
 40
0.0
 40
0.0
 40
0.1250000000000665
 40
0.1250000000000665
 40
0.2500000000001329
 40
0.3125000000001218
 40
0.3125000000001218
 40
0.3750000000001108
 40
0.3750000000001108
 40
0.5000000000000887
 40
0.6250000000000665
 40
0.6250000000000665
 40
0.7500000000000444
 40
0.7500000000000444
 40
1.0
 40
1.0
 40
1.0
 40
1.0
 10
372.8926514607353
 20
294.6777229013275
 30
0.0
 10
372.9088824941931
 20
294.6734194297287
 30
0.0
 10
372.9249051906085
 20
294.6681348111587
 30
0.0
 10
372.9560800338532
 20
294.6557470098041
 30
0.0
 10
372.9788987717494
 20
294.6450719757379
 30
0.0
 10
373.0008650729299
 20
294.6322643478258
 30
0.0
 10
373.0153145989759
 20
294.6232358637575
 30
0.0
 10
373.0224686931804
 20
294.6184571782208
 30
0.0
 10
373.0433763398961
 20
294.6035428016357
 30
0.0
 10
373.0698203231704
 20
294.5821156819018
 30
0.0
 10
373.0934757403645
 20
294.55768828228
 30
0.0
 10
373.1157169582969
 20
294.5317396965417
 30
0.0
 10
373.1261498258808
 20
294.517947144598
 30
0.0
 10
373.1544153471749
 20
294.4755202699208
 30
0.0
 10
373.1696090948233
 20
294.4454905086833
 30
0.0
 10
373.1812850249822
 20
294.4137337650945
 30
0.0
  0
SPLINE
  5
1A0
330
1F
100
AcDbEntity
  8
1
100
AcDbSpline
210
0.0
220
0.0
230
1.0
 70
     8
 71
     3
 72
    18
 73
    14
 74
     0
 42
0.000000001
 43
0.0000000001
 40
0.0
 40
0.0
 40
0.0
 40
0.0
 40
0.1250000000000002
 40
0.1250000000000002
 40
0.2500000000000003
 40
0.2500000000000003
 40
0.3750000000000006
 40
0.3750000000000006
 40
0.5000000000000007
 40
0.5000000000000007
 40
0.7500000000000004
 40
0.7500000000000004
 40
1.0
 40
1.0
 40
1.0
 40
1.0
 10
374.1986269268434
 20
294.3493238644634
 30
0.0
 10
374.1939642954312
 20
294.3475963552551
 30
0.0
 10
374.189227391702
 20
294.3463165055617
 30
0.0
 10
374.1796133879378
 20
294.3446059584142
 30
0.0
 10
374.1746873487861
 20
294.3441783307103
 30
0.0
 10
374.1649828728621
 20
294.3441946580468
 30
0.0
 10
374.1602036225609
 20
294.3446272769115
 30
0.0
 10
374.1507857026888
 20
294.34630197029
 30
0.0
 10
374.1461045403942
 20
294.347561340145
 30
0.0
 10
374.1326189675588
 20
294.3524703018319
 30
0.0
 10
374.1243868786142
 20
294.3571904750471
 30
0.0
 10
374.1096933928641
 20
294.3692426847655
 30
0.0
 10
374.1035236989678
 20
294.3763112767014
 30
0.0
 10
374.0985201769137
 20
294.3844095635054
 30
0.0
  0
SPLINE
  5
1A1
330
1F
100
AcDbEntity
  8
1
100
AcDbSpline
210
0.0
220
0.0
230
1.0
 70
     8
 71
     3
 72
    20
 73
    16
 74
     0
 42
0.000000001
 43
0.0000000001
 40
0.0
 40
0.0
 40
0.0
 40
0.0
 40
0.1249999999999408
 40
0.1249999999999408
 40
0.2499999999998818
 40
0.3124999999998522
 40
0.3124999999998522
 40
0.3749999999998227
 40
0.3749999999998227
 40
0.4999999999998581
 40
0.6249999999998935
 40
0.6249999999998935
 40
0.7499999999999291
 40
0.7499999999999291
 40
1.0
 40
1.0
 40
1.0
 40
1.0
 10
373.6686838144061
 20
294.3058173321033
 30
0.0
 10
373.6807214550962
 20
294.3177417569419
 30
0.0
 10
373.6934868835452
 20
294.3289911415728
 30
0.0
 10
373.7201123962735
 20
294.3498172595034
 30
0.0
 10
373.7409664577598
 20
294.3642507424639
 30
0.0
 10
373.763186787551
 20
294.376868201476
 30
0.0
 10
373.77831455393
 20
294.38486350807
 30
0.0
 10
373.786065791283
 20
294.3886663692595
 30
0.0
 10
373.8095218391431
 20
294.3993014589486
 30
0.0
 10
373.8413585010126
 20
294.4114591399667
 30
0.0
 10
373.874287407094
 20
294.4196802099463
 30
0.0
 10
373.9077709128518
 20
294.4259052675043
 30
0.0
 10
373.9248489778852
 20
294.4280075352302
 30
0.0
 10
373.9754038697626
 20
294.4311510413695
 30
0.0
 10
374.00869814178
 20
294.4291966169387
 30
0.0
 10
374.0416524660824
 20
294.4233191303482
 30
0.0
  0
SPLINE
  5
1A2
330
1F
100
AcDbEntity
  8
1
100
AcDbSpline
210
0.0
220
0.0
230
1.0
 70
     8
 71
     3
 72
    14
 73
    10
 74
     0
 42
0.000000001
 43
0.0000000001
 40
0.0
 40
0.0
 40
0.0
 40
0.0
 40
0.25
 40
0.25
 40
0.5
 40
0.5
 40
0.75
 40
0.75
 40
1.0
 40
1.0
 40
1.0
 40
1.0
 10
374.0416524660824
 20
294.4233191303482
 30
0.0
 10
374.047624345548
 20
294.4222540306314
 30
0.0
 10
374.0534461333197
 20
294.420529547809
 30
0.0
 10
374.0643985597769
 20
294.4159812481307
 30
0.0
 10
374.0695580976439
 20
294.413162037605
 30
0.0
 10
374.0792641934084
 20
294.4064619229827
 30
0.0
 10
374.0837885360999
 20
294.402575002613
 30
0.0
 10
374.0918296819694
 20
294.3940882695977
 30
0.0
 10
374.0954047604619
 20
294.3894519188038
 30
0.0
 10
374.0985201769137
 20
294.3844095635054
 30
0.0
  0
SPLINE
  5
1A3
330
1F
100
AcDbEntity
  8
1
100
AcDbSpline
210
0.0
220
0.0
230
1.0
 70
     8
 71
     3
 72
    19
 73
    15
 74
     0
 42
0.000000001
 43
0.0000000001
 40
0.0
 40
0.0
 40
0.0
 40
0.0
 40
0.2589879669480993
 40
0.2589879669480993
 40
0.3884819504221217
 40
0.3884819504221217
 40
0.5179759338961443
 40
0.6474699173701667
 40
0.6474699173701667
 40
0.7122169091071877
 40
0.7122169091071877
 40
0.7769639008442088
 40
0.7769639008442088
 40
1.0
 40
1.0
 40
1.0
 40
1.0
 10
372.7184782873572
 20
294.6770480298408
 30
0.0
 10
372.6945891411494
 20
294.7011457660736
 30
0.0
 10
372.673889301279
 20
294.7277046640713
 30
0.0
 10
372.6476014586921
 20
294.771208326478
 30
0.0
 10
372.6396439412367
 20
294.7863557529965
 30
0.0
 10
372.6257354546829
 20
294.8171407545449
 30
0.0
 10
372.6137140823455
 20
294.8485944170008
 30
0.0
 10
372.605424873783
 20
294.8813702918563
 30
0.0
 10
372.6006503777449
 20
294.9064632875222
 30
0.0
 10
372.5993010008808
 20
294.9149205788042
 30
0.0
 10
372.5971217192326
 20
294.931776998797
 30
0.0
 10
372.5962856815194
 20
294.9402044644201
 30
0.0
 10
372.5936747834349
 20
294.9776590248902
 30
0.0
 10
372.5945638096093
 20
295.0066782591692
 30
0.0
 10
372.5984265244347
 20
295.0356882304867
 30
0.0
  0
SPLINE
  5
1A4
330
1F
100
AcDbEntity
  8
1
100
AcDbSpline
210
0.0
220
0.0
230
1.0
 70
     8
 71
     3
 72
    19
 73
    15
 74
     0
 42
0.000000001
 43
0.0000000001
 40
0.0
 40
0.0
 40
0.0
 40
0.0
 40
0.1015279973806229
 40
0.1015279973806229
 40
0.2512733311505176
 40
0.2512733311505176
 40
0.4010186649204126
 40
0.5507639986903074
 40
0.5507639986903074
 40
0.6256366655752547
 40
0.6256366655752547
 40
0.7005093324602021
 40
0.7005093324602021
 40
1.0
 40
1.0
 40
1.0
 40
1.0
 10
374.4396777072643
 20
294.574255723037
 30
0.0
 10
374.4349294650884
 20
294.5638115321805
 30
0.0
 10
374.4297607454171
 20
294.5535485148271
 30
0.0
 10
374.4159297540594
 20
294.5285961061228
 30
0.0
 10
374.4067382059713
 20
294.5141120437669
 30
0.0
 10
374.3869555624661
 20
294.4866608865763
 30
0.0
 10
374.3656775014356
 20
294.4605334675661
 30
0.0
 10
374.3414417944894
 20
294.4370239054265
 30
0.0
 10
374.3221219692476
 20
294.4204035536868
 30
0.0
 10
374.315484041435
 20
294.4150297842945
 30
0.0
 10
374.3020055400037
 20
294.4047667111021
 30
0.0
 10
374.2951434989349
 20
294.3998579818222
 30
0.0
 10
374.2602315806272
 20
294.3764066580113
 30
0.0
 10
374.2304009374967
 20
294.3610961645094
 30
0.0
 10
374.1986269268434
 20
294.3493238644634
 30
0.0
  0
SPLINE
  5
1A5
330
1F
100
AcDbEntity
  8
1
100
AcDbSpline
210
0.0
220
0.0
230
1.0
 70
     8
 71
     3
 72
    18
 73
    14
 74
     0
 42
0.000000001
 43
0.0000000001
 40
0.0
 40
0.0
 40
0.0
 40
0.0
 40
0.1990792742722426
 40
0.1990792742722426
 40
0.3981585485444852
 40
0.4976981856806065
 40
0.4976981856806065
 40
0.5972378228167278
 40
0.5972378228167278
 40
0.7963170970889763
 40
0.9953963713612248
 40
0.9953963713612248
 40
1.0
 40
1.0
 40
1.0
 40
1.0
 10
372.8264809605398
 20
295.5347355276766
 30
0.0
 10
372.8307428962966
 20
295.5187026227049
 30
0.0
 10
372.8340623703129
 20
295.502345667451
 30
0.0
 10
372.8387201751409
 20
295.4694403223405
 30
0.0
 10
372.8407546365497
 20
295.444530238058
 30
0.0
 10
372.8405511161856
 20
295.4192488075247
 30
0.0
 10
372.8399019907802
 20
295.402307860433
 30
0.0
 10
372.8393171635158
 20
295.3937613845431
 30
0.0
 10
372.8367984334322
 20
295.3682961779188
 30
0.0
 10
372.8314254279082
 20
295.3347670829095
 30
0.0
 10
372.8221321322792
 20
295.3020622698458
 30
0.0
 10
372.8163607747055
 20
295.2855460714266
 30
0.0
 10
372.8162297779331
 20
295.2851728607941
 30
0.0
 10
372.8160982312429
 20
295.2847997440418
 30
0.0
  0
SPLINE
  5
1A6
330
1F
100
AcDbEntity
  8
1
100
AcDbSpline
210
0.0
220
0.0
230
1.0
 70
     8
 71
     3
 72
    14
 73
    10
 74
     0
 42
0.000000001
 43
0.0000000001
 40
0.0
 40
0.0
 40
0.0
 40
0.0
 40
0.25
 40
0.25
 40
0.5
 40
0.5
 40
0.75
 40
0.75
 40
1.0
 40
1.0
 40
1.0
 40
1.0
 10
372.7833684151464
 20
295.587269593004
 30
0.0
 10
372.7886028860568
 20
295.5846739377744
 30
0.0
 10
372.7935535756056
 20
295.5815338336789
 30
0.0
 10
372.8026441518998
 20
295.5743352346718
 30
0.0
 10
372.8067695785428
 20
295.5703014511105
 30
0.0
 10
372.8141703382078
 20
295.561350464583
 30
0.0
 10
372.8174430769926
 20
295.556405711235
 30
0.0
 10
372.8228033511762
 20
295.5460235337865
 30
0.0
 10
372.8249380743457
 20
295.540539685492
 30
0.0
 10
372.8264809605398
 20
295.534735527676
 30
0.0
  0
SPLINE
  5
1A7
330
1F
100
AcDbEntity
  8
1
100
AcDbSpline
210
0.0
220
0.0
230
1.0
 70
     8
 71
     3
 72
    20
 73
    16
 74
     0
 42
0.000000001
 43
0.0000000001
 40
0.0
 40
0.0
 40
0.0
 40
0.0
 40
0.2499999999998284
 40
0.2499999999998284
 40
0.3749999999998569
 40
0.3749999999998569
 40
0.4999999999998856
 40
0.4999999999998856
 40
0.6249999999999142
 40
0.6249999999999142
 40
0.7499999999999428
 40
0.7499999999999428
 40
0.8749999999999714
 40
0.8749999999999714
 40
1.0
 40
1.0
 40
1.0
 40
1.0
 10
372.7833684151464
 20
295.587269593004
 30
0.0
 10
372.7749576791967
 20
295.5914402859214
 30
0.0
 10
372.7674848947077
 20
295.596856488522
 30
0.0
 10
372.7576837083822
 20
295.6068438688207
 30
0.0
 10
372.7546722813404
 20
295.6104860259261
 30
0.0
 10
372.7493629083862
 20
295.6181606873586
 30
0.0
 10
372.7470341727034
 20
295.6222220287603
 30
0.0
 10
372.7430599838468
 20
295.6308121375406
 30
0.0
 10
372.7414336834078
 20
295.635318832134
 30
0.0
 10
372.7390045439433
 20
295.644493985148
 30
0.0
 10
372.7381836832679
 20
295.6491979550771
 30
0.0
 10
372.7373769419259
 20
295.6588509859986
 30
0.0
 10
372.7374032481782
 20
295.6637215644598
 30
0.0
 10
372.738308629559
 20
295.6733630830258
 30
0.0
 10
372.739184641358
 20
295.6781631530168
 30
0.0
 10
372.7405116292449
 20
295.6829407601476
 30
0.0
  0
SPLINE
  5
1A8
330
1F
100
AcDbEntity
  8
1
100
AcDbSpline
210
0.0
220
0.0
230
1.0
 70
     8
 71
     3
 72
    10
 73
     6
 74
     0
 42
0.000000001
 43
0.0000000001
 40
0.0
 40
0.0
 40
0.0
 40
0.0
 40
0.3281545517165458
 40
0.3281545517165458
 40
1.0
 40
1.0
 40
1.0
 40
1.0
 10
374.3897467794508
 20
295.0431883214586
 30
0.0
 10
374.3952645064653
 20
295.0588383732961
 30
0.0
 10
374.401744468296
 20
295.0742664893464
 30
0.0
 10
374.4237482534319
 20
295.1191625719783
 30
0.0
 10
374.4417390050289
 20
295.146925671966
 30
0.0
 10
374.4628807553107
 20
295.1724153237058
 30
0.0
  0
SPLINE
  5
1A9
330
1F
100
AcDbEntity
  8
1
100
AcDbSpline
210
0.0
220
0.0
230
1.0
 70
     8
 71
     3
 72
    14
 73
    10
 74
     0
 42
0.000000001
 43
0.0000000001
 40
0.0
 40
0.0
 40
0.0
 40
0.0
 40
0.25
 40
0.25
 40
0.5
 40
0.5
 40
0.75
 40
0.75
 40
1.0
 40
1.0
 40
1.0
 40
1.0
 10
374.4628807553107
 20
295.1724153237058
 30
0.0
 10
374.4667120506855
 20
295.1770345431892
 30
0.0
 10
374.4710301734704
 20
295.1811918149472
 30
0.0
 10
374.4802635690825
 20
295.188356165585
 30
0.0
 10
374.4851883846563
 20
295.1913899360032
 30
0.0
 10
374.4956403855786
 20
295.1963932592641
 30
0.0
 10
374.5011634966957
 20
295.1983412550378
 30
0.0
 10
374.5123224079323
 20
295.2010078171899
 30
0.0
 10
374.5180179383107
 20
295.2017584466286
 30
0.0
 10
374.5238336886719
 20
295.2019079381554
 30
0.0
  0
SPLINE
  5
1AA
330
1F
100
AcDbEntity
  8
1
100
AcDbSpline
210
0.0
220
0.0
230
1.0
 70
     8
 71
     3
 72
    14
 73
    10
 74
     0
 42
0.000000001
 43
0.0000000001
 40
0.0
 40
0.0
 40
0.0
 40
0.0
 40
0.0566475275364323
 40
0.0566475275364323
 40
0.2453180220290027
 40
0.2453180220290027
 40
0.6226590110145014
 40
0.6226590110145014
 40
1.0
 40
1.0
 40
1.0
 40
1.0
 10
374.5874842996153
 20
295.2348250712881
 30
0.0
 10
374.5866355378301
 20
295.2336833196784
 30
0.0
 10
374.5857583681794
 20
295.2325657640093
 30
0.0
 10
374.5818385212395
 20
295.2278294060673
 30
0.0
 10
374.5784782408981
 20
295.2244236467953
 30
0.0
 10
374.5677033421407
 20
295.2152545198303
 30
0.0
 10
374.5596603467766
 20
295.2105271423257
 30
0.0
 10
374.5422101514585
 20
295.2039131026324
 30
0.0
 10
374.5331742268934
 20
295.2021480329383
 30
0.0
 10
374.5238336886719
 20
295.2019079381554
 30
0.0
  0
SPLINE
  5
1AB
330
1F
100
AcDbEntity
  8
1
100
AcDbSpline
210
0.0
220
0.0
230
1.0
 70
     8
 71
     3
 72
    10
 73
     6
 74
     0
 42
0.000000001
 43
0.0000000001
 40
0.0
 40
0.0
 40
0.0
 40
0.0
 40
0.5439569934529583
 40
0.5439569934529583
 40
1.0
 40
1.0
 40
1.0
 40
1.0
 10
373.5610757793944
 20
296.0824625941422
 30
0.0
 10
373.5613734680065
 20
296.0767238662073
 30
0.0
 10
373.5610570592807
 20
296.0709582547972
 30
0.0
 10
373.5593739019413
 20
296.0605790437573
 30
0.0
 10
373.5581953205121
 20
296.0559465278065
 30
0.0
 10
373.5566005227724
 20
296.0514152965216
 30
0.0
  0
SPLINE
  5
1AC
330
1F
100
AcDbEntity
  8
1
100
AcDbSpline
210
0.0
220
0.0
230
1.0
 70
     8
 71
     3
 72
     8
 73
     4
 74
     0
 42
0.000000001
 43
0.0000000001
 40
0.0
 40
0.0
 40
0.0
 40
0.0
 40
1.0
 40
1.0
 40
1.0
 40
1.0
 10
296.6952324672974
 20
279.7183205286446
 30
0.0
 10
296.7441814350684
 20
279.7191340457895
 30
0.0
 10
296.7934429413746
 20
279.7199505171631
 30
0.0
 10
296.8430272750832
 20
279.7207530881274
 30
0.0
  0
SPLINE
  5
1AD
330
1F
100
AcDbEntity
  8
1
100
AcDbSpline
210
0.0
220
0.0
230
1.0
 70
     8
 71
     3
 72
    29
 73
    25
 74
     0
 42
0.000000001
 43
0.0000000001
 40
0.0
 40
0.0
 40
0.0
 40
0.0
 40
0.1249999999999824
 40
0.1249999999999824
 40
0.1874999999999694
 40
0.1874999999999694
 40
0.2499999999999564
 40
0.2499999999999564
 40
0.3749999999999304
 40
0.3749999999999304
 40
0.4374999999999208
 40
0.4374999999999208
 40
0.4999999999999112
 40
0.4999999999999112
 40
0.6249999999998864
 40
0.6249999999998864
 40
0.6874999999999051
 40
0.6874999999999051
 40
0.7499999999999237
 40
0.8124999999999424
 40
0.8124999999999424
 40
0.874999999999961
 40
0.874999999999961
 40
1.0
 40
1.0
 40
1.0
 40
1.0
 10
376.7335614106219
 20
298.1526160185273
 30
0.0
 10
376.7324232682694
 20
298.1781491762749
 30
0.0
 10
376.7287237976026
 20
298.203130110016
 30
0.0
 10
376.7195548586536
 20
298.2398210939115
 30
0.0
 10
376.7158903480257
 20
298.2519202940793
 30
0.0
 10
376.7073254585919
 20
298.2758522404531
 30
0.0
 10
376.7024103038916
 20
298.2876975049775
 30
0.0
 10
376.6861316099891
 20
298.3220660709251
 30
0.0
 10
376.6731666204984
 20
298.3436988779623
 30
0.0
 10
376.6505940383622
 20
298.3742551978963
 30
0.0
 10
376.6425014889322
 20
298.3841696633071
 30
0.0
 10
376.6254492653505
 20
298.403097814295
 30
0.0
 10
376.6165246803453
 20
298.4120834645249
 30
0.0
 10
376.5885893596612
 20
298.4376457860615
 30
0.0
 10
376.568428517311
 20
298.4528415864133
 30
0.0
 10
376.5358067746537
 20
298.4727771742349
 30
0.0
 10
376.5245730536125
 20
298.4789095880822
 30
0.0
 10
376.501784856456
 20
298.4899524963164
 30
0.0
 10
376.4785674689067
 20
298.4998419333169
 30
0.0
 10
376.4544985173249
 20
298.5074427482236
 30
0.0
 10
376.4299943525316
 20
298.5138739052614
 30
0.0
 10
376.4174655099449
 20
298.5165128765971
 30
0.0
 10
376.3796697166744
 20
298.522512822987
 30
0.0
 10
376.354294824002
 20
298.5239895729323
 30
0.0
 10
376.3287374287918
 20
298.5228748744874
 30
0.0
  0
SPLINE
  5
1AE
330
1F
100
AcDbEntity
  8
1
100
AcDbSpline
210
0.0
220
0.0
230
1.0
 70
     8
 71
     3
 72
    29
 73
    25
 74
     0
 42
0.000000001
 43
0.0000000001
 40
0.0
 40
0.0
 40
0.0
 40
0.0
 40
0.1249999999999399
 40
0.1249999999999399
 40
0.1874999999999431
 40
0.1874999999999431
 40
0.2499999999999464
 40
0.2499999999999464
 40
0.3749999999999565
 40
0.3749999999999565
 40
0.4374999999999643
 40
0.4374999999999643
 40
0.499999999999972
 40
0.499999999999972
 40
0.6249999999999809
 40
0.6249999999999809
 40
0.6874999999999855
 40
0.6874999999999855
 40
0.7499999999999901
 40
0.8124999999999946
 40
0.8124999999999946
 40
0.8749999999999992
 40
0.8749999999999992
 40
1.0
 40
1.0
 40
1.0
 40
1.0
 10
370.7611201740704
 20
298.2800404915151
 30
0.0
 10
370.735560410489
 20
298.2789256897724
 30
0.0
 10
370.7105556858846
 20
298.2752518443676
 30
0.0
 10
370.6738329938807
 20
298.2661245720384
 30
0.0
 10
370.6617238927693
 20
298.2624744927836
 30
0.0
 10
370.6377735027619
 20
298.2539395684648
 30
0.0
 10
370.6259196948161
 20
298.2490399742865
 30
0.0
 10
370.5915280877769
 20
298.2328086049717
 30
0.0
 10
370.5698831322812
 20
298.2198763358203
 30
0.0
 10
370.5393133416249
 20
298.1973545659041
 30
0.0
 10
370.5293951710148
 20
298.1892793322888
 30
0.0
 10
370.5104613339944
 20
298.1722618955867
 30
0.0
 10
370.5014737028382
 20
298.1633547195157
 30
0.0
 10
370.4759079515497
 20
298.1354716708011
 30
0.0
 10
370.460713190608
 20
298.1153457362074
 30
0.0
 10
370.4407843120266
 20
298.0827764477487
 30
0.0
 10
370.4346550003223
 20
298.0715601554708
 30
0.0
 10
370.4236198945872
 20
298.0488061036003
 30
0.0
 10
370.4137398782431
 20
298.0256223253451
 30
0.0
 10
370.4061516946067
 20
298.0015859195864
 30
0.0
 10
370.3997348097037
 20
297.9771137571025
 30
0.0
 10
370.3971038372131
 20
297.9646007148431
 30
0.0
 10
370.3911301400963
 20
297.9268508881063
 30
0.0
 10
370.3896737701841
 20
297.9015046462513
 30
0.0
 10
370.3908118070762
 20
297.8759738544097
 30
0.0
  0
SPLINE
  5
1AF
330
1F
100
AcDbEntity
  8
1
100
AcDbSpline
210
0.0
220
0.0
230
1.0
 70
     8
 71
     3
 72
    29
 73
    25
 74
     0
 42
0.000000001
 43
0.0000000001
 40
0.0
 40
0.0
 40
0.0
 40
0.0
 40
0.125000000000023
 40
0.125000000000023
 40
0.1875000000000344
 40
0.1875000000000344
 40
0.2500000000000459
 40
0.2500000000000459
 40
0.3750000000000669
 40
0.3750000000000669
 40
0.4375000000000774
 40
0.4375000000000774
 40
0.5000000000000879
 40
0.5000000000000879
 40
0.6250000000001104
 40
0.6250000000001104
 40
0.687500000000092
 40
0.687500000000092
 40
0.7500000000000737
 40
0.8125000000000552
 40
0.8125000000000552
 40
0.8750000000000369
 40
0.8750000000000369
 40
1.0
 40
1.0
 40
1.0
 40
1.0
 10
370.6387304147946
 20
292.314152079713
 30
0.0
 10
370.6398685571472
 20
292.2886189219655
 30
0.0
 10
370.6435680278138
 20
292.2636379882244
 30
0.0
 10
370.6527369667629
 20
292.2269470043288
 30
0.0
 10
370.6564014773908
 20
292.2148478041611
 30
0.0
 10
370.6649663668247
 20
292.1909158577873
 30
0.0
 10
370.6698815215249
 20
292.1790705932628
 30
0.0
 10
370.6861602154273
 20
292.1447020273152
 30
0.0
 10
370.6991252049181
 20
292.1230692202781
 30
0.0
 10
370.7216977870542
 20
292.092512900344
 30
0.0
 10
370.7297903364843
 20
292.0825984349333
 30
0.0
 10
370.7468425600658
 20
292.0636702839453
 30
0.0
 10
370.7557671450711
 20
292.0546846337154
 30
0.0
 10
370.7837024657552
 20
292.0291223121789
 30
0.0
 10
370.8038633081055
 20
292.013926511827
 30
0.0
 10
370.8364850507627
 20
291.9939909240055
 30
0.0
 10
370.8477187718039
 20
291.9878585101582
 30
0.0
 10
370.8705069689605
 20
291.9768156019239
 30
0.0
 10
370.8937243415943
 20
291.9669261248373
 30
0.0
 10
370.9177933080915
 20
291.9593253500167
 30
0.0
 10
370.9422974728848
 20
291.9528941929789
 30
0.0
 10
370.9548263154716
 20
291.9502552216433
 30
0.0
 10
370.9926221087421
 20
291.9442552752533
 30
0.0
 10
371.0179970014144
 20
291.9427785253079
 30
0.0
 10
371.0435543966247
 20
291.9438932237529
 30
0.0
  0
SPLINE
  5
1B0
330
1F
100
AcDbEntity
  8
1
100
AcDbSpline
210
0.0
220
0.0
230
1.0
 70
     8
 71
     3
 72
    29
 73
    25
 74
     0
 42
0.000000001
 43
0.0000000001
 40
0.0
 40
0.0
 40
0.0
 40
0.0
 40
0.1249999999999195
 40
0.1249999999999195
 40
0.1874999999999128
 40
0.1874999999999128
 40
0.2499999999999061
 40
0.2499999999999061
 40
0.3749999999998929
 40
0.3749999999998929
 40
0.4374999999998856
 40
0.4374999999998856
 40
0.4999999999998784
 40
0.4999999999998784
 40
0.6249999999999086
 40
0.6249999999999086
 40
0.6874999999999238
 40
0.6874999999999238
 40
0.7499999999999391
 40
0.8124999999999541
 40
0.8124999999999541
 40
0.8749999999999694
 40
0.8749999999999694
 40
1.0
 40
1.0
 40
1.0
 40
1.0
 10
376.6111716513461
 20
292.1867276067253
 30
0.0
 10
376.6367314149275
 20
292.1878424084681
 30
0.0
 10
376.6617361395319
 20
292.1915162538727
 30
0.0
 10
376.6984588315358
 20
292.2006435262019
 30
0.0
 10
376.7105679326472
 20
292.2042936054568
 30
0.0
 10
376.7345183226548
 20
292.2128285297755
 30
0.0
 10
376.7463721306004
 20
292.2177281239538
 30
0.0
 10
376.7807637376395
 20
292.2339594932688
 30
0.0
 10
376.8024086931352
 20
292.24689176242
 30
0.0
 10
376.8329784837915
 20
292.2694135323362
 30
0.0
 10
376.8428966544017
 20
292.2774887659514
 30
0.0
 10
376.861830491422
 20
292.2945062026536
 30
0.0
 10
376.8708181225783
 20
292.3034133787247
 30
0.0
 10
376.8963838738666
 20
292.3312964274393
 30
0.0
 10
376.9115786348085
 20
292.351422362033
 30
0.0
 10
376.9315075133898
 20
292.3839916504917
 30
0.0
 10
376.9376368250942
 20
292.3952079427696
 30
0.0
 10
376.9486719308293
 20
292.4179619946401
 30
0.0
 10
376.9585519471732
 20
292.4411457728953
 30
0.0
 10
376.9661401308098
 20
292.4651821786539
 30
0.0
 10
376.9725570157127
 20
292.4896543411379
 30
0.0
 10
376.9751879882033
 20
292.5021673833972
 30
0.0
 10
376.9811616853202
 20
292.539917210134
 30
0.0
 10
376.9826180552325
 20
292.565263451989
 30
0.0
 10
376.9814800183402
 20
292.5907942438308
 30
0.0
  0
SPLINE
  5
1B1
330
1F
100
AcDbEntity
  8
1
100
AcDbSpline
210
0.0
220
0.0
230
1.0
 70
     9
 71
     3
 72
   121
 73
   117
 74
     0
 42
0.000000001
 43
0.0000000001
 40
0.0
 40
0.0
 40
0.0
 40
0.0
 40
0.0312500000000115
 40
0.0312500000000115
 40
0.0468750000000172
 40
0.0468750000000172
 40
0.0546875000000201
 40
0.0546875000000201
 40
0.062500000000023
 40
0.062500000000023
 40
0.0937500000000414
 40
0.0937500000000414
 40
0.1015625000000444
 40
0.1015625000000444
 40
0.1093750000000474
 40
0.1093750000000474
 40
0.1250000000000588
 40
0.1250000000000588
 40
0.1562500000000765
 40
0.1562500000000765
 40
0.1875000000000941
 40
0.1875000000000941
 40
0.2031250000001029
 40
0.2031250000001029
 40
0.2109375000001062
 40
0.2109375000001062
 40
0.2187500000001097
 40
0.2187500000001097
 40
0.2500000000001259
 40
0.2500000000001259
 40
0.25781250000013
 40
0.25781250000013
 40
0.2656250000001341
 40
0.2656250000001341
 40
0.2812500000001417
 40
0.2812500000001417
 40
0.3125000000001572
 40
0.3125000000001572
 40
0.3281250000001649
 40
0.3281250000001649
 40
0.3437500000001725
 40
0.3437500000001725
 40
0.375000000000192
 40
0.375000000000192
 40
0.3828125000001944
 40
0.3828125000001944
 40
0.3906250000001967
 40
0.4062500000002069
 40
0.4218750000002171
 40
0.4218750000002171
 40
0.4296875000002191
 40
0.4296875000002191
 40
0.4375000000002209
 40
0.4375000000002209
 40
0.4687500000002075
 40
0.4687500000002075
 40
0.4843750000002047
 40
0.4843750000002047
 40
0.4921875000002032
 40
0.4921875000002032
 40
0.5000000000002017
 40
0.5000000000002017
 40
0.5312500000002031
 40
0.5312500000002031
 40
0.5390625000002017
 40
0.5390625000002017
 40
0.5468750000002002
 40
0.5625000000001976
 40
0.5781250000001947
 40
0.5781250000001947
 40
0.5937500000001921
 40
0.5937500000001921
 40
0.6250000000001866
 40
0.6250000000001866
 40
0.6328125000001814
 40
0.6328125000001814
 40
0.6406250000001763
 40
0.6406250000001763
 40
0.656250000000166
 40
0.656250000000166
 40
0.6875000000001452
 40
0.6875000000001452
 40
0.6953125000001413
 40
0.6953125000001413
 40
0.7031250000001374
 40
0.7187500000001296
 40
0.7343750000001217
 40
0.7343750000001217
 40
0.7421875000001177
 40
0.7421875000001177
 40
0.7500000000001137
 40
0.7500000000001137
 40
0.7812500000000974
 40
0.7812500000000974
 40
0.7968750000000892
 40
0.7968750000000892
 40
0.8125000000000806
 40
0.8125000000000806
 40
0.8437500000000664
 40
0.8437500000000664
 40
0.8593750000000614
 40
0.8593750000000614
 40
0.8750000000000561
 40
0.8750000000000561
 40
0.9062500000000405
 40
0.9062500000000405
 40
0.9218750000000326
 40
0.9218750000000326
 40
0.9375000000000246
 40
0.9531250000000166
 40
0.9531250000000166
 40
0.9609375000000163
 40
0.9609375000000163
 40
0.9687500000000159
 40
0.9687500000000159
 40
1.0
 40
1.0
 40
1.0
 40
1.0
 10
373.9371316100778
 20
287.3661106208126
 30
0.0
 10
373.9960434070002
 20
287.3650823115724
 30
0.0
 10
374.0538303941552
 20
287.3581820116651
 30
0.0
 10
374.1388934285745
 20
287.3393977607203
 30
0.0
 10
374.1669760887929
 20
287.3317198615508
 30
0.0
 10
374.208682420082
 20
287.3180282788054
 30
0.0
 10
374.2225542887522
 20
287.313085299684
 30
0.0
 10
374.249916063241
 20
287.3025512415432
 30
0.0
 10
374.2634078247148
 20
287.296962518652
 30
0.0
 10
374.3299398918151
 20
287.2674442721514
 30
0.0
 10
374.3802269894718
 20
287.2388361965656
 30
0.0
 10
374.4394335167831
 20
287.1969024379882
 30
0.0
 10
374.4510905267108
 20
287.1882041892933
 30
0.0
 10
374.4740296196291
 20
287.1701749285106
 30
0.0
 10
374.4853083103717
 20
287.1608431118739
 30
0.0
 10
374.5182020511046
 20
287.1322174719306
 30
0.0
 10
374.539009607882
 20
287.1121941601702
 30
0.0
 10
374.5981682118521
 20
287.0494024819595
 30
0.0
 10
374.6332855367999
 20
287.0039375932957
 30
0.0
 10
374.6946596281516
 20
286.9056856297256
 30
0.0
 10
374.7199197351468
 20
286.8544926501173
 30
0.0
 10
374.7501048745241
 20
286.7748675424193
 30
0.0
 10
374.7588744526502
 20
286.7478469497027
 30
0.0
 10
374.7700663555124
 20
286.706593078263
 30
0.0
 10
374.7734761310679
 20
286.6926890510767
 30
0.0
 10
374.7795958232499
 20
286.6647934636113
 30
0.0
 10
374.7823004041985
 20
286.6508349105458
 30
0.0
 10
374.7940886078518
 20
286.58099097413
 30
0.0
 10
374.7980157108802
 20
286.5249546703641
 30
0.0
 10
374.7962111522866
 20
286.4547224612384
 30
0.0
 10
374.795511632101
 20
286.4406665184655
 30
0.0
 10
374.7934276729351
 20
286.4125353563346
 30
0.0
 10
374.7920386132884
 20
286.3984254819285
 30
0.0
 10
374.7868609965732
 20
286.3563415862687
 30
0.0
 10
374.7820810835472
 20
286.3286797946627
 30
0.0
 10
374.7638895727475
 20
286.2468326260765
 30
0.0
 10
374.7466622418802
 20
286.1937758860723
 30
0.0
 10
374.7130304933953
 20
286.1164567872334
 30
0.0
 10
374.7004580202749
 20
286.0909924130191
 30
0.0
 10
374.6731664828118
 20
286.0418502430187
 30
0.0
 10
374.6584030609432
 20
286.0180490690191
 30
0.0
 10
374.6107972579549
 20
285.9489127006213
 30
0.0
 10
374.5746747125772
 20
285.9058214289648
 30
0.0
 10
374.5236622897561
 20
285.8558985526881
 30
0.0
 10
374.5131870607445
 20
285.8461383511881
 30
0.0
 10
374.4918732142157
 20
285.8272296884483
 30
0.0
 10
374.4592796287069
 20
285.7997119027242
 30
0.0
 10
374.4018786015669
 20
285.7580126855634
 30
0.0
 10
374.3526525690624
 20
285.7290960180726
 30
0.0
 10
374.3144473066189
 20
285.7091267034439
 30
0.0
 10
374.3014975265341
 20
285.7027571735185
 30
0.0
 10
374.2751555435729
 20
285.6906077848782
 30
0.0
 10
374.2617437461502
 20
285.6848225508687
 30
0.0
 10
374.1943860188858
 20
285.6577403751733
 30
0.0
 10
374.1389450656843
 20
285.6416201377119
 30
0.0
 10
374.0534502440148
 20
285.6257096682077
 30
0.0
 10
374.024560365141
 20
285.6217944552064
 30
0.0
 10
373.9806115972683
 20
285.6180947194084
 30
0.0
 10
373.9658943607574
 20
285.6172298404061
 30
0.0
 10
373.9366183646645
 20
285.6162457583918
 30
0.0
 10
373.922017533493
 20
285.6161226668859
 30
0.0
 10
373.8491961916894
 20
285.617321883981
 30
0.0
 10
373.7915189034804
 20
285.6240343171418
 30
0.0
 10
373.7201520249497
 20
285.6396852484864
 30
0.0
 10
373.7058736551913
 20
285.6431941392034
 30
0.0
 10
373.6776586072967
 20
285.6508836732079
 30
0.0
 10
373.6358269098174
 20
285.6634263665065
 30
0.0
 10
373.5684873936776
 20
285.6892279962588
 30
0.0
 10
373.5170821163596
 20
285.7149651004886
 30
0.0
 10
373.4669103670666
 20
285.7432635093875
 30
0.0
 10
373.4423629516623
 20
285.7587637577145
 30
0.0
 10
373.3720526214101
 20
285.8081500793788
 30
0.0
 10
373.3291128760226
 20
285.8451157602397
 30
0.0
 10
373.2801522387447
 20
285.8962349853949
 30
0.0
 10
373.2705980706536
 20
285.9067067657458
 30
0.0
 10
373.2519695321469
 20
285.928151994202
 30
0.0
 10
373.2428798538001
 20
285.9391471039078
 30
0.0
 10
373.2165899807321
 20
285.9725707500688
 30
0.0
 10
373.2002883169964
 20
285.9955185725194
 30
0.0
 10
373.1549241904517
 20
286.0663029638865
 30
0.0
 10
373.129369095329
 20
286.1160625738163
 30
0.0
 10
373.1033704950139
 20
286.1815708572227
 30
0.0
 10
373.098466389332
 20
286.194857420546
 30
0.0
 10
373.0893566333184
 20
286.2215011984321
 30
0.0
 10
373.076703684913
 20
286.2616648971801
 30
0.0
 10
373.0605697856165
 20
286.3295803326436
 30
0.0
 10
373.0528876310738
 20
286.3849506891263
 30
0.0
 10
373.0491187086106
 20
286.4268761570819
 30
0.0
 10
373.0481950934272
 20
286.4409176958909
 30
0.0
 10
373.0470261051942
 20
286.4691362128971
 30
0.0
 10
373.0467815591012
 20
286.4833516044654
 30
0.0
 10
373.0472902466472
 20
286.5542169531374
 30
0.0
 10
373.053151279493
 20
286.6101803176639
 30
0.0
 10
373.0699809605802
 20
286.6930360414477
 30
0.0
 10
373.0769396719099
 20
286.7204716226632
 30
0.0
 10
373.0936442943261
 20
286.7749593884405
 30
0.0
 10
373.1034474363134
 20
286.8021168053191
 30
0.0
 10
373.1365047714106
 20
286.8812570938666
 30
0.0
 10
373.1634808459378
 20
286.9314318604419
 30
0.0
 10
373.2113707930084
 20
287.0027604063203
 30
0.0
 10
373.2285799418278
 20
287.0258765758501
 30
0.0
 10
373.2656011135823
 20
287.0707209624347
 30
0.0
 10
373.2851471837782
 20
287.0921200502476
 30
0.0
 10
373.3465545137514
 20
287.1530392224488
 30
0.0
 10
373.3912644751256
 20
287.1894412403102
 30
0.0
 10
373.4641202545042
 20
287.2375316158908
 30
0.0
 10
373.4894943099797
 20
287.2525149428542
 30
0.0
 10
373.5411080109626
 20
287.2795976642295
 30
0.0
 10
373.5938008254119
 20
287.3039662229525
 30
0.0
 10
373.648612726736
 20
287.3229937661289
 30
0.0
 10
373.6905255064854
 20
287.3352349060705
 30
0.0
 10
373.7046306550953
 20
287.338976419851
 30
0.0
 10
373.7331140439859
 20
287.3457695113178
 30
0.0
 10
373.7475265635891
 20
287.3488270353342
 30
0.0
 10
373.8198185887101
 20
287.362262052589
 30
0.0
 10
373.8782198131555
 20
287.367138930053
 30
0.0
 10
373.9371316100778
 20
287.3661106208126
 30
0.0
  0
SPLINE
  5
1B2
330
1F
100
AcDbEntity
  8
1
100
AcDbSpline
210
0.0
220
0.0
230
1.0
 70
    12
 71
     2
 72
     6
 73
     3
 74
     0
 42
0.000000001
 43
0.0000000001
 40
0.0
 40
0.0
 40
0.0
 40
1.0
 40
1.0
 40
1.0
 10
370.1875874863469
 20
298.0381301537672
 30
0.0
 41
0.5000009273748952
 10
370.2998133057154
 20
298.0378887736774
 30
0.0
 41
0.4999990726251049
 10
370.412035580608
 20
298.0376465628127
 30
0.0
 41
0.5000009273748952
  0
SPLINE
  5
1B9
330
1F
100
AcDbEntity
  8
1
100
AcDbSpline
210
0.0
220
0.0
230
1.0
 70
     8
 71
     3
 72
     9
 73
     5
 74
     0
 42
0.000000001
 43
0.0000000001
 40
0.0
 40
0.0
 40
0.0
 40
0.0
 40
0.5
 40
1.0
 40
1.0
 40
1.0
 40
1.0
 10
371.5359710047648
 20
290.8868607261617
 30
0.0
 10
371.4276387659062
 20
290.8862250287026
 30
0.0
 10
371.2100376851968
 20
290.8856274098262
 30
0.0
 10
370.990612740873
 20
290.8866405099159
 30
0.0
 10
370.8804419452958
 20
290.8875834738436
 30
0.0
  0
SPLINE
  5
1BA
330
1F
100
AcDbEntity
  8
1
100
AcDbSpline
210
0.0
220
0.0
230
1.0
 70
     8
 71
     3
 72
     9
 73
     5
 74
     0
 42
0.000000001
 43
0.0000000001
 40
0.0
 40
0.0
 40
0.0
 40
0.0
 40
0.5
 40
1.0
 40
1.0
 40
1.0
 40
1.0
 10
370.8804419452958
 20
289.7365342412888
 30
0.0
 10
370.9972202837358
 20
289.7358489010074
 30
0.0
 10
371.2296479474953
 20
289.7399941259891
 30
0.0
 10
371.4598332257004
 20
289.7549753137952
 30
0.0
 10
371.5743485231367
 20
289.7651724269392
 30
0.0
  0
SPLINE
  5
1BB
330
1F
100
AcDbEntity
  8
1
100
AcDbSpline
210
0.0
220
0.0
230
1.0
 70
    24
 71
     3
 72
    22
 73
    18
 74
     0
 42
0.000000001
 43
0.0000000001
 40
0.0
 40
0.0
 40
0.0
 40
0.0
 40
0.1251715595838955
 40
0.1251715595838955
 40
0.250343119167791
 40
0.250343119167791
 40
0.3755146787516864
 40
0.3755146787516864
 40
0.5006862383355819
 40
0.5006862383355819
 40
0.6258577979194774
 40
0.6258577979194774
 40
0.7510293575033728
 40
0.7510293575033728
 40
0.8762009170872683
 40
0.8762009170872683
 40
1.0
 40
1.0
 40
1.0
 40
1.0
 10
370.8804419452958
 20
290.8875834738436
 30
0.0
 10
370.8804419452958
 20
290.7289299441588
 30
0.0
 10
370.8804419452958
 20
290.5814781448877
 30
0.0
 10
370.8804419452958
 20
290.3117269180263
 30
0.0
 10
370.8804419452958
 20
290.1894290603614
 30
0.0
 10
370.8804419452958
 20
289.9722688281195
 30
0.0
 10
370.8804419452958
 20
289.8774077173935
 30
0.0
 10
370.8804419452958
 20
289.7168919811629
 30
0.0
 10
370.8804419452958
 20
289.6512382898436
 30
0.0
 10
370.8804419452958
 20
289.5503632278539
 30
0.0
 10
370.8804419452958
 20
289.515142444266
 30
0.0
 10
370.8804419452958
 20
289.4757909850806
 30
0.0
 10
370.8804419452958
 20
289.4716605385047
 30
0.0
 10
370.8804419452958
 20
289.4945672143764
 30
0.0
 10
370.8804419452958
 20
289.5216042035094
 30
0.0
 10
370.8804419452958
 20
289.6058768777211
 30
0.0
 10
370.8804419452958
 20
289.6627777082535
 30
0.0
 10
370.8804419452958
 20
289.7341549700278
 30
0.0
  0
SPLINE
  5
1BC
330
1F
100
AcDbEntity
  8
1
100
AcDbSpline
210
0.0
220
0.0
230
1.0
 70
     8
 71
     3
 72
    18
 73
    14
 74
     0
 42
0.000000001
 43
0.0000000001
 40
0.0
 40
0.0
 40
0.0
 40
0.0
 40
0.2500000000000187
 40
0.2500000000000187
 40
0.3750000000000228
 40
0.3750000000000228
 40
0.437500000000025
 40
0.437500000000025
 40
0.5000000000000269
 40
0.5000000000000269
 40
0.7500000000000135
 40
0.7500000000000135
 40
1.0
 40
1.0
 40
1.0
 40
1.0
 10
367.5983846039224
 20
291.6302205894247
 30
0.0
 10
367.8577676801694
 20
291.5305990939554
 30
0.0
 10
368.119918651422
 20
291.4394742065788
 30
0.0
 10
368.5185842000962
 20
291.3161790694201
 30
0.0
 10
368.6523830552759
 20
291.2773182063104
 30
0.0
 10
368.8546462631605
 20
291.2225196047631
 30
0.0
 10
368.9223284431049
 20
291.2048359392672
 30
0.0
 10
369.0582518380178
 20
291.1706617490261
 30
0.0
 10
369.126504042713
 20
291.1541694632795
 30
0.0
 10
369.4685528738964
 20
291.0749267263451
 30
0.0
 10
369.7452396184085
 20
291.0216639172434
 30
0.0
 10
370.3064861686774
 20
290.9373247625081
 30
0.0
 10
370.5910610291616
 20
290.9062554854117
 30
0.0
 10
370.880441945296
 20
290.8875834738437
 30
0.0
  0
SPLINE
  5
1BD
330
1F
100
AcDbEntity
  8
1
100
AcDbSpline
210
0.0
220
0.0
230
1.0
 70
     8
 71
     3
 72
    16
 73
    12
 74
     0
 42
0.000000001
 43
0.0000000001
 40
0.0
 40
0.0
 40
0.0
 40
0.0
 40
0.2499999999999575
 40
0.2499999999999575
 40
0.3749999999999641
 40
0.3749999999999641
 40
0.4999999999999708
 40
0.4999999999999708
 40
0.7499999999999854
 40
0.7499999999999854
 40
1.0
 40
1.0
 40
1.0
 40
1.0
 10
371.9799061943566
 20
291.7408063096214
 30
0.0
 10
371.9477850929364
 20
291.7055814241065
 30
0.0
 10
371.913791468085
 20
291.6727807668821
 30
0.0
 10
371.8600499459487
 20
291.6269900685117
 30
0.0
 10
371.8416757691506
 20
291.6122977370435
 30
0.0
 10
371.8039946045839
 20
291.5840486396087
 30
0.0
 10
371.7846310636336
 20
291.5704576885282
 30
0.0
 10
371.7257372761491
 20
291.5318064071923
 30
0.0
 10
371.6852992464913
 20
291.5087484967445
 30
0.0
 10
371.6018547981065
 20
291.4677913610445
 30
0.0
 10
371.5588504719425
 20
291.4498920330863
 30
0.0
 10
371.5143430014276
 20
291.4346544051365
 30
0.0
  0
SPLINE
  5
1BE
330
1F
100
AcDbEntity
  8
1
100
AcDbSpline
210
0.0
220
0.0
230
1.0
 70
    12
 71
     2
 72
     6
 73
     3
 74
     0
 42
0.000000001
 43
0.0000000001
 40
0.0
 40
0.0
 40
0.0
 40
1.0
 40
1.0
 40
1.0
 10
299.1126314759923
 20
284.6606691288265
 30
0.0
 41
0.5000000207500617
 10
299.1135415939936
 20
284.6641261676488
 30
0.0
 41
0.4999999792499383
 10
299.1144514232942
 20
284.6675847295543
 30
0.0
 41
0.5000000207500617
  0
SPLINE
  5
1BF
330
1F
100
AcDbEntity
  8
1
100
AcDbSpline
210
0.0
220
0.0
230
1.0
 70
     8
 71
     3
 72
    16
 73
    12
 74
     0
 42
0.000000001
 43
0.0000000001
 40
0.0
 40
0.0
 40
0.0
 40
0.0
 40
0.125
 40
0.125
 40
0.25
 40
0.25
 40
0.5
 40
0.5
 40
0.75
 40
0.75
 40
1.0
 40
1.0
 40
1.0
 40
1.0
 10
367.5983846039224
 20
291.6302205894247
 30
0.0
 10
367.7573031245668
 20
291.5869232963816
 30
0.0
 10
367.9171380014137
 20
291.5466742634005
 30
0.0
 10
368.2386473922067
 20
291.4723056432036
 30
0.0
 10
368.4003781094179
 20
291.4381753453833
 30
0.0
 10
368.8880040039273
 20
291.3451365241602
 30
0.0
 10
369.2140998612196
 20
291.2959816049422
 30
0.0
 10
369.8682794376631
 20
291.2230013105432
 30
0.0
 10
370.1963632107785
 20
291.1991764410333
 30
0.0
 10
370.8545205834145
 20
291.1769118588686
 30
0.0
 10
371.1845941180942
 20
291.1784712275277
 30
0.0
 10
371.5156824348878
 20
291.192986096423
 30
0.0
  0
SPLINE
  5
1C0
330
1F
100
AcDbEntity
  8
1
100
AcDbSpline
210
0.0
220
0.0
230
1.0
 70
     8
 71
     3
 72
    25
 73
    21
 74
     0
 42
0.000000001
 43
0.0000000001
 40
0.0
 40
0.0
 40
0.0
 40
0.0
 40
0.125000000000005
 40
0.125000000000005
 40
0.2500000000000101
 40
0.2500000000000101
 40
0.3750000000000152
 40
0.3750000000000152
 40
0.5000000000000204
 40
0.5000000000000204
 40
0.5312500000000201
 40
0.5312500000000201
 40
0.5625000000000201
 40
0.6250000000000196
 40
0.6250000000000196
 40
0.750000000000013
 40
0.750000000000013
 40
0.8750000000000065
 40
0.8750000000000065
 40
1.0
 40
1.0
 40
1.0
 40
1.0
 10
364.9353388252129
 20
291.1722954391261
 30
0.0
 10
365.1826631893217
 20
291.0210792966642
 30
0.0
 10
365.4347812898367
 20
290.8799111701532
 30
0.0
 10
365.9482212304506
 20
290.6173645928847
 30
0.0
 10
366.2095433131303
 20
290.4959855682042
 30
0.0
 10
366.7411600107902
 20
290.2729425216239
 30
0.0
 10
367.0114544636836
 20
290.1712774404463
 30
0.0
 10
367.5609347272535
 20
289.9878436208148
 30
0.0
 10
367.8401199342107
 20
289.9060731148742
 30
0.0
 10
368.1947086151796
 20
289.8165944321273
 30
0.0
 10
368.2658761806677
 20
289.7993456991938
 30
0.0
 10
368.4082096125928
 20
289.766256765073
 30
0.0
 10
368.6219117157026
 20
289.7186840733711
 30
0.0
 10
368.8362134827702
 20
289.6772380326573
 30
0.0
 10
369.2656040630319
 20
289.6024044940525
 30
0.0
 10
369.5529125117831
 20
289.5632476571797
 30
0.0
 10
370.1295919350446
 20
289.5061200944569
 30
0.0
 10
370.4189629047399
 20
289.488149239988
 30
0.0
 10
370.9997766301184
 20
289.4735191839679
 30
0.0
 10
371.291219259049
 20
289.4768587259522
 30
0.0
 10
371.5837246966747
 20
289.4911280229494
 30
0.0
  0
SPLINE
  5
1C1
330
1F
100
AcDbEntity
  8
1
100
AcDbSpline
210
0.0
220
0.0
230
1.0
 70
     8
 71
     3
 72
     8
 73
     4
 74
     0
 42
0.000000001
 43
0.0000000001
 40
0.0
 40
0.0
 40
0.0
 40
0.0
 40
1.0
 40
1.0
 40
1.0
 40
1.0
 10
371.5156824349055
 20
291.1929860964237
 30
0.0
 10
371.5189486509916
 20
291.1931292869136
 30
0.0
 10
371.5222153555207
 20
291.193272132444
 30
0.0
 10
371.5254825489358
 20
291.1934146327023
 30
0.0
  0
SPLINE
  5
1C2
330
1F
100
AcDbEntity
  8
1
100
AcDbSpline
210
0.0
220
0.0
230
1.0
 70
     8
 71
     3
 72
    29
 73
    25
 74
     0
 42
0.000000001
 43
0.0000000001
 40
0.0
 40
0.0
 40
0.0
 40
0.0
 40
0.1249999999999949
 40
0.1249999999999949
 40
0.2499999999999899
 40
0.2499999999999899
 40
0.3749999999999848
 40
0.3749999999999848
 40
0.4062499999999821
 40
0.4062499999999821
 40
0.4374999999999791
 40
0.4999999999999735
 40
0.4999999999999735
 40
0.6249999999999682
 40
0.6249999999999682
 40
0.6874999999999688
 40
0.6874999999999688
 40
0.7187499999999718
 40
0.7187499999999718
 40
0.7499999999999751
 40
0.7499999999999751
 40
0.8749999999999873
 40
0.8749999999999873
 40
1.0
 40
1.0
 40
1.0
 40
1.0
 10
370.8804419452957
 20
289.7365342412888
 30
0.0
 10
370.6199426329157
 20
289.7469266678447
 30
0.0
 10
370.3601886749236
 20
289.7626644009924
 30
0.0
 10
369.8421901207748
 20
289.8052985080741
 30
0.0
 10
369.5839459245897
 20
289.8322017877548
 30
0.0
 10
369.0690193839277
 20
289.8980749894101
 30
0.0
 10
368.8123373047219
 20
289.9370499043393
 30
0.0
 10
368.4925077377771
 20
289.9940268556603
 30
0.0
 10
368.4285665306319
 20
290.0058412547675
 30
0.0
 10
368.3011643454527
 20
290.0302413926475
 30
0.0
 10
368.1106482411934
 20
290.0680213104366
 30
0.0
 10
367.9218400115901
 20
290.1093866943186
 30
0.0
 10
367.5463757697423
 20
290.1970314877812
 30
0.0
 10
367.2989305355893
 20
290.2620099451196
 30
0.0
 10
366.9316655158244
 20
290.3698949432056
 30
0.0
 10
366.8098957102169
 20
290.4075936599588
 30
0.0
 10
366.6281810013537
 20
290.4668302250579
 30
0.0
 10
366.567743909163
 20
290.4870317820603
 30
0.0
 10
366.4473590019952
 20
290.52828272598
 30
0.0
 10
366.3873962494378
 20
290.5493365950232
 30
0.0
 10
366.0887082376037
 20
290.6567704019
 30
0.0
 10
365.8533530858746
 20
290.7496377450179
 30
0.0
 10
365.389372456075
 20
290.9498779314888
 30
0.0
 10
365.1607483535579
 20
291.0572487698561
 30
0.0
 10
364.9353388252129
 20
291.1722954391261
 30
0.0
  0
SPLINE
  5
1C3
330
1F
100
AcDbEntity
  8
1
100
AcDbSpline
210
0.0
220
0.0
230
1.0
 70
     8
 71
     3
 72
    16
 73
    12
 74
     0
 42
0.000000001
 43
0.0000000001
 40
0.0
 40
0.0
 40
0.0
 40
0.0
 40
0.2499999999999999
 40
0.2499999999999999
 40
0.4999999999999999
 40
0.4999999999999999
 40
0.7499999999999997
 40
0.7499999999999997
 40
0.8749999999999998
 40
0.8749999999999998
 40
1.0
 40
1.0
 40
1.0
 40
1.0
 10
283.0185504442804
 20
284.1974893059774
 30
0.0
 10
282.7108343202191
 20
283.9860594897705
 30
0.0
 10
282.404482338038
 20
283.7681619567661
 30
0.0
 10
281.7948764324806
 20
283.3171355767439
 30
0.0
 10
281.4916241301446
 20
283.0840098229288
 30
0.0
 10
280.8886826282384
 20
282.5993620274739
 30
0.0
 10
280.5889937465778
 20
282.3478527123066
 30
0.0
 10
280.1425261035488
 20
281.9536075592231
 30
0.0
 10
279.9942149303514
 20
281.8193528377871
 30
0.0
 10
279.6986875460497
 20
281.5444808011079
 30
0.0
 10
279.5514712323509
 20
281.4038651054364
 30
0.0
 10
279.4048419452957
 20
281.2596550569766
 30
0.0
  0
SPLINE
  5
1C4
330
1F
100
AcDbEntity
  8
1
100
AcDbSpline
210
0.0
220
0.0
230
1.0
 70
     8
 71
     3
 72
    33
 73
    29
 74
     0
 42
0.000000001
 43
0.0000000001
 40
0.0
 40
0.0
 40
0.0
 40
0.0
 40
0.1250000000000261
 40
0.1250000000000261
 40
0.2500000000000523
 40
0.2500000000000523
 40
0.2812500000000343
 40
0.2812500000000343
 40
0.3125000000000162
 40
0.3749999999999801
 40
0.3749999999999801
 40
0.4999999999999079
 40
0.4999999999999079
 40
0.5312499999999134
 40
0.5312499999999134
 40
0.562499999999919
 40
0.6249999999999301
 40
0.6249999999999301
 40
0.7499999999999229
 40
0.7499999999999229
 40
0.7812499999999424
 40
0.7812499999999424
 40
0.8124999999999619
 40
0.8749999999999745
 40
0.8749999999999745
 40
0.9374999999999872
 40
0.9374999999999872
 40
1.0
 40
1.0
 40
1.0
 40
1.0
 10
371.5143430014276
 20
291.4346544051365
 30
0.0
 10
371.4649887718648
 20
291.4177574352767
 30
0.0
 10
371.4148746825854
 20
291.4045000907822
 30
0.0
 10
371.3129442919845
 20
291.3852449958788
 30
0.0
 10
371.2611258438826
 20
291.3792482467533
 30
0.0
 10
371.1951473359246
 20
291.3766133320616
 30
0.0
 10
371.1818930200227
 20
291.3763325912458
 30
0.0
 10
371.1555573365574
 20
291.3762662361019
 30
0.0
 10
371.1162022662636
 20
291.3769041191634
 30
0.0
 10
371.0772810211714
 20
291.3797070900136
 30
0.0
 10
370.9999796522477
 20
291.3881170513874
 30
0.0
 10
370.9491666124612
 20
291.397445948269
 30
0.0
 10
370.8864137731222
 20
291.4137212489416
 30
0.0
 10
370.87388125786
 20
291.4172148570445
 30
0.0
 10
370.8490528584297
 20
291.4246195509705
 30
0.0
 10
370.812124071424
 20
291.4363616766626
 30
0.0
 10
370.7760853338087
 20
291.4499749740755
 30
0.0
 10
370.7050872309874
 20
291.4796627817139
 30
0.0
 10
370.6591869928602
 20
291.5027165245472
 30
0.0
 10
370.6033757223616
 20
291.5357934011603
 30
0.0
 10
370.592277324337
 20
291.5426335780264
 30
0.0
 10
370.5703772359754
 20
291.5566602920186
 30
0.0
 10
370.5379302714759
 20
291.5782432266817
 30
0.0
 10
370.5066666960849
 20
291.6014446551439
 30
0.0
 10
370.4660060868211
 20
291.633827694362
 30
0.0
 10
370.44618792219
 20
291.6507430088538
 30
0.0
 10
370.4075664117216
 20
291.6860609371644
 30
0.0
 10
370.3887407486446
 20
291.7044867809171
 30
0.0
 10
370.3704723174866
 20
291.7236453166951
 30
0.0
  0
SPLINE
  5
1C5
330
1F
100
AcDbEntity
  8
1
100
AcDbSpline
210
0.0
220
0.0
230
1.0
 70
     8
 71
     3
 72
    10
 73
     6
 74
     0
 42
0.000000001
 43
0.0000000001
 40
0.0
 40
0.0
 40
0.0
 40
0.0
 40
0.5000000000000004
 40
0.5000000000000004
 40
1.0
 40
1.0
 40
1.0
 40
1.0
 10
369.1439622398063
 20
295.9511042037062
 30
0.0
 10
368.7171753110612
 20
296.2701222599111
 30
0.0
 10
368.2996437605266
 20
296.6000862798546
 30
0.0
 10
367.4849954005931
 20
297.2841580133998
 30
0.0
 10
367.0878843018834
 20
297.6382724808042
 30
0.0
 10
366.7018447538369
 20
298.0054808260959
 30
0.0
  0
SPLINE
  5
1C6
330
1F
100
AcDbEntity
  8
1
100
AcDbSpline
210
0.0
220
0.0
230
1.0
 70
     8
 71
     3
 72
    14
 73
    10
 74
     0
 42
0.000000001
 43
0.0000000001
 40
0.0
 40
0.0
 40
0.0
 40
0.0
 40
0.5
 40
0.5
 40
0.75
 40
0.75
 40
0.875
 40
0.875
 40
1.0
 40
1.0
 40
1.0
 40
1.0
 10
296.843027275083
 20
279.7207530881274
 30
0.0
 10
297.0154196192224
 20
279.7235434269203
 30
0.0
 10
297.1900712085446
 20
279.7260838948563
 30
0.0
 10
297.4554851981541
 20
279.7287407999218
 30
0.0
 10
297.5445307662634
 20
279.7294386116084
 30
0.0
 10
297.6789805526749
 20
279.7301463307314
 30
0.0
 10
297.7239441567948
 20
279.7303260157401
 30
0.0
 10
297.8141700383874
 20
279.7305668325195
 30
0.0
 10
297.8594710589517
 20
279.7306279560675
 30
0.0
 10
297.9048419452957
 20
279.7306279560675
 30
0.0
  0
SPLINE
  5
1C7
330
1F
100
AcDbEntity
  8
1
100
AcDbSpline
210
0.0
220
0.0
230
1.0
 70
     8
 71
     3
 72
    41
 73
    37
 74
     0
 42
0.000000001
 43
0.0000000001
 40
0.0
 40
0.0
 40
0.0
 40
0.0
 40
0.0530588427786222
 40
0.0530588427786222
 40
0.1061176855572443
 40
0.1061176855572443
 40
0.1591765283358665
 40
0.1591765283358665
 40
0.2122353711144886
 40
0.2122353711144886
 40
0.2652942138931108
 40
0.2652942138931108
 40
0.3183530566717329
 40
0.3183530566717329
 40
0.3448824780610445
 40
0.3448824780610445
 40
0.3714118994503561
 40
0.4244707422289793
 40
0.4244707422289793
 40
0.5305884277862258
 40
0.5305884277862258
 40
0.5836472705648489
 40
0.5836472705648489
 40
0.6367061133434721
 40
0.6367061133434721
 40
0.7428237989007175
 40
0.7428237989007175
 40
0.79588264167934
 40
0.79588264167934
 40
0.8489414844579627
 40
0.8489414844579627
 40
0.9020003272365856
 40
0.9020003272365856
 40
0.9550591700152079
 40
0.9550591700152079
 40
1.0
 40
1.0
 40
1.0
 40
1.0
 10
366.7018447538367
 20
298.0054808261018
 30
0.0
 10
366.0028616776969
 20
298.0271572699973
 30
0.0
 10
365.3030118078075
 20
298.0447276524862
 30
0.0
 10
363.9016521892078
 20
298.0729381943135
 30
0.0
 10
363.2001426040352
 20
298.0835800522511
 30
0.0
 10
361.7956133581761
 20
298.0990483576762
 30
0.0
 10
361.0925938884627
 20
298.1038761723432
 30
0.0
 10
359.6852651913386
 20
298.1086142312084
 30
0.0
 10
358.9809561847671
 20
298.1085256075575
 30
0.0
 10
357.5713330739621
 20
298.1040745755324
 30
0.0
 10
356.8659727669353
 20
298.0997127220749
 30
0.0
 10
355.454837846332
 20
298.0870755618972
 30
0.0
 10
354.7490802243728
 20
298.0788018841985
 30
0.0
 10
353.6903976117054
 20
298.0634900098675
 30
0.0
 10
353.3374961071528
 20
298.057899903864
 30
0.0
 10
352.6317228813018
 20
298.0457199173057
 30
0.0
 10
351.5731090707164
 20
298.0259465351214
 30
0.0
 10
350.5146306185215
 20
298.0016325718048
 30
0.0
 10
348.3978537013131
 20
297.9468437383321
 30
0.0
 10
346.9869135823985
 20
297.9021038078365
 30
0.0
 10
344.8708338476156
 20
297.8221558452982
 30
0.0
 10
344.1655279816154
 20
297.7933665464867
 30
0.0
 10
342.7550083563261
 20
297.731423465388
 30
0.0
 10
342.0497759660906
 20
297.6982691766051
 30
0.0
 10
339.9345526620652
 20
297.5921456328983
 30
0.0
 10
338.5249110347002
 20
297.5125636942045
 30
0.0
 10
336.4113106669728
 20
297.3789398349282
 30
0.0
 10
335.7069243209615
 20
297.332014508523
 30
0.0
 10
334.2985372804761
 20
297.2329779525496
 30
0.0
 10
333.5945398674245
 20
297.1808553868122
 30
0.0
 10
332.1869281743601
 20
297.071166550982
 30
0.0
 10
331.4833151256522
 20
297.0135957898362
 30
0.0
 10
330.0764281478114
 20
296.8928596798456
 30
0.0
 10
329.3731548937349
 20
296.8296900028305
 30
0.0
 10
328.0744199535857
 20
296.7079193005174
 30
0.0
 10
327.4789701558503
 20
296.6500992893838
 30
0.0
 10
326.883676202967
 20
296.5904426108413
 30
0.0
  0
SPLINE
  5
1C8
330
1F
100
AcDbEntity
  8
1
100
AcDbSpline
210
0.0
220
0.0
230
1.0
 70
    28
 71
     4
 72
    13
 73
     8
 74
     0
 42
0.000000001
 43
0.0000000001
 40
0.0
 40
0.0
 40
0.0
 40
0.0
 40
0.0
 40
0.0848234455789603
 40
0.0848234455789603
 40
0.0848234455789603
 40
1.0
 40
1.0
 40
1.0
 40
1.0
 40
1.0
 10
297.9048419452957
 20
284.9637319560618
 30
0.0
 41
1.001010244433635
 10
297.9048419452957
 20
284.857395800372
 30
0.0
 41
1.001229839328825
 10
297.9048419452957
 20
284.7503436719648
 30
0.0
 41
1.001399716005632
 10
297.9048419452957
 20
284.6428436769202
 30
0.0
 41
1.001498006703475
 10
297.9048419452957
 20
283.373571482734
 30
0.0
 41
1.001498006703475
 10
297.9048419452957
 20
281.9582168781413
 30
0.0
 41
0.990056311614315
 10
297.9048419452957
 20
280.6631010856242
 30
0.0
 41
1.000712294313367
 10
297.9048419452957
 20
279.7306279560675
 30
0.0
 41
1.001462036278046
  0
SPLINE
  5
1C9
330
1F
100
AcDbEntity
  8
1
100
AcDbSpline
210
0.0
220
0.0
230
1.0
 70
     8
 71
     3
 72
    22
 73
    18
 74
     0
 42
0.000000001
 43
0.0000000001
 40
0.0
 40
0.0
 40
0.0
 40
0.0
 40
0.049113300325506
 40
0.049113300325506
 40
0.1442019702929554
 40
0.1442019702929554
 40
0.2392906402604048
 40
0.2392906402604048
 40
0.3343793102278543
 40
0.3343793102278543
 40
0.4294679801953035
 40
0.4294679801953035
 40
0.6196453201302025
 40
0.6196453201302025
 40
0.8098226600651011
 40
0.8098226600651011
 40
1.0
 40
1.0
 40
1.0
 40
1.0
 10
326.9176762841537
 20
281.2497949152467
 30
0.0
 10
326.4452935218774
 20
281.1981667798066
 30
0.0
 10
325.9726926217383
 20
281.1482523981786
 30
0.0
 10
324.5844964987484
 20
281.0063866443036
 30
0.0
 10
323.6685902712335
 20
280.9188292675987
 30
0.0
 10
321.8359212551861
 20
280.754538250744
 30
0.0
 10
320.9191493446907
 20
280.6778064894758
 30
0.0
 10
319.084748995242
 20
280.5344169401389
 30
0.0
 10
318.1671200613272
 20
280.4677649544778
 30
0.0
 10
316.3309309670846
 20
280.3440667641772
 30
0.0
 10
315.4123719956263
 20
280.2870273879419
 30
0.0
 10
312.6560250191931
 20
280.1298080732442
 30
0.0
 10
310.8172522998432
 20
280.0435760750051
 30
0.0
 10
307.1359228539588
 20
279.9043127228646
 30
0.0
 10
305.2933578883417
 20
279.8512798578225
 30
0.0
 10
301.6031757471085
 20
279.7724344886597
 30
0.0
 10
299.7555725973033
 20
279.7465976996314
 30
0.0
 10
297.9048419452957
 20
279.7306279560675
 30
0.0
  0
SPLINE
  5
1CA
330
1F
100
AcDbEntity
  8
1
100
AcDbSpline
210
0.0
220
0.0
230
1.0
 70
     8
 71
     3
 72
    14
 73
    10
 74
     0
 42
0.000000001
 43
0.0000000001
 40
0.0
 40
0.0
 40
0.0
 40
0.0
 40
0.1250000000000043
 40
0.1250000000000043
 40
0.2500000000000087
 40
0.2500000000000087
 40
0.5000000000000087
 40
0.5000000000000087
 40
1.0
 40
1.0
 40
1.0
 40
1.0
 10
297.9048419452963
 20
298.0842312023633
 30
0.0
 10
297.8555572827665
 20
298.0842312023633
 30
0.0
 10
297.8061768801001
 20
298.0842932654052
 30
0.0
 10
297.7072220839
 20
298.0845416705322
 30
0.0
 10
297.6575646051198
 20
298.0847284891117
 30
0.0
 10
297.5090126206586
 20
298.0854676889752
 30
0.0
 10
297.4105846500198
 20
298.0861986952801
 30
0.0
 10
297.1170834831599
 20
298.088987465102
 30
0.0
 10
296.9237869730019
 20
298.0916603307217
 30
0.0
 10
296.732838612487
 20
298.0945999784143
 30
0.0
  0
SPLINE
  5
1CB
330
1F
100
AcDbEntity
  8
1
100
AcDbSpline
210
0.0
220
0.0
230
1.0
 70
     8
 71
     3
 72
    52
 73
    48
 74
     0
 42
0.000000001
 43
0.0000000001
 40
0.0
 40
0.0
 40
0.0
 40
0.0
 40
0.0624999999999996
 40
0.0624999999999996
 40
0.1249999999999993
 40
0.1249999999999993
 40
0.1562499999999991
 40
0.1562499999999991
 40
0.1874999999999989
 40
0.1874999999999989
 40
0.2499999999999985
 40
0.2499999999999985
 40
0.3124999999999981
 40
0.3124999999999981
 40
0.3749999999999978
 40
0.3749999999999978
 40
0.4374999999999975
 40
0.4374999999999975
 40
0.4531249999999975
 40
0.4531249999999975
 40
0.4687499999999976
 40
0.4687499999999976
 40
0.4999999999999981
 40
0.4999999999999981
 40
0.5312499999999984
 40
0.5312499999999984
 40
0.5624999999999991
 40
0.5624999999999991
 40
0.5937499999999995
 40
0.5937499999999995
 40
0.625
 40
0.625
 40
0.6562500000000001
 40
0.6562500000000001
 40
0.6875000000000002
 40
0.6875000000000002
 40
0.7500000000000006
 40
0.7500000000000006
 40
0.812500000000001
 40
0.812500000000001
 40
0.8750000000000014
 40
0.8750000000000014
 40
0.9062500000000012
 40
0.9062500000000012
 40
0.937500000000001
 40
0.937500000000001
 40
1.0
 40
1.0
 40
1.0
 40
1.0
 10
299.1126314759923
 20
284.6606691288265
 30
0.0
 10
300.3583354513394
 20
284.507392916049
 30
0.0
 10
301.6037153707728
 20
284.3546566191136
 30
0.0
 10
304.0936657986832
 20
284.0497004145458
 30
0.0
 10
305.3382358281289
 20
283.8974748485597
 30
0.0
 10
307.2043227364185
 20
283.6690282692013
 30
0.0
 10
307.8262233083537
 20
283.5928611824763
 30
0.0
 10
309.0697378049084
 20
283.4404186364458
 30
0.0
 10
309.6913673347975
 20
283.3641408602231
 30
0.0
 10
311.5552997335084
 20
283.1351235358574
 30
0.0
 10
312.7967920384156
 20
282.9821578328781
 30
0.0
 10
315.2771273669927
 20
282.6756788815385
 30
0.0
 10
316.515966209776
 20
282.52214927689
 30
0.0
 10
318.9906914968952
 20
282.2155132731864
 30
0.0
 10
320.2265725553339
 20
282.0623935160123
 30
0.0
 10
322.6953176836749
 20
281.758989479644
 30
0.0
 10
323.928176429419
 20
281.6087032967628
 30
0.0
 10
325.4675770512905
 20
281.4251912939705
 30
0.0
 10
325.7753746936256
 20
281.3887101035875
 30
0.0
 10
326.3908158020778
 20
281.3162708074704
 30
0.0
 10
326.6984607182552
 20
281.2803181246142
 30
0.0
 10
327.6212759065576
 20
281.1736475725676
 30
0.0
 10
328.2363301965322
 20
281.1041376568539
 30
0.0
 10
329.4666174892102
 20
280.9698814875254
 30
0.0
 10
330.0818504899988
 20
280.9051321472449
 30
0.0
 10
331.3128714690019
 20
280.781332292895
 30
0.0
 10
331.9287110286913
 20
280.7222728861869
 30
0.0
 10
333.1607342894534
 20
280.6103286386778
 30
0.0
 10
333.7769626244496
 20
280.557433159503
 30
0.0
 10
335.0100706975384
 20
280.4578788299125
 30
0.0
 10
335.6269716536453
 20
280.4112603539465
 30
0.0
 10
336.8614246137017
 20
280.323749993883
 30
0.0
 10
337.4789653066918
 20
280.2828338016436
 30
0.0
 10
338.7146178638853
 20
280.20615541884
 30
0.0
 10
339.3327304150964
 20
280.1703964642649
 30
0.0
 10
341.1879129630807
 20
280.070300582879
 30
0.0
 10
342.4258239920703
 20
280.013141765432
 30
0.0
 10
344.9040961582263
 20
279.9156418882893
 30
0.0
 10
346.1444683203774
 20
279.8753176992142
 30
0.0
 10
348.6278892373436
 20
279.8091777427225
 30
0.0
 10
349.8709391149394
 20
279.783354127835
 30
0.0
 10
351.7375389610903
 20
279.7536560400244
 30
0.0
 10
352.3599544831345
 20
279.7452650022475
 30
0.0
 10
353.6051848079338
 20
279.7312045134213
 30
0.0
 10
354.2280034249687
 20
279.7255302589471
 30
0.0
 10
356.0969303542421
 20
279.7121321766781
 30
0.0
 10
357.3435110891191
 20
279.7079935137005
 30
0.0
 10
358.5903553752941
 20
279.7079935137005
 30
0.0
  0
SPLINE
  5
1CC
330
1F
100
AcDbEntity
  8
1
100
AcDbSpline
210
0.0
220
0.0
230
1.0
 70
     8
 71
     3
 72
    60
 73
    56
 74
     0
 42
0.000000001
 43
0.0000000001
 40
0.0
 40
0.0
 40
0.0
 40
0.0
 40
0.0625000000000006
 40
0.0625000000000006
 40
0.1250000000000013
 40
0.1250000000000013
 40
0.1562500000000016
 40
0.1562500000000016
 40
0.1875000000000019
 40
0.1875000000000019
 40
0.2500000000000026
 40
0.2500000000000026
 40
0.3125000000000032
 40
0.3125000000000032
 40
0.3750000000000038
 40
0.3750000000000038
 40
0.4062500000000043
 40
0.4062500000000043
 40
0.4218750000000043
 40
0.4218750000000043
 40
0.4375000000000041
 40
0.4375000000000041
 40
0.4687500000000038
 40
0.4687500000000038
 40
0.5000000000000036
 40
0.5000000000000036
 40
0.5312500000000032
 40
0.5312500000000032
 40
0.5625000000000029
 40
0.5625000000000029
 40
0.5937500000000026
 40
0.5937500000000026
 40
0.6250000000000022
 40
0.6250000000000022
 40
0.6562500000000018
 40
0.6562500000000018
 40
0.6875000000000015
 40
0.6875000000000015
 40
0.7187500000000011
 40
0.7187500000000011
 40
0.7500000000000008
 40
0.7500000000000008
 40
0.8125000000000001
 40
0.8125000000000001
 40
0.8437500000000001
 40
0.8437500000000001
 40
0.8750000000000001
 40
0.8750000000000001
 40
0.90625
 40
0.90625
 40
0.9375
 40
0.9375
 40
0.96875
 40
0.96875
 40
1.0
 40
1.0
 40
1.0
 40
1.0
 10
297.9048419452957
 20
298.0842312023633
 30
0.0
 10
299.3120150429327
 20
298.0720614340922
 30
0.0
 10
300.7175750149692
 20
298.0544194966108
 30
0.0
 10
303.5256189623263
 20
298.0043843269829
 30
0.0
 10
304.928100725837
 20
297.9719690607323
 30
0.0
 10
307.0298297707965
 20
297.9095286663394
 30
0.0
 10
307.7301148117439
 20
297.886414034831
 30
0.0
 10
309.1297291370367
 20
297.8352246575592
 30
0.0
 10
309.8290955660067
 20
297.8071481442745
 30
0.0
 10
311.9260343425365
 20
297.7150509786737
 30
0.0
 10
313.3224351485432
 20
297.6430922832321
 30
0.0
 10
316.1132780944275
 20
297.4772533195847
 30
0.0
 10
317.5077274038376
 20
297.3833667229923
 30
0.0
 10
320.2960996517856
 20
297.175178506537
 30
0.0
 10
321.6900324568434
 20
297.0608985550139
 30
0.0
 10
323.7816127216329
 20
296.8769079207637
 30
0.0
 10
324.4789186463271
 20
296.8134969704411
 30
0.0
 10
325.525161598849
 20
296.7156898175476
 30
0.0
 10
325.8739569393439
 20
296.6826410286311
 30
0.0
 10
326.5716567497598
 20
296.6157154556398
 30
0.0
 10
326.9205350418542
 20
296.5818319162157
 30
0.0
 10
327.9671930614299
 20
296.4788067099568
 30
0.0
 10
328.6650008465425
 20
296.4082832720146
 30
0.0
 10
330.0605318713512
 20
296.2630712001011
 30
0.0
 10
330.758255418857
 20
296.1883807171878
 30
0.0
 10
332.1535589760606
 20
296.0345712720612
 30
0.0
 10
332.8511395794831
 20
295.9554519615947
 30
0.0
 10
334.2461817331233
 20
295.7927834596676
 30
0.0
 10
334.9436404366465
 20
295.7092211593658
 30
0.0
 10
336.3385430389005
 20
295.5379837816495
 30
0.0
 10
337.0359266035567
 20
295.4503649487766
 30
0.0
 10
338.4307020262958
 20
295.2717817889931
 30
0.0
 10
339.128097125629
 20
295.1808168171162
 30
0.0
 10
340.5230094938927
 20
294.9960229135457
 30
0.0
 10
341.2205264079251
 20
294.9021936858273
 30
0.0
 10
342.6157421936255
 20
294.7119918964693
 30
0.0
 10
343.3134407936705
 20
294.6156190819972
 30
0.0
 10
344.7090424256243
 20
294.4204977442142
 30
0.0
 10
345.4069663587676
 20
294.3217460828332
 30
0.0
 10
346.8028234439237
 20
294.1219140054911
 30
0.0
 10
347.5007736678729
 20
294.0208315164611
 30
0.0
 10
349.5946403967757
 20
293.7138906114868
 30
0.0
 10
350.9905878145577
 20
293.5044367187339
 30
0.0
 10
353.084115722759
 20
293.1806849266239
 30
0.0
 10
353.781885336853
 20
293.0711293903783
 30
0.0
 10
355.1771879473091
 20
292.848191425227
 30
0.0
 10
355.8746497162259
 20
292.7348149894998
 30
0.0
 10
357.2691627212305
 20
292.5041589726338
 30
0.0
 10
357.9662181015151
 20
292.3868733838464
 30
0.0
 10
359.3600426442427
 20
292.1488936560405
 30
0.0
 10
360.056811035359
 20
292.0281936058954
 30
0.0
 10
361.4503166898426
 20
291.7846482978007
 30
0.0
 10
362.1470637206091
 20
291.6617957984571
 30
0.0
 10
363.5408998316925
 20
291.4161587385744
 30
0.0
 10
364.2379267623759
 20
291.2933818308076
 30
0.0
 10
364.9353388252127
 20
291.1722954391261
 30
0.0
  0
SPLINE
  5
1CD
330
1F
100
AcDbEntity
  8
1
100
AcDbSpline
210
0.0
220
0.0
230
1.0
 70
     8
 71
     3
 72
     8
 73
     4
 74
     0
 42
0.000000001
 43
0.0000000001
 40
0.0
 40
0.0
 40
0.0
 40
0.0
 40
1.0
 40
1.0
 40
1.0
 40
1.0
 10
367.5983846039224
 20
291.6302205894247
 30
0.0
 10
367.3881201666378
 20
291.6924569007159
 30
0.0
 10
367.1800991075573
 20
291.7600867776439
 30
0.0
 10
366.9740710109771
 20
291.8330756245348
 30
0.0
  0
SPLINE
  5
1CE
330
1F
100
AcDbEntity
  8
1
100
AcDbSpline
210
0.0
220
0.0
230
1.0
 70
     8
 71
     3
 72
    48
 73
    44
 74
     0
 42
0.000000001
 43
0.0000000001
 40
0.0
 40
0.0
 40
0.0
 40
0.0
 40
0.1250000000000183
 40
0.1250000000000183
 40
0.2500000000000366
 40
0.2500000000000366
 40
0.375000000000055
 40
0.375000000000055
 40
0.4375000000000641
 40
0.4375000000000641
 40
0.500000000000073
 40
0.500000000000073
 40
0.5625000000000821
 40
0.5625000000000821
 40
0.6250000000000912
 40
0.6250000000000912
 40
0.6562500000000956
 40
0.6562500000000956
 40
0.6875000000001
 40
0.6875000000001
 40
0.7187500000001047
 40
0.7187500000001047
 40
0.7343750000001071
 40
0.7343750000001071
 40
0.7500000000001096
 40
0.7500000000001096
 40
0.7656250000001121
 40
0.7656250000001121
 40
0.7812500000001146
 40
0.7812500000001146
 40
0.8125000000001266
 40
0.8125000000001266
 40
0.8281250000001248
 40
0.8281250000001248
 40
0.8437500000001232
 40
0.8437500000001232
 40
0.8750000000000985
 40
0.8750000000000985
 40
0.906250000000074
 40
0.906250000000074
 40
0.9375000000000492
 40
0.9375000000000492
 40
1.0
 40
1.0
 40
1.0
 40
1.0
 10
366.9740710109771
 20
291.8330756245348
 30
0.0
 10
366.9240564297634
 20
291.8507941137657
 30
0.0
 10
366.8748377827414
 20
291.8697128997095
 30
0.0
 10
366.7782459071403
 20
291.9103717478837
 30
0.0
 10
366.7308686678923
 20
291.9321054959251
 30
0.0
 10
366.6383738846199
 20
291.9790725933299
 30
0.0
 10
366.5932446590756
 20
292.004287640849
 30
0.0
 10
366.5278337071845
 20
292.0456831916558
 30
0.0
 10
366.5065100169223
 20
292.0600254549811
 30
0.0
 10
366.4651328003416
 20
292.0899317483291
 30
0.0
 10
366.4450588337944
 20
292.1055043211103
 30
0.0
 10
366.4064604882637
 20
292.1382138113278
 30
0.0
 10
366.3879291461772
 20
292.1553438141838
 30
0.0
 10
366.3529784600854
 20
292.191735021503
 30
0.0
 10
366.3366787857987
 20
292.2108613296793
 30
0.0
 10
366.3150331508637
 20
292.2413247281862
 30
0.0
 10
366.3082634724479
 20
292.2518189380306
 30
0.0
 10
366.2959953501322
 20
292.2734646581401
 30
0.0
 10
366.2905421828258
 20
292.2845284396572
 30
0.0
 10
366.2813422213927
 20
292.3072560906838
 30
0.0
 10
366.277590040487
 20
292.3189181371883
 30
0.0
 10
366.2736647912321
 20
292.337005823833
 30
0.0
 10
366.272642356835
 20
292.3431348825078
 30
0.0
 10
366.2712823967787
 20
292.355631110985
 30
0.0
 10
366.2709542741491
 20
292.3619618889109
 30
0.0
 10
366.2710962722509
 20
292.3745602729366
 30
0.0
 10
366.2715620707115
 20
292.3808611410399
 30
0.0
 10
366.2733669220129
 20
292.3934654105929
 30
0.0
 10
366.2747158567614
 20
292.3998020929346
 30
0.0
 10
366.2801633437919
 20
292.4185876607839
 30
0.0
 10
366.2855559770106
 20
292.4305210365755
 30
0.0
 10
366.2962166609899
 20
292.4475520729268
 30
0.0
 10
366.3002290148861
 20
292.4531140813666
 30
0.0
 10
366.3088718532912
 20
292.4636829462146
 30
0.0
 10
366.3135142457818
 20
292.4687190808309
 30
0.0
 10
366.3282960519512
 20
292.4831652079167
 30
0.0
 10
366.3393762376412
 20
292.4919596803514
 30
0.0
 10
366.3625382016886
 20
292.5076097435451
 30
0.0
 10
366.3746951605534
 20
292.514555909742
 30
0.0
 10
366.3998616440673
 20
292.5271453216748
 30
0.0
 10
366.4129261092725
 20
292.5328029343685
 30
0.0
 10
366.452635340775
 20
292.5480585318128
 30
0.0
 10
366.4798210811911
 20
292.5560264568073
 30
0.0
 10
366.5074418347298
 20
292.5626501213586
 30
0.0
  0
SPLINE
  5
1CF
330
1F
100
AcDbEntity
  8
1
100
AcDbSpline
210
0.0
220
0.0
230
1.0
 70
     8
 71
     3
 72
    64
 73
    60
 74
     0
 42
0.000000001
 43
0.0000000001
 40
0.0
 40
0.0
 40
0.0
 40
0.0
 40
0.1249999999999993
 40
0.1249999999999993
 40
0.1874999999999989
 40
0.1874999999999989
 40
0.2499999999999984
 40
0.2499999999999984
 40
0.312499999999998
 40
0.312499999999998
 40
0.3749999999999977
 40
0.3749999999999977
 40
0.4062499999999943
 40
0.4062499999999943
 40
0.4374999999999908
 40
0.4374999999999908
 40
0.499999999999984
 40
0.499999999999984
 40
0.5312499999999777
 40
0.5312499999999777
 40
0.5624999999999715
 40
0.5624999999999715
 40
0.5781249999999685
 40
0.5781249999999685
 40
0.5937499999999655
 40
0.5937499999999655
 40
0.6249999999999595
 40
0.6249999999999595
 40
0.6406249999999588
 40
0.6406249999999588
 40
0.6562499999999583
 40
0.6562499999999583
 40
0.6874999999999569
 40
0.6874999999999569
 40
0.7031249999999574
 40
0.7031249999999574
 40
0.7109374999999586
 40
0.7109374999999586
 40
0.7187499999999597
 40
0.7187499999999597
 40
0.7499999999999638
 40
0.7499999999999638
 40
0.7656249999999659
 40
0.7656249999999659
 40
0.781249999999968
 40
0.781249999999968
 40
0.8124999999999717
 40
0.8124999999999717
 40
0.8281249999999737
 40
0.8281249999999737
 40
0.8437499999999754
 40
0.8437499999999754
 40
0.8749999999999793
 40
0.8749999999999793
 40
0.9062499999999833
 40
0.9062499999999833
 40
0.937499999999987
 40
0.937499999999987
 40
1.0
 40
1.0
 40
1.0
 40
1.0
 10
366.5074418347286
 20
292.5626501213583
 30
0.0
 10
366.7410714845341
 20
292.6186762694971
 30
0.0
 10
366.973443351281
 20
292.6798470977672
 30
0.0
 10
367.3195291179236
 20
292.7817146399152
 30
0.0
 10
367.4344765202333
 20
292.8173659882062
 30
0.0
 10
367.6633990769446
 20
292.8926454472815
 30
0.0
 10
367.7774839968846
 20
292.9323136451588
 30
0.0
 10
368.0036813557846
 20
293.0161062592426
 30
0.0
 10
368.115842304939
 20
293.0602377778302
 30
0.0
 10
368.337892377688
 20
293.153916029535
 30
0.0
 10
368.4477849013962
 20
293.2034546580048
 30
0.0
 10
368.6104888728837
 20
293.2828512291674
 30
0.0
 10
368.6643702163394
 20
293.3101744188259
 30
0.0
 10
368.7708562885228
 20
293.3665094279271
 30
0.0
 10
368.8235162690513
 20
293.3955468239215
 30
0.0
 10
368.9795133058573
 20
293.4856174124607
 30
0.0
 10
369.0809001442911
 20
293.5495602381914
 30
0.0
 10
369.2276866424498
 20
293.6533725166653
 30
0.0
 10
369.2757265058749
 20
293.6893029098156
 30
0.0
 10
369.3696706381609
 20
293.7643499026397
 30
0.0
 10
369.415577476634
 20
293.8034626685729
 30
0.0
 10
369.4824566828971
 20
293.8650874529433
 30
0.0
 10
369.5044239485699
 20
293.886133928277
 30
0.0
 10
369.5472791687209
 20
293.9289976042645
 30
0.0
 10
369.5682085635177
 20
293.9508516134932
 30
0.0
 10
369.6293531237088
 20
294.0178063942484
 30
0.0
 10
369.6679381838917
 20
294.0642884632978
 30
0.0
 10
369.7217567176817
 20
294.1374510777873
 30
0.0
 10
369.7390388799142
 20
294.1624489915083
 30
0.0
 10
369.7719694754795
 20
294.2136019009058
 30
0.0
 10
369.7875023054638
 20
294.2395745168833
 30
0.0
 10
369.8310888995273
 20
294.318771976326
 30
0.0
 10
369.8561466885695
 20
294.373269667287
 30
0.0
 10
369.8866369868946
 20
294.4580311207652
 30
0.0
 10
369.8956140928773
 20
294.4867889524994
 30
0.0
 10
369.9071218937032
 20
294.5307575010371
 30
0.0
 10
369.9106311819349
 20
294.5455524599892
 30
0.0
 10
369.9169621725641
 20
294.5754345004568
 30
0.0
 10
369.9197673621331
 20
294.5904515349264
 30
0.0
 10
369.9318945626006
 20
294.6654574913343
 30
0.0
 10
369.9356230299232
 20
294.7256613447476
 30
0.0
 10
369.9322309993914
 20
294.8162665836063
 30
0.0
 10
369.9296018845765
 20
294.8465182724363
 30
0.0
 10
369.9213311448638
 20
294.9071220562651
 30
0.0
 10
369.9157490019057
 20
294.9370339587724
 30
0.0
 10
369.8950414821482
 20
295.0255191862323
 30
0.0
 10
369.8759571182993
 20
295.0829279609529
 30
0.0
 10
369.8405281499865
 20
295.1670035251061
 30
0.0
 10
369.8275430710089
 20
295.1947465204902
 30
0.0
 10
369.7998796854737
 20
295.248815342458
 30
0.0
 10
369.7851648948457
 20
295.2752415607806
 30
0.0
 10
369.7386831122005
 20
295.352910432581
 30
0.0
 10
369.7045921766603
 20
295.4025525778263
 30
0.0
 10
369.6314312108284
 20
295.4984077479178
 30
0.0
 10
369.5923549121708
 20
295.5446164557182
 30
0.0
 10
369.5100691408267
 20
295.6341873395533
 30
0.0
 10
369.4672469451451
 20
295.67712964686
 30
0.0
 10
369.3348102974478
 20
295.8014236914124
 30
0.0
 10
369.2412341554093
 20
295.8783422744892
 30
0.0
 10
369.1439622398063
 20
295.9511042037062
 30
0.0
  0
SPLINE
  5
1D0
330
1F
100
AcDbEntity
  8
1
100
AcDbSpline
210
0.0
220
0.0
230
1.0
 70
    12
 71
     3
 72
    10
 73
     6
 74
     0
 42
0.000000001
 43
0.0000000001
 40
0.0
 40
0.0
 40
0.0
 40
0.0
 40
0.0596528397239173
 40
0.5539427790151867
 40
1.0
 40
1.0
 40
1.0
 40
1.0
 10
332.8418076966823
 20
295.956962472154
 30
0.0
 41
1.001532147883898
 10
333.564989843225
 20
296.0078468369765
 30
0.0
 41
1.001522320190307
 10
340.2851363662361
 20
296.4265546478355
 30
0.0
 41
1.001429766742844
 10
352.3722170917189
 20
296.0511813006128
 30
0.0
 41
1.001579092256563
 10
363.7845393636292
 20
295.7683589159495
 30
0.0
 41
1.001457965287365
 10
369.1439622398062
 20
295.9511042037062
 30
0.0
 41
1.001485802403745
  0
SPLINE
  5
1D1
330
1F
100
AcDbEntity
  8
1
100
AcDbSpline
210
0.0
220
0.0
230
1.0
 70
     8
 71
     3
 72
    10
 73
     6
 74
     0
 42
0.000000001
 43
0.0000000001
 40
0.0
 40
0.0
 40
0.0
 40
0.0
 40
0.5
 40
0.5
 40
1.0
 40
1.0
 40
1.0
 40
1.0
 10
292.3198517880246
 20
286.31616884984
 30
0.0
 10
292.655303383404
 20
286.2587816833599
 30
0.0
 10
292.9907286280343
 20
286.1926840647556
 30
0.0
 10
293.6615299528505
 20
286.044237124832
 30
0.0
 10
293.996906036917
 20
285.9618890862918
 30
0.0
 10
294.3322589432653
 20
285.8718794664941
 30
0.0
  0
SPLINE
  5
1D2
330
1F
100
AcDbEntity
  8
1
100
AcDbSpline
210
0.0
220
0.0
230
1.0
 70
     8
 71
     3
 72
    14
 73
    10
 74
     0
 42
0.000000001
 43
0.0000000001
 40
0.0
 40
0.0
 40
0.0
 40
0.0
 40
0.25
 40
0.25
 40
0.5
 40
0.5
 40
0.75
 40
0.75
 40
1.0
 40
1.0
 40
1.0
 40
1.0
 10
279.4048419453011
 20
274.6469192025468
 30
0.0
 10
279.6422587422067
 20
274.7682691103399
 30
0.0
 10
279.8808340471501
 20
274.8968046768565
 30
0.0
 10
280.3594879590228
 20
275.1639694497109
 30
0.0
 10
280.5995674775729
 20
275.3026121636786
 30
0.0
 10
281.0804592133996
 20
275.5867529292058
 30
0.0
 10
281.3212714000531
 20
275.7322561030102
 30
0.0
 10
281.8028849354077
 20
276.0276069702238
 30
0.0
 10
282.0436856058832
 20
276.1774555291454
 30
0.0
 10
282.2841283975648
 20
276.3285465968144
 30
0.0
  0
SPLINE
  5
1D3
330
1F
100
AcDbEntity
  8
1
100
AcDbSpline
210
0.0
220
0.0
230
1.0
 70
     8
 71
     3
 72
    34
 73
    30
 74
     0
 42
0.000000001
 43
0.0000000001
 40
0.0
 40
0.0
 40
0.0
 40
0.0
 40
0.1250000000000001
 40
0.1250000000000001
 40
0.2500000000000003
 40
0.2500000000000003
 40
0.3750000000000004
 40
0.3750000000000004
 40
0.4375000000000007
 40
0.4375000000000007
 40
0.4687500000000004
 40
0.4687500000000004
 40
0.4843750000000007
 40
0.4843750000000007
 40
0.500000000000001
 40
0.500000000000001
 40
0.6250000000000002
 40
0.6250000000000002
 40
0.7499999999999995
 40
0.7499999999999995
 40
0.8124999999999991
 40
0.8124999999999991
 40
0.8437499999999989
 40
0.8437499999999989
 40
0.8593749999999992
 40
0.8593749999999992
 40
0.8749999999999996
 40
0.8749999999999996
 40
1.0
 40
1.0
 40
1.0
 40
1.0
 10
283.0185504442805
 20
284.1974893059774
 30
0.0
 10
283.3253028503077
 20
284.4082569575755
 30
0.0
 10
283.6431624597956
 20
284.6064938412878
 30
0.0
 10
284.3011971041172
 20
284.977564123309
 30
0.0
 10
284.6413695005922
 20
285.1504040221539
 30
0.0
 10
285.3448221246177
 20
285.4694571182453
 30
0.0
 10
285.7080964917191
 20
285.6156833872424
 30
0.0
 10
286.2715454319859
 20
285.8132585096243
 30
0.0
 10
286.4624582365532
 20
285.8754791858581
 30
0.0
 10
286.7536952324727
 20
285.9630136660485
 30
0.0
 10
286.8515860716593
 20
285.9912248388117
 30
0.0
 10
286.9996732165675
 20
286.0320396445158
 30
0.0
 10
287.049277404266
 20
286.045402698935
 30
0.0
 10
287.1486568707755
 20
286.0715532854016
 30
0.0
 10
287.1984492291132
 20
286.0843459622633
 30
0.0
 10
287.6475043971135
 20
286.1969212654148
 30
0.0
 10
288.0532258346594
 20
286.2788615597123
 30
0.0
 10
288.8779606506586
 20
286.4038225744299
 30
0.0
 10
289.2969799342291
 20
286.4468504624376
 30
0.0
 10
289.935707146685
 20
286.4788511895333
 30
0.0
 10
290.1503164161974
 20
286.484079567547
 30
0.0
 10
290.4748036163646
 20
286.4832064468659
 30
0.0
 10
290.5833948184173
 20
286.4814618225142
 30
0.0
 10
290.7469265892195
 20
286.4765862423652
 30
0.0
 10
290.801559435099
 20
286.4745831793571
 30
0.0
 10
290.9106653897456
 20
286.4698295749029
 30
0.0
 10
290.9651840825234
 20
286.4670779672573
 30
0.0
 10
291.4555336396908
 20
286.438930891179
 30
0.0
 10
291.8891426027638
 20
286.3898521473993
 30
0.0
 10
292.3198517880246
 20
286.31616884984
 30
0.0
  0
SPLINE
  5
1D4
330
1F
100
AcDbEntity
  8
1
100
AcDbSpline
210
0.0
220
0.0
230
1.0
 70
     8
 71
     3
 72
    66
 73
    62
 74
     0
 42
0.000000001
 43
0.0000000001
 40
0.0
 40
0.0
 40
0.0
 40
0.0
 40
0.0625000000000001
 40
0.0625000000000001
 40
0.1250000000000003
 40
0.1250000000000003
 40
0.1562500000000003
 40
0.1562500000000003
 40
0.1718750000000003
 40
0.1718750000000003
 40
0.1796875000000002
 40
0.1796875000000002
 40
0.1875000000000002
 40
0.1875000000000002
 40
0.2500000000000014
 40
0.2500000000000014
 40
0.3125000000000026
 40
0.3125000000000026
 40
0.3437500000000029
 40
0.3437500000000029
 40
0.3515625000000027
 40
0.3515625000000027
 40
0.3593750000000027
 40
0.3750000000000025
 40
0.3750000000000025
 40
0.4375000000000004
 40
0.4375000000000004
 40
0.4999999999999984
 40
0.4999999999999984
 40
0.5078124999999984
 40
0.5078124999999984
 40
0.5156249999999984
 40
0.5312499999999982
 40
0.5312499999999982
 40
0.5624999999999977
 40
0.5624999999999977
 40
0.6249999999999968
 40
0.6249999999999968
 40
0.6406249999999969
 40
0.6406249999999969
 40
0.6562499999999972
 40
0.6562499999999972
 40
0.6874999999999972
 40
0.6874999999999972
 40
0.7499999999999974
 40
0.7499999999999974
 40
0.7656249999999977
 40
0.7656249999999977
 40
0.7812499999999979
 40
0.7812499999999979
 40
0.8124999999999984
 40
0.8124999999999984
 40
0.8749999999999987
 40
0.8749999999999987
 40
0.9062499999999992
 40
0.9062499999999992
 40
0.9218749999999992
 40
0.9218749999999992
 40
0.9374999999999996
 40
0.9374999999999996
 40
1.0
 40
1.0
 40
1.0
 40
1.0
 10
279.4048419452957
 20
281.2596550569766
 30
0.0
 10
279.202263628826
 20
281.1611999648583
 30
0.0
 10
279.0078045424139
 20
281.0537388146791
 30
0.0
 10
278.6348524058861
 20
280.8217208278314
 30
0.0
 10
278.4563579156471
 20
280.6971635636042
 30
0.0
 10
278.201013276076
 20
280.4975518022636
 30
0.0
 10
278.1179711642541
 20
280.4288786961718
 30
0.0
 10
277.9966372267658
 20
280.3226064677867
 30
0.0
 10
277.9567312939184
 20
280.286638149396
 30
0.0
 10
277.8977004812537
 20
280.2318572739978
 30
0.0
 10
277.878166624326
 20
280.213462919314
 30
0.0
 10
277.8395226453765
 20
280.1765360772609
 30
0.0
 10
277.8203941929562
 20
280.1579867086549
 30
0.0
 10
277.6499763034773
 20
279.9902773138635
 30
0.0
 10
277.5107999223562
 20
279.8357880334103
 30
0.0
 10
277.257386994638
 20
279.5165762777174
 30
0.0
 10
277.1431412104803
 20
279.3518555721291
 30
0.0
 10
276.9917857988286
 20
279.0970614393334
 30
0.0
 10
276.944681361765
 20
279.0108394086688
 30
0.0
 10
276.8902301754923
 20
278.9013995702579
 30
0.0
 10
276.879549948206
 20
278.8794031974427
 30
0.0
 10
276.8587018273016
 20
278.8353724009652
 30
0.0
 10
276.8282186860687
 20
278.7693167740505
 30
0.0
 10
276.8000922607736
 20
278.7032380812431
 30
0.0
 10
276.7115458499023
 20
278.4829451838884
 30
0.0
 10
276.6573028984622
 20
278.3066225695443
 30
0.0
 10
276.5824339319802
 20
277.954169602918
 30
0.0
 10
276.5617950694942
 20
277.778039387882
 30
0.0
 10
276.5588452598624
 20
277.5800736162611
 30
0.0
 10
276.558800981603
 20
277.558052415677
 30
0.0
 10
276.5592835382961
 20
277.5141646060637
 30
0.0
 10
276.560861230476
 20
277.4485913972281
 30
0.0
 10
276.5649769247657
 20
277.3837858597308
 30
0.0
 10
276.5765421304874
 20
277.2551795740666
 30
0.0
 10
276.5886933762555
 20
277.1707811318959
 30
0.0
 10
276.6382209590682
 20
276.9214779241461
 30
0.0
 10
276.6886115604685
 20
276.7604569095448
 30
0.0
 10
276.7734102463099
 20
276.5653807418025
 30
0.0
 10
276.7914652438303
 20
276.5266761830805
 30
0.0
 10
276.8297874207469
 20
276.4498841267879
 30
0.0
 10
276.8499389457891
 20
276.4120293334414
 30
0.0
 10
276.9132505151272
 20
276.3001097770086
 30
0.0
 10
276.9592816395343
 20
276.227652122251
 30
0.0
 10
277.108404337504
 20
276.016339360157
 30
0.0
 10
277.2224764668867
 20
275.8835223507672
 30
0.0
 10
277.3827463017464
 20
275.7266198788689
 30
0.0
 10
277.4156881709553
 20
275.6956971123014
 30
0.0
 10
277.4833470071486
 20
275.6347499702039
 30
0.0
 10
277.5180987703054
 20
275.6047007044517
 30
0.0
 10
277.6242693416775
 20
275.516482005535
 30
0.0
 10
277.697815349436
 20
275.4600355246208
 30
0.0
 10
277.9263797688576
 20
275.2972615318454
 30
0.0
 10
278.0892897061454
 20
275.1974697413137
 30
0.0
 10
278.3487014460492
 20
275.0593884105995
 30
0.0
 10
278.437689009236
 20
275.0153036954054
 30
0.0
 10
278.5749292365951
 20
274.9519696833919
 30
0.0
 10
278.6213504246754
 20
274.9313049735599
 30
0.0
 10
278.7150493794939
 20
274.8910598893672
 30
0.0
 10
278.7623597196365
 20
274.8714629551889
 30
0.0
 10
279.0011827724641
 20
274.7760239717528
 30
0.0
 10
279.1994795320454
 20
274.707779972865
 30
0.0
 10
279.4048419453057
 20
274.646919202541
 30
0.0
  0
LINE
  5
1F0
330
1F
100
AcDbEntity
  8
4
100
AcDbLine
 10
271.332259
 20
288.907994
 30
0.0
 11
381.562133
 21
288.907994
 31
0.0
  0
LINE
  5
1F1
330
1F
100
AcDbEntity
  8
SK4
100
AcDbLine
 10
213.504842
 20
288.907994
 30
0.0
 11
277.404842
 21
288.907994
 31
0.0
  0
MTEXT
  5
1F2
330
1F
100
AcDbEntity
  8
SK6
100
AcDbMText
 10
267.236591
 20
254.745813
 30
0.0
 40
3.5
 41
0.0
 71
     7
 72
     5
  1
\W0.7212;804D-0766-306-S100
  7
cesky
 73
     2
 44
0.8433729999999998
  0
MTEXT
  5
308
330
1F
100
AcDbEntity
  8
2
100
AcDbMText
 10
393.443442
 20
285.848628
 30
0.0
 40
3.5
 41
0.0
 71
     7
 72
     5
  1
\W0.9023;19,5
  7
cesky
 11
0.0000000000000001
 21
1.0
 31
0.0
 73
     2
 44
0.8433729999999998
  0
MTEXT
  5
309
330
1F
100
AcDbEntity
  8
2
100
AcDbMText
 10
393.443442
 20
279.111128
 30
0.0
 40
3.5
 41
0.0
 71
     7
 72
     5
  1
\W3.0115;\H2.63;%%c\H3.50;
  7
cesky
 11
0.0000000000000001
 21
1.0
 31
0.0
 73
     2
 44
0.8433729999999998
  0
LINE
  5
30A
330
1F
100
AcDbEntity
  8
2
100
AcDbLine
 10
379.230442
 20
298.636194
 30
0.0
 11
394.630859
 21
298.636194
 31
0.0
  0
LINE
  5
30B
330
1F
100
AcDbEntity
  8
2
100
AcDbLine
 10
393.630859
 20
298.636194
 30
0.0
 11
393.630859
 21
278.953628
 31
0.0
  0
SOLID
  5
30C
330
1F
100
AcDbEntity
  8
2
100
AcDbTrace
 10
393.630859
 20
298.636194
 30
0.0
 11
394.248003
 21
295.136196
 31
0.0
 12
393.013714
 22
295.136191
 32
0.0
 13
393.013714
 23
295.136191
 33
0.0
  0
MTEXT
  5
30D
330
1F
100
AcDbEntity
  8
2
100
AcDbMText
 10
291.715642
 20
331.658599
 30
0.0
 40
3.5
 41
0.0
 71
     7
 72
     5
  1
\W0.8654;159,8
  7
cesky
 73
     2
 44
0.8433729999999998
  0
LINE
  5
30E
330
1F
100
AcDbEntity
  8
2
100
AcDbLine
 10
377.230442
 20
300.636194
 30
0.0
 11
377.230442
 21
332.784432
 31
0.0
  0
LINE
  5
30F
330
1F
100
AcDbEntity
  8
2
100
AcDbLine
 10
217.404842
 20
300.007994
 30
0.0
 11
217.404842
 21
332.784432
 31
0.0
  0
LINE
  5
310
330
1F
100
AcDbEntity
  8
2
100
AcDbLine
 10
377.230442
 20
331.784432
 30
0.0
 11
217.404842
 21
331.784432
 31
0.0
  0
SOLID
  5
311
330
1F
100
AcDbEntity
  8
2
100
AcDbTrace
 10
377.230442
 20
331.784432
 30
0.0
 11
373.730444
 21
331.167288
 31
0.0
 12
373.73044
 22
332.401577
 32
0.0
 13
373.73044
 23
332.401577
 33
0.0
  0
SOLID
  5
312
330
1F
100
AcDbEntity
  8
2
100
AcDbTrace
 10
217.404842
 20
331.784432
 30
0.0
 11
220.90484
 21
332.401577
 31
0.0
 12
220.904844
 22
331.167288
 32
0.0
 13
220.904844
 23
331.167288
 33
0.0
  0
MTEXT
  5
313
330
1F
100
AcDbEntity
  8
2
100
AcDbMText
 10
244.090342
 20
317.385372
 30
0.0
 40
3.5
 41
0.0
 71
     7
 72
     5
  1
\W0.7045;57
  7
cesky
 73
     2
 44
0.8433729999999998
  0
LINE
  5
314
330
1F
100
AcDbEntity
  8
2
100
AcDbLine
 10
274.404842
 20
288.907994
 30
0.0
 11
274.404842
 21
318.511205
 31
0.0
  0
LINE
  5
315
330
1F
100
AcDbEntity
  8
2
100
AcDbLine
 10
217.404842
 20
300.007994
 30
0.0
 11
217.404842
 21
318.511205
 31
0.0
  0
LINE
  5
316
330
1F
100
AcDbEntity
  8
2
100
AcDbLine
 10
274.404842
 20
317.511205
 30
0.0
 11
217.404842
 21
317.511205
 31
0.0
  0
SOLID
  5
317
330
1F
100
AcDbEntity
  8
2
100
AcDbTrace
 10
274.404842
 20
317.511205
 30
0.0
 11
270.904844
 21
316.894061
 31
0.0
 12
270.90484
 22
318.128349
 32
0.0
 13
270.90484
 23
318.128349
 33
0.0
  0
SOLID
  5
318
330
1F
100
AcDbEntity
  8
2
100
AcDbTrace
 10
217.404842
 20
317.511205
 30
0.0
 11
220.90484
 21
318.128349
 31
0.0
 12
220.904844
 22
316.894061
 32
0.0
 13
220.904844
 23
316.894061
 33
0.0
  0
MTEXT
  5
319
330
1F
100
AcDbEntity
  8
2
100
AcDbMText
 10
331.652015
 20
308.499186
 30
0.0
 40
3.5
 41
0.0
 71
     7
 72
     5
  1
\W0.8459;82,5
  7
cesky
 73
     2
 44
0.8433729999999998
  0
LINE
  5
31A
330
1F
100
AcDbEntity
  8
2
100
AcDbLine
 10
377.230442
 20
300.636194
 30
0.0
 11
377.230442
 21
309.625019
 31
0.0
  0
LINE
  5
31B
330
1F
100
AcDbEntity
  8
2
100
AcDbLine
 10
294.752587
 20
298.262483
 30
0.0
 11
294.752587
 21
309.625019
 31
0.0
  0
LINE
  5
31C
330
1F
100
AcDbEntity
  8
2
100
AcDbLine
 10
377.230442
 20
308.625019
 30
0.0
 11
294.752587
 21
308.625019
 31
0.0
  0
SOLID
  5
31D
330
1F
100
AcDbEntity
  8
2
100
AcDbTrace
 10
377.230442
 20
308.625019
 30
0.0
 11
373.730444
 21
308.007875
 31
0.0
 12
373.73044
 22
309.242164
 32
0.0
 13
373.73044
 23
309.242164
 33
0.0
  0
SOLID
  5
31E
330
1F
100
AcDbEntity
  8
2
100
AcDbTrace
 10
294.752587
 20
308.625019
 30
0.0
 11
298.252585
 21
309.242164
 31
0.0
 12
298.25259
 22
308.007875
 32
0.0
 13
298.25259
 23
308.007875
 33
0.0
  0
MTEXT
  5
31F
330
1F
100
AcDbEntity
  8
2
100
AcDbMText
 10
320.215642
 20
317.385372
 30
0.0
 40
3.5
 41
0.0
 71
     7
 72
     5
  1
\W0.8654;102,8
  7
cesky
 73
     2
 44
0.8433729999999998
  0
LINE
  5
320
330
1F
100
AcDbEntity
  8
2
100
AcDbLine
 10
377.230442
 20
298.636194
 30
0.0
 11
377.230442
 21
318.511205
 31
0.0
  0
LINE
  5
321
330
1F
100
AcDbEntity
  8
2
100
AcDbLine
 10
274.404842
 20
289.907567
 30
0.0
 11
274.404842
 21
318.511205
 31
0.0
  0
LINE
  5
322
330
1F
100
AcDbEntity
  8
2
100
AcDbLine
 10
377.230442
 20
317.511205
 30
0.0
 11
274.404842
 21
317.511205
 31
0.0
  0
SOLID
  5
323
330
1F
100
AcDbEntity
  8
2
100
AcDbTrace
 10
377.230442
 20
317.511205
 30
0.0
 11
373.730444
 21
316.894061
 31
0.0
 12
373.73044
 22
318.128349
 32
0.0
 13
373.73044
 23
318.128349
 33
0.0
  0
SOLID
  5
324
330
1F
100
AcDbEntity
  8
2
100
AcDbTrace
 10
274.404842
 20
317.511205
 30
0.0
 11
277.90484
 21
318.128349
 31
0.0
 12
277.904844
 22
316.894061
 32
0.0
 13
277.904844
 23
316.894061
 33
0.0
  0
MTEXT
  5
325
330
1F
100
AcDbEntity
  8
SK2
100
AcDbMText
 10
205.052772
 20
287.909244
 30
0.0
 40
3.5
 41
0.0
 71
     7
 72
     5
  1
\W0.8329;25,4
  7
cesky
 11
0.0000000000000001
 21
1.0
 31
0.0
 73
     2
 44
0.8433729999999998
  0
MTEXT
  5
326
330
1F
100
AcDbEntity
  8
SK2
100
AcDbMText
 10
205.052772
 20
281.171744
 30
0.0
 40
3.5
 41
0.0
 71
     7
 72
     5
  1
\W3.0115;\H2.63;%%c\H3.50;
  7
cesky
 11
0.0000000000000001
 21
1.0
 31
0.0
 73
     2
 44
0.8433729999999998
  0
LINE
  5
327
330
1F
100
AcDbEntity
  8
SK2
100
AcDbLine
 10
219.004842
 20
301.607994
 30
0.0
 11
204.240188
 21
301.607994
 31
0.0
  0
LINE
  5
328
330
1F
100
AcDbEntity
  8
SK2
100
AcDbLine
 10
219.004842
 20
276.207994
 30
0.0
 11
204.240188
 21
276.207994
 31
0.0
  0
LINE
  5
329
330
1F
100
AcDbEntity
  8
SK2
100
AcDbLine
 10
205.240188
 20
301.607994
 30
0.0
 11
205.240188
 21
276.207994
 31
0.0
  0
SOLID
  5
32A
330
1F
100
AcDbEntity
  8
SK2
100
AcDbTrace
 10
205.240188
 20
301.607994
 30
0.0
 11
205.857333
 21
298.107996
 31
0.0
 12
204.623044
 22
298.107991
 32
0.0
 13
204.623044
 23
298.107991
 33
0.0
  0
SOLID
  5
32B
330
1F
100
AcDbEntity
  8
SK2
100
AcDbTrace
 10
205.240188
 20
276.207994
 30
0.0
 11
204.623044
 21
279.707991
 31
0.0
 12
205.857333
 22
279.707996
 32
0.0
 13
205.857333
 23
279.707996
 33
0.0
  0
MTEXT
  5
32C
330
1F
100
AcDbEntity
  8
SK2
100
AcDbMText
 10
191.984919
 20
290.434244
 30
0.0
 40
3.5
 41
0.0
 71
     7
 72
     5
  1
\W0.7045;35
  7
cesky
 11
0.0000000000000001
 21
1.0
 31
0.0
 73
     2
 44
0.8433729999999998
  0
MTEXT
  5
32D
330
1F
100
AcDbEntity
  8
SK2
100
AcDbMText
 10
191.984919
 20
283.696744
 30
0.0
 40
3.5
 41
0.0
 71
     7
 72
     5
  1
\W3.0115;\H2.63;%%c\H3.50;
  7
cesky
 11
0.0000000000000001
 21
1.0
 31
0.0
 73
     2
 44
0.8433729999999998
  0
LINE
  5
32E
330
1F
100
AcDbEntity
  8
SK2
100
AcDbLine
 10
274.904842
 20
306.407994
 30
0.0
 11
191.172336
 21
306.407994
 31
0.0
  0
LINE
  5
32F
330
1F
100
AcDbEntity
  8
SK2
100
AcDbLine
 10
274.904842
 20
271.407994
 30
0.0
 11
191.172336
 21
271.407994
 31
0.0
  0
LINE
  5
330
330
1F
100
AcDbEntity
  8
SK2
100
AcDbLine
 10
192.172336
 20
306.407994
 30
0.0
 11
192.172336
 21
271.407994
 31
0.0
  0
SOLID
  5
331
330
1F
100
AcDbEntity
  8
SK2
100
AcDbTrace
 10
192.172336
 20
306.407994
 30
0.0
 11
192.78948
 21
302.907996
 31
0.0
 12
191.5551909999999
 22
302.907991
 32
0.0
 13
191.5551909999999
 23
302.907991
 33
0.0
  0
SOLID
  5
332
330
1F
100
AcDbEntity
  8
SK2
100
AcDbTrace
 10
192.172336
 20
271.407994
 30
0.0
 11
191.5551909999999
 21
274.907991
 31
0.0
 12
192.78948
 22
274.9079959999999
 32
0.0
 13
192.78948
 23
274.9079959999999
 33
0.0
  0
LINE
  5
333
330
1F
100
AcDbEntity
  8
CUT
100
AcDbLine
 10
376.9292687736141
 20
293.9172987665032
 30
0.0
 11
377.1587914855816
 21
293.5353912314667
 31
0.0
  0
LINE
  5
335
330
1F
100
AcDbEntity
  8
CUT
100
AcDbLine
 10
370.7611201740704
 20
298.3773351593907
 30
0.0
 11
376.3287374287918
 21
298.6335756424144
 31
0.0
  0
LINE
  5
336
330
1F
100
AcDbEntity
  8
CUT
100
AcDbLine
 10
376.7335614106219
 20
298.2659335885202
 30
0.0
 11
376.9292687736141
 21
293.9172987665032
 31
0.0
  0
LINE
  5
337
330
1F
100
AcDbEntity
  8
CUT
100
AcDbLine
 10
377.1587914855816
 20
293.5353912314667
 30
0.0
 11
377.2302674212314
 21
289.4487831299798
 31
0.0
  0
LINE
  5
339
330
1F
100
AcDbEntity
  8
CUT
100
AcDbLine
 10
377.230267
 20
288.907994
 30
0.0
 11
370.390812
 21
288.907994
 31
0.0
  0
LINE
  5
33A
330
1F
100
AcDbEntity
  8
CUT
100
AcDbLine
 10
377.230267
 20
289.448783
 30
0.0
 11
377.230267
 21
288.907994
 31
0.0
  0
LINE
  5
33B
330
1F
100
AcDbEntity
  8
CUT
100
AcDbLine
 10
370.390812
 20
288.907994
 30
0.0
 11
370.390812
 21
297.973681
 31
0.0
  0
ARC
  5
33C
330
1F
100
AcDbEntity
  8
CUT
100
AcDbCircle
 10
376.3442538484583
 20
298.2436630788626
 30
0.0
 40
0.3902211763791667
100
AcDbArc
 50
7.443193561496911
 51
92.27886095068983
  0
ARC
  5
33D
330
1F
100
AcDbEntity
  8
CUT
100
AcDbCircle
 10
376.3679035227959
 20
298.2494715000945
 30
0.0
 40
0.3660282656908596
100
AcDbArc
 50
2.577742062238175
 51
7.021202147642213
  0
LINE
  5
33E
330
1F
100
AcDbEntity
  8
CUT
100
AcDbLine
 10
370.3908118070762
 20
297.973680816423
 30
0.0
 11
370.3908118070762
 21
297.973680816423
 31
0.0
  0
ARC
  5
33F
330
1F
100
AcDbEntity
  8
CUT
100
AcDbCircle
 10
370.781670974668
 20
297.98679633877
 30
0.0
 40
0.3910791554365532
100
AcDbArc
 50
93.01222069593013
 51
181.9218743855325
  0
ENDSEC
  0
SECTION
  2
OBJECTS
  0
DICTIONARY
  5
C
330
0
100
AcDbDictionary
281
     1
  3
ACAD_CIP_PREVIOUS_PRODUCT_INFO
350
305
  3
ACAD_COLOR
350
300
  3
ACAD_DETAILVIEWSTYLE
350
2FC
  3
ACAD_GROUP
350
D
  3
ACAD_LAYOUT
350
1A
  3
ACAD_MATERIAL
350
43
  3
ACAD_MLEADERSTYLE
350
6B
  3
ACAD_MLINESTYLE
350
17
  3
ACAD_PLOTSETTINGS
350
19
  3
ACAD_PLOTSTYLENAME
350
E
  3
ACAD_SCALELIST
350
47
  3
ACAD_SECTIONVIEWSTYLE
350
2FD
  3
ACAD_TABLESTYLE
350
69
  3
ACAD_VISUALSTYLE
350
2A
  3
ACDB_RECOMPOSE_DATA
350
36B
  3
AcDbVariableDictionary
350
2B9
  0
DICTIONARY
  5
34E
330
10
100
AcDbDictionary
280
     1
281
     1
  3
ADSK_XREC_LAYER_RECONCILED
360
34F
  0
DICTIONARY
  5
350
330
340
100
AcDbDictionary
280
     1
281
     1
  3
ADSK_XREC_LAYER_RECONCILED
360
351
  0
DICTIONARY
  5
352
330
341
100
AcDbDictionary
280
     1
281
     1
  3
ADSK_XREC_LAYER_RECONCILED
360
353
  0
DICTIONARY
  5
354
330
342
100
AcDbDictionary
280
     1
281
     1
  3
ADSK_XREC_LAYER_RECONCILED
360
355
  0
DICTIONARY
  5
356
330
344
100
AcDbDictionary
280
     1
281
     1
  3
ADSK_XREC_LAYER_RECONCILED
360
357
  0
DICTIONARY
  5
358
330
345
100
AcDbDictionary
280
     1
281
     1
  3
ADSK_XREC_LAYER_RECONCILED
360
359
  0
DICTIONARY
  5
35A
330
347
100
AcDbDictionary
280
     1
281
     1
  3
ADSK_XREC_LAYER_RECONCILED
360
35B
  0
DICTIONARY
  5
35C
330
348
100
AcDbDictionary
280
     1
281
     1
  3
ADSK_XREC_LAYER_RECONCILED
360
35D
  0
DICTIONARY
  5
35E
330
349
100
AcDbDictionary
280
     1
281
     1
  3
ADSK_XREC_LAYER_RECONCILED
360
35F
  0
DICTIONARY
  5
360
330
34A
100
AcDbDictionary
280
     1
281
     1
  3
ADSK_XREC_LAYER_RECONCILED
360
361
  0
DICTIONARY
  5
362
330
34B
100
AcDbDictionary
280
     1
281
     1
  3
ADSK_XREC_LAYER_RECONCILED
360
363
  0
DICTIONARY
  5
364
330
34C
100
AcDbDictionary
280
     1
281
     1
  3
ADSK_XREC_LAYER_RECONCILED
360
365
  0
DICTIONARY
  5
306
330
1F
100
AcDbDictionary
280
     1
281
     1
  3
ACAD_SORTENTS
360
307
  0
XRECORD
  5
305
102
{ACAD_REACTORS
330
C
102
}
330
C
100
AcDbXrecord
280
     1
300
ACD
300
2019
300
87084ACD_2019_0F
  0
DICTIONARY
  5
300
102
{ACAD_REACTORS
330
C
102
}
330
C
100
AcDbDictionary
281
     1
  0
DICTIONARY
  5
2FC
102
{ACAD_REACTORS
330
C
102
}
330
C
100
AcDbDictionary
281
     1
  3
Metric50
350
302
  0
DICTIONARY
  5
D
102
{ACAD_REACTORS
330
C
102
}
330
C
100
AcDbDictionary
281
     1
  3
NULOVY_BOD
350
34D
  0
DICTIONARY
  5
1A
102
{ACAD_REACTORS
330
C
102
}
330
C
100
AcDbDictionary
281
     1
  3
Layout1
350
1E
  3
Layout2
350
26
  3
Model
350
22
  0
DICTIONARY
  5
43
102
{ACAD_REACTORS
330
C
102
}
330
C
100
AcDbDictionary
281
     1
  3
ByBlock
350
45
  3
ByLayer
350
44
  3
Global
350
46
  0
DICTIONARY
  5
6B
102
{ACAD_REACTORS
330
C
102
}
330
C
100
AcDbDictionary
281
     1
  3
Standard
350
6C
  0
DICTIONARY
  5
17
102
{ACAD_REACTORS
330
C
102
}
330
C
100
AcDbDictionary
281
     1
  3
Standard
350
18
  0
DICTIONARY
  5
19
102
{ACAD_REACTORS
330
C
102
}
330
C
100
AcDbDictionary
281
     1
  0
ACDBDICTIONARYWDFLT
  5
E
102
{ACAD_REACTORS
330
C
102
}
330
C
100
AcDbDictionary
281
     1
  3
Normal
350
F
100
AcDbDictionaryWithDefault
340
F
  0
DICTIONARY
  5
47
102
{ACAD_REACTORS
330
C
102
}
330
C
100
AcDbDictionary
281
     1
  3
A0
350
48
  3
A1
350
49
  3
A2
350
4A
  3
A3
350
4B
  3
A4
350
4C
  3
A5
350
4D
  3
A6
350
4E
  3
A7
350
4F
  3
A8
350
50
  3
A9
350
51
  3
B0
350
52
  3
B1
350
53
  3
B2
350
54
  3
B3
350
55
  3
B4
350
56
  3
B5
350
57
  3
B6
350
58
  3
B7
350
59
  3
B8
350
5A
  3
B9
350
5B
  3
C0
350
5C
  3
C1
350
5D
  3
C2
350
5E
  3
C3
350
5F
  3
C4
350
60
  3
C5
350
61
  3
C6
350
62
  3
C7
350
63
  3
C8
350
64
  3
C9
350
65
  3
D0
350
66
  3
D1
350
67
  3
D2
350
68
  0
DICTIONARY
  5
2FD
102
{ACAD_REACTORS
330
C
102
}
330
C
100
AcDbDictionary
281
     1
  3
Metric50
350
301
  0
DICTIONARY
  5
69
102
{ACAD_REACTORS
330
C
102
}
330
C
100
AcDbDictionary
281
     1
  3
Standard
350
6A
  0
DICTIONARY
  5
2A
102
{ACAD_REACTORS
330
C
102
}
330
C
100
AcDbDictionary
281
     1
  3
2dWireframe
350
2F
  3
Basic
350
32
  3
Brighten
350
36
  3
ColorChange
350
3A
  3
Conceptual
350
34
  3
Dim
350
35
  3
EdgeColorOff
350
3D
  3
Facepattern
350
39
  3
Flat
350
2B
  3
FlatWithEdges
350
2C
  3
Gouraud
350
2D
  3
GouraudWithEdges
350
2E
  3
Hidden
350
31
  3
JitterOff
350
3B
  3
Linepattern
350
38
  3
OverhangOff
350
3C
  3
Realistic
350
33
  3
Shaded
350
42
  3
Shaded with edges
350
41
  3
Shades of Gray
350
3E
  3
Sketchy
350
3F
  3
Thicken
350
37
  3
Wireframe
350
30
  3
X-Ray
350
40
  0
XRECORD
  5
36B
102
{ACAD_REACTORS
330
C
102
}
330
C
100
AcDbXrecord
280
     1
 90
        1
330
6A
  0
DICTIONARY
  5
2B9
102
{ACAD_REACTORS
330
C
102
}
330
C
100
AcDbDictionary
281
     1
  3
CANNOSCALE
350
2BA
  3
CMLEADERSTYLE
350
2FB
  3
CTABLESTYLE
350
2FA
  3
CVIEWDETAILSTYLE
350
366
  3
CVIEWSECTIONSTYLE
350
367
  3
MSLTSCALE
350
2BB
  3
XCLIPFRAME
350
368
  0
XRECORD
  5
34F
102
{ACAD_REACTORS
330
34E
102
}
330
34E
100
AcDbXrecord
280
     1
290
     1
  0
XRECORD
  5
351
102
{ACAD_REACTORS
330
350
102
}
330
350
100
AcDbXrecord
280
     1
290
     1
  0
XRECORD
  5
353
102
{ACAD_REACTORS
330
352
102
}
330
352
100
AcDbXrecord
280
     1
290
     1
  0
XRECORD
  5
355
102
{ACAD_REACTORS
330
354
102
}
330
354
100
AcDbXrecord
280
     1
290
     1
  0
XRECORD
  5
357
102
{ACAD_REACTORS
330
356
102
}
330
356
100
AcDbXrecord
280
     1
290
     1
  0
XRECORD
  5
359
102
{ACAD_REACTORS
330
358
102
}
330
358
100
AcDbXrecord
280
     1
290
     1
  0
XRECORD
  5
35B
102
{ACAD_REACTORS
330
35A
102
}
330
35A
100
AcDbXrecord
280
     1
290
     1
  0
XRECORD
  5
35D
102
{ACAD_REACTORS
330
35C
102
}
330
35C
100
AcDbXrecord
280
     1
290
     1
  0
XRECORD
  5
35F
102
{ACAD_REACTORS
330
35E
102
}
330
35E
100
AcDbXrecord
280
     1
290
     1
  0
XRECORD
  5
361
102
{ACAD_REACTORS
330
360
102
}
330
360
100
AcDbXrecord
280
     1
290
     1
  0
XRECORD
  5
363
102
{ACAD_REACTORS
330
362
102
}
330
362
100
AcDbXrecord
280
     1
290
     1
  0
XRECORD
  5
365
102
{ACAD_REACTORS
330
364
102
}
330
364
100
AcDbXrecord
280
     1
290
     1
  0
SORTENTSTABLE
  5
307
102
{ACAD_REACTORS
330
306
102
}
330
306
100
AcDbSortentsTable
330
1F
331
308
  5
213
331
309
  5
22C
331
30A
  5
308
331
30B
  5
309
331
30C
  5
30A
331
30D
  5
31B
331
30E
  5
31C
331
30F
  5
31D
331
310
  5
31E
331
311
  5
31F
331
312
  5
320
331
313
  5
321
331
314
  5
322
331
315
  5
323
331
316
  5
324
331
317
  5
325
331
318
  5
326
331
319
  5
327
331
31A
  5
328
331
31B
  5
329
331
31C
  5
32A
331
31D
  5
32B
331
31E
  5
32C
331
31F
  5
32D
331
320
  5
32E
331
321
  5
32F
331
322
  5
330
331
323
  5
331
331
324
  5
332
331
325
  5
30D
331
326
  5
30E
331
327
  5
30F
331
328
  5
310
331
329
  5
311
331
32A
  5
312
331
32B
  5
313
331
32C
  5
314
331
32D
  5
315
331
32E
  5
316
331
32F
  5
317
331
330
  5
318
331
331
  5
319
331
332
  5
31A
331
335
  5
337
331
336
  5
339
331
337
  5
33A
331
339
  5
33D
331
33A
  5
33E
331
33B
  5
33F
331
33C
  5
335
331
33D
  5
336
331
33E
  5
33B
331
33F
  5
33C
  0
ACDBDETAILVIEWSTYLE
  5
302
102
{ACAD_XDICTIONARY
360
39F
102
}
102
{ACAD_REACTORS
330
2FC
102
}
330
2FC
100
AcDbModelDocViewStyle
 70
     0
  3
Metric50
290
     0
100
AcDbDetailViewStyle
 70
     0
 71
     0
 90
        3
 71
     1
340
11
 62
   256
 40
5.0
340
0
 62
   256
 40
5.0
300

 40
0.0
280
     1
 71
     2
340
16
 90
       25
 62
   256
 71
     3
340
11
 62
   256
 40
5.0
 90
        0
 40
15.0
 90
        1
300
%<\AcVar ViewDetailId>% (%<\AcVar ViewScale \f "%sn">%)
 71
     4
340
16
 90
       25
 62
   256
340
16
 90
       25
 62
   256
280
     0
  0
GROUP
  5
34D
102
{ACAD_REACTORS
330
D
102
}
330
D
100
AcDbGroup
300

 70
     0
 71
     1
340
73
  0
LAYOUT
  5
1E
102
{ACAD_REACTORS
330
1A
102
}
330
1A
100
AcDbPlotSettings
  1

  2
none_device
  4

  6

 40
0.0
 41
0.0
 42
0.0
 43
0.0
 44
0.0
 45
0.0
 46
0.0
 47
0.0
 48
0.0
 49
0.0
140
0.0
141
0.0
142
1.0
143
1.0
 70
   688
 72
     0
 73
     0
 74
     5
  7

 75
    16
147
1.0
 76
     0
 77
     2
 78
   300
148
0.0
149
0.0
100
AcDbLayout
  1
Layout1
 70
     1
 71
     1
 10
-0.5
 20
-0.5
 11
5.0
 21
5.0
 12
0.0
 22
0.0
 32
0.0
 14
-0.5
 24
-0.5
 34
-0.5
 15
5.0
 25
5.0
 35
5.0
146
0.0
 13
0.0
 23
0.0
 33
0.0
 16
1.0
 26
0.0
 36
0.0
 17
0.0
 27
1.0
 37
0.0
 76
     0
330
1B
  0
LAYOUT
  5
26
102
{ACAD_REACTORS
330
1A
102
}
330
1A
100
AcDbPlotSettings
  1

  2
none_device
  4

  6

 40
0.0
 41
0.0
 42
0.0
 43
0.0
 44
0.0
 45
0.0
 46
0.0
 47
0.0
 48
0.0
 49
0.0
140
0.0
141
0.0
142
1.0
143
1.0
 70
   688
 72
     0
 73
     0
 74
     5
  7

 75
    16
147
1.0
 76
     0
 77
     2
 78
   300
148
0.0
149
0.0
100
AcDbLayout
  1
Layout2
 70
     1
 71
     2
 10
0.0
 20
0.0
 11
0.0
 21
0.0
 12
0.0
 22
0.0
 32
0.0
 14
0.0
 24
0.0
 34
0.0
 15
0.0
 25
0.0
 35
0.0
146
0.0
 13
0.0
 23
0.0
 33
0.0
 16
1.0
 26
0.0
 36
0.0
 17
0.0
 27
1.0
 37
0.0
 76
     0
330
23
  0
LAYOUT
  5
22
102
{ACAD_REACTORS
330
1A
102
}
330
1A
100
AcDbPlotSettings
  1

  2
none_device
  4
Letter_(8.50_x_11.00_Inches)
  6

 40
6.349999999999999
 41
6.349999999999999
 42
6.350005
 43
6.350005
 44
215.9
 45
279.4
 46
0.0
 47
0.0
 48
0.0
 49
0.0
140
0.0
141
0.0
142
1.0
143
1.0
 70
  1712
 72
     0
 73
     0
 74
     0
  7

 75
     0
147
1.0
 76
     0
 77
     2
 78
   300
148
0.0
149
0.0
100
AcDbLayout
  1
Model
 70
     1
 71
     0
 10
-0.5
 20
-0.5
 11
5.0
 21
5.0
 12
0.0
 22
0.0
 32
0.0
 14
-0.5
 24
-0.5
 34
-0.5
 15
5.0
 25
5.0
 35
5.0
146
0.0
 13
0.0
 23
0.0
 33
0.0
 16
1.0
 26
0.0
 36
0.0
 17
0.0
 27
1.0
 37
0.0
 76
     0
330
1F
331
29
  0
MATERIAL
  5
45
102
{ACAD_XDICTIONARY
360
2EF
102
}
102
{ACAD_REACTORS
330
43
102
}
330
43
100
AcDbMaterial
  1
ByBlock
  0
MATERIAL
  5
44
102
{ACAD_XDICTIONARY
360
2ED
102
}
102
{ACAD_REACTORS
330
43
102
}
330
43
100
AcDbMaterial
  1
ByLayer
  0
MATERIAL
  5
46
102
{ACAD_XDICTIONARY
360
2F1
102
}
102
{ACAD_REACTORS
330
43
102
}
330
43
100
AcDbMaterial
  1
Global
  0
MLEADERSTYLE
  5
6C
102
{ACAD_REACTORS
330
6B
102
}
330
6B
100
AcDbMLeaderStyle
170
     2
171
     1
172
     0
 90
        2
 40
0.0
 41
0.0
173
     1
 91
-1056964608
340
14
 92
       -2
290
     1
 42
0.09
291
     1
 43
0.36
  3
Standard
 44
0.18
300

342
11
174
     1
178
     6
175
     1
176
     0
 93
-1056964608
 45
0.18
292
     0
297
     0
 46
0.18
 94
-1056964608
 47
1.0
 49
1.0
140
1.0
293
     1
141
0.0
294
     1
177
     0
142
1.0
295
     0
296
     0
143
0.125
1001
ACAD_MLEADERVER
1070
     2
  0
MLINESTYLE
  5
18
102
{ACAD_REACTORS
330
17
102
}
330
17
100
AcDbMlineStyle
  2
STANDARD
 70
     0
  3

 62
   256
 51
90.0
 52
90.0
 71
     2
 49
0.5
 62
   256
  6
BYLAYER
 49
-0.5
 62
   256
  6
BYLAYER
  0
ACDBPLACEHOLDER
  5
F
102
{ACAD_REACTORS
330
E
102
}
330
E
  0
SCALE
  5
48
102
{ACAD_REACTORS
330
47
102
}
330
47
100
AcDbScale
 70
     0
300
1:1
140
1.0
141
1.0
290
     1
  0
SCALE
  5
49
102
{ACAD_REACTORS
330
47
102
}
330
47
100
AcDbScale
 70
     0
300
1:2
140
1.0
141
2.0
290
     0
  0
SCALE
  5
4A
102
{ACAD_REACTORS
330
47
102
}
330
47
100
AcDbScale
 70
     0
300
1:4
140
1.0
141
4.0
290
     0
  0
SCALE
  5
4B
102
{ACAD_REACTORS
330
47
102
}
330
47
100
AcDbScale
 70
     0
300
1:5
140
1.0
141
5.0
290
     0
  0
SCALE
  5
4C
102
{ACAD_REACTORS
330
47
102
}
330
47
100
AcDbScale
 70
     0
300
1:8
140
1.0
141
8.0
290
     0
  0
SCALE
  5
4D
102
{ACAD_REACTORS
330
47
102
}
330
47
100
AcDbScale
 70
     0
300
1:10
140
1.0
141
10.0
290
     0
  0
SCALE
  5
4E
102
{ACAD_REACTORS
330
47
102
}
330
47
100
AcDbScale
 70
     0
300
1:16
140
1.0
141
16.0
290
     0
  0
SCALE
  5
4F
102
{ACAD_REACTORS
330
47
102
}
330
47
100
AcDbScale
 70
     0
300
1:20
140
1.0
141
20.0
290
     0
  0
SCALE
  5
50
102
{ACAD_REACTORS
330
47
102
}
330
47
100
AcDbScale
 70
     0
300
1:30
140
1.0
141
30.0
290
     0
  0
SCALE
  5
51
102
{ACAD_REACTORS
330
47
102
}
330
47
100
AcDbScale
 70
     0
300
1:40
140
1.0
141
40.0
290
     0
  0
SCALE
  5
52
102
{ACAD_REACTORS
330
47
102
}
330
47
100
AcDbScale
 70
     0
300
1:50
140
1.0
141
50.0
290
     0
  0
SCALE
  5
53
102
{ACAD_REACTORS
330
47
102
}
330
47
100
AcDbScale
 70
     0
300
1:100
140
1.0
141
100.0
290
     0
  0
SCALE
  5
54
102
{ACAD_REACTORS
330
47
102
}
330
47
100
AcDbScale
 70
     0
300
2:1
140
2.0
141
1.0
290
     0
  0
SCALE
  5
55
102
{ACAD_REACTORS
330
47
102
}
330
47
100
AcDbScale
 70
     0
300
4:1
140
4.0
141
1.0
290
     0
  0
SCALE
  5
56
102
{ACAD_REACTORS
330
47
102
}
330
47
100
AcDbScale
 70
     0
300
8:1
140
8.0
141
1.0
290
     0
  0
SCALE
  5
57
102
{ACAD_REACTORS
330
47
102
}
330
47
100
AcDbScale
 70
     0
300
10:1
140
10.0
141
1.0
290
     0
  0
SCALE
  5
58
102
{ACAD_REACTORS
330
47
102
}
330
47
100
AcDbScale
 70
     0
300
100:1
140
100.0
141
1.0
290
     0
  0
SCALE
  5
59
102
{ACAD_REACTORS
330
47
102
}
330
47
100
AcDbScale
 70
     0
300
1/128" = 1'-0"
140
0.007812
141
12.0
290
     0
  0
SCALE
  5
5A
102
{ACAD_REACTORS
330
47
102
}
330
47
100
AcDbScale
 70
     0
300
1/64" = 1'-0"
140
0.015625
141
12.0
290
     0
  0
SCALE
  5
5B
102
{ACAD_REACTORS
330
47
102
}
330
47
100
AcDbScale
 70
     0
300
1/32" = 1'-0"
140
0.03125
141
12.0
290
     0
  0
SCALE
  5
5C
102
{ACAD_REACTORS
330
47
102
}
330
47
100
AcDbScale
 70
     0
300
1/16" = 1'-0"
140
0.0625
141
12.0
290
     0
  0
SCALE
  5
5D
102
{ACAD_REACTORS
330
47
102
}
330
47
100
AcDbScale
 70
     0
300
3/32" = 1'-0"
140
0.09375
141
12.0
290
     0
  0
SCALE
  5
5E
102
{ACAD_REACTORS
330
47
102
}
330
47
100
AcDbScale
 70
     0
300
1/8" = 1'-0"
140
0.125
141
12.0
290
     0
  0
SCALE
  5
5F
102
{ACAD_REACTORS
330
47
102
}
330
47
100
AcDbScale
 70
     0
300
3/16" = 1'-0"
140
0.1875
141
12.0
290
     0
  0
SCALE
  5
60
102
{ACAD_REACTORS
330
47
102
}
330
47
100
AcDbScale
 70
     0
300
1/4" = 1'-0"
140
0.25
141
12.0
290
     0
  0
SCALE
  5
61
102
{ACAD_REACTORS
330
47
102
}
330
47
100
AcDbScale
 70
     0
300
3/8" = 1'-0"
140
0.375
141
12.0
290
     0
  0
SCALE
  5
62
102
{ACAD_REACTORS
330
47
102
}
330
47
100
AcDbScale
 70
     0
300
1/2" = 1'-0"
140
0.5
141
12.0
290
     0
  0
SCALE
  5
63
102
{ACAD_REACTORS
330
47
102
}
330
47
100
AcDbScale
 70
     0
300
3/4" = 1'-0"
140
0.75
141
12.0
290
     0
  0
SCALE
  5
64
102
{ACAD_REACTORS
330
47
102
}
330
47
100
AcDbScale
 70
     0
300
1" = 1'-0"
140
1.0
141
12.0
290
     0
  0
SCALE
  5
65
102
{ACAD_REACTORS
330
47
102
}
330
47
100
AcDbScale
 70
     0
300
1-1/2" = 1'-0"
140
1.5
141
12.0
290
     0
  0
SCALE
  5
66
102
{ACAD_REACTORS
330
47
102
}
330
47
100
AcDbScale
 70
     0
300
3" = 1'-0"
140
3.0
141
12.0
290
     0
  0
SCALE
  5
67
102
{ACAD_REACTORS
330
47
102
}
330
47
100
AcDbScale
 70
     0
300
6" = 1'-0"
140
6.0
141
12.0
290
     0
  0
SCALE
  5
68
102
{ACAD_REACTORS
330
47
102
}
330
47
100
AcDbScale
 70
     0
300
1'-0" = 1'-0"
140
12.0
141
12.0
290
     0
  0
ACDBSECTIONVIEWSTYLE
  5
301
102
{ACAD_XDICTIONARY
360
39D
102
}
102
{ACAD_REACTORS
330
2FD
102
}
330
2FD
100
AcDbModelDocViewStyle
 70
     0
  3
Metric50
290
     0
100
AcDbSectionViewStyle
 70
     0
 71
     0
 90
      102
 71
     1
340
11
 62
   256
 40
5.0
340
0
340
0
 62
   256
 40
5.0
300
I, O, Q, S, X, Z
 40
10.0
 90
        0
 40
2.5
 90
        0
 71
     2
340
16
 90
       25
 62
   256
340
16
 90
       50
 62
   256
 40
5.0
 40
2.5
 40
5.0
 71
     3
340
11
 62
   256
 40
5.0
 90
        0
 40
15.0
 90
        1
300
%<\AcVar ViewSectionStartId>%-%<\AcVar ViewSectionEndId>% (%<\AcVar ViewScale \f "%sn">%)
 71
     4
 62
   256
 62
   257
300
ANSI31
 40
1.0
 90
        0
290
     0
290
     0
 90
        6
 40
0.0
 40
1.570796326794896
 40
0.2617993877991494
 40
1.308996938995747
 40
-0.2617993877991494
 40
1.832595714594046
  0
TABLESTYLE
  5
6A
102
{ACAD_XDICTIONARY
360
2F3
102
}
102
{ACAD_REACTORS
330
69
102
}
330
69
100
AcDbTableStyle
  3
Standard
 70
     0
 71
     0
 40
0.06
 41
0.06
280
     0
281
     0
  7
Standard
140
0.18
170
     2
 62
     0
 63
     7
283
     0
274
    -2
284
     1
 64
     0
275
    -2
285
     1
 65
     0
276
    -2
286
     1
 66
     0
277
    -2
287
     1
 67
     0
278
    -2
288
     1
 68
     0
279
    -2
289
     1
 69
     0
  7
Standard
140
0.25
170
     5
 62
     0
 63
     7
283
     0
274
    -2
284
     1
 64
     0
275
    -2
285
     1
 65
     0
276
    -2
286
     1
 66
     0
277
    -2
287
     1
 67
     0
278
    -2
288
     1
 68
     0
279
    -2
289
     1
 69
     0
  7
Standard
140
0.18
170
     5
 62
     0
 63
     7
283
     0
274
    -2
284
     1
 64
     0
275
    -2
285
     1
 65
     0
276
    -2
286
     1
 66
     0
277
    -2
287
     1
 67
     0
278
    -2
288
     1
 68
     0
279
    -2
289
     1
 69
     0
  0
VISUALSTYLE
  5
2F
102
{ACAD_XDICTIONARY
360
374
102
}
102
{ACAD_REACTORS
330
2A
102
}
330
2A
100
AcDbVisualStyle
  2

 70
     4
 71
     0
 72
     2
 73
     0
 90
        0
 40
-0.6
 41
-30.0
 62
     5
 63
     7
421
 16777215
 74
     1
 91
        4
 64
     7
 65
   257
 75
     1
175
     1
 42
1.0
 92
        0
 66
   257
 43
1.0
 76
     1
 77
     6
 78
     2
 67
     7
 79
     5
170
     0
171
     0
290
     0
174
     0
 93
        1
 44
0.0
173
     0
291
     0
 45
0.0
1001
ACAD
1000
AcDbSavedByObjectVersion
1070
     0
  0
VISUALSTYLE
  5
32
102
{ACAD_XDICTIONARY
360
37A
102
}
102
{ACAD_REACTORS
330
2A
102
}
330
2A
100
AcDbVisualStyle
  2

 70
     7
 71
     1
 72
     0
 73
     1
 90
        0
 40
-0.6
 41
-30.0
 62
     5
 63
     7
421
 16777215
 74
     0
 91
        4
 64
     7
 65
   257
 75
     1
175
     1
 42
1.0
 92
        8
 66
     7
 43
1.0
 76
     1
 77
     6
 78
     2
 67
     7
 79
     5
170
     0
171
     0
290
     0
174
     0
 93
        1
 44
0.0
173
     0
291
     1
 45
0.0
1001
ACAD
1000
AcDbSavedByObjectVersion
1070
     0
  0
VISUALSTYLE
  5
36
102
{ACAD_XDICTIONARY
360
382
102
}
102
{ACAD_REACTORS
330
2A
102
}
330
2A
100
AcDbVisualStyle
  2

 70
    12
 71
     2
 72
     2
 73
     0
 90
        0
 40
-0.6
 41
-30.0
 62
     5
 63
     7
421
 16777215
 74
     1
 91
        4
 64
     7
 65
   257
 75
     1
175
     1
 42
1.0
 92
        8
 66
     7
 43
1.0
 76
     1
 77
     6
 78
     2
 67
     7
 79
     5
170
     0
171
     0
290
     0
174
     0
 93
        1
 44
50.0
173
     0
291
     1
 45
0.0
1001
ACAD
1000
AcDbSavedByObjectVersion
1070
     0
  0
VISUALSTYLE
  5
3A
102
{ACAD_XDICTIONARY
360
38A
102
}
102
{ACAD_REACTORS
330
2A
102
}
330
2A
100
AcDbVisualStyle
  2

 70
    16
 71
     2
 72
     2
 73
     3
 90
        0
 40
-0.6
 41
-30.0
 62
     5
 63
     8
421
  8421504
 74
     1
 91
        4
 64
     7
 65
   257
 75
     1
175
     1
 42
1.0
 92
        8
 66
     8
424
  8421504
 43
1.0
 76
     1
 77
     6
 78
     2
 67
     7
 79
     5
170
     0
171
     0
290
     0
174
     0
 93
        1
 44
0.0
173
     0
291
     1
 45
0.0
1001
ACAD
1000
AcDbSavedByObjectVersion
1070
     0
  0
VISUALSTYLE
  5
34
102
{ACAD_XDICTIONARY
360
37E
102
}
102
{ACAD_REACTORS
330
2A
102
}
330
2A
100
AcDbVisualStyle
  2

 70
     9
 71
     3
 72
     2
 73
     0
 90
        0
 40
-0.6
 41
-30.0
 62
     5
 63
     7
421
 16777215
 74
     2
 91
        2
 64
     7
 65
   257
 75
     1
175
     1
 42
179.0
 92
        8
 66
     7
 43
1.0
 76
     1
 77
     6
 78
     2
 67
     7
 79
     3
170
     0
171
     0
290
     0
174
     0
 93
        1
 44
0.0
173
     0
291
     0
 45
0.0
1001
ACAD
1000
AcDbSavedByObjectVersion
1070
     0
  0
VISUALSTYLE
  5
35
102
{ACAD_XDICTIONARY
360
380
102
}
102
{ACAD_REACTORS
330
2A
102
}
330
2A
100
AcDbVisualStyle
  2

 70
    11
 71
     2
 72
     2
 73
     0
 90
        0
 40
-0.6
 41
-30.0
 62
     5
 63
     7
421
 16777215
 74
     1
 91
        4
 64
     7
 65
   257
 75
     1
175
     1
 42
1.0
 92
        8
 66
     7
 43
1.0
 76
     1
 77
     6
 78
     2
 67
     7
 79
     5
170
     0
171
     0
290
     0
174
     0
 93
        1
 44
-50.0
173
     0
291
     1
 45
0.0
1001
ACAD
1000
AcDbSavedByObjectVersion
1070
     0
  0
VISUALSTYLE
  5
3D
102
{ACAD_XDICTIONARY
360
390
102
}
102
{ACAD_REACTORS
330
2A
102
}
330
2A
100
AcDbVisualStyle
  2

 70
    22
 71
     2
 72
     2
 73
     0
 90
        0
 40
-0.6
 41
-30.0
 62
     5
 63
     7
421
 16777215
 74
     1
 91
        4
 64
     7
 65
   257
 75
     1
175
     1
 42
1.0
 92
        8
 66
     7
 43
1.0
 76
     1
 77
     6
 78
     2
 67
     7
 79
     5
170
     0
171
     0
290
     0
174
     0
 93
        1
 44
0.0
173
     0
291
     1
 45
0.0
1001
ACAD
1000
AcDbSavedByObjectVersion
1070
     0
  0
VISUALSTYLE
  5
39
102
{ACAD_XDICTIONARY
360
388
102
}
102
{ACAD_REACTORS
330
2A
102
}
330
2A
100
AcDbVisualStyle
  2

 70
    15
 71
     2
 72
     2
 73
     0
 90
        0
 40
-0.6
 41
-30.0
 62
     5
 63
     7
421
 16777215
 74
     1
 91
        4
 64
     7
 65
   257
 75
     1
175
     1
 42
1.0
 92
        8
 66
     7
 43
1.0
 76
     1
 77
     6
 78
     2
 67
     7
 79
     5
170
     0
171
     0
290
     0
174
     0
 93
        1
 44
0.0
173
     0
291
     1
 45
0.0
1001
ACAD
1000
AcDbSavedByObjectVersion
1070
     0
  0
VISUALSTYLE
  5
2B
102
{ACAD_XDICTIONARY
360
36C
102
}
102
{ACAD_REACTORS
330
2A
102
}
330
2A
100
AcDbVisualStyle
  2

 70
     0
 71
     2
 72
     1
 73
     1
 90
        2
 40
-0.6
 41
30.0
 62
     5
 63
     7
421
 16777215
 74
     0
 91
        0
 64
     7
 65
   257
 75
     1
175
     1
 42
1.0
 92
        8
 66
     7
 43
1.0
 76
     1
 77
     6
 78
     2
 67
     7
 79
     5
170
     0
171
     0
290
     0
174
     0
 93
       13
 44
0.0
173
     0
291
     1
 45
0.0
1001
ACAD
1000
AcDbSavedByObjectVersion
1070
     0
  0
VISUALSTYLE
  5
2C
102
{ACAD_XDICTIONARY
360
36E
102
}
102
{ACAD_REACTORS
330
2A
102
}
330
2A
100
AcDbVisualStyle
  2

 70
     1
 71
     2
 72
     1
 73
     1
 90
        2
 40
-0.6
 41
30.0
 62
     5
 63
     7
421
 16777215
 74
     1
 91
        0
 64
     7
 65
   257
 75
     1
175
     1
 42
1.0
 92
        0
 66
   257
 43
1.0
 76
     1
 77
     6
 78
     2
 67
     7
 79
     5
170
     0
171
     0
290
     0
174
     0
 93
       13
 44
0.0
173
     0
291
     1
 45
0.0
1001
ACAD
1000
AcDbSavedByObjectVersion
1070
     0
  0
VISUALSTYLE
  5
2D
102
{ACAD_XDICTIONARY
360
370
102
}
102
{ACAD_REACTORS
330
2A
102
}
330
2A
100
AcDbVisualStyle
  2

 70
     2
 71
     2
 72
     2
 73
     1
 90
        2
 40
-0.6
 41
30.0
 62
     5
 63
     7
421
 16777215
 74
     0
 91
        0
 64
     7
 65
   257
 75
     1
175
     1
 42
1.0
 92
        0
 66
     7
 43
1.0
 76
     1
 77
     6
 78
     2
 67
     7
 79
     5
170
     0
171
     0
290
     0
174
     0
 93
       13
 44
0.0
173
     0
291
     1
 45
0.0
1001
ACAD
1000
AcDbSavedByObjectVersion
1070
     0
  0
VISUALSTYLE
  5
2E
102
{ACAD_XDICTIONARY
360
372
102
}
102
{ACAD_REACTORS
330
2A
102
}
330
2A
100
AcDbVisualStyle
  2

 70
     3
 71
     2
 72
     2
 73
     1
 90
        2
 40
-0.6
 41
30.0
 62
     5
 63
     7
421
 16777215
 74
     1
 91
        0
 64
     7
 65
   257
 75
     1
175
     1
 42
1.0
 92
        0
 66
   257
 43
1.0
 76
     1
 77
     6
 78
     2
 67
     7
 79
     5
170
     0
171
     0
290
     0
174
     0
 93
       13
 44
0.0
173
     0
291
     1
 45
0.0
1001
ACAD
1000
AcDbSavedByObjectVersion
1070
     0
  0
VISUALSTYLE
  5
31
102
{ACAD_XDICTIONARY
360
378
102
}
102
{ACAD_REACTORS
330
2A
102
}
330
2A
100
AcDbVisualStyle
  2

 70
     6
 71
     1
 72
     2
 73
     2
 90
        0
 40
-0.6
 41
-30.0
 62
     5
 63
     7
421
 16777215
 74
     2
 91
        2
 64
     7
 65
   257
 75
     2
175
     1
 42
40.0
 92
        0
 66
   257
 43
1.0
 76
     1
 77
     6
 78
     2
 67
     7
 79
     3
170
     0
171
     0
290
     0
174
     0
 93
        1
 44
0.0
173
     0
291
     0
 45
0.0
1001
ACAD
1000
AcDbSavedByObjectVersion
1070
     0
  0
VISUALSTYLE
  5
3B
102
{ACAD_XDICTIONARY
360
38C
102
}
102
{ACAD_REACTORS
330
2A
102
}
330
2A
100
AcDbVisualStyle
  2

 70
    20
 71
     2
 72
     2
 73
     0
 90
        0
 40
-0.6
 41
-30.0
 62
     5
 63
     7
421
 16777215
 74
     1
 91
        4
 64
     7
 65
   257
 75
     1
175
     1
 42
1.0
 92
       10
 66
     7
 43
1.0
 76
     1
 77
     6
 78
     2
 67
     7
 79
     5
170
     0
171
     0
290
     0
174
     0
 93
        1
 44
0.0
173
     0
291
     1
 45
0.0
1001
ACAD
1000
AcDbSavedByObjectVersion
1070
     0
  0
VISUALSTYLE
  5
38
102
{ACAD_XDICTIONARY
360
386
102
}
102
{ACAD_REACTORS
330
2A
102
}
330
2A
100
AcDbVisualStyle
  2

 70
    14
 71
     2
 72
     2
 73
     0
 90
        0
 40
-0.6
 41
-30.0
 62
     5
 63
     7
421
 16777215
 74
     1
 91
        4
 64
     7
 65
   257
 75
     7
175
     7
 42
1.0
 92
        8
 66
     7
 43
1.0
 76
     1
 77
     6
 78
     2
 67
     7
 79
     5
170
     0
171
     0
290
     0
174
     0
 93
        1
 44
0.0
173
     0
291
     1
 45
0.0
1001
ACAD
1000
AcDbSavedByObjectVersion
1070
     0
  0
VISUALSTYLE
  5
3C
102
{ACAD_XDICTIONARY
360
38E
102
}
102
{ACAD_REACTORS
330
2A
102
}
330
2A
100
AcDbVisualStyle
  2

 70
    21
 71
     2
 72
     2
 73
     0
 90
        0
 40
-0.6
 41
-30.0
 62
     5
 63
     7
421
 16777215
 74
     1
 91
        4
 64
     7
 65
   257
 75
     1
175
     1
 42
1.0
 92
        9
 66
     7
 43
1.0
 76
     1
 77
     6
 78
     2
 67
     7
 79
     5
170
     0
171
     0
290
     0
174
     0
 93
        1
 44
0.0
173
     0
291
     1
 45
0.0
1001
ACAD
1000
AcDbSavedByObjectVersion
1070
     0
  0
VISUALSTYLE
  5
33
102
{ACAD_XDICTIONARY
360
37C
102
}
102
{ACAD_REACTORS
330
2A
102
}
330
2A
100
AcDbVisualStyle
  2

 70
     8
 71
     2
 72
     3
 73
     0
 90
        2
 40
-0.6
 41
30.0
 62
     5
 63
     7
421
 16777215
 74
     0
 91
        0
 64
     7
 65
   257
 75
     1
175
     1
 42
1.0
 92
        8
 66
   257
 43
1.0
 76
     1
 77
     6
 78
     2
 67
     7
 79
     3
170
     0
171
     0
290
     0
174
     0
 93
       13
 44
0.0
173
     0
291
     0
 45
0.0
1001
ACAD
1000
AcDbSavedByObjectVersion
1070
     0
  0
VISUALSTYLE
  5
42
102
{ACAD_XDICTIONARY
360
39A
102
}
102
{ACAD_REACTORS
330
2A
102
}
330
2A
100
AcDbVisualStyle
  2

 70
    27
 71
     2
 72
     2
 73
     1
 90
        2
 40
-0.6
 41
30.0
 62
     5
 63
     7
421
 16777215
 74
     0
 91
        4
 64
     7
 65
   257
 75
     1
175
     1
 42
1.0
 92
        8
 66
   257
 43
1.0
 76
     1
 77
     6
 78
     2
 67
     8
425
  7895160
 79
     3
170
     0
171
     0
290
     0
174
     0
 93
        5
 44
0.0
173
     0
291
     0
 45
0.0
1001
ACAD
1000
AcDbSavedByObjectVersion
1070
     0
  0
VISUALSTYLE
  5
41
102
{ACAD_XDICTIONARY
360
398
102
}
102
{ACAD_REACTORS
330
2A
102
}
330
2A
100
AcDbVisualStyle
  2

 70
    26
 71
     2
 72
     2
 73
     1
 90
        2
 40
-0.6
 41
30.0
 62
     5
 63
     7
421
 16777215
 74
     1
 91
       10
 64
     7
 65
   257
 75
     2
175
     1
 42
1.0
 92
        8
 66
   257
 43
1.0
 76
     1
 77
     6
 78
     2
 67
     7
 79
     3
170
     0
171
     0
290
     0
174
     0
 93
        5
 44
0.0
173
     0
291
     0
 45
0.0
1001
ACAD
1000
AcDbSavedByObjectVersion
1070
     0
  0
VISUALSTYLE
  5
3E
102
{ACAD_XDICTIONARY
360
392
102
}
102
{ACAD_REACTORS
330
2A
102
}
330
2A
100
AcDbVisualStyle
  2

 70
    23
 71
     2
 72
     2
 73
     3
 90
        0
 40
-0.6
 41
-30.0
 62
     5
 63
     7
421
 16777215
 74
     2
 91
        2
 64
     7
 65
     7
 75
     1
175
     1
 42
40.0
 92
        8
 66
     7
 43
1.0
 76
     1
 77
     6
 78
     2
 67
     7
 79
     3
170
     0
171
     0
290
     0
174
     0
 93
        1
 44
0.0
173
     0
291
     0
 45
0.0
1001
ACAD
1000
AcDbSavedByObjectVersion
1070
     0
  0
VISUALSTYLE
  5
3F
102
{ACAD_XDICTIONARY
360
394
102
}
102
{ACAD_REACTORS
330
2A
102
}
330
2A
100
AcDbVisualStyle
  2

 70
    24
 71
     1
 72
     2
 73
     2
 90
        0
 40
-0.6
 41
-30.0
 62
     5
 63
     7
421
 16777215
 74
     2
 91
        2
 64
     7
 65
     7
 75
     1
175
     1
 42
40.0
 92
       11
 66
     7
 43
1.0
 76
     1
 77
     6
 78
     2
 67
     7
 79
     6
170
     0
171
     0
290
     0
174
     0
 93
        1
 44
0.0
173
     0
291
     0
 45
0.0
1001
ACAD
1000
AcDbSavedByObjectVersion
1070
     0
  0
VISUALSTYLE
  5
37
102
{ACAD_XDICTIONARY
360
384
102
}
102
{ACAD_REACTORS
330
2A
102
}
330
2A
100
AcDbVisualStyle
  2

 70
    13
 71
     2
 72
     2
 73
     0
 90
        0
 40
-0.6
 41
-30.0
 62
     5
 63
     7
421
 16777215
 74
     1
 91
        4
 64
     7
 65
   257
 75
     1
175
     1
 42
1.0
 92
       12
 66
     7
 43
1.0
 76
     1
 77
     6
 78
     2
 67
     7
 79
     5
170
     0
171
     0
290
     0
174
     0
 93
        1
 44
0.0
173
     0
291
     1
 45
0.0
1001
ACAD
1000
AcDbSavedByObjectVersion
1070
     0
  0
VISUALSTYLE
  5
30
102
{ACAD_XDICTIONARY
360
376
102
}
102
{ACAD_REACTORS
330
2A
102
}
330
2A
100
AcDbVisualStyle
  2

 70
     5
 71
     0
 72
     2
 73
     0
 90
        0
 40
-0.6
 41
-30.0
 62
     5
 63
     7
421
 16777215
 74
     1
 91
        4
 64
     7
 65
   257
 75
     1
175
     1
 42
1.0
 92
        0
 66
   257
 43
1.0
 76
     1
 77
     6
 78
     2
 67
     7
 79
     3
170
     0
171
     0
290
     0
174
     0
 93
        1
 44
0.0
173
     0
291
     0
 45
0.0
1001
ACAD
1000
AcDbSavedByObjectVersion
1070
     0
  0
VISUALSTYLE
  5
40
102
{ACAD_XDICTIONARY
360
396
102
}
102
{ACAD_REACTORS
330
2A
102
}
330
2A
100
AcDbVisualStyle
  2

 70
    25
 71
     2
 72
     2
 73
     1
 90
        1
 40
0.5
 41
-30.0
 62
     5
 63
     7
421
 16777215
 74
     1
 91
        0
 64
     7
 65
   257
 75
     1
175
     1
 42
1.0
 92
        8
 66
     7
 43
1.0
 76
     1
 77
     6
 78
     2
 67
     7
 79
     3
170
     0
171
     0
290
     0
174
     0
 93
       13
 44
0.0
173
     0
291
     0
 45
0.0
1001
ACAD
1000
AcDbSavedByObjectVersion
1070
     0
  0
DICTIONARYVAR
  5
2BA
102
{ACAD_REACTORS
330
2B9
102
}
330
2B9
100
DictionaryVariables
280
     0
  1
1:1
  0
DICTIONARYVAR
  5
2FB
102
{ACAD_REACTORS
330
2B9
102
}
330
2B9
100
DictionaryVariables
280
     0
  1
STANDARD
  0
DICTIONARYVAR
  5
2FA
102
{ACAD_REACTORS
330
2B9
102
}
330
2B9
100
DictionaryVariables
280
     0
  1
STANDARD
  0
DICTIONARYVAR
  5
366
102
{ACAD_REACTORS
330
2B9
102
}
330
2B9
100
DictionaryVariables
280
     0
  1
Metric50
  0
DICTIONARYVAR
  5
367
102
{ACAD_REACTORS
330
2B9
102
}
330
2B9
100
DictionaryVariables
280
     0
  1
Metric50
  0
DICTIONARYVAR
  5
2BB
102
{ACAD_REACTORS
330
2B9
102
}
330
2B9
100
DictionaryVariables
280
     0
  1
1
  0
DICTIONARYVAR
  5
368
102
{ACAD_REACTORS
330
2B9
102
}
330
2B9
100
DictionaryVariables
280
     0
  1
2
  0
DICTIONARY
  5
39F
330
302
100
AcDbDictionary
280
     1
281
     1
  3
ACAD_XREC_ROUNDTRIP
360
3A0
  0
DICTIONARY
  5
2EF
330
45
100
AcDbDictionary
280
     1
281
     1
  3
ACAD_XREC_ROUNDTRIP
360
2F0
  0
DICTIONARY
  5
2ED
330
44
100
AcDbDictionary
280
     1
281
     1
  3
ACAD_XREC_ROUNDTRIP
360
2EE
  0
DICTIONARY
  5
2F1
330
46
100
AcDbDictionary
280
     1
281
     1
  3
ACAD_XREC_ROUNDTRIP
360
2F2
  0
DICTIONARY
  5
39D
330
301
100
AcDbDictionary
280
     1
281
     1
  3
ACAD_XREC_ROUNDTRIP
360
39E
  0
DICTIONARY
  5
2F3
330
6A
100
AcDbDictionary
280
     1
281
     1
  3
ACAD_ROUNDTRIP_2008_TABLESTYLE_CELLSTYLEMAP
360
36A
  3
ACAD_XREC_ROUNDTRIP
360
39C
  0
DICTIONARY
  5
374
330
2F
100
AcDbDictionary
280
     1
281
     1
  3
ACAD_XREC_ROUNDTRIP
360
375
  0
DICTIONARY
  5
37A
330
32
100
AcDbDictionary
280
     1
281
     1
  3
ACAD_XREC_ROUNDTRIP
360
37B
  0
DICTIONARY
  5
382
330
36
100
AcDbDictionary
280
     1
281
     1
  3
ACAD_XREC_ROUNDTRIP
360
383
  0
DICTIONARY
  5
38A
330
3A
100
AcDbDictionary
280
     1
281
     1
  3
ACAD_XREC_ROUNDTRIP
360
38B
  0
DICTIONARY
  5
37E
330
34
100
AcDbDictionary
280
     1
281
     1
  3
ACAD_XREC_ROUNDTRIP
360
37F
  0
DICTIONARY
  5
380
330
35
100
AcDbDictionary
280
     1
281
     1
  3
ACAD_XREC_ROUNDTRIP
360
381
  0
DICTIONARY
  5
390
330
3D
100
AcDbDictionary
280
     1
281
     1
  3
ACAD_XREC_ROUNDTRIP
360
391
  0
DICTIONARY
  5
388
330
39
100
AcDbDictionary
280
     1
281
     1
  3
ACAD_XREC_ROUNDTRIP
360
389
  0
DICTIONARY
  5
36C
330
2B
100
AcDbDictionary
280
     1
281
     1
  3
ACAD_XREC_ROUNDTRIP
360
36D
  0
DICTIONARY
  5
36E
330
2C
100
AcDbDictionary
280
     1
281
     1
  3
ACAD_XREC_ROUNDTRIP
360
36F
  0
DICTIONARY
  5
370
330
2D
100
AcDbDictionary
280
     1
281
     1
  3
ACAD_XREC_ROUNDTRIP
360
371
  0
DICTIONARY
  5
372
330
2E
100
AcDbDictionary
280
     1
281
     1
  3
ACAD_XREC_ROUNDTRIP
360
373
  0
DICTIONARY
  5
378
330
31
100
AcDbDictionary
280
     1
281
     1
  3
ACAD_XREC_ROUNDTRIP
360
379
  0
DICTIONARY
  5
38C
330
3B
100
AcDbDictionary
280
     1
281
     1
  3
ACAD_XREC_ROUNDTRIP
360
38D
  0
DICTIONARY
  5
386
330
38
100
AcDbDictionary
280
     1
281
     1
  3
ACAD_XREC_ROUNDTRIP
360
387
  0
DICTIONARY
  5
38E
330
3C
100
AcDbDictionary
280
     1
281
     1
  3
ACAD_XREC_ROUNDTRIP
360
38F
  0
DICTIONARY
  5
37C
330
33
100
AcDbDictionary
280
     1
281
     1
  3
ACAD_XREC_ROUNDTRIP
360
37D
  0
DICTIONARY
  5
39A
330
42
100
AcDbDictionary
280
     1
281
     1
  3
ACAD_XREC_ROUNDTRIP
360
39B
  0
DICTIONARY
  5
398
330
41
100
AcDbDictionary
280
     1
281
     1
  3
ACAD_XREC_ROUNDTRIP
360
399
  0
DICTIONARY
  5
392
330
3E
100
AcDbDictionary
280
     1
281
     1
  3
ACAD_XREC_ROUNDTRIP
360
393
  0
DICTIONARY
  5
394
330
3F
100
AcDbDictionary
280
     1
281
     1
  3
ACAD_XREC_ROUNDTRIP
360
395
  0
DICTIONARY
  5
384
330
37
100
AcDbDictionary
280
     1
281
     1
  3
ACAD_XREC_ROUNDTRIP
360
385
  0
DICTIONARY
  5
376
330
30
100
AcDbDictionary
280
     1
281
     1
  3
ACAD_XREC_ROUNDTRIP
360
377
  0
DICTIONARY
  5
396
330
40
100
AcDbDictionary
280
     1
281
     1
  3
ACAD_XREC_ROUNDTRIP
360
397
  0
XRECORD
  5
3A0
102
{ACAD_REACTORS
330
39F
102
}
330
39F
100
AcDbXrecord
280
     1
102
DISPLAYNAME
  1
Metric50
102
FLAGS
 90
        0
  0
XRECORD
  5
2F0
102
{ACAD_REACTORS
330
2EF
102
}
330
2EF
100
AcDbXrecord
280
     1
102
MATERIAL
148
0.0
149
0.0
149
0.0
 93
        0
 94
      127
282
     0
 72
     1
 77
     1
171
     1
175
     1
179
     1
273
     0
  0
XRECORD
  5
2EE
102
{ACAD_REACTORS
330
2ED
102
}
330
2ED
100
AcDbXrecord
280
     1
102
MATERIAL
148
0.0
149
0.0
149
0.0
 93
        0
 94
      127
282
     0
 72
     1
 77
     1
171
     1
175
     1
179
     1
273
     0
  0
XRECORD
  5
2F2
102
{ACAD_REACTORS
330
2F1
102
}
330
2F1
100
AcDbXrecord
280
     1
102
MATERIAL
148
0.0
149
0.0
149
0.0
 93
        0
 94
      127
282
     0
 72
     1
 77
     1
171
     1
175
     1
179
     1
273
     0
  0
XRECORD
  5
39E
102
{ACAD_REACTORS
330
39D
102
}
330
39D
100
AcDbXrecord
280
     1
102
DISPLAYNAME
  1
Metric50
102
FLAGS
 90
        0
  0
CELLSTYLEMAP
  5
36A
102
{ACAD_REACTORS
330
2F3
102
}
330
2F3
100
AcDbCellStyleMap
 90
        3
300
CELLSTYLE
  1
TABLEFORMAT_BEGIN
 90
        5
170
     1
 91
        0
 92
    32768
 62
   257
 93
        1
300
CONTENTFORMAT
  1
CONTENTFORMAT_BEGIN
 90
        0
 91
        0
 92
        4
 93
        0
300

 40
0.0
140
1.0
 94
        5
 62
     0
340
11
144
0.25
309
CONTENTFORMAT_END
171
     1
301
MARGIN
  1
CELLMARGIN_BEGIN
 40
0.06
 40
0.06
 40
0.06
 40
0.06
 40
0.18
 40
0.18
309
CELLMARGIN_END
 94
        6
 95
        1
302
GRIDFORMAT
  1
GRIDFORMAT_BEGIN
 90
        0
 91
        1
 62
     0
 92
       -2
340
14
 93
        0
 40
0.045
309
GRIDFORMAT_END
 95
        2
302
GRIDFORMAT
  1
GRIDFORMAT_BEGIN
 90
        0
 91
        1
 62
     0
 92
       -2
340
14
 93
        0
 40
0.045
309
GRIDFORMAT_END
 95
        4
302
GRIDFORMAT
  1
GRIDFORMAT_BEGIN
 90
        0
 91
        1
 62
     0
 92
       -2
340
14
 93
        0
 40
0.045
309
GRIDFORMAT_END
 95
        8
302
GRIDFORMAT
  1
GRIDFORMAT_BEGIN
 90
        0
 91
        1
 62
     0
 92
       -2
340
14
 93
        0
 40
0.045
309
GRIDFORMAT_END
 95
       16
302
GRIDFORMAT
  1
GRIDFORMAT_BEGIN
 90
        0
 91
        1
 62
     0
 92
       -2
340
14
 93
        0
 40
0.045
309
GRIDFORMAT_END
 95
       32
302
GRIDFORMAT
  1
GRIDFORMAT_BEGIN
 90
        0
 91
        1
 62
     0
 92
       -2
340
14
 93
        0
 40
0.045
309
GRIDFORMAT_END
309
TABLEFORMAT_END
  1
CELLSTYLE_BEGIN
 90
        1
 91
        1
300
_TITLE
309
CELLSTYLE_END
300
CELLSTYLE
  1
TABLEFORMAT_BEGIN
 90
        5
170
     1
 91
        0
 92
        0
 62
   257
 93
        1
300
CONTENTFORMAT
  1
CONTENTFORMAT_BEGIN
 90
        0
 91
        0
 92
        4
 93
        0
300

 40
0.0
140
1.0
 94
        5
 62
     0
340
11
144
0.18
309
CONTENTFORMAT_END
171
     1
301
MARGIN
  1
CELLMARGIN_BEGIN
 40
0.06
 40
0.06
 40
0.06
 40
0.06
 40
0.18
 40
0.18
309
CELLMARGIN_END
 94
        6
 95
        1
302
GRIDFORMAT
  1
GRIDFORMAT_BEGIN
 90
        0
 91
        1
 62
     0
 92
       -2
340
14
 93
        0
 40
0.045
309
GRIDFORMAT_END
 95
        2
302
GRIDFORMAT
  1
GRIDFORMAT_BEGIN
 90
        0
 91
        1
 62
     0
 92
       -2
340
14
 93
        0
 40
0.045
309
GRIDFORMAT_END
 95
        4
302
GRIDFORMAT
  1
GRIDFORMAT_BEGIN
 90
        0
 91
        1
 62
     0
 92
       -2
340
14
 93
        0
 40
0.045
309
GRIDFORMAT_END
 95
        8
302
GRIDFORMAT
  1
GRIDFORMAT_BEGIN
 90
        0
 91
        1
 62
     0
 92
       -2
340
14
 93
        0
 40
0.045
309
GRIDFORMAT_END
 95
       16
302
GRIDFORMAT
  1
GRIDFORMAT_BEGIN
 90
        0
 91
        1
 62
     0
 92
       -2
340
14
 93
        0
 40
0.045
309
GRIDFORMAT_END
 95
       32
302
GRIDFORMAT
  1
GRIDFORMAT_BEGIN
 90
        0
 91
        1
 62
     0
 92
       -2
340
14
 93
        0
 40
0.045
309
GRIDFORMAT_END
309
TABLEFORMAT_END
  1
CELLSTYLE_BEGIN
 90
        2
 91
        1
300
_HEADER
309
CELLSTYLE_END
300
CELLSTYLE
  1
TABLEFORMAT_BEGIN
 90
        5
170
     1
 91
        0
 92
        0
 62
   257
 93
        1
300
CONTENTFORMAT
  1
CONTENTFORMAT_BEGIN
 90
        0
 91
        0
 92
        4
 93
        0
300

 40
0.0
140
1.0
 94
        2
 62
     0
340
11
144
0.18
309
CONTENTFORMAT_END
171
     1
301
MARGIN
  1
CELLMARGIN_BEGIN
 40
0.06
 40
0.06
 40
0.06
 40
0.06
 40
0.18
 40
0.18
309
CELLMARGIN_END
 94
        6
 95
        1
302
GRIDFORMAT
  1
GRIDFORMAT_BEGIN
 90
        0
 91
        1
 62
     0
 92
       -2
340
14
 93
        0
 40
0.045
309
GRIDFORMAT_END
 95
        2
302
GRIDFORMAT
  1
GRIDFORMAT_BEGIN
 90
        0
 91
        1
 62
     0
 92
       -2
340
14
 93
        0
 40
0.045
309
GRIDFORMAT_END
 95
        4
302
GRIDFORMAT
  1
GRIDFORMAT_BEGIN
 90
        0
 91
        1
 62
     0
 92
       -2
340
14
 93
        0
 40
0.045
309
GRIDFORMAT_END
 95
        8
302
GRIDFORMAT
  1
GRIDFORMAT_BEGIN
 90
        0
 91
        1
 62
     0
 92
       -2
340
14
 93
        0
 40
0.045
309
GRIDFORMAT_END
 95
       16
302
GRIDFORMAT
  1
GRIDFORMAT_BEGIN
 90
        0
 91
        1
 62
     0
 92
       -2
340
14
 93
        0
 40
0.045
309
GRIDFORMAT_END
 95
       32
302
GRIDFORMAT
  1
GRIDFORMAT_BEGIN
 90
        0
 91
        1
 62
     0
 92
       -2
340
14
 93
        0
 40
0.045
309
GRIDFORMAT_END
309
TABLEFORMAT_END
  1
CELLSTYLE_BEGIN
 90
        3
 91
        2
300
_DATA
309
CELLSTYLE_END
  0
XRECORD
  5
39C
102
{ACAD_REACTORS
330
2F3
102
}
330
2F3
100
AcDbXrecord
280
     1
102
ACAD_ROUNDTRIP_PRE2007_TABLESTYLE
 90
        4
 91
        0
  1

 92
        4
 93
        0
  2

 94
        4
 95
        0
  3

  0
XRECORD
  5
375
102
{ACAD_REACTORS
330
374
102
}
330
374
100
AcDbXrecord
280
     1
102
RTVSPost2010Prop28
280
     1
102
RTVSPost2010PropOp28
 70
     1
102
RTVSPost2010Prop29
280
     1
102
RTVSPost2010PropOp29
 70
     1
102
RTVSPost2010Prop30
280
     0
102
RTVSPost2010PropOp30
 70
     1
102
RTVSPost2010Prop31
280
     0
102
RTVSPost2010PropOp31
 70
     1
102
RTVSPost2010Prop32
280
     0
102
RTVSPost2010PropOp32
 70
     1
102
RTVSPost2010Prop33
280
     0
102
RTVSPost2010PropOp33
 70
     1
102
RTVSPost2010Prop34
280
     0
102
RTVSPost2010PropOp34
 70
     1
102
RTVSPost2010Prop35
280
     0
102
RTVSPost2010PropOp35
 70
     1
102
RTVSPost2010Prop36
280
     0
102
RTVSPost2010PropOp36
 70
     1
102
RTVSPost2010Prop37
 90
       50
102
RTVSPost2010PropOp37
 70
     1
102
RTVSPost2010Prop38
140
0.0
102
RTVSPost2010PropOp38
 70
     1
102
RTVSPost2010Prop39
140
1.0
102
RTVSPost2010PropOp39
 70
     1
102
RTVSPost2010Prop40
 90
        0
102
RTVSPost2010PropOp40
 70
     1
102
RTVSPost2010Prop41ColorIndex
 90
       18
102
RTVSPost2010Prop41ColorRGB
 90
        0
102
RTVSPost2010PropOp41
 70
     1
102
RTVSPost2010Prop42
 90
       50
102
RTVSPost2010PropOp42
 70
     1
102
RTVSPost2010Prop43
 90
        3
102
RTVSPost2010PropOp43
 70
     1
102
RTVSPost2010Prop44ColorIndex
 90
        5
102
RTVSPost2010Prop44ColorRGB
 90
      255
102
RTVSPost2010PropOp44
 70
     1
102
RTVSPost2010Prop45
280
     0
102
RTVSPost2010PropOp45
 70
     1
102
RTVSPost2010Prop46
 90
       50
102
RTVSPost2010PropOp46
 70
     1
102
RTVSPost2010Prop47
 90
       50
102
RTVSPost2010PropOp47
 70
     1
102
RTVSPost2010Prop48
 90
       50
102
RTVSPost2010PropOp48
 70
     1
102
RTVSPost2010Prop49
280
     0
102
RTVSPost2010PropOp49
 70
     1
102
RTVSPost2010Prop50
 90
       50
102
RTVSPost2010PropOp50
 70
     1
102
RTVSPost2010Prop51ColorIndex
 90
      256
102
RTVSPost2010Prop51ColorRGB
 90
-16777216
102
RTVSPost2010PropOp51
 70
     0
102
RTVSPost2010Prop52
140
1.0
102
RTVSPost2010PropOp52
 70
     0
102
RTVSPost2010Prop53
 90
        2
102
RTVSPost2010PropOp53
 70
     1
102
RTVSPost2010Prop54
  1
strokes_ogs.tif
102
RTVSPost2010PropOp54
 70
     1
102
RTVSPost2010Prop55
280
     0
102
RTVSPost2010PropOp55
 70
     1
102
RTVSPost2010Prop56
140
1.0
102
RTVSPost2010PropOp56
 70
     1
102
RTVSPost2010Prop57
140
1.0
102
RTVSPost2010PropOp57
 70
     1
102
RTVSPropertyOp0
 70
     1
102
RTVSPropertyOp1
 70
     1
102
RTVSPropertyOp2
 70
     1
102
RTVSPropertyOp3
 70
     1
102
RTVSPropertyOp4
 70
     1
102
RTVSPropertyOp5
 70
     1
102
RTVSPropertyOp6
 70
     1
102
RTVSPropertyOp7
 70
     1
102
RTVSPropertyOp8
 70
     1
102
RTVSPropertyOp9
 70
     1
102
RTVSPropertyOp10
 70
     1
102
RTVSPropertyOp11
 70
     1
102
RTVSPropertyOp12
 70
     1
102
RTVSPropertyOp13
 70
     1
102
RTVSPropertyOp14
 70
     1
102
RTVSPropertyOp15
 70
     1
102
RTVSPropertyOp16
 70
     1
102
RTVSPropertyOp17
 70
     1
102
RTVSPropertyOp18
 70
     1
102
RTVSPropertyOp19
 70
     1
102
RTVSPropertyOp20
 70
     1
102
RTVSPropertyOp21
 70
     1
102
RTVSPropertyOp22
 70
     1
102
RTVSPropertyOp23
 70
     1
102
RTVSPropertyOp24
 70
     1
102
RTVSPropertyOp25
 70
     1
102
RTVSPropertyOp26
 70
     1
102
RTVSPropertyOp27
 70
     1
102
RTVSPropertyOp28
 70
     1
102
RTVSPropertyOp29
 70
     1
102
RTVSPropertyOp30
 70
     1
102
RTVSPropertyOp31
 70
     1
102
RTVSPropertyOp32
 70
     1
102
RTVSPropertyOp33
 70
     1
102
RTVSPropertyOp34
 70
     1
102
RTVSPropertyOp35
 70
     1
102
RTVSPropertyOp36
 70
     1
102
RTVSPropertyOp37
 70
     1
102
RTVSPropertyOp38
 70
     1
102
RTVSPropertyOp39
 70
     1
102
RTVSPropertyOp40
 70
     1
102
RTVSPropertyOp41
 70
     1
102
RTVSPropertyOp42
 70
     1
102
RTVSPropertyOp43
 70
     1
102
RTVSPropertyOp44
 70
     1
102
RTVSPropertyOp45
 70
     1
102
RTVSPropertyOp46
 70
     1
102
RTVSPropertyOp47
 70
     1
102
RTVSPropertyOp48
 70
     1
102
RTVSPropertyOp49
 70
     1
102
RTVSPropertyOp50
 70
     1
102
RTVSPropertyOp51
 70
     0
102
RTVSPropertyOp52
 70
     0
102
RTVSPropertyOp53
 70
     1
102
RTVSPropertyOp54
 70
     1
102
RTVSPropertyOp55
 70
     1
102
RTVSPropertyOp56
 70
     1
102
RTVSPropertyOp57
 70
     1
102
RTVSPropertyOp58
 70
     1
102
RTVSPropertyOp59
 70
     1
102
RTVSPropertyOp60
 70
     1
102
RTVSPropertyOp61
 70
     1
102
RTVSPropertyOp62
 70
     1
  0
XRECORD
  5
37B
102
{ACAD_REACTORS
330
37A
102
}
330
37A
100
AcDbXrecord
280
     1
102
RTVSPost2010Prop28
280
     0
102
RTVSPost2010PropOp28
 70
     1
102
RTVSPost2010Prop29
280
     1
102
RTVSPost2010PropOp29
 70
     1
102
RTVSPost2010Prop30
280
     1
102
RTVSPost2010PropOp30
 70
     1
102
RTVSPost2010Prop31
280
     0
102
RTVSPost2010PropOp31
 70
     1
102
RTVSPost2010Prop32
280
     0
102
RTVSPost2010PropOp32
 70
     1
102
RTVSPost2010Prop33
280
     0
102
RTVSPost2010PropOp33
 70
     1
102
RTVSPost2010Prop34
280
     0
102
RTVSPost2010PropOp34
 70
     1
102
RTVSPost2010Prop35
280
     0
102
RTVSPost2010PropOp35
 70
     1
102
RTVSPost2010Prop36
280
     0
102
RTVSPost2010PropOp36
 70
     1
102
RTVSPost2010Prop37
 90
       50
102
RTVSPost2010PropOp37
 70
     1
102
RTVSPost2010Prop38
140
0.0
102
RTVSPost2010PropOp38
 70
     1
102
RTVSPost2010Prop39
140
1.0
102
RTVSPost2010PropOp39
 70
     1
102
RTVSPost2010Prop40
 90
        0
102
RTVSPost2010PropOp40
 70
     1
102
RTVSPost2010Prop41ColorIndex
 90
       18
102
RTVSPost2010Prop41ColorRGB
 90
        0
102
RTVSPost2010PropOp41
 70
     1
102
RTVSPost2010Prop42
 90
       50
102
RTVSPost2010PropOp42
 70
     1
102
RTVSPost2010Prop43
 90
        3
102
RTVSPost2010PropOp43
 70
     1
102
RTVSPost2010Prop44ColorIndex
 90
        5
102
RTVSPost2010Prop44ColorRGB
 90
      255
102
RTVSPost2010PropOp44
 70
     1
102
RTVSPost2010Prop45
280
     0
102
RTVSPost2010PropOp45
 70
     1
102
RTVSPost2010Prop46
 90
       50
102
RTVSPost2010PropOp46
 70
     1
102
RTVSPost2010Prop47
 90
       50
102
RTVSPost2010PropOp47
 70
     1
102
RTVSPost2010Prop48
 90
       50
102
RTVSPost2010PropOp48
 70
     1
102
RTVSPost2010Prop49
280
     0
102
RTVSPost2010PropOp49
 70
     1
102
RTVSPost2010Prop50
 90
       50
102
RTVSPost2010PropOp50
 70
     1
102
RTVSPost2010Prop51ColorIndex
 90
      256
102
RTVSPost2010Prop51ColorRGB
 90
-16777216
102
RTVSPost2010PropOp51
 70
     0
102
RTVSPost2010Prop52
140
1.0
102
RTVSPost2010PropOp52
 70
     0
102
RTVSPost2010Prop53
 90
        2
102
RTVSPost2010PropOp53
 70
     1
102
RTVSPost2010Prop54
  1
strokes_ogs.tif
102
RTVSPost2010PropOp54
 70
     1
102
RTVSPost2010Prop55
280
     0
102
RTVSPost2010PropOp55
 70
     1
102
RTVSPost2010Prop56
140
1.0
102
RTVSPost2010PropOp56
 70
     1
102
RTVSPost2010Prop57
140
1.0
102
RTVSPost2010PropOp57
 70
     1
102
RTVSPropertyOp0
 70
     1
102
RTVSPropertyOp1
 70
     1
102
RTVSPropertyOp2
 70
     1
102
RTVSPropertyOp3
 70
     1
102
RTVSPropertyOp4
 70
     1
102
RTVSPropertyOp5
 70
     1
102
RTVSPropertyOp6
 70
     1
102
RTVSPropertyOp7
 70
     1
102
RTVSPropertyOp8
 70
     1
102
RTVSPropertyOp9
 70
     1
102
RTVSPropertyOp10
 70
     1
102
RTVSPropertyOp11
 70
     1
102
RTVSPropertyOp12
 70
     1
102
RTVSPropertyOp13
 70
     1
102
RTVSPropertyOp14
 70
     1
102
RTVSPropertyOp15
 70
     1
102
RTVSPropertyOp16
 70
     1
102
RTVSPropertyOp17
 70
     1
102
RTVSPropertyOp18
 70
     1
102
RTVSPropertyOp19
 70
     1
102
RTVSPropertyOp20
 70
     1
102
RTVSPropertyOp21
 70
     1
102
RTVSPropertyOp22
 70
     1
102
RTVSPropertyOp23
 70
     1
102
RTVSPropertyOp24
 70
     1
102
RTVSPropertyOp25
 70
     1
102
RTVSPropertyOp26
 70
     1
102
RTVSPropertyOp27
 70
     1
102
RTVSPropertyOp28
 70
     1
102
RTVSPropertyOp29
 70
     1
102
RTVSPropertyOp30
 70
     1
102
RTVSPropertyOp31
 70
     1
102
RTVSPropertyOp32
 70
     1
102
RTVSPropertyOp33
 70
     1
102
RTVSPropertyOp34
 70
     1
102
RTVSPropertyOp35
 70
     1
102
RTVSPropertyOp36
 70
     1
102
RTVSPropertyOp37
 70
     1
102
RTVSPropertyOp38
 70
     1
102
RTVSPropertyOp39
 70
     1
102
RTVSPropertyOp40
 70
     1
102
RTVSPropertyOp41
 70
     1
102
RTVSPropertyOp42
 70
     1
102
RTVSPropertyOp43
 70
     1
102
RTVSPropertyOp44
 70
     1
102
RTVSPropertyOp45
 70
     1
102
RTVSPropertyOp46
 70
     1
102
RTVSPropertyOp47
 70
     1
102
RTVSPropertyOp48
 70
     1
102
RTVSPropertyOp49
 70
     1
102
RTVSPropertyOp50
 70
     1
102
RTVSPropertyOp51
 70
     0
102
RTVSPropertyOp52
 70
     0
102
RTVSPropertyOp53
 70
     1
102
RTVSPropertyOp54
 70
     1
102
RTVSPropertyOp55
 70
     1
102
RTVSPropertyOp56
 70
     1
102
RTVSPropertyOp57
 70
     1
102
RTVSPropertyOp58
 70
     1
102
RTVSPropertyOp59
 70
     1
102
RTVSPropertyOp60
 70
     1
102
RTVSPropertyOp61
 70
     1
102
RTVSPropertyOp62
 70
     1
  0
XRECORD
  5
383
102
{ACAD_REACTORS
330
382
102
}
330
382
100
AcDbXrecord
280
     1
102
RTVSPost2010Prop28
280
     0
102
RTVSPost2010PropOp28
 70
     1
102
RTVSPost2010Prop29
280
     1
102
RTVSPost2010PropOp29
 70
     1
102
RTVSPost2010Prop30
280
     1
102
RTVSPost2010PropOp30
 70
     1
102
RTVSPost2010Prop31
280
     0
102
RTVSPost2010PropOp31
 70
     1
102
RTVSPost2010Prop32
280
     0
102
RTVSPost2010PropOp32
 70
     1
102
RTVSPost2010Prop33
280
     0
102
RTVSPost2010PropOp33
 70
     1
102
RTVSPost2010Prop34
280
     0
102
RTVSPost2010PropOp34
 70
     1
102
RTVSPost2010Prop35
280
     0
102
RTVSPost2010PropOp35
 70
     1
102
RTVSPost2010Prop36
280
     0
102
RTVSPost2010PropOp36
 70
     1
102
RTVSPost2010Prop37
 90
       50
102
RTVSPost2010PropOp37
 70
     1
102
RTVSPost2010Prop38
140
0.0
102
RTVSPost2010PropOp38
 70
     1
102
RTVSPost2010Prop39
140
1.0
102
RTVSPost2010PropOp39
 70
     1
102
RTVSPost2010Prop40
 90
        0
102
RTVSPost2010PropOp40
 70
     1
102
RTVSPost2010Prop41ColorIndex
 90
       18
102
RTVSPost2010Prop41ColorRGB
 90
        0
102
RTVSPost2010PropOp41
 70
     1
102
RTVSPost2010Prop42
 90
       50
102
RTVSPost2010PropOp42
 70
     1
102
RTVSPost2010Prop43
 90
        3
102
RTVSPost2010PropOp43
 70
     1
102
RTVSPost2010Prop44ColorIndex
 90
        5
102
RTVSPost2010Prop44ColorRGB
 90
      255
102
RTVSPost2010PropOp44
 70
     1
102
RTVSPost2010Prop45
280
     0
102
RTVSPost2010PropOp45
 70
     1
102
RTVSPost2010Prop46
 90
       50
102
RTVSPost2010PropOp46
 70
     1
102
RTVSPost2010Prop47
 90
       50
102
RTVSPost2010PropOp47
 70
     1
102
RTVSPost2010Prop48
 90
       50
102
RTVSPost2010PropOp48
 70
     1
102
RTVSPost2010Prop49
280
     0
102
RTVSPost2010PropOp49
 70
     1
102
RTVSPost2010Prop50
 90
       50
102
RTVSPost2010PropOp50
 70
     1
102
RTVSPost2010Prop51ColorIndex
 90
      256
102
RTVSPost2010Prop51ColorRGB
 90
-16777216
102
RTVSPost2010PropOp51
 70
     0
102
RTVSPost2010Prop52
140
1.0
102
RTVSPost2010PropOp52
 70
     0
102
RTVSPost2010Prop53
 90
        2
102
RTVSPost2010PropOp53
 70
     1
102
RTVSPost2010Prop54
  1
strokes_ogs.tif
102
RTVSPost2010PropOp54
 70
     1
102
RTVSPost2010Prop55
280
     0
102
RTVSPost2010PropOp55
 70
     1
102
RTVSPost2010Prop56
140
1.0
102
RTVSPost2010PropOp56
 70
     1
102
RTVSPost2010Prop57
140
1.0
102
RTVSPost2010PropOp57
 70
     1
102
RTVSPropertyOp0
 70
     1
102
RTVSPropertyOp1
 70
     1
102
RTVSPropertyOp2
 70
     1
102
RTVSPropertyOp3
 70
     1
102
RTVSPropertyOp4
 70
     1
102
RTVSPropertyOp5
 70
     1
102
RTVSPropertyOp6
 70
     1
102
RTVSPropertyOp7
 70
     1
102
RTVSPropertyOp8
 70
     1
102
RTVSPropertyOp9
 70
     1
102
RTVSPropertyOp10
 70
     1
102
RTVSPropertyOp11
 70
     1
102
RTVSPropertyOp12
 70
     1
102
RTVSPropertyOp13
 70
     1
102
RTVSPropertyOp14
 70
     1
102
RTVSPropertyOp15
 70
     1
102
RTVSPropertyOp16
 70
     1
102
RTVSPropertyOp17
 70
     1
102
RTVSPropertyOp18
 70
     1
102
RTVSPropertyOp19
 70
     1
102
RTVSPropertyOp20
 70
     1
102
RTVSPropertyOp21
 70
     1
102
RTVSPropertyOp22
 70
     1
102
RTVSPropertyOp23
 70
     1
102
RTVSPropertyOp24
 70
     1
102
RTVSPropertyOp25
 70
     1
102
RTVSPropertyOp26
 70
     1
102
RTVSPropertyOp27
 70
     1
102
RTVSPropertyOp28
 70
     1
102
RTVSPropertyOp29
 70
     1
102
RTVSPropertyOp30
 70
     1
102
RTVSPropertyOp31
 70
     1
102
RTVSPropertyOp32
 70
     1
102
RTVSPropertyOp33
 70
     1
102
RTVSPropertyOp34
 70
     1
102
RTVSPropertyOp35
 70
     1
102
RTVSPropertyOp36
 70
     1
102
RTVSPropertyOp37
 70
     1
102
RTVSPropertyOp38
 70
     1
102
RTVSPropertyOp39
 70
     1
102
RTVSPropertyOp40
 70
     1
102
RTVSPropertyOp41
 70
     1
102
RTVSPropertyOp42
 70
     1
102
RTVSPropertyOp43
 70
     1
102
RTVSPropertyOp44
 70
     1
102
RTVSPropertyOp45
 70
     1
102
RTVSPropertyOp46
 70
     1
102
RTVSPropertyOp47
 70
     1
102
RTVSPropertyOp48
 70
     1
102
RTVSPropertyOp49
 70
     1
102
RTVSPropertyOp50
 70
     1
102
RTVSPropertyOp51
 70
     0
102
RTVSPropertyOp52
 70
     0
102
RTVSPropertyOp53
 70
     1
102
RTVSPropertyOp54
 70
     1
102
RTVSPropertyOp55
 70
     1
102
RTVSPropertyOp56
 70
     1
102
RTVSPropertyOp57
 70
     1
102
RTVSPropertyOp58
 70
     1
102
RTVSPropertyOp59
 70
     1
102
RTVSPropertyOp60
 70
     1
102
RTVSPropertyOp61
 70
     1
102
RTVSPropertyOp62
 70
     1
  0
XRECORD
  5
38B
102
{ACAD_REACTORS
330
38A
102
}
330
38A
100
AcDbXrecord
280
     1
102
RTVSPost2010Prop28
280
     0
102
RTVSPost2010PropOp28
 70
     1
102
RTVSPost2010Prop29
280
     1
102
RTVSPost2010PropOp29
 70
     1
102
RTVSPost2010Prop30
280
     1
102
RTVSPost2010PropOp30
 70
     1
102
RTVSPost2010Prop31
280
     0
102
RTVSPost2010PropOp31
 70
     1
102
RTVSPost2010Prop32
280
     0
102
RTVSPost2010PropOp32
 70
     1
102
RTVSPost2010Prop33
280
     0
102
RTVSPost2010PropOp33
 70
     1
102
RTVSPost2010Prop34
280
     0
102
RTVSPost2010PropOp34
 70
     1
102
RTVSPost2010Prop35
280
     0
102
RTVSPost2010PropOp35
 70
     1
102
RTVSPost2010Prop36
280
     0
102
RTVSPost2010PropOp36
 70
     1
102
RTVSPost2010Prop37
 90
       50
102
RTVSPost2010PropOp37
 70
     1
102
RTVSPost2010Prop38
140
0.0
102
RTVSPost2010PropOp38
 70
     1
102
RTVSPost2010Prop39
140
1.0
102
RTVSPost2010PropOp39
 70
     1
102
RTVSPost2010Prop40
 90
        0
102
RTVSPost2010PropOp40
 70
     1
102
RTVSPost2010Prop41ColorIndex
 90
       18
102
RTVSPost2010Prop41ColorRGB
 90
        0
102
RTVSPost2010PropOp41
 70
     1
102
RTVSPost2010Prop42
 90
       50
102
RTVSPost2010PropOp42
 70
     1
102
RTVSPost2010Prop43
 90
        3
102
RTVSPost2010PropOp43
 70
     1
102
RTVSPost2010Prop44ColorIndex
 90
        5
102
RTVSPost2010Prop44ColorRGB
 90
      255
102
RTVSPost2010PropOp44
 70
     1
102
RTVSPost2010Prop45
280
     0
102
RTVSPost2010PropOp45
 70
     1
102
RTVSPost2010Prop46
 90
       50
102
RTVSPost2010PropOp46
 70
     1
102
RTVSPost2010Prop47
 90
       50
102
RTVSPost2010PropOp47
 70
     1
102
RTVSPost2010Prop48
 90
       50
102
RTVSPost2010PropOp48
 70
     1
102
RTVSPost2010Prop49
280
     0
102
RTVSPost2010PropOp49
 70
     1
102
RTVSPost2010Prop50
 90
       50
102
RTVSPost2010PropOp50
 70
     1
102
RTVSPost2010Prop51ColorIndex
 90
      256
102
RTVSPost2010Prop51ColorRGB
 90
-16777216
102
RTVSPost2010PropOp51
 70
     0
102
RTVSPost2010Prop52
140
1.0
102
RTVSPost2010PropOp52
 70
     0
102
RTVSPost2010Prop53
 90
        2
102
RTVSPost2010PropOp53
 70
     1
102
RTVSPost2010Prop54
  1
strokes_ogs.tif
102
RTVSPost2010PropOp54
 70
     1
102
RTVSPost2010Prop55
280
     0
102
RTVSPost2010PropOp55
 70
     1
102
RTVSPost2010Prop56
140
1.0
102
RTVSPost2010PropOp56
 70
     1
102
RTVSPost2010Prop57
140
1.0
102
RTVSPost2010PropOp57
 70
     1
102
RTVSPropertyOp0
 70
     1
102
RTVSPropertyOp1
 70
     1
102
RTVSPropertyOp2
 70
     1
102
RTVSPropertyOp3
 70
     1
102
RTVSPropertyOp4
 70
     1
102
RTVSPropertyOp5
 70
     1
102
RTVSPropertyOp6
 70
     1
102
RTVSPropertyOp7
 70
     1
102
RTVSPropertyOp8
 70
     1
102
RTVSPropertyOp9
 70
     1
102
RTVSPropertyOp10
 70
     1
102
RTVSPropertyOp11
 70
     1
102
RTVSPropertyOp12
 70
     1
102
RTVSPropertyOp13
 70
     1
102
RTVSPropertyOp14
 70
     1
102
RTVSPropertyOp15
 70
     1
102
RTVSPropertyOp16
 70
     1
102
RTVSPropertyOp17
 70
     1
102
RTVSPropertyOp18
 70
     1
102
RTVSPropertyOp19
 70
     1
102
RTVSPropertyOp20
 70
     1
102
RTVSPropertyOp21
 70
     1
102
RTVSPropertyOp22
 70
     1
102
RTVSPropertyOp23
 70
     1
102
RTVSPropertyOp24
 70
     1
102
RTVSPropertyOp25
 70
     1
102
RTVSPropertyOp26
 70
     1
102
RTVSPropertyOp27
 70
     1
102
RTVSPropertyOp28
 70
     1
102
RTVSPropertyOp29
 70
     1
102
RTVSPropertyOp30
 70
     1
102
RTVSPropertyOp31
 70
     1
102
RTVSPropertyOp32
 70
     1
102
RTVSPropertyOp33
 70
     1
102
RTVSPropertyOp34
 70
     1
102
RTVSPropertyOp35
 70
     1
102
RTVSPropertyOp36
 70
     1
102
RTVSPropertyOp37
 70
     1
102
RTVSPropertyOp38
 70
     1
102
RTVSPropertyOp39
 70
     1
102
RTVSPropertyOp40
 70
     1
102
RTVSPropertyOp41
 70
     1
102
RTVSPropertyOp42
 70
     1
102
RTVSPropertyOp43
 70
     1
102
RTVSPropertyOp44
 70
     1
102
RTVSPropertyOp45
 70
     1
102
RTVSPropertyOp46
 70
     1
102
RTVSPropertyOp47
 70
     1
102
RTVSPropertyOp48
 70
     1
102
RTVSPropertyOp49
 70
     1
102
RTVSPropertyOp50
 70
     1
102
RTVSPropertyOp51
 70
     0
102
RTVSPropertyOp52
 70
     0
102
RTVSPropertyOp53
 70
     1
102
RTVSPropertyOp54
 70
     1
102
RTVSPropertyOp55
 70
     1
102
RTVSPropertyOp56
 70
     1
102
RTVSPropertyOp57
 70
     1
102
RTVSPropertyOp58
 70
     1
102
RTVSPropertyOp59
 70
     1
102
RTVSPropertyOp60
 70
     1
102
RTVSPropertyOp61
 70
     1
102
RTVSPropertyOp62
 70
     1
  0
XRECORD
  5
37F
102
{ACAD_REACTORS
330
37E
102
}
330
37E
100
AcDbXrecord
280
     1
102
RTVSPost2010Prop28
280
     0
102
RTVSPost2010PropOp28
 70
     1
102
RTVSPost2010Prop29
280
     1
102
RTVSPost2010PropOp29
 70
     1
102
RTVSPost2010Prop30
280
     1
102
RTVSPost2010PropOp30
 70
     1
102
RTVSPost2010Prop31
280
     0
102
RTVSPost2010PropOp31
 70
     1
102
RTVSPost2010Prop32
280
     0
102
RTVSPost2010PropOp32
 70
     1
102
RTVSPost2010Prop33
280
     0
102
RTVSPost2010PropOp33
 70
     1
102
RTVSPost2010Prop34
280
     0
102
RTVSPost2010PropOp34
 70
     1
102
RTVSPost2010Prop35
280
     0
102
RTVSPost2010PropOp35
 70
     1
102
RTVSPost2010Prop36
280
     0
102
RTVSPost2010PropOp36
 70
     1
102
RTVSPost2010Prop37
 90
       50
102
RTVSPost2010PropOp37
 70
     1
102
RTVSPost2010Prop38
140
0.0
102
RTVSPost2010PropOp38
 70
     1
102
RTVSPost2010Prop39
140
1.0
102
RTVSPost2010PropOp39
 70
     1
102
RTVSPost2010Prop40
 90
        0
102
RTVSPost2010PropOp40
 70
     1
102
RTVSPost2010Prop41ColorIndex
 90
       18
102
RTVSPost2010Prop41ColorRGB
 90
        0
102
RTVSPost2010PropOp41
 70
     1
102
RTVSPost2010Prop42
 90
       50
102
RTVSPost2010PropOp42
 70
     1
102
RTVSPost2010Prop43
 90
        3
102
RTVSPost2010PropOp43
 70
     1
102
RTVSPost2010Prop44ColorIndex
 90
        5
102
RTVSPost2010Prop44ColorRGB
 90
      255
102
RTVSPost2010PropOp44
 70
     1
102
RTVSPost2010Prop45
280
     0
102
RTVSPost2010PropOp45
 70
     1
102
RTVSPost2010Prop46
 90
       50
102
RTVSPost2010PropOp46
 70
     1
102
RTVSPost2010Prop47
 90
       50
102
RTVSPost2010PropOp47
 70
     1
102
RTVSPost2010Prop48
 90
       50
102
RTVSPost2010PropOp48
 70
     1
102
RTVSPost2010Prop49
280
     0
102
RTVSPost2010PropOp49
 70
     1
102
RTVSPost2010Prop50
 90
       50
102
RTVSPost2010PropOp50
 70
     1
102
RTVSPost2010Prop51ColorIndex
 90
      256
102
RTVSPost2010Prop51ColorRGB
 90
-16777216
102
RTVSPost2010PropOp51
 70
     0
102
RTVSPost2010Prop52
140
1.0
102
RTVSPost2010PropOp52
 70
     0
102
RTVSPost2010Prop53
 90
        2
102
RTVSPost2010PropOp53
 70
     1
102
RTVSPost2010Prop54
  1
strokes_ogs.tif
102
RTVSPost2010PropOp54
 70
     1
102
RTVSPost2010Prop55
280
     0
102
RTVSPost2010PropOp55
 70
     1
102
RTVSPost2010Prop56
140
1.0
102
RTVSPost2010PropOp56
 70
     1
102
RTVSPost2010Prop57
140
1.0
102
RTVSPost2010PropOp57
 70
     1
102
RTVSPropertyOp0
 70
     1
102
RTVSPropertyOp1
 70
     1
102
RTVSPropertyOp2
 70
     1
102
RTVSPropertyOp3
 70
     1
102
RTVSPropertyOp4
 70
     1
102
RTVSPropertyOp5
 70
     1
102
RTVSPropertyOp6
 70
     1
102
RTVSPropertyOp7
 70
     1
102
RTVSPropertyOp8
 70
     1
102
RTVSPropertyOp9
 70
     1
102
RTVSPropertyOp10
 70
     1
102
RTVSPropertyOp11
 70
     1
102
RTVSPropertyOp12
 70
     1
102
RTVSPropertyOp13
 70
     1
102
RTVSPropertyOp14
 70
     1
102
RTVSPropertyOp15
 70
     1
102
RTVSPropertyOp16
 70
     1
102
RTVSPropertyOp17
 70
     1
102
RTVSPropertyOp18
 70
     1
102
RTVSPropertyOp19
 70
     1
102
RTVSPropertyOp20
 70
     1
102
RTVSPropertyOp21
 70
     1
102
RTVSPropertyOp22
 70
     1
102
RTVSPropertyOp23
 70
     1
102
RTVSPropertyOp24
 70
     1
102
RTVSPropertyOp25
 70
     1
102
RTVSPropertyOp26
 70
     1
102
RTVSPropertyOp27
 70
     1
102
RTVSPropertyOp28
 70
     1
102
RTVSPropertyOp29
 70
     1
102
RTVSPropertyOp30
 70
     1
102
RTVSPropertyOp31
 70
     1
102
RTVSPropertyOp32
 70
     1
102
RTVSPropertyOp33
 70
     1
102
RTVSPropertyOp34
 70
     1
102
RTVSPropertyOp35
 70
     1
102
RTVSPropertyOp36
 70
     1
102
RTVSPropertyOp37
 70
     1
102
RTVSPropertyOp38
 70
     1
102
RTVSPropertyOp39
 70
     1
102
RTVSPropertyOp40
 70
     1
102
RTVSPropertyOp41
 70
     1
102
RTVSPropertyOp42
 70
     1
102
RTVSPropertyOp43
 70
     1
102
RTVSPropertyOp44
 70
     1
102
RTVSPropertyOp45
 70
     1
102
RTVSPropertyOp46
 70
     1
102
RTVSPropertyOp47
 70
     1
102
RTVSPropertyOp48
 70
     1
102
RTVSPropertyOp49
 70
     1
102
RTVSPropertyOp50
 70
     1
102
RTVSPropertyOp51
 70
     0
102
RTVSPropertyOp52
 70
     0
102
RTVSPropertyOp53
 70
     1
102
RTVSPropertyOp54
 70
     1
102
RTVSPropertyOp55
 70
     1
102
RTVSPropertyOp56
 70
     1
102
RTVSPropertyOp57
 70
     1
102
RTVSPropertyOp58
 70
     1
102
RTVSPropertyOp59
 70
     1
102
RTVSPropertyOp60
 70
     1
102
RTVSPropertyOp61
 70
     1
102
RTVSPropertyOp62
 70
     1
  0
XRECORD
  5
381
102
{ACAD_REACTORS
330
380
102
}
330
380
100
AcDbXrecord
280
     1
102
RTVSPost2010Prop28
280
     0
102
RTVSPost2010PropOp28
 70
     1
102
RTVSPost2010Prop29
280
     1
102
RTVSPost2010PropOp29
 70
     1
102
RTVSPost2010Prop30
280
     1
102
RTVSPost2010PropOp30
 70
     1
102
RTVSPost2010Prop31
280
     0
102
RTVSPost2010PropOp31
 70
     1
102
RTVSPost2010Prop32
280
     0
102
RTVSPost2010PropOp32
 70
     1
102
RTVSPost2010Prop33
280
     0
102
RTVSPost2010PropOp33
 70
     1
102
RTVSPost2010Prop34
280
     0
102
RTVSPost2010PropOp34
 70
     1
102
RTVSPost2010Prop35
280
     0
102
RTVSPost2010PropOp35
 70
     1
102
RTVSPost2010Prop36
280
     0
102
RTVSPost2010PropOp36
 70
     1
102
RTVSPost2010Prop37
 90
       50
102
RTVSPost2010PropOp37
 70
     1
102
RTVSPost2010Prop38
140
0.0
102
RTVSPost2010PropOp38
 70
     1
102
RTVSPost2010Prop39
140
1.0
102
RTVSPost2010PropOp39
 70
     1
102
RTVSPost2010Prop40
 90
        0
102
RTVSPost2010PropOp40
 70
     1
102
RTVSPost2010Prop41ColorIndex
 90
       18
102
RTVSPost2010Prop41ColorRGB
 90
        0
102
RTVSPost2010PropOp41
 70
     1
102
RTVSPost2010Prop42
 90
       50
102
RTVSPost2010PropOp42
 70
     1
102
RTVSPost2010Prop43
 90
        3
102
RTVSPost2010PropOp43
 70
     1
102
RTVSPost2010Prop44ColorIndex
 90
        5
102
RTVSPost2010Prop44ColorRGB
 90
      255
102
RTVSPost2010PropOp44
 70
     1
102
RTVSPost2010Prop45
280
     0
102
RTVSPost2010PropOp45
 70
     1
102
RTVSPost2010Prop46
 90
       50
102
RTVSPost2010PropOp46
 70
     1
102
RTVSPost2010Prop47
 90
       50
102
RTVSPost2010PropOp47
 70
     1
102
RTVSPost2010Prop48
 90
       50
102
RTVSPost2010PropOp48
 70
     1
102
RTVSPost2010Prop49
280
     0
102
RTVSPost2010PropOp49
 70
     1
102
RTVSPost2010Prop50
 90
       50
102
RTVSPost2010PropOp50
 70
     1
102
RTVSPost2010Prop51ColorIndex
 90
      256
102
RTVSPost2010Prop51ColorRGB
 90
-16777216
102
RTVSPost2010PropOp51
 70
     0
102
RTVSPost2010Prop52
140
1.0
102
RTVSPost2010PropOp52
 70
     0
102
RTVSPost2010Prop53
 90
        2
102
RTVSPost2010PropOp53
 70
     1
102
RTVSPost2010Prop54
  1
strokes_ogs.tif
102
RTVSPost2010PropOp54
 70
     1
102
RTVSPost2010Prop55
280
     0
102
RTVSPost2010PropOp55
 70
     1
102
RTVSPost2010Prop56
140
1.0
102
RTVSPost2010PropOp56
 70
     1
102
RTVSPost2010Prop57
140
1.0
102
RTVSPost2010PropOp57
 70
     1
102
RTVSPropertyOp0
 70
     1
102
RTVSPropertyOp1
 70
     1
102
RTVSPropertyOp2
 70
     1
102
RTVSPropertyOp3
 70
     1
102
RTVSPropertyOp4
 70
     1
102
RTVSPropertyOp5
 70
     1
102
RTVSPropertyOp6
 70
     1
102
RTVSPropertyOp7
 70
     1
102
RTVSPropertyOp8
 70
     1
102
RTVSPropertyOp9
 70
     1
102
RTVSPropertyOp10
 70
     1
102
RTVSPropertyOp11
 70
     1
102
RTVSPropertyOp12
 70
     1
102
RTVSPropertyOp13
 70
     1
102
RTVSPropertyOp14
 70
     1
102
RTVSPropertyOp15
 70
     1
102
RTVSPropertyOp16
 70
     1
102
RTVSPropertyOp17
 70
     1
102
RTVSPropertyOp18
 70
     1
102
RTVSPropertyOp19
 70
     1
102
RTVSPropertyOp20
 70
     1
102
RTVSPropertyOp21
 70
     1
102
RTVSPropertyOp22
 70
     1
102
RTVSPropertyOp23
 70
     1
102
RTVSPropertyOp24
 70
     1
102
RTVSPropertyOp25
 70
     1
102
RTVSPropertyOp26
 70
     1
102
RTVSPropertyOp27
 70
     1
102
RTVSPropertyOp28
 70
     1
102
RTVSPropertyOp29
 70
     1
102
RTVSPropertyOp30
 70
     1
102
RTVSPropertyOp31
 70
     1
102
RTVSPropertyOp32
 70
     1
102
RTVSPropertyOp33
 70
     1
102
RTVSPropertyOp34
 70
     1
102
RTVSPropertyOp35
 70
     1
102
RTVSPropertyOp36
 70
     1
102
RTVSPropertyOp37
 70
     1
102
RTVSPropertyOp38
 70
     1
102
RTVSPropertyOp39
 70
     1
102
RTVSPropertyOp40
 70
     1
102
RTVSPropertyOp41
 70
     1
102
RTVSPropertyOp42
 70
     1
102
RTVSPropertyOp43
 70
     1
102
RTVSPropertyOp44
 70
     1
102
RTVSPropertyOp45
 70
     1
102
RTVSPropertyOp46
 70
     1
102
RTVSPropertyOp47
 70
     1
102
RTVSPropertyOp48
 70
     1
102
RTVSPropertyOp49
 70
     1
102
RTVSPropertyOp50
 70
     1
102
RTVSPropertyOp51
 70
     0
102
RTVSPropertyOp52
 70
     0
102
RTVSPropertyOp53
 70
     1
102
RTVSPropertyOp54
 70
     1
102
RTVSPropertyOp55
 70
     1
102
RTVSPropertyOp56
 70
     1
102
RTVSPropertyOp57
 70
     1
102
RTVSPropertyOp58
 70
     1
102
RTVSPropertyOp59
 70
     1
102
RTVSPropertyOp60
 70
     1
102
RTVSPropertyOp61
 70
     1
102
RTVSPropertyOp62
 70
     1
  0
XRECORD
  5
391
102
{ACAD_REACTORS
330
390
102
}
330
390
100
AcDbXrecord
280
     1
102
RTVSPost2010Prop28
280
     0
102
RTVSPost2010PropOp28
 70
     0
102
RTVSPost2010Prop29
280
     1
102
RTVSPost2010PropOp29
 70
     0
102
RTVSPost2010Prop30
280
     1
102
RTVSPost2010PropOp30
 70
     0
102
RTVSPost2010Prop31
280
     0
102
RTVSPost2010PropOp31
 70
     0
102
RTVSPost2010Prop32
280
     0
102
RTVSPost2010PropOp32
 70
     0
102
RTVSPost2010Prop33
280
     0
102
RTVSPost2010PropOp33
 70
     0
102
RTVSPost2010Prop34
280
     0
102
RTVSPost2010PropOp34
 70
     0
102
RTVSPost2010Prop35
280
     0
102
RTVSPost2010PropOp35
 70
     0
102
RTVSPost2010Prop36
280
     0
102
RTVSPost2010PropOp36
 70
     0
102
RTVSPost2010Prop37
 90
       50
102
RTVSPost2010PropOp37
 70
     0
102
RTVSPost2010Prop38
140
0.0
102
RTVSPost2010PropOp38
 70
     0
102
RTVSPost2010Prop39
140
1.0
102
RTVSPost2010PropOp39
 70
     0
102
RTVSPost2010Prop40
 90
        0
102
RTVSPost2010PropOp40
 70
     0
102
RTVSPost2010Prop41ColorIndex
 90
       18
102
RTVSPost2010Prop41ColorRGB
 90
        0
102
RTVSPost2010PropOp41
 70
     0
102
RTVSPost2010Prop42
 90
       50
102
RTVSPost2010PropOp42
 70
     0
102
RTVSPost2010Prop43
 90
        3
102
RTVSPost2010PropOp43
 70
     0
102
RTVSPost2010Prop44ColorIndex
 90
        5
102
RTVSPost2010Prop44ColorRGB
 90
      255
102
RTVSPost2010PropOp44
 70
     0
102
RTVSPost2010Prop45
280
     0
102
RTVSPost2010PropOp45
 70
     0
102
RTVSPost2010Prop46
 90
       50
102
RTVSPost2010PropOp46
 70
     0
102
RTVSPost2010Prop47
 90
       50
102
RTVSPost2010PropOp47
 70
     0
102
RTVSPost2010Prop48
 90
       50
102
RTVSPost2010PropOp48
 70
     0
102
RTVSPost2010Prop49
280
     0
102
RTVSPost2010PropOp49
 70
     0
102
RTVSPost2010Prop50
 90
       50
102
RTVSPost2010PropOp50
 70
     0
102
RTVSPost2010Prop51ColorIndex
 90
      256
102
RTVSPost2010Prop51ColorRGB
 90
-16777216
102
RTVSPost2010PropOp51
 70
     0
102
RTVSPost2010Prop52
140
1.0
102
RTVSPost2010PropOp52
 70
     0
102
RTVSPost2010Prop53
 90
        2
102
RTVSPost2010PropOp53
 70
     0
102
RTVSPost2010Prop54
  1
strokes_ogs.tif
102
RTVSPost2010PropOp54
 70
     0
102
RTVSPost2010Prop55
280
     0
102
RTVSPost2010PropOp55
 70
     0
102
RTVSPost2010Prop56
140
1.0
102
RTVSPost2010PropOp56
 70
     0
102
RTVSPost2010Prop57
140
1.0
102
RTVSPost2010PropOp57
 70
     0
102
RTVSPropertyOp0
 70
     0
102
RTVSPropertyOp1
 70
     0
102
RTVSPropertyOp2
 70
     0
102
RTVSPropertyOp3
 70
     0
102
RTVSPropertyOp4
 70
     0
102
RTVSPropertyOp5
 70
     0
102
RTVSPropertyOp6
 70
     0
102
RTVSPropertyOp7
 70
     0
102
RTVSPropertyOp8
 70
     0
102
RTVSPropertyOp9
 70
     0
102
RTVSPropertyOp10
 70
     0
102
RTVSPropertyOp11
 70
     0
102
RTVSPropertyOp12
 70
     0
102
RTVSPropertyOp13
 70
     0
102
RTVSPropertyOp14
 70
     2
102
RTVSPropertyOp15
 70
     0
102
RTVSPropertyOp16
 70
     0
102
RTVSPropertyOp17
 70
     0
102
RTVSPropertyOp18
 70
     0
102
RTVSPropertyOp19
 70
     0
102
RTVSPropertyOp20
 70
     0
102
RTVSPropertyOp21
 70
     0
102
RTVSPropertyOp22
 70
     0
102
RTVSPropertyOp23
 70
     0
102
RTVSPropertyOp24
 70
     0
102
RTVSPropertyOp25
 70
     0
102
RTVSPropertyOp26
 70
     0
102
RTVSPropertyOp27
 70
     0
102
RTVSPropertyOp28
 70
     0
102
RTVSPropertyOp29
 70
     0
102
RTVSPropertyOp30
 70
     0
102
RTVSPropertyOp31
 70
     0
102
RTVSPropertyOp32
 70
     0
102
RTVSPropertyOp33
 70
     0
102
RTVSPropertyOp34
 70
     0
102
RTVSPropertyOp35
 70
     0
102
RTVSPropertyOp36
 70
     0
102
RTVSPropertyOp37
 70
     0
102
RTVSPropertyOp38
 70
     0
102
RTVSPropertyOp39
 70
     0
102
RTVSPropertyOp40
 70
     0
102
RTVSPropertyOp41
 70
     0
102
RTVSPropertyOp42
 70
     0
102
RTVSPropertyOp43
 70
     0
102
RTVSPropertyOp44
 70
     0
102
RTVSPropertyOp45
 70
     0
102
RTVSPropertyOp46
 70
     0
102
RTVSPropertyOp47
 70
     0
102
RTVSPropertyOp48
 70
     0
102
RTVSPropertyOp49
 70
     0
102
RTVSPropertyOp50
 70
     0
102
RTVSPropertyOp51
 70
     0
102
RTVSPropertyOp52
 70
     0
102
RTVSPropertyOp53
 70
     0
102
RTVSPropertyOp54
 70
     0
102
RTVSPropertyOp55
 70
     0
102
RTVSPropertyOp56
 70
     0
102
RTVSPropertyOp57
 70
     0
102
RTVSPropertyOp58
 70
     1
102
RTVSPropertyOp59
 70
     1
102
RTVSPropertyOp60
 70
     1
102
RTVSPropertyOp61
 70
     1
102
RTVSPropertyOp62
 70
     1
  0
XRECORD
  5
389
102
{ACAD_REACTORS
330
388
102
}
330
388
100
AcDbXrecord
280
     1
102
RTVSPost2010Prop28
280
     0
102
RTVSPost2010PropOp28
 70
     1
102
RTVSPost2010Prop29
280
     1
102
RTVSPost2010PropOp29
 70
     1
102
RTVSPost2010Prop30
280
     1
102
RTVSPost2010PropOp30
 70
     1
102
RTVSPost2010Prop31
280
     0
102
RTVSPost2010PropOp31
 70
     1
102
RTVSPost2010Prop32
280
     0
102
RTVSPost2010PropOp32
 70
     1
102
RTVSPost2010Prop33
280
     0
102
RTVSPost2010PropOp33
 70
     1
102
RTVSPost2010Prop34
280
     0
102
RTVSPost2010PropOp34
 70
     1
102
RTVSPost2010Prop35
280
     0
102
RTVSPost2010PropOp35
 70
     1
102
RTVSPost2010Prop36
280
     0
102
RTVSPost2010PropOp36
 70
     1
102
RTVSPost2010Prop37
 90
       50
102
RTVSPost2010PropOp37
 70
     1
102
RTVSPost2010Prop38
140
0.0
102
RTVSPost2010PropOp38
 70
     1
102
RTVSPost2010Prop39
140
1.0
102
RTVSPost2010PropOp39
 70
     1
102
RTVSPost2010Prop40
 90
        0
102
RTVSPost2010PropOp40
 70
     1
102
RTVSPost2010Prop41ColorIndex
 90
       18
102
RTVSPost2010Prop41ColorRGB
 90
        0
102
RTVSPost2010PropOp41
 70
     1
102
RTVSPost2010Prop42
 90
       50
102
RTVSPost2010PropOp42
 70
     1
102
RTVSPost2010Prop43
 90
        3
102
RTVSPost2010PropOp43
 70
     1
102
RTVSPost2010Prop44ColorIndex
 90
        5
102
RTVSPost2010Prop44ColorRGB
 90
      255
102
RTVSPost2010PropOp44
 70
     1
102
RTVSPost2010Prop45
280
     0
102
RTVSPost2010PropOp45
 70
     1
102
RTVSPost2010Prop46
 90
       50
102
RTVSPost2010PropOp46
 70
     1
102
RTVSPost2010Prop47
 90
       50
102
RTVSPost2010PropOp47
 70
     1
102
RTVSPost2010Prop48
 90
       50
102
RTVSPost2010PropOp48
 70
     1
102
RTVSPost2010Prop49
280
     0
102
RTVSPost2010PropOp49
 70
     1
102
RTVSPost2010Prop50
 90
       50
102
RTVSPost2010PropOp50
 70
     1
102
RTVSPost2010Prop51ColorIndex
 90
      256
102
RTVSPost2010Prop51ColorRGB
 90
-16777216
102
RTVSPost2010PropOp51
 70
     0
102
RTVSPost2010Prop52
140
1.0
102
RTVSPost2010PropOp52
 70
     0
102
RTVSPost2010Prop53
 90
        2
102
RTVSPost2010PropOp53
 70
     1
102
RTVSPost2010Prop54
  1
strokes_ogs.tif
102
RTVSPost2010PropOp54
 70
     1
102
RTVSPost2010Prop55
280
     0
102
RTVSPost2010PropOp55
 70
     1
102
RTVSPost2010Prop56
140
1.0
102
RTVSPost2010PropOp56
 70
     1
102
RTVSPost2010Prop57
140
1.0
102
RTVSPost2010PropOp57
 70
     1
102
RTVSPropertyOp0
 70
     1
102
RTVSPropertyOp1
 70
     1
102
RTVSPropertyOp2
 70
     1
102
RTVSPropertyOp3
 70
     1
102
RTVSPropertyOp4
 70
     1
102
RTVSPropertyOp5
 70
     1
102
RTVSPropertyOp6
 70
     1
102
RTVSPropertyOp7
 70
     1
102
RTVSPropertyOp8
 70
     1
102
RTVSPropertyOp9
 70
     1
102
RTVSPropertyOp10
 70
     1
102
RTVSPropertyOp11
 70
     1
102
RTVSPropertyOp12
 70
     1
102
RTVSPropertyOp13
 70
     1
102
RTVSPropertyOp14
 70
     1
102
RTVSPropertyOp15
 70
     1
102
RTVSPropertyOp16
 70
     1
102
RTVSPropertyOp17
 70
     1
102
RTVSPropertyOp18
 70
     1
102
RTVSPropertyOp19
 70
     1
102
RTVSPropertyOp20
 70
     1
102
RTVSPropertyOp21
 70
     1
102
RTVSPropertyOp22
 70
     1
102
RTVSPropertyOp23
 70
     1
102
RTVSPropertyOp24
 70
     1
102
RTVSPropertyOp25
 70
     1
102
RTVSPropertyOp26
 70
     1
102
RTVSPropertyOp27
 70
     1
102
RTVSPropertyOp28
 70
     1
102
RTVSPropertyOp29
 70
     1
102
RTVSPropertyOp30
 70
     1
102
RTVSPropertyOp31
 70
     1
102
RTVSPropertyOp32
 70
     1
102
RTVSPropertyOp33
 70
     1
102
RTVSPropertyOp34
 70
     1
102
RTVSPropertyOp35
 70
     1
102
RTVSPropertyOp36
 70
     1
102
RTVSPropertyOp37
 70
     1
102
RTVSPropertyOp38
 70
     1
102
RTVSPropertyOp39
 70
     1
102
RTVSPropertyOp40
 70
     1
102
RTVSPropertyOp41
 70
     1
102
RTVSPropertyOp42
 70
     1
102
RTVSPropertyOp43
 70
     1
102
RTVSPropertyOp44
 70
     1
102
RTVSPropertyOp45
 70
     1
102
RTVSPropertyOp46
 70
     1
102
RTVSPropertyOp47
 70
     1
102
RTVSPropertyOp48
 70
     1
102
RTVSPropertyOp49
 70
     1
102
RTVSPropertyOp50
 70
     1
102
RTVSPropertyOp51
 70
     0
102
RTVSPropertyOp52
 70
     0
102
RTVSPropertyOp53
 70
     1
102
RTVSPropertyOp54
 70
     1
102
RTVSPropertyOp55
 70
     1
102
RTVSPropertyOp56
 70
     1
102
RTVSPropertyOp57
 70
     1
102
RTVSPropertyOp58
 70
     1
102
RTVSPropertyOp59
 70
     1
102
RTVSPropertyOp60
 70
     1
102
RTVSPropertyOp61
 70
     1
102
RTVSPropertyOp62
 70
     1
  0
XRECORD
  5
36D
102
{ACAD_REACTORS
330
36C
102
}
330
36C
100
AcDbXrecord
280
     1
102
RTVSPost2010Prop28
280
     0
102
RTVSPost2010PropOp28
 70
     1
102
RTVSPost2010Prop29
280
     1
102
RTVSPost2010PropOp29
 70
     1
102
RTVSPost2010Prop30
280
     1
102
RTVSPost2010PropOp30
 70
     1
102
RTVSPost2010Prop31
280
     0
102
RTVSPost2010PropOp31
 70
     1
102
RTVSPost2010Prop32
280
     0
102
RTVSPost2010PropOp32
 70
     1
102
RTVSPost2010Prop33
280
     0
102
RTVSPost2010PropOp33
 70
     1
102
RTVSPost2010Prop34
280
     0
102
RTVSPost2010PropOp34
 70
     1
102
RTVSPost2010Prop35
280
     0
102
RTVSPost2010PropOp35
 70
     1
102
RTVSPost2010Prop36
280
     0
102
RTVSPost2010PropOp36
 70
     1
102
RTVSPost2010Prop37
 90
       50
102
RTVSPost2010PropOp37
 70
     1
102
RTVSPost2010Prop38
140
0.0
102
RTVSPost2010PropOp38
 70
     1
102
RTVSPost2010Prop39
140
1.0
102
RTVSPost2010PropOp39
 70
     1
102
RTVSPost2010Prop40
 90
        0
102
RTVSPost2010PropOp40
 70
     1
102
RTVSPost2010Prop41ColorIndex
 90
       18
102
RTVSPost2010Prop41ColorRGB
 90
        0
102
RTVSPost2010PropOp41
 70
     1
102
RTVSPost2010Prop42
 90
       50
102
RTVSPost2010PropOp42
 70
     1
102
RTVSPost2010Prop43
 90
        3
102
RTVSPost2010PropOp43
 70
     1
102
RTVSPost2010Prop44ColorIndex
 90
        5
102
RTVSPost2010Prop44ColorRGB
 90
      255
102
RTVSPost2010PropOp44
 70
     1
102
RTVSPost2010Prop45
280
     0
102
RTVSPost2010PropOp45
 70
     1
102
RTVSPost2010Prop46
 90
       50
102
RTVSPost2010PropOp46
 70
     1
102
RTVSPost2010Prop47
 90
       50
102
RTVSPost2010PropOp47
 70
     1
102
RTVSPost2010Prop48
 90
       50
102
RTVSPost2010PropOp48
 70
     1
102
RTVSPost2010Prop49
280
     0
102
RTVSPost2010PropOp49
 70
     1
102
RTVSPost2010Prop50
 90
       50
102
RTVSPost2010PropOp50
 70
     1
102
RTVSPost2010Prop51ColorIndex
 90
      256
102
RTVSPost2010Prop51ColorRGB
 90
-16777216
102
RTVSPost2010PropOp51
 70
     0
102
RTVSPost2010Prop52
140
1.0
102
RTVSPost2010PropOp52
 70
     0
102
RTVSPost2010Prop53
 90
        2
102
RTVSPost2010PropOp53
 70
     1
102
RTVSPost2010Prop54
  1
strokes_ogs.tif
102
RTVSPost2010PropOp54
 70
     1
102
RTVSPost2010Prop55
280
     0
102
RTVSPost2010PropOp55
 70
     1
102
RTVSPost2010Prop56
140
1.0
102
RTVSPost2010PropOp56
 70
     1
102
RTVSPost2010Prop57
140
1.0
102
RTVSPost2010PropOp57
 70
     1
102
RTVSPropertyOp0
 70
     1
102
RTVSPropertyOp1
 70
     1
102
RTVSPropertyOp2
 70
     1
102
RTVSPropertyOp3
 70
     1
102
RTVSPropertyOp4
 70
     1
102
RTVSPropertyOp5
 70
     1
102
RTVSPropertyOp6
 70
     1
102
RTVSPropertyOp7
 70
     1
102
RTVSPropertyOp8
 70
     1
102
RTVSPropertyOp9
 70
     1
102
RTVSPropertyOp10
 70
     1
102
RTVSPropertyOp11
 70
     1
102
RTVSPropertyOp12
 70
     1
102
RTVSPropertyOp13
 70
     1
102
RTVSPropertyOp14
 70
     1
102
RTVSPropertyOp15
 70
     1
102
RTVSPropertyOp16
 70
     1
102
RTVSPropertyOp17
 70
     1
102
RTVSPropertyOp18
 70
     1
102
RTVSPropertyOp19
 70
     1
102
RTVSPropertyOp20
 70
     1
102
RTVSPropertyOp21
 70
     1
102
RTVSPropertyOp22
 70
     1
102
RTVSPropertyOp23
 70
     1
102
RTVSPropertyOp24
 70
     1
102
RTVSPropertyOp25
 70
     1
102
RTVSPropertyOp26
 70
     1
102
RTVSPropertyOp27
 70
     1
102
RTVSPropertyOp28
 70
     1
102
RTVSPropertyOp29
 70
     1
102
RTVSPropertyOp30
 70
     1
102
RTVSPropertyOp31
 70
     1
102
RTVSPropertyOp32
 70
     1
102
RTVSPropertyOp33
 70
     1
102
RTVSPropertyOp34
 70
     1
102
RTVSPropertyOp35
 70
     1
102
RTVSPropertyOp36
 70
     1
102
RTVSPropertyOp37
 70
     1
102
RTVSPropertyOp38
 70
     1
102
RTVSPropertyOp39
 70
     1
102
RTVSPropertyOp40
 70
     1
102
RTVSPropertyOp41
 70
     1
102
RTVSPropertyOp42
 70
     1
102
RTVSPropertyOp43
 70
     1
102
RTVSPropertyOp44
 70
     1
102
RTVSPropertyOp45
 70
     1
102
RTVSPropertyOp46
 70
     1
102
RTVSPropertyOp47
 70
     1
102
RTVSPropertyOp48
 70
     1
102
RTVSPropertyOp49
 70
     1
102
RTVSPropertyOp50
 70
     1
102
RTVSPropertyOp51
 70
     0
102
RTVSPropertyOp52
 70
     0
102
RTVSPropertyOp53
 70
     1
102
RTVSPropertyOp54
 70
     1
102
RTVSPropertyOp55
 70
     1
102
RTVSPropertyOp56
 70
     1
102
RTVSPropertyOp57
 70
     1
102
RTVSPropertyOp58
 70
     1
102
RTVSPropertyOp59
 70
     1
102
RTVSPropertyOp60
 70
     1
102
RTVSPropertyOp61
 70
     1
102
RTVSPropertyOp62
 70
     1
  0
XRECORD
  5
36F
102
{ACAD_REACTORS
330
36E
102
}
330
36E
100
AcDbXrecord
280
     1
102
RTVSPost2010Prop28
280
     0
102
RTVSPost2010PropOp28
 70
     1
102
RTVSPost2010Prop29
280
     1
102
RTVSPost2010PropOp29
 70
     1
102
RTVSPost2010Prop30
280
     1
102
RTVSPost2010PropOp30
 70
     1
102
RTVSPost2010Prop31
280
     0
102
RTVSPost2010PropOp31
 70
     1
102
RTVSPost2010Prop32
280
     0
102
RTVSPost2010PropOp32
 70
     1
102
RTVSPost2010Prop33
280
     0
102
RTVSPost2010PropOp33
 70
     1
102
RTVSPost2010Prop34
280
     0
102
RTVSPost2010PropOp34
 70
     1
102
RTVSPost2010Prop35
280
     0
102
RTVSPost2010PropOp35
 70
     1
102
RTVSPost2010Prop36
280
     0
102
RTVSPost2010PropOp36
 70
     1
102
RTVSPost2010Prop37
 90
       50
102
RTVSPost2010PropOp37
 70
     1
102
RTVSPost2010Prop38
140
0.0
102
RTVSPost2010PropOp38
 70
     1
102
RTVSPost2010Prop39
140
1.0
102
RTVSPost2010PropOp39
 70
     1
102
RTVSPost2010Prop40
 90
        0
102
RTVSPost2010PropOp40
 70
     1
102
RTVSPost2010Prop41ColorIndex
 90
       18
102
RTVSPost2010Prop41ColorRGB
 90
        0
102
RTVSPost2010PropOp41
 70
     1
102
RTVSPost2010Prop42
 90
       50
102
RTVSPost2010PropOp42
 70
     1
102
RTVSPost2010Prop43
 90
        3
102
RTVSPost2010PropOp43
 70
     1
102
RTVSPost2010Prop44ColorIndex
 90
        5
102
RTVSPost2010Prop44ColorRGB
 90
      255
102
RTVSPost2010PropOp44
 70
     1
102
RTVSPost2010Prop45
280
     0
102
RTVSPost2010PropOp45
 70
     1
102
RTVSPost2010Prop46
 90
       50
102
RTVSPost2010PropOp46
 70
     1
102
RTVSPost2010Prop47
 90
       50
102
RTVSPost2010PropOp47
 70
     1
102
RTVSPost2010Prop48
 90
       50
102
RTVSPost2010PropOp48
 70
     1
102
RTVSPost2010Prop49
280
     0
102
RTVSPost2010PropOp49
 70
     1
102
RTVSPost2010Prop50
 90
       50
102
RTVSPost2010PropOp50
 70
     1
102
RTVSPost2010Prop51ColorIndex
 90
      256
102
RTVSPost2010Prop51ColorRGB
 90
-16777216
102
RTVSPost2010PropOp51
 70
     0
102
RTVSPost2010Prop52
140
1.0
102
RTVSPost2010PropOp52
 70
     0
102
RTVSPost2010Prop53
 90
        2
102
RTVSPost2010PropOp53
 70
     1
102
RTVSPost2010Prop54
  1
strokes_ogs.tif
102
RTVSPost2010PropOp54
 70
     1
102
RTVSPost2010Prop55
280
     0
102
RTVSPost2010PropOp55
 70
     1
102
RTVSPost2010Prop56
140
1.0
102
RTVSPost2010PropOp56
 70
     1
102
RTVSPost2010Prop57
140
1.0
102
RTVSPost2010PropOp57
 70
     1
102
RTVSPropertyOp0
 70
     1
102
RTVSPropertyOp1
 70
     1
102
RTVSPropertyOp2
 70
     1
102
RTVSPropertyOp3
 70
     1
102
RTVSPropertyOp4
 70
     1
102
RTVSPropertyOp5
 70
     1
102
RTVSPropertyOp6
 70
     1
102
RTVSPropertyOp7
 70
     1
102
RTVSPropertyOp8
 70
     1
102
RTVSPropertyOp9
 70
     1
102
RTVSPropertyOp10
 70
     1
102
RTVSPropertyOp11
 70
     1
102
RTVSPropertyOp12
 70
     1
102
RTVSPropertyOp13
 70
     1
102
RTVSPropertyOp14
 70
     1
102
RTVSPropertyOp15
 70
     1
102
RTVSPropertyOp16
 70
     1
102
RTVSPropertyOp17
 70
     1
102
RTVSPropertyOp18
 70
     1
102
RTVSPropertyOp19
 70
     1
102
RTVSPropertyOp20
 70
     1
102
RTVSPropertyOp21
 70
     1
102
RTVSPropertyOp22
 70
     1
102
RTVSPropertyOp23
 70
     1
102
RTVSPropertyOp24
 70
     1
102
RTVSPropertyOp25
 70
     1
102
RTVSPropertyOp26
 70
     1
102
RTVSPropertyOp27
 70
     1
102
RTVSPropertyOp28
 70
     1
102
RTVSPropertyOp29
 70
     1
102
RTVSPropertyOp30
 70
     1
102
RTVSPropertyOp31
 70
     1
102
RTVSPropertyOp32
 70
     1
102
RTVSPropertyOp33
 70
     1
102
RTVSPropertyOp34
 70
     1
102
RTVSPropertyOp35
 70
     1
102
RTVSPropertyOp36
 70
     1
102
RTVSPropertyOp37
 70
     1
102
RTVSPropertyOp38
 70
     1
102
RTVSPropertyOp39
 70
     1
102
RTVSPropertyOp40
 70
     1
102
RTVSPropertyOp41
 70
     1
102
RTVSPropertyOp42
 70
     1
102
RTVSPropertyOp43
 70
     1
102
RTVSPropertyOp44
 70
     1
102
RTVSPropertyOp45
 70
     1
102
RTVSPropertyOp46
 70
     1
102
RTVSPropertyOp47
 70
     1
102
RTVSPropertyOp48
 70
     1
102
RTVSPropertyOp49
 70
     1
102
RTVSPropertyOp50
 70
     1
102
RTVSPropertyOp51
 70
     0
102
RTVSPropertyOp52
 70
     0
102
RTVSPropertyOp53
 70
     1
102
RTVSPropertyOp54
 70
     1
102
RTVSPropertyOp55
 70
     1
102
RTVSPropertyOp56
 70
     1
102
RTVSPropertyOp57
 70
     1
102
RTVSPropertyOp58
 70
     1
102
RTVSPropertyOp59
 70
     1
102
RTVSPropertyOp60
 70
     1
102
RTVSPropertyOp61
 70
     1
102
RTVSPropertyOp62
 70
     1
  0
XRECORD
  5
371
102
{ACAD_REACTORS
330
370
102
}
330
370
100
AcDbXrecord
280
     1
102
RTVSPost2010Prop28
280
     0
102
RTVSPost2010PropOp28
 70
     1
102
RTVSPost2010Prop29
280
     1
102
RTVSPost2010PropOp29
 70
     1
102
RTVSPost2010Prop30
280
     1
102
RTVSPost2010PropOp30
 70
     1
102
RTVSPost2010Prop31
280
     0
102
RTVSPost2010PropOp31
 70
     1
102
RTVSPost2010Prop32
280
     0
102
RTVSPost2010PropOp32
 70
     1
102
RTVSPost2010Prop33
280
     0
102
RTVSPost2010PropOp33
 70
     1
102
RTVSPost2010Prop34
280
     0
102
RTVSPost2010PropOp34
 70
     1
102
RTVSPost2010Prop35
280
     0
102
RTVSPost2010PropOp35
 70
     1
102
RTVSPost2010Prop36
280
     0
102
RTVSPost2010PropOp36
 70
     1
102
RTVSPost2010Prop37
 90
       50
102
RTVSPost2010PropOp37
 70
     1
102
RTVSPost2010Prop38
140
0.0
102
RTVSPost2010PropOp38
 70
     1
102
RTVSPost2010Prop39
140
1.0
102
RTVSPost2010PropOp39
 70
     1
102
RTVSPost2010Prop40
 90
        0
102
RTVSPost2010PropOp40
 70
     1
102
RTVSPost2010Prop41ColorIndex
 90
       18
102
RTVSPost2010Prop41ColorRGB
 90
        0
102
RTVSPost2010PropOp41
 70
     1
102
RTVSPost2010Prop42
 90
       50
102
RTVSPost2010PropOp42
 70
     1
102
RTVSPost2010Prop43
 90
        3
102
RTVSPost2010PropOp43
 70
     1
102
RTVSPost2010Prop44ColorIndex
 90
        5
102
RTVSPost2010Prop44ColorRGB
 90
      255
102
RTVSPost2010PropOp44
 70
     1
102
RTVSPost2010Prop45
280
     0
102
RTVSPost2010PropOp45
 70
     1
102
RTVSPost2010Prop46
 90
       50
102
RTVSPost2010PropOp46
 70
     1
102
RTVSPost2010Prop47
 90
       50
102
RTVSPost2010PropOp47
 70
     1
102
RTVSPost2010Prop48
 90
       50
102
RTVSPost2010PropOp48
 70
     1
102
RTVSPost2010Prop49
280
     0
102
RTVSPost2010PropOp49
 70
     1
102
RTVSPost2010Prop50
 90
       50
102
RTVSPost2010PropOp50
 70
     1
102
RTVSPost2010Prop51ColorIndex
 90
      256
102
RTVSPost2010Prop51ColorRGB
 90
-16777216
102
RTVSPost2010PropOp51
 70
     0
102
RTVSPost2010Prop52
140
1.0
102
RTVSPost2010PropOp52
 70
     0
102
RTVSPost2010Prop53
 90
        2
102
RTVSPost2010PropOp53
 70
     1
102
RTVSPost2010Prop54
  1
strokes_ogs.tif
102
RTVSPost2010PropOp54
 70
     1
102
RTVSPost2010Prop55
280
     0
102
RTVSPost2010PropOp55
 70
     1
102
RTVSPost2010Prop56
140
1.0
102
RTVSPost2010PropOp56
 70
     1
102
RTVSPost2010Prop57
140
1.0
102
RTVSPost2010PropOp57
 70
     1
102
RTVSPropertyOp0
 70
     1
102
RTVSPropertyOp1
 70
     1
102
RTVSPropertyOp2
 70
     1
102
RTVSPropertyOp3
 70
     1
102
RTVSPropertyOp4
 70
     1
102
RTVSPropertyOp5
 70
     1
102
RTVSPropertyOp6
 70
     1
102
RTVSPropertyOp7
 70
     1
102
RTVSPropertyOp8
 70
     1
102
RTVSPropertyOp9
 70
     1
102
RTVSPropertyOp10
 70
     1
102
RTVSPropertyOp11
 70
     1
102
RTVSPropertyOp12
 70
     1
102
RTVSPropertyOp13
 70
     1
102
RTVSPropertyOp14
 70
     1
102
RTVSPropertyOp15
 70
     1
102
RTVSPropertyOp16
 70
     1
102
RTVSPropertyOp17
 70
     1
102
RTVSPropertyOp18
 70
     1
102
RTVSPropertyOp19
 70
     1
102
RTVSPropertyOp20
 70
     1
102
RTVSPropertyOp21
 70
     1
102
RTVSPropertyOp22
 70
     1
102
RTVSPropertyOp23
 70
     1
102
RTVSPropertyOp24
 70
     1
102
RTVSPropertyOp25
 70
     1
102
RTVSPropertyOp26
 70
     1
102
RTVSPropertyOp27
 70
     1
102
RTVSPropertyOp28
 70
     1
102
RTVSPropertyOp29
 70
     1
102
RTVSPropertyOp30
 70
     1
102
RTVSPropertyOp31
 70
     1
102
RTVSPropertyOp32
 70
     1
102
RTVSPropertyOp33
 70
     1
102
RTVSPropertyOp34
 70
     1
102
RTVSPropertyOp35
 70
     1
102
RTVSPropertyOp36
 70
     1
102
RTVSPropertyOp37
 70
     1
102
RTVSPropertyOp38
 70
     1
102
RTVSPropertyOp39
 70
     1
102
RTVSPropertyOp40
 70
     1
102
RTVSPropertyOp41
 70
     1
102
RTVSPropertyOp42
 70
     1
102
RTVSPropertyOp43
 70
     1
102
RTVSPropertyOp44
 70
     1
102
RTVSPropertyOp45
 70
     1
102
RTVSPropertyOp46
 70
     1
102
RTVSPropertyOp47
 70
     1
102
RTVSPropertyOp48
 70
     1
102
RTVSPropertyOp49
 70
     1
102
RTVSPropertyOp50
 70
     1
102
RTVSPropertyOp51
 70
     0
102
RTVSPropertyOp52
 70
     0
102
RTVSPropertyOp53
 70
     1
102
RTVSPropertyOp54
 70
     1
102
RTVSPropertyOp55
 70
     1
102
RTVSPropertyOp56
 70
     1
102
RTVSPropertyOp57
 70
     1
102
RTVSPropertyOp58
 70
     1
102
RTVSPropertyOp59
 70
     1
102
RTVSPropertyOp60
 70
     1
102
RTVSPropertyOp61
 70
     1
102
RTVSPropertyOp62
 70
     1
  0
XRECORD
  5
373
102
{ACAD_REACTORS
330
372
102
}
330
372
100
AcDbXrecord
280
     1
102
RTVSPost2010Prop28
280
     0
102
RTVSPost2010PropOp28
 70
     1
102
RTVSPost2010Prop29
280
     1
102
RTVSPost2010PropOp29
 70
     1
102
RTVSPost2010Prop30
280
     1
102
RTVSPost2010PropOp30
 70
     1
102
RTVSPost2010Prop31
280
     0
102
RTVSPost2010PropOp31
 70
     1
102
RTVSPost2010Prop32
280
     0
102
RTVSPost2010PropOp32
 70
     1
102
RTVSPost2010Prop33
280
     0
102
RTVSPost2010PropOp33
 70
     1
102
RTVSPost2010Prop34
280
     0
102
RTVSPost2010PropOp34
 70
     1
102
RTVSPost2010Prop35
280
     0
102
RTVSPost2010PropOp35
 70
     1
102
RTVSPost2010Prop36
280
     0
102
RTVSPost2010PropOp36
 70
     1
102
RTVSPost2010Prop37
 90
       50
102
RTVSPost2010PropOp37
 70
     1
102
RTVSPost2010Prop38
140
0.0
102
RTVSPost2010PropOp38
 70
     1
102
RTVSPost2010Prop39
140
1.0
102
RTVSPost2010PropOp39
 70
     1
102
RTVSPost2010Prop40
 90
        0
102
RTVSPost2010PropOp40
 70
     1
102
RTVSPost2010Prop41ColorIndex
 90
       18
102
RTVSPost2010Prop41ColorRGB
 90
        0
102
RTVSPost2010PropOp41
 70
     1
102
RTVSPost2010Prop42
 90
       50
102
RTVSPost2010PropOp42
 70
     1
102
RTVSPost2010Prop43
 90
        3
102
RTVSPost2010PropOp43
 70
     1
102
RTVSPost2010Prop44ColorIndex
 90
        5
102
RTVSPost2010Prop44ColorRGB
 90
      255
102
RTVSPost2010PropOp44
 70
     1
102
RTVSPost2010Prop45
280
     0
102
RTVSPost2010PropOp45
 70
     1
102
RTVSPost2010Prop46
 90
       50
102
RTVSPost2010PropOp46
 70
     1
102
RTVSPost2010Prop47
 90
       50
102
RTVSPost2010PropOp47
 70
     1
102
RTVSPost2010Prop48
 90
       50
102
RTVSPost2010PropOp48
 70
     1
102
RTVSPost2010Prop49
280
     0
102
RTVSPost2010PropOp49
 70
     1
102
RTVSPost2010Prop50
 90
       50
102
RTVSPost2010PropOp50
 70
     1
102
RTVSPost2010Prop51ColorIndex
 90
      256
102
RTVSPost2010Prop51ColorRGB
 90
-16777216
102
RTVSPost2010PropOp51
 70
     0
102
RTVSPost2010Prop52
140
1.0
102
RTVSPost2010PropOp52
 70
     0
102
RTVSPost2010Prop53
 90
        2
102
RTVSPost2010PropOp53
 70
     1
102
RTVSPost2010Prop54
  1
strokes_ogs.tif
102
RTVSPost2010PropOp54
 70
     1
102
RTVSPost2010Prop55
280
     0
102
RTVSPost2010PropOp55
 70
     1
102
RTVSPost2010Prop56
140
1.0
102
RTVSPost2010PropOp56
 70
     1
102
RTVSPost2010Prop57
140
1.0
102
RTVSPost2010PropOp57
 70
     1
102
RTVSPropertyOp0
 70
     1
102
RTVSPropertyOp1
 70
     1
102
RTVSPropertyOp2
 70
     1
102
RTVSPropertyOp3
 70
     1
102
RTVSPropertyOp4
 70
     1
102
RTVSPropertyOp5
 70
     1
102
RTVSPropertyOp6
 70
     1
102
RTVSPropertyOp7
 70
     1
102
RTVSPropertyOp8
 70
     1
102
RTVSPropertyOp9
 70
     1
102
RTVSPropertyOp10
 70
     1
102
RTVSPropertyOp11
 70
     1
102
RTVSPropertyOp12
 70
     1
102
RTVSPropertyOp13
 70
     1
102
RTVSPropertyOp14
 70
     1
102
RTVSPropertyOp15
 70
     1
102
RTVSPropertyOp16
 70
     1
102
RTVSPropertyOp17
 70
     1
102
RTVSPropertyOp18
 70
     1
102
RTVSPropertyOp19
 70
     1
102
RTVSPropertyOp20
 70
     1
102
RTVSPropertyOp21
 70
     1
102
RTVSPropertyOp22
 70
     1
102
RTVSPropertyOp23
 70
     1
102
RTVSPropertyOp24
 70
     1
102
RTVSPropertyOp25
 70
     1
102
RTVSPropertyOp26
 70
     1
102
RTVSPropertyOp27
 70
     1
102
RTVSPropertyOp28
 70
     1
102
RTVSPropertyOp29
 70
     1
102
RTVSPropertyOp30
 70
     1
102
RTVSPropertyOp31
 70
     1
102
RTVSPropertyOp32
 70
     1
102
RTVSPropertyOp33
 70
     1
102
RTVSPropertyOp34
 70
     1
102
RTVSPropertyOp35
 70
     1
102
RTVSPropertyOp36
 70
     1
102
RTVSPropertyOp37
 70
     1
102
RTVSPropertyOp38
 70
     1
102
RTVSPropertyOp39
 70
     1
102
RTVSPropertyOp40
 70
     1
102
RTVSPropertyOp41
 70
     1
102
RTVSPropertyOp42
 70
     1
102
RTVSPropertyOp43
 70
     1
102
RTVSPropertyOp44
 70
     1
102
RTVSPropertyOp45
 70
     1
102
RTVSPropertyOp46
 70
     1
102
RTVSPropertyOp47
 70
     1
102
RTVSPropertyOp48
 70
     1
102
RTVSPropertyOp49
 70
     1
102
RTVSPropertyOp50
 70
     1
102
RTVSPropertyOp51
 70
     0
102
RTVSPropertyOp52
 70
     0
102
RTVSPropertyOp53
 70
     1
102
RTVSPropertyOp54
 70
     1
102
RTVSPropertyOp55
 70
     1
102
RTVSPropertyOp56
 70
     1
102
RTVSPropertyOp57
 70
     1
102
RTVSPropertyOp58
 70
     1
102
RTVSPropertyOp59
 70
     1
102
RTVSPropertyOp60
 70
     1
102
RTVSPropertyOp61
 70
     1
102
RTVSPropertyOp62
 70
     1
  0
XRECORD
  5
379
102
{ACAD_REACTORS
330
378
102
}
330
378
100
AcDbXrecord
280
     1
102
RTVSPost2010Prop28
280
     0
102
RTVSPost2010PropOp28
 70
     1
102
RTVSPost2010Prop29
280
     1
102
RTVSPost2010PropOp29
 70
     1
102
RTVSPost2010Prop30
280
     1
102
RTVSPost2010PropOp30
 70
     1
102
RTVSPost2010Prop31
280
     0
102
RTVSPost2010PropOp31
 70
     1
102
RTVSPost2010Prop32
280
     0
102
RTVSPost2010PropOp32
 70
     1
102
RTVSPost2010Prop33
280
     0
102
RTVSPost2010PropOp33
 70
     1
102
RTVSPost2010Prop34
280
     0
102
RTVSPost2010PropOp34
 70
     1
102
RTVSPost2010Prop35
280
     0
102
RTVSPost2010PropOp35
 70
     1
102
RTVSPost2010Prop36
280
     0
102
RTVSPost2010PropOp36
 70
     1
102
RTVSPost2010Prop37
 90
       50
102
RTVSPost2010PropOp37
 70
     1
102
RTVSPost2010Prop38
140
0.0
102
RTVSPost2010PropOp38
 70
     1
102
RTVSPost2010Prop39
140
1.0
102
RTVSPost2010PropOp39
 70
     1
102
RTVSPost2010Prop40
 90
        0
102
RTVSPost2010PropOp40
 70
     1
102
RTVSPost2010Prop41ColorIndex
 90
       18
102
RTVSPost2010Prop41ColorRGB
 90
        0
102
RTVSPost2010PropOp41
 70
     1
102
RTVSPost2010Prop42
 90
       50
102
RTVSPost2010PropOp42
 70
     1
102
RTVSPost2010Prop43
 90
        3
102
RTVSPost2010PropOp43
 70
     1
102
RTVSPost2010Prop44ColorIndex
 90
        5
102
RTVSPost2010Prop44ColorRGB
 90
      255
102
RTVSPost2010PropOp44
 70
     1
102
RTVSPost2010Prop45
280
     0
102
RTVSPost2010PropOp45
 70
     1
102
RTVSPost2010Prop46
 90
       50
102
RTVSPost2010PropOp46
 70
     1
102
RTVSPost2010Prop47
 90
       50
102
RTVSPost2010PropOp47
 70
     1
102
RTVSPost2010Prop48
 90
       50
102
RTVSPost2010PropOp48
 70
     1
102
RTVSPost2010Prop49
280
     0
102
RTVSPost2010PropOp49
 70
     1
102
RTVSPost2010Prop50
 90
       50
102
RTVSPost2010PropOp50
 70
     1
102
RTVSPost2010Prop51ColorIndex
 90
      256
102
RTVSPost2010Prop51ColorRGB
 90
-16777216
102
RTVSPost2010PropOp51
 70
     0
102
RTVSPost2010Prop52
140
1.0
102
RTVSPost2010PropOp52
 70
     0
102
RTVSPost2010Prop53
 90
        2
102
RTVSPost2010PropOp53
 70
     1
102
RTVSPost2010Prop54
  1
strokes_ogs.tif
102
RTVSPost2010PropOp54
 70
     1
102
RTVSPost2010Prop55
280
     0
102
RTVSPost2010PropOp55
 70
     1
102
RTVSPost2010Prop56
140
1.0
102
RTVSPost2010PropOp56
 70
     1
102
RTVSPost2010Prop57
140
1.0
102
RTVSPost2010PropOp57
 70
     1
102
RTVSPropertyOp0
 70
     1
102
RTVSPropertyOp1
 70
     1
102
RTVSPropertyOp2
 70
     1
102
RTVSPropertyOp3
 70
     1
102
RTVSPropertyOp4
 70
     1
102
RTVSPropertyOp5
 70
     1
102
RTVSPropertyOp6
 70
     1
102
RTVSPropertyOp7
 70
     1
102
RTVSPropertyOp8
 70
     1
102
RTVSPropertyOp9
 70
     1
102
RTVSPropertyOp10
 70
     1
102
RTVSPropertyOp11
 70
     1
102
RTVSPropertyOp12
 70
     1
102
RTVSPropertyOp13
 70
     1
102
RTVSPropertyOp14
 70
     1
102
RTVSPropertyOp15
 70
     1
102
RTVSPropertyOp16
 70
     1
102
RTVSPropertyOp17
 70
     1
102
RTVSPropertyOp18
 70
     1
102
RTVSPropertyOp19
 70
     1
102
RTVSPropertyOp20
 70
     1
102
RTVSPropertyOp21
 70
     1
102
RTVSPropertyOp22
 70
     1
102
RTVSPropertyOp23
 70
     1
102
RTVSPropertyOp24
 70
     1
102
RTVSPropertyOp25
 70
     1
102
RTVSPropertyOp26
 70
     1
102
RTVSPropertyOp27
 70
     1
102
RTVSPropertyOp28
 70
     1
102
RTVSPropertyOp29
 70
     1
102
RTVSPropertyOp30
 70
     1
102
RTVSPropertyOp31
 70
     1
102
RTVSPropertyOp32
 70
     1
102
RTVSPropertyOp33
 70
     1
102
RTVSPropertyOp34
 70
     1
102
RTVSPropertyOp35
 70
     1
102
RTVSPropertyOp36
 70
     1
102
RTVSPropertyOp37
 70
     1
102
RTVSPropertyOp38
 70
     1
102
RTVSPropertyOp39
 70
     1
102
RTVSPropertyOp40
 70
     1
102
RTVSPropertyOp41
 70
     1
102
RTVSPropertyOp42
 70
     1
102
RTVSPropertyOp43
 70
     1
102
RTVSPropertyOp44
 70
     1
102
RTVSPropertyOp45
 70
     1
102
RTVSPropertyOp46
 70
     1
102
RTVSPropertyOp47
 70
     1
102
RTVSPropertyOp48
 70
     1
102
RTVSPropertyOp49
 70
     1
102
RTVSPropertyOp50
 70
     1
102
RTVSPropertyOp51
 70
     0
102
RTVSPropertyOp52
 70
     0
102
RTVSPropertyOp53
 70
     1
102
RTVSPropertyOp54
 70
     1
102
RTVSPropertyOp55
 70
     1
102
RTVSPropertyOp56
 70
     1
102
RTVSPropertyOp57
 70
     1
102
RTVSPropertyOp58
 70
     1
102
RTVSPropertyOp59
 70
     1
102
RTVSPropertyOp60
 70
     1
102
RTVSPropertyOp61
 70
     1
102
RTVSPropertyOp62
 70
     1
  0
XRECORD
  5
38D
102
{ACAD_REACTORS
330
38C
102
}
330
38C
100
AcDbXrecord
280
     1
102
RTVSPost2010Prop28
280
     0
102
RTVSPost2010PropOp28
 70
     0
102
RTVSPost2010Prop29
280
     1
102
RTVSPost2010PropOp29
 70
     0
102
RTVSPost2010Prop30
280
     1
102
RTVSPost2010PropOp30
 70
     0
102
RTVSPost2010Prop31
280
     0
102
RTVSPost2010PropOp31
 70
     0
102
RTVSPost2010Prop32
280
     0
102
RTVSPost2010PropOp32
 70
     0
102
RTVSPost2010Prop33
280
     0
102
RTVSPost2010PropOp33
 70
     0
102
RTVSPost2010Prop34
280
     0
102
RTVSPost2010PropOp34
 70
     0
102
RTVSPost2010Prop35
280
     0
102
RTVSPost2010PropOp35
 70
     0
102
RTVSPost2010Prop36
280
     0
102
RTVSPost2010PropOp36
 70
     0
102
RTVSPost2010Prop37
 90
       50
102
RTVSPost2010PropOp37
 70
     0
102
RTVSPost2010Prop38
140
0.0
102
RTVSPost2010PropOp38
 70
     0
102
RTVSPost2010Prop39
140
1.0
102
RTVSPost2010PropOp39
 70
     0
102
RTVSPost2010Prop40
 90
        0
102
RTVSPost2010PropOp40
 70
     0
102
RTVSPost2010Prop41ColorIndex
 90
       18
102
RTVSPost2010Prop41ColorRGB
 90
        0
102
RTVSPost2010PropOp41
 70
     0
102
RTVSPost2010Prop42
 90
       50
102
RTVSPost2010PropOp42
 70
     0
102
RTVSPost2010Prop43
 90
        3
102
RTVSPost2010PropOp43
 70
     0
102
RTVSPost2010Prop44ColorIndex
 90
        5
102
RTVSPost2010Prop44ColorRGB
 90
      255
102
RTVSPost2010PropOp44
 70
     0
102
RTVSPost2010Prop45
280
     0
102
RTVSPost2010PropOp45
 70
     0
102
RTVSPost2010Prop46
 90
       50
102
RTVSPost2010PropOp46
 70
     0
102
RTVSPost2010Prop47
 90
       50
102
RTVSPost2010PropOp47
 70
     0
102
RTVSPost2010Prop48
 90
       50
102
RTVSPost2010PropOp48
 70
     0
102
RTVSPost2010Prop49
280
     0
102
RTVSPost2010PropOp49
 70
     0
102
RTVSPost2010Prop50
 90
       50
102
RTVSPost2010PropOp50
 70
     0
102
RTVSPost2010Prop51ColorIndex
 90
      256
102
RTVSPost2010Prop51ColorRGB
 90
-16777216
102
RTVSPost2010PropOp51
 70
     0
102
RTVSPost2010Prop52
140
1.0
102
RTVSPost2010PropOp52
 70
     0
102
RTVSPost2010Prop53
 90
        2
102
RTVSPost2010PropOp53
 70
     0
102
RTVSPost2010Prop54
  1
strokes_ogs.tif
102
RTVSPost2010PropOp54
 70
     0
102
RTVSPost2010Prop55
280
     0
102
RTVSPost2010PropOp55
 70
     0
102
RTVSPost2010Prop56
140
1.0
102
RTVSPost2010PropOp56
 70
     0
102
RTVSPost2010Prop57
140
1.0
102
RTVSPost2010PropOp57
 70
     0
102
RTVSPropertyOp0
 70
     0
102
RTVSPropertyOp1
 70
     0
102
RTVSPropertyOp2
 70
     0
102
RTVSPropertyOp3
 70
     0
102
RTVSPropertyOp4
 70
     0
102
RTVSPropertyOp5
 70
     0
102
RTVSPropertyOp6
 70
     0
102
RTVSPropertyOp7
 70
     0
102
RTVSPropertyOp8
 70
     0
102
RTVSPropertyOp9
 70
     0
102
RTVSPropertyOp10
 70
     0
102
RTVSPropertyOp11
 70
     0
102
RTVSPropertyOp12
 70
     0
102
RTVSPropertyOp13
 70
     0
102
RTVSPropertyOp14
 70
     2
102
RTVSPropertyOp15
 70
     0
102
RTVSPropertyOp16
 70
     0
102
RTVSPropertyOp17
 70
     0
102
RTVSPropertyOp18
 70
     0
102
RTVSPropertyOp19
 70
     0
102
RTVSPropertyOp20
 70
     0
102
RTVSPropertyOp21
 70
     0
102
RTVSPropertyOp22
 70
     0
102
RTVSPropertyOp23
 70
     0
102
RTVSPropertyOp24
 70
     0
102
RTVSPropertyOp25
 70
     0
102
RTVSPropertyOp26
 70
     0
102
RTVSPropertyOp27
 70
     0
102
RTVSPropertyOp28
 70
     0
102
RTVSPropertyOp29
 70
     0
102
RTVSPropertyOp30
 70
     0
102
RTVSPropertyOp31
 70
     0
102
RTVSPropertyOp32
 70
     0
102
RTVSPropertyOp33
 70
     0
102
RTVSPropertyOp34
 70
     0
102
RTVSPropertyOp35
 70
     0
102
RTVSPropertyOp36
 70
     0
102
RTVSPropertyOp37
 70
     0
102
RTVSPropertyOp38
 70
     0
102
RTVSPropertyOp39
 70
     0
102
RTVSPropertyOp40
 70
     0
102
RTVSPropertyOp41
 70
     0
102
RTVSPropertyOp42
 70
     0
102
RTVSPropertyOp43
 70
     0
102
RTVSPropertyOp44
 70
     0
102
RTVSPropertyOp45
 70
     0
102
RTVSPropertyOp46
 70
     0
102
RTVSPropertyOp47
 70
     0
102
RTVSPropertyOp48
 70
     0
102
RTVSPropertyOp49
 70
     0
102
RTVSPropertyOp50
 70
     0
102
RTVSPropertyOp51
 70
     0
102
RTVSPropertyOp52
 70
     0
102
RTVSPropertyOp53
 70
     0
102
RTVSPropertyOp54
 70
     0
102
RTVSPropertyOp55
 70
     0
102
RTVSPropertyOp56
 70
     0
102
RTVSPropertyOp57
 70
     0
102
RTVSPropertyOp58
 70
     1
102
RTVSPropertyOp59
 70
     1
102
RTVSPropertyOp60
 70
     1
102
RTVSPropertyOp61
 70
     1
102
RTVSPropertyOp62
 70
     1
  0
XRECORD
  5
387
102
{ACAD_REACTORS
330
386
102
}
330
386
100
AcDbXrecord
280
     1
102
RTVSPost2010Prop28
280
     0
102
RTVSPost2010PropOp28
 70
     1
102
RTVSPost2010Prop29
280
     1
102
RTVSPost2010PropOp29
 70
     1
102
RTVSPost2010Prop30
280
     1
102
RTVSPost2010PropOp30
 70
     1
102
RTVSPost2010Prop31
280
     0
102
RTVSPost2010PropOp31
 70
     1
102
RTVSPost2010Prop32
280
     0
102
RTVSPost2010PropOp32
 70
     1
102
RTVSPost2010Prop33
280
     0
102
RTVSPost2010PropOp33
 70
     1
102
RTVSPost2010Prop34
280
     0
102
RTVSPost2010PropOp34
 70
     1
102
RTVSPost2010Prop35
280
     0
102
RTVSPost2010PropOp35
 70
     1
102
RTVSPost2010Prop36
280
     0
102
RTVSPost2010PropOp36
 70
     1
102
RTVSPost2010Prop37
 90
       50
102
RTVSPost2010PropOp37
 70
     1
102
RTVSPost2010Prop38
140
0.0
102
RTVSPost2010PropOp38
 70
     1
102
RTVSPost2010Prop39
140
1.0
102
RTVSPost2010PropOp39
 70
     1
102
RTVSPost2010Prop40
 90
        0
102
RTVSPost2010PropOp40
 70
     1
102
RTVSPost2010Prop41ColorIndex
 90
       18
102
RTVSPost2010Prop41ColorRGB
 90
        0
102
RTVSPost2010PropOp41
 70
     1
102
RTVSPost2010Prop42
 90
       50
102
RTVSPost2010PropOp42
 70
     1
102
RTVSPost2010Prop43
 90
        3
102
RTVSPost2010PropOp43
 70
     1
102
RTVSPost2010Prop44ColorIndex
 90
        5
102
RTVSPost2010Prop44ColorRGB
 90
      255
102
RTVSPost2010PropOp44
 70
     1
102
RTVSPost2010Prop45
280
     0
102
RTVSPost2010PropOp45
 70
     1
102
RTVSPost2010Prop46
 90
       50
102
RTVSPost2010PropOp46
 70
     1
102
RTVSPost2010Prop47
 90
       50
102
RTVSPost2010PropOp47
 70
     1
102
RTVSPost2010Prop48
 90
       50
102
RTVSPost2010PropOp48
 70
     1
102
RTVSPost2010Prop49
280
     0
102
RTVSPost2010PropOp49
 70
     1
102
RTVSPost2010Prop50
 90
       50
102
RTVSPost2010PropOp50
 70
     1
102
RTVSPost2010Prop51ColorIndex
 90
      256
102
RTVSPost2010Prop51ColorRGB
 90
-16777216
102
RTVSPost2010PropOp51
 70
     0
102
RTVSPost2010Prop52
140
1.0
102
RTVSPost2010PropOp52
 70
     0
102
RTVSPost2010Prop53
 90
        2
102
RTVSPost2010PropOp53
 70
     1
102
RTVSPost2010Prop54
  1
strokes_ogs.tif
102
RTVSPost2010PropOp54
 70
     1
102
RTVSPost2010Prop55
280
     0
102
RTVSPost2010PropOp55
 70
     1
102
RTVSPost2010Prop56
140
1.0
102
RTVSPost2010PropOp56
 70
     1
102
RTVSPost2010Prop57
140
1.0
102
RTVSPost2010PropOp57
 70
     1
102
RTVSPropertyOp0
 70
     1
102
RTVSPropertyOp1
 70
     1
102
RTVSPropertyOp2
 70
     1
102
RTVSPropertyOp3
 70
     1
102
RTVSPropertyOp4
 70
     1
102
RTVSPropertyOp5
 70
     1
102
RTVSPropertyOp6
 70
     1
102
RTVSPropertyOp7
 70
     1
102
RTVSPropertyOp8
 70
     1
102
RTVSPropertyOp9
 70
     1
102
RTVSPropertyOp10
 70
     1
102
RTVSPropertyOp11
 70
     1
102
RTVSPropertyOp12
 70
     1
102
RTVSPropertyOp13
 70
     1
102
RTVSPropertyOp14
 70
     1
102
RTVSPropertyOp15
 70
     1
102
RTVSPropertyOp16
 70
     1
102
RTVSPropertyOp17
 70
     1
102
RTVSPropertyOp18
 70
     1
102
RTVSPropertyOp19
 70
     1
102
RTVSPropertyOp20
 70
     1
102
RTVSPropertyOp21
 70
     1
102
RTVSPropertyOp22
 70
     1
102
RTVSPropertyOp23
 70
     1
102
RTVSPropertyOp24
 70
     1
102
RTVSPropertyOp25
 70
     1
102
RTVSPropertyOp26
 70
     1
102
RTVSPropertyOp27
 70
     1
102
RTVSPropertyOp28
 70
     1
102
RTVSPropertyOp29
 70
     1
102
RTVSPropertyOp30
 70
     1
102
RTVSPropertyOp31
 70
     1
102
RTVSPropertyOp32
 70
     1
102
RTVSPropertyOp33
 70
     1
102
RTVSPropertyOp34
 70
     1
102
RTVSPropertyOp35
 70
     1
102
RTVSPropertyOp36
 70
     1
102
RTVSPropertyOp37
 70
     1
102
RTVSPropertyOp38
 70
     1
102
RTVSPropertyOp39
 70
     1
102
RTVSPropertyOp40
 70
     1
102
RTVSPropertyOp41
 70
     1
102
RTVSPropertyOp42
 70
     1
102
RTVSPropertyOp43
 70
     1
102
RTVSPropertyOp44
 70
     1
102
RTVSPropertyOp45
 70
     1
102
RTVSPropertyOp46
 70
     1
102
RTVSPropertyOp47
 70
     1
102
RTVSPropertyOp48
 70
     1
102
RTVSPropertyOp49
 70
     1
102
RTVSPropertyOp50
 70
     1
102
RTVSPropertyOp51
 70
     0
102
RTVSPropertyOp52
 70
     0
102
RTVSPropertyOp53
 70
     1
102
RTVSPropertyOp54
 70
     1
102
RTVSPropertyOp55
 70
     1
102
RTVSPropertyOp56
 70
     1
102
RTVSPropertyOp57
 70
     1
102
RTVSPropertyOp58
 70
     1
102
RTVSPropertyOp59
 70
     1
102
RTVSPropertyOp60
 70
     1
102
RTVSPropertyOp61
 70
     1
102
RTVSPropertyOp62
 70
     1
  0
XRECORD
  5
38F
102
{ACAD_REACTORS
330
38E
102
}
330
38E
100
AcDbXrecord
280
     1
102
RTVSPost2010Prop28
280
     0
102
RTVSPost2010PropOp28
 70
     0
102
RTVSPost2010Prop29
280
     1
102
RTVSPost2010PropOp29
 70
     0
102
RTVSPost2010Prop30
280
     1
102
RTVSPost2010PropOp30
 70
     0
102
RTVSPost2010Prop31
280
     0
102
RTVSPost2010PropOp31
 70
     0
102
RTVSPost2010Prop32
280
     0
102
RTVSPost2010PropOp32
 70
     0
102
RTVSPost2010Prop33
280
     0
102
RTVSPost2010PropOp33
 70
     0
102
RTVSPost2010Prop34
280
     0
102
RTVSPost2010PropOp34
 70
     0
102
RTVSPost2010Prop35
280
     0
102
RTVSPost2010PropOp35
 70
     0
102
RTVSPost2010Prop36
280
     0
102
RTVSPost2010PropOp36
 70
     0
102
RTVSPost2010Prop37
 90
       50
102
RTVSPost2010PropOp37
 70
     0
102
RTVSPost2010Prop38
140
0.0
102
RTVSPost2010PropOp38
 70
     0
102
RTVSPost2010Prop39
140
1.0
102
RTVSPost2010PropOp39
 70
     0
102
RTVSPost2010Prop40
 90
        0
102
RTVSPost2010PropOp40
 70
     0
102
RTVSPost2010Prop41ColorIndex
 90
       18
102
RTVSPost2010Prop41ColorRGB
 90
        0
102
RTVSPost2010PropOp41
 70
     0
102
RTVSPost2010Prop42
 90
       50
102
RTVSPost2010PropOp42
 70
     0
102
RTVSPost2010Prop43
 90
        3
102
RTVSPost2010PropOp43
 70
     0
102
RTVSPost2010Prop44ColorIndex
 90
        5
102
RTVSPost2010Prop44ColorRGB
 90
      255
102
RTVSPost2010PropOp44
 70
     0
102
RTVSPost2010Prop45
280
     0
102
RTVSPost2010PropOp45
 70
     0
102
RTVSPost2010Prop46
 90
       50
102
RTVSPost2010PropOp46
 70
     0
102
RTVSPost2010Prop47
 90
       50
102
RTVSPost2010PropOp47
 70
     0
102
RTVSPost2010Prop48
 90
       50
102
RTVSPost2010PropOp48
 70
     0
102
RTVSPost2010Prop49
280
     0
102
RTVSPost2010PropOp49
 70
     0
102
RTVSPost2010Prop50
 90
       50
102
RTVSPost2010PropOp50
 70
     0
102
RTVSPost2010Prop51ColorIndex
 90
      256
102
RTVSPost2010Prop51ColorRGB
 90
-16777216
102
RTVSPost2010PropOp51
 70
     0
102
RTVSPost2010Prop52
140
1.0
102
RTVSPost2010PropOp52
 70
     0
102
RTVSPost2010Prop53
 90
        2
102
RTVSPost2010PropOp53
 70
     0
102
RTVSPost2010Prop54
  1
strokes_ogs.tif
102
RTVSPost2010PropOp54
 70
     0
102
RTVSPost2010Prop55
280
     0
102
RTVSPost2010PropOp55
 70
     0
102
RTVSPost2010Prop56
140
1.0
102
RTVSPost2010PropOp56
 70
     0
102
RTVSPost2010Prop57
140
1.0
102
RTVSPost2010PropOp57
 70
     0
102
RTVSPropertyOp0
 70
     0
102
RTVSPropertyOp1
 70
     0
102
RTVSPropertyOp2
 70
     0
102
RTVSPropertyOp3
 70
     0
102
RTVSPropertyOp4
 70
     0
102
RTVSPropertyOp5
 70
     0
102
RTVSPropertyOp6
 70
     0
102
RTVSPropertyOp7
 70
     0
102
RTVSPropertyOp8
 70
     0
102
RTVSPropertyOp9
 70
     0
102
RTVSPropertyOp10
 70
     0
102
RTVSPropertyOp11
 70
     0
102
RTVSPropertyOp12
 70
     0
102
RTVSPropertyOp13
 70
     0
102
RTVSPropertyOp14
 70
     2
102
RTVSPropertyOp15
 70
     0
102
RTVSPropertyOp16
 70
     0
102
RTVSPropertyOp17
 70
     0
102
RTVSPropertyOp18
 70
     0
102
RTVSPropertyOp19
 70
     0
102
RTVSPropertyOp20
 70
     0
102
RTVSPropertyOp21
 70
     0
102
RTVSPropertyOp22
 70
     0
102
RTVSPropertyOp23
 70
     0
102
RTVSPropertyOp24
 70
     0
102
RTVSPropertyOp25
 70
     0
102
RTVSPropertyOp26
 70
     0
102
RTVSPropertyOp27
 70
     0
102
RTVSPropertyOp28
 70
     0
102
RTVSPropertyOp29
 70
     0
102
RTVSPropertyOp30
 70
     0
102
RTVSPropertyOp31
 70
     0
102
RTVSPropertyOp32
 70
     0
102
RTVSPropertyOp33
 70
     0
102
RTVSPropertyOp34
 70
     0
102
RTVSPropertyOp35
 70
     0
102
RTVSPropertyOp36
 70
     0
102
RTVSPropertyOp37
 70
     0
102
RTVSPropertyOp38
 70
     0
102
RTVSPropertyOp39
 70
     0
102
RTVSPropertyOp40
 70
     0
102
RTVSPropertyOp41
 70
     0
102
RTVSPropertyOp42
 70
     0
102
RTVSPropertyOp43
 70
     0
102
RTVSPropertyOp44
 70
     0
102
RTVSPropertyOp45
 70
     0
102
RTVSPropertyOp46
 70
     0
102
RTVSPropertyOp47
 70
     0
102
RTVSPropertyOp48
 70
     0
102
RTVSPropertyOp49
 70
     0
102
RTVSPropertyOp50
 70
     0
102
RTVSPropertyOp51
 70
     0
102
RTVSPropertyOp52
 70
     0
102
RTVSPropertyOp53
 70
     0
102
RTVSPropertyOp54
 70
     0
102
RTVSPropertyOp55
 70
     0
102
RTVSPropertyOp56
 70
     0
102
RTVSPropertyOp57
 70
     0
102
RTVSPropertyOp58
 70
     1
102
RTVSPropertyOp59
 70
     1
102
RTVSPropertyOp60
 70
     1
102
RTVSPropertyOp61
 70
     1
102
RTVSPropertyOp62
 70
     1
  0
XRECORD
  5
37D
102
{ACAD_REACTORS
330
37C
102
}
330
37C
100
AcDbXrecord
280
     1
102
RTVSPost2010Prop28
280
     0
102
RTVSPost2010PropOp28
 70
     1
102
RTVSPost2010Prop29
280
     1
102
RTVSPost2010PropOp29
 70
     1
102
RTVSPost2010Prop30
280
     1
102
RTVSPost2010PropOp30
 70
     1
102
RTVSPost2010Prop31
280
     0
102
RTVSPost2010PropOp31
 70
     1
102
RTVSPost2010Prop32
280
     0
102
RTVSPost2010PropOp32
 70
     1
102
RTVSPost2010Prop33
280
     0
102
RTVSPost2010PropOp33
 70
     1
102
RTVSPost2010Prop34
280
     0
102
RTVSPost2010PropOp34
 70
     1
102
RTVSPost2010Prop35
280
     0
102
RTVSPost2010PropOp35
 70
     1
102
RTVSPost2010Prop36
280
     0
102
RTVSPost2010PropOp36
 70
     1
102
RTVSPost2010Prop37
 90
       50
102
RTVSPost2010PropOp37
 70
     1
102
RTVSPost2010Prop38
140
0.0
102
RTVSPost2010PropOp38
 70
     1
102
RTVSPost2010Prop39
140
1.0
102
RTVSPost2010PropOp39
 70
     1
102
RTVSPost2010Prop40
 90
        0
102
RTVSPost2010PropOp40
 70
     1
102
RTVSPost2010Prop41ColorIndex
 90
       18
102
RTVSPost2010Prop41ColorRGB
 90
        0
102
RTVSPost2010PropOp41
 70
     1
102
RTVSPost2010Prop42
 90
       50
102
RTVSPost2010PropOp42
 70
     1
102
RTVSPost2010Prop43
 90
        3
102
RTVSPost2010PropOp43
 70
     1
102
RTVSPost2010Prop44ColorIndex
 90
        5
102
RTVSPost2010Prop44ColorRGB
 90
      255
102
RTVSPost2010PropOp44
 70
     1
102
RTVSPost2010Prop45
280
     0
102
RTVSPost2010PropOp45
 70
     1
102
RTVSPost2010Prop46
 90
       50
102
RTVSPost2010PropOp46
 70
     1
102
RTVSPost2010Prop47
 90
       50
102
RTVSPost2010PropOp47
 70
     1
102
RTVSPost2010Prop48
 90
       50
102
RTVSPost2010PropOp48
 70
     1
102
RTVSPost2010Prop49
280
     0
102
RTVSPost2010PropOp49
 70
     1
102
RTVSPost2010Prop50
 90
       50
102
RTVSPost2010PropOp50
 70
     1
102
RTVSPost2010Prop51ColorIndex
 90
      256
102
RTVSPost2010Prop51ColorRGB
 90
-16777216
102
RTVSPost2010PropOp51
 70
     0
102
RTVSPost2010Prop52
140
1.0
102
RTVSPost2010PropOp52
 70
     0
102
RTVSPost2010Prop53
 90
        2
102
RTVSPost2010PropOp53
 70
     1
102
RTVSPost2010Prop54
  1
strokes_ogs.tif
102
RTVSPost2010PropOp54
 70
     1
102
RTVSPost2010Prop55
280
     0
102
RTVSPost2010PropOp55
 70
     1
102
RTVSPost2010Prop56
140
1.0
102
RTVSPost2010PropOp56
 70
     1
102
RTVSPost2010Prop57
140
1.0
102
RTVSPost2010PropOp57
 70
     1
102
RTVSPropertyOp0
 70
     1
102
RTVSPropertyOp1
 70
     1
102
RTVSPropertyOp2
 70
     1
102
RTVSPropertyOp3
 70
     1
102
RTVSPropertyOp4
 70
     1
102
RTVSPropertyOp5
 70
     1
102
RTVSPropertyOp6
 70
     1
102
RTVSPropertyOp7
 70
     1
102
RTVSPropertyOp8
 70
     1
102
RTVSPropertyOp9
 70
     1
102
RTVSPropertyOp10
 70
     1
102
RTVSPropertyOp11
 70
     1
102
RTVSPropertyOp12
 70
     1
102
RTVSPropertyOp13
 70
     1
102
RTVSPropertyOp14
 70
     1
102
RTVSPropertyOp15
 70
     1
102
RTVSPropertyOp16
 70
     1
102
RTVSPropertyOp17
 70
     1
102
RTVSPropertyOp18
 70
     1
102
RTVSPropertyOp19
 70
     1
102
RTVSPropertyOp20
 70
     1
102
RTVSPropertyOp21
 70
     1
102
RTVSPropertyOp22
 70
     1
102
RTVSPropertyOp23
 70
     1
102
RTVSPropertyOp24
 70
     1
102
RTVSPropertyOp25
 70
     1
102
RTVSPropertyOp26
 70
     1
102
RTVSPropertyOp27
 70
     1
102
RTVSPropertyOp28
 70
     1
102
RTVSPropertyOp29
 70
     1
102
RTVSPropertyOp30
 70
     1
102
RTVSPropertyOp31
 70
     1
102
RTVSPropertyOp32
 70
     1
102
RTVSPropertyOp33
 70
     1
102
RTVSPropertyOp34
 70
     1
102
RTVSPropertyOp35
 70
     1
102
RTVSPropertyOp36
 70
     1
102
RTVSPropertyOp37
 70
     1
102
RTVSPropertyOp38
 70
     1
102
RTVSPropertyOp39
 70
     1
102
RTVSPropertyOp40
 70
     1
102
RTVSPropertyOp41
 70
     1
102
RTVSPropertyOp42
 70
     1
102
RTVSPropertyOp43
 70
     1
102
RTVSPropertyOp44
 70
     1
102
RTVSPropertyOp45
 70
     1
102
RTVSPropertyOp46
 70
     1
102
RTVSPropertyOp47
 70
     1
102
RTVSPropertyOp48
 70
     1
102
RTVSPropertyOp49
 70
     1
102
RTVSPropertyOp50
 70
     1
102
RTVSPropertyOp51
 70
     0
102
RTVSPropertyOp52
 70
     0
102
RTVSPropertyOp53
 70
     1
102
RTVSPropertyOp54
 70
     1
102
RTVSPropertyOp55
 70
     1
102
RTVSPropertyOp56
 70
     1
102
RTVSPropertyOp57
 70
     1
102
RTVSPropertyOp58
 70
     1
102
RTVSPropertyOp59
 70
     1
102
RTVSPropertyOp60
 70
     1
102
RTVSPropertyOp61
 70
     1
102
RTVSPropertyOp62
 70
     1
  0
XRECORD
  5
39B
102
{ACAD_REACTORS
330
39A
102
}
330
39A
100
AcDbXrecord
280
     1
102
RTVSPost2010Prop28
280
     0
102
RTVSPost2010PropOp28
 70
     1
102
RTVSPost2010Prop29
280
     1
102
RTVSPost2010PropOp29
 70
     1
102
RTVSPost2010Prop30
280
     1
102
RTVSPost2010PropOp30
 70
     1
102
RTVSPost2010Prop31
280
     0
102
RTVSPost2010PropOp31
 70
     1
102
RTVSPost2010Prop32
280
     0
102
RTVSPost2010PropOp32
 70
     1
102
RTVSPost2010Prop33
280
     0
102
RTVSPost2010PropOp33
 70
     1
102
RTVSPost2010Prop34
280
     0
102
RTVSPost2010PropOp34
 70
     1
102
RTVSPost2010Prop35
280
     0
102
RTVSPost2010PropOp35
 70
     1
102
RTVSPost2010Prop36
280
     0
102
RTVSPost2010PropOp36
 70
     1
102
RTVSPost2010Prop37
 90
       50
102
RTVSPost2010PropOp37
 70
     1
102
RTVSPost2010Prop38
140
0.0
102
RTVSPost2010PropOp38
 70
     1
102
RTVSPost2010Prop39
140
1.0
102
RTVSPost2010PropOp39
 70
     1
102
RTVSPost2010Prop40
 90
        0
102
RTVSPost2010PropOp40
 70
     1
102
RTVSPost2010Prop41ColorIndex
 90
       18
102
RTVSPost2010Prop41ColorRGB
 90
        0
102
RTVSPost2010PropOp41
 70
     1
102
RTVSPost2010Prop42
 90
       50
102
RTVSPost2010PropOp42
 70
     1
102
RTVSPost2010Prop43
 90
        3
102
RTVSPost2010PropOp43
 70
     1
102
RTVSPost2010Prop44ColorIndex
 90
        5
102
RTVSPost2010Prop44ColorRGB
 90
      255
102
RTVSPost2010PropOp44
 70
     1
102
RTVSPost2010Prop45
280
     0
102
RTVSPost2010PropOp45
 70
     1
102
RTVSPost2010Prop46
 90
       50
102
RTVSPost2010PropOp46
 70
     1
102
RTVSPost2010Prop47
 90
       50
102
RTVSPost2010PropOp47
 70
     1
102
RTVSPost2010Prop48
 90
       50
102
RTVSPost2010PropOp48
 70
     1
102
RTVSPost2010Prop49
280
     0
102
RTVSPost2010PropOp49
 70
     1
102
RTVSPost2010Prop50
 90
       50
102
RTVSPost2010PropOp50
 70
     1
102
RTVSPost2010Prop51ColorIndex
 90
      256
102
RTVSPost2010Prop51ColorRGB
 90
-16777216
102
RTVSPost2010PropOp51
 70
     0
102
RTVSPost2010Prop52
140
1.0
102
RTVSPost2010PropOp52
 70
     0
102
RTVSPost2010Prop53
 90
        2
102
RTVSPost2010PropOp53
 70
     1
102
RTVSPost2010Prop54
  1
strokes_ogs.tif
102
RTVSPost2010PropOp54
 70
     1
102
RTVSPost2010Prop55
280
     0
102
RTVSPost2010PropOp55
 70
     1
102
RTVSPost2010Prop56
140
1.0
102
RTVSPost2010PropOp56
 70
     1
102
RTVSPost2010Prop57
140
1.0
102
RTVSPost2010PropOp57
 70
     1
102
RTVSPropertyOp0
 70
     1
102
RTVSPropertyOp1
 70
     1
102
RTVSPropertyOp2
 70
     1
102
RTVSPropertyOp3
 70
     1
102
RTVSPropertyOp4
 70
     1
102
RTVSPropertyOp5
 70
     1
102
RTVSPropertyOp6
 70
     1
102
RTVSPropertyOp7
 70
     1
102
RTVSPropertyOp8
 70
     1
102
RTVSPropertyOp9
 70
     1
102
RTVSPropertyOp10
 70
     1
102
RTVSPropertyOp11
 70
     1
102
RTVSPropertyOp12
 70
     1
102
RTVSPropertyOp13
 70
     1
102
RTVSPropertyOp14
 70
     1
102
RTVSPropertyOp15
 70
     1
102
RTVSPropertyOp16
 70
     1
102
RTVSPropertyOp17
 70
     1
102
RTVSPropertyOp18
 70
     1
102
RTVSPropertyOp19
 70
     1
102
RTVSPropertyOp20
 70
     1
102
RTVSPropertyOp21
 70
     1
102
RTVSPropertyOp22
 70
     1
102
RTVSPropertyOp23
 70
     1
102
RTVSPropertyOp24
 70
     1
102
RTVSPropertyOp25
 70
     1
102
RTVSPropertyOp26
 70
     1
102
RTVSPropertyOp27
 70
     1
102
RTVSPropertyOp28
 70
     1
102
RTVSPropertyOp29
 70
     1
102
RTVSPropertyOp30
 70
     1
102
RTVSPropertyOp31
 70
     1
102
RTVSPropertyOp32
 70
     1
102
RTVSPropertyOp33
 70
     1
102
RTVSPropertyOp34
 70
     1
102
RTVSPropertyOp35
 70
     1
102
RTVSPropertyOp36
 70
     1
102
RTVSPropertyOp37
 70
     1
102
RTVSPropertyOp38
 70
     1
102
RTVSPropertyOp39
 70
     1
102
RTVSPropertyOp40
 70
     1
102
RTVSPropertyOp41
 70
     1
102
RTVSPropertyOp42
 70
     1
102
RTVSPropertyOp43
 70
     1
102
RTVSPropertyOp44
 70
     1
102
RTVSPropertyOp45
 70
     1
102
RTVSPropertyOp46
 70
     1
102
RTVSPropertyOp47
 70
     1
102
RTVSPropertyOp48
 70
     1
102
RTVSPropertyOp49
 70
     1
102
RTVSPropertyOp50
 70
     1
102
RTVSPropertyOp51
 70
     0
102
RTVSPropertyOp52
 70
     0
102
RTVSPropertyOp53
 70
     1
102
RTVSPropertyOp54
 70
     1
102
RTVSPropertyOp55
 70
     1
102
RTVSPropertyOp56
 70
     1
102
RTVSPropertyOp57
 70
     1
102
RTVSPropertyOp58
 70
     1
102
RTVSPropertyOp59
 70
     1
102
RTVSPropertyOp60
 70
     1
102
RTVSPropertyOp61
 70
     1
102
RTVSPropertyOp62
 70
     1
  0
XRECORD
  5
399
102
{ACAD_REACTORS
330
398
102
}
330
398
100
AcDbXrecord
280
     1
102
RTVSPost2010Prop28
280
     0
102
RTVSPost2010PropOp28
 70
     1
102
RTVSPost2010Prop29
280
     1
102
RTVSPost2010PropOp29
 70
     1
102
RTVSPost2010Prop30
280
     1
102
RTVSPost2010PropOp30
 70
     1
102
RTVSPost2010Prop31
280
     0
102
RTVSPost2010PropOp31
 70
     1
102
RTVSPost2010Prop32
280
     0
102
RTVSPost2010PropOp32
 70
     1
102
RTVSPost2010Prop33
280
     0
102
RTVSPost2010PropOp33
 70
     1
102
RTVSPost2010Prop34
280
     0
102
RTVSPost2010PropOp34
 70
     1
102
RTVSPost2010Prop35
280
     0
102
RTVSPost2010PropOp35
 70
     1
102
RTVSPost2010Prop36
280
     0
102
RTVSPost2010PropOp36
 70
     1
102
RTVSPost2010Prop37
 90
       50
102
RTVSPost2010PropOp37
 70
     1
102
RTVSPost2010Prop38
140
0.0
102
RTVSPost2010PropOp38
 70
     1
102
RTVSPost2010Prop39
140
1.0
102
RTVSPost2010PropOp39
 70
     1
102
RTVSPost2010Prop40
 90
        0
102
RTVSPost2010PropOp40
 70
     1
102
RTVSPost2010Prop41ColorIndex
 90
       18
102
RTVSPost2010Prop41ColorRGB
 90
        0
102
RTVSPost2010PropOp41
 70
     1
102
RTVSPost2010Prop42
 90
       50
102
RTVSPost2010PropOp42
 70
     1
102
RTVSPost2010Prop43
 90
        3
102
RTVSPost2010PropOp43
 70
     1
102
RTVSPost2010Prop44ColorIndex
 90
        5
102
RTVSPost2010Prop44ColorRGB
 90
      255
102
RTVSPost2010PropOp44
 70
     1
102
RTVSPost2010Prop45
280
     0
102
RTVSPost2010PropOp45
 70
     1
102
RTVSPost2010Prop46
 90
       50
102
RTVSPost2010PropOp46
 70
     1
102
RTVSPost2010Prop47
 90
       50
102
RTVSPost2010PropOp47
 70
     1
102
RTVSPost2010Prop48
 90
       50
102
RTVSPost2010PropOp48
 70
     1
102
RTVSPost2010Prop49
280
     0
102
RTVSPost2010PropOp49
 70
     1
102
RTVSPost2010Prop50
 90
       50
102
RTVSPost2010PropOp50
 70
     1
102
RTVSPost2010Prop51ColorIndex
 90
      256
102
RTVSPost2010Prop51ColorRGB
 90
-16777216
102
RTVSPost2010PropOp51
 70
     0
102
RTVSPost2010Prop52
140
1.0
102
RTVSPost2010PropOp52
 70
     0
102
RTVSPost2010Prop53
 90
        2
102
RTVSPost2010PropOp53
 70
     1
102
RTVSPost2010Prop54
  1
strokes_ogs.tif
102
RTVSPost2010PropOp54
 70
     1
102
RTVSPost2010Prop55
280
     0
102
RTVSPost2010PropOp55
 70
     1
102
RTVSPost2010Prop56
140
1.0
102
RTVSPost2010PropOp56
 70
     1
102
RTVSPost2010Prop57
140
1.0
102
RTVSPost2010PropOp57
 70
     1
102
RTVSPropertyOp0
 70
     1
102
RTVSPropertyOp1
 70
     1
102
RTVSPropertyOp2
 70
     1
102
RTVSPropertyOp3
 70
     1
102
RTVSPropertyOp4
 70
     1
102
RTVSPropertyOp5
 70
     1
102
RTVSPropertyOp6
 70
     1
102
RTVSPropertyOp7
 70
     1
102
RTVSPropertyOp8
 70
     1
102
RTVSPropertyOp9
 70
     1
102
RTVSPropertyOp10
 70
     1
102
RTVSPropertyOp11
 70
     1
102
RTVSPropertyOp12
 70
     1
102
RTVSPropertyOp13
 70
     1
102
RTVSPropertyOp14
 70
     1
102
RTVSPropertyOp15
 70
     1
102
RTVSPropertyOp16
 70
     1
102
RTVSPropertyOp17
 70
     1
102
RTVSPropertyOp18
 70
     1
102
RTVSPropertyOp19
 70
     1
102
RTVSPropertyOp20
 70
     1
102
RTVSPropertyOp21
 70
     1
102
RTVSPropertyOp22
 70
     1
102
RTVSPropertyOp23
 70
     1
102
RTVSPropertyOp24
 70
     1
102
RTVSPropertyOp25
 70
     1
102
RTVSPropertyOp26
 70
     1
102
RTVSPropertyOp27
 70
     1
102
RTVSPropertyOp28
 70
     1
102
RTVSPropertyOp29
 70
     1
102
RTVSPropertyOp30
 70
     1
102
RTVSPropertyOp31
 70
     1
102
RTVSPropertyOp32
 70
     1
102
RTVSPropertyOp33
 70
     1
102
RTVSPropertyOp34
 70
     1
102
RTVSPropertyOp35
 70
     1
102
RTVSPropertyOp36
 70
     1
102
RTVSPropertyOp37
 70
     1
102
RTVSPropertyOp38
 70
     1
102
RTVSPropertyOp39
 70
     1
102
RTVSPropertyOp40
 70
     1
102
RTVSPropertyOp41
 70
     1
102
RTVSPropertyOp42
 70
     1
102
RTVSPropertyOp43
 70
     1
102
RTVSPropertyOp44
 70
     1
102
RTVSPropertyOp45
 70
     1
102
RTVSPropertyOp46
 70
     1
102
RTVSPropertyOp47
 70
     1
102
RTVSPropertyOp48
 70
     1
102
RTVSPropertyOp49
 70
     1
102
RTVSPropertyOp50
 70
     1
102
RTVSPropertyOp51
 70
     0
102
RTVSPropertyOp52
 70
     0
102
RTVSPropertyOp53
 70
     1
102
RTVSPropertyOp54
 70
     1
102
RTVSPropertyOp55
 70
     1
102
RTVSPropertyOp56
 70
     1
102
RTVSPropertyOp57
 70
     1
102
RTVSPropertyOp58
 70
     1
102
RTVSPropertyOp59
 70
     1
102
RTVSPropertyOp60
 70
     1
102
RTVSPropertyOp61
 70
     1
102
RTVSPropertyOp62
 70
     1
  0
XRECORD
  5
393
102
{ACAD_REACTORS
330
392
102
}
330
392
100
AcDbXrecord
280
     1
102
RTVSPost2010Prop28
280
     0
102
RTVSPost2010PropOp28
 70
     1
102
RTVSPost2010Prop29
280
     1
102
RTVSPost2010PropOp29
 70
     1
102
RTVSPost2010Prop30
280
     1
102
RTVSPost2010PropOp30
 70
     1
102
RTVSPost2010Prop31
280
     0
102
RTVSPost2010PropOp31
 70
     1
102
RTVSPost2010Prop32
280
     0
102
RTVSPost2010PropOp32
 70
     1
102
RTVSPost2010Prop33
280
     0
102
RTVSPost2010PropOp33
 70
     1
102
RTVSPost2010Prop34
280
     0
102
RTVSPost2010PropOp34
 70
     1
102
RTVSPost2010Prop35
280
     0
102
RTVSPost2010PropOp35
 70
     1
102
RTVSPost2010Prop36
280
     0
102
RTVSPost2010PropOp36
 70
     1
102
RTVSPost2010Prop37
 90
       50
102
RTVSPost2010PropOp37
 70
     1
102
RTVSPost2010Prop38
140
0.0
102
RTVSPost2010PropOp38
 70
     1
102
RTVSPost2010Prop39
140
1.0
102
RTVSPost2010PropOp39
 70
     1
102
RTVSPost2010Prop40
 90
        0
102
RTVSPost2010PropOp40
 70
     1
102
RTVSPost2010Prop41ColorIndex
 90
       18
102
RTVSPost2010Prop41ColorRGB
 90
        0
102
RTVSPost2010PropOp41
 70
     1
102
RTVSPost2010Prop42
 90
       50
102
RTVSPost2010PropOp42
 70
     1
102
RTVSPost2010Prop43
 90
        3
102
RTVSPost2010PropOp43
 70
     1
102
RTVSPost2010Prop44ColorIndex
 90
        5
102
RTVSPost2010Prop44ColorRGB
 90
      255
102
RTVSPost2010PropOp44
 70
     1
102
RTVSPost2010Prop45
280
     0
102
RTVSPost2010PropOp45
 70
     1
102
RTVSPost2010Prop46
 90
       50
102
RTVSPost2010PropOp46
 70
     1
102
RTVSPost2010Prop47
 90
       50
102
RTVSPost2010PropOp47
 70
     1
102
RTVSPost2010Prop48
 90
       50
102
RTVSPost2010PropOp48
 70
     1
102
RTVSPost2010Prop49
280
     0
102
RTVSPost2010PropOp49
 70
     1
102
RTVSPost2010Prop50
 90
       50
102
RTVSPost2010PropOp50
 70
     1
102
RTVSPost2010Prop51ColorIndex
 90
      256
102
RTVSPost2010Prop51ColorRGB
 90
-16777216
102
RTVSPost2010PropOp51
 70
     0
102
RTVSPost2010Prop52
140
1.0
102
RTVSPost2010PropOp52
 70
     0
102
RTVSPost2010Prop53
 90
        2
102
RTVSPost2010PropOp53
 70
     1
102
RTVSPost2010Prop54
  1
strokes_ogs.tif
102
RTVSPost2010PropOp54
 70
     1
102
RTVSPost2010Prop55
280
     0
102
RTVSPost2010PropOp55
 70
     1
102
RTVSPost2010Prop56
140
1.0
102
RTVSPost2010PropOp56
 70
     1
102
RTVSPost2010Prop57
140
1.0
102
RTVSPost2010PropOp57
 70
     1
102
RTVSPropertyOp0
 70
     1
102
RTVSPropertyOp1
 70
     1
102
RTVSPropertyOp2
 70
     1
102
RTVSPropertyOp3
 70
     1
102
RTVSPropertyOp4
 70
     1
102
RTVSPropertyOp5
 70
     1
102
RTVSPropertyOp6
 70
     1
102
RTVSPropertyOp7
 70
     1
102
RTVSPropertyOp8
 70
     1
102
RTVSPropertyOp9
 70
     1
102
RTVSPropertyOp10
 70
     1
102
RTVSPropertyOp11
 70
     1
102
RTVSPropertyOp12
 70
     1
102
RTVSPropertyOp13
 70
     1
102
RTVSPropertyOp14
 70
     1
102
RTVSPropertyOp15
 70
     1
102
RTVSPropertyOp16
 70
     1
102
RTVSPropertyOp17
 70
     1
102
RTVSPropertyOp18
 70
     1
102
RTVSPropertyOp19
 70
     1
102
RTVSPropertyOp20
 70
     1
102
RTVSPropertyOp21
 70
     1
102
RTVSPropertyOp22
 70
     1
102
RTVSPropertyOp23
 70
     1
102
RTVSPropertyOp24
 70
     1
102
RTVSPropertyOp25
 70
     1
102
RTVSPropertyOp26
 70
     1
102
RTVSPropertyOp27
 70
     1
102
RTVSPropertyOp28
 70
     1
102
RTVSPropertyOp29
 70
     1
102
RTVSPropertyOp30
 70
     1
102
RTVSPropertyOp31
 70
     1
102
RTVSPropertyOp32
 70
     1
102
RTVSPropertyOp33
 70
     1
102
RTVSPropertyOp34
 70
     1
102
RTVSPropertyOp35
 70
     1
102
RTVSPropertyOp36
 70
     1
102
RTVSPropertyOp37
 70
     1
102
RTVSPropertyOp38
 70
     1
102
RTVSPropertyOp39
 70
     1
102
RTVSPropertyOp40
 70
     1
102
RTVSPropertyOp41
 70
     1
102
RTVSPropertyOp42
 70
     1
102
RTVSPropertyOp43
 70
     1
102
RTVSPropertyOp44
 70
     1
102
RTVSPropertyOp45
 70
     1
102
RTVSPropertyOp46
 70
     1
102
RTVSPropertyOp47
 70
     1
102
RTVSPropertyOp48
 70
     1
102
RTVSPropertyOp49
 70
     1
102
RTVSPropertyOp50
 70
     1
102
RTVSPropertyOp51
 70
     0
102
RTVSPropertyOp52
 70
     0
102
RTVSPropertyOp53
 70
     1
102
RTVSPropertyOp54
 70
     1
102
RTVSPropertyOp55
 70
     1
102
RTVSPropertyOp56
 70
     1
102
RTVSPropertyOp57
 70
     1
102
RTVSPropertyOp58
 70
     1
102
RTVSPropertyOp59
 70
     1
102
RTVSPropertyOp60
 70
     1
102
RTVSPropertyOp61
 70
     1
102
RTVSPropertyOp62
 70
     1
  0
XRECORD
  5
395
102
{ACAD_REACTORS
330
394
102
}
330
394
100
AcDbXrecord
280
     1
102
RTVSPost2010Prop28
280
     0
102
RTVSPost2010PropOp28
 70
     1
102
RTVSPost2010Prop29
280
     1
102
RTVSPost2010PropOp29
 70
     1
102
RTVSPost2010Prop30
280
     1
102
RTVSPost2010PropOp30
 70
     1
102
RTVSPost2010Prop31
280
     0
102
RTVSPost2010PropOp31
 70
     1
102
RTVSPost2010Prop32
280
     0
102
RTVSPost2010PropOp32
 70
     1
102
RTVSPost2010Prop33
280
     0
102
RTVSPost2010PropOp33
 70
     1
102
RTVSPost2010Prop34
280
     0
102
RTVSPost2010PropOp34
 70
     1
102
RTVSPost2010Prop35
280
     0
102
RTVSPost2010PropOp35
 70
     1
102
RTVSPost2010Prop36
280
     0
102
RTVSPost2010PropOp36
 70
     1
102
RTVSPost2010Prop37
 90
       50
102
RTVSPost2010PropOp37
 70
     1
102
RTVSPost2010Prop38
140
0.0
102
RTVSPost2010PropOp38
 70
     1
102
RTVSPost2010Prop39
140
1.0
102
RTVSPost2010PropOp39
 70
     1
102
RTVSPost2010Prop40
 90
        0
102
RTVSPost2010PropOp40
 70
     1
102
RTVSPost2010Prop41ColorIndex
 90
       18
102
RTVSPost2010Prop41ColorRGB
 90
        0
102
RTVSPost2010PropOp41
 70
     1
102
RTVSPost2010Prop42
 90
       50
102
RTVSPost2010PropOp42
 70
     1
102
RTVSPost2010Prop43
 90
        3
102
RTVSPost2010PropOp43
 70
     1
102
RTVSPost2010Prop44ColorIndex
 90
        5
102
RTVSPost2010Prop44ColorRGB
 90
      255
102
RTVSPost2010PropOp44
 70
     1
102
RTVSPost2010Prop45
280
     0
102
RTVSPost2010PropOp45
 70
     1
102
RTVSPost2010Prop46
 90
       50
102
RTVSPost2010PropOp46
 70
     1
102
RTVSPost2010Prop47
 90
       50
102
RTVSPost2010PropOp47
 70
     1
102
RTVSPost2010Prop48
 90
       50
102
RTVSPost2010PropOp48
 70
     1
102
RTVSPost2010Prop49
280
     0
102
RTVSPost2010PropOp49
 70
     1
102
RTVSPost2010Prop50
 90
       50
102
RTVSPost2010PropOp50
 70
     1
102
RTVSPost2010Prop51ColorIndex
 90
      256
102
RTVSPost2010Prop51ColorRGB
 90
-16777216
102
RTVSPost2010PropOp51
 70
     0
102
RTVSPost2010Prop52
140
1.0
102
RTVSPost2010PropOp52
 70
     0
102
RTVSPost2010Prop53
 90
        2
102
RTVSPost2010PropOp53
 70
     1
102
RTVSPost2010Prop54
  1
strokes_ogs.tif
102
RTVSPost2010PropOp54
 70
     1
102
RTVSPost2010Prop55
280
     0
102
RTVSPost2010PropOp55
 70
     1
102
RTVSPost2010Prop56
140
1.0
102
RTVSPost2010PropOp56
 70
     1
102
RTVSPost2010Prop57
140
1.0
102
RTVSPost2010PropOp57
 70
     1
102
RTVSPropertyOp0
 70
     1
102
RTVSPropertyOp1
 70
     1
102
RTVSPropertyOp2
 70
     1
102
RTVSPropertyOp3
 70
     1
102
RTVSPropertyOp4
 70
     1
102
RTVSPropertyOp5
 70
     1
102
RTVSPropertyOp6
 70
     1
102
RTVSPropertyOp7
 70
     1
102
RTVSPropertyOp8
 70
     1
102
RTVSPropertyOp9
 70
     1
102
RTVSPropertyOp10
 70
     1
102
RTVSPropertyOp11
 70
     1
102
RTVSPropertyOp12
 70
     1
102
RTVSPropertyOp13
 70
     1
102
RTVSPropertyOp14
 70
     1
102
RTVSPropertyOp15
 70
     1
102
RTVSPropertyOp16
 70
     1
102
RTVSPropertyOp17
 70
     1
102
RTVSPropertyOp18
 70
     1
102
RTVSPropertyOp19
 70
     1
102
RTVSPropertyOp20
 70
     1
102
RTVSPropertyOp21
 70
     1
102
RTVSPropertyOp22
 70
     1
102
RTVSPropertyOp23
 70
     1
102
RTVSPropertyOp24
 70
     1
102
RTVSPropertyOp25
 70
     1
102
RTVSPropertyOp26
 70
     1
102
RTVSPropertyOp27
 70
     1
102
RTVSPropertyOp28
 70
     1
102
RTVSPropertyOp29
 70
     1
102
RTVSPropertyOp30
 70
     1
102
RTVSPropertyOp31
 70
     1
102
RTVSPropertyOp32
 70
     1
102
RTVSPropertyOp33
 70
     1
102
RTVSPropertyOp34
 70
     1
102
RTVSPropertyOp35
 70
     1
102
RTVSPropertyOp36
 70
     1
102
RTVSPropertyOp37
 70
     1
102
RTVSPropertyOp38
 70
     1
102
RTVSPropertyOp39
 70
     1
102
RTVSPropertyOp40
 70
     1
102
RTVSPropertyOp41
 70
     1
102
RTVSPropertyOp42
 70
     1
102
RTVSPropertyOp43
 70
     1
102
RTVSPropertyOp44
 70
     1
102
RTVSPropertyOp45
 70
     1
102
RTVSPropertyOp46
 70
     1
102
RTVSPropertyOp47
 70
     1
102
RTVSPropertyOp48
 70
     1
102
RTVSPropertyOp49
 70
     1
102
RTVSPropertyOp50
 70
     1
102
RTVSPropertyOp51
 70
     0
102
RTVSPropertyOp52
 70
     0
102
RTVSPropertyOp53
 70
     1
102
RTVSPropertyOp54
 70
     1
102
RTVSPropertyOp55
 70
     1
102
RTVSPropertyOp56
 70
     1
102
RTVSPropertyOp57
 70
     1
102
RTVSPropertyOp58
 70
     1
102
RTVSPropertyOp59
 70
     1
102
RTVSPropertyOp60
 70
     1
102
RTVSPropertyOp61
 70
     1
102
RTVSPropertyOp62
 70
     1
  0
XRECORD
  5
385
102
{ACAD_REACTORS
330
384
102
}
330
384
100
AcDbXrecord
280
     1
102
RTVSPost2010Prop28
280
     0
102
RTVSPost2010PropOp28
 70
     1
102
RTVSPost2010Prop29
280
     1
102
RTVSPost2010PropOp29
 70
     1
102
RTVSPost2010Prop30
280
     1
102
RTVSPost2010PropOp30
 70
     1
102
RTVSPost2010Prop31
280
     0
102
RTVSPost2010PropOp31
 70
     1
102
RTVSPost2010Prop32
280
     0
102
RTVSPost2010PropOp32
 70
     1
102
RTVSPost2010Prop33
280
     0
102
RTVSPost2010PropOp33
 70
     1
102
RTVSPost2010Prop34
280
     0
102
RTVSPost2010PropOp34
 70
     1
102
RTVSPost2010Prop35
280
     0
102
RTVSPost2010PropOp35
 70
     1
102
RTVSPost2010Prop36
280
     0
102
RTVSPost2010PropOp36
 70
     1
102
RTVSPost2010Prop37
 90
       50
102
RTVSPost2010PropOp37
 70
     1
102
RTVSPost2010Prop38
140
0.0
102
RTVSPost2010PropOp38
 70
     1
102
RTVSPost2010Prop39
140
1.0
102
RTVSPost2010PropOp39
 70
     1
102
RTVSPost2010Prop40
 90
        0
102
RTVSPost2010PropOp40
 70
     1
102
RTVSPost2010Prop41ColorIndex
 90
       18
102
RTVSPost2010Prop41ColorRGB
 90
        0
102
RTVSPost2010PropOp41
 70
     1
102
RTVSPost2010Prop42
 90
       50
102
RTVSPost2010PropOp42
 70
     1
102
RTVSPost2010Prop43
 90
        3
102
RTVSPost2010PropOp43
 70
     1
102
RTVSPost2010Prop44ColorIndex
 90
        5
102
RTVSPost2010Prop44ColorRGB
 90
      255
102
RTVSPost2010PropOp44
 70
     1
102
RTVSPost2010Prop45
280
     0
102
RTVSPost2010PropOp45
 70
     1
102
RTVSPost2010Prop46
 90
       50
102
RTVSPost2010PropOp46
 70
     1
102
RTVSPost2010Prop47
 90
       50
102
RTVSPost2010PropOp47
 70
     1
102
RTVSPost2010Prop48
 90
       50
102
RTVSPost2010PropOp48
 70
     1
102
RTVSPost2010Prop49
280
     0
102
RTVSPost2010PropOp49
 70
     1
102
RTVSPost2010Prop50
 90
       50
102
RTVSPost2010PropOp50
 70
     1
102
RTVSPost2010Prop51ColorIndex
 90
      256
102
RTVSPost2010Prop51ColorRGB
 90
-16777216
102
RTVSPost2010PropOp51
 70
     0
102
RTVSPost2010Prop52
140
1.0
102
RTVSPost2010PropOp52
 70
     0
102
RTVSPost2010Prop53
 90
        2
102
RTVSPost2010PropOp53
 70
     1
102
RTVSPost2010Prop54
  1
strokes_ogs.tif
102
RTVSPost2010PropOp54
 70
     1
102
RTVSPost2010Prop55
280
     0
102
RTVSPost2010PropOp55
 70
     1
102
RTVSPost2010Prop56
140
1.0
102
RTVSPost2010PropOp56
 70
     1
102
RTVSPost2010Prop57
140
1.0
102
RTVSPost2010PropOp57
 70
     1
102
RTVSPropertyOp0
 70
     1
102
RTVSPropertyOp1
 70
     1
102
RTVSPropertyOp2
 70
     1
102
RTVSPropertyOp3
 70
     1
102
RTVSPropertyOp4
 70
     1
102
RTVSPropertyOp5
 70
     1
102
RTVSPropertyOp6
 70
     1
102
RTVSPropertyOp7
 70
     1
102
RTVSPropertyOp8
 70
     1
102
RTVSPropertyOp9
 70
     1
102
RTVSPropertyOp10
 70
     1
102
RTVSPropertyOp11
 70
     1
102
RTVSPropertyOp12
 70
     1
102
RTVSPropertyOp13
 70
     1
102
RTVSPropertyOp14
 70
     1
102
RTVSPropertyOp15
 70
     1
102
RTVSPropertyOp16
 70
     1
102
RTVSPropertyOp17
 70
     1
102
RTVSPropertyOp18
 70
     1
102
RTVSPropertyOp19
 70
     1
102
RTVSPropertyOp20
 70
     1
102
RTVSPropertyOp21
 70
     1
102
RTVSPropertyOp22
 70
     1
102
RTVSPropertyOp23
 70
     1
102
RTVSPropertyOp24
 70
     1
102
RTVSPropertyOp25
 70
     1
102
RTVSPropertyOp26
 70
     1
102
RTVSPropertyOp27
 70
     1
102
RTVSPropertyOp28
 70
     1
102
RTVSPropertyOp29
 70
     1
102
RTVSPropertyOp30
 70
     1
102
RTVSPropertyOp31
 70
     1
102
RTVSPropertyOp32
 70
     1
102
RTVSPropertyOp33
 70
     1
102
RTVSPropertyOp34
 70
     1
102
RTVSPropertyOp35
 70
     1
102
RTVSPropertyOp36
 70
     1
102
RTVSPropertyOp37
 70
     1
102
RTVSPropertyOp38
 70
     1
102
RTVSPropertyOp39
 70
     1
102
RTVSPropertyOp40
 70
     1
102
RTVSPropertyOp41
 70
     1
102
RTVSPropertyOp42
 70
     1
102
RTVSPropertyOp43
 70
     1
102
RTVSPropertyOp44
 70
     1
102
RTVSPropertyOp45
 70
     1
102
RTVSPropertyOp46
 70
     1
102
RTVSPropertyOp47
 70
     1
102
RTVSPropertyOp48
 70
     1
102
RTVSPropertyOp49
 70
     1
102
RTVSPropertyOp50
 70
     1
102
RTVSPropertyOp51
 70
     0
102
RTVSPropertyOp52
 70
     0
102
RTVSPropertyOp53
 70
     1
102
RTVSPropertyOp54
 70
     1
102
RTVSPropertyOp55
 70
     1
102
RTVSPropertyOp56
 70
     1
102
RTVSPropertyOp57
 70
     1
102
RTVSPropertyOp58
 70
     1
102
RTVSPropertyOp59
 70
     1
102
RTVSPropertyOp60
 70
     1
102
RTVSPropertyOp61
 70
     1
102
RTVSPropertyOp62
 70
     1
  0
XRECORD
  5
377
102
{ACAD_REACTORS
330
376
102
}
330
376
100
AcDbXrecord
280
     1
102
RTVSPost2010Prop28
280
     0
102
RTVSPost2010PropOp28
 70
     1
102
RTVSPost2010Prop29
280
     1
102
RTVSPost2010PropOp29
 70
     1
102
RTVSPost2010Prop30
280
     1
102
RTVSPost2010PropOp30
 70
     1
102
RTVSPost2010Prop31
280
     0
102
RTVSPost2010PropOp31
 70
     1
102
RTVSPost2010Prop32
280
     0
102
RTVSPost2010PropOp32
 70
     1
102
RTVSPost2010Prop33
280
     0
102
RTVSPost2010PropOp33
 70
     1
102
RTVSPost2010Prop34
280
     0
102
RTVSPost2010PropOp34
 70
     1
102
RTVSPost2010Prop35
280
     0
102
RTVSPost2010PropOp35
 70
     1
102
RTVSPost2010Prop36
280
     0
102
RTVSPost2010PropOp36
 70
     1
102
RTVSPost2010Prop37
 90
       50
102
RTVSPost2010PropOp37
 70
     1
102
RTVSPost2010Prop38
140
0.0
102
RTVSPost2010PropOp38
 70
     1
102
RTVSPost2010Prop39
140
1.0
102
RTVSPost2010PropOp39
 70
     1
102
RTVSPost2010Prop40
 90
        0
102
RTVSPost2010PropOp40
 70
     1
102
RTVSPost2010Prop41ColorIndex
 90
       18
102
RTVSPost2010Prop41ColorRGB
 90
        0
102
RTVSPost2010PropOp41
 70
     1
102
RTVSPost2010Prop42
 90
       50
102
RTVSPost2010PropOp42
 70
     1
102
RTVSPost2010Prop43
 90
        3
102
RTVSPost2010PropOp43
 70
     1
102
RTVSPost2010Prop44ColorIndex
 90
        5
102
RTVSPost2010Prop44ColorRGB
 90
      255
102
RTVSPost2010PropOp44
 70
     1
102
RTVSPost2010Prop45
280
     0
102
RTVSPost2010PropOp45
 70
     1
102
RTVSPost2010Prop46
 90
       50
102
RTVSPost2010PropOp46
 70
     1
102
RTVSPost2010Prop47
 90
       50
102
RTVSPost2010PropOp47
 70
     1
102
RTVSPost2010Prop48
 90
       50
102
RTVSPost2010PropOp48
 70
     1
102
RTVSPost2010Prop49
280
     0
102
RTVSPost2010PropOp49
 70
     1
102
RTVSPost2010Prop50
 90
       50
102
RTVSPost2010PropOp50
 70
     1
102
RTVSPost2010Prop51ColorIndex
 90
      256
102
RTVSPost2010Prop51ColorRGB
 90
-16777216
102
RTVSPost2010PropOp51
 70
     0
102
RTVSPost2010Prop52
140
1.0
102
RTVSPost2010PropOp52
 70
     0
102
RTVSPost2010Prop53
 90
        2
102
RTVSPost2010PropOp53
 70
     1
102
RTVSPost2010Prop54
  1
strokes_ogs.tif
102
RTVSPost2010PropOp54
 70
     1
102
RTVSPost2010Prop55
280
     0
102
RTVSPost2010PropOp55
 70
     1
102
RTVSPost2010Prop56
140
1.0
102
RTVSPost2010PropOp56
 70
     1
102
RTVSPost2010Prop57
140
1.0
102
RTVSPost2010PropOp57
 70
     1
102
RTVSPropertyOp0
 70
     1
102
RTVSPropertyOp1
 70
     1
102
RTVSPropertyOp2
 70
     1
102
RTVSPropertyOp3
 70
     1
102
RTVSPropertyOp4
 70
     1
102
RTVSPropertyOp5
 70
     1
102
RTVSPropertyOp6
 70
     1
102
RTVSPropertyOp7
 70
     1
102
RTVSPropertyOp8
 70
     1
102
RTVSPropertyOp9
 70
     1
102
RTVSPropertyOp10
 70
     1
102
RTVSPropertyOp11
 70
     1
102
RTVSPropertyOp12
 70
     1
102
RTVSPropertyOp13
 70
     1
102
RTVSPropertyOp14
 70
     1
102
RTVSPropertyOp15
 70
     1
102
RTVSPropertyOp16
 70
     1
102
RTVSPropertyOp17
 70
     1
102
RTVSPropertyOp18
 70
     1
102
RTVSPropertyOp19
 70
     1
102
RTVSPropertyOp20
 70
     1
102
RTVSPropertyOp21
 70
     1
102
RTVSPropertyOp22
 70
     1
102
RTVSPropertyOp23
 70
     1
102
RTVSPropertyOp24
 70
     1
102
RTVSPropertyOp25
 70
     1
102
RTVSPropertyOp26
 70
     1
102
RTVSPropertyOp27
 70
     1
102
RTVSPropertyOp28
 70
     1
102
RTVSPropertyOp29
 70
     1
102
RTVSPropertyOp30
 70
     1
102
RTVSPropertyOp31
 70
     1
102
RTVSPropertyOp32
 70
     1
102
RTVSPropertyOp33
 70
     1
102
RTVSPropertyOp34
 70
     1
102
RTVSPropertyOp35
 70
     1
102
RTVSPropertyOp36
 70
     1
102
RTVSPropertyOp37
 70
     1
102
RTVSPropertyOp38
 70
     1
102
RTVSPropertyOp39
 70
     1
102
RTVSPropertyOp40
 70
     1
102
RTVSPropertyOp41
 70
     1
102
RTVSPropertyOp42
 70
     1
102
RTVSPropertyOp43
 70
     1
102
RTVSPropertyOp44
 70
     1
102
RTVSPropertyOp45
 70
     1
102
RTVSPropertyOp46
 70
     1
102
RTVSPropertyOp47
 70
     1
102
RTVSPropertyOp48
 70
     1
102
RTVSPropertyOp49
 70
     1
102
RTVSPropertyOp50
 70
     1
102
RTVSPropertyOp51
 70
     0
102
RTVSPropertyOp52
 70
     0
102
RTVSPropertyOp53
 70
     1
102
RTVSPropertyOp54
 70
     1
102
RTVSPropertyOp55
 70
     1
102
RTVSPropertyOp56
 70
     1
102
RTVSPropertyOp57
 70
     1
102
RTVSPropertyOp58
 70
     1
102
RTVSPropertyOp59
 70
     1
102
RTVSPropertyOp60
 70
     1
102
RTVSPropertyOp61
 70
     1
102
RTVSPropertyOp62
 70
     1
  0
XRECORD
  5
397
102
{ACAD_REACTORS
330
396
102
}
330
396
100
AcDbXrecord
280
     1
102
RTVSPost2010Prop28
280
     0
102
RTVSPost2010PropOp28
 70
     1
102
RTVSPost2010Prop29
280
     1
102
RTVSPost2010PropOp29
 70
     1
102
RTVSPost2010Prop30
280
     1
102
RTVSPost2010PropOp30
 70
     1
102
RTVSPost2010Prop31
280
     0
102
RTVSPost2010PropOp31
 70
     1
102
RTVSPost2010Prop32
280
     0
102
RTVSPost2010PropOp32
 70
     1
102
RTVSPost2010Prop33
280
     0
102
RTVSPost2010PropOp33
 70
     1
102
RTVSPost2010Prop34
280
     0
102
RTVSPost2010PropOp34
 70
     1
102
RTVSPost2010Prop35
280
     0
102
RTVSPost2010PropOp35
 70
     1
102
RTVSPost2010Prop36
280
     0
102
RTVSPost2010PropOp36
 70
     1
102
RTVSPost2010Prop37
 90
       50
102
RTVSPost2010PropOp37
 70
     1
102
RTVSPost2010Prop38
140
0.0
102
RTVSPost2010PropOp38
 70
     1
102
RTVSPost2010Prop39
140
1.0
102
RTVSPost2010PropOp39
 70
     1
102
RTVSPost2010Prop40
 90
        0
102
RTVSPost2010PropOp40
 70
     1
102
RTVSPost2010Prop41ColorIndex
 90
       18
102
RTVSPost2010Prop41ColorRGB
 90
        0
102
RTVSPost2010PropOp41
 70
     1
102
RTVSPost2010Prop42
 90
       50
102
RTVSPost2010PropOp42
 70
     1
102
RTVSPost2010Prop43
 90
        3
102
RTVSPost2010PropOp43
 70
     1
102
RTVSPost2010Prop44ColorIndex
 90
        5
102
RTVSPost2010Prop44ColorRGB
 90
      255
102
RTVSPost2010PropOp44
 70
     1
102
RTVSPost2010Prop45
280
     0
102
RTVSPost2010PropOp45
 70
     1
102
RTVSPost2010Prop46
 90
       50
102
RTVSPost2010PropOp46
 70
     1
102
RTVSPost2010Prop47
 90
       50
102
RTVSPost2010PropOp47
 70
     1
102
RTVSPost2010Prop48
 90
       50
102
RTVSPost2010PropOp48
 70
     1
102
RTVSPost2010Prop49
280
     0
102
RTVSPost2010PropOp49
 70
     1
102
RTVSPost2010Prop50
 90
       50
102
RTVSPost2010PropOp50
 70
     1
102
RTVSPost2010Prop51ColorIndex
 90
      256
102
RTVSPost2010Prop51ColorRGB
 90
-16777216
102
RTVSPost2010PropOp51
 70
     0
102
RTVSPost2010Prop52
140
1.0
102
RTVSPost2010PropOp52
 70
     0
102
RTVSPost2010Prop53
 90
        2
102
RTVSPost2010PropOp53
 70
     1
102
RTVSPost2010Prop54
  1
strokes_ogs.tif
102
RTVSPost2010PropOp54
 70
     1
102
RTVSPost2010Prop55
280
     0
102
RTVSPost2010PropOp55
 70
     1
102
RTVSPost2010Prop56
140
1.0
102
RTVSPost2010PropOp56
 70
     1
102
RTVSPost2010Prop57
140
1.0
102
RTVSPost2010PropOp57
 70
     1
102
RTVSPropertyOp0
 70
     1
102
RTVSPropertyOp1
 70
     1
102
RTVSPropertyOp2
 70
     1
102
RTVSPropertyOp3
 70
     1
102
RTVSPropertyOp4
 70
     1
102
RTVSPropertyOp5
 70
     1
102
RTVSPropertyOp6
 70
     1
102
RTVSPropertyOp7
 70
     1
102
RTVSPropertyOp8
 70
     1
102
RTVSPropertyOp9
 70
     1
102
RTVSPropertyOp10
 70
     1
102
RTVSPropertyOp11
 70
     1
102
RTVSPropertyOp12
 70
     1
102
RTVSPropertyOp13
 70
     1
102
RTVSPropertyOp14
 70
     1
102
RTVSPropertyOp15
 70
     1
102
RTVSPropertyOp16
 70
     1
102
RTVSPropertyOp17
 70
     1
102
RTVSPropertyOp18
 70
     1
102
RTVSPropertyOp19
 70
     1
102
RTVSPropertyOp20
 70
     1
102
RTVSPropertyOp21
 70
     1
102
RTVSPropertyOp22
 70
     1
102
RTVSPropertyOp23
 70
     1
102
RTVSPropertyOp24
 70
     1
102
RTVSPropertyOp25
 70
     1
102
RTVSPropertyOp26
 70
     1
102
RTVSPropertyOp27
 70
     1
102
RTVSPropertyOp28
 70
     1
102
RTVSPropertyOp29
 70
     1
102
RTVSPropertyOp30
 70
     1
102
RTVSPropertyOp31
 70
     1
102
RTVSPropertyOp32
 70
     1
102
RTVSPropertyOp33
 70
     1
102
RTVSPropertyOp34
 70
     1
102
RTVSPropertyOp35
 70
     1
102
RTVSPropertyOp36
 70
     1
102
RTVSPropertyOp37
 70
     1
102
RTVSPropertyOp38
 70
     1
102
RTVSPropertyOp39
 70
     1
102
RTVSPropertyOp40
 70
     1
102
RTVSPropertyOp41
 70
     1
102
RTVSPropertyOp42
 70
     1
102
RTVSPropertyOp43
 70
     1
102
RTVSPropertyOp44
 70
     1
102
RTVSPropertyOp45
 70
     1
102
RTVSPropertyOp46
 70
     1
102
RTVSPropertyOp47
 70
     1
102
RTVSPropertyOp48
 70
     1
102
RTVSPropertyOp49
 70
     1
102
RTVSPropertyOp50
 70
     1
102
RTVSPropertyOp51
 70
     0
102
RTVSPropertyOp52
 70
     0
102
RTVSPropertyOp53
 70
     1
102
RTVSPropertyOp54
 70
     1
102
RTVSPropertyOp55
 70
     1
102
RTVSPropertyOp56
 70
     1
102
RTVSPropertyOp57
 70
     1
102
RTVSPropertyOp58
 70
     1
102
RTVSPropertyOp59
 70
     1
102
RTVSPropertyOp60
 70
     1
102
RTVSPropertyOp61
 70
     1
102
RTVSPropertyOp62
 70
     1
  0
ENDSEC
  0
EOF
