  0
SECTION
  2
HEADER
  9
$ACADVER
  1
AC1018
  9
$ACADMAINTVER
 70
   104
  9
$DWGCODEPAGE
  3
ANSI_1250
  9
$LASTSAVEDBY
  1
wq7085
  9
$INSBASE
 10
0.0
 20
0.0
 30
0.0
  9
$EXTMIN
 10
177.3344163333333
 20
114.534924
 30
0.0
  9
$EXTMAX
 10
447.414965
 20
345.2288016666669
 30
0.0
  9
$LIMMIN
 10
-0.5
 20
-0.5
  9
$LIMMAX
 10
5.0
 20
5.0
  9
$ORTHOMODE
 70
     1
  9
$REGENMODE
 70
     1
  9
$FILLMODE
 70
     1
  9
$QTEXTMODE
 70
     0
  9
$MIRRTEXT
 70
     1
  9
$LTSCALE
 40
1.0
  9
$ATTMODE
 70
     1
  9
$TEXTSIZE
 40
0.2
  9
$TRACEWID
 40
0.05
  9
$TEXTSTYLE
  7
Standard
  9
$CLAYER
  8
0
  9
$CELTYPE
  6
ByLayer
  9
$CECOLOR
 62
   256
  9
$CELTSCALE
 40
1.0
  9
$DISPSILH
 70
     0
  9
$DIMSCALE
 40
1.0
  9
$DIMASZ
 40
0.18
  9
$DIMEXO
 40
0.0625
  9
$DIMDLI
 40
0.38
  9
$DIMRND
 40
0.0
  9
$DIMDLE
 40
0.0
  9
$DIMEXE
 40
0.18
  9
$DIMTP
 40
0.0
  9
$DIMTM
 40
0.0
  9
$DIMTXT
 40
0.18
  9
$DIMCEN
 40
0.09
  9
$DIMTSZ
 40
0.0
  9
$DIMTOL
 70
     0
  9
$DIMLIM
 70
     0
  9
$DIMTIH
 70
     1
  9
$DIMTOH
 70
     1
  9
$DIMSE1
 70
     0
  9
$DIMSE2
 70
     0
  9
$DIMTAD
 70
     0
  9
$DIMZIN
 70
     0
  9
$DIMBLK
  1

  9
$DIMASO
 70
     1
  9
$DIMSHO
 70
     1
  9
$DIMPOST
  1

  9
$DIMAPOST
  1

  9
$DIMALT
 70
     0
  9
$DIMALTD
 70
     2
  9
$DIMALTF
 40
25.4
  9
$DIMLFAC
 40
1.0
  9
$DIMTOFL
 70
     0
  9
$DIMTVP
 40
0.0
  9
$DIMTIX
 70
     0
  9
$DIMSOXD
 70
     0
  9
$DIMSAH
 70
     0
  9
$DIMBLK1
  1

  9
$DIMBLK2
  1

  9
$DIMSTYLE
  2
Standard
  9
$DIMCLRD
 70
     0
  9
$DIMCLRE
 70
     0
  9
$DIMCLRT
 70
     0
  9
$DIMTFAC
 40
1.0
  9
$DIMGAP
 40
0.09
  9
$DIMJUST
 70
     0
  9
$DIMSD1
 70
     0
  9
$DIMSD2
 70
     0
  9
$DIMTOLJ
 70
     1
  9
$DIMTZIN
 70
     0
  9
$DIMALTZ
 70
     0
  9
$DIMALTTZ
 70
     0
  9
$DIMUPT
 70
     0
  9
$DIMDEC
 70
     4
  9
$DIMTDEC
 70
     4
  9
$DIMALTU
 70
     2
  9
$DIMALTTD
 70
     2
  9
$DIMTXSTY
  7
Standard
  9
$DIMAUNIT
 70
     0
  9
$DIMADEC
 70
     0
  9
$DIMALTRND
 40
0.0
  9
$DIMAZIN
 70
     0
  9
$DIMDSEP
 70
    46
  9
$DIMATFIT
 70
     3
  9
$DIMFRAC
 70
     0
  9
$DIMLDRBLK
  1

  9
$DIMLUNIT
 70
     2
  9
$DIMLWD
 70
    -2
  9
$DIMLWE
 70
    -2
  9
$DIMTMOVE
 70
     0
  9
$LUNITS
 70
     2
  9
$LUPREC
 70
     4
  9
$SKETCHINC
 40
0.1
  9
$FILLETRAD
 40
0.5
  9
$AUNITS
 70
     0
  9
$AUPREC
 70
     0
  9
$MENU
  1
.
  9
$ELEVATION
 40
0.0
  9
$PELEVATION
 40
0.0
  9
$THICKNESS
 40
0.0
  9
$LIMCHECK
 70
     0
  9
$CHAMFERA
 40
0.0
  9
$CHAMFERB
 40
0.0
  9
$CHAMFERC
 40
0.0
  9
$CHAMFERD
 40
0.0
  9
$SKPOLY
 70
     0
  9
$TDCREATE
 40
2459066.563969908
  9
$TDUCREATE
 40
2459066.480646088
  9
$TDUPDATE
 40
2459066.565972222
  9
$TDUUPDATE
 40
2459066.482638889
  9
$TDINDWG
 40
0.0010648264
  9
$TDUSRTIMER
 40
0.0010648264
  9
$USRTIMER
 70
     1
  9
$ANGBASE
 50
0.0
  9
$ANGDIR
 70
     0
  9
$PDMODE
 70
     0
  9
$PDSIZE
 40
0.0
  9
$PLINEWID
 40
0.0
  9
$SPLFRAME
 70
     0
  9
$SPLINETYPE
 70
     6
  9
$SPLINESEGS
 70
     8
  9
$HANDSEED
  5
3B2
  9
$SURFTAB1
 70
     6
  9
$SURFTAB2
 70
     6
  9
$SURFTYPE
 70
     6
  9
$SURFU
 70
     6
  9
$SURFV
 70
     6
  9
$UCSBASE
  2

  9
$UCSNAME
  2

  9
$UCSORG
 10
274.404842
 20
288.907994
 30
0.0
  9
$UCSXDIR
 10
1.0
 20
0.0
 30
0.0
  9
$UCSYDIR
 10
0.0
 20
1.0
 30
0.0
  9
$UCSORTHOREF
  2

  9
$UCSORTHOVIEW
 70
     0
  9
$UCSORGTOP
 10
0.0
 20
0.0
 30
0.0
  9
$UCSORGBOTTOM
 10
0.0
 20
0.0
 30
0.0
  9
$UCSORGLEFT
 10
0.0
 20
0.0
 30
0.0
  9
$UCSORGRIGHT
 10
0.0
 20
0.0
 30
0.0
  9
$UCSORGFRONT
 10
0.0
 20
0.0
 30
0.0
  9
$UCSORGBACK
 10
0.0
 20
0.0
 30
0.0
  9
$PUCSBASE
  2

  9
$PUCSNAME
  2

  9
$PUCSORG
 10
0.0
 20
0.0
 30
0.0
  9
$PUCSXDIR
 10
1.0
 20
0.0
 30
0.0
  9
$PUCSYDIR
 10
0.0
 20
1.0
 30
0.0
  9
$PUCSORTHOREF
  2

  9
$PUCSORTHOVIEW
 70
     0
  9
$PUCSORGTOP
 10
0.0
 20
0.0
 30
0.0
  9
$PUCSORGBOTTOM
 10
0.0
 20
0.0
 30
0.0
  9
$PUCSORGLEFT
 10
0.0
 20
0.0
 30
0.0
  9
$PUCSORGRIGHT
 10
0.0
 20
0.0
 30
0.0
  9
$PUCSORGFRONT
 10
0.0
 20
0.0
 30
0.0
  9
$PUCSORGBACK
 10
0.0
 20
0.0
 30
0.0
  9
$USERI1
 70
     0
  9
$USERI2
 70
     0
  9
$USERI3
 70
     0
  9
$USERI4
 70
     0
  9
$USERI5
 70
     0
  9
$USERR1
 40
0.0
  9
$USERR2
 40
0.0
  9
$USERR3
 40
0.0
  9
$USERR4
 40
0.0
  9
$USERR5
 40
0.0
  9
$WORLDVIEW
 70
     1
  9
$SHADEDGE
 70
     3
  9
$SHADEDIF
 70
    70
  9
$TILEMODE
 70
     1
  9
$MAXACTVP
 70
    64
  9
$PINSBASE
 10
0.0
 20
0.0
 30
0.0
  9
$PLIMCHECK
 70
     0
  9
$PEXTMIN
 10
-0.5
 20
-0.5
 30
-0.5
  9
$PEXTMAX
 10
5.0
 20
5.0
 30
5.0
  9
$PLIMMIN
 10
-0.5
 20
-0.5
  9
$PLIMMAX
 10
5.0
 20
5.0
  9
$UNITMODE
 70
     0
  9
$VISRETAIN
 70
     1
  9
$PLINEGEN
 70
     0
  9
$PSLTSCALE
 70
     1
  9
$TREEDEPTH
 70
  3020
  9
$CMLSTYLE
  2
Standard
  9
$CMLJUST
 70
     0
  9
$CMLSCALE
 40
1.0
  9
$PROXYGRAPHICS
 70
     1
  9
$MEASUREMENT
 70
     1
  9
$CELWEIGHT
370
    13
  9
$ENDCAPS
280
     0
  9
$JOINSTYLE
280
     0
  9
$LWDISPLAY
290
     0
  9
$INSUNITS
 70
     4
  9
$HYPERLINKBASE
  1

  9
$STYLESHEET
  1

  9
$XEDIT
290
     1
  9
$CEPSNTYPE
380
     0
  9
$PSTYLEMODE
290
     1
  9
$FINGERPRINTGUID
  2
{04172EF5-4402-43AF-B54C-F3FCF76A4D8A}
  9
$VERSIONGUID
  2
{29B41C7A-013D-1941-A828-5B3F1D47C570}
  9
$EXTNAMES
290
     1
  9
$PSVPSCALE
 40
0.0
  9
$OLESTARTUP
290
     0
  9
$SORTENTS
280
   127
  9
$INDEXCTL
280
     0
  9
$HIDETEXT
280
     1
  9
$XCLIPFRAME
290
     0
  9
$HALOGAP
280
     0
  9
$OBSCOLOR
 70
   257
  9
$OBSLTYPE
280
     0
  9
$INTERSECTIONDISPLAY
280
     0
  9
$INTERSECTIONCOLOR
 70
   257
  9
$DIMASSOC
280
     2
  9
$PROJECTNAME
  1

  0
ENDSEC
  0
SECTION
  2
CLASSES
  0
CLASS
  1
ACDBDICTIONARYWDFLT
  2
AcDbDictionaryWithDefault
  3
ObjectDBX Classes
 90
        0
 91
        1
280
     0
281
     0
  0
CLASS
  1
VISUALSTYLE
  2
AcDbVisualStyle
  3
ObjectDBX Classes
 90
     4095
 91
       24
280
     0
281
     0
  0
CLASS
  1
MATERIAL
  2
AcDbMaterial
  3
ObjectDBX Classes
 90
     1153
 91
        3
280
     0
281
     0
  0
CLASS
  1
SCALE
  2
AcDbScale
  3
ObjectDBX Classes
 90
     1153
 91
       33
280
     0
281
     0
  0
CLASS
  1
TABLESTYLE
  2
AcDbTableStyle
  3
ObjectDBX Classes
 90
     4095
 91
        1
280
     0
281
     0
  0
CLASS
  1
MLEADERSTYLE
  2
AcDbMLeaderStyle
  3
ACDB_MLEADERSTYLE_CLASS
 90
     4095
 91
        1
280
     0
281
     0
  0
CLASS
  1
SUN
  2
AcDbSun
  3
SCENEOE
 90
     1153
 91
        0
280
     0
281
     0
  0
CLASS
  1
DIMASSOC
  2
AcDbDimAssoc
  3
"AcDbDimAssoc|Product Desc:     AcDim ARX App For Dimension|Company:          Autodesk, Inc.|WEB Address:      www.autodesk.com"
 90
        0
 91
        7
280
     0
281
     0
  0
CLASS
  1
DICTIONARYVAR
  2
AcDbDictionaryVar
  3
ObjectDBX Classes
 90
        0
 91
        8
280
     0
281
     0
  0
CLASS
  1
CELLSTYLEMAP
  2
AcDbCellStyleMap
  3
ObjectDBX Classes
 90
     1152
 91
        2
280
     0
281
     0
  0
CLASS
  1
ACDBSECTIONVIEWSTYLE
  2
AcDbSectionViewStyle
  3
ObjectDBX Classes
 90
     1025
 91
        1
280
     0
281
     0
  0
CLASS
  1
ACDBDETAILVIEWSTYLE
  2
AcDbDetailViewStyle
  3
ObjectDBX Classes
 90
     1025
 91
        1
280
     0
281
     0
  0
CLASS
  1
SORTENTSTABLE
  2
AcDbSortentsTable
  3
ObjectDBX Classes
 90
        0
 91
        1
280
     0
281
     0
  0
ENDSEC
  0
SECTION
  2
TABLES
  0
TABLE
  2
VPORT
  5
8
330
0
100
AcDbSymbolTable
 70
    16
  0
VPORT
  5
29
330
8
100
AcDbSymbolTableRecord
100
AcDbViewportTableRecord
  2
*Active
 70
     0
 10
0.0
 20
0.0
 11
1.0
 21
1.0
 12
300.7474549694339
 22
298.6333033624336
 13
0.0
 23
0.0
 14
0.5
 24
0.5
 15
0.5
 25
0.5
 16
0.0
 26
0.0
 36
1.0
 17
0.0
 27
0.0
 37
0.0
 40
257.5111195657865
 41
2.292712066905615
 42
50.0
 43
484.256096
 44
-484.256096
 50
0.0
 51
0.0
 71
     0
 72
   100
 73
     1
 74
     3
 75
     0
 76
     0
 77
     0
 78
     0
281
     0
 65
     1
110
274.404842
120
288.907994
130
0.0
111
1.0
121
0.0
131
0.0
112
0.0
122
1.0
132
0.0
 79
     0
146
0.0
1001
ACAD_NAV_VCDISPLAY
1070
     3
  0
VPORT
  5
2B1
330
8
100
AcDbSymbolTableRecord
100
AcDbViewportTableRecord
  2
L1
 70
     0
 10
0.0
 20
0.0
 11
1.0
 21
1.0
 12
311.870491
 22
229.827302
 13
0.0
 23
0.0
 14
0.5
 24
0.5
 15
0.5
 25
0.5
 16
0.0
 26
0.0
 36
1.0
 17
0.0
 27
0.0
 37
0.0
 40
207.433333
 41
0.085602
 42
50.0
 43
484.256096
 44
-484.256096
 50
0.0
 51
0.0
 71
     0
 72
   100
 73
     1
 74
     3
 75
     0
 76
     0
 77
     0
 78
     0
281
     0
 65
     1
110
0.0
120
0.0
130
0.0
111
1.0
121
0.0
131
0.0
112
0.0
122
1.0
132
0.0
 79
     0
146
0.0
  0
VPORT
  5
2B2
330
8
100
AcDbSymbolTableRecord
100
AcDbViewportTableRecord
  2
L2
 70
     0
 10
0.0
 20
0.0
 11
0.5
 21
1.0
 12
0.0
 22
0.0
 13
0.0
 23
0.0
 14
0.5
 24
0.5
 15
0.5
 25
0.5
 16
0.0
 26
-1.0
 36
0.0
 17
0.0
 27
0.0
 37
0.0
 40
1319.143726
 41
0.013461
 42
50.0
 43
679.601336
 44
-679.601336
 50
0.0
 51
0.0
 71
     0
 72
   100
 73
     1
 74
     3
 75
     0
 76
     0
 77
     0
 78
     0
281
     0
 65
     1
110
0.0
120
0.0
130
0.0
111
1.0
121
0.0
131
0.0
112
0.0
122
1.0
132
0.0
 79
     0
146
0.0
  0
VPORT
  5
2B3
330
8
100
AcDbSymbolTableRecord
100
AcDbViewportTableRecord
  2
L2
 70
     0
 10
0.5
 20
0.0
 11
1.0
 21
1.0
 12
0.0
 22
0.0
 13
0.0
 23
0.0
 14
0.5
 24
0.5
 15
0.5
 25
0.5
 16
1.0
 26
0.0
 36
0.0
 17
0.0
 27
0.0
 37
0.0
 40
1319.143726
 41
0.013461
 42
50.0
 43
667.6767099999999
 44
-667.6767099999999
 50
0.0
 51
0.0
 71
     0
 72
   100
 73
     1
 74
     3
 75
     0
 76
     0
 77
     0
 78
     0
281
     0
 65
     1
110
0.0
120
0.0
130
0.0
111
1.0
121
0.0
131
0.0
112
0.0
122
1.0
132
0.0
 79
     0
146
0.0
  0
VPORT
  5
2B4
330
8
100
AcDbSymbolTableRecord
100
AcDbViewportTableRecord
  2
L3
 70
     0
 10
0.0
 20
0.5
 11
1.0
 21
1.0
 12
311.870491
 22
229.827302
 13
0.0
 23
0.0
 14
0.5
 24
0.5
 15
0.5
 25
0.5
 16
0.0
 26
0.0
 36
1.0
 17
0.0
 27
0.0
 37
0.0
 40
207.433333
 41
0.085602
 42
50.0
 43
484.256096
 44
-484.256096
 50
0.0
 51
0.0
 71
     0
 72
   100
 73
     1
 74
     3
 75
     0
 76
     0
 77
     0
 78
     0
281
     0
 65
     1
110
0.0
120
0.0
130
0.0
111
1.0
121
0.0
131
0.0
112
0.0
122
1.0
132
0.0
 79
     0
146
0.0
  0
VPORT
  5
2B5
330
8
100
AcDbSymbolTableRecord
100
AcDbViewportTableRecord
  2
L3
 70
     0
 10
0.0
 20
0.0
 11
1.0
 21
0.5
 12
0.0
 22
0.0
 13
0.0
 23
0.0
 14
0.5
 24
0.5
 15
0.5
 25
0.5
 16
0.0
 26
-1.0
 36
0.0
 17
0.0
 27
0.0
 37
0.0
 40
1319.143726
 41
0.013461
 42
50.0
 43
679.601336
 44
-679.601336
 50
0.0
 51
0.0
 71
     0
 72
   100
 73
     1
 74
     3
 75
     0
 76
     0
 77
     0
 78
     0
281
     0
 65
     1
110
0.0
120
0.0
130
0.0
111
1.0
121
0.0
131
0.0
112
0.0
122
1.0
132
0.0
 79
     0
146
0.0
  0
VPORT
  5
2B6
330
8
100
AcDbSymbolTableRecord
100
AcDbViewportTableRecord
  2
L4
 70
     0
 10
0.0
 20
0.5
 11
0.5
 21
1.0
 12
311.870491
 22
229.827302
 13
0.0
 23
0.0
 14
0.5
 24
0.5
 15
0.5
 25
0.5
 16
0.0
 26
0.0
 36
1.0
 17
0.0
 27
0.0
 37
0.0
 40
207.433333
 41
0.085602
 42
50.0
 43
484.256096
 44
-484.256096
 50
0.0
 51
0.0
 71
     0
 72
   100
 73
     1
 74
     3
 75
     0
 76
     0
 77
     0
 78
     0
281
     0
 65
     1
110
0.0
120
0.0
130
0.0
111
1.0
121
0.0
131
0.0
112
0.0
122
1.0
132
0.0
 79
     0
146
0.0
  0
VPORT
  5
2B7
330
8
100
AcDbSymbolTableRecord
100
AcDbViewportTableRecord
  2
L4
 70
     0
 10
0.0
 20
0.0
 11
0.5
 21
0.5
 12
0.0
 22
0.0
 13
0.0
 23
0.0
 14
0.5
 24
0.5
 15
0.5
 25
0.5
 16
0.0
 26
-1.0
 36
0.0
 17
0.0
 27
0.0
 37
0.0
 40
1319.143726
 41
0.013461
 42
50.0
 43
679.601336
 44
-679.601336
 50
0.0
 51
0.0
 71
     0
 72
   100
 73
     1
 74
     3
 75
     0
 76
     0
 77
     0
 78
     0
281
     0
 65
     1
110
0.0
120
0.0
130
0.0
111
1.0
121
0.0
131
0.0
112
0.0
122
1.0
132
0.0
 79
     0
146
0.0
  0
VPORT
  5
2B8
330
8
100
AcDbSymbolTableRecord
100
AcDbViewportTableRecord
  2
L4
 70
     0
 10
0.5
 20
0.0
 11
1.0
 21
0.5
 12
0.0
 22
0.0
 13
0.0
 23
0.0
 14
0.5
 24
0.5
 15
0.5
 25
0.5
 16
1.0
 26
0.0
 36
0.0
 17
0.0
 27
0.0
 37
0.0
 40
1319.143726
 41
0.013461
 42
50.0
 43
667.6767099999999
 44
-667.6767099999999
 50
0.0
 51
0.0
 71
     0
 72
   100
 73
     1
 74
     3
 75
     0
 76
     0
 77
     0
 78
     0
281
     0
 65
     1
110
0.0
120
0.0
130
0.0
111
1.0
121
0.0
131
0.0
112
0.0
122
1.0
132
0.0
 79
     0
146
0.0
  0
VPORT
  5
2B9
330
8
100
AcDbSymbolTableRecord
100
AcDbViewportTableRecord
  2
L4
 70
     0
 10
0.5
 20
0.5
 11
1.0
 21
1.0
 12
0.0
 22
0.0
 13
0.0
 23
0.0
 14
0.5
 24
0.5
 15
0.5
 25
0.5
 16
0.5773502691896259
 26
-0.5773502691896259
 36
0.5773502691896259
 17
0.0
 27
0.0
 37
0.0
 40
1295.484074
 41
0.013707
 42
50.0
 43
674.79345
 44
-674.79345
 50
0.0
 51
0.0
 71
     0
 72
   100
 73
     1
 74
     3
 75
     0
 76
     0
 77
     0
 78
     0
281
     0
 65
     1
110
0.0
120
0.0
130
0.0
111
1.0
121
0.0
131
0.0
112
0.0
122
1.0
132
0.0
 79
     0
146
0.0
  0
VPORT
  5
2BA
330
8
100
AcDbSymbolTableRecord
100
AcDbViewportTableRecord
  2
L6
 70
     0
 10
0.0
 20
0.5
 11
0.333333
 21
1.0
 12
0.0
 22
0.0
 13
0.0
 23
0.0
 14
0.5
 24
0.5
 15
0.5
 25
0.5
 16
0.7188730927569434
 26
-0.5850486126764433
 36
0.3754192287502549
 17
0.0
 27
0.0
 37
0.0
 40
1367.187154
 41
0.012988
 42
50.0
 43
707.8776949999999
 44
-707.8776949999999
 50
0.0
 51
0.0
 71
     0
 72
   100
 73
     1
 74
     3
 75
     0
 76
     0
 77
     0
 78
     0
281
     0
 65
     1
110
0.0
120
0.0
130
0.0
111
1.0
121
0.0
131
0.0
112
0.0
122
1.0
132
0.0
 79
     0
146
0.0
  0
VPORT
  5
2BB
330
8
100
AcDbSymbolTableRecord
100
AcDbViewportTableRecord
  2
L6
 70
     0
 10
0.0
 20
0.0
 11
0.333333
 21
0.5
 12
0.0
 22
0.0
 13
0.0
 23
0.0
 14
0.5
 24
0.5
 15
0.5
 25
0.5
 16
-1.0
 26
0.0
 36
0.0
 17
0.0
 27
0.0
 37
0.0
 40
1319.143726
 41
0.013461
 42
50.0
 43
667.6767099999999
 44
-667.6767099999999
 50
0.0
 51
0.0
 71
     0
 72
   100
 73
     1
 74
     3
 75
     0
 76
     0
 77
     0
 78
     0
281
     0
 65
     1
110
0.0
120
0.0
130
0.0
111
1.0
121
0.0
131
0.0
112
0.0
122
1.0
132
0.0
 79
     0
146
0.0
  0
VPORT
  5
2BC
330
8
100
AcDbSymbolTableRecord
100
AcDbViewportTableRecord
  2
L6
 70
     0
 10
0.333333
 20
0.5
 11
0.666667
 21
1.0
 12
311.870491
 22
229.827302
 13
0.0
 23
0.0
 14
0.5
 24
0.5
 15
0.5
 25
0.5
 16
0.0
 26
0.0
 36
1.0
 17
0.0
 27
0.0
 37
0.0
 40
207.433333
 41
0.085602
 42
50.0
 43
484.256096
 44
-484.256096
 50
0.0
 51
0.0
 71
     0
 72
   100
 73
     1
 74
     3
 75
     0
 76
     0
 77
     0
 78
     0
281
     0
 65
     1
110
0.0
120
0.0
130
0.0
111
1.0
121
0.0
131
0.0
112
0.0
122
1.0
132
0.0
 79
     0
146
0.0
  0
VPORT
  5
2BD
330
8
100
AcDbSymbolTableRecord
100
AcDbViewportTableRecord
  2
L6
 70
     0
 10
0.333333
 20
0.0
 11
0.666667
 21
0.5
 12
0.0
 22
0.0
 13
0.0
 23
0.0
 14
0.5
 24
0.5
 15
0.5
 25
0.5
 16
0.0
 26
-1.0
 36
0.0
 17
0.0
 27
0.0
 37
0.0
 40
1319.143726
 41
0.013461
 42
50.0
 43
679.601336
 44
-679.601336
 50
0.0
 51
0.0
 71
     0
 72
   100
 73
     1
 74
     3
 75
     0
 76
     0
 77
     0
 78
     0
281
     0
 65
     1
110
0.0
120
0.0
130
0.0
111
1.0
121
0.0
131
0.0
112
0.0
122
1.0
132
0.0
 79
     0
146
0.0
  0
VPORT
  5
2BE
330
8
100
AcDbSymbolTableRecord
100
AcDbViewportTableRecord
  2
L6
 70
     0
 10
0.666667
 20
0.5
 11
1.0
 21
1.0
 12
0.0
 22
0.0
 13
0.0
 23
0.0
 14
0.5
 24
0.5
 15
0.5
 25
0.5
 16
0.5773502691896259
 26
-0.5773502691896259
 36
0.5773502691896259
 17
0.0
 27
0.0
 37
0.0
 40
1295.484074
 41
0.013707
 42
50.0
 43
674.79345
 44
-674.79345
 50
0.0
 51
0.0
 71
     0
 72
   100
 73
     1
 74
     3
 75
     0
 76
     0
 77
     0
 78
     0
281
     0
 65
     1
110
0.0
120
0.0
130
0.0
111
1.0
121
0.0
131
0.0
112
0.0
122
1.0
132
0.0
 79
     0
146
0.0
  0
VPORT
  5
2BF
330
8
100
AcDbSymbolTableRecord
100
AcDbViewportTableRecord
  2
L6
 70
     0
 10
0.666667
 20
0.0
 11
1.0
 21
0.5
 12
0.0
 22
0.0
 13
0.0
 23
0.0
 14
0.5
 24
0.5
 15
0.5
 25
0.5
 16
1.0
 26
0.0
 36
0.0
 17
0.0
 27
0.0
 37
0.0
 40
1319.143726
 41
0.013461
 42
50.0
 43
667.6767099999999
 44
-667.6767099999999
 50
0.0
 51
0.0
 71
     0
 72
   100
 73
     1
 74
     3
 75
     0
 76
     0
 77
     0
 78
     0
281
     0
 65
     1
110
0.0
120
0.0
130
0.0
111
1.0
121
0.0
131
0.0
112
0.0
122
1.0
132
0.0
 79
     0
146
0.0
  0
ENDTAB
  0
TABLE
  2
LTYPE
  5
5
330
0
100
AcDbSymbolTable
 70
     7
  0
LTYPE
  5
14
330
5
100
AcDbSymbolTableRecord
100
AcDbLinetypeTableRecord
  2
ByBlock
 70
     0
  3

 72
    65
 73
     0
 40
0.0
  0
LTYPE
  5
15
330
5
100
AcDbSymbolTableRecord
100
AcDbLinetypeTableRecord
  2
ByLayer
 70
     0
  3

 72
    65
 73
     0
 40
0.0
  0
LTYPE
  5
16
330
5
100
AcDbSymbolTableRecord
100
AcDbLinetypeTableRecord
  2
Continuous
 70
     0
  3
Solid line
 72
    65
 73
     0
 40
0.0
  0
LTYPE
  5
6E
330
5
100
AcDbSymbolTableRecord
100
AcDbLinetypeTableRecord
  2
CENTER
 70
     0
  3
____ _ ____ _ ____ _ ____
 72
    65
 73
     4
 40
47.4
 49
22.0
 74
     4
 75
     0
340
0
 46
0.0
 50
0.0
 44
0.0
 45
0.0
 49
-8.5
 74
     4
 75
     0
340
0
 46
0.0
 50
0.0
 44
0.0
 45
0.0
 49
8.5
 74
     4
 75
     0
340
0
 46
0.0
 50
0.0
 44
0.0
 45
0.0
 49
-8.5
 74
     4
 75
     0
340
0
 46
0.0
 50
0.0
 44
0.0
 45
0.0
  0
LTYPE
  5
6F
330
5
100
AcDbSymbolTableRecord
100
AcDbLinetypeTableRecord
  2
DASHDOT
 70
     0
  3
_._._._._._._._._._._._._._._._.
 72
    65
 73
     4
 40
70.0
 49
31.0
 74
     4
 75
     0
340
0
 46
0.0
 50
0.0
 44
0.0
 45
0.0
 49
-13.0
 74
     4
 75
     0
340
0
 46
0.0
 50
0.0
 44
0.0
 45
0.0
 49
13.0
 74
     4
 75
     0
340
0
 46
0.0
 50
0.0
 44
0.0
 45
0.0
 49
-13.0
 74
     4
 75
     0
340
0
 46
0.0
 50
0.0
 44
0.0
 45
0.0
  0
LTYPE
  5
70
330
5
100
AcDbSymbolTableRecord
100
AcDbLinetypeTableRecord
  2
DASHED
 70
     0
  3
__ __ __ __ __ __ __ __ __
 72
    65
 73
     2
 40
25.72
 49
12.86
 74
     4
 75
     0
340
0
 46
0.0
 50
0.0
 44
0.0
 45
0.0
 49
-12.86
 74
     4
 75
     0
340
0
 46
0.0
 50
0.0
 44
0.0
 45
0.0
  0
LTYPE
  5
71
330
5
100
AcDbSymbolTableRecord
100
AcDbLinetypeTableRecord
  2
DOT
 70
     0
  3
.........................
 72
    65
 73
     2
 40
10.0
 49
0.0
 74
     4
 75
     0
340
0
 46
0.0
 50
0.0
 44
0.0
 45
0.0
 49
-10.0
 74
     4
 75
     0
340
0
 46
0.0
 50
0.0
 44
0.0
 45
0.0
  0
LTYPE
  5
72
330
5
100
AcDbSymbolTableRecord
100
AcDbLinetypeTableRecord
  2
PHANTOM
 70
     0
  3
____ _ _ ____ _ _ _____ _ _ ____
 72
    65
 73
     6
 40
50.5
 49
18.0
 74
     4
 75
     0
340
0
 46
0.0
 50
0.0
 44
0.0
 45
0.0
 49
-6.5
 74
     4
 75
     0
340
0
 46
0.0
 50
0.0
 44
0.0
 45
0.0
 49
6.5
 74
     4
 75
     0
340
0
 46
0.0
 50
0.0
 44
0.0
 45
0.0
 49
-6.5
 74
     4
 75
     0
340
0
 46
0.0
 50
0.0
 44
0.0
 45
0.0
 49
6.5
 74
     4
 75
     0
340
0
 46
0.0
 50
0.0
 44
0.0
 45
0.0
 49
-6.5
 74
     4
 75
     0
340
0
 46
0.0
 50
0.0
 44
0.0
 45
0.0
  0
LTYPE
  5
352
330
5
100
AcDbSymbolTableRecord
100
AcDbLinetypeTableRecord
  2
CENTER2
 70
     0
  3
Center (.5x) ___ _ ___ _ ___ _ ___ _ ___ _ ___
 72
    65
 73
     4
 40
1.125
 49
0.75
 74
     0
 49
-0.125
 74
     0
 49
0.125
 74
     0
 49
-0.125
 74
     0
  0
ENDTAB
  0
TABLE
  2
LAYER
  5
2
330
0
100
AcDbSymbolTable
 70
    22
  0
LAYER
  5
10
102
{ACAD_XDICTIONARY
360
35F
102
}
330
2
100
AcDbSymbolTableRecord
100
AcDbLayerTableRecord
  2
0
 70
     0
 62
     7
  6
Continuous
370
    -3
390
F
  0
LAYER
  5
20B
330
2
100
AcDbSymbolTableRecord
100
AcDbLayerTableRecord
  2
Defpoints
 70
     0
 62
     7
  6
Continuous
290
     0
370
    -3
390
F
  0
LAYER
  5
34F
102
{ACAD_XDICTIONARY
360
361
102
}
330
2
100
AcDbSymbolTableRecord
100
AcDbLayerTableRecord
  2
1
 70
     0
 62
     4
  6
Continuous
370
    -3
390
F
  0
LAYER
  5
350
102
{ACAD_XDICTIONARY
360
363
102
}
330
2
100
AcDbSymbolTableRecord
100
AcDbLayerTableRecord
  2
2
 70
     0
 62
     7
  6
Continuous
370
    -3
390
F
  0
LAYER
  5
351
102
{ACAD_XDICTIONARY
360
365
102
}
330
2
100
AcDbSymbolTableRecord
100
AcDbLayerTableRecord
  2
4
 70
     0
 62
     2
  6
CENTER2
370
    -3
390
F
  0
LAYER
  5
353
102
{ACAD_XDICTIONARY
360
367
102
}
330
2
100
AcDbSymbolTableRecord
100
AcDbLayerTableRecord
  2
SK1
 70
     0
 62
     4
  6
Continuous
370
    -3
390
F
  0
LAYER
  5
354
102
{ACAD_XDICTIONARY
360
369
102
}
330
2
100
AcDbSymbolTableRecord
100
AcDbLayerTableRecord
  2
SK2
 70
     0
 62
     7
  6
Continuous
370
    -3
390
F
  0
LAYER
  5
356
102
{ACAD_XDICTIONARY
360
36B
102
}
330
2
100
AcDbSymbolTableRecord
100
AcDbLayerTableRecord
  2
SK4
 70
     0
 62
     2
  6
CENTER2
370
    -3
390
F
  0
LAYER
  5
357
102
{ACAD_XDICTIONARY
360
36D
102
}
330
2
100
AcDbSymbolTableRecord
100
AcDbLayerTableRecord
  2
SK6
 70
     0
 62
     5
  6
Continuous
370
    -3
390
F
  0
LAYER
  5
358
102
{ACAD_XDICTIONARY
360
36F
102
}
330
2
100
AcDbSymbolTableRecord
100
AcDbLayerTableRecord
  2
CUT
 70
     0
 62
     1
  6
Continuous
370
    -3
390
F
  0
LAYER
  5
359
102
{ACAD_XDICTIONARY
360
371
102
}
330
2
100
AcDbSymbolTableRecord
100
AcDbLayerTableRecord
  2
NOCUT
 70
     0
 62
     7
  6
Continuous
370
    -3
390
F
  0
LAYER
  5
35A
102
{ACAD_XDICTIONARY
360
373
102
}
330
2
100
AcDbSymbolTableRecord
100
AcDbLayerTableRecord
  2
80
 70
     0
 62
     6
  6
Continuous
370
    -3
390
F
  0
LAYER
  5
35B
102
{ACAD_XDICTIONARY
360
375
102
}
330
2
100
AcDbSymbolTableRecord
100
AcDbLayerTableRecord
  2
81
 70
     0
 62
     3
  6
Continuous
370
    -3
390
F
  0
ENDTAB
  0
TABLE
  2
STYLE
  5
3
330
0
100
AcDbSymbolTable
 70
     3
  0
STYLE
  5
11
330
3
100
AcDbSymbolTableRecord
100
AcDbTextStyleTableRecord
  2
Standard
 70
     0
 40
0.0
 41
1.0
 50
0.0
 71
     0
 42
0.2
  3
txt
  4

  0
STYLE
  5
1FF
330
3
100
AcDbSymbolTableRecord
100
AcDbTextStyleTableRecord
  2
cesky
 70
     0
 40
0.0
 41
1.0
 50
0.0
 71
     0
 42
0.2
  3
simplex.shx
  4

  0
STYLE
  5
200
330
3
100
AcDbSymbolTableRecord
100
AcDbTextStyleTableRecord
  2
DWGDirectTextStyle
 70
     0
 40
0.0
 41
1.0
 50
0.0
 71
     0
 42
0.2
  3
simplex
  4

  0
ENDTAB
  0
TABLE
  2
VIEW
  5
6
330
0
100
AcDbSymbolTable
 70
     0
  0
ENDTAB
  0
TABLE
  2
UCS
  5
7
330
0
100
AcDbSymbolTable
 70
     0
  0
ENDTAB
  0
TABLE
  2
APPID
  5
9
330
0
100
AcDbSymbolTable
 70
     7
  0
APPID
  5
12
330
9
100
AcDbSymbolTableRecord
100
AcDbRegAppTableRecord
  2
ACAD
 70
     0
  0
APPID
  5
207
330
9
100
AcDbSymbolTableRecord
100
AcDbRegAppTableRecord
  2
ACAD_DSTYLE_DIMBREAK
 70
     0
  0
APPID
  5
2C0
330
9
100
AcDbSymbolTableRecord
100
AcDbRegAppTableRecord
  2
ACAD_DSTYLE_DIM_LINETYPE
 70
     0
  0
APPID
  5
2C1
330
9
100
AcDbSymbolTableRecord
100
AcDbRegAppTableRecord
  2
ACAD_DSTYLE_DIM_EXT1_LINETYPE
 70
     0
  0
APPID
  5
2C2
330
9
100
AcDbSymbolTableRecord
100
AcDbRegAppTableRecord
  2
ACAD_DSTYLE_DIM_EXT2_LINETYPE
 70
     0
  0
APPID
  5
302
330
9
100
AcDbSymbolTableRecord
100
AcDbRegAppTableRecord
  2
ACAD_MLEADERVER
 70
     0
  0
APPID
  5
37A
330
9
100
AcDbSymbolTableRecord
100
AcDbRegAppTableRecord
  2
ACAD_NAV_VCDISPLAY
 70
     0
  0
ENDTAB
  0
TABLE
  2
DIMSTYLE
  5
A
330
0
100
AcDbSymbolTable
 70
     1
100
AcDbDimStyleTable
 71
     0
  0
DIMSTYLE
105
27
330
A
100
AcDbSymbolTableRecord
100
AcDbDimStyleTableRecord
  2
Standard
 70
     0
340
11
1001
ACAD_DSTYLE_DIMBREAK
1070
   391
1040
6.349999999999999
  0
ENDTAB
  0
TABLE
  2
BLOCK_RECORD
  5
1
330
0
100
AcDbSymbolTable
 70
    16
  0
BLOCK_RECORD
  5
1F
102
{ACAD_XDICTIONARY
360
312
102
}
330
1
100
AcDbSymbolTableRecord
100
AcDbBlockTableRecord
  2
*Model_Space
340
22
  0
BLOCK_RECORD
  5
1B
330
1
100
AcDbSymbolTableRecord
100
AcDbBlockTableRecord
  2
*Paper_Space
340
1E
  0
BLOCK_RECORD
  5
23
330
1
100
AcDbSymbolTableRecord
100
AcDbBlockTableRecord
  2
*Paper_Space0
340
26
  0
BLOCK_RECORD
  5
202
330
1
100
AcDbSymbolTableRecord
100
AcDbBlockTableRecord
  2
ASSORTED_DRAFT1
340
0
  0
BLOCK_RECORD
  5
20C
330
1
100
AcDbSymbolTableRecord
100
AcDbBlockTableRecord
  2
*D2
340
0
  0
BLOCK_RECORD
  5
217
330
1
100
AcDbSymbolTableRecord
100
AcDbBlockTableRecord
  2
_U0
340
0
  0
BLOCK_RECORD
  5
222
330
1
100
AcDbSymbolTableRecord
100
AcDbBlockTableRecord
  2
*D4
340
0
  0
BLOCK_RECORD
  5
22E
330
1
100
AcDbSymbolTableRecord
100
AcDbBlockTableRecord
  2
_U1
340
0
  0
BLOCK_RECORD
  5
23B
330
1
100
AcDbSymbolTableRecord
100
AcDbBlockTableRecord
  2
*D6
340
0
  0
BLOCK_RECORD
  5
247
330
1
100
AcDbSymbolTableRecord
100
AcDbBlockTableRecord
  2
_U2
340
0
  0
BLOCK_RECORD
  5
254
330
1
100
AcDbSymbolTableRecord
100
AcDbBlockTableRecord
  2
*D8
340
0
  0
BLOCK_RECORD
  5
260
330
1
100
AcDbSymbolTableRecord
100
AcDbBlockTableRecord
  2
_U3
340
0
  0
BLOCK_RECORD
  5
26C
330
1
100
AcDbSymbolTableRecord
100
AcDbBlockTableRecord
  2
*D10
340
0
  0
BLOCK_RECORD
  5
278
330
1
100
AcDbSymbolTableRecord
100
AcDbBlockTableRecord
  2
_U4
340
0
  0
BLOCK_RECORD
  5
284
330
1
100
AcDbSymbolTableRecord
100
AcDbBlockTableRecord
  2
*D12
340
0
  0
BLOCK_RECORD
  5
290
330
1
100
AcDbSymbolTableRecord
100
AcDbBlockTableRecord
  2
_U5
340
0
  0
BLOCK_RECORD
  5
29C
330
1
100
AcDbSymbolTableRecord
100
AcDbBlockTableRecord
  2
*D14
340
0
  0
BLOCK_RECORD
  5
2A8
330
1
100
AcDbSymbolTableRecord
100
AcDbBlockTableRecord
  2
_U6
340
0
  0
ENDTAB
  0
ENDSEC
  0
SECTION
  2
BLOCKS
  0
BLOCK
  5
20
330
1F
100
AcDbEntity
  8
0
100
AcDbBlockBegin
  2
*Model_Space
 70
     0
 10
0.0
 20
0.0
 30
0.0
  3
*Model_Space
  1

  0
ENDBLK
  5
21
330
1F
100
AcDbEntity
  8
0
100
AcDbBlockEnd
  0
BLOCK
  5
1C
330
1B
100
AcDbEntity
 67
     1
  8
0
100
AcDbBlockBegin
  2
*Paper_Space
 70
     0
 10
0.0
 20
0.0
 30
0.0
  3
*Paper_Space
  1

  0
ENDBLK
  5
1D
330
1B
100
AcDbEntity
 67
     1
  8
0
100
AcDbBlockEnd
  0
BLOCK
  5
24
330
23
100
AcDbEntity
 67
     1
  8
0
100
AcDbBlockBegin
  2
*Paper_Space0
 70
     0
 10
0.0
 20
0.0
 30
0.0
  3
*Paper_Space0
  1

  0
ENDBLK
  5
25
330
23
100
AcDbEntity
 67
     1
  8
0
100
AcDbBlockEnd
  0
BLOCK
  5
205
330
202
100
AcDbEntity
  8
0
100
AcDbBlockBegin
  2
ASSORTED_DRAFT1
 70
     0
 10
0.0
 20
0.0
 30
0.0
  3
ASSORTED_DRAFT1
  1

  0
SOLID
  5
203
330
202
100
AcDbEntity
  8
0
 62
   254
370
    13
100
AcDbTrace
 10
270.185042
 20
168.534924
 30
0.0
 11
265.185046
 21
167.42645
 31
0.0
 12
265.1850379999999
 22
169.643397
 32
0.0
 13
270.185042
 23
168.534924
 33
0.0
  0
ENDBLK
  5
206
330
202
100
AcDbEntity
  8
0
100
AcDbBlockEnd
  0
BLOCK
  5
20D
330
20C
100
AcDbEntity
  8
0
100
AcDbBlockBegin
  2
*D2
 70
     1
 10
0.0
 20
0.0
 30
0.0
  3
*D2
  1

  0
LINE
  5
20F
330
20C
100
AcDbEntity
  8
0
 62
   254
370
    -2
100
AcDbLine
 10
288.664972
 20
288.907994
 30
0.0
 11
447.414965
 21
288.907994
 31
0.0
  0
LINE
  5
210
330
20C
100
AcDbEntity
  8
0
 62
   254
370
    -2
100
AcDbLine
 10
330.83929
 20
310.907994
 30
0.0
 11
447.414965
 21
310.907994
 31
0.0
  0
LINE
  5
211
330
20C
100
AcDbEntity
  8
0
 62
   254
370
    -2
100
AcDbLine
 10
446.414965
 20
288.907994
 30
0.0
 11
446.414965
 21
310.907994
 31
0.0
  0
SOLID
  5
212
330
20C
100
AcDbEntity
  8
0
 62
   254
100
AcDbTrace
 10
446.998298
 20
307.407994
 30
0.0
 11
445.831632
 21
307.407994
 31
0.0
 12
446.414965
 22
310.907994
 32
0.0
 13
446.414965
 23
310.907994
 33
0.0
  0
MTEXT
  5
213
330
20C
100
AcDbEntity
  8
0
 62
   254
370
    13
100
AcDbMText
 10
441.164965
 20
278.991327
 30
0.0
 40
3.5
 41
0.0
 71
     5
 72
     1
  1
\A1;44
  7
cesky
 11
0.0
 21
1.0
 31
0.0
 73
     1
 44
1.0
  0
POINT
  5
214
330
20C
100
AcDbEntity
  8
Defpoints
 62
     0
100
AcDbPoint
 10
288.664972
 20
288.907994
 30
0.0
  0
POINT
  5
215
330
20C
100
AcDbEntity
  8
Defpoints
 62
     0
100
AcDbPoint
 10
330.83929
 20
310.907994
 30
0.0
  0
POINT
  5
216
330
20C
100
AcDbEntity
  8
Defpoints
 62
     0
100
AcDbPoint
 10
446.414965
 20
310.907994
 30
0.0
  0
ENDBLK
  5
20E
330
20C
100
AcDbEntity
  8
0
100
AcDbBlockEnd
  0
BLOCK
  5
21D
330
217
100
AcDbEntity
  8
0
100
AcDbBlockBegin
  2
_U0
 70
     0
 10
0.0
 20
0.0
 30
0.0
  3
_U0
  1

  0
ENDBLK
  5
21E
330
217
100
AcDbEntity
  8
0
100
AcDbBlockEnd
  0
BLOCK
  5
223
330
222
100
AcDbEntity
  8
0
100
AcDbBlockBegin
  2
*D4
 70
     1
 10
0.0
 20
0.0
 30
0.0
  3
*D4
  1

  0
LINE
  5
225
330
222
100
AcDbEntity
  8
0
 62
    95
370
    -2
100
AcDbLine
 10
206.404842
 20
308.907994
 30
0.0
 11
192.996832
 21
308.907994
 31
0.0
  0
LINE
  5
226
330
222
100
AcDbEntity
  8
0
 62
    95
370
    -2
100
AcDbLine
 10
206.404842
 20
268.907994
 30
0.0
 11
192.996832
 21
268.907994
 31
0.0
  0
LINE
  5
227
330
222
100
AcDbEntity
  8
0
 62
    95
370
    -2
100
AcDbLine
 10
193.996832
 20
305.407994
 30
0.0
 11
193.996832
 21
272.407994
 31
0.0
  0
SOLID
  5
228
330
222
100
AcDbEntity
  8
0
 62
    95
100
AcDbTrace
 10
194.580166
 20
305.407994
 30
0.0
 11
193.413499
 21
305.407994
 31
0.0
 12
193.996832
 22
308.907994
 32
0.0
 13
193.996832
 23
308.907994
 33
0.0
  0
SOLID
  5
229
330
222
100
AcDbEntity
  8
0
 62
    95
100
AcDbTrace
 10
193.413499
 20
272.407994
 30
0.0
 11
194.580166
 21
272.407994
 31
0.0
 12
193.996832
 22
268.907994
 32
0.0
 13
193.996832
 23
268.907994
 33
0.0
  0
MTEXT
  5
22A
330
222
100
AcDbEntity
  8
0
 62
    95
370
    13
100
AcDbMText
 10
188.746832
 20
288.907994
 30
0.0
 40
3.5
 41
0.0
 71
     5
 72
     1
  1
\A1;40
  7
cesky
 11
0.0
 21
1.0
 31
0.0
 73
     1
 44
1.0
  0
POINT
  5
22B
330
222
100
AcDbEntity
  8
Defpoints
 62
     0
100
AcDbPoint
 10
206.404842
 20
308.907994
 30
0.0
  0
POINT
  5
22C
330
222
100
AcDbEntity
  8
Defpoints
 62
     0
100
AcDbPoint
 10
206.404842
 20
268.907994
 30
0.0
  0
POINT
  5
22D
330
222
100
AcDbEntity
  8
Defpoints
 62
     0
100
AcDbPoint
 10
193.996832
 20
268.907994
 30
0.0
  0
ENDBLK
  5
224
330
222
100
AcDbEntity
  8
0
100
AcDbBlockEnd
  0
BLOCK
  5
236
330
22E
100
AcDbEntity
  8
0
100
AcDbBlockBegin
  2
_U1
 70
     0
 10
0.0
 20
0.0
 30
0.0
  3
_U1
  1

  0
ENDBLK
  5
237
330
22E
100
AcDbEntity
  8
0
100
AcDbBlockEnd
  0
BLOCK
  5
23C
330
23B
100
AcDbEntity
  8
0
100
AcDbBlockBegin
  2
*D6
 70
     1
 10
0.0
 20
0.0
 30
0.0
  3
*D6
  1

  0
LINE
  5
23E
330
23B
100
AcDbEntity
  8
0
 62
    95
370
    -2
100
AcDbLine
 10
277.154842
 20
313.907994
 30
0.0
 11
181.188499
 21
313.907994
 31
0.0
  0
LINE
  5
23F
330
23B
100
AcDbEntity
  8
0
 62
    95
370
    -2
100
AcDbLine
 10
277.154842
 20
263.907994
 30
0.0
 11
181.188499
 21
263.907994
 31
0.0
  0
LINE
  5
240
330
23B
100
AcDbEntity
  8
0
 62
    95
370
    -2
100
AcDbLine
 10
182.188499
 20
310.407994
 30
0.0
 11
182.188499
 21
267.407994
 31
0.0
  0
SOLID
  5
241
330
23B
100
AcDbEntity
  8
0
 62
    95
100
AcDbTrace
 10
182.771833
 20
310.407994
 30
0.0
 11
181.605166
 21
310.407994
 31
0.0
 12
182.188499
 22
313.907994
 32
0.0
 13
182.188499
 23
313.907994
 33
0.0
  0
SOLID
  5
242
330
23B
100
AcDbEntity
  8
0
 62
    95
100
AcDbTrace
 10
181.605166
 20
267.407994
 30
0.0
 11
182.771833
 21
267.407994
 31
0.0
 12
182.188499
 22
263.907994
 32
0.0
 13
182.188499
 23
263.907994
 33
0.0
  0
MTEXT
  5
243
330
23B
100
AcDbEntity
  8
0
 62
    95
370
    13
100
AcDbMText
 10
176.938499
 20
288.907994
 30
0.0
 40
3.5
 41
0.0
 71
     5
 72
     1
  1
\A1;50
  7
cesky
 11
0.0
 21
1.0
 31
0.0
 73
     1
 44
1.0
  0
POINT
  5
244
330
23B
100
AcDbEntity
  8
Defpoints
 62
     0
100
AcDbPoint
 10
277.154842
 20
313.907994
 30
0.0
  0
POINT
  5
245
330
23B
100
AcDbEntity
  8
Defpoints
 62
     0
100
AcDbPoint
 10
277.154842
 20
263.907994
 30
0.0
  0
POINT
  5
246
330
23B
100
AcDbEntity
  8
Defpoints
 62
     0
100
AcDbPoint
 10
182.188499
 20
263.907994
 30
0.0
  0
ENDBLK
  5
23D
330
23B
100
AcDbEntity
  8
0
100
AcDbBlockEnd
  0
BLOCK
  5
24F
330
247
100
AcDbEntity
  8
0
100
AcDbBlockBegin
  2
_U2
 70
     0
 10
0.0
 20
0.0
 30
0.0
  3
_U2
  1

  0
ENDBLK
  5
250
330
247
100
AcDbEntity
  8
0
100
AcDbBlockEnd
  0
BLOCK
  5
255
330
254
100
AcDbEntity
  8
0
100
AcDbBlockBegin
  2
*D8
 70
     1
 10
0.0
 20
0.0
 30
0.0
  3
*D8
  1

  0
LINE
  5
257
330
254
100
AcDbEntity
  8
0
 62
   254
370
    -2
100
AcDbLine
 10
430.9448419999999
 20
310.907994
 30
0.0
 11
430.9448419999999
 21
328.5109970000001
 31
0.0
  0
LINE
  5
258
330
254
100
AcDbEntity
  8
0
 62
   254
370
    -2
100
AcDbLine
 10
274.404842
 20
288.907994
 30
0.0
 11
274.404842
 21
328.5109970000001
 31
0.0
  0
LINE
  5
259
330
254
100
AcDbEntity
  8
0
 62
   254
370
    -2
100
AcDbLine
 10
427.4448419999999
 20
327.510997
 30
0.0
 11
277.904842
 21
327.510997
 31
0.0
  0
SOLID
  5
25A
330
254
100
AcDbEntity
  8
0
 62
   254
100
AcDbTrace
 10
427.4448419999999
 20
326.927663
 30
0.0
 11
427.4448419999999
 21
328.09433
 31
0.0
 12
430.9448419999999
 22
327.510997
 32
0.0
 13
430.9448419999999
 23
327.510997
 33
0.0
  0
SOLID
  5
25B
330
254
100
AcDbEntity
  8
0
 62
   254
100
AcDbTrace
 10
277.904842
 20
328.09433
 30
0.0
 11
277.904842
 21
326.927663
 31
0.0
 12
274.404842
 22
327.510997
 32
0.0
 13
274.404842
 23
327.510997
 33
0.0
  0
MTEXT
  5
25C
330
254
100
AcDbEntity
  8
0
 62
   254
370
    13
100
AcDbMText
 10
352.674842
 20
332.7609970000001
 30
0.0
 40
3.5
 41
0.0
 71
     5
 72
     1
  1
\A1;157
  7
cesky
 73
     1
 44
1.0
  0
POINT
  5
25D
330
254
100
AcDbEntity
  8
Defpoints
 62
     0
100
AcDbPoint
 10
430.9448419999999
 20
310.907994
 30
0.0
  0
POINT
  5
25E
330
254
100
AcDbEntity
  8
Defpoints
 62
     0
100
AcDbPoint
 10
274.404842
 20
288.907994
 30
0.0
  0
POINT
  5
25F
330
254
100
AcDbEntity
  8
Defpoints
 62
     0
100
AcDbPoint
 10
274.404842
 20
327.510997
 30
0.0
  0
ENDBLK
  5
256
330
254
100
AcDbEntity
  8
0
100
AcDbBlockEnd
  0
BLOCK
  5
267
330
260
100
AcDbEntity
  8
0
100
AcDbBlockBegin
  2
_U3
 70
     0
 10
0.0
 20
0.0
 30
0.0
  3
_U3
  1

  0
ENDBLK
  5
268
330
260
100
AcDbEntity
  8
0
100
AcDbBlockEnd
  0
BLOCK
  5
26D
330
26C
100
AcDbEntity
  8
0
100
AcDbBlockBegin
  2
*D10
 70
     1
 10
0.0
 20
0.0
 30
0.0
  3
*D10
  1

  0
LINE
  5
26F
330
26C
100
AcDbEntity
  8
0
 62
   254
370
    -2
100
AcDbLine
 10
430.9448419999999
 20
312.907994
 30
0.0
 11
430.9448419999999
 21
341.687968
 31
0.0
  0
LINE
  5
270
330
26C
100
AcDbEntity
  8
0
 62
   254
370
    -2
100
AcDbLine
 10
204.404842
 20
306.907994
 30
0.0
 11
204.404842
 21
341.687968
 31
0.0
  0
LINE
  5
271
330
26C
100
AcDbEntity
  8
0
 62
   254
370
    -2
100
AcDbLine
 10
427.4448419999999
 20
340.687968
 30
0.0
 11
207.904842
 21
340.687968
 31
0.0
  0
SOLID
  5
272
330
26C
100
AcDbEntity
  8
0
 62
   254
100
AcDbTrace
 10
427.4448419999999
 20
340.104634
 30
0.0
 11
427.4448419999999
 21
341.271301
 31
0.0
 12
430.9448419999999
 22
340.687968
 32
0.0
 13
430.9448419999999
 23
340.687968
 33
0.0
  0
SOLID
  5
273
330
26C
100
AcDbEntity
  8
0
 62
   254
100
AcDbTrace
 10
207.904842
 20
341.271301
 30
0.0
 11
207.904842
 21
340.104634
 31
0.0
 12
204.404842
 22
340.687968
 32
0.0
 13
204.404842
 23
340.687968
 33
0.0
  0
MTEXT
  5
274
330
26C
100
AcDbEntity
  8
0
 62
   254
370
    13
100
AcDbMText
 10
317.674842
 20
345.937968
 30
0.0
 40
3.5
 41
0.0
 71
     5
 72
     1
  1
\A1;226.5
  7
cesky
 73
     1
 44
1.0
  0
POINT
  5
275
330
26C
100
AcDbEntity
  8
Defpoints
 62
     0
100
AcDbPoint
 10
430.9448419999999
 20
312.907994
 30
0.0
  0
POINT
  5
276
330
26C
100
AcDbEntity
  8
Defpoints
 62
     0
100
AcDbPoint
 10
204.404842
 20
306.907994
 30
0.0
  0
POINT
  5
277
330
26C
100
AcDbEntity
  8
Defpoints
 62
     0
100
AcDbPoint
 10
204.404842
 20
340.687968
 30
0.0
  0
ENDBLK
  5
26E
330
26C
100
AcDbEntity
  8
0
100
AcDbBlockEnd
  0
BLOCK
  5
27F
330
278
100
AcDbEntity
  8
0
100
AcDbBlockBegin
  2
_U4
 70
     0
 10
0.0
 20
0.0
 30
0.0
  3
_U4
  1

  0
ENDBLK
  5
280
330
278
100
AcDbEntity
  8
0
100
AcDbBlockEnd
  0
BLOCK
  5
285
330
284
100
AcDbEntity
  8
0
100
AcDbBlockBegin
  2
*D12
 70
     1
 10
0.0
 20
0.0
 30
0.0
  3
*D12
  1

  0
LINE
  5
287
330
284
100
AcDbEntity
  8
0
 62
   254
370
    -2
100
AcDbLine
 10
274.404842
 20
288.907994
 30
0.0
 11
274.404842
 21
328.5109970000001
 31
0.0
  0
LINE
  5
288
330
284
100
AcDbEntity
  8
0
 62
   254
370
    -2
100
AcDbLine
 10
204.404842
 20
303.696669
 30
0.0
 11
204.404842
 21
328.5109970000001
 31
0.0
  0
LINE
  5
289
330
284
100
AcDbEntity
  8
0
 62
   254
370
    -2
100
AcDbLine
 10
270.904842
 20
327.510997
 30
0.0
 11
207.904842
 21
327.510997
 31
0.0
  0
SOLID
  5
28A
330
284
100
AcDbEntity
  8
0
 62
   254
100
AcDbTrace
 10
270.904842
 20
326.927663
 30
0.0
 11
270.904842
 21
328.09433
 31
0.0
 12
274.404842
 22
327.510997
 32
0.0
 13
274.404842
 23
327.510997
 33
0.0
  0
SOLID
  5
28B
330
284
100
AcDbEntity
  8
0
 62
   254
100
AcDbTrace
 10
207.904842
 20
328.09433
 30
0.0
 11
207.904842
 21
326.927663
 31
0.0
 12
204.404842
 22
327.510997
 32
0.0
 13
204.404842
 23
327.510997
 33
0.0
  0
MTEXT
  5
28C
330
284
100
AcDbEntity
  8
0
 62
   254
370
    13
100
AcDbMText
 10
239.404842
 20
332.7609970000001
 30
0.0
 40
3.5
 41
0.0
 71
     5
 72
     1
  1
\A1;70
  7
cesky
 73
     1
 44
1.0
  0
POINT
  5
28D
330
284
100
AcDbEntity
  8
Defpoints
 62
     0
100
AcDbPoint
 10
274.404842
 20
288.907994
 30
0.0
  0
POINT
  5
28E
330
284
100
AcDbEntity
  8
Defpoints
 62
     0
100
AcDbPoint
 10
204.404842
 20
303.696669
 30
0.0
  0
POINT
  5
28F
330
284
100
AcDbEntity
  8
Defpoints
 62
     0
100
AcDbPoint
 10
204.404842
 20
327.510997
 30
0.0
  0
ENDBLK
  5
286
330
284
100
AcDbEntity
  8
0
100
AcDbBlockEnd
  0
BLOCK
  5
297
330
290
100
AcDbEntity
  8
0
100
AcDbBlockBegin
  2
_U5
 70
     0
 10
0.0
 20
0.0
 30
0.0
  3
_U5
  1

  0
ENDBLK
  5
298
330
290
100
AcDbEntity
  8
0
100
AcDbBlockEnd
  0
BLOCK
  5
29D
330
29C
100
AcDbEntity
  8
0
100
AcDbBlockBegin
  2
*D14
 70
     1
 10
0.0
 20
0.0
 30
0.0
  3
*D14
  1

  0
LINE
  5
29F
330
29C
100
AcDbEntity
  8
0
 62
   254
370
    -2
100
AcDbLine
 10
430.9448419999999
 20
310.907994
 30
0.0
 11
430.9448419999999
 21
317.848012
 31
0.0
  0
LINE
  5
2A0
330
29C
100
AcDbEntity
  8
0
 62
   254
370
    -2
100
AcDbLine
 10
289.357558
 20
310.209104
 30
0.0
 11
289.357558
 21
317.848012
 31
0.0
  0
LINE
  5
2A1
330
29C
100
AcDbEntity
  8
0
 62
   254
370
    -2
100
AcDbLine
 10
427.4448419999999
 20
316.848012
 30
0.0
 11
292.857558
 21
316.848012
 31
0.0
  0
SOLID
  5
2A2
330
29C
100
AcDbEntity
  8
0
 62
   254
100
AcDbTrace
 10
427.4448419999999
 20
316.264679
 30
0.0
 11
427.4448419999999
 21
317.431346
 31
0.0
 12
430.9448419999999
 22
316.848012
 32
0.0
 13
430.9448419999999
 23
316.848012
 33
0.0
  0
SOLID
  5
2A3
330
29C
100
AcDbEntity
  8
0
 62
   254
100
AcDbTrace
 10
292.857558
 20
317.431346
 30
0.0
 11
292.857558
 21
316.264679
 31
0.0
 12
289.357558
 22
316.848012
 32
0.0
 13
289.357558
 23
316.848012
 33
0.0
  0
MTEXT
  5
2A4
330
29C
100
AcDbEntity
  8
0
 62
   254
370
    13
100
AcDbMText
 10
360.1512
 20
322.098012
 30
0.0
 40
3.5
 41
0.0
 71
     5
 72
     1
  1
\A1;142
  7
cesky
 73
     1
 44
1.0
  0
POINT
  5
2A5
330
29C
100
AcDbEntity
  8
Defpoints
 62
     0
100
AcDbPoint
 10
430.9448419999999
 20
310.907994
 30
0.0
  0
POINT
  5
2A6
330
29C
100
AcDbEntity
  8
Defpoints
 62
     0
100
AcDbPoint
 10
289.357558
 20
310.209104
 30
0.0
  0
POINT
  5
2A7
330
29C
100
AcDbEntity
  8
Defpoints
 62
     0
100
AcDbPoint
 10
289.357558
 20
316.848012
 30
0.0
  0
ENDBLK
  5
29E
330
29C
100
AcDbEntity
  8
0
100
AcDbBlockEnd
  0
BLOCK
  5
2AF
330
2A8
100
AcDbEntity
  8
0
100
AcDbBlockBegin
  2
_U6
 70
     0
 10
0.0
 20
0.0
 30
0.0
  3
_U6
  1

  0
ENDBLK
  5
2B0
330
2A8
100
AcDbEntity
  8
0
100
AcDbBlockEnd
  0
ENDSEC
  0
SECTION
  2
ENTITIES
  0
POINT
  5
73
102
{ACAD_REACTORS
330
35C
102
}
330
1F
100
AcDbEntity
  8
80
100
AcDbPoint
 10
274.404842
 20
288.907994
 30
0.0
  0
POINT
  5
76
330
1F
100
AcDbEntity
  8
4
 60
     1
100
AcDbPoint
 10
288.664972
 20
288.907994
 30
0.0
  0
POINT
  5
78
330
1F
100
AcDbEntity
  8
4
 60
     1
100
AcDbPoint
 10
429.824728
 20
288.907994
 30
0.0
  0
POINT
  5
79
330
1F
100
AcDbEntity
  8
SK4
 60
     1
100
AcDbPoint
 10
206.404842
 20
288.907994
 30
0.0
  0
POINT
  5
7A
330
1F
100
AcDbEntity
  8
SK4
 60
     1
100
AcDbPoint
 10
274.404842
 20
288.907994
 30
0.0
  0
POINT
  5
7B
330
1F
100
AcDbEntity
  8
SK6
 60
     1
100
AcDbPoint
 10
274.404842
 20
288.907994
 30
0.0
  0
POINT
  5
7C
330
1F
100
AcDbEntity
  8
SK6
 60
     1
100
AcDbPoint
 10
289.357558
 20
310.209104
 30
0.0
  0
LINE
  5
7D
330
1F
100
AcDbEntity
  8
1
100
AcDbLine
 10
422.4879169999999
 20
304.278885
 30
0.0
 11
422.5234679999999
 21
304.379677
 31
0.0
  0
LINE
  5
7F
330
1F
100
AcDbEntity
  8
1
100
AcDbLine
 10
425.0757319999999
 20
303.929618
 30
0.0
 11
425.0401809999999
 21
303.828827
 31
0.0
  0
LINE
  5
80
330
1F
100
AcDbEntity
  8
1
100
AcDbLine
 10
429.866902
 20
278.299189
 30
0.0
 11
429.1263889999999
 21
277.066769
 31
0.0
  0
LINE
  5
82
330
1F
100
AcDbEntity
  8
1
100
AcDbLine
 10
429.3250599999999
 20
289.544381
 30
0.0
 11
430.0406539999999
 21
288.253416
 31
0.0
  0
LINE
  5
83
330
1F
100
AcDbEntity
  8
1
100
AcDbLine
 10
429.432963
 20
288.023349
 30
0.0
 11
429.081818
 21
288.65683
 31
0.0
  0
LINE
  5
84
330
1F
100
AcDbEntity
  8
1
100
AcDbLine
 10
428.729984
 20
277.655563
 30
0.0
 11
429.267611
 21
278.5503240000001
 31
0.0
  0
LINE
  5
85
330
1F
100
AcDbEntity
  8
1
100
AcDbLine
 10
430.077532
 20
288.105506
 30
0.0
 11
429.90892
 21
278.4457220000001
 31
0.0
  0
LINE
  5
86
330
1F
100
AcDbEntity
  8
1
100
AcDbLine
 10
429.432963
 20
288.023349
 30
0.0
 11
430.066913
 21
288.181411
 31
0.0
  0
LINE
  5
87
330
1F
100
AcDbEntity
  8
1
100
AcDbLine
 10
429.267611
 20
278.5503240000001
 30
0.0
 11
429.432963
 21
288.023349
 31
0.0
  0
LINE
  5
88
330
1F
100
AcDbEntity
  8
1
100
AcDbLine
 10
429.267611
 20
278.5503240000001
 30
0.0
 11
429.8956589999999
 21
278.370234
 31
0.0
  0
LINE
  5
89
330
1F
100
AcDbEntity
  8
1
100
AcDbLine
 10
429.08181
 20
289.736569
 30
0.0
 11
429.219167
 21
289.6540359999999
 31
0.0
  0
LINE
  5
8A
330
1F
100
AcDbEntity
  8
1
100
AcDbLine
 10
429.08181
 20
289.415434
 30
0.0
 11
429.277911
 21
289.604808
 31
0.0
  0
LINE
  5
8D
330
1F
100
AcDbEntity
  8
1
100
AcDbLine
 10
430.685145
 20
278.064562
 30
0.0
 11
429.7176949999999
 21
276.454454
 31
0.0
  0
LINE
  5
8E
330
1F
100
AcDbEntity
  8
1
100
AcDbLine
 10
430.903465
 20
288.311434
 30
0.0
 11
430.7271629999999
 21
278.211095
 31
0.0
  0
LINE
  5
8F
330
1F
100
AcDbEntity
  8
1
100
AcDbLine
 10
429.9373749999999
 20
290.135687
 30
0.0
 11
430.866587
 21
288.459344
 31
0.0
  0
LINE
  5
90
330
1F
100
AcDbEntity
  8
1
100
AcDbLine
 10
429.60804
 20
276.348562
 30
0.0
 11
428.559095
 21
275.767122
 31
0.0
  0
LINE
  5
91
330
1F
100
AcDbEntity
  8
1
100
AcDbLine
 10
429.1081669999999
 20
290.679954
 30
0.0
 11
429.831482
 21
290.245342
 31
0.0
  0
LINE
  5
92
330
1F
100
AcDbEntity
  8
1
100
AcDbLine
 10
415.189216
 20
297.2810970000001
 30
0.0
 11
415.2257559999999
 21
296.213097
 31
0.0
  0
LINE
  5
94
330
1F
100
AcDbEntity
  8
1
100
AcDbLine
 10
429.8916509999999
 20
290.19749
 30
0.0
 11
429.277912
 21
289.604808
 31
0.0
  0
LINE
  5
95
330
1F
100
AcDbEntity
  8
1
100
AcDbLine
 10
430.894769
 20
288.387818
 30
0.0
 11
430.066913
 21
288.181411
 31
0.0
  0
LINE
  5
96
330
1F
100
AcDbEntity
  8
1
100
AcDbLine
 10
430.7158059999999
 20
278.13506
 30
0.0
 11
429.8956589999999
 21
278.370234
 31
0.0
  0
LINE
  5
97
330
1F
100
AcDbEntity
  8
1
100
AcDbLine
 10
429.6698429999999
 20
276.394285
 30
0.0
 11
429.077161
 21
277.008025
 31
0.0
  0
LINE
  5
98
330
1F
100
AcDbEntity
  8
1
100
AcDbLine
 10
429.0167339999999
 20
276.960877
 30
0.0
 11
428.6337009999999
 21
276.748558
 31
0.0
  0
LINE
  5
99
330
1F
100
AcDbEntity
  8
1
100
AcDbLine
 10
428.702435
 20
277.396065
 30
0.0
 11
429.077161
 21
277.008025
 31
0.0
  0
LINE
  5
9A
330
1F
100
AcDbEntity
  8
1
100
AcDbLine
 10
411.1625759999999
 20
298.902243
 30
0.0
 11
410.4268199999999
 21
299.321653
 31
0.0
  0
LINE
  5
9B
330
1F
100
AcDbEntity
  8
1
100
AcDbLine
 10
288.664972
 20
267.407994
 30
0.0
 11
314.073112
 21
267.407994
 31
0.0
  0
LINE
  5
9C
330
1F
100
AcDbEntity
  8
1
100
AcDbLine
 10
417.640525
 20
310.407994
 30
0.0
 11
407.3115689999999
 21
310.407994
 31
0.0
  0
LINE
  5
9D
330
1F
100
AcDbEntity
  8
1
100
AcDbLine
 10
328.090113
 20
310.407994
 30
0.0
 11
288.664972
 21
310.407994
 31
0.0
  0
LINE
  5
9E
330
1F
100
AcDbEntity
  8
1
100
AcDbLine
 10
423.0620459999999
 20
302.735104
 30
0.0
 11
423.0963309999999
 21
302.832306
 31
0.0
  0
LINE
  5
9F
330
1F
100
AcDbEntity
  8
1
100
AcDbLine
 10
423.857816
 20
302.679088
 30
0.0
 11
423.8234
 21
302.581514
 31
0.0
  0
LINE
  5
A0
330
1F
100
AcDbEntity
  8
1
100
AcDbLine
 10
423.704699
 20
305.526198
 30
0.0
 11
423.7391139999999
 21
305.623771
 31
0.0
  0
LINE
  5
A1
330
1F
100
AcDbEntity
  8
1
100
AcDbLine
 10
424.482099
 20
305.418103
 30
0.0
 11
424.4660519999999
 21
305.372608
 31
0.0
  0
LINE
  5
A4
330
1F
100
AcDbEntity
  8
80
100
AcDbLine
 10
275.404416
 20
288.907994
 30
0.0
 11
273.405268
 21
288.907994
 31
0.0
  0
LINE
  5
A5
330
1F
100
AcDbEntity
  8
1
100
AcDbLine
 10
274.404842
 20
313.407994
 30
0.0
 11
274.404842
 21
288.907994
 31
0.0
  0
LINE
  5
A6
330
1F
100
AcDbEntity
  8
1
100
AcDbLine
 10
274.404842
 20
288.907994
 30
0.0
 11
274.404842
 21
264.407994
 31
0.0
  0
LINE
  5
A7
330
1F
100
AcDbEntity
  8
1
100
AcDbLine
 10
422.422092
 20
304.902401
 30
0.0
 11
422.388266
 21
304.806497
 31
0.0
  0
LINE
  5
A8
330
1F
100
AcDbEntity
  8
1
100
AcDbLine
 10
422.487223
 20
304.842761
 30
0.0
 11
422.452846
 21
304.745298
 31
0.0
  0
LINE
  5
A9
330
1F
100
AcDbEntity
  8
1
100
AcDbLine
 10
425.243239
 20
304.100632
 30
0.0
 11
425.2776309999999
 21
304.198136
 31
0.0
  0
LINE
  5
AA
330
1F
100
AcDbEntity
  8
1
100
AcDbLine
 10
422.53603
 20
303.36045
 30
0.0
 11
422.5017069999999
 21
303.263142
 31
0.0
  0
LINE
  5
AB
330
1F
100
AcDbEntity
  8
1
100
AcDbLine
 10
422.492719
 20
303.339889
 30
0.0
 11
422.4586959999999
 21
303.24343
 31
0.0
  0
LINE
  5
AC
330
1F
100
AcDbEntity
  8
1
100
AcDbLine
 10
424.551734
 20
302.791726
 30
0.0
 11
424.5860699999999
 21
302.889075
 31
0.0
  0
LINE
  5
AD
330
1F
100
AcDbEntity
  8
1
100
AcDbLine
 10
424.5893059999999
 20
302.748774
 30
0.0
 11
424.6232799999999
 21
302.845096
 31
0.0
  0
LINE
  5
AE
330
1F
100
AcDbEntity
  8
1
100
AcDbLine
 10
411.1887409999999
 20
298.955735
 30
0.0
 11
409.729887
 21
299.796684
 31
0.0
  0
LINE
  5
AF
330
1F
100
AcDbEntity
  8
1
100
AcDbLine
 10
419.795838
 20
296.8147
 30
0.0
 11
419.7852099999999
 21
296.81433
 31
0.0
  0
LINE
  5
B0
330
1F
100
AcDbEntity
  8
1
100
AcDbLine
 10
420.395207
 20
305.325504
 30
0.0
 11
420.395099
 21
305.325196
 31
0.0
  0
LINE
  5
B1
330
1F
100
AcDbEntity
  8
1
100
AcDbLine
 10
419.2793729999999
 20
308.589552
 30
0.0
 11
428.272248
 21
308.903264
 31
0.0
  0
LINE
  5
B2
330
1F
100
AcDbEntity
  8
1
100
AcDbLine
 10
419.6011879999999
 20
299.606039
 30
0.0
 11
419.2793729999999
 21
308.589552
 31
0.0
  0
LINE
  5
B3
330
1F
100
AcDbEntity
  8
1
100
AcDbLine
 10
428.5940629999999
 20
299.91975
 30
0.0
 11
419.6011879999999
 21
299.606039
 31
0.0
  0
LINE
  5
B4
330
1F
100
AcDbEntity
  8
1
100
AcDbLine
 10
428.272248
 20
308.903264
 30
0.0
 11
428.5940629999999
 21
299.91975
 31
0.0
  0
LINE
  5
B5
330
1F
100
AcDbEntity
  8
1
100
AcDbLine
 10
429.0818129999999
 20
280.9704939999999
 30
0.0
 11
429.0818129999999
 21
290.290014
 31
0.0
  0
LINE
  5
B6
330
1F
100
AcDbEntity
  8
1
100
AcDbLine
 10
417.4177509999999
 20
309.810126
 30
0.0
 11
417.399591
 21
310.338556
 31
0.0
  0
LINE
  5
B7
330
1F
100
AcDbEntity
  8
SK1
100
AcDbLine
 10
206.404842
 20
308.907994
 30
0.0
 11
206.404842
 21
268.907994
 31
0.0
  0
LINE
  5
B8
330
1F
100
AcDbEntity
  8
SK1
100
AcDbLine
 10
204.404842
 20
306.907994
 30
0.0
 11
204.404842
 21
270.907994
 31
0.0
  0
LINE
  5
B9
330
1F
100
AcDbEntity
  8
1
100
AcDbLine
 10
417.495565
 20
301.017426
 30
0.0
 11
417.490333
 21
301.002591
 31
0.0
  0
LINE
  5
BA
330
1F
100
AcDbEntity
  8
1
100
AcDbLine
 10
417.495565
 20
301.017426
 30
0.0
 11
417.1752269999999
 21
310.33887
 31
0.0
  0
LINE
  5
BB
330
1F
100
AcDbEntity
  8
1
100
AcDbLine
 10
417.170383
 20
310.312731
 30
0.0
 11
417.490333
 21
301.002591
 31
0.0
  0
LINE
  5
BC
330
1F
100
AcDbEntity
  8
1
100
AcDbLine
 10
428.325357
 20
267.407994
 30
0.0
 11
405.748847
 21
267.407994
 31
0.0
  0
LINE
  5
BD
330
1F
100
AcDbEntity
  8
1
100
AcDbLine
 10
274.904842
 20
263.907994
 30
0.0
 11
274.904842
 21
288.907994
 31
0.0
  0
LINE
  5
BE
330
1F
100
AcDbEntity
  8
1
100
AcDbLine
 10
274.904842
 20
288.907994
 30
0.0
 11
274.904842
 21
313.907994
 31
0.0
  0
LINE
  5
BF
330
1F
100
AcDbEntity
  8
1
100
AcDbLine
 10
420.395207
 20
305.325504
 30
0.0
 11
420.379078
 21
305.279774
 31
0.0
  0
LINE
  5
C0
330
1F
100
AcDbEntity
  8
1
100
AcDbLine
 10
427.1690869999999
 20
302.884828
 30
0.0
 11
427.1852169999999
 21
302.930558
 31
0.0
  0
LINE
  5
C1
330
1F
100
AcDbEntity
  8
SK1
100
AcDbLine
 10
204.404842
 20
270.907994
 30
0.0
 11
206.404842
 21
268.907994
 31
0.0
  0
LINE
  5
C2
330
1F
100
AcDbEntity
  8
SK1
100
AcDbLine
 10
206.404842
 20
308.907994
 30
0.0
 11
204.404842
 21
306.907994
 31
0.0
  0
LINE
  5
C3
330
1F
100
AcDbEntity
  8
SK1
100
AcDbLine
 10
274.404842
 20
308.907994
 30
0.0
 11
206.404842
 21
308.907994
 31
0.0
  0
LINE
  5
C4
330
1F
100
AcDbEntity
  8
1
100
AcDbLine
 10
274.904842
 20
263.907994
 30
0.0
 11
274.404842
 21
264.407994
 31
0.0
  0
LINE
  5
C5
330
1F
100
AcDbEntity
  8
1
100
AcDbLine
 10
274.404842
 20
313.407994
 30
0.0
 11
274.904842
 21
313.907994
 31
0.0
  0
LINE
  5
C6
330
1F
100
AcDbEntity
  8
1
100
AcDbLine
 10
279.404842
 20
313.907994
 30
0.0
 11
274.904842
 21
313.907994
 31
0.0
  0
LINE
  5
C7
330
1F
100
AcDbEntity
  8
1
100
AcDbLine
 10
430.0865309999999
 20
310.051004
 30
0.0
 11
430.485117
 21
298.924419
 31
0.0
  0
LINE
  5
C8
330
1F
100
AcDbEntity
  8
1
100
AcDbLine
 10
418.144704
 20
310.410464
 30
0.0
 11
429.282883
 21
310.799013
 31
0.0
  0
LINE
  5
C9
330
1F
100
AcDbEntity
  8
1
100
AcDbLine
 10
417.795172
 20
298.481738
 30
0.0
 11
417.396586
 21
309.608323
 31
0.0
  0
LINE
  5
CA
330
1F
100
AcDbEntity
  8
1
100
AcDbLine
 10
429.7369989999999
 20
298.122277
 30
0.0
 11
418.59882
 21
297.733728
 31
0.0
  0
LINE
  5
CB
330
1F
100
AcDbEntity
  8
1
100
AcDbLine
 10
426.956675
 20
280.9704939999999
 30
0.0
 11
427.47089
 21
280.9704939999999
 31
0.0
  0
LINE
  5
CC
330
1F
100
AcDbEntity
  8
1
100
AcDbLine
 10
417.687799
 20
310.238193
 30
0.0
 11
417.6820329999999
 21
310.405973
 31
0.0
  0
LINE
  5
CD
330
1F
100
AcDbEntity
  8
1
100
AcDbLine
 10
429.462526
 20
297.124224
 30
0.0
 11
426.790515
 21
292.697313
 31
0.0
  0
LINE
  5
CE
330
1F
100
AcDbEntity
  8
1
100
AcDbLine
 10
429.578673
 20
297.926639
 30
0.0
 11
421.1595889999999
 21
297.632945
 31
0.0
  0
LINE
  5
CF
330
1F
100
AcDbEntity
  8
1
100
AcDbLine
 10
421.1541719999999
 20
297.617587
 30
0.0
 11
421.1595889999999
 21
297.632945
 31
0.0
  0
LINE
  5
D0
330
1F
100
AcDbEntity
  8
1
100
AcDbLine
 10
429.152084
 20
290.788863
 30
0.0
 11
429.425016
 21
290.784099
 31
0.0
  0
LINE
  5
D1
330
1F
100
AcDbEntity
  8
1
100
AcDbLine
 10
429.425016
 20
290.784099
 30
0.0
 11
429.7226799999999
 21
291.187466
 31
0.0
  0
LINE
  5
D2
330
1F
100
AcDbEntity
  8
1
100
AcDbLine
 10
429.7226799999999
 20
291.426077
 30
0.0
 11
429.7226799999999
 21
291.187466
 31
0.0
  0
LINE
  5
D3
330
1F
100
AcDbEntity
  8
1
100
AcDbLine
 10
429.7226799999999
 20
291.426077
 30
0.0
 11
429.7648419999999
 21
291.425341
 31
0.0
  0
LINE
  5
D4
330
1F
100
AcDbEntity
  8
1
100
AcDbLine
 10
429.7648419999999
 20
298.124754
 30
0.0
 11
429.7648419999999
 21
291.425341
 31
0.0
  0
LINE
  5
D5
330
1F
100
AcDbEntity
  8
1
100
AcDbLine
 10
429.578673
 20
297.926639
 30
0.0
 11
429.5773529999999
 21
298.116705
 31
0.0
  0
LINE
  5
D6
330
1F
100
AcDbEntity
  8
1
100
AcDbLine
 10
429.578673
 20
297.926639
 30
0.0
 11
429.5351889999999
 21
297.909954
 31
0.0
  0
LINE
  5
D7
330
1F
100
AcDbEntity
  8
1
100
AcDbLine
 10
428.325357
 20
267.407994
 30
0.0
 11
429.1330789999999
 21
275.018163
 31
0.0
  0
LINE
  5
D8
330
1F
100
AcDbEntity
  8
1
100
AcDbLine
 10
429.1330789999999
 20
275.018163
 30
0.0
 11
429.090988
 21
275.018836
 31
0.0
  0
LINE
  5
D9
330
1F
100
AcDbEntity
  8
1
100
AcDbLine
 10
429.11627
 20
275.257037
 30
0.0
 11
429.090988
 21
275.018836
 31
0.0
  0
LINE
  5
DA
330
1F
100
AcDbEntity
  8
1
100
AcDbLine
 10
429.11627
 20
275.257037
 30
0.0
 11
428.8623999999999
 21
275.669652
 31
0.0
  0
LINE
  5
DB
330
1F
100
AcDbEntity
  8
1
100
AcDbLine
 10
428.8623999999999
 20
275.669652
 30
0.0
 11
428.5899299999999
 21
275.674011
 31
0.0
  0
LINE
  5
DC
330
1F
100
AcDbEntity
  8
1
100
AcDbLine
 10
428.5727639999999
 20
276.17435
 30
0.0
 11
429.0818129999999
 21
280.9704939999999
 31
0.0
  0
LINE
  5
DD
330
1F
100
AcDbEntity
  8
1
100
AcDbLine
 10
428.109096
 20
280.9704939999999
 30
0.0
 11
429.0818129999999
 21
280.9704939999999
 31
0.0
  0
LINE
  5
DE
330
1F
100
AcDbEntity
  8
1
100
AcDbLine
 10
279.404842
 20
263.907994
 30
0.0
 11
279.404842
 21
272.775663
 31
0.0
  0
LINE
  5
DF
330
1F
100
AcDbEntity
  8
1
100
AcDbLine
 10
279.404842
 20
313.907994
 30
0.0
 11
279.404842
 21
286.726191
 31
0.0
  0
LINE
  5
E0
330
1F
100
AcDbEntity
  8
1
100
AcDbLine
 10
429.5351889999999
 20
297.909954
 30
0.0
 11
421.1541719999999
 21
297.617587
 31
0.0
  0
LINE
  5
E1
330
1F
100
AcDbEntity
  8
1
100
AcDbLine
 10
429.462526
 20
297.124224
 30
0.0
 11
419.795886
 21
296.787009
 31
0.0
  0
LINE
  5
E2
330
1F
100
AcDbEntity
  8
80
100
AcDbLine
 10
274.404842
 20
287.90842
 30
0.0
 11
274.404842
 21
289.907567
 31
0.0
  0
LINE
  5
E3
330
1F
100
AcDbEntity
  8
SK1
100
AcDbLine
 10
206.404842
 20
268.907994
 30
0.0
 11
274.404842
 21
268.907994
 31
0.0
  0
LINE
  5
E4
330
1F
100
AcDbEntity
  8
81
100
AcDbLine
 10
430.9448419999999
 20
312.907994
 30
0.0
 11
430.9448419999999
 21
308.907994
 31
0.0
  0
LINE
  5
E5
330
1F
100
AcDbEntity
  8
81
100
AcDbLine
 10
428.944842
 20
310.907994
 30
0.0
 11
432.944842
 21
310.907994
 31
0.0
  0
LINE
  5
E6
330
1F
100
AcDbEntity
  8
1
100
AcDbLine
 10
274.904842
 20
263.907994
 30
0.0
 11
279.404842
 21
263.907994
 31
0.0
  0
LINE
  5
11C
330
1F
100
AcDbEntity
  8
NOCUT
100
AcDbLine
 10
204.404842
 20
306.907994
 30
0.0
 11
206.404842
 21
308.907994
 31
0.0
  0
LINE
  5
11D
330
1F
100
AcDbEntity
  8
NOCUT
100
AcDbLine
 10
429.3443139999999
 20
310.407994
 30
0.0
 11
429.7648419999999
 21
298.469063
 31
0.0
  0
LINE
  5
11E
330
1F
100
AcDbEntity
  8
NOCUT
100
AcDbLine
 10
429.7648419999999
 20
298.469063
 30
0.0
 11
429.7648419999999
 21
288.907994
 31
0.0
  0
LINE
  5
120
330
1F
100
AcDbEntity
  8
NOCUT
100
AcDbLine
 10
288.664972
 20
310.407994
 30
0.0
 11
429.3443139999999
 21
310.407994
 31
0.0
  0
LINE
  5
121
330
1F
100
AcDbEntity
  8
NOCUT
100
AcDbLine
 10
274.404842
 20
308.907994
 30
0.0
 11
274.404842
 21
313.407994
 31
0.0
  0
LINE
  5
122
330
1F
100
AcDbEntity
  8
NOCUT
100
AcDbLine
 10
274.404842
 20
313.407994
 30
0.0
 11
274.904842
 21
313.907994
 31
0.0
  0
LINE
  5
123
330
1F
100
AcDbEntity
  8
NOCUT
100
AcDbLine
 10
279.404842
 20
313.907994
 30
0.0
 11
274.904842
 21
313.907994
 31
0.0
  0
LINE
  5
125
330
1F
100
AcDbEntity
  8
NOCUT
100
AcDbLine
 10
274.404842
 20
308.907994
 30
0.0
 11
206.404842
 21
308.907994
 31
0.0
  0
CIRCLE
  5
12E
330
1F
100
AcDbEntity
  8
1
100
AcDbCircle
 10
422.7121379999999
 20
283.5797330000001
 30
0.0
 40
1.599999999999996
  0
ARC
  5
12F
330
1F
100
AcDbEntity
  8
1
100
AcDbCircle
 10
288.664972
 20
253.407994
 30
0.0
 40
14.0
100
AcDbArc
 50
90.0
 51
131.409622
  0
ARC
  5
130
330
1F
100
AcDbEntity
  8
1
100
AcDbCircle
 10
288.664972
 20
324.407994
 30
0.0
 40
14.0
100
AcDbArc
 50
228.590378
 51
270.0
  0
ARC
  5
131
330
1F
100
AcDbEntity
  8
1
100
AcDbCircle
 10
422.7121379999999
 20
283.5797330000001
 30
0.0
 40
2.0
100
AcDbArc
 50
75.0
 51
345.0
  0
ARC
  5
13E
330
1F
100
AcDbEntity
  8
NOCUT
100
AcDbCircle
 10
288.664972
 20
324.407994
 30
0.0
 40
14.0
100
AcDbArc
 50
228.590378
 51
270.0
  0
ELLIPSE
  5
13F
330
1F
100
AcDbEntity
  8
1
100
AcDbEllipse
 10
429.671523
 20
289.984914
 30
0.0
 11
0.220128181922268
 21
0.2125753143010232
 31
0.0
210
0.0
220
0.0
230
0.9999999999999998
 40
0.9803469999999999
 41
6.026305677866858
 42
6.540064936492317
  0
ELLIPSE
  5
140
330
1F
100
AcDbEntity
  8
1
100
AcDbEllipse
 10
430.421646
 20
278.219409
 30
0.0
 11
0.2941597133632818
 21
-0.0843489404830548
 31
0.0
210
0.0
220
0.0
230
0.9999999999999996
 40
0.9803469999999999
 41
6.026305677866893
 42
6.540064936492289
  0
ELLIPSE
  5
141
330
1F
100
AcDbEntity
  8
1
100
AcDbEllipse
 10
429.4572669999999
 20
276.614413
 30
0.0
 11
0.2125753143010232
 21
-0.2201281819222681
 31
0.0
210
0.0
220
0.0
230
1.0
 40
0.9803469999999999
 41
6.026305677866883
 42
6.540064936492264
  0
ELLIPSE
  5
142
330
1F
100
AcDbEntity
  8
1
100
AcDbEllipse
 10
428.824024
 20
277.270156
 30
0.0
 11
0.2800576451032772
 21
-0.2346916529291855
 31
0.0
210
0.0
220
0.0
230
1.0
 40
0.8188099999999998
 41
6.154745491910112
 42
6.411625122154982
  0
ELLIPSE
  5
143
330
1F
100
AcDbEntity
  8
1
100
AcDbEllipse
 10
429.545371
 20
278.470677
 30
0.0
 11
0.3386995310905412
 21
-0.1370951668006977
 31
0.0
210
0.0
220
0.0
230
1.0
 40
0.8188099999999998
 41
6.154745492267217
 42
6.411625122229968
  0
ELLIPSE
  5
144
330
1F
100
AcDbEntity
  8
1
100
AcDbEllipse
 10
429.713333
 20
288.093253
 30
0.0
 11
0.3432777602623333
 21
0.1251912101690521
 31
0.0
210
0.0
220
0.0
230
0.9999999999999998
 40
0.81881
 41
6.154745492880127
 42
6.411625121555837
  0
ELLIPSE
  5
145
330
1F
100
AcDbEntity
  8
1
100
AcDbEllipse
 10
429.0157809999999
 20
289.351671
 30
0.0
 11
0.2880776648399938
 21
0.2247748163662287
 31
0.0
210
0.0
220
0.0
230
1.0
 40
0.8188100000000002
 41
6.154745492826608
 42
6.411625121859704
  0
ELLIPSE
  5
146
330
1F
100
AcDbEntity
  8
1
100
AcDbEllipse
 10
429.713333
 20
288.093253
 30
0.0
 11
0.3618699819604491
 21
0.050621868453818
 31
0.0
210
0.0
220
0.0
230
1.0
 40
0.81881
 41
6.154745492247739
 42
6.411625122072027
  0
ELLIPSE
  5
147
330
1F
100
AcDbEntity
  8
1
100
AcDbEllipse
 10
429.545371
 20
278.470677
 30
0.0
 11
0.3598828612511376
 21
-0.0632201110045136
 31
0.0
210
0.0
220
0.0
230
1.0
 40
0.81881
 41
6.154745492136457
 42
6.411625122515467
  0
ELLIPSE
  5
148
330
1F
100
AcDbEntity
  8
1
100
AcDbEllipse
 10
429.0157809999999
 20
289.351671
 30
0.0
 11
0.2346916546516124
 21
0.2800576470586827
 31
0.0
210
0.0
220
0.0
230
1.0
 40
0.81881
 41
6.154745492511971
 42
6.411625121840602
  0
ELLIPSE
  5
149
330
1F
100
AcDbEntity
  8
1
100
AcDbEllipse
 10
430.597844
 20
288.313787
 30
0.0
 11
0.2969242547840781
 21
0.0740315314410134
 31
0.0
210
0.0
220
0.0
230
0.9999999999999998
 40
0.980347
 41
6.026305677866878
 42
6.540064936492312
  0
ELLIPSE
  5
14A
330
1F
100
AcDbEntity
  8
1
100
AcDbEllipse
 10
428.824024
 20
277.270156
 30
0.0
 11
0.2247748173534797
 21
-0.288077665936778
 31
0.0
210
0.0
220
0.0
230
0.9999999999999996
 40
0.8188100000000002
 41
6.15474549285333
 42
6.411625121368443
  0
ELLIPSE
  5
14B
330
1F
100
AcDbEntity
  8
1
100
AcDbEllipse
 10
421.2285179999999
 20
318.584026
 30
0.0
 11
9.069911849505929
 21
20.1880140020009
 31
0.0
210
0.0
220
0.0
230
0.9999999999999998
 40
0.725088
 41
3.071992594976542
 42
3.076853994529911
  0
ELLIPSE
  5
14C
330
1F
100
AcDbEntity
  8
1
100
AcDbEllipse
 10
419.219409
 20
312.885182
 30
0.0
 11
15.18321620095459
 21
-5.355366074795412
 31
0.0
210
0.0
220
0.0
230
1.0
 40
0.998624
 41
4.528749601026638
 42
4.608230477959301
  0
ELLIPSE
  5
14D
330
1F
100
AcDbEntity
  8
1
100
AcDbEllipse
 10
423.790212
 20
304.128031
 30
0.0
 11
-3.395004864809728
 21
1.197473159581581
 31
0.0
210
0.0
220
0.0
230
0.9999999999999998
 40
0.9986239999999998
 41
3.141585274248855
 42
5.872218228534559
  0
ELLIPSE
  5
14E
330
1F
100
AcDbEntity
  8
1
100
AcDbEllipse
 10
423.790212
 20
304.128031
 30
0.0
 11
-3.395004864809728
 21
1.197473159581581
 31
0.0
210
0.0
220
0.0
230
0.9999999999999998
 40
0.9986239999999998
 41
5.872218228534567
 42
6.283185307179585
  0
ELLIPSE
  5
14F
330
1F
100
AcDbEntity
  8
1
100
AcDbEllipse
 10
422.3856
 20
304.677898
 30
0.0
 11
-0.0898897536456661
 21
0.0317055708602404
 31
0.0
210
0.0
220
0.0
230
0.9999999999999998
 40
0.998624
 41
3.886489476374958
 42
4.563221393255596
  0
ELLIPSE
  5
150
330
1F
100
AcDbEntity
  8
1
100
AcDbEllipse
 10
422.474938
 20
304.846012
 30
0.0
 11
-0.089889753645666
 21
0.0317055708602404
 31
0.0
210
0.0
220
0.0
230
0.9999999999999998
 40
0.998624
 41
0.2212980471867857
 42
1.421628739665532
  0
ELLIPSE
  5
151
330
1F
100
AcDbEntity
  8
1
100
AcDbEllipse
 10
422.9769609999999
 20
304.786452
 30
0.0
 11
-0.5666776289729548
 21
0.1998763706833374
 31
0.0
210
0.0
220
0.0
230
1.0
 40
0.9986239999999998
 41
5.23995331013619
 42
6.50448335436636
  0
ELLIPSE
  5
152
330
1F
100
AcDbEntity
  8
1
100
AcDbEllipse
 10
422.882037
 20
305.282509
 30
0.0
 11
-0.0898897536456681
 21
0.0317055708602411
 31
0.0
210
0.0
220
0.0
230
1.0
 40
0.9986239999999998
 41
4.039622617657023
 42
5.239953310136113
  0
ELLIPSE
  5
153
330
1F
100
AcDbEntity
  8
1
100
AcDbEllipse
 10
423.0435929999999
 20
305.383407
 30
0.0
 11
-0.0898897536456681
 21
0.0317055708602411
 31
0.0
210
0.0
220
0.0
230
1.0
 40
0.9986239999999998
 41
0.898029964067231
 42
1.57476188094759
  0
ELLIPSE
  5
154
330
1F
100
AcDbEntity
  8
1
100
AcDbEllipse
 10
423.20964
 20
305.860202
 30
0.0
 11
-0.5666776289729545
 21
0.1998763706833373
 31
0.0
210
0.0
220
0.0
230
1.0
 40
0.9986239999999998
 41
1.574761880948108
 42
2.839291925178325
  0
ELLIPSE
  5
155
330
1F
100
AcDbEntity
  8
1
100
AcDbEllipse
 10
423.6148089999999
 20
305.557904
 30
0.0
 11
-0.0898897536456661
 21
0.0317055708602404
 31
0.0
210
0.0
220
0.0
230
0.9999999999999998
 40
0.998624
 41
2.839291925178419
 42
3.516023842059044
  0
ELLIPSE
  5
156
330
1F
100
AcDbEntity
  8
1
100
AcDbEllipse
 10
423.8052929999999
 20
305.564549
 30
0.0
 11
-0.089889753645666
 21
0.0317055708602404
 31
0.0
210
0.0
220
0.0
230
0.9999999999999998
 40
0.998624
 41
5.457285803169957
 42
6.657616495648697
  0
ELLIPSE
  5
157
330
1F
100
AcDbEntity
  8
1
100
AcDbEllipse
 10
424.005044
 20
305.100514
 30
0.0
 11
-0.5666776289729548
 21
0.1998763706833374
 31
0.0
210
0.0
220
0.0
230
1.0
 40
0.9986239999999998
 41
4.192755758939625
 42
5.457285803169822
  0
ELLIPSE
  5
158
330
1F
100
AcDbEntity
  8
1
100
AcDbEllipse
 10
424.38757
 20
305.43029
 30
0.0
 11
-0.0898897536456681
 21
0.0317055708602411
 31
0.0
210
0.0
220
0.0
230
1.0
 40
0.9986239999999998
 41
2.992425066460651
 42
4.192755758939666
  0
ELLIPSE
  5
159
330
1F
100
AcDbEntity
  8
1
100
AcDbEllipse
 10
424.555942
 20
305.340902
 30
0.0
 11
-0.0898897536456681
 21
0.0317055708602411
 31
0.0
210
0.0
220
0.0
230
1.0
 40
0.9986239999999998
 41
6.134017720050445
 42
6.810749636930947
  0
ELLIPSE
  5
15A
330
1F
100
AcDbEntity
  8
1
100
AcDbEllipse
 10
423.936718
 20
304.254651
 30
0.0
 11
-3.677921936877202
 21
1.297262589546711
 31
0.0
210
0.0
220
0.0
230
1.0
 40
0.9986239999999998
 41
0.0
 42
6.283185307179585
  0
ELLIPSE
  5
15B
330
1F
100
AcDbEntity
  8
1
100
AcDbEllipse
 10
430.6073059999999
 20
288.907994
 30
0.0
 11
2.327133542537074
 21
21.49756846204079
 31
0.0
210
0.0
220
0.0
230
1.0
 40
0.138944
 41
1.963969111275759
 42
3.156632395651091
  0
ELLIPSE
  5
15C
330
1F
100
AcDbEntity
  8
1
100
AcDbEllipse
 10
429.7648419999999
 20
288.907994
 30
0.0
 11
0.0
 21
21.49999999968257
 31
0.0
210
0.0
220
0.0
230
1.0
 40
0.140541
 41
1.393623436927377
 42
1.94892936922026
  0
ELLIPSE
  5
15D
330
1F
100
AcDbEntity
  8
1
100
AcDbEllipse
 10
419.521105
 20
299.6768990000001
 30
0.0
 11
-2.357642267228976
 21
0.8315785830427641
 31
0.0
210
0.0
220
0.0
230
1.0
 40
0.998624
 41
0.0520252572636104
 42
1.945227431237591
  0
ELLIPSE
  5
15E
330
1F
100
AcDbEntity
  8
1
100
AcDbEllipse
 10
419.521105
 20
299.6768990000001
 30
0.0
 11
-2.357642267228976
 21
0.8315785830427641
 31
0.0
210
0.0
220
0.0
230
1.0
 40
0.998624
 41
1.945227431237593
 42
2.645311779347056
  0
ELLIPSE
  5
15F
330
1F
100
AcDbEntity
  8
1
100
AcDbEllipse
 10
419.4398269999999
 20
299.446462
 30
0.0
 11
-2.357642267228976
 21
0.8315785830427644
 31
0.0
210
0.0
220
0.0
230
1.0
 40
0.9986239999999998
 41
5.822888314034129
 42
5.942244189143308
  0
ELLIPSE
  5
160
330
1F
100
AcDbEntity
  8
1
100
AcDbEllipse
 10
419.434594
 20
299.431627
 30
0.0
 11
2.357642267228976
 21
-0.8315785830427666
 31
0.0
210
0.0
220
0.0
230
1.0
 40
0.9986239999999998
 41
2.800651535553506
 42
4.181312852501136
  0
ELLIPSE
  5
161
330
1F
100
AcDbEntity
  8
1
100
AcDbEllipse
 10
417.924595
 20
288.908346
 30
0.0
 11
0.7190022344063629
 21
-21.49964313134096
 31
0.0
210
0.0
220
0.0
230
1.0
 40
0.0191
 41
3.221164096563044
 42
3.235125933088485
  0
ELLIPSE
  5
162
330
1F
100
AcDbEntity
  8
1
100
AcDbEllipse
 10
362.111569
 20
288.910849
 30
0.0
 11
1232.401072829032
 21
-1.063708882477805
 31
0.0
210
0.0
220
0.0
230
0.9999999999999998
 40
0.017422
 41
1.526120436697671
 42
1.530944308445803
  0
ELLIPSE
  5
163
330
1F
100
AcDbEntity
  8
1
100
AcDbEllipse
 10
425.05245
 20
305.435296
 30
0.0
 11
-0.5666776289729545
 21
0.1998763706833373
 31
0.0
210
0.0
220
0.0
230
1.0
 40
0.9986239999999998
 41
0.5275643297515485
 42
1.79209437398171
  0
ELLIPSE
  5
164
330
1F
100
AcDbEntity
  8
1
100
AcDbEllipse
 10
424.9932589999999
 20
304.933862
 30
0.0
 11
-0.0898897536456661
 21
0.0317055708602404
 31
0.0
210
0.0
220
0.0
230
0.9999999999999998
 40
0.998624
 41
1.7920943739819
 42
2.468826290862657
  0
ELLIPSE
  5
165
330
1F
100
AcDbEntity
  8
1
100
AcDbEllipse
 10
425.094404
 20
304.772393
 30
0.0
 11
-0.089889753645666
 21
0.0317055708602404
 31
0.0
210
0.0
220
0.0
230
0.9999999999999998
 40
0.998624
 41
4.410088251973299
 42
5.610418944452145
  0
ELLIPSE
  5
166
330
1F
100
AcDbEntity
  8
1
100
AcDbEllipse
 10
424.792132
 20
304.367919
 30
0.0
 11
-0.5666776289729548
 21
0.1998763706833374
 31
0.0
210
0.0
220
0.0
230
1.0
 40
0.9986239999999998
 41
3.145558207742977
 42
4.410088251973191
  0
ELLIPSE
  5
167
330
1F
100
AcDbEntity
  8
1
100
AcDbEllipse
 10
425.269582
 20
304.201637
 30
0.0
 11
-0.0898897536456681
 21
0.0317055708602411
 31
0.0
210
0.0
220
0.0
230
1.0
 40
0.9986239999999998
 41
1.945227515263696
 42
3.145558207742971
  0
ELLIPSE
  5
168
330
1F
100
AcDbEntity
  8
1
100
AcDbEllipse
 10
425.276399
 20
304.011352
 30
0.0
 11
-0.0898897536456681
 21
0.0317055708602411
 31
0.0
210
0.0
220
0.0
230
1.0
 40
0.9986239999999998
 41
5.086820168853931
 42
5.763552085734752
  0
ELLIPSE
  5
169
330
1F
100
AcDbEntity
  8
1
100
AcDbEllipse
 10
425.6068589999999
 20
303.62895
 30
0.0
 11
-0.5666776289729545
 21
0.1998763706833373
 31
0.0
210
0.0
220
0.0
230
1.0
 40
0.9986239999999998
 41
5.763552085734516
 42
7.028082129964722
  0
ELLIPSE
  5
16A
330
1F
100
AcDbEntity
  8
1
100
AcDbEllipse
 10
425.142499
 20
303.429814
 30
0.0
 11
-0.0898897536456661
 21
0.0317055708602404
 31
0.0
210
0.0
220
0.0
230
0.9999999999999998
 40
0.998624
 41
0.7448968227853845
 42
1.42162873966611
  0
ELLIPSE
  5
16B
330
1F
100
AcDbEntity
  8
1
100
AcDbEllipse
 10
425.053161
 20
303.2617
 30
0.0
 11
-0.089889753645666
 21
0.0317055708602404
 31
0.0
210
0.0
220
0.0
230
0.9999999999999998
 40
0.998624
 41
3.362890700776578
 42
4.563221393255007
  0
ELLIPSE
  5
16C
330
1F
100
AcDbEntity
  8
1
100
AcDbEllipse
 10
424.5511379999999
 20
303.32126
 30
0.0
 11
-0.5666776289729548
 21
0.1998763706833374
 31
0.0
210
0.0
220
0.0
230
1.0
 40
0.9986239999999998
 41
2.098360656546398
 42
3.362890700776543
  0
ELLIPSE
  5
16D
330
1F
100
AcDbEntity
  8
1
100
AcDbEllipse
 10
424.646062
 20
302.825203
 30
0.0
 11
-0.0898897536456681
 21
0.0317055708602411
 31
0.0
210
0.0
220
0.0
230
1.0
 40
0.9986239999999998
 41
0.8980299640672782
 42
2.098360656546728
  0
ELLIPSE
  5
16E
330
1F
100
AcDbEntity
  8
1
100
AcDbEllipse
 10
424.4845059999999
 20
302.724305
 30
0.0
 11
-0.0898897536456681
 21
0.0317055708602411
 31
0.0
210
0.0
220
0.0
230
1.0
 40
0.9986239999999998
 41
4.039622617657256
 42
4.716354534537384
  0
ELLIPSE
  5
16F
330
1F
100
AcDbEntity
  8
1
100
AcDbEllipse
 10
424.3184589999999
 20
302.24751
 30
0.0
 11
-0.5666776289729545
 21
0.1998763706833373
 31
0.0
210
0.0
220
0.0
230
1.0
 40
0.9986239999999998
 41
4.716354534537948
 42
5.980884578768107
  0
ELLIPSE
  5
170
330
1F
100
AcDbEntity
  8
1
100
AcDbEllipse
 10
423.91329
 20
302.549808
 30
0.0
 11
-0.0898897536456661
 21
0.0317055708602404
 31
0.0
210
0.0
220
0.0
230
0.9999999999999998
 40
0.998624
 41
5.980884578767982
 42
6.657616495648806
  0
ELLIPSE
  5
171
330
1F
100
AcDbEntity
  8
1
100
AcDbEllipse
 10
423.7228059999999
 20
302.543163
 30
0.0
 11
-0.089889753645666
 21
0.0317055708602404
 31
0.0
210
0.0
220
0.0
230
0.9999999999999998
 40
0.998624
 41
2.315693149580063
 42
3.516023842059044
  0
ELLIPSE
  5
172
330
1F
100
AcDbEntity
  8
1
100
AcDbEllipse
 10
423.5230549999999
 20
303.007198
 30
0.0
 11
-0.5666776289729548
 21
0.1998763706833374
 31
0.0
210
0.0
220
0.0
230
1.0
 40
0.9986239999999998
 41
1.051163105349804
 42
2.315693149579995
  0
ELLIPSE
  5
173
330
1F
100
AcDbEntity
  8
1
100
AcDbEllipse
 10
423.140529
 20
302.677422
 30
0.0
 11
-0.0898897536456681
 21
0.0317055708602411
 31
0.0
210
0.0
220
0.0
230
1.0
 40
0.9986239999999998
 41
6.134017720050489
 42
7.334348412529275
  0
ELLIPSE
  5
174
330
1F
100
AcDbEntity
  8
1
100
AcDbEllipse
 10
422.972157
 20
302.76681
 30
0.0
 11
-0.0898897536456681
 21
0.0317055708602411
 31
0.0
210
0.0
220
0.0
230
1.0
 40
0.9986239999999998
 41
2.992425066460533
 42
3.669156983341218
  0
ELLIPSE
  5
175
330
1F
100
AcDbEntity
  8
1
100
AcDbEllipse
 10
422.475649
 20
302.672416
 30
0.0
 11
-0.5666776289729545
 21
0.1998763706833373
 31
0.0
210
0.0
220
0.0
230
1.0
 40
0.9986239999999998
 41
3.669156983341293
 42
4.933687027571454
  0
ELLIPSE
  5
176
330
1F
100
AcDbEntity
  8
1
100
AcDbEllipse
 10
422.53484
 20
303.17385
 30
0.0
 11
-0.0898897536456661
 21
0.0317055708602404
 31
0.0
210
0.0
220
0.0
230
0.9999999999999998
 40
0.998624
 41
4.93368702757137
 42
5.610418944452204
  0
ELLIPSE
  5
177
330
1F
100
AcDbEntity
  8
1
100
AcDbEllipse
 10
422.4336949999999
 20
303.335319
 30
0.0
 11
-0.089889753645666
 21
0.0317055708602404
 31
0.0
210
0.0
220
0.0
230
0.9999999999999998
 40
0.998624
 41
1.268495598383222
 42
2.468826290862168
  0
ELLIPSE
  5
178
330
1F
100
AcDbEntity
  8
1
100
AcDbEllipse
 10
422.735967
 20
303.739793
 30
0.0
 11
-0.5666776289729548
 21
0.1998763706833374
 31
0.0
210
0.0
220
0.0
230
1.0
 40
0.9986239999999998
 41
0.0039655541532078
 42
1.268495598383404
  0
ELLIPSE
  5
179
330
1F
100
AcDbEntity
  8
1
100
AcDbEllipse
 10
422.258517
 20
303.906075
 30
0.0
 11
-0.0898897536456681
 21
0.0317055708602411
 31
0.0
210
0.0
220
0.0
230
1.0
 40
0.9986239999999998
 41
5.086820168854099
 42
6.287150861332767
  0
ELLIPSE
  5
17A
330
1F
100
AcDbEntity
  8
1
100
AcDbEllipse
 10
422.2517
 20
304.09636
 30
0.0
 11
-0.0898897536456681
 21
0.0317055708602411
 31
0.0
210
0.0
220
0.0
230
1.0
 40
0.9986239999999998
 41
1.945227515264138
 42
2.621959432144961
  0
ELLIPSE
  5
17B
330
1F
100
AcDbEntity
  8
1
100
AcDbEllipse
 10
421.9212399999999
 20
304.478762
 30
0.0
 11
-0.5666776289729545
 21
0.1998763706833373
 31
0.0
210
0.0
220
0.0
230
1.0
 40
0.9986239999999998
 41
2.621959432144703
 42
3.886489476374928
  0
ELLIPSE
  5
17C
330
1F
100
AcDbEntity
  8
1
100
AcDbEllipse
 10
423.764049
 20
304.053856
 30
0.0
 11
1.98041950447234
 21
-0.6985260097559243
 31
0.0
210
0.0
220
0.0
230
1.0
 40
0.9986239999999998
 41
0.0
 42
6.283185307179585
  0
ELLIPSE
  5
17D
330
1F
100
AcDbEntity
  8
1
100
AcDbEllipse
 10
423.7740819999999
 20
304.082301
 30
0.0
 11
3.395004864809725
 21
-1.197473159581583
 31
0.0
210
0.0
220
0.0
230
1.0
 40
0.9986239999999998
 41
0.0
 42
6.283185307179585
  0
ELLIPSE
  5
17E
330
1F
100
AcDbEntity
  8
1
100
AcDbEllipse
 10
423.9593919999999
 20
304.318936
 30
0.0
 11
3.531988007444662
 21
-1.245789330883937
 31
0.0
210
0.0
220
0.0
230
0.9999999999999998
 40
0.9986239999999998
 41
1.94522755203838
 42
3.356097206659879
  0
ELLIPSE
  5
17F
330
1F
100
AcDbEntity
  8
1
100
AcDbEllipse
 10
423.9593919999999
 20
304.318936
 30
0.0
 11
3.531988007444662
 21
-1.245789330883937
 31
0.0
210
0.0
220
0.0
230
0.9999999999999998
 40
0.9986239999999998
 41
5.419043491545753
 42
6.283185307179585
  0
ELLIPSE
  5
180
330
1F
100
AcDbEntity
  8
1
100
AcDbEllipse
 10
423.9593919999999
 20
304.318936
 30
0.0
 11
3.531988007444662
 21
-1.245789330883937
 31
0.0
210
0.0
220
0.0
230
0.9999999999999998
 40
0.9986239999999998
 41
0.0
 42
1.50893877539691
  0
ELLIPSE
  5
181
330
1F
100
AcDbEntity
  8
1
100
AcDbEllipse
 10
423.9593919999999
 20
304.318936
 30
0.0
 11
3.531988007444662
 21
-1.245789330883937
 31
0.0
210
0.0
220
0.0
230
0.9999999999999998
 40
0.9986239999999998
 41
1.632540859458623
 42
1.94522755203838
  0
ELLIPSE
  5
182
330
1F
100
AcDbEntity
  8
1
100
AcDbEllipse
 10
419.1869009999999
 20
299.153748
 30
0.0
 11
0.481743459300028
 21
0.5170545786902289
 31
0.0
210
0.0
220
0.0
230
1.0
 40
0.01483
 41
0.5198738242651624
 42
1.53677966467334
  0
ELLIPSE
  5
183
330
1F
100
AcDbEntity
  8
1
100
AcDbEllipse
 10
423.939596
 20
304.26281
 30
0.0
 11
3.588083700633127
 21
-1.265575189707758
 31
0.0
210
0.0
220
0.0
230
1.0
 40
0.9986239999999998
 41
1.945227451328571
 42
3.745261875445964
  0
ELLIPSE
  5
184
330
1F
100
AcDbEntity
  8
1
100
AcDbEllipse
 10
423.939596
 20
304.26281
 30
0.0
 11
3.588083700633127
 21
-1.265575189707758
 31
0.0
210
0.0
220
0.0
230
1.0
 40
0.9986239999999998
 41
4.874566385899283
 42
6.283185307179585
  0
ELLIPSE
  5
185
330
1F
100
AcDbEntity
  8
1
100
AcDbEllipse
 10
423.939596
 20
304.26281
 30
0.0
 11
3.588083700633127
 21
-1.265575189707758
 31
0.0
210
0.0
220
0.0
230
1.0
 40
0.9986239999999998
 41
0.0
 42
1.945227440221053
  0
ELLIPSE
  5
186
330
1F
100
AcDbEntity
  8
1
100
AcDbEllipse
 10
418.834675
 20
308.986188
 30
0.0
 11
0.5172967686910992
 21
-0.4819691094625544
 31
0.0
210
0.0
220
0.0
230
1.0
 40
0.033998
 41
0.5687050474070201
 42
1.585610887849613
  0
ELLIPSE
  5
187
330
1F
100
AcDbEntity
  8
1
100
AcDbEllipse
 10
428.677361
 20
309.329544
 30
0.0
 11
0.4817434592003325
 21
0.5170545785876165
 31
0.0
210
0.0
220
0.0
230
0.9999999999999998
 40
0.01483
 41
1.536779664361961
 42
2.553685504970698
  0
ELLIPSE
  5
188
330
1F
100
AcDbEntity
  8
1
100
AcDbEllipse
 10
429.029586
 20
299.497104
 30
0.0
 11
0.5172967687502027
 21
-0.4819691095150039
 31
0.0
210
0.0
220
0.0
230
1.0
 40
0.033998
 41
1.585610887763961
 42
2.602516728112981
  0
ELLIPSE
  5
189
330
1F
100
AcDbEntity
  8
1
100
AcDbEllipse
 10
418.3950819999999
 20
288.907993
 30
0.0
 11
0.7190146101368931
 21
-21.49999578956702
 31
0.0
210
0.0
220
0.0
230
1.0
 40
0.0191
 41
3.032077966773281
 42
3.127245566230376
  0
ELLIPSE
  5
18A
330
1F
100
AcDbEntity
  8
1
100
AcDbEllipse
 10
418.23146
 20
288.907993
 30
0.0
 11
0.602847350391012
 21
-21.49983307347262
 31
0.0
210
0.0
220
0.0
230
1.0
 40
0.140543
 41
3.123943569803695
 42
3.218043577081214
  0
ELLIPSE
  5
18B
330
1F
100
AcDbEntity
  8
1
100
AcDbEllipse
 10
207.660245
 20
288.908007
 30
0.0
 11
561.7797022362347
 21
20.96657382373951
 31
0.0
210
0.0
220
0.0
230
1.0
 40
0.008472
 41
5.099577874548226
 42
5.112774321920637
  0
ELLIPSE
  5
18C
330
1F
100
AcDbEntity
  8
1
100
AcDbEllipse
 10
419.4398269999999
 20
299.446462
 30
0.0
 11
-2.357642267228976
 21
0.8315785830427644
 31
0.0
210
0.0
220
0.0
230
1.0
 40
0.9986239999999998
 41
2.668199979721743
 42
2.776747666076886
  0
ELLIPSE
  5
18D
330
1F
100
AcDbEntity
  8
1
100
AcDbEllipse
 10
429.152084
 20
290.288787
 30
0.0
 11
0.0001758288822644
 21
-0.5000776676663847
 31
0.0
210
0.0
220
0.0
230
0.9999999999999998
 40
0.140519
 41
3.139090475969906
 42
4.709886802763164
  0
ELLIPSE
  5
18E
330
1F
100
AcDbEntity
  8
1
100
AcDbEllipse
 10
429.395645
 20
298.001607
 30
0.0
 11
0.0006032075297112
 21
1.000616951684849
 31
0.0
210
0.0
220
0.0
230
0.9999999999999998
 40
0.140101
 41
3.643221199733691
 42
4.620749128817817
  0
ELLIPSE
  5
18F
330
1F
100
AcDbEntity
  8
1
100
AcDbEllipse
 10
428.6429159999999
 20
276.173227
 30
0.0
 11
0.0538770024353558
 21
0.4991611425091107
 31
0.0
210
0.0
220
0.0
230
1.0
 40
0.139171
 41
1.583568179248121
 42
3.154364506042635
  0
ELLIPSE
  5
190
330
1F
100
AcDbEntity
  8
1
100
AcDbEllipse
 10
415.449218
 20
293.982413
 30
0.0
 11
-5.995028812629473
 21
-0.2352903823312635
 31
0.0
210
0.0
220
0.0
230
1.0
 40
0.22151
 41
2.402838130142934
 42
3.878120217647536
  0
SPLINE
  5
197
330
1F
100
AcDbEntity
  8
1
100
AcDbSpline
210
0.0
220
0.0
230
1.0
 70
     8
 71
     3
 72
     8
 73
     4
 74
     0
 42
0.000000001
 43
0.0000000001
 40
0.0
 40
0.0
 40
0.0
 40
0.0
 40
1.0
 40
1.0
 40
1.0
 40
1.0
 10
410.4268203747727
 20
299.3216528091693
 30
0.0
 10
410.3172169824892
 20
299.389473419624
 30
0.0
 10
410.2072089155673
 20
299.457481255621
 30
0.0
 10
410.0968015378876
 20
299.5256738355234
 30
0.0
  0
SPLINE
  5
19E
330
1F
100
AcDbEntity
  8
1
100
AcDbSpline
210
0.0
220
0.0
230
1.0
 70
     8
 71
     3
 72
    10
 73
     6
 74
     0
 42
0.000000001
 43
0.0000000001
 40
0.0
 40
0.0
 40
0.0
 40
0.0
 40
0.7126968672812439
 40
0.7126968672812439
 40
1.0
 40
1.0
 40
1.0
 40
1.0
 10
422.4139144869083
 20
304.9525686858741
 30
0.0
 10
422.4175483719325
 20
304.9838038948128
 30
0.0
 10
422.4236390290546
 20
305.0144994571377
 30
0.0
 10
422.4355777753543
 20
305.0568158311819
 30
0.0
 10
422.4394025689861
 20
305.0688858414822
 30
0.0
 10
422.4436285130858
 20
305.080866512874
 30
0.0
  0
SPLINE
  5
19F
330
1F
100
AcDbEntity
  8
1
100
AcDbSpline
210
0.0
220
0.0
230
1.0
 70
     8
 71
     3
 72
    10
 73
     6
 74
     0
 42
0.000000001
 43
0.0000000001
 40
0.0
 40
0.0
 40
0.0
 40
0.0
 40
0.6730942228959345
 40
0.6730942228959345
 40
1.0
 40
1.0
 40
1.0
 40
1.0
 10
423.7420954797177
 20
305.6341090905401
 30
0.0
 10
423.7415671539856
 20
305.6317725371981
 30
0.0
 10
423.7409450093768
 20
305.6294479134565
 30
0.0
 10
423.7398809728309
 20
305.6260135610745
 30
0.0
 10
423.7395128695845
 20
305.6248996027798
 30
0.0
 10
423.7391243635842
 20
305.6237944458668
 30
0.0
  0
SPLINE
  5
1A0
330
1F
100
AcDbEntity
  8
1
100
AcDbSpline
210
0.0
220
0.0
230
1.0
 70
     8
 71
     3
 72
    27
 73
    23
 74
     0
 42
0.000000001
 43
0.0000000001
 40
0.0
 40
0.0
 40
0.0
 40
0.0
 40
0.1250000000001668
 40
0.1250000000001668
 40
0.1875000000001982
 40
0.1875000000001982
 40
0.2500000000002296
 40
0.2500000000002296
 40
0.3750000000002925
 40
0.3750000000002925
 40
0.4375000000003242
 40
0.4375000000003242
 40
0.5000000000003558
 40
0.5000000000003558
 40
0.6250000000003134
 40
0.6250000000003134
 40
0.6875000000002907
 40
0.6875000000002907
 40
0.7500000000002682
 40
0.7500000000002682
 40
0.8750000000001341
 40
1.0
 40
1.0
 40
1.0
 40
1.0
 10
423.7940886225521
 20
302.5510052338172
 30
0.0
 10
423.7648726468353
 20
302.5382837860599
 30
0.0
 10
423.7349346997531
 20
302.5279917035123
 30
0.0
 10
423.6889658474086
 20
302.5161415443912
 30
0.0
 10
423.6734650803541
 20
302.5127922279628
 30
0.0
 10
423.6421013034566
 20
302.507319398572
 30
0.0
 10
423.6261922296489
 20
302.5051959954955
 30
0.0
 10
423.5786766044442
 20
302.5007829850675
 30
0.0
 10
423.5470652228737
 20
302.5003863326259
 30
0.0
 10
423.4997457804782
 20
302.5035485438746
 30
0.0
 10
423.4839889755567
 20
302.5052317318238
 30
0.0
 10
423.4525087726062
 20
302.5098819921821
 30
0.0
 10
423.4367135210391
 20
302.5128681495813
 30
0.0
 10
423.3900844569903
 20
302.5236517365535
 30
0.0
 10
423.3599318434336
 20
302.5332447322298
 30
0.0
 10
423.3160610446306
 20
302.5511312777459
 30
0.0
 10
423.3016648964516
 20
302.5576791162871
 30
0.0
 10
423.2733335069729
 20
302.5719613013758
 30
0.0
 10
423.2593480097139
 20
302.5797268666482
 30
0.0
 10
423.2184639485391
 20
302.6046385130779
 30
0.0
 10
423.1673360279281
 20
302.6417625352614
 30
0.0
 10
423.1226873376622
 20
302.6863566894649
 30
0.0
 10
423.1020339265164
 20
302.7105757035207
 30
0.0
  0
SPLINE
  5
1A1
330
1F
100
AcDbEntity
  8
1
100
AcDbSpline
210
0.0
220
0.0
230
1.0
 70
     8
 71
     3
 72
    16
 73
    12
 74
     0
 42
0.000000001
 43
0.0000000001
 40
0.0
 40
0.0
 40
0.0
 40
0.0
 40
0.3597118104607219
 40
0.3597118104607219
 40
0.5395677156910545
 40
0.5395677156910545
 40
0.719423620921387
 40
0.719423620921387
 40
0.8992795261517194
 40
0.8992795261517194
 40
1.0
 40
1.0
 40
1.0
 40
1.0
 10
423.1020339265164
 20
302.7105757035207
 30
0.0
 10
423.0955670734163
 20
302.7181589935167
 30
0.0
 10
423.0903808494439
 20
302.7266951061441
 30
0.0
 10
423.0847667918299
 20
302.7401047371556
 30
0.0
 10
423.0832376771019
 20
302.7447010669039
 30
0.0
 10
423.0808690513196
 20
302.7541478458828
 30
0.0
 10
423.0800467794876
 20
302.7589524913139
 30
0.0
 10
423.0791261753968
 20
302.7684961365391
 30
0.0
 10
423.0790191236325
 20
302.7732687736915
 30
0.0
 10
423.0793949695433
 20
302.7807148374162
 30
0.0
 10
423.0796421473475
 20
302.7833994196733
 30
0.0
 10
423.0799975134072
 20
302.7860665831656
 30
0.0
  0
SPLINE
  5
1A2
330
1F
100
AcDbEntity
  8
1
100
AcDbSpline
210
0.0
220
0.0
230
1.0
 70
     8
 71
     3
 72
    10
 73
     6
 74
     0
 42
0.000000001
 43
0.0000000001
 40
0.0
 40
0.0
 40
0.0
 40
0.0
 40
0.1238045677497126
 40
0.1238045677497126
 40
1.0
 40
1.0
 40
1.0
 40
1.0
 10
423.8219164963056
 20
302.5694861426792
 30
0.0
 10
423.8209149165136
 20
302.5685325132962
 30
0.0
 10
423.819891446156
 20
302.5675989138152
 30
0.0
 10
423.8114587313985
 20
302.5602358669992
 30
0.0
 10
423.8032232411426
 20
302.5549827006082
 30
0.0
 10
423.7940886225521
 20
302.5510052338172
 30
0.0
  0
SPLINE
  5
1A3
330
1F
100
AcDbEntity
  8
1
100
AcDbSpline
210
0.0
220
0.0
230
1.0
 70
     8
 71
     3
 72
    10
 73
     6
 74
     0
 42
0.000000001
 43
0.0000000001
 40
0.0
 40
0.0
 40
0.0
 40
0.0
 40
0.6428245118300816
 40
0.6428245118300816
 40
1.0
 40
1.0
 40
1.0
 40
1.0
 10
423.1003370920809
 20
302.882624985411
 30
0.0
 10
423.1023525036769
 20
302.871658195312
 30
0.0
 10
423.1024546811509
 20
302.8606748155573
 30
0.0
 10
423.0998120990077
 20
302.8438077845551
 30
0.0
 10
423.0983388192913
 20
302.8379652469201
 30
0.0
 10
423.096339948019
 20
302.8323030039413
 30
0.0
  0
SPLINE
  5
1A4
330
1F
100
AcDbEntity
  8
1
100
AcDbSpline
210
0.0
220
0.0
230
1.0
 70
     8
 71
     3
 72
     8
 73
     4
 74
     0
 42
0.000000001
 43
0.0000000001
 40
0.0
 40
0.0
 40
0.0
 40
0.0
 40
1.0
 40
1.0
 40
1.0
 40
1.0
 10
423.8578133390104
 20
302.6790854036118
 30
0.0
 10
423.8610415235385
 20
302.6882612527717
 30
0.0
 10
423.8655719032498
 20
302.6968488182166
 30
0.0
 10
423.8714752385598
 20
302.7048198539022
 30
0.0
  0
SPLINE
  5
1A5
330
1F
100
AcDbEntity
  8
1
100
AcDbSpline
210
0.0
220
0.0
230
1.0
 70
     8
 71
     3
 72
    20
 73
    16
 74
     0
 42
0.000000001
 43
0.0000000001
 40
0.0
 40
0.0
 40
0.0
 40
0.0
 40
0.1250000000000017
 40
0.1250000000000017
 40
0.2500000000000033
 40
0.2500000000000033
 40
0.3750000000000049
 40
0.3750000000000049
 40
0.5000000000000067
 40
0.5000000000000067
 40
0.6250000000000085
 40
0.6250000000000085
 40
0.75000000000001
 40
0.75000000000001
 40
1.0
 40
1.0
 40
1.0
 40
1.0
 10
422.5184621427429
 20
303.3515318773001
 30
0.0
 10
422.5144465697006
 20
303.3489580012125
 30
0.0
 10
422.5102735248325
 20
303.3466941629971
 30
0.0
 10
422.501614683555
 20
303.3427825682294
 30
0.0
 10
422.497121214665
 20
303.3411376935073
 30
0.0
 10
422.4880314504576
 20
303.3385457629417
 30
0.0
 10
422.4834097423017
 20
303.3375854468437
 30
0.0
 10
422.4740107489512
 20
303.3363473446834
 30
0.0
 10
422.469195328461
 20
303.3360720870946
 30
0.0
 10
422.4596361430259
 20
303.3362498837278
 30
0.0
 10
422.4548878968863
 20
303.3366954238602
 30
0.0
 10
422.4454555322578
 20
303.3383067437247
 30
0.0
 10
422.4407406859473
 20
303.3394830393481
 30
0.0
 10
422.4269183252053
 20
303.3441033852501
 30
0.0
 10
422.4183037965939
 20
303.3485309251242
 30
0.0
 10
422.4103301577742
 20
303.3543905104825
 30
0.0
  0
SPLINE
  5
1A6
330
1F
100
AcDbEntity
  8
1
100
AcDbSpline
210
0.0
220
0.0
230
1.0
 70
     8
 71
     3
 72
    10
 73
     6
 74
     0
 42
0.000000001
 43
0.0000000001
 40
0.0
 40
0.0
 40
0.0
 40
0.0
 40
0.5
 40
0.5
 40
1.0
 40
1.0
 40
1.0
 40
1.0
 10
422.5184621427429
 20
303.3515318773001
 30
0.0
 10
422.5276408414791
 20
303.3574151803667
 30
0.0
 10
422.5375662224847
 20
303.3616678358381
 30
0.0
 10
422.558779794322
 20
303.36678902497
 30
0.0
 10
422.5695739386486
 20
303.367550485862
 30
0.0
 10
422.5805721275458
 20
303.3664048857521
 30
0.0
  0
SPLINE
  5
1A7
330
1F
100
AcDbEntity
  8
1
100
AcDbSpline
210
0.0
220
0.0
230
1.0
 70
     8
 71
     3
 72
    24
 73
    20
 74
     0
 42
0.000000001
 43
0.0000000001
 40
0.0
 40
0.0
 40
0.0
 40
0.0
 40
0.1249999999999415
 40
0.1249999999999415
 40
0.2499999999998829
 40
0.2499999999998829
 40
0.3124999999998536
 40
0.3124999999998536
 40
0.3749999999998244
 40
0.3749999999998244
 40
0.4999999999998594
 40
0.4999999999998594
 40
0.6249999999998945
 40
0.6249999999998945
 40
0.7499999999999298
 40
0.7499999999999298
 40
0.8749999999999648
 40
0.8749999999999648
 40
1.0
 40
1.0
 40
1.0
 40
1.0
 10
422.5805721275458
 20
303.3664048857521
 30
0.0
 10
422.6117205009091
 20
303.3631603897463
 30
0.0
 10
422.6423522103086
 20
303.3575073410085
 30
0.0
 10
422.7026299518215
 20
303.3413842625149
 30
0.0
 10
422.7322764090791
 20
303.3309165886648
 30
0.0
 10
422.7759836296017
 20
303.3113022364944
 30
0.0
 10
422.7903315002538
 20
303.304144224918
 30
0.0
 10
422.8182400321665
 20
303.2887673066302
 30
0.0
 10
422.831854820258
 20
303.2805246331778
 30
0.0
 10
422.8716832797501
 20
303.2541328379601
 30
0.0
 10
422.8969254342985
 20
303.234296789561
 30
0.0
 10
422.9444105481347
 20
303.1900865363362
 30
0.0
 10
422.9659628126647
 20
303.1663669333367
 30
0.0
 10
423.0049380774095
 20
303.1158795790956
 30
0.0
 10
423.0223658322996
 20
303.0891009703111
 30
0.0
 10
423.0529958934988
 20
303.0324700013465
 30
0.0
 10
423.0657554528111
 20
303.0034460464356
 30
0.0
 10
423.0865732658718
 20
302.9440540505694
 30
0.0
 10
423.0946290041728
 20
302.9136853415568
 30
0.0
 10
423.1003370920809
 20
302.882624985411
 30
0.0
  0
SPLINE
  5
1A8
330
1F
100
AcDbEntity
  8
1
100
AcDbSpline
210
0.0
220
0.0
230
1.0
 70
     8
 71
     3
 72
    18
 73
    14
 74
     0
 42
0.000000001
 43
0.0000000001
 40
0.0
 40
0.0
 40
0.0
 40
0.0
 40
0.2500000000000036
 40
0.2500000000000036
 40
0.3750000000000079
 40
0.3750000000000079
 40
0.5000000000000118
 40
0.5000000000000118
 40
0.6250000000000157
 40
0.6250000000000157
 40
0.7500000000000196
 40
0.7500000000000196
 40
1.0
 40
1.0
 40
1.0
 40
1.0
 10
424.6975813509616
 20
302.8270077048788
 30
0.0
 10
424.6878528052866
 20
302.8252244020981
 30
0.0
 10
424.6779617667321
 20
302.8250305584267
 30
0.0
 10
424.6637079943098
 20
302.8269211583922
 30
0.0
 10
424.6590226593434
 20
302.8279116218071
 30
0.0
 10
424.6497855769551
 20
302.8306181625153
 30
0.0
 10
424.6452815309853
 20
302.8323261060713
 30
0.0
 10
424.6366966149786
 20
302.8363362994156
 30
0.0
 10
424.6325827068056
 20
302.8386479393905
 30
0.0
 10
424.6247073843579
 20
302.8438748368711
 30
0.0
 10
424.6209199202158
 20
302.8468171720454
 30
0.0
 10
424.6103948784271
 20
302.8563207531361
 30
0.0
 10
424.6044143120896
 20
302.8635575430964
 30
0.0
 10
424.5994787606791
 20
302.8717015964179
 30
0.0
  0
SPLINE
  5
1A9
330
1F
100
AcDbEntity
  8
1
100
AcDbSpline
210
0.0
220
0.0
230
1.0
 70
     8
 71
     3
 72
    10
 73
     6
 74
     0
 42
0.000000001
 43
0.0000000001
 40
0.0
 40
0.0
 40
0.0
 40
0.0
 40
0.5
 40
0.5
 40
1.0
 40
1.0
 40
1.0
 40
1.0
 10
424.5503841691752
 20
302.9122155933296
 30
0.0
 10
424.5607389500971
 20
302.9084377199259
 30
0.0
 10
424.5701344230698
 20
302.9029930208791
 30
0.0
 10
424.5868555044092
 20
302.8891240974025
 30
0.0
 10
424.5938434714116
 20
302.8810002729916
 30
0.0
 10
424.5994787606791
 20
302.8717015964179
 30
0.0
  0
SPLINE
  5
1AA
330
1F
100
AcDbEntity
  8
1
100
AcDbSpline
210
0.0
220
0.0
230
1.0
 70
     8
 71
     3
 72
    24
 73
    20
 74
     0
 42
0.000000001
 43
0.0000000001
 40
0.0
 40
0.0
 40
0.0
 40
0.0
 40
0.1249999999999352
 40
0.1249999999999352
 40
0.2499999999998703
 40
0.2499999999998703
 40
0.3124999999998811
 40
0.3124999999998811
 40
0.3749999999998919
 40
0.3749999999998919
 40
0.4999999999999135
 40
0.4999999999999135
 40
0.6249999999999352
 40
0.6249999999999352
 40
0.7499999999999567
 40
0.7499999999999567
 40
0.8749999999999783
 40
0.8749999999999783
 40
1.0
 40
1.0
 40
1.0
 40
1.0
 10
423.8714752385598
 20
302.7048198539022
 30
0.0
 10
423.8902908972671
 20
302.7302258793326
 30
0.0
 10
423.910897000287
 20
302.7539713945845
 30
0.0
 10
423.9557030533733
 20
302.7981807327576
 30
0.0
 10
423.9799012305461
 20
302.8186461134287
 30
0.0
 10
424.0191282549828
 20
302.8467099362118
 30
0.0
 10
424.0326159332413
 20
302.8555598356254
 30
0.0
 10
424.0600848860493
 20
302.872041379457
 30
0.0
 10
424.0741141852283
 20
302.8797079599659
 30
0.0
 10
424.1170873155014
 20
302.9009864500233
 30
0.0
 10
424.1469592551271
 20
302.9129040921217
 30
0.0
 10
424.2089936361451
 20
302.9318447873322
 30
0.0
 10
424.2402449953423
 20
302.9385985596538
 30
0.0
 10
424.3031964029557
 20
302.9469829187434
 30
0.0
 10
424.3349086980546
 20
302.9486121500308
 30
0.0
 10
424.3987611453524
 20
302.9466526727203
 30
0.0
 10
424.4299712870057
 20
302.9430973282188
 30
0.0
 10
424.4911201119121
 20
302.9312297677358
 30
0.0
 10
424.521058057657
 20
302.9229150313545
 30
0.0
 10
424.5503841691753
 20
302.9122155933295
 30
0.0
  0
SPLINE
  5
1AB
330
1F
100
AcDbEntity
  8
1
100
AcDbSpline
210
0.0
220
0.0
230
1.0
 70
     8
 71
     3
 72
    27
 73
    23
 74
     0
 42
0.000000001
 43
0.0000000001
 40
0.0
 40
0.0
 40
0.0
 40
0.0
 40
0.1378026508800117
 40
0.1378026508800117
 40
0.2067039763200202
 40
0.2067039763200202
 40
0.2756053017600287
 40
0.2756053017600287
 40
0.4134079526399765
 40
0.4134079526399765
 40
0.4823092780799504
 40
0.4823092780799504
 40
0.5512106035199242
 40
0.5512106035199242
 40
0.6890132543999073
 40
0.6890132543999073
 40
0.7579145798398987
 40
0.7579145798398987
 40
0.82681590527989
 40
0.82681590527989
 40
0.9646185561598656
 40
1.0
 40
1.0
 40
1.0
 40
1.0
 10
422.4103301577742
 20
303.3543905104825
 30
0.0
 10
422.3848279716848
 20
303.3731312936547
 30
0.0
 10
422.3610504730809
 20
303.3937328309958
 30
0.0
 10
422.3279352886533
 20
303.4273775193307
 30
0.0
 10
422.3173240068592
 20
303.439051596456
 30
0.0
 10
422.2969734885075
 20
303.4633359224494
 30
0.0
 10
422.2872113101466
 20
303.4759860439352
 30
0.0
 10
422.2597115299874
 20
303.514749201738
 30
0.0
 10
422.2435976674681
 20
303.5418289179503
 30
0.0
 10
422.2227038423162
 20
303.5842738627559
 30
0.0
 10
422.2162879332715
 20
303.598727835437
 30
0.0
 10
422.2045759689721
 20
303.6282594304429
 30
0.0
 10
422.1992604499632
 20
303.6434087795357
 30
0.0
 10
422.1852596239875
 20
303.689131685247
 30
0.0
 10
422.1784571863351
 20
303.7200296780401
 30
0.0
 10
422.1719358868393
 20
303.7669819871489
 30
0.0
 10
422.1703788079308
 20
303.782734132361
 30
0.0
 10
422.168513960828
 20
303.8144438380872
 30
0.0
 10
422.1682079359773
 20
303.8304605659055
 30
0.0
 10
422.169212144149
 20
303.8784071959091
 30
0.0
 10
422.1732241646152
 20
303.9179924096733
 30
0.0
 10
422.1810449873172
 20
303.9568712683756
 30
0.0
 10
422.1828029538681
 20
303.9647844667333
 30
0.0
  0
SPLINE
  5
1AC
330
1F
100
AcDbEntity
  8
1
100
AcDbSpline
210
0.0
220
0.0
230
1.0
 70
     8
 71
     3
 72
    25
 73
    21
 74
     0
 42
0.000000001
 43
0.0000000001
 40
0.0
 40
0.0
 40
0.0
 40
0.0
 40
0.0146845592481258
 40
0.0146845592481258
 40
0.0904780546906148
 40
0.0904780546906148
 40
0.2420650455755373
 40
0.2420650455755373
 40
0.317858541017995
 40
0.317858541017995
 40
0.3936520364604528
 40
0.3936520364604528
 40
0.5452390273452784
 40
0.5452390273452784
 40
0.6210325227876938
 40
0.6210325227876938
 40
0.6968260182301092
 40
0.6968260182301092
 40
0.8484130091150545
 40
1.0
 40
1.0
 40
1.0
 40
1.0
 10
425.1511605071076
 20
303.215921463415
 30
0.0
 10
425.1501347920215
 20
303.2130135407884
 30
0.0
 10
425.1490860901586
 20
303.2101112827875
 30
0.0
 10
425.1424823953342
 20
303.1922642363351
 30
0.0
 10
425.1363124317241
 20
303.1774252569274
 30
0.0
 10
425.1162352822726
 20
303.1340756528946
 30
0.0
 10
425.1007073726153
 20
303.1065132681752
 30
0.0
 10
425.0742513291347
 20
303.0671440238247
 30
0.0
 10
425.0649028323958
 20
303.0543515292666
 30
0.0
 10
425.0451245581198
 20
303.029441208945
 30
0.0
 10
425.0346423668618
 20
303.0172707401797
 30
0.0
 10
425.002013806465
 20
302.982331478609
 30
0.0
 10
424.9786738284019
 20
302.9610557681873
 30
0.0
 10
424.9413549410867
 20
302.9320767285413
 30
0.0
 10
424.9285286430933
 20
302.9229085039553
 30
0.0
 10
424.9020929052751
 20
302.9055678158651
 30
0.0
 10
424.888431716357
 20
302.8973676406827
 30
0.0
 10
424.8466043654095
 20
302.8745068843753
 30
0.0
 10
424.7891923669713
 20
302.8489215087628
 30
0.0
 10
424.7286523861085
 20
302.8327032183941
 30
0.0
 10
424.6975813509616
 20
302.8270077048788
 30
0.0
  0
SPLINE
  5
1AD
330
1F
100
AcDbEntity
  8
1
100
AcDbSpline
210
0.0
220
0.0
230
1.0
 70
     8
 71
     3
 72
    18
 73
    14
 74
     0
 42
0.000000001
 43
0.0000000001
 40
0.0
 40
0.0
 40
0.0
 40
0.0
 40
0.2127208427209153
 40
0.2127208427209153
 40
0.4254416854418306
 40
0.4254416854418306
 40
0.5318021068022883
 40
0.5318021068022883
 40
0.638162528162746
 40
0.638162528162746
 40
0.8508833708836613
 40
0.8508833708836613
 40
1.0
 40
1.0
 40
1.0
 40
1.0
 10
422.5077192098575
 20
304.813460036254
 30
0.0
 10
422.5202048901551
 20
304.785242490524
 30
0.0
 10
422.5303700223761
 20
304.7562387342585
 30
0.0
 10
422.5460902216854
 20
304.6966093789903
 30
0.0
 10
422.5516475067943
 20
304.6659846324333
 30
0.0
 10
422.5562634618068
 20
304.6186904085951
 30
0.0
 10
422.5571636041071
 20
304.6027967421437
 30
0.0
 10
422.5576721314321
 20
304.5711344803239
 30
0.0
 10
422.557286656481
 20
304.5553077837058
 30
0.0
 10
422.5542122509827
 20
304.507837092305
 30
0.0
 10
422.5496072140374
 20
304.4761518647081
 30
0.0
 10
422.5372325410452
 20
304.4224425050986
 30
0.0
 10
422.5309295492739
 20
304.4008158954271
 30
0.0
 10
422.52347059663
 20
304.379676476671
 30
0.0
  0
SPLINE
  5
1AE
330
1F
100
AcDbEntity
  8
1
100
AcDbSpline
210
0.0
220
0.0
230
1.0
 70
     8
 71
     3
 72
    10
 73
     6
 74
     0
 42
0.000000001
 43
0.0000000001
 40
0.0
 40
0.0
 40
0.0
 40
0.0
 40
0.5
 40
0.5
 40
1.0
 40
1.0
 40
1.0
 40
1.0
 10
422.46446388065
 20
304.8589022666505
 30
0.0
 10
422.4740268770693
 20
304.8540550249969
 30
0.0
 10
422.4825537996361
 20
304.8477436574326
 30
0.0
 10
422.4973618944251
 20
304.8322451332594
 30
0.0
 10
422.5033104885518
 20
304.8234237140104
 30
0.0
 10
422.5077192098575
 20
304.813460036254
 30
0.0
  0
SPLINE
  5
1AF
330
1F
100
AcDbEntity
  8
1
100
AcDbSpline
210
0.0
220
0.0
230
1.0
 70
     8
 71
     3
 72
    20
 73
    16
 74
     0
 42
0.000000001
 43
0.0000000001
 40
0.0
 40
0.0
 40
0.0
 40
0.0
 40
0.1250000000000102
 40
0.1250000000000102
 40
0.2500000000000203
 40
0.2500000000000203
 40
0.3750000000000305
 40
0.3750000000000305
 40
0.5000000000000407
 40
0.5000000000000407
 40
0.6250000000000508
 40
0.6250000000000508
 40
0.750000000000061
 40
0.750000000000061
 40
1.0
 40
1.0
 40
1.0
 40
1.0
 10
422.46446388065
 20
304.8589022666505
 30
0.0
 10
422.4602801247896
 20
304.8610229069587
 30
0.0
 10
422.4562859962297
 20
304.863434973826
 30
0.0
 10
422.4486746079298
 20
304.8688379852473
 30
0.0
 10
422.4450556327731
 20
304.8718372780075
 30
0.0
 10
422.4383680154851
 20
304.8782770978969
 30
0.0
 10
422.4352755128749
 20
304.8817325298632
 30
0.0
 10
422.4296018126118
 20
304.889121577703
 30
0.0
 10
422.4270040376447
 20
304.8930890169657
 30
0.0
 10
422.4224700225946
 20
304.9013326017683
 30
0.0
 10
422.4205254945422
 20
304.9056081490804
 30
0.0
 10
422.4172880575256
 20
304.9144688519162
 30
0.0
 10
422.4159891934069
 20
304.9190851448597
 30
0.0
 10
422.413189752899
 20
304.9332145704588
 30
0.0
 10
422.4127783824096
 20
304.9428032526928
 30
0.0
 10
422.4139144869083
 20
304.9525686858741
 30
0.0
  0
SPLINE
  5
1B0
330
1F
100
AcDbEntity
  8
1
100
AcDbSpline
210
0.0
220
0.0
230
1.0
 70
     8
 71
     3
 72
    14
 73
    10
 74
     0
 42
0.000000001
 43
0.0000000001
 40
0.0
 40
0.0
 40
0.0
 40
0.0
 40
0.0906340314226788
 40
0.0906340314226788
 40
0.3937560209484527
 40
0.3937560209484527
 40
0.6968780104742264
 40
0.6968780104742264
 40
1.0
 40
1.0
 40
1.0
 40
1.0
 10
425.0757385972717
 20
303.929643313829
 30
0.0
 10
425.0789002378209
 20
303.9386036928012
 30
0.0
 10
425.0822680747297
 20
303.9474637736944
 30
0.0
 10
425.0977798288977
 20
303.9855284578264
 30
0.0
 10
425.1119949771952
 20
304.0137407540195
 30
0.0
 10
425.1450366335537
 20
304.0678983121625
 30
0.0
 10
425.1633782916224
 20
304.0930578066912
 30
0.0
 10
425.203461083574
 20
304.1398782619333
 30
0.0
 10
425.225203972286
 20
304.1615373119009
 30
0.0
 10
425.248669397966
 20
304.1814656123227
 30
0.0
  0
SPLINE
  5
1B1
330
1F
100
AcDbEntity
  8
1
100
AcDbSpline
210
0.0
220
0.0
230
1.0
 70
     8
 71
     3
 72
    10
 73
     6
 74
     0
 42
0.000000001
 43
0.0000000001
 40
0.0
 40
0.0
 40
0.0
 40
0.0
 40
0.5
 40
0.5
 40
1.0
 40
1.0
 40
1.0
 40
1.0
 10
425.248669397966
 20
304.1814656123227
 30
0.0
 10
425.2569552051016
 20
304.1885024356085
 30
0.0
 10
425.2661863547545
 20
304.1938698866987
 30
0.0
 10
425.2861782837826
 20
304.2013203847848
 30
0.0
 10
425.2965134847743
 20
304.2032607065018
 30
0.0
 10
425.3071854464486
 20
304.2034419134604
 30
0.0
  0
SPLINE
  5
1B2
330
1F
100
AcDbEntity
  8
1
100
AcDbSpline
210
0.0
220
0.0
230
1.0
 70
     8
 71
     3
 72
    16
 73
    12
 74
     0
 42
0.000000001
 43
0.0000000001
 40
0.0
 40
0.0
 40
0.0
 40
0.0
 40
0.0485886740323275
 40
0.0485886740323275
 40
0.2388709392256732
 40
0.2388709392256732
 40
0.4291532044190189
 40
0.4291532044190189
 40
0.6194354696123645
 40
0.6194354696123645
 40
1.0
 40
1.0
 40
1.0
 40
1.0
 10
425.3727441133205
 20
304.2320606747711
 30
0.0
 10
425.3719091064704
 20
304.2311854461507
 30
0.0
 10
425.3710561210795
 20
304.2303258655705
 30
0.0
 10
425.3667741733417
 20
304.2261770976968
 30
0.0
 10
425.3631159360292
 20
304.2231486017976
 30
0.0
 10
425.3555014895313
 20
304.2177573911678
 30
0.0
 10
425.3515207329458
 20
304.2153704593149
 30
0.0
 10
425.3432182115477
 20
304.2112050273287
 30
0.0
 10
425.3388604646182
 20
304.2094175446767
 30
0.0
 10
425.3256189550986
 20
304.2051181112896
 30
0.0
 10
425.3165320802774
 20
304.2036006167184
 30
0.0
 10
425.3071854464486
 20
304.2034419134604
 30
0.0
  0
SPLINE
  5
1B3
330
1F
100
AcDbEntity
  8
1
100
AcDbSpline
210
0.0
220
0.0
230
1.0
 70
     9
 71
     3
 72
   137
 73
   133
 74
     0
 42
0.000000001
 43
0.0000000001
 40
0.0
 40
0.0
 40
0.0
 40
0.0
 40
0.0312499999999882
 40
0.0312499999999882
 40
0.0468749999999816
 40
0.0468749999999816
 40
0.0546874999999784
 40
0.0546874999999784
 40
0.0624999999999753
 40
0.0624999999999753
 40
0.0937499999999542
 40
0.0937499999999542
 40
0.109374999999946
 40
0.109374999999946
 40
0.1171874999999393
 40
0.1171874999999393
 40
0.1249999999999326
 40
0.1249999999999326
 40
0.1562499999998891
 40
0.1562499999998891
 40
0.1640624999998767
 40
0.1640624999998767
 40
0.1718749999998644
 40
0.1718749999998644
 40
0.1874999999998396
 40
0.2031249999998148
 40
0.2031249999998148
 40
0.2109374999998062
 40
0.2109374999998062
 40
0.2187499999997976
 40
0.2187499999997976
 40
0.2499999999997479
 40
0.2499999999997479
 40
0.265624999999723
 40
0.265624999999723
 40
0.2734374999997106
 40
0.2734374999997106
 40
0.2812499999996981
 40
0.2812499999996981
 40
0.3124999999996483
 40
0.3124999999996483
 40
0.3203124999996393
 40
0.3203124999996393
 40
0.3281249999996304
 40
0.3281249999996304
 40
0.3437499999996194
 40
0.3593749999996085
 40
0.3593749999996085
 40
0.367187499999606
 40
0.367187499999606
 40
0.3749999999996036
 40
0.3749999999996036
 40
0.4062499999995883
 40
0.4062499999995883
 40
0.4218749999995828
 40
0.4218749999995828
 40
0.4296874999995816
 40
0.4296874999995816
 40
0.4374999999995806
 40
0.4374999999995806
 40
0.4687499999995762
 40
0.4687499999995762
 40
0.4765624999995744
 40
0.4765624999995744
 40
0.4843749999995726
 40
0.4843749999995726
 40
0.4999999999995685
 40
0.4999999999995685
 40
0.5312499999995604
 40
0.5312499999995604
 40
0.5390624999995586
 40
0.5390624999995586
 40
0.5468749999995569
 40
0.5468749999995569
 40
0.5624999999995535
 40
0.5781249999995501
 40
0.5781249999995501
 40
0.5859374999995502
 40
0.5859374999995502
 40
0.5937499999995504
 40
0.5937499999995504
 40
0.6249999999995647
 40
0.6249999999995647
 40
0.6406249999995688
 40
0.6406249999995688
 40
0.6484374999995742
 40
0.6484374999995742
 40
0.6562499999995794
 40
0.6562499999995794
 40
0.6874999999995876
 40
0.6874999999995876
 40
0.6953124999995951
 40
0.6953124999995951
 40
0.7031249999996026
 40
0.7031249999996026
 40
0.7187499999996176
 40
0.7187499999996176
 40
0.7499999999996554
 40
0.7499999999996554
 40
0.7578124999996668
 40
0.7578124999996668
 40
0.7656249999996782
 40
0.7656249999996782
 40
0.7812499999997009
 40
0.7968749999997239
 40
0.7968749999997239
 40
0.8046874999997351
 40
0.8046874999997351
 40
0.8124999999997466
 40
0.8124999999997466
 40
0.8437499999997781
 40
0.8437499999997781
 40
0.8515624999997905
 40
0.8515624999997905
 40
0.859374999999803
 40
0.859374999999803
 40
0.8749999999998275
 40
0.8749999999998275
 40
0.9062499999998712
 40
0.9062499999998712
 40
0.9140624999998799
 40
0.9140624999998799
 40
0.9218749999998889
 40
0.9218749999998889
 40
0.9374999999999106
 40
0.9531249999999323
 40
0.9531249999999323
 40
0.9609374999999431
 40
0.9609374999999431
 40
0.9687499999999539
 40
0.9687499999999539
 40
1.0
 40
1.0
 40
1.0
 40
1.0
 10
421.0623889659169
 20
283.6085291691245
 30
0.0
 10
421.064262507514
 20
283.7158642953403
 30
0.0
 10
421.0764873105249
 20
283.8215398756377
 30
0.0
 10
421.1099433257419
 20
283.9776070536121
 30
0.0
 10
421.1236327027431
 20
284.0292186156633
 30
0.0
 10
421.1480826349455
 20
284.1059961962056
 30
0.0
 10
421.1568863947844
 20
284.1314818901533
 30
0.0
 10
421.1758346122511
 20
284.1822330006019
 30
0.0
 10
421.1859127248314
 20
284.2073182437204
 30
0.0
 10
421.2391824167019
 20
284.3310792857781
 30
0.0
 10
421.2910241597243
 20
284.4250539716278
 30
0.0
 10
421.3826201831901
 20
284.5584007637957
 30
0.0
 10
421.4154731753256
 20
284.6015719038965
 30
0.0
 10
421.4683848643941
 20
284.66431903205
 30
0.0
 10
421.486526984075
 20
284.6847756340541
 30
0.0
 10
421.5236563688734
 20
284.7246141942101
 30
0.0
 10
421.5426669611987
 20
284.7440239181636
 30
0.0
 10
421.6399222068464
 20
284.8385520968871
 30
0.0
 10
421.7247101635146
 20
284.906181946742
 30
0.0
 10
421.8396271181792
 20
284.9804375715863
 30
0.0
 10
421.8630636107952
 20
284.9947714079858
 30
0.0
 10
421.9108501393813
 20
285.0223690351965
 30
0.0
 10
421.9349950688078
 20
285.0355145171613
 30
0.0
 10
422.0081695021091
 20
285.073029025844
 30
0.0
 10
422.107704057494
 20
285.1179327491631
 30
0.0
 10
422.2111041981296
 20
285.1527748480576
 30
0.0
 10
422.2901203089223
 20
285.1750854454529
 30
0.0
 10
422.3167037934819
 20
285.1818843310141
 30
0.0
 10
422.3703686997049
 20
285.1941836189215
 30
0.0
 10
422.3975242187864
 20
285.1996964295377
 30
0.0
 10
422.533624146814
 20
285.2237700065277
 30
0.0
 10
422.6427394793352
 20
285.2318969767307
 30
0.0
 10
422.8067540295283
 20
285.2279251844417
 30
0.0
 10
422.861482905144
 20
285.2238873058346
 30
0.0
 10
422.9436647831771
 20
285.2136412902343
 30
0.0
 10
422.97111651733
 20
285.2095150324957
 30
0.0
 10
423.0254352887985
 20
285.1999503076055
 30
0.0
 10
423.0523739822878
 20
285.1945052724427
 30
0.0
 10
423.1859837050609
 20
285.16402731294
 30
0.0
 10
423.2894355177845
 20
285.1293309226435
 30
0.0
 10
423.4144408581527
 20
285.0730584964505
 30
0.0
 10
423.4392244524103
 20
285.061152983211
 30
0.0
 10
423.4883480584418
 20
285.0360151852753
 30
0.0
 10
423.5125567608267
 20
285.0228476214894
 30
0.0
 10
423.5837987833126
 20
284.9817710172388
 30
0.0
 10
423.6754023668261
 20
284.9226633915042
 30
0.0
 10
423.760401945639
 20
284.8551142084381
 30
0.0
 10
423.8216657912723
 20
284.8012834886794
 30
0.0
 10
423.8416720297173
 20
284.7828108403569
 30
0.0
 10
423.8808437729851
 20
284.7447953274976
 30
0.0
 10
423.900055240472
 20
284.7252024114932
 30
0.0
 10
423.9933947503738
 20
284.6251344522017
 30
0.0
 10
424.0588309020658
 20
284.5391637964073
 30
0.0
 10
424.1437714898605
 20
284.4018167961278
 30
0.0
 10
424.1698665031981
 20
284.354625437789
 30
0.0
 10
424.2056182893898
 20
284.2816932747922
 30
0.0
 10
424.2169904670156
 20
284.2569691465643
 30
0.0
 10
424.2383734656401
 20
284.20729579738
 30
0.0
 10
424.2484095971406
 20
284.1823015475269
 30
0.0
 10
424.29538255932
 20
284.0565622034666
 30
0.0
 10
424.3227841575638
 20
283.9535352260993
 30
0.0
 10
424.3445046241478
 20
283.8217890094683
 30
0.0
 10
424.3482166945148
 20
283.795290255848
 30
0.0
 10
424.3543593816586
 20
283.7419901626008
 30
0.0
 10
424.3567871490876
 20
283.7151711847377
 30
0.0
 10
424.3620760606151
 20
283.6350982778899
 30
0.0
 10
424.3629853881948
 20
283.5819508185935
 30
0.0
 10
424.3581047138774
 20
283.4231919832846
 30
0.0
 10
424.3447765976218
 20
283.318259301285
 30
0.0
 10
424.3152412804745
 20
283.1882356606045
 30
0.0
 10
424.3086733787184
 20
283.1622607200862
 30
0.0
 10
424.2943700152313
 20
283.1109577760907
 30
0.0
 10
424.2866215528191
 20
283.0855647661336
 30
0.0
 10
424.2616143799271
 20
283.010147091993
 30
0.0
 10
424.2235815615753
 20
282.9116170762031
 30
0.0
 10
424.1762666520839
 20
282.8170771834315
 30
0.0
 10
424.1372352313355
 20
282.7476863035217
 30
0.0
 10
424.1236328306884
 20
282.7248087824634
 30
0.0
 10
424.0952199378846
 20
282.6795677516579
 30
0.0
 10
424.080366947188
 20
282.6571460599914
 30
0.0
 10
424.0036986957878
 20
282.5473326905641
 30
0.0
 10
423.9346291201383
 20
282.4664562387051
 30
0.0
 10
423.8195352254436
 20
282.3553907943548
 30
0.0
 10
423.7792420117372
 20
282.3200893996037
 30
0.0
 10
423.7157927879101
 20
282.269807271992
 30
0.0
 10
423.6940951281787
 20
282.2534602518506
 30
0.0
 10
423.6498700663922
 20
282.221831006257
 30
0.0
 10
423.6274373627718
 20
282.2066128859268
 30
0.0
 10
423.5136949081652
 20
282.1334578469422
 30
0.0
 10
423.4176943864597
 20
282.0842409807982
 30
0.0
 10
423.2913181981082
 20
282.0344858676842
 30
0.0
 10
423.2657212812228
 20
282.0251285967989
 30
0.0
 10
423.2138690137748
 20
282.0076276170732
 30
0.0
 10
423.18756360503
 20
281.9994699126541
 30
0.0
 10
423.1079631604392
 20
281.9769652884965
 30
0.0
 10
423.0545387153241
 20
281.9647267398235
 30
0.0
 10
422.8932218803711
 20
281.9360662435284
 30
0.0
 10
422.7842960665655
 20
281.9276196573259
 30
0.0
 10
422.6463546889521
 20
281.9308136218536
 30
0.0
 10
422.6186026784263
 20
281.9321545836693
 30
0.0
 10
422.5635269979173
 20
281.9362068215999
 30
0.0
 10
422.5361518753407
 20
281.9389154913464
 30
0.0
 10
422.4545045775323
 20
281.9490476853131
 30
0.0
 10
422.3469140627003
 20
281.9678972000076
 30
0.0
 10
422.2418196280693
 20
281.9972358063179
 30
0.0
 10
422.163943863355
 20
282.023219792988
 30
0.0
 10
422.1381286466978
 20
282.0325513177817
 30
0.0
 10
422.0868781079129
 20
282.05254342915
 30
0.0
 10
422.0616339502949
 20
282.0631285526662
 30
0.0
 10
421.9372660331456
 20
282.1189228537968
 30
0.0
 10
421.8436464791781
 20
282.1726527132862
 30
0.0
 10
421.7337022501697
 20
282.2508638818464
 30
0.0
 10
421.7120707479019
 20
282.2670637962168
 30
0.0
 10
421.6695291546034
 20
282.3005919791417
 30
0.0
 10
421.6485980484694
 20
282.3179433935895
 30
0.0
 10
421.5875362104841
 20
282.3711440094908
 30
0.0
 10
421.5489126411204
 20
282.4083005759935
 30
0.0
 10
421.4390571518323
 20
282.5246740800981
 30
0.0
 10
421.373783364996
 20
282.6087483290213
 30
0.0
 10
421.3022603885583
 20
282.722140137458
 30
0.0
 10
421.2885258175036
 20
282.7451432400073
 30
0.0
 10
421.2623151412263
 20
282.7915544786621
 30
0.0
 10
421.2498160386248
 20
282.8149988299351
 30
0.0
 10
421.2141063205069
 20
282.8860383943201
 30
0.0
 10
421.1712518580728
 20
282.9826386804145
 30
0.0
 10
421.1377954173967
 20
283.0829774219036
 30
0.0
 10
421.1162847207154
 20
283.1596634011699
 30
0.0
 10
421.1097124839572
 20
283.1854644506801
 30
0.0
 10
421.0977869619699
 20
283.2375547919144
 30
0.0
 10
421.0924524183928
 20
283.2637728494161
 30
0.0
 10
421.0690446119198
 20
283.3950169515396
 30
0.0
 10
421.0605154243196
 20
283.5011940429084
 30
0.0
 10
421.0623889659169
 20
283.6085291691245
 30
0.0
  0
SPLINE
  5
1B4
330
1F
100
AcDbEntity
  8
1
100
AcDbSpline
210
0.0
220
0.0
230
1.0
 70
     8
 71
     3
 72
    32
 73
    28
 74
     0
 42
0.000000001
 43
0.0000000001
 40
0.0
 40
0.0
 40
0.0
 40
0.0
 40
0.1249999999999362
 40
0.1249999999999362
 40
0.1874999999999043
 40
0.1874999999999043
 40
0.2187499999998884
 40
0.2187499999998884
 40
0.2499999999998724
 40
0.2499999999998724
 40
0.3749999999997775
 40
0.3749999999997775
 40
0.4062499999997768
 40
0.4062499999997768
 40
0.4374999999997759
 40
0.4374999999997759
 40
0.4999999999998046
 40
0.4999999999998046
 40
0.6249999999998614
 40
0.6249999999998614
 40
0.7499999999999182
 40
0.7499999999999182
 40
0.8124999999999328
 40
0.8124999999999328
 40
0.8749999999999477
 40
0.8749999999999477
 40
1.0
 40
1.0
 40
1.0
 40
1.0
 10
419.7841488866303
 20
296.9426891148415
 30
0.0
 10
419.6779385955912
 20
296.9269020592932
 30
0.0
 10
419.5713692445399
 20
296.9182579147532
 30
0.0
 10
419.410958551108
 20
296.9160474690954
 30
0.0
 10
419.3573956089008
 20
296.9171076600667
 30
0.0
 10
419.2769108690802
 20
296.9214355544996
 30
0.0
 10
419.250073640588
 20
296.9233363680366
 30
0.0
 10
419.1968116437408
 20
296.928009064686
 30
0.0
 10
419.1703282909743
 20
296.9307835641421
 30
0.0
 10
419.0386109175165
 20
296.9467958132905
 30
0.0
 10
418.9354689824061
 20
296.9664128251131
 30
0.0
 10
418.8087422000299
 20
296.9990320164357
 30
0.0
 10
418.7835073407164
 20
297.0059632274715
 30
0.0
 10
418.7332460999051
 20
297.0206399214802
 30
0.0
 10
418.7081918338184
 20
297.0283946228972
 30
0.0
 10
418.6335168490104
 20
297.052821764935
 30
0.0
 10
418.584596747293
 20
297.0705804709835
 30
0.0
 10
418.4401549407987
 20
297.1281529110614
 30
0.0
 10
418.3469343281303
 20
297.1722367968595
 30
0.0
 10
418.1657349997689
 20
297.2718397923843
 30
0.0
 10
418.0777637519751
 20
297.3273549935386
 30
0.0
 10
417.9494273921968
 20
297.4198972558899
 30
0.0
 10
417.9071701470002
 20
297.4523808767436
 30
0.0
 10
417.8250350441948
 20
297.5196443552266
 30
0.0
 10
417.785017225858
 20
297.5545164247158
 30
0.0
 10
417.6680600747267
 20
297.6628868510595
 30
0.0
 10
417.5942042058483
 20
297.7401136528406
 30
0.0
 10
417.5244861925141
 20
297.8226796953188
 30
0.0
  0
SPLINE
  5
1B5
330
1F
100
AcDbEntity
  8
1
100
AcDbSpline
210
0.0
220
0.0
230
1.0
 70
    12
 71
     2
 72
     6
 73
     3
 74
     0
 42
0.000000001
 43
0.0000000001
 40
0.0
 40
0.0
 40
0.0
 40
1.0
 40
1.0
 40
1.0
 10
417.1752270956273
 20
310.3388697046009
 30
0.0
 41
0.4999943097851922
 10
417.2874093741831
 20
310.3387128320355
 30
0.0
 41
0.5000056902148079
 10
417.3995910241282
 20
310.3385556040306
 30
0.0
 41
0.4999943097851922
  0
SPLINE
  5
1B6
330
1F
100
AcDbEntity
  8
1
100
AcDbSpline
210
0.0
220
0.0
230
1.0
 70
     8
 71
     3
 72
    36
 73
    32
 74
     0
 42
0.000000001
 43
0.0000000001
 40
0.0
 40
0.0
 40
0.0
 40
0.0
 40
0.1250000000001578
 40
0.1250000000001578
 40
0.1875000000002408
 40
0.1875000000002408
 40
0.2187500000002823
 40
0.2187500000002823
 40
0.2500000000003238
 40
0.2500000000003238
 40
0.3750000000004325
 40
0.3750000000004325
 40
0.4062500000004432
 40
0.4062500000004432
 40
0.4375000000004537
 40
0.4375000000004537
 40
0.5000000000004361
 40
0.5000000000004361
 40
0.6250000000004069
 40
0.6250000000004069
 40
0.6562500000003708
 40
0.6562500000003708
 40
0.6875000000003345
 40
0.750000000000266
 40
0.8125000000001973
 40
0.8125000000001973
 40
0.8437500000001312
 40
0.8437500000001312
 40
0.8750000000000651
 40
0.8750000000000651
 40
1.0
 40
1.0
 40
1.0
 40
1.0
 10
430.0865313456451
 20
310.0510040242539
 30
0.0
 10
430.0847001490623
 20
310.1021221787868
 30
0.0
 10
430.0777393249622
 20
310.1521811450419
 30
0.0
 10
430.0600436074197
 20
310.2257716568794
 30
0.0
 10
430.0529261527877
 20
310.2500501472974
 30
0.0
 10
430.0403918909337
 20
310.286084218331
 30
0.0
 10
430.0358909557271
 20
310.2980618290538
 30
0.0
 10
430.0263207599861
 20
310.3217302804852
 30
0.0
 10
430.021261477004
 20
310.3334016134578
 30
0.0
 10
429.9946244221392
 20
310.3909618072123
 30
0.0
 10
429.9690641171731
 20
310.434484654264
 30
0.0
 10
429.9318726952674
 20
310.4857745228738
 30
0.0
 10
429.9241699188327
 20
310.4958753624762
 30
0.0
 10
429.9082272633714
 20
310.5157579502683
 30
0.0
 10
429.8999673181355
 20
310.5255606965737
 30
0.0
 10
429.8746211091964
 20
310.5541979192566
 30
0.0
 10
429.8569175253881
 20
310.5723377447497
 30
0.0
 10
429.8014572084199
 20
310.6239834365574
 30
0.0
 10
429.7613740494501
 20
310.6547428358618
 30
0.0
 10
429.7072587707289
 20
310.6884565006954
 30
0.0
 10
429.6962127795977
 20
310.6949699594767
 30
0.0
 10
429.6739472355885
 20
310.707377643411
 30
0.0
 10
429.6402133581545
 20
310.7251098116994
 30
0.0
 10
429.5823425764427
 20
310.7503456588709
 30
0.0
 10
429.5343032430608
 20
310.7659674720442
 30
0.0
 10
429.4976059813071
 20
310.7759339247099
 30
0.0
 10
429.4852620615095
 20
310.7789638856271
 30
0.0
 10
429.4603461963368
 20
310.7844262535837
 30
0.0
 10
429.4477559107723
 20
310.786860358175
 30
0.0
 10
429.3848073550099
 20
310.7974060982929
 30
0.0
 10
429.3340497486132
 20
310.8007981132494
 30
0.0
 10
429.2828829174506
 20
310.799013188067
 30
0.0
  0
SPLINE
  5
1B7
330
1F
100
AcDbEntity
  8
1
100
AcDbSpline
210
0.0
220
0.0
230
1.0
 70
     8
 71
     3
 72
    36
 73
    32
 74
     0
 42
0.000000001
 43
0.0000000001
 40
0.0
 40
0.0
 40
0.0
 40
0.0
 40
0.1249999999999494
 40
0.1249999999999494
 40
0.1874999999999575
 40
0.1874999999999575
 40
0.2187499999999616
 40
0.2187499999999616
 40
0.2499999999999656
 40
0.2499999999999656
 40
0.3749999999999891
 40
0.3749999999999891
 40
0.4062500000000087
 40
0.4062500000000087
 40
0.4375000000000284
 40
0.4375000000000284
 40
0.5000000000000111
 40
0.5000000000000111
 40
0.6250000000000297
 40
0.6250000000000297
 40
0.6562500000000363
 40
0.6562500000000363
 40
0.6875000000000427
 40
0.7500000000000253
 40
0.8125000000000078
 40
0.8125000000000078
 40
0.8437500000000031
 40
0.8437500000000031
 40
0.8749999999999985
 40
0.8749999999999985
 40
1.0
 40
1.0
 40
1.0
 40
1.0
 10
418.1447037183724
 20
310.4104642768681
 30
0.0
 10
418.0935322975116
 20
310.4086791915768
 30
0.0
 10
418.0434256317781
 20
310.4017690581446
 30
0.0
 10
417.9697714435381
 20
310.3841558529022
 30
0.0
 10
417.9454730504257
 20
310.3770669905039
 30
0.0
 10
417.9094111418033
 20
310.3645772757652
 30
0.0
 10
417.8974245669313
 20
310.3600915062431
 30
0.0
 10
417.8737389857495
 20
310.3505520029072
 30
0.0
 10
417.8620594994889
 20
310.3455082191108
 30
0.0
 10
417.804460551769
 20
310.3189494081913
 30
0.0
 10
417.7609130823376
 20
310.2934540700596
 30
0.0
 10
417.7096003032336
 20
310.2563467809628
 30
0.0
 10
417.6994952785693
 20
310.2486609786648
 30
0.0
 10
417.6796051269138
 20
310.2327525711557
 30
0.0
 10
417.6697989966076
 20
310.2245099393635
 30
0.0
 10
417.6411529383623
 20
310.1992156114651
 30
0.0
 10
417.6230089398121
 20
310.1815466564867
 30
0.0
 10
417.5713557342858
 20
310.126190346878
 30
0.0
 10
417.5405979504758
 20
310.0861766861172
 30
0.0
 10
417.506894850642
 20
310.0321484865149
 30
0.0
 10
417.5003839434092
 20
310.0211199519663
 30
0.0
 10
417.4879821768897
 20
309.9988889721954
 30
0.0
 10
417.4702601180608
 20
309.9652065410407
 30
0.0
 10
417.4450471758458
 20
309.907419538688
 30
0.0
 10
417.4294500918655
 20
309.8594451510224
 30
0.0
 10
417.4195046404163
 20
309.8227958024066
 30
0.0
 10
417.4164820897138
 20
309.8104677207185
 30
0.0
 10
417.4110353802822
 20
309.7855832598973
 30
0.0
 10
417.40860953802
 20
309.7730085616848
 30
0.0
 10
417.3981068503987
 20
309.7101365363065
 30
0.0
 10
417.3947550344903
 20
309.6594362243954
 30
0.0
 10
417.3965860668284
 20
309.6083226547831
 30
0.0
  0
SPLINE
  5
1B8
330
1F
100
AcDbEntity
  8
1
100
AcDbSpline
210
0.0
220
0.0
230
1.0
 70
     8
 71
     3
 72
    36
 73
    32
 74
     0
 42
0.000000001
 43
0.0000000001
 40
0.0
 40
0.0
 40
0.0
 40
0.0
 40
0.1249999999999852
 40
0.1249999999999852
 40
0.1874999999999799
 40
0.1874999999999799
 40
0.2187499999999772
 40
0.2187499999999772
 40
0.2499999999999746
 40
0.2499999999999746
 40
0.3749999999999027
 40
0.3749999999999027
 40
0.4062499999999049
 40
0.4062499999999049
 40
0.437499999999907
 40
0.437499999999907
 40
0.4999999999999531
 40
0.4999999999999531
 40
0.6250000000000484
 40
0.6250000000000484
 40
0.6562500000000444
 40
0.6562500000000444
 40
0.6875000000000405
 40
0.7500000000000327
 40
0.8125000000000246
 40
0.8125000000000246
 40
0.8437499999999872
 40
0.8437499999999872
 40
0.8749999999999497
 40
0.8749999999999497
 40
1.0
 40
1.0
 40
1.0
 40
1.0
 10
417.7951717489567
 20
298.4817376208876
 30
0.0
 10
417.7970029455396
 20
298.4306194663548
 30
0.0
 10
417.8039637696396
 20
298.3805605000997
 30
0.0
 10
417.8216594871821
 20
298.3069699882621
 30
0.0
 10
417.828776941814
 20
298.2826914978442
 30
0.0
 10
417.8413112036682
 20
298.2466574268106
 30
0.0
 10
417.8458121388747
 20
298.2346798160877
 30
0.0
 10
417.8553823346158
 20
298.2110113646564
 30
0.0
 10
417.8604416175978
 20
298.1993400316838
 30
0.0
 10
417.8870786724624
 20
298.1417798379293
 30
0.0
 10
417.9126389774286
 20
298.0982569908776
 30
0.0
 10
417.9498303993346
 20
298.0469671222677
 30
0.0
 10
417.9575331757692
 20
298.0368662826654
 30
0.0
 10
417.9734758312304
 20
298.0169836948733
 30
0.0
 10
417.9817357764664
 20
298.0071809485679
 30
0.0
 10
418.0070819854053
 20
297.978543725885
 30
0.0
 10
418.0247855692137
 20
297.9604039003918
 30
0.0
 10
418.080245886182
 20
297.9087582085842
 30
0.0
 10
418.1203290451518
 20
297.8779988092797
 30
0.0
 10
418.1744443238732
 20
297.8442851444462
 30
0.0
 10
418.1854903150038
 20
297.8377716856648
 30
0.0
 10
418.2077558590132
 20
297.8253640017306
 30
0.0
 10
418.2414897364473
 20
297.8076318334422
 30
0.0
 10
418.2993605181591
 20
297.7823959862707
 30
0.0
 10
418.3473998515412
 20
297.7667741730974
 30
0.0
 10
418.3840971132948
 20
297.7568077204317
 30
0.0
 10
418.3964410330923
 20
297.7537777595144
 30
0.0
 10
418.421356898265
 20
297.7483153915579
 30
0.0
 10
418.4339471838296
 20
297.7458812869666
 30
0.0
 10
418.496895739592
 20
297.7353355468487
 30
0.0
 10
418.5476533459886
 20
297.7319435318922
 30
0.0
 10
418.5988201771512
 20
297.7337284570746
 30
0.0
  0
SPLINE
  5
1B9
330
1F
100
AcDbEntity
  8
1
100
AcDbSpline
210
0.0
220
0.0
230
1.0
 70
     8
 71
     3
 72
    36
 73
    32
 74
     0
 42
0.000000001
 43
0.0000000001
 40
0.0
 40
0.0
 40
0.0
 40
0.0
 40
0.1249999999996694
 40
0.1249999999996694
 40
0.1874999999995375
 40
0.1874999999995375
 40
0.2187499999994715
 40
0.2187499999994715
 40
0.2499999999994056
 40
0.2499999999994056
 40
0.3749999999993259
 40
0.3749999999993259
 40
0.4062499999993199
 40
0.4062499999993199
 40
0.4374999999993139
 40
0.4374999999993139
 40
0.4999999999993526
 40
0.4999999999993526
 40
0.6249999999994803
 40
0.6249999999994803
 40
0.6562499999995103
 40
0.6562499999995103
 40
0.6874999999995404
 40
0.7499999999996309
 40
0.8124999999997214
 40
0.8124999999997214
 40
0.8437499999997665
 40
0.8437499999997665
 40
0.8749999999998118
 40
0.8749999999998118
 40
1.0
 40
1.0
 40
1.0
 40
1.0
 10
429.7369993762294
 20
298.1222773682735
 30
0.0
 10
429.7881707970902
 20
298.1240624535648
 30
0.0
 10
429.8382774628238
 20
298.130972586997
 30
0.0
 10
429.9119316510637
 20
298.1485857922394
 30
0.0
 10
429.9362300441761
 20
298.1556746546377
 30
0.0
 10
429.9722919527984
 20
298.1681643693765
 30
0.0
 10
429.9842785276704
 20
298.1726501388985
 30
0.0
 10
430.0079641088523
 20
298.1821896422344
 30
0.0
 10
430.0196435951128
 20
298.1872334260308
 30
0.0
 10
430.0772425428329
 20
298.2137922369503
 30
0.0
 10
430.1207900122642
 20
298.239287575082
 30
0.0
 10
430.1721027913683
 20
298.2763948641789
 30
0.0
 10
430.1822078160326
 20
298.2840806664769
 30
0.0
 10
430.2020979676881
 20
298.2999890739858
 30
0.0
 10
430.2119040979943
 20
298.308231705778
 30
0.0
 10
430.2405501562397
 20
298.3335260336764
 30
0.0
 10
430.2586941547899
 20
298.3511949886548
 30
0.0
 10
430.310347360316
 20
298.4065512982637
 30
0.0
 10
430.3411051441259
 20
298.4465649590244
 30
0.0
 10
430.3748082439597
 20
298.5005931586268
 30
0.0
 10
430.3813191511927
 20
298.5116216931753
 30
0.0
 10
430.3937209177122
 20
298.5338526729462
 30
0.0
 10
430.411442976541
 20
298.5675351041008
 30
0.0
 10
430.4366559187561
 20
298.6253221064536
 30
0.0
 10
430.4522530027362
 20
298.6732964941192
 30
0.0
 10
430.4621984541856
 20
298.709945842735
 30
0.0
 10
430.4652210048882
 20
298.7222739244231
 30
0.0
 10
430.4706677143196
 20
298.7471583852443
 30
0.0
 10
430.4730935565818
 20
298.7597330834568
 30
0.0
 10
430.4835962442031
 20
298.8226051088351
 30
0.0
 10
430.4869480601116
 20
298.8733054207462
 30
0.0
 10
430.4851170277733
 20
298.9244189903584
 30
0.0
  0
SPLINE
  5
1BA
330
1F
100
AcDbEntity
  8
1
100
AcDbSpline
210
0.0
220
0.0
230
1.0
 70
    24
 71
     3
 72
    22
 73
    18
 74
     0
 42
0.000000001
 43
0.0000000001
 40
0.0
 40
0.0
 40
0.0
 40
0.0
 40
0.125173879347094
 40
0.125173879347094
 40
0.250347758694188
 40
0.250347758694188
 40
0.3755216380412821
 40
0.3755216380412821
 40
0.5006955173883761
 40
0.5006955173883761
 40
0.6258693967354701
 40
0.6258693967354701
 40
0.7510432760825642
 40
0.7510432760825642
 40
0.876217155429658
 40
0.876217155429658
 40
1.0
 40
1.0
 40
1.0
 40
1.0
 10
415.0298419452957
 20
296.2816953492977
 30
0.0
 10
415.0298419452957
 20
295.8071995852653
 30
0.0
 10
415.0298419452957
 20
295.365734424875
 30
0.0
 10
415.0298419452957
 20
294.5592396632857
 30
0.0
 10
415.0298419452957
 20
294.1942175293032
 30
0.0
 10
415.0298419452957
 20
293.5492017094919
 30
0.0
 10
415.0298419452957
 20
293.2692139957696
 30
0.0
 10
415.0298419452957
 20
292.8008586216316
 30
0.0
 10
415.0298419452957
 20
292.6124952976493
 30
0.0
 10
415.0298419452957
 20
292.3318238801101
 30
0.0
 10
415.0298419452957
 20
292.2395183852485
 30
0.0
 10
415.0298419452957
 20
292.1531369858771
 30
0.0
 10
415.0298419452957
 20
292.15906188116
 30
0.0
 10
415.0298419452957
 20
292.2690036276888
 30
0.0
 10
415.0298419452957
 20
292.3730194610002
 30
0.0
 10
415.0298419452957
 20
292.6750093391332
 30
0.0
 10
415.0298419452957
 20
292.8719236483032
 30
0.0
 10
415.0298419452957
 20
293.1133323798264
 30
0.0
  0
SPLINE
  5
1BB
330
1F
100
AcDbEntity
  8
1
100
AcDbSpline
210
0.0
220
0.0
230
1.0
 70
     8
 71
     3
 72
    14
 73
    10
 74
     0
 42
0.000000001
 43
0.0000000001
 40
0.0
 40
0.0
 40
0.0
 40
0.0
 40
0.2500000000000002
 40
0.2500000000000002
 40
0.5000000000000002
 40
0.5000000000000002
 40
0.7500000000000002
 40
0.7500000000000002
 40
1.0
 40
1.0
 40
1.0
 40
1.0
 10
411.2364446687686
 20
298.6934582611286
 30
0.0
 10
411.5479670158564
 20
298.4490440214167
 30
0.0
 10
411.8607160660566
 20
298.216574825426
 30
0.0
 10
412.4885955737788
 20
297.7736167574822
 30
0.0
 10
412.8037288300886
 20
297.5631333575302
 30
0.0
 10
413.4362564778144
 20
297.1627738838536
 30
0.0
 10
413.7536562022246
 20
296.9729022264989
 30
0.0
 10
414.3904286660896
 20
296.6127718508027
 30
0.0
 10
414.7098116925458
 20
296.442518264867
 30
0.0
 10
415.0298419452949
 20
296.2816953485035
 30
0.0
  0
SPLINE
  5
1BC
330
1F
100
AcDbEntity
  8
1
100
AcDbSpline
210
0.0
220
0.0
230
1.0
 70
     8
 71
     3
 72
    43
 73
    39
 74
     0
 42
0.000000001
 43
0.0000000001
 40
0.0
 40
0.0
 40
0.0
 40
0.0
 40
0.1249999999999955
 40
0.1249999999999955
 40
0.249999999999991
 40
0.249999999999991
 40
0.3749999999999865
 40
0.3749999999999865
 40
0.4374999999999841
 40
0.4374999999999841
 40
0.4687499999999828
 40
0.4687499999999828
 40
0.4999999999999817
 40
0.4999999999999817
 40
0.5624999999999791
 40
0.5624999999999791
 40
0.6249999999999765
 40
0.6249999999999765
 40
0.6874999999999741
 40
0.6874999999999741
 40
0.7499999999999716
 40
0.7499999999999716
 40
0.7812499999999703
 40
0.7812499999999703
 40
0.812499999999969
 40
0.812499999999969
 40
0.8437499999999678
 40
0.8437499999999678
 40
0.8593749999999673
 40
0.8593749999999673
 40
0.8749999999999666
 40
0.8749999999999666
 40
0.937499999999974
 40
0.937499999999974
 40
0.9531249999999857
 40
0.9531249999999857
 40
0.9687499999999975
 40
1.0
 40
1.0
 40
1.0
 40
1.0
 10
410.0968015378876
 20
299.5256738355233
 30
0.0
 10
410.0262897156089
 20
299.5692251196482
 30
0.0
 10
409.958128231637
 20
299.6155272205501
 30
0.0
 10
409.8266367756626
 20
299.71387385639
 30
0.0
 10
409.7633028468223
 20
299.7659135482884
 30
0.0
 10
409.6419291472505
 20
299.8763622869234
 30
0.0
 10
409.5838780139677
 20
299.9347577871239
 30
0.0
 10
409.501524875604
 20
300.0280770068526
 30
0.0
 10
409.4748661073636
 20
300.0601436728016
 30
0.0
 10
409.4362339223708
 20
300.1098895533602
 30
0.0
 10
409.4235952649465
 20
300.1267327325872
 30
0.0
 10
409.3989300560894
 20
300.1608359469291
 30
0.0
 10
409.3868888873336
 20
300.1781144686242
 30
0.0
 10
409.3516988318444
 20
300.2306765568844
 30
0.0
 10
409.3294771675194
 20
300.266681982129
 30
0.0
 10
409.2879470807303
 20
300.3409557294968
 30
0.0
 10
409.2685893703863
 20
300.3793490274696
 30
0.0
 10
409.2339347429754
 20
300.4577687582427
 30
0.0
 10
409.2185725275347
 20
300.497875935907
 30
0.0
 10
409.1926689829446
 20
300.5802756976367
 30
0.0
 10
409.182111321181
 20
300.62256122704
 30
0.0
 10
409.1710360499089
 20
300.6881281218868
 30
0.0
 10
409.1681440340409
 20
300.7103428692153
 30
0.0
 10
409.1642780521483
 20
300.7556289984117
 30
0.0
 10
409.1633347535118
 20
300.7783764590077
 30
0.0
 10
409.1636811121472
 20
300.8240451367363
 30
0.0
 10
409.1649687706546
 20
300.8469750301764
 30
0.0
 10
409.1688283814327
 20
300.8815316948496
 30
0.0
 10
409.1704371005587
 20
300.8930776139855
 30
0.0
 10
409.1743540830096
 20
300.9162275003419
 30
0.0
 10
409.1766676384217
 20
300.9278406468151
 30
0.0
 10
409.1899198228354
 20
300.98520946881
 30
0.0
 10
409.2059658239196
 20
301.0295464547527
 30
0.0
 10
409.2338712442318
 20
301.0827043714144
 30
0.0
 10
409.2398707104113
 20
301.0932589181808
 30
0.0
 10
409.2525844740434
 20
301.1139464957078
 30
0.0
 10
409.2726498040112
 20
301.1442369261025
 30
0.0
 10
409.2956296157866
 20
301.1723562650157
 30
0.0
 10
409.3122033205997
 20
301.1901683873839
 30
0.0
  0
SPLINE
  5
1BD
330
1F
100
AcDbEntity
  8
1
100
AcDbSpline
210
0.0
220
0.0
230
1.0
 70
     8
 71
     3
 72
    28
 73
    24
 74
     0
 42
0.000000001
 43
0.0000000001
 40
0.0
 40
0.0
 40
0.0
 40
0.0
 40
0.1250000000000215
 40
0.1250000000000215
 40
0.2500000000000429
 40
0.2500000000000429
 40
0.3750000000000644
 40
0.3750000000000644
 40
0.4062500000000623
 40
0.4062500000000623
 40
0.4375000000000603
 40
0.5000000000000561
 40
0.5000000000000561
 40
0.6250000000000384
 40
0.6250000000000384
 40
0.7500000000000208
 40
0.7500000000000208
 40
0.812500000000012
 40
0.812500000000012
 40
0.8437500000000081
 40
0.8437500000000081
 40
0.8750000000000042
 40
1.0
 40
1.0
 40
1.0
 40
1.0
 10
409.3122033206001
 20
301.1901683873834
 30
0.0
 10
409.4347603493118
 20
301.3218831015716
 30
0.0
 10
409.5530532190215
 20
301.4573722044762
 30
0.0
 10
409.7803477209768
 20
301.7365744802208
 30
0.0
 10
409.8893517005474
 20
301.8802855753437
 30
0.0
 10
410.0970959696147
 20
302.1767925947399
 30
0.0
 10
410.1958399277787
 20
302.32958527172
 30
0.0
 10
410.3120595209763
 20
302.5269583097633
 30
0.0
 10
410.3349706097396
 20
302.5668044859019
 30
0.0
 10
410.3798851233212
 20
302.646868357503
 30
0.0
 10
410.4458785881877
 20
302.7674826099723
 30
0.0
 10
410.5076963596548
 20
302.8896675357343
 30
0.0
 10
410.6256363994218
 20
303.1361797319803
 30
0.0
 10
410.6966776272133
 20
303.3033744439182
 30
0.0
 10
410.8227210887169
 20
303.6437968824898
 30
0.0
 10
410.8777260530076
 20
303.8170235820254
 30
0.0
 10
410.9473272681694
 20
304.0817182676333
 30
0.0
 10
410.9683740006093
 20
304.1707599263493
 30
0.0
 10
410.9965761158202
 20
304.3055892702839
 30
0.0
 10
411.0054230843578
 20
304.3507897660444
 30
0.0
 10
411.0219126271852
 20
304.4413038389752
 30
0.0
 10
411.0601458965941
 20
304.6679495424791
 30
0.0
 10
411.0833882565018
 20
304.8964024293698
 30
0.0
 10
411.0921259863513
 20
305.0803529179674
 30
0.0
  0
SPLINE
  5
1BE
330
1F
100
AcDbEntity
  8
1
100
AcDbSpline
210
0.0
220
0.0
230
1.0
 70
    12
 71
     3
 72
     9
 73
     5
 74
     0
 42
0.000000001
 43
0.0000000001
 40
0.0
 40
0.0
 40
0.0
 40
0.0
 40
0.2610839577028035
 40
1.0
 40
1.0
 40
1.0
 40
1.0
 10
378.9886817382711
 20
303.5293505886299
 30
0.0
 41
1.00155965149469
 10
381.7915433614941
 20
303.6344416347397
 30
0.0
 41
1.001816524176117
 10
392.5218169688307
 20
303.8330584795991
 30
0.0
 41
1.002676271946141
 10
403.4100287086631
 20
303.6427555128503
 30
0.0
 41
1.000289447796584
 10
411.0921259863513
 20
305.0803529179674
 30
0.0
 41
1.000929635495104
  0
SPLINE
  5
1BF
330
1F
100
AcDbEntity
  8
1
100
AcDbSpline
210
0.0
220
0.0
230
1.0
 70
     8
 71
     3
 72
    34
 73
    30
 74
     0
 42
0.000000001
 43
0.0000000001
 40
0.0
 40
0.0
 40
0.0
 40
0.0
 40
0.0625000000000001
 40
0.0625000000000001
 40
0.1250000000000002
 40
0.1250000000000002
 40
0.2500000000000001
 40
0.2500000000000001
 40
0.375
 40
0.375
 40
0.390625
 40
0.390625
 40
0.4062500000000001
 40
0.4375
 40
0.5
 40
0.5
 40
0.6250000000000002
 40
0.6250000000000002
 40
0.6875000000000001
 40
0.6875000000000001
 40
0.75
 40
0.75
 40
0.8124999999999998
 40
0.8124999999999998
 40
0.8437499999999998
 40
0.8437499999999998
 40
0.875
 40
0.875
 40
1.0
 40
1.0
 40
1.0
 40
1.0
 10
288.6649715340218
 20
291.1521534889573
 30
0.0
 10
288.4330899104952
 20
291.1177052392044
 30
0.0
 10
288.2036169449838
 20
291.0782922776196
 30
0.0
 10
287.7490984513778
 20
290.9904035210947
 30
0.0
 10
287.5240567492974
 20
290.941915125172
 30
0.0
 10
286.8551363219271
 20
290.783758216591
 30
0.0
 10
286.4174501877222
 20
290.6614135833184
 30
0.0
 10
285.5568903227007
 20
290.3862904280538
 30
0.0
 10
285.1340412534066
 20
290.233434077474
 30
0.0
 10
284.666234650492
 20
290.0448215873026
 30
0.0
 10
284.6144186962728
 20
290.023653669989
 30
0.0
 10
284.511279973342
 20
289.9809719694522
 30
0.0
 10
284.3572315138853
 20
289.916398278768
 30
0.0
 10
284.0023198581252
 20
289.761919386574
 30
0.0
 10
283.7056157828266
 20
289.6231464038673
 30
0.0
 10
283.1216208615766
 20
289.3374703119434
 30
0.0
 10
282.7447980527145
 20
289.1362333845513
 30
0.0
 10
282.1968018692095
 20
288.8187113752284
 30
0.0
 10
282.0170379323922
 20
288.7102101731461
 30
0.0
 10
281.6632525476224
 20
288.4876400087969
 30
0.0
 10
281.489234942106
 20
288.3735610735682
 30
0.0
 10
281.1468000604995
 20
288.1398174407129
 30
0.0
 10
280.9783820265443
 20
288.0201550180698
 30
0.0
 10
280.7298858568852
 20
287.8364198103174
 30
0.0
 10
280.6477425398922
 20
287.7744676329107
 30
0.0
 10
280.484825007576
 20
287.6491377293618
 30
0.0
 10
280.4040585370193
 20
287.5857638912238
 30
0.0
 10
280.0046522345516
 20
287.2661382082459
 30
0.0
 10
279.6983988529486
 20
287.0010114636126
 30
0.0
 10
279.4048419452957
 20
286.7261908852101
 30
0.0
  0
SPLINE
  5
1C0
330
1F
100
AcDbEntity
  8
1
100
AcDbSpline
210
0.0
220
0.0
230
1.0
 70
     8
 71
     3
 72
    55
 73
    51
 74
     0
 42
0.000000001
 43
0.0000000001
 40
0.0
 40
0.0
 40
0.0
 40
0.0
 40
0.0624999999999987
 40
0.0624999999999987
 40
0.1249999999999974
 40
0.1249999999999974
 40
0.1874999999999962
 40
0.1874999999999962
 40
0.2187499999999956
 40
0.2187499999999956
 40
0.2343749999999952
 40
0.2421874999999951
 40
0.2421874999999951
 40
0.2499999999999949
 40
0.2499999999999949
 40
0.3749999999999953
 40
0.3749999999999953
 40
0.4062499999999957
 40
0.4062499999999957
 40
0.4374999999999958
 40
0.4374999999999958
 40
0.4687499999999961
 40
0.4687499999999961
 40
0.4843749999999961
 40
0.4843749999999961
 40
0.4999999999999961
 40
0.4999999999999961
 40
0.5624999999999969
 40
0.5624999999999969
 40
0.6249999999999978
 40
0.6249999999999978
 40
0.6874999999999986
 40
0.6874999999999986
 40
0.7031249999999988
 40
0.7031249999999988
 40
0.718749999999999
 40
0.718749999999999
 40
0.749999999999999
 40
0.749999999999999
 40
0.8124999999999989
 40
0.8124999999999989
 40
0.8749999999999992
 40
0.8749999999999992
 40
0.9062499999999992
 40
0.9062499999999992
 40
0.9218749999999992
 40
0.9218749999999992
 40
0.9374999999999994
 40
0.9374999999999994
 40
1.0
 40
1.0
 40
1.0
 40
1.0
 10
279.4048419452957
 20
272.7756629524666
 30
0.0
 10
279.1836880803343
 20
272.9860649069682
 30
0.0
 10
278.9724497839932
 20
273.2036885103505
 30
0.0
 10
278.5706364189073
 20
273.6544572498983
 30
0.0
 10
278.3800133337043
 20
273.8875785937719
 30
0.0
 10
278.0205769191719
 20
274.3706607880018
 30
0.0
 10
277.8517855072471
 20
274.6206306669334
 30
0.0
 10
277.6162411688626
 20
275.0095094870189
 30
0.0
 10
277.5406731581372
 20
275.1414606679162
 30
0.0
 10
277.4319455697097
 20
275.3430708548614
 30
0.0
 10
277.3787393581764
 20
275.4447976845289
 30
0.0
 10
277.3273135425667
 20
275.5479481837969
 30
0.0
 10
277.2934304188988
 20
275.6170363354278
 30
0.0
 10
277.2766780225328
 20
275.651764778902
 30
0.0
 10
276.9958504542616
 20
276.2438317950283
 30
0.0
 10
276.7922157878631
 20
276.8237757023397
 30
0.0
 10
276.614909538581
 20
277.5789628668581
 30
0.0
 10
276.583314583535
 20
277.7315154760001
 30
0.0
 10
276.5279091275784
 20
278.0397075796368
 30
0.0
 10
276.504064927217
 20
278.1953406452698
 30
0.0
 10
276.464391312051
 20
278.5097872043546
 30
0.0
 10
276.4485790273893
 20
278.6686039853707
 30
0.0
 10
276.4310283952697
 20
278.9092854010458
 30
0.0
 10
276.426207816762
 20
278.9899222645187
 30
0.0
 10
276.4186693419512
 20
279.1520310673857
 30
0.0
 10
276.4159505160104
 20
279.2335481864288
 30
0.0
 10
276.4077712931575
 20
279.6427957685441
 30
0.0
 10
276.4185605095047
 20
279.970249307884
 30
0.0
 10
276.4737668304642
 20
280.6251777843824
 30
0.0
 10
276.5181637077421
 20
280.9526559596956
 30
0.0
 10
276.6404821444687
 20
281.6074499380384
 30
0.0
 10
276.7184158376289
 20
281.9347643444551
 30
0.0
 10
276.837141017342
 20
282.3436468695515
 30
0.0
 10
276.8619485180013
 20
282.4254108140973
 30
0.0
 10
276.9137069595243
 20
282.5889084190067
 30
0.0
 10
276.9406952404607
 20
282.6707446616541
 30
0.0
 10
277.0244516922589
 20
282.9148506911055
 30
0.0
 10
277.0840828124988
 20
283.0760506032622
 30
0.0
 10
277.2749228827971
 20
283.5546887881833
 30
0.0
 10
277.4178785762602
 20
283.867262500121
 30
0.0
 10
277.7348538923399
 20
284.4792135087734
 30
0.0
 10
277.9088747798824
 20
284.7785904553232
 30
0.0
 10
278.193036709232
 20
285.2175987810726
 30
0.0
 10
278.2916294567141
 20
285.3622504242594
 30
0.0
 10
278.4453368170173
 20
285.5766672234656
 30
0.0
 10
278.4975397607805
 20
285.6477127918195
 30
0.0
 10
278.6034570206057
 20
285.7884044200239
 30
0.0
 10
278.6572211053413
 20
285.8581209985196
 30
0.0
 10
278.9300430222206
 20
286.2035695867075
 30
0.0
 10
279.1611642909126
 20
286.4698490601941
 30
0.0
 10
279.4048419452957
 20
286.7261908852101
 30
0.0
  0
SPLINE
  5
1C1
330
1F
100
AcDbEntity
  8
1
100
AcDbSpline
210
0.0
220
0.0
230
1.0
 70
     8
 71
     3
 72
    28
 73
    24
 74
     0
 42
0.000000001
 43
0.0000000001
 40
0.0
 40
0.0
 40
0.0
 40
0.0
 40
0.1250000000000001
 40
0.1250000000000001
 40
0.2500000000000001
 40
0.2500000000000001
 40
0.3750000000000002
 40
0.3750000000000002
 40
0.5000000000000002
 40
0.5000000000000002
 40
0.6250000000000002
 40
0.6250000000000002
 40
0.7500000000000004
 40
0.7500000000000004
 40
0.7812500000000005
 40
0.7812500000000005
 40
0.8125000000000005
 40
0.8125000000000005
 40
0.8750000000000003
 40
0.8750000000000003
 40
0.9375000000000001
 40
0.9375000000000001
 40
1.0
 40
1.0
 40
1.0
 40
1.0
 10
279.4048419452957
 20
272.7756629524666
 30
0.0
 10
279.7088728643106
 20
272.6746244337587
 30
0.0
 10
280.0236841730717
 20
272.5758803994453
 30
0.0
 10
280.6738760463592
 20
272.3809544530853
 30
0.0
 10
281.0092393570741
 20
272.2847533789439
 30
0.0
 10
281.6999995182408
 20
272.0930629620065
 30
0.0
 10
282.0553776282635
 20
271.9975495733597
 30
0.0
 10
282.7859141200619
 20
271.8050801420564
 30
0.0
 10
283.1610814002697
 20
271.7081479632939
 30
0.0
 10
283.9315567030616
 20
271.5105831987031
 30
0.0
 10
284.3268394010084
 20
271.4099372797496
 30
0.0
 10
285.1384299995467
 20
271.2020880442796
 30
0.0
 10
285.554724762097
 20
271.0948960386449
 30
0.0
 10
286.0893608381725
 20
270.9545535981281
 30
0.0
 10
286.1970045504668
 20
270.9261652488273
 30
0.0
 10
286.4137634935452
 20
270.8686793160841
 30
0.0
 10
286.5229264454862
 20
270.8395687849952
 30
0.0
 10
286.8517919812167
 20
270.7513096145727
 30
0.0
 10
287.0731259699147
 20
270.691167853208
 30
0.0
 10
287.5201565065717
 20
270.5677624658446
 30
0.0
 10
287.7458524197406
 20
270.5044993448167
 30
0.0
 10
288.2018617854921
 20
270.3742645612423
 30
0.0
 10
288.4321743112875
 20
270.3072935896964
 30
0.0
 10
288.6649715340218
 20
270.238131071194
 30
0.0
  0
SPLINE
  5
1C2
330
1F
100
AcDbEntity
  8
1
100
AcDbSpline
210
0.0
220
0.0
230
1.0
 70
     8
 71
     3
 72
    22
 73
    18
 74
     0
 42
0.000000001
 43
0.0000000001
 40
0.0
 40
0.0
 40
0.0
 40
0.0
 40
0.1250000000000001
 40
0.1250000000000001
 40
0.2500000000000001
 40
0.2500000000000001
 40
0.3750000000000002
 40
0.3750000000000002
 40
0.5000000000000002
 40
0.5000000000000002
 40
0.6250000000000002
 40
0.6250000000000002
 40
0.7500000000000004
 40
0.7500000000000004
 40
0.8750000000000003
 40
0.8750000000000003
 40
1.0
 40
1.0
 40
1.0
 40
1.0
 10
303.1183521039959
 20
267.7634479664092
 30
0.0
 10
302.4894380594157
 20
267.8087769121807
 30
0.0
 10
301.8672489163782
 20
267.8607825790268
 30
0.0
 10
300.6326492606188
 20
267.9789690787441
 30
0.0
 10
300.0202202458625
 20
268.0451424615542
 30
0.0
 10
298.8017398062789
 20
268.1917156616429
 30
0.0
 10
298.1956702364143
 20
268.2720970997241
 30
0.0
 10
296.9873813069258
 20
268.4467561962197
 30
0.0
 10
296.385152132392
 20
268.5410116206486
 30
0.0
 10
295.1833386540057
 20
268.7433478409318
 30
0.0
 10
294.5837564534358
 20
268.851411006298
 30
0.0
 10
293.3874766209157
 20
269.082179458675
 30
0.0
 10
292.7907898873463
 20
269.2048753448346
 30
0.0
 10
291.6017732394214
 20
269.4670266072183
 30
0.0
 10
291.0094564695437
 20
269.6064781365131
 30
0.0
 10
289.8314980601376
 20
269.9057423876275
 30
0.0
 10
289.2458665029122
 20
270.0655510096195
 30
0.0
 10
288.6649715340218
 20
270.238131071194
 30
0.0
  0
SPLINE
  5
1C3
330
1F
100
AcDbEntity
  8
1
100
AcDbSpline
210
0.0
220
0.0
230
1.0
 70
     8
 71
     3
 72
    10
 73
     6
 74
     0
 42
0.000000001
 43
0.0000000001
 40
0.0
 40
0.0
 40
0.0
 40
0.0
 40
0.3975201289566332
 40
0.3975201289566332
 40
1.0
 40
1.0
 40
1.0
 40
1.0
 10
303.1183490469803
 20
267.7634292244521
 30
0.0
 10
303.1459147529986
 20
267.9324294281333
 30
0.0
 10
303.1760363683427
 20
268.1077337562076
 30
0.0
 10
303.2581315406892
 20
268.5642780285323
 30
0.0
 10
303.3134175519974
 20
268.8537048058058
 30
0.0
 10
303.3746647440517
 20
269.1578349878161
 30
0.0
  0
SPLINE
  5
1C4
330
1F
100
AcDbEntity
  8
1
100
AcDbSpline
210
0.0
220
0.0
230
1.0
 70
     8
 71
     3
 72
     8
 73
     4
 74
     0
 42
0.000000001
 43
0.0000000001
 40
0.0
 40
0.0
 40
0.0
 40
0.0
 40
1.0
 40
1.0
 40
1.0
 40
1.0
 10
303.3746647440517
 20
269.1578349878161
 30
0.0
 10
303.435911936106
 20
269.4619651698264
 30
0.0
 10
303.503401565186
 20
269.7819504380928
 30
0.0
 10
303.575496312302
 20
270.1100360492085
 30
0.0
  0
SPLINE
  5
1C5
330
1F
100
AcDbEntity
  8
1
100
AcDbSpline
210
0.0
220
0.0
230
1.0
 70
     8
 71
     3
 72
     8
 73
     4
 74
     0
 42
0.000000001
 43
0.0000000001
 40
0.0
 40
0.0
 40
0.0
 40
0.0
 40
1.0
 40
1.0
 40
1.0
 40
1.0
 10
303.575496312302
 20
270.1100360492085
 30
0.0
 10
303.719685806534
 20
270.7662072714396
 30
0.0
 10
303.8832293162148
 20
271.4602341217176
 30
0.0
 10
304.0661785370476
 20
272.19221771463
 30
0.0
  0
SPLINE
  5
1C6
330
1F
100
AcDbEntity
  8
1
100
AcDbSpline
210
0.0
220
0.0
230
1.0
 70
     8
 71
     3
 72
     8
 73
     4
 74
     0
 42
0.000000001
 43
0.0000000001
 40
0.0
 40
0.0
 40
0.0
 40
0.0
 40
1.0
 40
1.0
 40
1.0
 40
1.0
 10
304.0661785370476
 20
272.19221771463
 30
0.0
 10
304.1119158422556
 20
272.3752136128581
 30
0.0
 10
304.158877360473
 20
272.560604019473
 30
0.0
 10
304.2070872861819
 20
272.748436257851
 30
0.0
  0
SPLINE
  5
1C7
330
1F
100
AcDbEntity
  8
1
100
AcDbSpline
210
0.0
220
0.0
230
1.0
 70
     8
 71
     3
 72
     8
 73
     4
 74
     0
 42
0.000000001
 43
0.0000000001
 40
0.0
 40
0.0
 40
0.0
 40
0.0
 40
1.0
 40
1.0
 40
1.0
 40
1.0
 10
304.2070872861819
 20
272.748436257851
 30
0.0
 10
304.2552972118908
 20
272.936268496229
 30
0.0
 10
304.3048954931955
 20
273.1270717748294
 30
0.0
 10
304.3554116211887
 20
273.3190022764009
 30
0.0
  0
SPLINE
  5
1C8
330
1F
100
AcDbEntity
  8
1
100
AcDbSpline
210
0.0
220
0.0
230
1.0
 70
     8
 71
     3
 72
     8
 73
     4
 74
     0
 42
0.000000001
 43
0.0000000001
 40
0.0
 40
0.0
 40
0.0
 40
0.0
 40
1.0
 40
1.0
 40
1.0
 40
1.0
 10
304.3554116211887
 20
273.3190022764009
 30
0.0
 10
304.4201201136391
 20
273.5648551140066
 30
0.0
 10
304.4861913862263
 20
273.8120459459972
 30
0.0
 10
304.5536027472755
 20
274.060552493406
 30
0.0
  0
SPLINE
  5
1C9
330
1F
100
AcDbEntity
  8
1
100
AcDbSpline
210
0.0
220
0.0
230
1.0
 70
     8
 71
     3
 72
     8
 73
     4
 74
     0
 42
0.000000001
 43
0.0000000001
 40
0.0
 40
0.0
 40
0.0
 40
0.0
 40
1.0
 40
1.0
 40
1.0
 40
1.0
 10
304.5536027472755
 20
274.060552493406
 30
0.0
 10
304.5914437515337
 20
274.2000503046406
 30
0.0
 10
304.6297070280822
 20
274.3399627080299
 30
0.0
 10
304.6683885631257
 20
274.4802857627801
 30
0.0
  0
SPLINE
  5
1CA
330
1F
100
AcDbEntity
  8
1
100
AcDbSpline
210
0.0
220
0.0
230
1.0
 70
     8
 71
     3
 72
     8
 73
     4
 74
     0
 42
0.000000001
 43
0.0000000001
 40
0.0
 40
0.0
 40
0.0
 40
0.0
 40
1.0
 40
1.0
 40
1.0
 40
1.0
 10
304.6683885631257
 20
274.4802857627801
 30
0.0
 10
304.8835690604112
 20
275.2608852055861
 30
0.0
 10
305.1116893970341
 20
276.0541891426163
 30
0.0
 10
305.3522418968695
 20
276.8596991311751
 30
0.0
  0
SPLINE
  5
1CB
330
1F
100
AcDbEntity
  8
1
100
AcDbSpline
210
0.0
220
0.0
230
1.0
 70
     8
 71
     3
 72
    27
 73
    23
 74
     0
 42
0.000000001
 43
0.0000000001
 40
0.0
 40
0.0
 40
0.0
 40
0.0
 40
0.1250000000000012
 40
0.1250000000000012
 40
0.2500000000000024
 40
0.2500000000000024
 40
0.3750000000000036
 40
0.3750000000000036
 40
0.4375000000000043
 40
0.5000000000000048
 40
0.5000000000000048
 40
0.5312500000000052
 40
0.5312500000000052
 40
0.5625000000000054
 40
0.5625000000000054
 40
0.625000000000005
 40
0.625000000000005
 40
0.7500000000000034
 40
0.7500000000000034
 40
0.8750000000000015
 40
0.8750000000000015
 40
1.0
 40
1.0
 40
1.0
 40
1.0
 10
288.6649715340218
 20
291.1521534889573
 30
0.0
 10
289.0969411659848
 20
291.2163267405555
 30
0.0
 10
289.5285088851195
 20
291.2626701519256
 30
0.0
 10
290.3908869464909
 20
291.3218233893417
 30
0.0
 10
290.8216951227595
 20
291.3345370394917
 30
0.0
 10
291.6825728204477
 20
291.3272772025006
 30
0.0
 10
292.1126422428474
 20
291.3072991610237
 30
0.0
 10
292.7572122047898
 20
291.2536732838745
 30
0.0
 10
293.1867440053674
 20
291.2098829992262
 30
0.0
 10
293.6159227159988
 20
291.150437913802
 30
0.0
 10
293.9376743726047
 20
291.0999775045111
 30
0.0
 10
294.0449027667295
 20
291.0821736911321
 30
0.0
 10
294.2593151355917
 20
291.0445926349217
 30
0.0
 10
294.3665884181718
 20
291.024808430269
 30
0.0
 10
294.6875311551951
 20
290.9626896705209
 30
0.0
 10
294.9003379256852
 20
290.9175942153398
 30
0.0
 10
295.5354133535869
 20
290.7716281299607
 30
0.0
 10
295.9543459635707
 20
290.6601062542954
 30
0.0
 10
296.783980980782
 20
290.4106951264479
 30
0.0
 10
297.194656223066
 20
290.2727191720703
 30
0.0
 10
298.0083818780766
 20
289.9722326612058
 30
0.0
 10
298.4114305126187
 20
289.8097160678517
 30
0.0
 10
298.8111247622772
 20
289.636342509407
 30
0.0
  0
SPLINE
  5
1CC
330
1F
100
AcDbEntity
  8
1
100
AcDbSpline
210
0.0
220
0.0
230
1.0
 70
     8
 71
     3
 72
    50
 73
    46
 74
     0
 42
0.000000001
 43
0.0000000001
 40
0.0
 40
0.0
 40
0.0
 40
0.0
 40
0.0241998414362625
 40
0.0241998414362625
 40
0.0485948454003558
 40
0.0485948454003558
 40
0.0729898493644492
 40
0.0729898493644492
 40
0.1217798572926364
 40
0.1217798572926364
 40
0.2193598731490108
 40
0.2193598731490108
 40
0.2681498810771982
 40
0.2681498810771982
 40
0.3169398890053854
 40
0.3169398890053854
 40
0.3657298969335729
 40
0.3657298969335729
 40
0.4145199048617602
 40
0.4145199048617602
 40
0.4389149088258538
 40
0.4389149088258538
 40
0.4633099127899472
 40
0.4633099127899472
 40
0.5120999207181338
 40
0.5120999207181338
 40
0.5608899286463204
 40
0.5608899286463204
 40
0.6096799365745069
 40
0.6096799365745069
 40
0.6584699445026937
 40
0.6584699445026937
 40
0.7072599524308804
 40
0.7072599524308804
 40
0.7560499603590669
 40
0.7560499603590669
 40
0.8048399682872537
 40
0.8048399682872537
 40
0.8536299762154403
 40
0.8536299762154403
 40
0.9024199841436267
 40
0.9024199841436267
 40
0.9512099920718133
 40
0.9512099920718133
 40
1.0
 40
1.0
 40
1.0
 40
1.0
 10
357.4191136931005
 20
272.0993108898377
 30
0.0
 10
356.9890276220033
 20
272.0100255739974
 30
0.0
 10
356.5588112464328
 20
271.9220055099184
 30
0.0
 10
355.694629203004
 20
271.747810252989
 30
0.0
 10
355.2606605511769
 20
271.6616565590056
 30
0.0
 10
354.3924183083798
 20
271.4919520759546
 30
0.0
 10
353.9581010210268
 20
271.408393072314
 30
0.0
 10
352.6550098253526
 20
271.1617087695808
 30
0.0
 10
351.7861776238058
 20
271.0025903758233
 30
0.0
 10
349.1790851576947
 20
270.5413572183822
 30
0.0
 10
347.4402365189322
 20
270.2553736843104
 30
0.0
 10
344.8295340021742
 20
269.858979020219
 30
0.0
 10
343.9588455158598
 20
269.7323336536804
 30
0.0
 10
342.2170380256241
 20
269.4891020689969
 30
0.0
 10
341.3459312183371
 20
269.3724990258865
 30
0.0
 10
339.603797223979
 20
269.1486529807277
 30
0.0
 10
338.7327708956125
 20
269.0414104111311
 30
0.0
 10
336.9911923281224
 20
268.8359719395712
 30
0.0
 10
336.1206407134627
 20
268.7377770696353
 30
0.0
 10
334.8153778620173
 20
268.5972825668053
 30
0.0
 10
334.3803833775634
 20
268.5515865134671
 30
0.0
 10
333.5106032946673
 20
268.4624950327997
 30
0.0
 10
333.0757839262294
 20
268.419096687949
 30
0.0
 10
331.7723766795875
 20
268.2924898964728
 30
0.0
 10
330.9046281308043
 20
268.2128410256407
 30
0.0
 10
329.171585003459
 20
268.0635472454272
 30
0.0
 10
328.3062904409541
 20
267.9939048572773
 30
0.0
 10
326.5780917935946
 20
267.8652769079648
 30
0.0
 10
325.7151874611097
 20
267.8062939545386
 30
0.0
 10
323.9915705362888
 20
267.6997157915504
 30
0.0
 10
323.1308574780137
 20
267.6521230931698
 30
0.0
 10
321.4113000140983
 20
267.5690569207414
 30
0.0
 10
320.5524549801538
 20
267.5335857015225
 30
0.0
 10
318.8362027661089
 20
267.4754224471189
 30
0.0
 10
317.9787948540244
 20
267.4527322895845
 30
0.0
 10
316.2648990068695
 20
267.4206571787573
 30
0.0
 10
315.4084102910804
 20
267.411273650549
 30
0.0
 10
313.695770781404
 20
267.4061540858784
 30
0.0
 10
312.8396192049614
 20
267.410418990201
 30
0.0
 10
311.1270313645759
 20
267.4327192710091
 30
0.0
 10
310.2705943530883
 20
267.4507551085633
 30
0.0
 10
308.5567955651476
 20
267.5004799486222
 30
0.0
 10
307.6994331028542
 20
267.5321689636254
 30
0.0
 10
305.9831474641715
 20
267.6088356021788
 30
0.0
 10
305.124223681331
 20
267.653812837783
 30
0.0
 10
304.2642133541217
 20
267.7051313908677
 30
0.0
  0
SPLINE
  5
1CD
330
1F
100
AcDbEntity
  8
1
100
AcDbSpline
210
0.0
220
0.0
230
1.0
 70
     8
 71
     3
 72
    22
 73
    18
 74
     0
 42
0.000000001
 43
0.0000000001
 40
0.0
 40
0.0
 40
0.0
 40
0.0
 40
0.1250000000000056
 40
0.1250000000000056
 40
0.1874999999999869
 40
0.1874999999999869
 40
0.2499999999999683
 40
0.2499999999999683
 40
0.4999999999999795
 40
0.4999999999999795
 40
0.6249999999999851
 40
0.6249999999999851
 40
0.687499999999988
 40
0.687499999999988
 40
0.7499999999999907
 40
0.7499999999999907
 40
1.0
 40
1.0
 40
1.0
 40
1.0
 10
421.1541721310586
 20
297.6175874877337
 30
0.0
 10
421.1069333038255
 20
297.5726835520924
 30
0.0
 10
421.0581440378867
 20
297.5297052745798
 30
0.0
 10
420.9826227371076
 20
297.4680581656152
 30
0.0
 10
420.9570588561869
 20
297.4479799820702
 30
0.0
 10
420.9051420983907
 20
297.4087631245127
 30
0.0
 10
420.8789437390219
 20
297.3897415570439
 30
0.0
 10
420.7468912400818
 20
297.2975590591574
 30
0.0
 10
420.637728531919
 20
297.2329535259318
 30
0.0
 10
420.4678761334123
 20
297.1485306518123
 30
0.0
 10
420.4102329367993
 20
297.1224887547659
 30
0.0
 10
420.3220293648262
 20
297.086577697673
 30
0.0
 10
420.2923375522147
 20
297.0751337023621
 30
0.0
 10
420.2323276761063
 20
297.0533126927916
 30
0.0
 10
420.2019595014339
 20
297.042920115509
 30
0.0
 10
420.0491185179166
 20
296.993905753611
 30
0.0
 10
419.923891574549
 20
296.9640486722208
 30
0.0
 10
419.7945342210887
 20
296.9442554841497
 30
0.0
  0
SPLINE
  5
1CE
330
1F
100
AcDbEntity
  8
1
100
AcDbSpline
210
0.0
220
0.0
230
1.0
 70
     8
 71
     3
 72
     8
 73
     4
 74
     0
 42
0.000000001
 43
0.0000000001
 40
0.0
 40
0.0
 40
0.0
 40
0.0
 40
1.0
 40
1.0
 40
1.0
 40
1.0
 10
412.3007552289729
 20
298.3140825291944
 30
0.0
 10
411.9373974873179
 20
298.4840812559017
 30
0.0
 10
411.580667964264
 20
298.6673008288899
 30
0.0
 10
411.2306180386239
 20
298.863757517942
 30
0.0
  0
SPLINE
  5
1CF
330
1F
100
AcDbEntity
  8
1
100
AcDbSpline
210
0.0
220
0.0
230
1.0
 70
     8
 71
     3
 72
    18
 73
    14
 74
     0
 42
0.000000001
 43
0.0000000001
 40
0.0
 40
0.0
 40
0.0
 40
0.0
 40
0.2500000000000199
 40
0.2500000000000199
 40
0.3125000000000215
 40
0.3125000000000215
 40
0.3750000000000231
 40
0.3750000000000231
 40
0.5000000000000133
 40
0.5000000000000133
 40
0.7500000000000067
 40
0.7500000000000067
 40
1.0
 40
1.0
 40
1.0
 40
1.0
 10
413.9231141798571
 20
293.4333449408868
 30
0.0
 10
414.4007516692233
 20
293.2455300574871
 30
0.0
 10
414.8874077262034
 20
293.0826891295099
 30
0.0
 10
415.5069567905633
 20
292.9106851721028
 30
0.0
 10
415.6314703498837
 20
292.8778550184437
 30
0.0
 10
415.8814565519201
 20
292.8154215306096
 30
0.0
 10
416.0066306725278
 20
292.785891558999
 30
0.0
 10
416.3826897758845
 20
292.7023138863963
 30
0.0
 10
416.6341110951229
 20
292.6532750650261
 30
0.0
 10
417.3904852640196
 20
292.5259369599026
 30
0.0
 10
417.8975420638907
 20
292.4673635004002
 30
0.0
 10
418.9172338890016
 20
292.402740917443
 30
0.0
 10
419.429868343702
 20
292.3966864372048
 30
0.0
 10
419.9453772835066
 20
292.4177096890342
 30
0.0
  0
SPLINE
  5
1D0
330
1F
100
AcDbEntity
  8
1
100
AcDbSpline
210
0.0
220
0.0
230
1.0
 70
     8
 71
     3
 72
     9
 73
     5
 74
     0
 42
0.000000001
 43
0.0000000001
 40
0.0
 40
0.0
 40
0.0
 40
0.0
 40
0.8102492760502343
 40
1.0
 40
1.0
 40
1.0
 40
1.0
 10
308.0207932706674
 20
284.716427305085
 30
0.0
 10
308.1442555702313
 20
285.0282849219994
 30
0.0
 10
308.2927025680066
 20
285.3928901192029
 30
0.0
 10
308.436380263912
 20
285.7328690656803
 30
0.0
 10
308.4634708020886
 20
285.7964900869347
 30
0.0
  0
SPLINE
  5
1D1
330
1F
100
AcDbEntity
  8
1
100
AcDbSpline
210
0.0
220
0.0
230
1.0
 70
     8
 71
     3
 72
     8
 73
     4
 74
     0
 42
0.000000001
 43
0.0000000001
 40
0.0
 40
0.0
 40
0.0
 40
0.0
 40
1.0
 40
1.0
 40
1.0
 40
1.0
 10
419.7945342210886
 20
296.9442554841493
 30
0.0
 10
419.7910739148328
 20
296.9437260168197
 30
0.0
 10
419.7876121195241
 20
296.9432038884057
 30
0.0
 10
419.784148886621
 20
296.9426891148401
 30
0.0
  0
SPLINE
  5
1D2
330
1F
100
AcDbEntity
  8
1
100
AcDbSpline
210
0.0
220
0.0
230
1.0
 70
     8
 71
     3
 72
     8
 73
     4
 74
     0
 42
0.000000001
 43
0.0000000001
 40
0.0
 40
0.0
 40
0.0
 40
0.0
 40
1.0
 40
1.0
 40
1.0
 40
1.0
 10
419.785210057479
 20
296.786635876424
 30
0.0
 10
419.7887679856957
 20
296.7867606716236
 30
0.0
 10
419.7923265577942
 20
296.786885149997
 30
0.0
 10
419.7958857744673
 20
296.7870093112031
 30
0.0
  0
SPLINE
  5
1D3
330
1F
100
AcDbEntity
  8
1
100
AcDbSpline
210
0.0
220
0.0
230
1.0
 70
     8
 71
     3
 72
    24
 73
    20
 74
     0
 42
0.000000001
 43
0.0000000001
 40
0.0
 40
0.0
 40
0.0
 40
0.0
 40
0.1250000000000139
 40
0.1250000000000139
 40
0.1875000000000159
 40
0.1875000000000159
 40
0.2500000000000178
 40
0.2500000000000178
 40
0.3750000000000221
 40
0.5000000000000263
 40
0.5000000000000263
 40
0.5312500000000248
 40
0.5312500000000248
 40
0.5625000000000232
 40
0.6250000000000199
 40
0.6250000000000199
 40
0.7500000000000134
 40
0.8750000000000067
 40
1.0
 40
1.0
 40
1.0
 40
1.0
 10
412.3007552289729
 20
298.3140825291944
 30
0.0
 10
412.5903636850508
 20
298.1785877725597
 30
0.0
 10
412.8841850376653
 20
298.0514953594102
 30
0.0
 10
413.3312759448378
 20
297.8735885459597
 30
0.0
 10
413.4814181339813
 20
297.8163909439544
 30
0.0
 10
413.7836206172357
 20
297.7063594605411
 30
0.0
 10
413.9354046339021
 20
297.6536243918364
 30
0.0
 10
414.3927944856316
 20
297.5022346299259
 30
0.0
 10
415.0080780941427
 20
297.3185445075359
 30
0.0
 10
415.6342001676446
 20
297.1711808954057
 30
0.0
 10
416.0289438139343
 20
297.090551206542
 30
0.0
 10
416.1081034070796
 20
297.0749920017539
 30
0.0
 10
416.2665477955767
 20
297.045067378027
 30
0.0
 10
416.5043622273658
 20
297.0019765867331
 30
0.0
 10
416.742618086901
 20
296.9642498296645
 30
0.0
 10
417.2197142814773
 20
296.8959017634457
 30
0.0
 10
417.8574000904935
 20
296.8237063564582
 30
0.0
 10
418.8185747950779
 20
296.7719357959929
 30
0.0
 10
419.4624710492638
 20
296.7753157270274
 30
0.0
 10
419.785210057479
 20
296.786635876424
 30
0.0
  0
SPLINE
  5
1D4
330
1F
100
AcDbEntity
  8
1
100
AcDbSpline
210
0.0
220
0.0
230
1.0
 70
     8
 71
     3
 72
    17
 73
    13
 74
     0
 42
0.000000001
 43
0.0000000001
 40
0.0
 40
0.0
 40
0.0
 40
0.0
 40
0.1428572094433987
 40
0.1428572094433987
 40
0.2857142516895366
 40
0.4285712939356744
 40
0.4285712939356744
 40
0.5714283361818123
 40
0.5714283361818123
 40
0.8571424206740873
 40
0.8571424206740873
 40
1.0
 40
1.0
 40
1.0
 40
1.0
 10
305.3522418968695
 20
276.8596991311751
 30
0.0
 10
305.4725181467873
 20
277.2624541254545
 30
0.0
 10
305.5961751462727
 20
277.6689232998228
 30
0.0
 10
305.8447715940335
 20
278.4713767153632
 30
0.0
 10
306.0958775732467
 20
279.2675202174901
 30
0.0
 10
306.35194590856
 20
280.0511864751939
 30
0.0
 10
306.6105423089887
 20
280.8284962188292
 30
0.0
 10
306.7416886781046
 20
281.2156225137351
 30
0.0
 10
307.1318923688472
 20
282.3463555223699
 30
0.0
 10
307.3891099041377
 20
283.0620910261603
 30
0.0
 10
307.770296076129
 20
284.0751354403188
 30
0.0
 10
307.8973309711034
 20
284.4045696881705
 30
0.0
 10
308.0207932706674
 20
284.716427305085
 30
0.0
  0
SPLINE
  5
1D5
330
1F
100
AcDbEntity
  8
1
100
AcDbSpline
210
0.0
220
0.0
230
1.0
 70
     8
 71
     3
 72
    10
 73
     6
 74
     0
 42
0.000000001
 43
0.0000000001
 40
0.0
 40
0.0
 40
0.0
 40
0.0
 40
0.5
 40
0.5
 40
1.0
 40
1.0
 40
1.0
 40
1.0
 10
411.0921259863513
 20
305.0803529179674
 30
0.0
 10
411.1201390041841
 20
305.9538662765864
 30
0.0
 10
411.1452033996823
 20
306.8274597528388
 30
0.0
 10
411.1909871290426
 20
308.5747647659206
 30
0.0
 10
411.2116984633965
 20
309.4484765201064
 30
0.0
 10
411.230756615146
 20
310.322233193262
 30
0.0
  0
SPLINE
  5
1D6
330
1F
100
AcDbEntity
  8
1
100
AcDbSpline
210
0.0
220
0.0
230
1.0
 70
     8
 71
     3
 72
    39
 73
    35
 74
     0
 42
0.000000001
 43
0.0000000001
 40
0.0
 40
0.0
 40
0.0
 40
0.0
 40
0.0355441812344375
 40
0.0355441812344375
 40
0.071088362468875
 40
0.071088362468875
 40
0.1421767249377499
 40
0.1421767249377499
 40
0.2132650874066249
 40
0.2132650874066249
 40
0.2843534498754998
 40
0.2843534498754998
 40
0.3554418123443756
 40
0.3554418123443756
 40
0.4265301748132515
 40
0.4265301748132515
 40
0.444302265430471
 40
0.444302265430471
 40
0.4620743560476905
 40
0.4620743560476905
 40
0.4976185372821288
 40
0.5331627185165671
 40
0.5331627185165671
 40
0.5687068997510055
 40
0.5687068997510055
 40
0.7108836246887613
 40
0.7108836246887613
 40
0.8530603496265172
 40
0.8530603496265172
 40
0.924148712095395
 40
0.924148712095395
 40
0.9952370745642728
 40
0.9952370745642728
 40
1.0
 40
1.0
 40
1.0
 40
1.0
 10
411.2307566151454
 20
310.3222331932336
 30
0.0
 10
410.7373834840583
 20
310.345124302801
 30
0.0
 10
410.2423766147976
 20
310.3630395181558
 30
0.0
 10
409.2488686662592
 20
310.3898426953268
 30
0.0
 10
408.7503677814765
 20
310.3987315494696
 30
0.0
 10
407.2494037964959
 20
310.4132382055931
 30
0.0
 10
406.2414448780763
 20
310.4067234519557
 30
0.0
 10
404.2105946378023
 20
310.3682405090635
 30
0.0
 10
403.1877072904205
 20
310.3362887401399
 30
0.0
 10
401.12776678125
 20
310.2528222558498
 30
0.0
 10
400.0907174390686
 20
310.2013189319195
 30
0.0
 10
398.0041624011036
 20
310.0831546914413
 30
0.0
 10
396.9546610408737
 20
310.0165012421725
 30
0.0
 10
394.8457343562777
 20
309.8706780389595
 30
0.0
 10
393.7863143213834
 20
309.7915127519948
 30
0.0
 10
392.4578445963334
 20
309.6851721838939
 30
0.0
 10
392.1919102855844
 20
309.6635273028025
 30
0.0
 10
391.6598734298848
 20
309.6194965669952
 30
0.0
 10
391.3937697182949
 20
309.597110737811
 30
0.0
 10
390.5952660215412
 20
309.528816921942
 30
0.0
 10
389.5300792953083
 20
309.434736426052
 30
0.0
 10
388.4645794442457
 20
309.3341507199455
 30
0.0
 10
387.3993062716087
 20
309.2299515082315
 30
0.0
 10
386.8668167067852
 20
309.1760067525358
 30
0.0
 10
384.2052667556362
 20
308.8967766626689
 30
0.0
 10
382.0786054518745
 20
308.6432302804352
 30
0.0
 10
377.8280143034844
 20
308.0762362210332
 30
0.0
 10
375.7040982854008
 20
307.7627953058403
 30
0.0
 10
372.518833312341
 20
307.2481856938499
 30
0.0
 10
371.4571818431499
 20
307.0692435143435
 30
0.0
 10
369.3338959223274
 20
306.6965701200548
 30
0.0
 10
368.2720434924296
 20
306.5027997588399
 30
0.0
 10
367.1401507590297
 20
306.2883106375477
 30
0.0
 10
367.0690795538962
 20
306.2748095649981
 30
0.0
 10
366.9980120275551
 20
306.261275760662
 30
0.0
  0
SPLINE
  5
1D7
330
1F
100
AcDbEntity
  8
1
100
AcDbSpline
210
0.0
220
0.0
230
1.0
 70
     8
 71
     3
 72
    64
 73
    60
 74
     0
 42
0.000000001
 43
0.0000000001
 40
0.0
 40
0.0
 40
0.0
 40
0.0
 40
0.0378601449052251
 40
0.0378601449052251
 40
0.0757202898104503
 40
0.0757202898104503
 40
0.1135804347156754
 40
0.1135804347156754
 40
0.1514405796209005
 40
0.1514405796209005
 40
0.1893007245261257
 40
0.1893007245261257
 40
0.2271608694313508
 40
0.2271608694313508
 40
0.265021014336576
 40
0.265021014336576
 40
0.3028811592418011
 40
0.3028811592418011
 40
0.3407413041470262
 40
0.3407413041470262
 40
0.3786014490522513
 40
0.3786014490522513
 40
0.4164615939574765
 40
0.4164615939574765
 40
0.4543217388627017
 40
0.4543217388627017
 40
0.4921818837679269
 40
0.4921818837679269
 40
0.530042028673152
 40
0.530042028673152
 40
0.5679021735783771
 40
0.5679021735783771
 40
0.6057623184836022
 40
0.6057623184836022
 40
0.6436224633888274
 40
0.6436224633888274
 40
0.6814826082940525
 40
0.6814826082940525
 40
0.7193427531992777
 40
0.7193427531992777
 40
0.7572028981045027
 40
0.7572028981045027
 40
0.7950630430097279
 40
0.7950630430097279
 40
0.8045280792360342
 40
0.8045280792360342
 40
0.8139931154623406
 40
0.8139931154623406
 40
0.8329231879149537
 40
0.8329231879149537
 40
0.8707833328201804
 40
0.8707833328201804
 40
0.9086434777254071
 40
0.9086434777254071
 40
0.946503622630634
 40
0.946503622630634
 40
0.9843637675358607
 40
0.9843637675358607
 40
1.0
 40
1.0
 40
1.0
 40
1.0
 10
304.2642133541219
 20
267.7051313908671
 30
0.0
 10
304.884985077795
 20
267.7247364922077
 30
0.0
 10
305.5049809184989
 20
267.7500362776689
 30
0.0
 10
306.7439146814778
 20
267.8113984783378
 30
0.0
 10
307.3628529147704
 20
267.8474617274949
 30
0.0
 10
308.6001954719518
 20
267.9293986992929
 30
0.0
 10
309.2186002085516
 20
267.9752729527144
 30
0.0
 10
310.4554186970123
 20
268.0755313556797
 30
0.0
 10
311.0738329836986
 20
268.1299155334867
 30
0.0
 10
312.3112182901814
 20
268.2455354778697
 30
0.0
 10
312.9301899959805
 20
268.3067704089028
 30
0.0
 10
314.1692244571241
 20
268.4340863336387
 30
0.0
 10
314.7892880758412
 20
268.5001650862724
 30
0.0
 10
316.0310041246335
 20
268.6348597769766
 30
0.0
 10
316.6526575927357
 20
268.7034714232835
 30
0.0
 10
317.8979859650671
 20
268.8407151458044
 30
0.0
 10
318.5216620090534
 20
268.9093403879825
 30
0.0
 10
319.7713699714825
 20
269.0440520253766
 30
0.0
 10
320.3974029465206
 20
269.1101291776924
 30
0.0
 10
321.6520272293283
 20
269.2373854601923
 30
0.0
 10
322.2806192124642
 20
269.2985542066072
 30
0.0
 10
323.540404764737
 20
269.4141352629529
 30
0.0
 10
324.1716675061415
 20
269.468543371663
 30
0.0
 10
325.436071280382
 20
269.5695026881097
 30
0.0
 10
326.0692643168027
 20
269.6160549556521
 30
0.0
 10
327.3373997089324
 20
269.7013028715041
 30
0.0
 10
327.9723407201539
 20
269.7399996165733
 30
0.0
 10
329.2436481074513
 20
269.8106065607027
 30
0.0
 10
329.8800129143837
 20
269.8425228209545
 30
0.0
 10
331.1537996357269
 20
269.901607750581
 30
0.0
 10
331.7912201120764
 20
269.9287850787504
 30
0.0
 10
333.0667520331358
 20
269.9811690949267
 30
0.0
 10
333.7048623971297
 20
270.0063843943353
 30
0.0
 10
334.9814485669581
 20
270.0580903867439
 30
0.0
 10
335.6199236978185
 20
270.084587796479
 30
0.0
 10
336.8969808602155
 20
270.1423370007923
 30
0.0
 10
337.5355625399425
 20
270.1735928095457
 30
0.0
 10
338.8126562406226
 20
270.244407481335
 30
0.0
 10
339.4511680905468
 20
270.2839675709598
 30
0.0
 10
340.7280348147289
 20
270.3749306302566
 30
0.0
 10
341.3663895448348
 20
270.4263322407242
 30
0.0
 10
342.6429480818664
 20
270.5445121488922
 30
0.0
 10
343.2811516215569
 20
270.6112866311982
 30
0.0
 10
344.0788773467737
 20
270.7066187028071
 30
0.0
 10
344.2384488728095
 20
270.7262822610617
 30
0.0
 10
344.5574232411583
 20
270.7668329826144
 30
0.0
 10
344.716827387371
 20
270.7877200372286
 30
0.0
 10
345.1947837052896
 20
270.8522974184439
 30
0.0
 10
345.5130703794418
 20
270.8979610166267
 30
0.0
 10
346.4669495666224
 20
271.0427106397713
 30
0.0
 10
347.1015978611125
 20
271.1493286367028
 30
0.0
 10
348.3690746013557
 20
271.3797322433569
 30
0.0
 10
349.0019018052756
 20
271.5035230931879
 30
0.0
 10
350.2662997198968
 20
271.7658349056213
 30
0.0
 10
350.8978696374336
 20
271.9043584302089
 30
0.0
 10
352.160190576367
 20
272.1941991186456
 30
0.0
 10
352.7909410452179
 20
272.3455170772449
 30
0.0
 10
353.6818468658823
 20
272.5673203783399
 30
0.0
 10
353.9422038877522
 20
272.633117346854
 30
0.0
 10
354.2025280159967
 20
272.6998409656173
 30
0.0
  0
SPLINE
  5
1D8
330
1F
100
AcDbEntity
  8
1
100
AcDbSpline
210
0.0
220
0.0
230
1.0
 70
     8
 71
     3
 72
     8
 73
     4
 74
     0
 42
0.000000001
 43
0.0000000001
 40
0.0
 40
0.0
 40
0.0
 40
0.0
 40
1.0
 40
1.0
 40
1.0
 40
1.0
 10
304.2642133541217
 20
267.7051313908678
 30
0.0
 10
303.8824349667201
 20
267.7237530178207
 30
0.0
 10
303.5005250927189
 20
267.7432010320914
 30
0.0
 10
303.1184919321325
 20
267.763468584486
 30
0.0
  0
SPLINE
  5
1D9
330
1F
100
AcDbEntity
  8
1
100
AcDbSpline
210
0.0
220
0.0
230
1.0
 70
     8
 71
     3
 72
    25
 73
    21
 74
     0
 42
0.000000001
 43
0.0000000001
 40
0.0
 40
0.0
 40
0.0
 40
0.0
 40
0.1249999999999922
 40
0.1249999999999922
 40
0.2499999999999844
 40
0.2499999999999844
 40
0.3749999999999765
 40
0.3749999999999765
 40
0.4999999999999689
 40
0.4999999999999689
 40
0.624999999999961
 40
0.624999999999961
 40
0.656249999999962
 40
0.656249999999962
 40
0.6874999999999632
 40
0.7499999999999654
 40
0.7499999999999654
 40
0.8749999999999825
 40
0.8749999999999825
 40
1.0
 40
1.0
 40
1.0
 40
1.0
 10
419.8553592251778
 20
295.0487344928628
 30
0.0
 10
419.6888843536276
 20
295.0825451463446
 30
0.0
 10
419.5161148430815
 20
295.1167892178587
 30
0.0
 10
419.1598958397476
 20
295.1878331018629
 30
0.0
 10
418.9764389627036
 20
295.2246285662151
 30
0.0
 10
418.600212967871
 20
295.3021689155581
 30
0.0
 10
418.4074395928607
 20
295.3429109350457
 30
0.0
 10
418.0135985108496
 20
295.4295608462981
 30
0.0
 10
417.8125282338371
 20
295.4754666478286
 30
0.0
 10
417.4028591001636
 20
295.5735553106614
 30
0.0
 10
417.1942586612024
 20
295.6257364732821
 30
0.0
 10
416.9291612180901
 20
295.6955494803513
 30
0.0
 10
416.8759088645018
 20
295.7097456824418
 30
0.0
 10
416.7692595984026
 20
295.7385356061406
 30
0.0
 10
416.6089677275293
 20
295.7823429566542
 30
0.0
 10
416.4477645674852
 20
295.8280688225746
 30
0.0
 10
416.1242449309662
 20
295.922209352885
 30
0.0
 10
415.9070839196498
 20
295.9885555473222
 30
0.0
 10
415.4702542605673
 20
296.1290854940115
 30
0.0
 10
415.2505848179885
 20
296.2032681561132
 30
0.0
 10
415.0298419452953
 20
296.2816953485033
 30
0.0
  0
SPLINE
  5
1DA
330
1F
100
AcDbEntity
  8
1
100
AcDbSpline
210
0.0
220
0.0
230
1.0
 70
     8
 71
     3
 72
   122
 73
   118
 74
     0
 42
0.000000001
 43
0.0000000001
 40
0.0
 40
0.0
 40
0.0
 40
0.0
 40
0.0312499999999945
 40
0.0312499999999945
 40
0.0468749999999917
 40
0.0468749999999917
 40
0.062499999999989
 40
0.062499999999989
 40
0.0781249999999863
 40
0.0781249999999863
 40
0.0937499999999835
 40
0.1093749999999808
 40
0.1093749999999808
 40
0.124999999999978
 40
0.124999999999978
 40
0.1562499999999721
 40
0.1562499999999721
 40
0.1874999999999662
 40
0.1874999999999662
 40
0.2031249999999633
 40
0.2031249999999633
 40
0.2187499999999603
 40
0.2187499999999603
 40
0.2343749999999574
 40
0.2343749999999574
 40
0.2499999999999545
 40
0.2656249999999515
 40
0.2656249999999515
 40
0.2734374999999502
 40
0.2734374999999502
 40
0.2812499999999488
 40
0.2968749999999462
 40
0.2968749999999462
 40
0.3046874999999456
 40
0.3046874999999456
 40
0.312499999999945
 40
0.312499999999945
 40
0.3437499999999452
 40
0.3437499999999452
 40
0.3593749999999452
 40
0.3593749999999452
 40
0.3749999999999453
 40
0.3749999999999453
 40
0.3906249999999454
 40
0.3906249999999454
 40
0.4062499999999454
 40
0.4062499999999454
 40
0.4140624999999454
 40
0.4140624999999454
 40
0.4218749999999454
 40
0.4218749999999454
 40
0.4374999999999468
 40
0.4531249999999483
 40
0.4531249999999483
 40
0.4609374999999484
 40
0.4609374999999484
 40
0.4687499999999486
 40
0.4687499999999486
 40
0.4999999999999498
 40
0.4999999999999498
 40
0.5156249999999503
 40
0.5156249999999503
 40
0.5234374999999508
 40
0.5234374999999508
 40
0.5312499999999513
 40
0.5312499999999513
 40
0.5624999999999535
 40
0.5624999999999535
 40
0.5781249999999544
 40
0.5781249999999544
 40
0.5937499999999555
 40
0.5937499999999555
 40
0.6015624999999557
 40
0.6015624999999557
 40
0.6093749999999562
 40
0.6093749999999562
 40
0.6249999999999576
 40
0.640624999999959
 40
0.640624999999959
 40
0.64843749999996
 40
0.64843749999996
 40
0.656249999999961
 40
0.656249999999961
 40
0.6874999999999645
 40
0.718749999999968
 40
0.718749999999968
 40
0.726562499999969
 40
0.726562499999969
 40
0.7343749999999698
 40
0.7499999999999709
 40
0.7499999999999709
 40
0.7656249999999725
 40
0.7656249999999725
 40
0.7812499999999738
 40
0.7968749999999752
 40
0.7968749999999752
 40
0.8124999999999765
 40
0.8124999999999765
 40
0.8437499999999793
 40
0.8437499999999793
 40
0.8515624999999804
 40
0.8515624999999804
 40
0.8593749999999813
 40
0.8749999999999834
 40
0.8749999999999834
 40
0.8906249999999856
 40
0.8906249999999856
 40
0.9062499999999875
 40
0.92187499999999
 40
0.92187499999999
 40
0.9374999999999921
 40
0.9374999999999921
 40
0.9531249999999939
 40
0.9531249999999939
 40
0.9687499999999962
 40
0.9687499999999962
 40
1.0
 40
1.0
 40
1.0
 40
1.0
 10
428.1090962211183
 20
280.9704935136935
 30
0.0
 10
428.1074275489567
 20
280.8708167830566
 30
0.0
 10
428.104516231566
 20
280.7677273308179
 30
0.0
 10
428.0982789797954
 20
280.6079567466037
 30
0.0
 10
428.0958861792552
 20
280.553844961242
 30
0.0
 10
428.0905030382953
 20
280.4445952935727
 30
0.0
 10
428.0875096297661
 20
280.3893717401224
 30
0.0
 10
428.0809168336627
 20
280.2777226259153
 30
0.0
 10
428.0773132368039
 20
280.2212361508717
 30
0.0
 10
428.069509030435
 20
280.107315593699
 30
0.0
 10
428.0611293978242
 20
279.9927449333775
 30
0.0
 10
428.0515999123721
 20
279.8768751961326
 30
0.0
 10
428.0414886614146
 20
279.7603481937865
 30
0.0
 10
428.0361370084342
 20
279.7017120011998
 30
0.0
 10
428.0193090443911
 20
279.5260020583642
 30
0.0
 10
428.0070268305798
 20
279.4087012616865
 30
0.0
 10
427.9803128646634
 20
279.174062013949
 30
0.0
 10
427.9660144889241
 20
279.0578874414143
 30
0.0
 10
427.9431358644823
 20
278.8853662355562
 30
0.0
 10
427.9352591219041
 20
278.8280770875483
 30
0.0
 10
427.9191311741473
 20
278.714893492059
 30
0.0
 10
427.9108693114578
 20
278.6589131666391
 30
0.0
 10
427.8939472835729
 20
278.5481832622843
 30
0.0
 10
427.8852823533553
 20
278.4934045352902
 30
0.0
 10
427.8675661706172
 20
278.3852235921131
 30
0.0
 10
427.8495450625801
 20
278.2789122921618
 30
0.0
 10
427.8309146837805
 20
278.1763367234129
 30
0.0
 10
427.8167105438466
 20
278.1008236004104
 30
0.0
 10
427.8119327019005
 20
278.075866097553
 30
0.0
 10
427.8023235053043
 20
278.0265549981246
 30
0.0
 10
427.7878348008207
 20
277.9535194134917
 30
0.0
 10
427.7731222489411
 20
277.883266067669
 30
0.0
 10
427.7582597387881
 20
277.8148765797037
 30
0.0
 10
427.753280554651
 20
277.7923909882065
 30
0.0
 10
427.7432717767836
 20
277.7480463549481
 30
0.0
 10
427.7382388903011
 20
277.7261739737176
 30
0.0
 10
427.7130422029048
 20
277.6187944628098
 30
0.0
 10
427.692717639963
 20
277.5389130566214
 30
0.0
 10
427.6619779960308
 20
277.4281955604938
 30
0.0
 10
427.6517301445718
 20
277.3929630671378
 30
0.0
 10
427.6312891054703
 20
277.3260154085384
 30
0.0
 10
427.621086762229
 20
277.2942671485313
 30
0.0
 10
427.6007185294191
 20
277.2342313607888
 30
0.0
 10
427.5905428237654
 20
277.2059245869646
 30
0.0
 10
427.5703835537522
 20
277.1532089343029
 30
0.0
 10
427.5603815044674
 20
277.1287419500407
 30
0.0
 10
427.5454942174703
 20
277.0948633175716
 30
0.0
 10
427.5405511027998
 20
277.0840411496985
 30
0.0
 10
427.5307036013487
 20
277.0633406515695
 30
0.0
 10
427.5257950873065
 20
277.0534548815089
 30
0.0
 10
427.5111782947623
 20
277.0253156304353
 30
0.0
 10
427.4919568585813
 20
276.9917886607581
 30
0.0
 10
427.4732640354343
 20
276.9661468854893
 30
0.0
 10
427.4594428621472
 20
276.9498756968884
 30
0.0
 10
427.4548731857835
 20
276.9449521743863
 30
0.0
 10
427.4458497111342
 20
276.9361373618956
 30
0.0
 10
427.4413898530269
 20
276.932238722478
 30
0.0
 10
427.4193457737039
 20
276.9152483194955
 30
0.0
 10
427.4025237769536
 20
276.9096315052997
 30
0.0
 10
427.3784731609857
 20
276.912801587938
 30
0.0
 10
427.3706540263008
 20
276.915797443653
 30
0.0
 10
427.3592231256917
 20
276.9232116930778
 30
0.0
 10
427.3554624991082
 20
276.9261702466206
 30
0.0
 10
427.3480412821967
 20
276.9330683848591
 30
0.0
 10
427.344376708018
 20
276.9370130287494
 30
0.0
 10
427.3263545982831
 20
276.9591532306043
 30
0.0
 10
427.3129702431453
 20
276.9844536314932
 30
0.0
 10
427.2944093445611
 20
277.0335342349352
 30
0.0
 10
427.2884757804321
 20
277.0517676189656
 30
0.0
 10
427.2771928416863
 20
277.0916816015767
 30
0.0
 10
427.2718324759966
 20
277.1133881237895
 30
0.0
 10
427.2642095301074
 20
277.1485469791906
 30
0.0
 10
427.2617382051724
 20
277.1607001285241
 30
0.0
 10
427.2569348647993
 20
277.1858734605496
 30
0.0
 10
427.2546010876688
 20
277.1989047489848
 30
0.0
 10
427.2478274839701
 20
277.2391918294181
 30
0.0
 10
427.2393969875551
 20
277.2961057570449
 30
0.0
 10
427.232152106039
 20
277.3593284035611
 30
0.0
 10
427.2271625878878
 20
277.4091086965072
 30
0.0
 10
427.2255721824928
 20
277.42611352044
 30
0.0
 10
427.2225531128601
 20
277.4607577883619
 30
0.0
 10
427.2211228865656
 20
277.4784106444873
 30
0.0
 10
427.2143627059014
 20
277.5683052177289
 30
0.0
 10
427.2060387505283
 20
277.722529743279
 30
0.0
 10
427.2025752454396
 20
277.8970226914531
 30
0.0
 10
427.2019664246218
 20
278.0125688718062
 30
0.0
 10
427.2019229348424
 20
278.0360255138791
 30
0.0
 10
427.2019934268838
 20
278.0833806287918
 30
0.0
 10
427.2023347353585
 20
278.1551390215065
 30
0.0
 10
427.2033785416963
 20
278.2290615951414
 30
0.0
 10
427.2053945185137
 20
278.3295481037487
 30
0.0
 10
427.2067154921209
 20
278.3807804957893
 30
0.0
 10
427.2099856629909
 20
278.485076322846
 30
0.0
 10
427.2138702941768
 20
278.5907838043743
 30
0.0
 10
427.2189765814866
 20
278.6992979054443
 30
0.0
 10
427.2246977044239
 20
278.809224523222
 30
0.0
 10
427.2278720483018
 20
278.8649914685497
 30
0.0
 10
427.2382754267413
 20
279.0335205057748
 30
0.0
 10
427.2463794391605
 20
279.1475612656689
 30
0.0
 10
427.2579905246439
 20
279.292251970828
 30
0.0
 10
427.2603891916966
 20
279.3213216279974
 30
0.0
 10
427.2653217376583
 20
279.37950184863
 30
0.0
 10
427.2729257695396
 20
279.4668664882799
 30
0.0
 10
427.2811439594168
 20
279.5545133734998
 30
0.0
 10
427.2926513772412
 20
279.6716285704028
 30
0.0
 10
427.2986860575683
 20
279.7303688077024
 30
0.0
 10
427.311289853131
 20
279.8478607170824
 30
0.0
 10
427.3243854731963
 20
279.9649767098223
 30
0.0
 10
427.3384655425116
 20
280.0813402576302
 30
0.0
 10
427.3530446598573
 20
280.1973223676329
 30
0.0
 10
427.3605921603745
 20
280.2551777759421
 30
0.0
 10
427.3760844582309
 20
280.3696726662768
 30
0.0
 10
427.3840408796906
 20
280.4264092525182
 30
0.0
 10
427.4003772583448
 20
280.5388534412859
 30
0.0
 10
427.4087640607583
 20
280.5946049633035
 30
0.0
 10
427.4345288896401
 20
280.7600030193231
 30
0.0
 10
427.4523719798988
 20
280.8669364429225
 30
0.0
 10
427.4708904909574
 20
280.9704935136766
 30
0.0
  0
SPLINE
  5
1DB
330
1F
100
AcDbEntity
  8
1
100
AcDbSpline
210
0.0
220
0.0
230
1.0
 70
     8
 71
     3
 72
    63
 73
    59
 74
     0
 42
0.000000001
 43
0.0000000001
 40
0.0
 40
0.0
 40
0.0
 40
0.0
 40
0.0625000000000026
 40
0.0625000000000026
 40
0.1250000000000052
 40
0.1250000000000052
 40
0.1562500000000065
 40
0.1562500000000065
 40
0.1875000000000078
 40
0.1875000000000078
 40
0.2187500000000091
 40
0.2187500000000091
 40
0.2500000000000104
 40
0.2500000000000104
 40
0.312500000000013
 40
0.312500000000013
 40
0.3437500000000143
 40
0.3437500000000143
 40
0.359375000000014
 40
0.359375000000014
 40
0.3750000000000137
 40
0.3750000000000137
 40
0.4375000000000143
 40
0.4375000000000143
 40
0.4687500000000142
 40
0.4687500000000142
 40
0.5000000000000142
 40
0.5000000000000142
 40
0.5156250000000147
 40
0.5156250000000147
 40
0.5312500000000152
 40
0.5625000000000162
 40
0.5625000000000162
 40
0.5781250000000158
 40
0.5781250000000158
 40
0.5937500000000153
 40
0.5937500000000153
 40
0.6250000000000144
 40
0.6562500000000135
 40
0.6562500000000135
 40
0.6875000000000126
 40
0.6875000000000126
 40
0.7187500000000117
 40
0.7187500000000117
 40
0.7500000000000108
 40
0.7500000000000108
 40
0.8125000000000099
 40
0.8125000000000099
 40
0.8437500000000083
 40
0.8437500000000083
 40
0.8750000000000067
 40
0.8750000000000067
 40
0.9062500000000051
 40
0.9062500000000051
 40
0.9375000000000035
 40
0.9687500000000021
 40
0.9687500000000021
 40
1.0
 40
1.0
 40
1.0
 40
1.0
 10
427.4708904909592
 20
280.9704935136767
 30
0.0
 10
427.4786090941598
 20
281.0728240645801
 30
0.0
 10
427.487227270851
 20
281.1712169020961
 30
0.0
 10
427.506303457215
 20
281.3599490550524
 30
0.0
 10
427.5166646076494
 20
281.44931941295
 30
0.0
 10
427.5334327103333
 20
281.5756571683884
 30
0.0
 10
427.539237687359
 20
281.6165452069596
 30
0.0
 10
427.5511840289571
 20
281.6951670150154
 30
0.0
 10
427.5573320084127
 20
281.7329592890438
 30
0.0
 10
427.5699783279171
 20
281.8055001199468
 30
0.0
 10
427.576480347807
 20
281.8402670207701
 30
0.0
 10
427.5898249381365
 20
281.9066357737582
 30
0.0
 10
427.5966169004377
 20
281.9379887575392
 30
0.0
 10
427.6173433559766
 20
282.0266825864038
 30
0.0
 10
427.631626966794
 20
282.0786805160389
 30
0.0
 10
427.6537453216296
 20
282.1460726383116
 30
0.0
 10
427.6612339626352
 20
282.1667636112777
 30
0.0
 10
427.6726433155283
 20
282.1951005668786
 30
0.0
 10
427.6764758554728
 20
282.2040959379726
 30
0.0
 10
427.6842005120839
 20
282.2211749145942
 30
0.0
 10
427.6880967673975
 20
282.2292664477484
 30
0.0
 10
427.7076811152896
 20
282.2673160693458
 30
0.0
 10
427.7235653776552
 20
282.2898835328002
 30
0.0
 10
427.7477151279228
 20
282.3119924448887
 30
0.0
 10
427.7557906374138
 20
282.3173694605288
 30
0.0
 10
427.7719546577658
 20
282.3241587638213
 30
0.0
 10
427.7800491887588
 20
282.3255766404013
 30
0.0
 10
427.7922097465686
 20
282.3247414352952
 30
0.0
 10
427.7962701179204
 20
282.3239674644516
 30
0.0
 10
427.8043739297621
 20
282.3214357116686
 30
0.0
 10
427.816506031455
 20
282.3161647768148
 30
0.0
 10
427.8285679860266
 20
282.3065176627586
 30
0.0
 10
427.8405835395666
 20
282.2939757865794
 30
0.0
 10
427.8445809843167
 20
282.2893123104249
 30
0.0
 10
427.8525603797023
 20
282.2790187464936
 30
0.0
 10
427.8565460027475
 20
282.273382653107
 30
0.0
 10
427.8684446852217
 20
282.2550741981102
 30
0.0
 10
427.8841591147844
 20
282.2269354584847
 30
0.0
 10
427.8995772216862
 20
282.1914566751872
 30
0.0
 10
427.9148475887523
 20
282.1523183106628
 30
0.0
 10
427.9224092051868
 20
282.1309088516756
 30
0.0
 10
427.9372783447656
 20
282.0847583706601
 30
0.0
 10
427.9445997023477
 20
282.059984324445
 30
0.0
 10
427.959018184257
 20
282.0070715000396
 30
0.0
 10
427.9661230453817
 20
281.9788992428316
 30
0.0
 10
427.9870479674506
 20
281.8895475536649
 30
0.0
 10
428.0004080217513
 20
281.8238813889247
 30
0.0
 10
428.0195797343716
 20
281.7164048706192
 30
0.0
 10
428.0258273841107
 20
281.6790549860479
 30
0.0
 10
428.0379524319017
 20
281.6018542592892
 30
0.0
 10
428.0438403929501
 20
281.5619474868097
 30
0.0
 10
428.0552700562411
 20
281.4795425791228
 30
0.0
 10
428.0608159115648
 20
281.437010300479
 30
0.0
 10
428.0715420059802
 20
281.3494919802069
 30
0.0
 10
428.0818698381278
 20
281.2597953318686
 30
0.0
 10
428.0914110979503
 20
281.1657964618272
 30
0.0
 10
428.1005592717732
 20
281.0696475757429
 30
0.0
 10
428.10493927291
 20
281.0204579618559
 30
0.0
 10
428.1090962211183
 20
280.9704935136935
 30
0.0
  0
SPLINE
  5
1DC
330
1F
100
AcDbEntity
  8
1
100
AcDbSpline
210
0.0
220
0.0
230
1.0
 70
     8
 71
     3
 72
    24
 73
    20
 74
     0
 42
0.000000001
 43
0.0000000001
 40
0.0
 40
0.0
 40
0.0
 40
0.0
 40
0.1249999999999958
 40
0.1249999999999958
 40
0.2499999999999915
 40
0.2499999999999915
 40
0.3749999999999872
 40
0.3749999999999872
 40
0.499999999999983
 40
0.499999999999983
 40
0.6249999999999788
 40
0.6249999999999788
 40
0.6874999999999824
 40
0.6874999999999824
 40
0.7499999999999858
 40
0.7499999999999858
 40
0.8749999999999928
 40
0.8749999999999928
 40
1.0
 40
1.0
 40
1.0
 40
1.0
 10
415.0298419452957
 20
293.1214878721562
 30
0.0
 10
415.2538308893853
 20
293.0792249240637
 30
0.0
 10
415.4762652214256
 20
293.0436707945971
 30
0.0
 10
415.9176767431526
 20
292.9853847935346
 30
0.0
 10
416.1366546398729
 20
292.9626536973906
 30
0.0
 10
416.5707067572038
 20
292.9295200911327
 30
0.0
 10
416.7857820682301
 20
292.9191181695873
 30
0.0
 10
417.2114565526546
 20
292.9102286556103
 30
0.0
 10
417.4220574132069
 20
292.9117414942448
 30
0.0
 10
417.8380439167725
 20
292.9263314425799
 30
0.0
 10
418.0434322435001
 20
292.9394088110778
 30
0.0
 10
418.3468762549217
 20
292.9674758268451
 30
0.0
 10
418.4468421289908
 20
292.9782037518629
 30
0.0
 10
418.6440838326426
 20
293.0022720537754
 30
0.0
 10
418.7413935046534
 20
293.0156155604353
 30
0.0
 10
419.0291802692374
 20
293.0594088974822
 30
0.0
 10
419.2155292594382
 20
293.0936209039612
 30
0.0
 10
419.5758021824931
 20
293.1712193838146
 30
0.0
 10
419.7497332404374
 20
293.2146063450264
 30
0.0
 10
419.9164852296891
 20
293.2621592543592
 30
0.0
  0
SPLINE
  5
1DD
330
1F
100
AcDbEntity
  8
1
100
AcDbSpline
210
0.0
220
0.0
230
1.0
 70
     8
 71
     3
 72
    14
 73
    10
 74
     0
 42
0.000000001
 43
0.0000000001
 40
0.0
 40
0.0
 40
0.0
 40
0.0
 40
0.25
 40
0.25
 40
0.5
 40
0.5
 40
0.75
 40
0.75
 40
1.0
 40
1.0
 40
1.0
 40
1.0
 10
298.8111247622772
 20
289.636342509407
 30
0.0
 10
299.7560706832417
 20
289.2174988119379
 30
0.0
 10
300.704432104535
 20
288.8083180292674
 30
0.0
 10
302.6087906171892
 20
288.0111001908157
 30
0.0
 10
303.5647934849734
 20
287.6230785649662
 30
0.0
 10
305.4855687504605
 20
286.8708326433861
 30
0.0
 10
306.4503587899191
 20
286.506653354148
 30
0.0
 10
308.3898390117604
 20
285.8047188767748
 30
0.0
 10
309.3645523030082
 20
285.4670214825491
 30
0.0
 10
310.3444496637924
 20
285.1430032212737
 30
0.0
  0
SPLINE
  5
1DE
330
1F
100
AcDbEntity
  8
1
100
AcDbSpline
210
0.0
220
0.0
230
1.0
 70
     8
 71
     3
 72
    75
 73
    71
 74
     0
 42
0.000000001
 43
0.0000000001
 40
0.0
 40
0.0
 40
0.0
 40
0.0
 40
0.0312500000000005
 40
0.0312500000000005
 40
0.0625000000000009
 40
0.0625000000000009
 40
0.0937500000000014
 40
0.0937500000000014
 40
0.1250000000000019
 40
0.1250000000000019
 40
0.1562500000000023
 40
0.1562500000000023
 40
0.1875000000000028
 40
0.1875000000000028
 40
0.2187500000000032
 40
0.2187500000000032
 40
0.2500000000000037
 40
0.2500000000000037
 40
0.2656250000000037
 40
0.2656250000000037
 40
0.2812500000000037
 40
0.2812500000000037
 40
0.3125000000000034
 40
0.3125000000000034
 40
0.3437500000000031
 40
0.3437500000000031
 40
0.3750000000000027
 40
0.3750000000000027
 40
0.4062500000000024
 40
0.4062500000000024
 40
0.4375000000000022
 40
0.4375000000000022
 40
0.4687500000000017
 40
0.4687500000000017
 40
0.5000000000000014
 40
0.5000000000000014
 40
0.5156250000000014
 40
0.5156250000000014
 40
0.5312500000000014
 40
0.5312500000000014
 40
0.5625000000000009
 40
0.5625000000000009
 40
0.5937500000000006
 40
0.5937500000000006
 40
0.6250000000000001
 40
0.6250000000000001
 40
0.6562499999999997
 40
0.6874999999999992
 40
0.6874999999999992
 40
0.7187499999999988
 40
0.7187499999999988
 40
0.7499999999999984
 40
0.7499999999999984
 40
0.7812499999999979
 40
0.7812499999999979
 40
0.7968749999999979
 40
0.7968749999999979
 40
0.8124999999999978
 40
0.8124999999999978
 40
0.8437499999999984
 40
0.8437499999999984
 40
0.8749999999999985
 40
0.8749999999999985
 40
0.9062499999999989
 40
0.9062499999999989
 40
0.9374999999999994
 40
0.9374999999999994
 40
0.9687499999999998
 40
0.9687499999999998
 40
1.0
 40
1.0
 40
1.0
 40
1.0
 10
310.3444548264438
 20
285.1430158628913
 30
0.0
 10
311.342231854813
 20
284.8434640370838
 30
0.0
 10
312.337902298547
 20
284.5399411314306
 30
0.0
 10
314.3254194913586
 20
283.9265760106063
 30
0.0
 10
315.3172663671298
 20
283.616735118867
 30
0.0
 10
317.297658229344
 20
282.992692842157
 30
0.0
 10
318.2862036020392
 20
282.6784935106268
 30
0.0
 10
320.2606391825753
 20
282.0479771902699
 30
0.0
 10
321.2465300321923
 20
281.7316628906966
 30
0.0
 10
323.2164127488905
 20
281.0993719057819
 30
0.0
 10
324.2004054834363
 20
280.7833983794444
 30
0.0
 10
326.1673348301481
 20
280.1543682110714
 30
0.0
 10
327.1502724820093
 20
279.8413149766329
 30
0.0
 10
329.1159923639012
 20
279.2207292534625
 30
0.0
 10
330.0987757341158
 20
278.91320016904
 30
0.0
 10
332.0651126002942
 20
278.3061880176034
 30
0.0
 10
333.0486672545057
 20
278.0067080970557
 30
0.0
 10
334.5252635220627
 20
277.5652833055317
 30
0.0
 10
335.0177520688046
 20
277.4194161046545
 30
0.0
 10
336.0028110543033
 20
277.130676865618
 30
0.0
 10
336.4953665515404
 20
276.987808725303
 30
0.0
 10
337.9732729197572
 20
276.5640684192041
 30
0.0
 10
338.9588653806607
 20
276.2880726772158
 30
0.0
 10
340.9315253701274
 20
275.7507144972299
 30
0.0
 10
341.9185937301507
 20
275.4893528213275
 30
0.0
 10
343.8949744948263
 20
274.9825000462531
 30
0.0
 10
344.8842922746777
 20
274.7370201233638
 30
0.0
 10
346.8658330519127
 20
274.2627047862704
 30
0.0
 10
347.8580323789059
 20
274.0338048493103
 30
0.0
 10
349.8454062454523
 20
273.5919573067483
 30
0.0
 10
350.8405803540617
 20
273.3790071806787
 30
0.0
 10
352.8338948352277
 20
272.968257315709
 30
0.0
 10
353.8320343181613
 20
272.7704544436869
 30
0.0
 10
355.8311639470734
 20
272.3890471262915
 30
0.0
 10
356.8321527122097
 20
272.2054391024995
 30
0.0
 10
358.3356326616653
 20
271.9399255135576
 30
0.0
 10
358.8371250253924
 20
271.8530707186723
 30
0.0
 10
359.8407482594371
 20
271.6825405434898
 30
0.0
 10
360.3428826074293
 20
271.5988616505063
 30
0.0
 10
361.8500621056258
 20
271.3522146275555
 30
0.0
 10
362.8552999588617
 20
271.1937143866849
 30
0.0
 10
364.866078018673
 20
270.8869362881043
 30
0.0
 10
365.8716187879934
 20
270.7386618429422
 30
0.0
 10
367.8824814570659
 20
270.4511897382293
 30
0.0
 10
368.8878039134463
 20
270.3119945961946
 30
0.0
 10
370.8977698864322
 20
270.0419317976411
 30
0.0
 10
372.9070575853434
 20
269.7801989291965
 30
0.0
 10
374.9141604485844
 20
269.5342950279221
 30
0.0
 10
376.9197957857674
 20
269.2961941900867
 30
0.0
 10
377.9218794439846
 20
269.1810452004665
 30
0.0
 10
379.9242448424411
 20
268.9587362837202
 30
0.0
 10
380.9245259344414
 20
268.8515758160582
 30
0.0
 10
382.9230056307604
 20
268.6457372962906
 30
0.0
 10
383.9212031590702
 20
268.5470586631814
 30
0.0
 10
385.4167868614193
 20
268.4060169371056
 30
0.0
 10
385.9150300559382
 20
268.3601683426299
 30
0.0
 10
386.9109326994662
 20
268.270935936575
 30
0.0
 10
387.4085909114789
 20
268.2275432573148
 30
0.0
 10
388.9007075529054
 20
268.1013671381176
 30
0.0
 10
389.8935822298641
 20
268.0227251909166
 30
0.0
 10
391.8769365613057
 20
267.8784707178536
 30
0.0
 10
392.8674183488107
 20
267.8128591587987
 30
0.0
 10
394.8473193075295
 20
267.6960266810402
 30
0.0
 10
395.8367404735969
 20
267.6448046099871
 30
0.0
 10
397.815773428397
 20
267.5573918802378
 30
0.0
 10
398.8053867487916
 20
267.5211982516007
 30
0.0
 10
400.7859239336087
 20
267.4638261136701
 30
0.0
 10
401.7768485916263
 20
267.4426434665195
 30
0.0
 10
403.7609591842161
 20
267.4147293806693
 30
0.0
 10
404.7541450084032
 20
267.4079935137005
 30
0.0
 10
405.7488468581336
 20
267.4079935137005
 30
0.0
  0
SPLINE
  5
1DF
330
1F
100
AcDbEntity
  8
1
100
AcDbSpline
210
0.0
220
0.0
230
1.0
 70
     8
 71
     3
 72
    80
 73
    76
 74
     0
 42
0.000000001
 43
0.0000000001
 40
0.0
 40
0.0
 40
0.0
 40
0.0
 40
0.0368215084684549
 40
0.0368215084684549
 40
0.0769539456156024
 40
0.0769539456156024
 40
0.0970201641891762
 40
0.0970201641891762
 40
0.1170863827627499
 40
0.1170863827627499
 40
0.1572188199098975
 40
0.1572188199098975
 40
0.197351257057045
 40
0.197351257057045
 40
0.2374836942041926
 40
0.2374836942041926
 40
0.2776161313513402
 40
0.2776161313513402
 40
0.2976823499249139
 40
0.2976823499249139
 40
0.3177485684984876
 40
0.3177485684984876
 40
0.3578810056456352
 40
0.3578810056456352
 40
0.3980134427927828
 40
0.3980134427927828
 40
0.4381458799399305
 40
0.4381458799399305
 40
0.478278317087078
 40
0.478278317087078
 40
0.4983445356606517
 40
0.4983445356606517
 40
0.5184107542342254
 40
0.5184107542342254
 40
0.5585431913813729
 40
0.5585431913813729
 40
0.5986756285285205
 40
0.5986756285285205
 40
0.6388080656756682
 40
0.6388080656756682
 40
0.6789405028228158
 40
0.6789405028228158
 40
0.6990067213963899
 40
0.6990067213963899
 40
0.7190729399699638
 40
0.7190729399699638
 40
0.739139158543538
 40
0.739139158543538
 40
0.7592053771171119
 40
0.7592053771171119
 40
0.7792715956906859
 40
0.7792715956906859
 40
0.7993378142642599
 40
0.7993378142642599
 40
0.819404032837834
 40
0.819404032837834
 40
0.8394702514114079
 40
0.8394702514114079
 40
0.859536469984982
 40
0.859536469984982
 40
0.8695695792717689
 40
0.8695695792717689
 40
0.8796026885585558
 40
0.8796026885585558
 40
0.8996689071321299
 40
0.8996689071321299
 40
0.9197351257057041
 40
0.9197351257057041
 40
0.9398013442792779
 40
0.9398013442792779
 40
0.9598675628528519
 40
0.9598675628528519
 40
0.9799337814264262
 40
0.9799337814264262
 40
1.0
 40
1.0
 40
1.0
 40
1.0
 10
328.0912098583915
 20
310.4079931961442
 30
0.0
 10
329.1423298801546
 20
310.407993974011
 30
0.0
 10
330.1930650355948
 20
310.3986643347791
 30
0.0
 10
332.389025198653
 20
310.3595059656188
 30
0.0
 10
333.5342519284504
 20
310.3279132821746
 30
0.0
 10
335.2527514309623
 20
310.2639014747702
 30
0.0
 10
335.8256933092352
 20
310.2397963282727
 30
0.0
 10
336.9718878818118
 20
310.1860983154206
 30
0.0
 10
337.5452175946224
 20
310.1565010733129
 30
0.0
 10
339.2651691050841
 20
310.0596045642636
 30
0.0
 10
340.4116473179746
 20
309.9842094752757
 30
0.0
 10
342.7048478465413
 20
309.8124829094747
 30
0.0
 10
343.8515710953951
 20
309.7161566227942
 30
0.0
 10
346.1456346013014
 20
309.503205713564
 30
0.0
 10
347.2930539814222
 20
309.3866832020361
 30
0.0
 10
349.5874511362993
 20
309.1325502158355
 30
0.0
 10
350.7343977489179
 20
308.9948927213162
 30
0.0
 10
352.4540724315163
 20
308.7717267132942
 30
0.0
 10
353.0271806352284
 20
308.6945611792325
 30
0.0
 10
354.1731925933277
 20
308.5346113984238
 30
0.0
 10
354.7461717302022
 20
308.4518152102744
 30
0.0
 10
356.4643574517798
 20
308.1950924288108
 30
0.0
 10
357.6085688907826
 20
308.0128218179282
 30
0.0
 10
359.8957548575382
 20
307.6272414307453
 30
0.0
 10
361.0387636435247
 20
307.4239694567037
 30
0.0
 10
363.3252768311124
 20
306.9988674002509
 30
0.0
 10
364.4687816087389
 20
306.7770516452125
 30
0.0
 10
366.7573476353808
 20
306.3169449043107
 30
0.0
 10
367.9024044636654
 20
306.0786576003018
 30
0.0
 10
369.6215723982684
 20
305.7099979069077
 30
0.0
 10
370.1948886936588
 20
305.5852351668888
 30
0.0
 10
371.3420756353385
 20
305.3320857892582
 30
0.0
 10
371.9160111199454
 20
305.2036843943868
 30
0.0
 10
373.6382007180799
 20
304.81328322039
 30
0.0
 10
374.7865226215624
 20
304.5461819970441
 30
0.0
 10
377.0835109796233
 20
303.9985838581517
 30
0.0
 10
378.2321762305822
 20
303.7180880214468
 30
0.0
 10
380.5295758585064
 20
303.1433061146794
 30
0.0
 10
381.6783105083805
 20
302.8490242191903
 30
0.0
 10
383.9753643718681
 20
302.2455381895485
 30
0.0
 10
385.1236856094778
 20
301.9363434158695
 30
0.0
 10
386.8453106404858
 20
301.4598117533438
 30
0.0
 10
387.4190386834273
 20
301.2988314214736
 30
0.0
 10
388.5660935767674
 20
300.9722539507644
 30
0.0
 10
389.1394753186984
 20
300.8066466448249
 30
0.0
 10
390.2855925361705
 20
300.4707665175991
 30
0.0
 10
390.8582226705105
 20
300.300523831947
 30
0.0
 10
392.002673818177
 20
299.9554751143693
 30
0.0
 10
392.5744944973402
 20
299.7806678195824
 30
0.0
 10
393.7174517845506
 20
299.4267221448942
 30
0.0
 10
394.2885880393477
 20
299.247582370975
 30
0.0
 10
395.430389740948
 20
298.8854365830977
 30
0.0
 10
396.0010548458571
 20
298.7024291151751
 30
0.0
 10
397.1422262801219
 20
298.3332884033563
 30
0.0
 10
397.7127323194986
 20
298.1471537569346
 30
0.0
 10
398.8540060721891
 20
297.772818099887
 30
0.0
 10
399.4247735983429
 20
297.5846158965618
 30
0.0
 10
400.5671065571219
 20
297.2075630824299
 30
0.0
 10
401.1386719632353
 20
297.0187116915335
 30
0.0
 10
401.9971100895229
 20
296.7363034921587
 30
0.0
 10
402.2834501781166
 20
296.642311676432
 30
0.0
 10
402.856385910838
 20
296.4549536595075
 30
0.0
 10
403.1430040146541
 20
296.3615800731936
 30
0.0
 10
404.0034324312093
 20
296.0828145352445
 30
0.0
 10
404.5778142339275
 20
295.8987667262428
 30
0.0
 10
405.728828736139
 20
295.5368821135412
 30
0.0
 10
406.305462017225
 20
295.3590472088335
 30
0.0
 10
407.4617821928283
 20
295.0125418611578
 30
0.0
 10
408.0414697227246
 20
294.8438737345737
 30
0.0
 10
409.2047589408752
 20
294.5189221230176
 30
0.0
 10
409.7883610229658
 20
294.3626403635716
 30
0.0
 10
410.9603809334832
 20
294.0658830959207
 30
0.0
 10
411.5487983923578
 20
293.9254068635361
 30
0.0
 10
412.7313889905352
 20
293.6638603157437
 30
0.0
 10
413.3255600880975
 20
293.5427835537103
 30
0.0
 10
413.9231141798792
 20
293.4333449408782
 30
0.0
  0
SPLINE
  5
1E0
330
1F
100
AcDbEntity
  8
1
100
AcDbSpline
210
0.0
220
0.0
230
1.0
 70
     8
 71
     3
 72
     8
 73
     4
 74
     0
 42
0.000000001
 43
0.0000000001
 40
0.0
 40
0.0
 40
0.0
 40
0.0
 40
1.0
 40
1.0
 40
1.0
 40
1.0
 10
410.4268203747716
 20
299.3216528091691
 30
0.0
 10
410.7013576045056
 20
299.1109037491087
 30
0.0
 10
410.9712990402892
 20
298.9014862495007
 30
0.0
 10
411.2364446687626
 20
298.6934582611329
 30
0.0
  0
SPLINE
  5
1E1
330
1F
100
AcDbEntity
  8
1
100
AcDbSpline
210
0.0
220
0.0
230
1.0
 70
     8
 71
     3
 72
     8
 73
     4
 74
     0
 42
0.000000001
 43
0.0000000001
 40
0.0
 40
0.0
 40
0.0
 40
0.0
 40
1.0
 40
1.0
 40
1.0
 40
1.0
 10
415.0298419452958
 20
293.1214878721562
 30
0.0
 10
414.6550395519113
 20
293.2129678543882
 30
0.0
 10
414.2862247201103
 20
293.3169445466603
 30
0.0
 10
413.9231141798628
 20
293.4333449408835
 30
0.0
  0
LINE
  5
1FC
330
1F
100
AcDbEntity
  8
4
100
AcDbLine
 10
265.664972
 20
288.907994
 30
0.0
 11
434.624728
 21
288.907994
 31
0.0
  0
LINE
  5
1FD
330
1F
100
AcDbEntity
  8
SK4
100
AcDbLine
 10
200.904842
 20
288.907994
 30
0.0
 11
277.404842
 21
288.907994
 31
0.0
  0
MTEXT
  5
1FE
330
1F
100
AcDbEntity
  8
SK6
100
AcDbMText
 10
298.851423
 20
241.131885
 30
0.0
 40
3.5
 41
0.0
 71
     7
 72
     5
  1
\W0.7147;803D-44-132-S40
  7
cesky
 73
     2
 44
0.8433729999999998
  0
MTEXT
  5
314
330
1F
100
AcDbEntity
  8
2
100
AcDbMText
 10
446.227548
 20
288.360596
 30
0.0
 40
3.5
 41
0.0
 71
     7
 72
     5
  1
\W0.6844;44
  7
cesky
 11
0.0000000000000001
 21
1.0
 31
0.0
 73
     2
 44
0.8433729999999998
  0
MTEXT
  5
315
330
1F
100
AcDbEntity
  8
2
100
AcDbMText
 10
446.227548
 20
281.623096
 30
0.0
 40
3.5
 41
0.0
 71
     7
 72
     5
  1
\W3.0115;\H2.63;%%c\H3.50;
  7
cesky
 11
0.0000000000000001
 21
1.0
 31
0.0
 73
     2
 44
0.8433729999999998
  0
LINE
  5
316
330
1F
100
AcDbEntity
  8
2
100
AcDbLine
 10
432.944842
 20
310.907994
 30
0.0
 11
447.414965
 21
310.907994
 31
0.0
  0
LINE
  5
317
330
1F
100
AcDbEntity
  8
2
100
AcDbLine
 10
446.414965
 20
310.907994
 30
0.0
 11
446.414965
 21
281.465596
 31
0.0
  0
SOLID
  5
318
330
1F
100
AcDbEntity
  8
2
100
AcDbTrace
 10
446.414965
 20
310.907994
 30
0.0
 11
447.0321089999999
 21
307.407996
 31
0.0
 12
445.79782
 22
307.407991
 32
0.0
 13
445.79782
 23
307.407991
 33
0.0
  0
MTEXT
  5
319
330
1F
100
AcDbEntity
  8
2
100
AcDbMText
 10
349.597842
 20
327.385163
 30
0.0
 40
3.5
 41
0.0
 71
     7
 72
     5
  1
\W0.7809;157
  7
cesky
 73
     2
 44
0.8433729999999998
  0
LINE
  5
31A
330
1F
100
AcDbEntity
  8
2
100
AcDbLine
 10
430.9448419999999
 20
310.907994
 30
0.0
 11
430.9448419999999
 21
328.5109970000001
 31
0.0
  0
LINE
  5
31B
330
1F
100
AcDbEntity
  8
2
100
AcDbLine
 10
274.404842
 20
289.907567
 30
0.0
 11
274.404842
 21
328.5109970000001
 31
0.0
  0
LINE
  5
31C
330
1F
100
AcDbEntity
  8
2
100
AcDbLine
 10
430.9448419999999
 20
327.510997
 30
0.0
 11
274.404842
 21
327.510997
 31
0.0
  0
SOLID
  5
31D
330
1F
100
AcDbEntity
  8
2
100
AcDbTrace
 10
430.9448419999999
 20
327.510997
 30
0.0
 11
427.444844
 21
326.893852
 31
0.0
 12
427.44484
 22
328.128141
 32
0.0
 13
427.44484
 23
328.128141
 33
0.0
  0
SOLID
  5
31E
330
1F
100
AcDbEntity
  8
2
100
AcDbTrace
 10
274.404842
 20
327.510997
 30
0.0
 11
277.90484
 21
328.128141
 31
0.0
 12
277.904844
 22
326.893852
 32
0.0
 13
277.904844
 23
326.893852
 33
0.0
  0
MTEXT
  5
31F
330
1F
100
AcDbEntity
  8
2
100
AcDbMText
 10
312.072842
 20
340.562135
 30
0.0
 40
3.5
 41
0.0
 71
     7
 72
     5
  1
\W0.8242;226,5
  7
cesky
 73
     2
 44
0.8433729999999998
  0
LINE
  5
320
330
1F
100
AcDbEntity
  8
2
100
AcDbLine
 10
430.9448419999999
 20
312.907994
 30
0.0
 11
430.9448419999999
 21
341.687968
 31
0.0
  0
LINE
  5
321
330
1F
100
AcDbEntity
  8
2
100
AcDbLine
 10
204.404842
 20
306.907994
 30
0.0
 11
204.404842
 21
341.687968
 31
0.0
  0
LINE
  5
322
330
1F
100
AcDbEntity
  8
2
100
AcDbLine
 10
430.9448419999999
 20
340.687968
 30
0.0
 11
204.404842
 21
340.687968
 31
0.0
  0
SOLID
  5
323
330
1F
100
AcDbEntity
  8
2
100
AcDbTrace
 10
430.9448419999999
 20
340.687968
 30
0.0
 11
427.444844
 21
340.070823
 31
0.0
 12
427.44484
 22
341.305112
 32
0.0
 13
427.44484
 23
341.305112
 33
0.0
  0
SOLID
  5
324
330
1F
100
AcDbEntity
  8
2
100
AcDbTrace
 10
204.404842
 20
340.687968
 30
0.0
 11
207.90484
 21
341.305112
 31
0.0
 12
207.904844
 22
340.070823
 32
0.0
 13
207.904844
 23
340.070823
 33
0.0
  0
MTEXT
  5
325
330
1F
100
AcDbEntity
  8
2
100
AcDbMText
 10
237.590342
 20
327.385163
 30
0.0
 40
3.5
 41
0.0
 71
     7
 72
     5
  1
\W0.7045;70
  7
cesky
 73
     2
 44
0.8433729999999998
  0
LINE
  5
326
330
1F
100
AcDbEntity
  8
2
100
AcDbLine
 10
274.404842
 20
288.907994
 30
0.0
 11
274.404842
 21
328.5109970000001
 31
0.0
  0
LINE
  5
327
330
1F
100
AcDbEntity
  8
2
100
AcDbLine
 10
204.404842
 20
306.907994
 30
0.0
 11
204.404842
 21
328.5109970000001
 31
0.0
  0
LINE
  5
328
330
1F
100
AcDbEntity
  8
2
100
AcDbLine
 10
274.404842
 20
327.510997
 30
0.0
 11
204.404842
 21
327.510997
 31
0.0
  0
SOLID
  5
329
330
1F
100
AcDbEntity
  8
2
100
AcDbTrace
 10
274.404842
 20
327.510997
 30
0.0
 11
270.904844
 21
326.893852
 31
0.0
 12
270.90484
 22
328.128141
 32
0.0
 13
270.90484
 23
328.128141
 33
0.0
  0
SOLID
  5
32A
330
1F
100
AcDbEntity
  8
2
100
AcDbTrace
 10
204.404842
 20
327.510997
 30
0.0
 11
207.90484
 21
328.128141
 31
0.0
 12
207.904844
 22
326.893852
 32
0.0
 13
207.904844
 23
326.893852
 33
0.0
  0
MTEXT
  5
32B
330
1F
100
AcDbEntity
  8
2
100
AcDbMText
 10
357.0742
 20
316.722179
 30
0.0
 40
3.5
 41
0.0
 71
     7
 72
     5
  1
\W0.7809;142
  7
cesky
 73
     2
 44
0.8433729999999998
  0
LINE
  5
32C
330
1F
100
AcDbEntity
  8
2
100
AcDbLine
 10
430.9448419999999
 20
312.907994
 30
0.0
 11
430.9448419999999
 21
317.848012
 31
0.0
  0
LINE
  5
32D
330
1F
100
AcDbEntity
  8
2
100
AcDbLine
 10
289.357558
 20
310.209104
 30
0.0
 11
289.357558
 21
317.848012
 31
0.0
  0
LINE
  5
32E
330
1F
100
AcDbEntity
  8
2
100
AcDbLine
 10
430.9448419999999
 20
316.848012
 30
0.0
 11
289.357558
 21
316.848012
 31
0.0
  0
SOLID
  5
32F
330
1F
100
AcDbEntity
  8
2
100
AcDbTrace
 10
430.9448419999999
 20
316.848012
 30
0.0
 11
427.444844
 21
316.2308680000001
 31
0.0
 12
427.44484
 22
317.465157
 32
0.0
 13
427.44484
 23
317.465157
 33
0.0
  0
SOLID
  5
330
330
1F
100
AcDbEntity
  8
2
100
AcDbTrace
 10
289.357558
 20
316.848012
 30
0.0
 11
292.857556
 21
317.465157
 31
0.0
 12
292.857561
 22
316.2308680000001
 32
0.0
 13
292.857561
 23
316.2308680000001
 33
0.0
  0
MTEXT
  5
331
330
1F
100
AcDbEntity
  8
SK2
100
AcDbMText
 10
193.809415
 20
290.434244
 30
0.0
 40
3.5
 41
0.0
 71
     7
 72
     5
  1
\W0.7045;40
  7
cesky
 11
0.0000000000000001
 21
1.0
 31
0.0
 73
     2
 44
0.8433729999999998
  0
MTEXT
  5
332
330
1F
100
AcDbEntity
  8
SK2
100
AcDbMText
 10
193.809415
 20
283.696744
 30
0.0
 40
3.5
 41
0.0
 71
     7
 72
     5
  1
\W3.0115;\H2.63;%%c\H3.50;
  7
cesky
 11
0.0000000000000001
 21
1.0
 31
0.0
 73
     2
 44
0.8433729999999998
  0
LINE
  5
333
330
1F
100
AcDbEntity
  8
SK2
100
AcDbLine
 10
206.404842
 20
308.907994
 30
0.0
 11
192.996832
 21
308.907994
 31
0.0
  0
LINE
  5
334
330
1F
100
AcDbEntity
  8
SK2
100
AcDbLine
 10
206.404842
 20
268.907994
 30
0.0
 11
192.996832
 21
268.907994
 31
0.0
  0
LINE
  5
335
330
1F
100
AcDbEntity
  8
SK2
100
AcDbLine
 10
193.996832
 20
308.907994
 30
0.0
 11
193.996832
 21
268.907994
 31
0.0
  0
SOLID
  5
336
330
1F
100
AcDbEntity
  8
SK2
100
AcDbTrace
 10
193.996832
 20
308.907994
 30
0.0
 11
194.613977
 21
305.407996
 31
0.0
 12
193.379688
 22
305.407991
 32
0.0
 13
193.379688
 23
305.407991
 33
0.0
  0
SOLID
  5
337
330
1F
100
AcDbEntity
  8
SK2
100
AcDbTrace
 10
193.996832
 20
268.907994
 30
0.0
 11
193.379688
 21
272.407991
 31
0.0
 12
194.613977
 22
272.407996
 32
0.0
 13
194.613977
 23
272.407996
 33
0.0
  0
MTEXT
  5
338
330
1F
100
AcDbEntity
  8
SK2
100
AcDbMText
 10
182.001083
 20
290.434244
 30
0.0
 40
3.5
 41
0.0
 71
     7
 72
     5
  1
\W0.7045;50
  7
cesky
 11
0.0000000000000001
 21
1.0
 31
0.0
 73
     2
 44
0.8433729999999998
  0
MTEXT
  5
339
330
1F
100
AcDbEntity
  8
SK2
100
AcDbMText
 10
182.001083
 20
283.696744
 30
0.0
 40
3.5
 41
0.0
 71
     7
 72
     5
  1
\W3.0115;\H2.63;%%c\H3.50;
  7
cesky
 11
0.0000000000000001
 21
1.0
 31
0.0
 73
     2
 44
0.8433729999999998
  0
LINE
  5
33A
330
1F
100
AcDbEntity
  8
SK2
100
AcDbLine
 10
274.904842
 20
313.907994
 30
0.0
 11
181.188499
 21
313.907994
 31
0.0
  0
LINE
  5
33B
330
1F
100
AcDbEntity
  8
SK2
100
AcDbLine
 10
274.904842
 20
263.907994
 30
0.0
 11
181.188499
 21
263.907994
 31
0.0
  0
LINE
  5
33C
330
1F
100
AcDbEntity
  8
SK2
100
AcDbLine
 10
182.188499
 20
313.907994
 30
0.0
 11
182.188499
 21
263.907994
 31
0.0
  0
SOLID
  5
33D
330
1F
100
AcDbEntity
  8
SK2
100
AcDbTrace
 10
182.188499
 20
313.907994
 30
0.0
 11
182.805644
 21
310.407996
 31
0.0
 12
181.571355
 22
310.407991
 32
0.0
 13
181.571355
 23
310.407991
 33
0.0
  0
SOLID
  5
33E
330
1F
100
AcDbEntity
  8
SK2
100
AcDbTrace
 10
182.188499
 20
263.907994
 30
0.0
 11
181.571355
 21
267.4079910000001
 31
0.0
 12
182.805644
 22
267.407996
 32
0.0
 13
182.805644
 23
267.407996
 33
0.0
  0
LINE
  5
341
330
1F
100
AcDbEntity
  8
CUT
100
AcDbLine
 10
430.0865313456451
 20
310.1584437558155
 30
0.0
 11
430.4455194523213
 21
300.150674121701
 31
0.0
  0
LINE
  5
343
330
1F
100
AcDbEntity
  8
CUT
100
AcDbLine
 10
418.1447037183724
 20
310.4981091107052
 30
0.0
 11
429.2828829174506
 21
310.905043347613
 31
0.0
  0
LINE
  5
344
330
1F
100
AcDbEntity
  8
CUT
100
AcDbLine
 10
430.727162737738
 20
299.6053597402609
 30
0.0
 11
430.9034648131939
 21
289.5128765137812
 31
0.0
  0
LINE
  5
345
330
1F
100
AcDbEntity
  8
CUT
100
AcDbLine
 10
430.4455194523213
 20
300.150674121701
 30
0.0
 11
430.6851450516155
 21
299.7518865095831
 31
0.0
  0
LINE
  5
346
330
1F
100
AcDbEntity
  8
CUT
100
AcDbLine
 10
430.903465
 20
288.907994
 30
0.0
 11
417.396586
 21
288.907994
 31
0.0
  0
LINE
  5
347
330
1F
100
AcDbEntity
  8
CUT
100
AcDbLine
 10
417.396586
 20
288.907994
 30
0.0
 11
417.396586
 21
309.694481
 31
0.0
  0
LINE
  5
348
330
1F
100
AcDbEntity
  8
CUT
100
AcDbLine
 10
430.903465
 20
289.512877
 30
0.0
 11
430.903465
 21
288.907994
 31
0.0
  0
LINE
  5
349
330
1F
100
AcDbEntity
  8
CUT
100
AcDbLine
 10
430.6851450516156
 20
299.7518865095831
 30
0.0
 11
430.6851450516156
 21
299.7518865095831
 31
0.0
  0
ARC
  5
34A
330
1F
100
AcDbEntity
  8
CUT
100
AcDbCircle
 10
430.4327778883671
 20
299.6002304374993
 30
0.0
 40
0.2944295319529182
100
AcDbArc
 50
0.9982092007085299
 51
31.00309958013681
  0
LINE
  5
34B
330
1F
100
AcDbEntity
  8
CUT
100
AcDbLine
 10
417.3965860668284
 20
309.6944814804113
 30
0.0
 11
417.3965860668284
 21
309.6944814804113
 31
0.0
  0
ARC
  5
34C
330
1F
100
AcDbEntity
  8
CUT
100
AcDbCircle
 10
418.1784262642233
 20
309.7166811178196
 30
0.0
 40
0.7821553030975662
100
AcDbArc
 50
92.47106764955228
 51
181.6264242684578
  0
LINE
  5
34D
330
1F
100
AcDbEntity
  8
CUT
100
AcDbLine
 10
429.2828829174506
 20
310.905043347613
 30
0.0
 11
429.2828829174506
 21
310.905043347613
 31
0.0
  0
ARC
  5
34E
330
1F
100
AcDbEntity
  8
CUT
100
AcDbCircle
 10
429.3065691227602
 20
310.1247114293537
 30
0.0
 40
0.7806913211867006
100
AcDbArc
 50
2.476422852836288
 51
91.73862300656505
  0
LINE
  5
35D
330
1F
100
AcDbEntity
  8
NOCUT
370
    13
100
AcDbLine
 10
429.7648419999999
 20
288.907994
 30
0.0
 11
204.404842
 21
288.907994
 31
0.0
  0
LINE
  5
35E
330
1F
100
AcDbEntity
  8
NOCUT
370
    13
100
AcDbLine
 10
204.404842
 20
288.907994
 30
0.0
 11
204.404842
 21
306.907994
 31
0.0
  0
ENDSEC
  0
SECTION
  2
OBJECTS
  0
DICTIONARY
  5
C
330
0
100
AcDbDictionary
281
     1
  3
ACAD_CIP_PREVIOUS_PRODUCT_INFO
350
311
  3
ACAD_COLOR
350
30C
  3
ACAD_DETAILVIEWSTYLE
350
308
  3
ACAD_GROUP
350
D
  3
ACAD_LAYOUT
350
1A
  3
ACAD_MATERIAL
350
43
  3
ACAD_MLEADERSTYLE
350
6B
  3
ACAD_MLINESTYLE
350
17
  3
ACAD_PLOTSETTINGS
350
19
  3
ACAD_PLOTSTYLENAME
350
E
  3
ACAD_SCALELIST
350
47
  3
ACAD_SECTIONVIEWSTYLE
350
309
  3
ACAD_TABLESTYLE
350
69
  3
ACAD_VISUALSTYLE
350
2A
  3
ACDB_RECOMPOSE_DATA
350
37C
  3
AcDbVariableDictionary
350
2C5
  0
DICTIONARY
  5
35F
330
10
100
AcDbDictionary
280
     1
281
     1
  3
ADSK_XREC_LAYER_RECONCILED
360
360
  0
DICTIONARY
  5
361
330
34F
100
AcDbDictionary
280
     1
281
     1
  3
ADSK_XREC_LAYER_RECONCILED
360
362
  0
DICTIONARY
  5
363
330
350
100
AcDbDictionary
280
     1
281
     1
  3
ADSK_XREC_LAYER_RECONCILED
360
364
  0
DICTIONARY
  5
365
330
351
100
AcDbDictionary
280
     1
281
     1
  3
ADSK_XREC_LAYER_RECONCILED
360
366
  0
DICTIONARY
  5
367
330
353
100
AcDbDictionary
280
     1
281
     1
  3
ADSK_XREC_LAYER_RECONCILED
360
368
  0
DICTIONARY
  5
369
330
354
100
AcDbDictionary
280
     1
281
     1
  3
ADSK_XREC_LAYER_RECONCILED
360
36A
  0
DICTIONARY
  5
36B
330
356
100
AcDbDictionary
280
     1
281
     1
  3
ADSK_XREC_LAYER_RECONCILED
360
36C
  0
DICTIONARY
  5
36D
330
357
100
AcDbDictionary
280
     1
281
     1
  3
ADSK_XREC_LAYER_RECONCILED
360
36E
  0
DICTIONARY
  5
36F
330
358
100
AcDbDictionary
280
     1
281
     1
  3
ADSK_XREC_LAYER_RECONCILED
360
370
  0
DICTIONARY
  5
371
330
359
100
AcDbDictionary
280
     1
281
     1
  3
ADSK_XREC_LAYER_RECONCILED
360
372
  0
DICTIONARY
  5
373
330
35A
100
AcDbDictionary
280
     1
281
     1
  3
ADSK_XREC_LAYER_RECONCILED
360
374
  0
DICTIONARY
  5
375
330
35B
100
AcDbDictionary
280
     1
281
     1
  3
ADSK_XREC_LAYER_RECONCILED
360
376
  0
DICTIONARY
  5
312
330
1F
100
AcDbDictionary
280
     1
281
     1
  3
ACAD_SORTENTS
360
313
  0
XRECORD
  5
311
102
{ACAD_REACTORS
330
C
102
}
330
C
100
AcDbXrecord
280
     1
300
ACD
300
2019
300
87084ACD_2019_0F
  0
DICTIONARY
  5
30C
102
{ACAD_REACTORS
330
C
102
}
330
C
100
AcDbDictionary
281
     1
  0
DICTIONARY
  5
308
102
{ACAD_REACTORS
330
C
102
}
330
C
100
AcDbDictionary
281
     1
  3
Metric50
350
30E
  0
DICTIONARY
  5
D
102
{ACAD_REACTORS
330
C
102
}
330
C
100
AcDbDictionary
281
     1
  3
NULOVY_BOD
350
35C
  0
DICTIONARY
  5
1A
102
{ACAD_REACTORS
330
C
102
}
330
C
100
AcDbDictionary
281
     1
  3
Layout1
350
1E
  3
Layout2
350
26
  3
Model
350
22
  0
DICTIONARY
  5
43
102
{ACAD_REACTORS
330
C
102
}
330
C
100
AcDbDictionary
281
     1
  3
ByBlock
350
45
  3
ByLayer
350
44
  3
Global
350
46
  0
DICTIONARY
  5
6B
102
{ACAD_REACTORS
330
C
102
}
330
C
100
AcDbDictionary
281
     1
  3
Standard
350
6C
  0
DICTIONARY
  5
17
102
{ACAD_REACTORS
330
C
102
}
330
C
100
AcDbDictionary
281
     1
  3
Standard
350
18
  0
DICTIONARY
  5
19
102
{ACAD_REACTORS
330
C
102
}
330
C
100
AcDbDictionary
281
     1
  0
ACDBDICTIONARYWDFLT
  5
E
102
{ACAD_REACTORS
330
C
102
}
330
C
100
AcDbDictionary
281
     1
  3
Normal
350
F
100
AcDbDictionaryWithDefault
340
F
  0
DICTIONARY
  5
47
102
{ACAD_REACTORS
330
C
102
}
330
C
100
AcDbDictionary
281
     1
  3
A0
350
48
  3
A1
350
49
  3
A2
350
4A
  3
A3
350
4B
  3
A4
350
4C
  3
A5
350
4D
  3
A6
350
4E
  3
A7
350
4F
  3
A8
350
50
  3
A9
350
51
  3
B0
350
52
  3
B1
350
53
  3
B2
350
54
  3
B3
350
55
  3
B4
350
56
  3
B5
350
57
  3
B6
350
58
  3
B7
350
59
  3
B8
350
5A
  3
B9
350
5B
  3
C0
350
5C
  3
C1
350
5D
  3
C2
350
5E
  3
C3
350
5F
  3
C4
350
60
  3
C5
350
61
  3
C6
350
62
  3
C7
350
63
  3
C8
350
64
  3
C9
350
65
  3
D0
350
66
  3
D1
350
67
  3
D2
350
68
  0
DICTIONARY
  5
309
102
{ACAD_REACTORS
330
C
102
}
330
C
100
AcDbDictionary
281
     1
  3
Metric50
350
30D
  0
DICTIONARY
  5
69
102
{ACAD_REACTORS
330
C
102
}
330
C
100
AcDbDictionary
281
     1
  3
Standard
350
6A
  0
DICTIONARY
  5
2A
102
{ACAD_REACTORS
330
C
102
}
330
C
100
AcDbDictionary
281
     1
  3
2dWireframe
350
2F
  3
Basic
350
32
  3
Brighten
350
36
  3
ColorChange
350
3A
  3
Conceptual
350
34
  3
Dim
350
35
  3
EdgeColorOff
350
3D
  3
Facepattern
350
39
  3
Flat
350
2B
  3
FlatWithEdges
350
2C
  3
Gouraud
350
2D
  3
GouraudWithEdges
350
2E
  3
Hidden
350
31
  3
JitterOff
350
3B
  3
Linepattern
350
38
  3
OverhangOff
350
3C
  3
Realistic
350
33
  3
Shaded
350
42
  3
Shaded with edges
350
41
  3
Shades of Gray
350
3E
  3
Sketchy
350
3F
  3
Thicken
350
37
  3
Wireframe
350
30
  3
X-Ray
350
40
  0
XRECORD
  5
37C
102
{ACAD_REACTORS
330
C
102
}
330
C
100
AcDbXrecord
280
     1
 90
        1
330
6A
  0
DICTIONARY
  5
2C5
102
{ACAD_REACTORS
330
C
102
}
330
C
100
AcDbDictionary
281
     1
  3
CANNOSCALE
350
2C6
  3
CMLEADERSTYLE
350
307
  3
CTABLESTYLE
350
306
  3
CVIEWDETAILSTYLE
350
377
  3
CVIEWSECTIONSTYLE
350
378
  3
MSLTSCALE
350
2C7
  3
XCLIPFRAME
350
379
  0
XRECORD
  5
360
102
{ACAD_REACTORS
330
35F
102
}
330
35F
100
AcDbXrecord
280
     1
290
     1
  0
XRECORD
  5
362
102
{ACAD_REACTORS
330
361
102
}
330
361
100
AcDbXrecord
280
     1
290
     1
  0
XRECORD
  5
364
102
{ACAD_REACTORS
330
363
102
}
330
363
100
AcDbXrecord
280
     1
290
     1
  0
XRECORD
  5
366
102
{ACAD_REACTORS
330
365
102
}
330
365
100
AcDbXrecord
280
     1
290
     1
  0
XRECORD
  5
368
102
{ACAD_REACTORS
330
367
102
}
330
367
100
AcDbXrecord
280
     1
290
     1
  0
XRECORD
  5
36A
102
{ACAD_REACTORS
330
369
102
}
330
369
100
AcDbXrecord
280
     1
290
     1
  0
XRECORD
  5
36C
102
{ACAD_REACTORS
330
36B
102
}
330
36B
100
AcDbXrecord
280
     1
290
     1
  0
XRECORD
  5
36E
102
{ACAD_REACTORS
330
36D
102
}
330
36D
100
AcDbXrecord
280
     1
290
     1
  0
XRECORD
  5
370
102
{ACAD_REACTORS
330
36F
102
}
330
36F
100
AcDbXrecord
280
     1
290
     1
  0
XRECORD
  5
372
102
{ACAD_REACTORS
330
371
102
}
330
371
100
AcDbXrecord
280
     1
290
     1
  0
XRECORD
  5
374
102
{ACAD_REACTORS
330
373
102
}
330
373
100
AcDbXrecord
280
     1
290
     1
  0
XRECORD
  5
376
102
{ACAD_REACTORS
330
375
102
}
330
375
100
AcDbXrecord
280
     1
290
     1
  0
SORTENTSTABLE
  5
313
102
{ACAD_REACTORS
330
312
102
}
330
312
100
AcDbSortentsTable
330
1F
331
314
  5
21F
331
315
  5
238
331
316
  5
314
331
317
  5
315
331
318
  5
316
331
319
  5
327
331
31A
  5
328
331
31B
  5
329
331
31C
  5
32A
331
31D
  5
32B
331
31E
  5
32C
331
31F
  5
32D
331
320
  5
32E
331
321
  5
32F
331
322
  5
330
331
323
  5
331
331
324
  5
332
331
325
  5
333
331
326
  5
334
331
327
  5
335
331
328
  5
336
331
329
  5
337
331
32A
  5
338
331
32B
  5
339
331
32C
  5
33A
331
32D
  5
33B
331
32E
  5
33C
331
32F
  5
33D
331
330
  5
33E
331
331
  5
319
331
332
  5
31A
331
333
  5
31B
331
334
  5
31C
331
335
  5
31D
331
336
  5
31E
331
337
  5
31F
331
338
  5
320
331
339
  5
321
331
33A
  5
322
331
33B
  5
323
331
33C
  5
324
331
33D
  5
325
331
33E
  5
326
331
341
  5
346
331
343
  5
349
331
344
  5
34A
331
345
  5
34B
331
346
  5
34C
331
347
  5
34D
331
348
  5
34E
331
349
  5
341
331
34A
  5
343
331
34B
  5
344
331
34C
  5
345
331
34D
  5
347
331
34E
  5
348
  0
ACDBDETAILVIEWSTYLE
  5
30E
102
{ACAD_XDICTIONARY
360
3B0
102
}
102
{ACAD_REACTORS
330
308
102
}
330
308
100
AcDbModelDocViewStyle
 70
     0
  3
Metric50
290
     0
100
AcDbDetailViewStyle
 70
     0
 71
     0
 90
        3
 71
     1
340
11
 62
   256
 40
5.0
340
0
 62
   256
 40
5.0
300

 40
0.0
280
     1
 71
     2
340
16
 90
       25
 62
   256
 71
     3
340
11
 62
   256
 40
5.0
 90
        0
 40
15.0
 90
        1
300
%<\AcVar ViewDetailId>% (%<\AcVar ViewScale \f "%sn">%)
 71
     4
340
16
 90
       25
 62
   256
340
16
 90
       25
 62
   256
280
     0
  0
GROUP
  5
35C
102
{ACAD_REACTORS
330
D
102
}
330
D
100
AcDbGroup
300

 70
     0
 71
     1
340
73
  0
LAYOUT
  5
1E
102
{ACAD_REACTORS
330
1A
102
}
330
1A
100
AcDbPlotSettings
  1

  2
none_device
  4

  6

 40
0.0
 41
0.0
 42
0.0
 43
0.0
 44
0.0
 45
0.0
 46
0.0
 47
0.0
 48
0.0
 49
0.0
140
0.0
141
0.0
142
1.0
143
1.0
 70
   688
 72
     0
 73
     0
 74
     5
  7

 75
    16
147
1.0
 76
     0
 77
     2
 78
   300
148
0.0
149
0.0
100
AcDbLayout
  1
Layout1
 70
     1
 71
     1
 10
-0.5
 20
-0.5
 11
5.0
 21
5.0
 12
0.0
 22
0.0
 32
0.0
 14
-0.5
 24
-0.5
 34
-0.5
 15
5.0
 25
5.0
 35
5.0
146
0.0
 13
0.0
 23
0.0
 33
0.0
 16
1.0
 26
0.0
 36
0.0
 17
0.0
 27
1.0
 37
0.0
 76
     0
330
1B
  0
LAYOUT
  5
26
102
{ACAD_REACTORS
330
1A
102
}
330
1A
100
AcDbPlotSettings
  1

  2
none_device
  4

  6

 40
0.0
 41
0.0
 42
0.0
 43
0.0
 44
0.0
 45
0.0
 46
0.0
 47
0.0
 48
0.0
 49
0.0
140
0.0
141
0.0
142
1.0
143
1.0
 70
   688
 72
     0
 73
     0
 74
     5
  7

 75
    16
147
1.0
 76
     0
 77
     2
 78
   300
148
0.0
149
0.0
100
AcDbLayout
  1
Layout2
 70
     1
 71
     2
 10
0.0
 20
0.0
 11
0.0
 21
0.0
 12
0.0
 22
0.0
 32
0.0
 14
0.0
 24
0.0
 34
0.0
 15
0.0
 25
0.0
 35
0.0
146
0.0
 13
0.0
 23
0.0
 33
0.0
 16
1.0
 26
0.0
 36
0.0
 17
0.0
 27
1.0
 37
0.0
 76
     0
330
23
  0
LAYOUT
  5
22
102
{ACAD_REACTORS
330
1A
102
}
330
1A
100
AcDbPlotSettings
  1

  2
none_device
  4
Letter_(8.50_x_11.00_Inches)
  6

 40
6.349999999999999
 41
6.349999999999999
 42
6.350005
 43
6.350005
 44
215.9
 45
279.4
 46
0.0
 47
0.0
 48
0.0
 49
0.0
140
0.0
141
0.0
142
1.0
143
1.0
 70
  1712
 72
     0
 73
     0
 74
     0
  7

 75
     0
147
1.0
 76
     0
 77
     2
 78
   300
148
0.0
149
0.0
100
AcDbLayout
  1
Model
 70
     1
 71
     0
 10
-0.5
 20
-0.5
 11
5.0
 21
5.0
 12
0.0
 22
0.0
 32
0.0
 14
-0.5
 24
-0.5
 34
-0.5
 15
5.0
 25
5.0
 35
5.0
146
0.0
 13
0.0
 23
0.0
 33
0.0
 16
1.0
 26
0.0
 36
0.0
 17
0.0
 27
1.0
 37
0.0
 76
     0
330
1F
331
29
  0
MATERIAL
  5
45
102
{ACAD_XDICTIONARY
360
2FB
102
}
102
{ACAD_REACTORS
330
43
102
}
330
43
100
AcDbMaterial
  1
ByBlock
  0
MATERIAL
  5
44
102
{ACAD_XDICTIONARY
360
2F9
102
}
102
{ACAD_REACTORS
330
43
102
}
330
43
100
AcDbMaterial
  1
ByLayer
  0
MATERIAL
  5
46
102
{ACAD_XDICTIONARY
360
2FD
102
}
102
{ACAD_REACTORS
330
43
102
}
330
43
100
AcDbMaterial
  1
Global
  0
MLEADERSTYLE
  5
6C
102
{ACAD_REACTORS
330
6B
102
}
330
6B
100
AcDbMLeaderStyle
170
     2
171
     1
172
     0
 90
        2
 40
0.0
 41
0.0
173
     1
 91
-1056964608
340
14
 92
       -2
290
     1
 42
0.09
291
     1
 43
0.36
  3
Standard
 44
0.18
300

342
11
174
     1
178
     6
175
     1
176
     0
 93
-1056964608
 45
0.18
292
     0
297
     0
 46
0.18
 94
-1056964608
 47
1.0
 49
1.0
140
1.0
293
     1
141
0.0
294
     1
177
     0
142
1.0
295
     0
296
     0
143
0.125
1001
ACAD_MLEADERVER
1070
     2
  0
MLINESTYLE
  5
18
102
{ACAD_REACTORS
330
17
102
}
330
17
100
AcDbMlineStyle
  2
STANDARD
 70
     0
  3

 62
   256
 51
90.0
 52
90.0
 71
     2
 49
0.5
 62
   256
  6
BYLAYER
 49
-0.5
 62
   256
  6
BYLAYER
  0
ACDBPLACEHOLDER
  5
F
102
{ACAD_REACTORS
330
E
102
}
330
E
  0
SCALE
  5
48
102
{ACAD_REACTORS
330
47
102
}
330
47
100
AcDbScale
 70
     0
300
1:1
140
1.0
141
1.0
290
     1
  0
SCALE
  5
49
102
{ACAD_REACTORS
330
47
102
}
330
47
100
AcDbScale
 70
     0
300
1:2
140
1.0
141
2.0
290
     0
  0
SCALE
  5
4A
102
{ACAD_REACTORS
330
47
102
}
330
47
100
AcDbScale
 70
     0
300
1:4
140
1.0
141
4.0
290
     0
  0
SCALE
  5
4B
102
{ACAD_REACTORS
330
47
102
}
330
47
100
AcDbScale
 70
     0
300
1:5
140
1.0
141
5.0
290
     0
  0
SCALE
  5
4C
102
{ACAD_REACTORS
330
47
102
}
330
47
100
AcDbScale
 70
     0
300
1:8
140
1.0
141
8.0
290
     0
  0
SCALE
  5
4D
102
{ACAD_REACTORS
330
47
102
}
330
47
100
AcDbScale
 70
     0
300
1:10
140
1.0
141
10.0
290
     0
  0
SCALE
  5
4E
102
{ACAD_REACTORS
330
47
102
}
330
47
100
AcDbScale
 70
     0
300
1:16
140
1.0
141
16.0
290
     0
  0
SCALE
  5
4F
102
{ACAD_REACTORS
330
47
102
}
330
47
100
AcDbScale
 70
     0
300
1:20
140
1.0
141
20.0
290
     0
  0
SCALE
  5
50
102
{ACAD_REACTORS
330
47
102
}
330
47
100
AcDbScale
 70
     0
300
1:30
140
1.0
141
30.0
290
     0
  0
SCALE
  5
51
102
{ACAD_REACTORS
330
47
102
}
330
47
100
AcDbScale
 70
     0
300
1:40
140
1.0
141
40.0
290
     0
  0
SCALE
  5
52
102
{ACAD_REACTORS
330
47
102
}
330
47
100
AcDbScale
 70
     0
300
1:50
140
1.0
141
50.0
290
     0
  0
SCALE
  5
53
102
{ACAD_REACTORS
330
47
102
}
330
47
100
AcDbScale
 70
     0
300
1:100
140
1.0
141
100.0
290
     0
  0
SCALE
  5
54
102
{ACAD_REACTORS
330
47
102
}
330
47
100
AcDbScale
 70
     0
300
2:1
140
2.0
141
1.0
290
     0
  0
SCALE
  5
55
102
{ACAD_REACTORS
330
47
102
}
330
47
100
AcDbScale
 70
     0
300
4:1
140
4.0
141
1.0
290
     0
  0
SCALE
  5
56
102
{ACAD_REACTORS
330
47
102
}
330
47
100
AcDbScale
 70
     0
300
8:1
140
8.0
141
1.0
290
     0
  0
SCALE
  5
57
102
{ACAD_REACTORS
330
47
102
}
330
47
100
AcDbScale
 70
     0
300
10:1
140
10.0
141
1.0
290
     0
  0
SCALE
  5
58
102
{ACAD_REACTORS
330
47
102
}
330
47
100
AcDbScale
 70
     0
300
100:1
140
100.0
141
1.0
290
     0
  0
SCALE
  5
59
102
{ACAD_REACTORS
330
47
102
}
330
47
100
AcDbScale
 70
     0
300
1/128" = 1'-0"
140
0.007812
141
12.0
290
     0
  0
SCALE
  5
5A
102
{ACAD_REACTORS
330
47
102
}
330
47
100
AcDbScale
 70
     0
300
1/64" = 1'-0"
140
0.015625
141
12.0
290
     0
  0
SCALE
  5
5B
102
{ACAD_REACTORS
330
47
102
}
330
47
100
AcDbScale
 70
     0
300
1/32" = 1'-0"
140
0.03125
141
12.0
290
     0
  0
SCALE
  5
5C
102
{ACAD_REACTORS
330
47
102
}
330
47
100
AcDbScale
 70
     0
300
1/16" = 1'-0"
140
0.0625
141
12.0
290
     0
  0
SCALE
  5
5D
102
{ACAD_REACTORS
330
47
102
}
330
47
100
AcDbScale
 70
     0
300
3/32" = 1'-0"
140
0.09375
141
12.0
290
     0
  0
SCALE
  5
5E
102
{ACAD_REACTORS
330
47
102
}
330
47
100
AcDbScale
 70
     0
300
1/8" = 1'-0"
140
0.125
141
12.0
290
     0
  0
SCALE
  5
5F
102
{ACAD_REACTORS
330
47
102
}
330
47
100
AcDbScale
 70
     0
300
3/16" = 1'-0"
140
0.1875
141
12.0
290
     0
  0
SCALE
  5
60
102
{ACAD_REACTORS
330
47
102
}
330
47
100
AcDbScale
 70
     0
300
1/4" = 1'-0"
140
0.25
141
12.0
290
     0
  0
SCALE
  5
61
102
{ACAD_REACTORS
330
47
102
}
330
47
100
AcDbScale
 70
     0
300
3/8" = 1'-0"
140
0.375
141
12.0
290
     0
  0
SCALE
  5
62
102
{ACAD_REACTORS
330
47
102
}
330
47
100
AcDbScale
 70
     0
300
1/2" = 1'-0"
140
0.5
141
12.0
290
     0
  0
SCALE
  5
63
102
{ACAD_REACTORS
330
47
102
}
330
47
100
AcDbScale
 70
     0
300
3/4" = 1'-0"
140
0.75
141
12.0
290
     0
  0
SCALE
  5
64
102
{ACAD_REACTORS
330
47
102
}
330
47
100
AcDbScale
 70
     0
300
1" = 1'-0"
140
1.0
141
12.0
290
     0
  0
SCALE
  5
65
102
{ACAD_REACTORS
330
47
102
}
330
47
100
AcDbScale
 70
     0
300
1-1/2" = 1'-0"
140
1.5
141
12.0
290
     0
  0
SCALE
  5
66
102
{ACAD_REACTORS
330
47
102
}
330
47
100
AcDbScale
 70
     0
300
3" = 1'-0"
140
3.0
141
12.0
290
     0
  0
SCALE
  5
67
102
{ACAD_REACTORS
330
47
102
}
330
47
100
AcDbScale
 70
     0
300
6" = 1'-0"
140
6.0
141
12.0
290
     0
  0
SCALE
  5
68
102
{ACAD_REACTORS
330
47
102
}
330
47
100
AcDbScale
 70
     0
300
1'-0" = 1'-0"
140
12.0
141
12.0
290
     0
  0
ACDBSECTIONVIEWSTYLE
  5
30D
102
{ACAD_XDICTIONARY
360
3AE
102
}
102
{ACAD_REACTORS
330
309
102
}
330
309
100
AcDbModelDocViewStyle
 70
     0
  3
Metric50
290
     0
100
AcDbSectionViewStyle
 70
     0
 71
     0
 90
      102
 71
     1
340
11
 62
   256
 40
5.0
340
0
340
0
 62
   256
 40
5.0
300
I, O, Q, S, X, Z
 40
10.0
 90
        0
 40
2.5
 90
        0
 71
     2
340
16
 90
       25
 62
   256
340
16
 90
       50
 62
   256
 40
5.0
 40
2.5
 40
5.0
 71
     3
340
11
 62
   256
 40
5.0
 90
        0
 40
15.0
 90
        1
300
%<\AcVar ViewSectionStartId>%-%<\AcVar ViewSectionEndId>% (%<\AcVar ViewScale \f "%sn">%)
 71
     4
 62
   256
 62
   257
300
ANSI31
 40
1.0
 90
        0
290
     0
290
     0
 90
        6
 40
0.0
 40
1.570796326794896
 40
0.2617993877991494
 40
1.308996938995747
 40
-0.2617993877991494
 40
1.832595714594046
  0
TABLESTYLE
  5
6A
102
{ACAD_XDICTIONARY
360
2FF
102
}
102
{ACAD_REACTORS
330
69
102
}
330
69
100
AcDbTableStyle
  3
Standard
 70
     0
 71
     0
 40
0.06
 41
0.06
280
     0
281
     0
  7
Standard
140
0.18
170
     2
 62
     0
 63
     7
283
     0
274
    -2
284
     1
 64
     0
275
    -2
285
     1
 65
     0
276
    -2
286
     1
 66
     0
277
    -2
287
     1
 67
     0
278
    -2
288
     1
 68
     0
279
    -2
289
     1
 69
     0
  7
Standard
140
0.25
170
     5
 62
     0
 63
     7
283
     0
274
    -2
284
     1
 64
     0
275
    -2
285
     1
 65
     0
276
    -2
286
     1
 66
     0
277
    -2
287
     1
 67
     0
278
    -2
288
     1
 68
     0
279
    -2
289
     1
 69
     0
  7
Standard
140
0.18
170
     5
 62
     0
 63
     7
283
     0
274
    -2
284
     1
 64
     0
275
    -2
285
     1
 65
     0
276
    -2
286
     1
 66
     0
277
    -2
287
     1
 67
     0
278
    -2
288
     1
 68
     0
279
    -2
289
     1
 69
     0
  0
VISUALSTYLE
  5
2F
102
{ACAD_XDICTIONARY
360
385
102
}
102
{ACAD_REACTORS
330
2A
102
}
330
2A
100
AcDbVisualStyle
  2

 70
     4
 71
     0
 72
     2
 73
     0
 90
        0
 40
-0.6
 41
-30.0
 62
     5
 63
     7
421
 16777215
 74
     1
 91
        4
 64
     7
 65
   257
 75
     1
175
     1
 42
1.0
 92
        0
 66
   257
 43
1.0
 76
     1
 77
     6
 78
     2
 67
     7
 79
     5
170
     0
171
     0
290
     0
174
     0
 93
        1
 44
0.0
173
     0
291
     0
 45
0.0
1001
ACAD
1000
AcDbSavedByObjectVersion
1070
     0
  0
VISUALSTYLE
  5
32
102
{ACAD_XDICTIONARY
360
38B
102
}
102
{ACAD_REACTORS
330
2A
102
}
330
2A
100
AcDbVisualStyle
  2

 70
     7
 71
     1
 72
     0
 73
     1
 90
        0
 40
-0.6
 41
-30.0
 62
     5
 63
     7
421
 16777215
 74
     0
 91
        4
 64
     7
 65
   257
 75
     1
175
     1
 42
1.0
 92
        8
 66
     7
 43
1.0
 76
     1
 77
     6
 78
     2
 67
     7
 79
     5
170
     0
171
     0
290
     0
174
     0
 93
        1
 44
0.0
173
     0
291
     1
 45
0.0
1001
ACAD
1000
AcDbSavedByObjectVersion
1070
     0
  0
VISUALSTYLE
  5
36
102
{ACAD_XDICTIONARY
360
393
102
}
102
{ACAD_REACTORS
330
2A
102
}
330
2A
100
AcDbVisualStyle
  2

 70
    12
 71
     2
 72
     2
 73
     0
 90
        0
 40
-0.6
 41
-30.0
 62
     5
 63
     7
421
 16777215
 74
     1
 91
        4
 64
     7
 65
   257
 75
     1
175
     1
 42
1.0
 92
        8
 66
     7
 43
1.0
 76
     1
 77
     6
 78
     2
 67
     7
 79
     5
170
     0
171
     0
290
     0
174
     0
 93
        1
 44
50.0
173
     0
291
     1
 45
0.0
1001
ACAD
1000
AcDbSavedByObjectVersion
1070
     0
  0
VISUALSTYLE
  5
3A
102
{ACAD_XDICTIONARY
360
39B
102
}
102
{ACAD_REACTORS
330
2A
102
}
330
2A
100
AcDbVisualStyle
  2

 70
    16
 71
     2
 72
     2
 73
     3
 90
        0
 40
-0.6
 41
-30.0
 62
     5
 63
     8
421
  8421504
 74
     1
 91
        4
 64
     7
 65
   257
 75
     1
175
     1
 42
1.0
 92
        8
 66
     8
424
  8421504
 43
1.0
 76
     1
 77
     6
 78
     2
 67
     7
 79
     5
170
     0
171
     0
290
     0
174
     0
 93
        1
 44
0.0
173
     0
291
     1
 45
0.0
1001
ACAD
1000
AcDbSavedByObjectVersion
1070
     0
  0
VISUALSTYLE
  5
34
102
{ACAD_XDICTIONARY
360
38F
102
}
102
{ACAD_REACTORS
330
2A
102
}
330
2A
100
AcDbVisualStyle
  2

 70
     9
 71
     3
 72
     2
 73
     0
 90
        0
 40
-0.6
 41
-30.0
 62
     5
 63
     7
421
 16777215
 74
     2
 91
        2
 64
     7
 65
   257
 75
     1
175
     1
 42
179.0
 92
        8
 66
     7
 43
1.0
 76
     1
 77
     6
 78
     2
 67
     7
 79
     3
170
     0
171
     0
290
     0
174
     0
 93
        1
 44
0.0
173
     0
291
     0
 45
0.0
1001
ACAD
1000
AcDbSavedByObjectVersion
1070
     0
  0
VISUALSTYLE
  5
35
102
{ACAD_XDICTIONARY
360
391
102
}
102
{ACAD_REACTORS
330
2A
102
}
330
2A
100
AcDbVisualStyle
  2

 70
    11
 71
     2
 72
     2
 73
     0
 90
        0
 40
-0.6
 41
-30.0
 62
     5
 63
     7
421
 16777215
 74
     1
 91
        4
 64
     7
 65
   257
 75
     1
175
     1
 42
1.0
 92
        8
 66
     7
 43
1.0
 76
     1
 77
     6
 78
     2
 67
     7
 79
     5
170
     0
171
     0
290
     0
174
     0
 93
        1
 44
-50.0
173
     0
291
     1
 45
0.0
1001
ACAD
1000
AcDbSavedByObjectVersion
1070
     0
  0
VISUALSTYLE
  5
3D
102
{ACAD_XDICTIONARY
360
3A1
102
}
102
{ACAD_REACTORS
330
2A
102
}
330
2A
100
AcDbVisualStyle
  2

 70
    22
 71
     2
 72
     2
 73
     0
 90
        0
 40
-0.6
 41
-30.0
 62
     5
 63
     7
421
 16777215
 74
     1
 91
        4
 64
     7
 65
   257
 75
     1
175
     1
 42
1.0
 92
        8
 66
     7
 43
1.0
 76
     1
 77
     6
 78
     2
 67
     7
 79
     5
170
     0
171
     0
290
     0
174
     0
 93
        1
 44
0.0
173
     0
291
     1
 45
0.0
1001
ACAD
1000
AcDbSavedByObjectVersion
1070
     0
  0
VISUALSTYLE
  5
39
102
{ACAD_XDICTIONARY
360
399
102
}
102
{ACAD_REACTORS
330
2A
102
}
330
2A
100
AcDbVisualStyle
  2

 70
    15
 71
     2
 72
     2
 73
     0
 90
        0
 40
-0.6
 41
-30.0
 62
     5
 63
     7
421
 16777215
 74
     1
 91
        4
 64
     7
 65
   257
 75
     1
175
     1
 42
1.0
 92
        8
 66
     7
 43
1.0
 76
     1
 77
     6
 78
     2
 67
     7
 79
     5
170
     0
171
     0
290
     0
174
     0
 93
        1
 44
0.0
173
     0
291
     1
 45
0.0
1001
ACAD
1000
AcDbSavedByObjectVersion
1070
     0
  0
VISUALSTYLE
  5
2B
102
{ACAD_XDICTIONARY
360
37D
102
}
102
{ACAD_REACTORS
330
2A
102
}
330
2A
100
AcDbVisualStyle
  2

 70
     0
 71
     2
 72
     1
 73
     1
 90
        2
 40
-0.6
 41
30.0
 62
     5
 63
     7
421
 16777215
 74
     0
 91
        0
 64
     7
 65
   257
 75
     1
175
     1
 42
1.0
 92
        8
 66
     7
 43
1.0
 76
     1
 77
     6
 78
     2
 67
     7
 79
     5
170
     0
171
     0
290
     0
174
     0
 93
       13
 44
0.0
173
     0
291
     1
 45
0.0
1001
ACAD
1000
AcDbSavedByObjectVersion
1070
     0
  0
VISUALSTYLE
  5
2C
102
{ACAD_XDICTIONARY
360
37F
102
}
102
{ACAD_REACTORS
330
2A
102
}
330
2A
100
AcDbVisualStyle
  2

 70
     1
 71
     2
 72
     1
 73
     1
 90
        2
 40
-0.6
 41
30.0
 62
     5
 63
     7
421
 16777215
 74
     1
 91
        0
 64
     7
 65
   257
 75
     1
175
     1
 42
1.0
 92
        0
 66
   257
 43
1.0
 76
     1
 77
     6
 78
     2
 67
     7
 79
     5
170
     0
171
     0
290
     0
174
     0
 93
       13
 44
0.0
173
     0
291
     1
 45
0.0
1001
ACAD
1000
AcDbSavedByObjectVersion
1070
     0
  0
VISUALSTYLE
  5
2D
102
{ACAD_XDICTIONARY
360
381
102
}
102
{ACAD_REACTORS
330
2A
102
}
330
2A
100
AcDbVisualStyle
  2

 70
     2
 71
     2
 72
     2
 73
     1
 90
        2
 40
-0.6
 41
30.0
 62
     5
 63
     7
421
 16777215
 74
     0
 91
        0
 64
     7
 65
   257
 75
     1
175
     1
 42
1.0
 92
        0
 66
     7
 43
1.0
 76
     1
 77
     6
 78
     2
 67
     7
 79
     5
170
     0
171
     0
290
     0
174
     0
 93
       13
 44
0.0
173
     0
291
     1
 45
0.0
1001
ACAD
1000
AcDbSavedByObjectVersion
1070
     0
  0
VISUALSTYLE
  5
2E
102
{ACAD_XDICTIONARY
360
383
102
}
102
{ACAD_REACTORS
330
2A
102
}
330
2A
100
AcDbVisualStyle
  2

 70
     3
 71
     2
 72
     2
 73
     1
 90
        2
 40
-0.6
 41
30.0
 62
     5
 63
     7
421
 16777215
 74
     1
 91
        0
 64
     7
 65
   257
 75
     1
175
     1
 42
1.0
 92
        0
 66
   257
 43
1.0
 76
     1
 77
     6
 78
     2
 67
     7
 79
     5
170
     0
171
     0
290
     0
174
     0
 93
       13
 44
0.0
173
     0
291
     1
 45
0.0
1001
ACAD
1000
AcDbSavedByObjectVersion
1070
     0
  0
VISUALSTYLE
  5
31
102
{ACAD_XDICTIONARY
360
389
102
}
102
{ACAD_REACTORS
330
2A
102
}
330
2A
100
AcDbVisualStyle
  2

 70
     6
 71
     1
 72
     2
 73
     2
 90
        0
 40
-0.6
 41
-30.0
 62
     5
 63
     7
421
 16777215
 74
     2
 91
        2
 64
     7
 65
   257
 75
     2
175
     1
 42
40.0
 92
        0
 66
   257
 43
1.0
 76
     1
 77
     6
 78
     2
 67
     7
 79
     3
170
     0
171
     0
290
     0
174
     0
 93
        1
 44
0.0
173
     0
291
     0
 45
0.0
1001
ACAD
1000
AcDbSavedByObjectVersion
1070
     0
  0
VISUALSTYLE
  5
3B
102
{ACAD_XDICTIONARY
360
39D
102
}
102
{ACAD_REACTORS
330
2A
102
}
330
2A
100
AcDbVisualStyle
  2

 70
    20
 71
     2
 72
     2
 73
     0
 90
        0
 40
-0.6
 41
-30.0
 62
     5
 63
     7
421
 16777215
 74
     1
 91
        4
 64
     7
 65
   257
 75
     1
175
     1
 42
1.0
 92
       10
 66
     7
 43
1.0
 76
     1
 77
     6
 78
     2
 67
     7
 79
     5
170
     0
171
     0
290
     0
174
     0
 93
        1
 44
0.0
173
     0
291
     1
 45
0.0
1001
ACAD
1000
AcDbSavedByObjectVersion
1070
     0
  0
VISUALSTYLE
  5
38
102
{ACAD_XDICTIONARY
360
397
102
}
102
{ACAD_REACTORS
330
2A
102
}
330
2A
100
AcDbVisualStyle
  2

 70
    14
 71
     2
 72
     2
 73
     0
 90
        0
 40
-0.6
 41
-30.0
 62
     5
 63
     7
421
 16777215
 74
     1
 91
        4
 64
     7
 65
   257
 75
     7
175
     7
 42
1.0
 92
        8
 66
     7
 43
1.0
 76
     1
 77
     6
 78
     2
 67
     7
 79
     5
170
     0
171
     0
290
     0
174
     0
 93
        1
 44
0.0
173
     0
291
     1
 45
0.0
1001
ACAD
1000
AcDbSavedByObjectVersion
1070
     0
  0
VISUALSTYLE
  5
3C
102
{ACAD_XDICTIONARY
360
39F
102
}
102
{ACAD_REACTORS
330
2A
102
}
330
2A
100
AcDbVisualStyle
  2

 70
    21
 71
     2
 72
     2
 73
     0
 90
        0
 40
-0.6
 41
-30.0
 62
     5
 63
     7
421
 16777215
 74
     1
 91
        4
 64
     7
 65
   257
 75
     1
175
     1
 42
1.0
 92
        9
 66
     7
 43
1.0
 76
     1
 77
     6
 78
     2
 67
     7
 79
     5
170
     0
171
     0
290
     0
174
     0
 93
        1
 44
0.0
173
     0
291
     1
 45
0.0
1001
ACAD
1000
AcDbSavedByObjectVersion
1070
     0
  0
VISUALSTYLE
  5
33
102
{ACAD_XDICTIONARY
360
38D
102
}
102
{ACAD_REACTORS
330
2A
102
}
330
2A
100
AcDbVisualStyle
  2

 70
     8
 71
     2
 72
     3
 73
     0
 90
        2
 40
-0.6
 41
30.0
 62
     5
 63
     7
421
 16777215
 74
     0
 91
        0
 64
     7
 65
   257
 75
     1
175
     1
 42
1.0
 92
        8
 66
   257
 43
1.0
 76
     1
 77
     6
 78
     2
 67
     7
 79
     3
170
     0
171
     0
290
     0
174
     0
 93
       13
 44
0.0
173
     0
291
     0
 45
0.0
1001
ACAD
1000
AcDbSavedByObjectVersion
1070
     0
  0
VISUALSTYLE
  5
42
102
{ACAD_XDICTIONARY
360
3AB
102
}
102
{ACAD_REACTORS
330
2A
102
}
330
2A
100
AcDbVisualStyle
  2

 70
    27
 71
     2
 72
     2
 73
     1
 90
        2
 40
-0.6
 41
30.0
 62
     5
 63
     7
421
 16777215
 74
     0
 91
        4
 64
     7
 65
   257
 75
     1
175
     1
 42
1.0
 92
        8
 66
   257
 43
1.0
 76
     1
 77
     6
 78
     2
 67
     8
425
  7895160
 79
     3
170
     0
171
     0
290
     0
174
     0
 93
        5
 44
0.0
173
     0
291
     0
 45
0.0
1001
ACAD
1000
AcDbSavedByObjectVersion
1070
     0
  0
VISUALSTYLE
  5
41
102
{ACAD_XDICTIONARY
360
3A9
102
}
102
{ACAD_REACTORS
330
2A
102
}
330
2A
100
AcDbVisualStyle
  2

 70
    26
 71
     2
 72
     2
 73
     1
 90
        2
 40
-0.6
 41
30.0
 62
     5
 63
     7
421
 16777215
 74
     1
 91
       10
 64
     7
 65
   257
 75
     2
175
     1
 42
1.0
 92
        8
 66
   257
 43
1.0
 76
     1
 77
     6
 78
     2
 67
     7
 79
     3
170
     0
171
     0
290
     0
174
     0
 93
        5
 44
0.0
173
     0
291
     0
 45
0.0
1001
ACAD
1000
AcDbSavedByObjectVersion
1070
     0
  0
VISUALSTYLE
  5
3E
102
{ACAD_XDICTIONARY
360
3A3
102
}
102
{ACAD_REACTORS
330
2A
102
}
330
2A
100
AcDbVisualStyle
  2

 70
    23
 71
     2
 72
     2
 73
     3
 90
        0
 40
-0.6
 41
-30.0
 62
     5
 63
     7
421
 16777215
 74
     2
 91
        2
 64
     7
 65
     7
 75
     1
175
     1
 42
40.0
 92
        8
 66
     7
 43
1.0
 76
     1
 77
     6
 78
     2
 67
     7
 79
     3
170
     0
171
     0
290
     0
174
     0
 93
        1
 44
0.0
173
     0
291
     0
 45
0.0
1001
ACAD
1000
AcDbSavedByObjectVersion
1070
     0
  0
VISUALSTYLE
  5
3F
102
{ACAD_XDICTIONARY
360
3A5
102
}
102
{ACAD_REACTORS
330
2A
102
}
330
2A
100
AcDbVisualStyle
  2

 70
    24
 71
     1
 72
     2
 73
     2
 90
        0
 40
-0.6
 41
-30.0
 62
     5
 63
     7
421
 16777215
 74
     2
 91
        2
 64
     7
 65
     7
 75
     1
175
     1
 42
40.0
 92
       11
 66
     7
 43
1.0
 76
     1
 77
     6
 78
     2
 67
     7
 79
     6
170
     0
171
     0
290
     0
174
     0
 93
        1
 44
0.0
173
     0
291
     0
 45
0.0
1001
ACAD
1000
AcDbSavedByObjectVersion
1070
     0
  0
VISUALSTYLE
  5
37
102
{ACAD_XDICTIONARY
360
395
102
}
102
{ACAD_REACTORS
330
2A
102
}
330
2A
100
AcDbVisualStyle
  2

 70
    13
 71
     2
 72
     2
 73
     0
 90
        0
 40
-0.6
 41
-30.0
 62
     5
 63
     7
421
 16777215
 74
     1
 91
        4
 64
     7
 65
   257
 75
     1
175
     1
 42
1.0
 92
       12
 66
     7
 43
1.0
 76
     1
 77
     6
 78
     2
 67
     7
 79
     5
170
     0
171
     0
290
     0
174
     0
 93
        1
 44
0.0
173
     0
291
     1
 45
0.0
1001
ACAD
1000
AcDbSavedByObjectVersion
1070
     0
  0
VISUALSTYLE
  5
30
102
{ACAD_XDICTIONARY
360
387
102
}
102
{ACAD_REACTORS
330
2A
102
}
330
2A
100
AcDbVisualStyle
  2

 70
     5
 71
     0
 72
     2
 73
     0
 90
        0
 40
-0.6
 41
-30.0
 62
     5
 63
     7
421
 16777215
 74
     1
 91
        4
 64
     7
 65
   257
 75
     1
175
     1
 42
1.0
 92
        0
 66
   257
 43
1.0
 76
     1
 77
     6
 78
     2
 67
     7
 79
     3
170
     0
171
     0
290
     0
174
     0
 93
        1
 44
0.0
173
     0
291
     0
 45
0.0
1001
ACAD
1000
AcDbSavedByObjectVersion
1070
     0
  0
VISUALSTYLE
  5
40
102
{ACAD_XDICTIONARY
360
3A7
102
}
102
{ACAD_REACTORS
330
2A
102
}
330
2A
100
AcDbVisualStyle
  2

 70
    25
 71
     2
 72
     2
 73
     1
 90
        1
 40
0.5
 41
-30.0
 62
     5
 63
     7
421
 16777215
 74
     1
 91
        0
 64
     7
 65
   257
 75
     1
175
     1
 42
1.0
 92
        8
 66
     7
 43
1.0
 76
     1
 77
     6
 78
     2
 67
     7
 79
     3
170
     0
171
     0
290
     0
174
     0
 93
       13
 44
0.0
173
     0
291
     0
 45
0.0
1001
ACAD
1000
AcDbSavedByObjectVersion
1070
     0
  0
DICTIONARYVAR
  5
2C6
102
{ACAD_REACTORS
330
2C5
102
}
330
2C5
100
DictionaryVariables
280
     0
  1
1:1
  0
DICTIONARYVAR
  5
307
102
{ACAD_REACTORS
330
2C5
102
}
330
2C5
100
DictionaryVariables
280
     0
  1
STANDARD
  0
DICTIONARYVAR
  5
306
102
{ACAD_REACTORS
330
2C5
102
}
330
2C5
100
DictionaryVariables
280
     0
  1
STANDARD
  0
DICTIONARYVAR
  5
377
102
{ACAD_REACTORS
330
2C5
102
}
330
2C5
100
DictionaryVariables
280
     0
  1
Metric50
  0
DICTIONARYVAR
  5
378
102
{ACAD_REACTORS
330
2C5
102
}
330
2C5
100
DictionaryVariables
280
     0
  1
Metric50
  0
DICTIONARYVAR
  5
2C7
102
{ACAD_REACTORS
330
2C5
102
}
330
2C5
100
DictionaryVariables
280
     0
  1
1
  0
DICTIONARYVAR
  5
379
102
{ACAD_REACTORS
330
2C5
102
}
330
2C5
100
DictionaryVariables
280
     0
  1
2
  0
DICTIONARY
  5
3B0
330
30E
100
AcDbDictionary
280
     1
281
     1
  3
ACAD_XREC_ROUNDTRIP
360
3B1
  0
DICTIONARY
  5
2FB
330
45
100
AcDbDictionary
280
     1
281
     1
  3
ACAD_XREC_ROUNDTRIP
360
2FC
  0
DICTIONARY
  5
2F9
330
44
100
AcDbDictionary
280
     1
281
     1
  3
ACAD_XREC_ROUNDTRIP
360
2FA
  0
DICTIONARY
  5
2FD
330
46
100
AcDbDictionary
280
     1
281
     1
  3
ACAD_XREC_ROUNDTRIP
360
2FE
  0
DICTIONARY
  5
3AE
330
30D
100
AcDbDictionary
280
     1
281
     1
  3
ACAD_XREC_ROUNDTRIP
360
3AF
  0
DICTIONARY
  5
2FF
330
6A
100
AcDbDictionary
280
     1
281
     1
  3
ACAD_ROUNDTRIP_2008_TABLESTYLE_CELLSTYLEMAP
360
37B
  3
ACAD_XREC_ROUNDTRIP
360
3AD
  0
DICTIONARY
  5
385
330
2F
100
AcDbDictionary
280
     1
281
     1
  3
ACAD_XREC_ROUNDTRIP
360
386
  0
DICTIONARY
  5
38B
330
32
100
AcDbDictionary
280
     1
281
     1
  3
ACAD_XREC_ROUNDTRIP
360
38C
  0
DICTIONARY
  5
393
330
36
100
AcDbDictionary
280
     1
281
     1
  3
ACAD_XREC_ROUNDTRIP
360
394
  0
DICTIONARY
  5
39B
330
3A
100
AcDbDictionary
280
     1
281
     1
  3
ACAD_XREC_ROUNDTRIP
360
39C
  0
DICTIONARY
  5
38F
330
34
100
AcDbDictionary
280
     1
281
     1
  3
ACAD_XREC_ROUNDTRIP
360
390
  0
DICTIONARY
  5
391
330
35
100
AcDbDictionary
280
     1
281
     1
  3
ACAD_XREC_ROUNDTRIP
360
392
  0
DICTIONARY
  5
3A1
330
3D
100
AcDbDictionary
280
     1
281
     1
  3
ACAD_XREC_ROUNDTRIP
360
3A2
  0
DICTIONARY
  5
399
330
39
100
AcDbDictionary
280
     1
281
     1
  3
ACAD_XREC_ROUNDTRIP
360
39A
  0
DICTIONARY
  5
37D
330
2B
100
AcDbDictionary
280
     1
281
     1
  3
ACAD_XREC_ROUNDTRIP
360
37E
  0
DICTIONARY
  5
37F
330
2C
100
AcDbDictionary
280
     1
281
     1
  3
ACAD_XREC_ROUNDTRIP
360
380
  0
DICTIONARY
  5
381
330
2D
100
AcDbDictionary
280
     1
281
     1
  3
ACAD_XREC_ROUNDTRIP
360
382
  0
DICTIONARY
  5
383
330
2E
100
AcDbDictionary
280
     1
281
     1
  3
ACAD_XREC_ROUNDTRIP
360
384
  0
DICTIONARY
  5
389
330
31
100
AcDbDictionary
280
     1
281
     1
  3
ACAD_XREC_ROUNDTRIP
360
38A
  0
DICTIONARY
  5
39D
330
3B
100
AcDbDictionary
280
     1
281
     1
  3
ACAD_XREC_ROUNDTRIP
360
39E
  0
DICTIONARY
  5
397
330
38
100
AcDbDictionary
280
     1
281
     1
  3
ACAD_XREC_ROUNDTRIP
360
398
  0
DICTIONARY
  5
39F
330
3C
100
AcDbDictionary
280
     1
281
     1
  3
ACAD_XREC_ROUNDTRIP
360
3A0
  0
DICTIONARY
  5
38D
330
33
100
AcDbDictionary
280
     1
281
     1
  3
ACAD_XREC_ROUNDTRIP
360
38E
  0
DICTIONARY
  5
3AB
330
42
100
AcDbDictionary
280
     1
281
     1
  3
ACAD_XREC_ROUNDTRIP
360
3AC
  0
DICTIONARY
  5
3A9
330
41
100
AcDbDictionary
280
     1
281
     1
  3
ACAD_XREC_ROUNDTRIP
360
3AA
  0
DICTIONARY
  5
3A3
330
3E
100
AcDbDictionary
280
     1
281
     1
  3
ACAD_XREC_ROUNDTRIP
360
3A4
  0
DICTIONARY
  5
3A5
330
3F
100
AcDbDictionary
280
     1
281
     1
  3
ACAD_XREC_ROUNDTRIP
360
3A6
  0
DICTIONARY
  5
395
330
37
100
AcDbDictionary
280
     1
281
     1
  3
ACAD_XREC_ROUNDTRIP
360
396
  0
DICTIONARY
  5
387
330
30
100
AcDbDictionary
280
     1
281
     1
  3
ACAD_XREC_ROUNDTRIP
360
388
  0
DICTIONARY
  5
3A7
330
40
100
AcDbDictionary
280
     1
281
     1
  3
ACAD_XREC_ROUNDTRIP
360
3A8
  0
XRECORD
  5
3B1
102
{ACAD_REACTORS
330
3B0
102
}
330
3B0
100
AcDbXrecord
280
     1
102
DISPLAYNAME
  1
Metric50
102
FLAGS
 90
        0
  0
XRECORD
  5
2FC
102
{ACAD_REACTORS
330
2FB
102
}
330
2FB
100
AcDbXrecord
280
     1
102
MATERIAL
148
0.0
149
0.0
149
0.0
 93
        0
 94
      127
282
     0
 72
     1
 77
     1
171
     1
175
     1
179
     1
273
     0
  0
XRECORD
  5
2FA
102
{ACAD_REACTORS
330
2F9
102
}
330
2F9
100
AcDbXrecord
280
     1
102
MATERIAL
148
0.0
149
0.0
149
0.0
 93
        0
 94
      127
282
     0
 72
     1
 77
     1
171
     1
175
     1
179
     1
273
     0
  0
XRECORD
  5
2FE
102
{ACAD_REACTORS
330
2FD
102
}
330
2FD
100
AcDbXrecord
280
     1
102
MATERIAL
148
0.0
149
0.0
149
0.0
 93
        0
 94
      127
282
     0
 72
     1
 77
     1
171
     1
175
     1
179
     1
273
     0
  0
XRECORD
  5
3AF
102
{ACAD_REACTORS
330
3AE
102
}
330
3AE
100
AcDbXrecord
280
     1
102
DISPLAYNAME
  1
Metric50
102
FLAGS
 90
        0
  0
CELLSTYLEMAP
  5
37B
102
{ACAD_REACTORS
330
2FF
102
}
330
2FF
100
AcDbCellStyleMap
 90
        3
300
CELLSTYLE
  1
TABLEFORMAT_BEGIN
 90
        5
170
     1
 91
        0
 92
    32768
 62
   257
 93
        1
300
CONTENTFORMAT
  1
CONTENTFORMAT_BEGIN
 90
        0
 91
        0
 92
        4
 93
        0
300

 40
0.0
140
1.0
 94
        5
 62
     0
340
11
144
0.25
309
CONTENTFORMAT_END
171
     1
301
MARGIN
  1
CELLMARGIN_BEGIN
 40
0.06
 40
0.06
 40
0.06
 40
0.06
 40
0.18
 40
0.18
309
CELLMARGIN_END
 94
        6
 95
        1
302
GRIDFORMAT
  1
GRIDFORMAT_BEGIN
 90
        0
 91
        1
 62
     0
 92
       -2
340
14
 93
        0
 40
0.045
309
GRIDFORMAT_END
 95
        2
302
GRIDFORMAT
  1
GRIDFORMAT_BEGIN
 90
        0
 91
        1
 62
     0
 92
       -2
340
14
 93
        0
 40
0.045
309
GRIDFORMAT_END
 95
        4
302
GRIDFORMAT
  1
GRIDFORMAT_BEGIN
 90
        0
 91
        1
 62
     0
 92
       -2
340
14
 93
        0
 40
0.045
309
GRIDFORMAT_END
 95
        8
302
GRIDFORMAT
  1
GRIDFORMAT_BEGIN
 90
        0
 91
        1
 62
     0
 92
       -2
340
14
 93
        0
 40
0.045
309
GRIDFORMAT_END
 95
       16
302
GRIDFORMAT
  1
GRIDFORMAT_BEGIN
 90
        0
 91
        1
 62
     0
 92
       -2
340
14
 93
        0
 40
0.045
309
GRIDFORMAT_END
 95
       32
302
GRIDFORMAT
  1
GRIDFORMAT_BEGIN
 90
        0
 91
        1
 62
     0
 92
       -2
340
14
 93
        0
 40
0.045
309
GRIDFORMAT_END
309
TABLEFORMAT_END
  1
CELLSTYLE_BEGIN
 90
        1
 91
        1
300
_TITLE
309
CELLSTYLE_END
300
CELLSTYLE
  1
TABLEFORMAT_BEGIN
 90
        5
170
     1
 91
        0
 92
        0
 62
   257
 93
        1
300
CONTENTFORMAT
  1
CONTENTFORMAT_BEGIN
 90
        0
 91
        0
 92
        4
 93
        0
300

 40
0.0
140
1.0
 94
        5
 62
     0
340
11
144
0.18
309
CONTENTFORMAT_END
171
     1
301
MARGIN
  1
CELLMARGIN_BEGIN
 40
0.06
 40
0.06
 40
0.06
 40
0.06
 40
0.18
 40
0.18
309
CELLMARGIN_END
 94
        6
 95
        1
302
GRIDFORMAT
  1
GRIDFORMAT_BEGIN
 90
        0
 91
        1
 62
     0
 92
       -2
340
14
 93
        0
 40
0.045
309
GRIDFORMAT_END
 95
        2
302
GRIDFORMAT
  1
GRIDFORMAT_BEGIN
 90
        0
 91
        1
 62
     0
 92
       -2
340
14
 93
        0
 40
0.045
309
GRIDFORMAT_END
 95
        4
302
GRIDFORMAT
  1
GRIDFORMAT_BEGIN
 90
        0
 91
        1
 62
     0
 92
       -2
340
14
 93
        0
 40
0.045
309
GRIDFORMAT_END
 95
        8
302
GRIDFORMAT
  1
GRIDFORMAT_BEGIN
 90
        0
 91
        1
 62
     0
 92
       -2
340
14
 93
        0
 40
0.045
309
GRIDFORMAT_END
 95
       16
302
GRIDFORMAT
  1
GRIDFORMAT_BEGIN
 90
        0
 91
        1
 62
     0
 92
       -2
340
14
 93
        0
 40
0.045
309
GRIDFORMAT_END
 95
       32
302
GRIDFORMAT
  1
GRIDFORMAT_BEGIN
 90
        0
 91
        1
 62
     0
 92
       -2
340
14
 93
        0
 40
0.045
309
GRIDFORMAT_END
309
TABLEFORMAT_END
  1
CELLSTYLE_BEGIN
 90
        2
 91
        1
300
_HEADER
309
CELLSTYLE_END
300
CELLSTYLE
  1
TABLEFORMAT_BEGIN
 90
        5
170
     1
 91
        0
 92
        0
 62
   257
 93
        1
300
CONTENTFORMAT
  1
CONTENTFORMAT_BEGIN
 90
        0
 91
        0
 92
        4
 93
        0
300

 40
0.0
140
1.0
 94
        2
 62
     0
340
11
144
0.18
309
CONTENTFORMAT_END
171
     1
301
MARGIN
  1
CELLMARGIN_BEGIN
 40
0.06
 40
0.06
 40
0.06
 40
0.06
 40
0.18
 40
0.18
309
CELLMARGIN_END
 94
        6
 95
        1
302
GRIDFORMAT
  1
GRIDFORMAT_BEGIN
 90
        0
 91
        1
 62
     0
 92
       -2
340
14
 93
        0
 40
0.045
309
GRIDFORMAT_END
 95
        2
302
GRIDFORMAT
  1
GRIDFORMAT_BEGIN
 90
        0
 91
        1
 62
     0
 92
       -2
340
14
 93
        0
 40
0.045
309
GRIDFORMAT_END
 95
        4
302
GRIDFORMAT
  1
GRIDFORMAT_BEGIN
 90
        0
 91
        1
 62
     0
 92
       -2
340
14
 93
        0
 40
0.045
309
GRIDFORMAT_END
 95
        8
302
GRIDFORMAT
  1
GRIDFORMAT_BEGIN
 90
        0
 91
        1
 62
     0
 92
       -2
340
14
 93
        0
 40
0.045
309
GRIDFORMAT_END
 95
       16
302
GRIDFORMAT
  1
GRIDFORMAT_BEGIN
 90
        0
 91
        1
 62
     0
 92
       -2
340
14
 93
        0
 40
0.045
309
GRIDFORMAT_END
 95
       32
302
GRIDFORMAT
  1
GRIDFORMAT_BEGIN
 90
        0
 91
        1
 62
     0
 92
       -2
340
14
 93
        0
 40
0.045
309
GRIDFORMAT_END
309
TABLEFORMAT_END
  1
CELLSTYLE_BEGIN
 90
        3
 91
        2
300
_DATA
309
CELLSTYLE_END
  0
XRECORD
  5
3AD
102
{ACAD_REACTORS
330
2FF
102
}
330
2FF
100
AcDbXrecord
280
     1
102
ACAD_ROUNDTRIP_PRE2007_TABLESTYLE
 90
        4
 91
        0
  1

 92
        4
 93
        0
  2

 94
        4
 95
        0
  3

  0
XRECORD
  5
386
102
{ACAD_REACTORS
330
385
102
}
330
385
100
AcDbXrecord
280
     1
102
RTVSPost2010Prop28
280
     1
102
RTVSPost2010PropOp28
 70
     1
102
RTVSPost2010Prop29
280
     1
102
RTVSPost2010PropOp29
 70
     1
102
RTVSPost2010Prop30
280
     0
102
RTVSPost2010PropOp30
 70
     1
102
RTVSPost2010Prop31
280
     0
102
RTVSPost2010PropOp31
 70
     1
102
RTVSPost2010Prop32
280
     0
102
RTVSPost2010PropOp32
 70
     1
102
RTVSPost2010Prop33
280
     0
102
RTVSPost2010PropOp33
 70
     1
102
RTVSPost2010Prop34
280
     0
102
RTVSPost2010PropOp34
 70
     1
102
RTVSPost2010Prop35
280
     0
102
RTVSPost2010PropOp35
 70
     1
102
RTVSPost2010Prop36
280
     0
102
RTVSPost2010PropOp36
 70
     1
102
RTVSPost2010Prop37
 90
       50
102
RTVSPost2010PropOp37
 70
     1
102
RTVSPost2010Prop38
140
0.0
102
RTVSPost2010PropOp38
 70
     1
102
RTVSPost2010Prop39
140
1.0
102
RTVSPost2010PropOp39
 70
     1
102
RTVSPost2010Prop40
 90
        0
102
RTVSPost2010PropOp40
 70
     1
102
RTVSPost2010Prop41ColorIndex
 90
       18
102
RTVSPost2010Prop41ColorRGB
 90
        0
102
RTVSPost2010PropOp41
 70
     1
102
RTVSPost2010Prop42
 90
       50
102
RTVSPost2010PropOp42
 70
     1
102
RTVSPost2010Prop43
 90
        3
102
RTVSPost2010PropOp43
 70
     1
102
RTVSPost2010Prop44ColorIndex
 90
        5
102
RTVSPost2010Prop44ColorRGB
 90
      255
102
RTVSPost2010PropOp44
 70
     1
102
RTVSPost2010Prop45
280
     0
102
RTVSPost2010PropOp45
 70
     1
102
RTVSPost2010Prop46
 90
       50
102
RTVSPost2010PropOp46
 70
     1
102
RTVSPost2010Prop47
 90
       50
102
RTVSPost2010PropOp47
 70
     1
102
RTVSPost2010Prop48
 90
       50
102
RTVSPost2010PropOp48
 70
     1
102
RTVSPost2010Prop49
280
     0
102
RTVSPost2010PropOp49
 70
     1
102
RTVSPost2010Prop50
 90
       50
102
RTVSPost2010PropOp50
 70
     1
102
RTVSPost2010Prop51ColorIndex
 90
      256
102
RTVSPost2010Prop51ColorRGB
 90
-16777216
102
RTVSPost2010PropOp51
 70
     0
102
RTVSPost2010Prop52
140
1.0
102
RTVSPost2010PropOp52
 70
     0
102
RTVSPost2010Prop53
 90
        2
102
RTVSPost2010PropOp53
 70
     1
102
RTVSPost2010Prop54
  1
strokes_ogs.tif
102
RTVSPost2010PropOp54
 70
     1
102
RTVSPost2010Prop55
280
     0
102
RTVSPost2010PropOp55
 70
     1
102
RTVSPost2010Prop56
140
1.0
102
RTVSPost2010PropOp56
 70
     1
102
RTVSPost2010Prop57
140
1.0
102
RTVSPost2010PropOp57
 70
     1
102
RTVSPropertyOp0
 70
     1
102
RTVSPropertyOp1
 70
     1
102
RTVSPropertyOp2
 70
     1
102
RTVSPropertyOp3
 70
     1
102
RTVSPropertyOp4
 70
     1
102
RTVSPropertyOp5
 70
     1
102
RTVSPropertyOp6
 70
     1
102
RTVSPropertyOp7
 70
     1
102
RTVSPropertyOp8
 70
     1
102
RTVSPropertyOp9
 70
     1
102
RTVSPropertyOp10
 70
     1
102
RTVSPropertyOp11
 70
     1
102
RTVSPropertyOp12
 70
     1
102
RTVSPropertyOp13
 70
     1
102
RTVSPropertyOp14
 70
     1
102
RTVSPropertyOp15
 70
     1
102
RTVSPropertyOp16
 70
     1
102
RTVSPropertyOp17
 70
     1
102
RTVSPropertyOp18
 70
     1
102
RTVSPropertyOp19
 70
     1
102
RTVSPropertyOp20
 70
     1
102
RTVSPropertyOp21
 70
     1
102
RTVSPropertyOp22
 70
     1
102
RTVSPropertyOp23
 70
     1
102
RTVSPropertyOp24
 70
     1
102
RTVSPropertyOp25
 70
     1
102
RTVSPropertyOp26
 70
     1
102
RTVSPropertyOp27
 70
     1
102
RTVSPropertyOp28
 70
     1
102
RTVSPropertyOp29
 70
     1
102
RTVSPropertyOp30
 70
     1
102
RTVSPropertyOp31
 70
     1
102
RTVSPropertyOp32
 70
     1
102
RTVSPropertyOp33
 70
     1
102
RTVSPropertyOp34
 70
     1
102
RTVSPropertyOp35
 70
     1
102
RTVSPropertyOp36
 70
     1
102
RTVSPropertyOp37
 70
     1
102
RTVSPropertyOp38
 70
     1
102
RTVSPropertyOp39
 70
     1
102
RTVSPropertyOp40
 70
     1
102
RTVSPropertyOp41
 70
     1
102
RTVSPropertyOp42
 70
     1
102
RTVSPropertyOp43
 70
     1
102
RTVSPropertyOp44
 70
     1
102
RTVSPropertyOp45
 70
     1
102
RTVSPropertyOp46
 70
     1
102
RTVSPropertyOp47
 70
     1
102
RTVSPropertyOp48
 70
     1
102
RTVSPropertyOp49
 70
     1
102
RTVSPropertyOp50
 70
     1
102
RTVSPropertyOp51
 70
     0
102
RTVSPropertyOp52
 70
     0
102
RTVSPropertyOp53
 70
     1
102
RTVSPropertyOp54
 70
     1
102
RTVSPropertyOp55
 70
     1
102
RTVSPropertyOp56
 70
     1
102
RTVSPropertyOp57
 70
     1
102
RTVSPropertyOp58
 70
     1
102
RTVSPropertyOp59
 70
     1
102
RTVSPropertyOp60
 70
     1
102
RTVSPropertyOp61
 70
     1
102
RTVSPropertyOp62
 70
     1
  0
XRECORD
  5
38C
102
{ACAD_REACTORS
330
38B
102
}
330
38B
100
AcDbXrecord
280
     1
102
RTVSPost2010Prop28
280
     0
102
RTVSPost2010PropOp28
 70
     1
102
RTVSPost2010Prop29
280
     1
102
RTVSPost2010PropOp29
 70
     1
102
RTVSPost2010Prop30
280
     1
102
RTVSPost2010PropOp30
 70
     1
102
RTVSPost2010Prop31
280
     0
102
RTVSPost2010PropOp31
 70
     1
102
RTVSPost2010Prop32
280
     0
102
RTVSPost2010PropOp32
 70
     1
102
RTVSPost2010Prop33
280
     0
102
RTVSPost2010PropOp33
 70
     1
102
RTVSPost2010Prop34
280
     0
102
RTVSPost2010PropOp34
 70
     1
102
RTVSPost2010Prop35
280
     0
102
RTVSPost2010PropOp35
 70
     1
102
RTVSPost2010Prop36
280
     0
102
RTVSPost2010PropOp36
 70
     1
102
RTVSPost2010Prop37
 90
       50
102
RTVSPost2010PropOp37
 70
     1
102
RTVSPost2010Prop38
140
0.0
102
RTVSPost2010PropOp38
 70
     1
102
RTVSPost2010Prop39
140
1.0
102
RTVSPost2010PropOp39
 70
     1
102
RTVSPost2010Prop40
 90
        0
102
RTVSPost2010PropOp40
 70
     1
102
RTVSPost2010Prop41ColorIndex
 90
       18
102
RTVSPost2010Prop41ColorRGB
 90
        0
102
RTVSPost2010PropOp41
 70
     1
102
RTVSPost2010Prop42
 90
       50
102
RTVSPost2010PropOp42
 70
     1
102
RTVSPost2010Prop43
 90
        3
102
RTVSPost2010PropOp43
 70
     1
102
RTVSPost2010Prop44ColorIndex
 90
        5
102
RTVSPost2010Prop44ColorRGB
 90
      255
102
RTVSPost2010PropOp44
 70
     1
102
RTVSPost2010Prop45
280
     0
102
RTVSPost2010PropOp45
 70
     1
102
RTVSPost2010Prop46
 90
       50
102
RTVSPost2010PropOp46
 70
     1
102
RTVSPost2010Prop47
 90
       50
102
RTVSPost2010PropOp47
 70
     1
102
RTVSPost2010Prop48
 90
       50
102
RTVSPost2010PropOp48
 70
     1
102
RTVSPost2010Prop49
280
     0
102
RTVSPost2010PropOp49
 70
     1
102
RTVSPost2010Prop50
 90
       50
102
RTVSPost2010PropOp50
 70
     1
102
RTVSPost2010Prop51ColorIndex
 90
      256
102
RTVSPost2010Prop51ColorRGB
 90
-16777216
102
RTVSPost2010PropOp51
 70
     0
102
RTVSPost2010Prop52
140
1.0
102
RTVSPost2010PropOp52
 70
     0
102
RTVSPost2010Prop53
 90
        2
102
RTVSPost2010PropOp53
 70
     1
102
RTVSPost2010Prop54
  1
strokes_ogs.tif
102
RTVSPost2010PropOp54
 70
     1
102
RTVSPost2010Prop55
280
     0
102
RTVSPost2010PropOp55
 70
     1
102
RTVSPost2010Prop56
140
1.0
102
RTVSPost2010PropOp56
 70
     1
102
RTVSPost2010Prop57
140
1.0
102
RTVSPost2010PropOp57
 70
     1
102
RTVSPropertyOp0
 70
     1
102
RTVSPropertyOp1
 70
     1
102
RTVSPropertyOp2
 70
     1
102
RTVSPropertyOp3
 70
     1
102
RTVSPropertyOp4
 70
     1
102
RTVSPropertyOp5
 70
     1
102
RTVSPropertyOp6
 70
     1
102
RTVSPropertyOp7
 70
     1
102
RTVSPropertyOp8
 70
     1
102
RTVSPropertyOp9
 70
     1
102
RTVSPropertyOp10
 70
     1
102
RTVSPropertyOp11
 70
     1
102
RTVSPropertyOp12
 70
     1
102
RTVSPropertyOp13
 70
     1
102
RTVSPropertyOp14
 70
     1
102
RTVSPropertyOp15
 70
     1
102
RTVSPropertyOp16
 70
     1
102
RTVSPropertyOp17
 70
     1
102
RTVSPropertyOp18
 70
     1
102
RTVSPropertyOp19
 70
     1
102
RTVSPropertyOp20
 70
     1
102
RTVSPropertyOp21
 70
     1
102
RTVSPropertyOp22
 70
     1
102
RTVSPropertyOp23
 70
     1
102
RTVSPropertyOp24
 70
     1
102
RTVSPropertyOp25
 70
     1
102
RTVSPropertyOp26
 70
     1
102
RTVSPropertyOp27
 70
     1
102
RTVSPropertyOp28
 70
     1
102
RTVSPropertyOp29
 70
     1
102
RTVSPropertyOp30
 70
     1
102
RTVSPropertyOp31
 70
     1
102
RTVSPropertyOp32
 70
     1
102
RTVSPropertyOp33
 70
     1
102
RTVSPropertyOp34
 70
     1
102
RTVSPropertyOp35
 70
     1
102
RTVSPropertyOp36
 70
     1
102
RTVSPropertyOp37
 70
     1
102
RTVSPropertyOp38
 70
     1
102
RTVSPropertyOp39
 70
     1
102
RTVSPropertyOp40
 70
     1
102
RTVSPropertyOp41
 70
     1
102
RTVSPropertyOp42
 70
     1
102
RTVSPropertyOp43
 70
     1
102
RTVSPropertyOp44
 70
     1
102
RTVSPropertyOp45
 70
     1
102
RTVSPropertyOp46
 70
     1
102
RTVSPropertyOp47
 70
     1
102
RTVSPropertyOp48
 70
     1
102
RTVSPropertyOp49
 70
     1
102
RTVSPropertyOp50
 70
     1
102
RTVSPropertyOp51
 70
     0
102
RTVSPropertyOp52
 70
     0
102
RTVSPropertyOp53
 70
     1
102
RTVSPropertyOp54
 70
     1
102
RTVSPropertyOp55
 70
     1
102
RTVSPropertyOp56
 70
     1
102
RTVSPropertyOp57
 70
     1
102
RTVSPropertyOp58
 70
     1
102
RTVSPropertyOp59
 70
     1
102
RTVSPropertyOp60
 70
     1
102
RTVSPropertyOp61
 70
     1
102
RTVSPropertyOp62
 70
     1
  0
XRECORD
  5
394
102
{ACAD_REACTORS
330
393
102
}
330
393
100
AcDbXrecord
280
     1
102
RTVSPost2010Prop28
280
     0
102
RTVSPost2010PropOp28
 70
     1
102
RTVSPost2010Prop29
280
     1
102
RTVSPost2010PropOp29
 70
     1
102
RTVSPost2010Prop30
280
     1
102
RTVSPost2010PropOp30
 70
     1
102
RTVSPost2010Prop31
280
     0
102
RTVSPost2010PropOp31
 70
     1
102
RTVSPost2010Prop32
280
     0
102
RTVSPost2010PropOp32
 70
     1
102
RTVSPost2010Prop33
280
     0
102
RTVSPost2010PropOp33
 70
     1
102
RTVSPost2010Prop34
280
     0
102
RTVSPost2010PropOp34
 70
     1
102
RTVSPost2010Prop35
280
     0
102
RTVSPost2010PropOp35
 70
     1
102
RTVSPost2010Prop36
280
     0
102
RTVSPost2010PropOp36
 70
     1
102
RTVSPost2010Prop37
 90
       50
102
RTVSPost2010PropOp37
 70
     1
102
RTVSPost2010Prop38
140
0.0
102
RTVSPost2010PropOp38
 70
     1
102
RTVSPost2010Prop39
140
1.0
102
RTVSPost2010PropOp39
 70
     1
102
RTVSPost2010Prop40
 90
        0
102
RTVSPost2010PropOp40
 70
     1
102
RTVSPost2010Prop41ColorIndex
 90
       18
102
RTVSPost2010Prop41ColorRGB
 90
        0
102
RTVSPost2010PropOp41
 70
     1
102
RTVSPost2010Prop42
 90
       50
102
RTVSPost2010PropOp42
 70
     1
102
RTVSPost2010Prop43
 90
        3
102
RTVSPost2010PropOp43
 70
     1
102
RTVSPost2010Prop44ColorIndex
 90
        5
102
RTVSPost2010Prop44ColorRGB
 90
      255
102
RTVSPost2010PropOp44
 70
     1
102
RTVSPost2010Prop45
280
     0
102
RTVSPost2010PropOp45
 70
     1
102
RTVSPost2010Prop46
 90
       50
102
RTVSPost2010PropOp46
 70
     1
102
RTVSPost2010Prop47
 90
       50
102
RTVSPost2010PropOp47
 70
     1
102
RTVSPost2010Prop48
 90
       50
102
RTVSPost2010PropOp48
 70
     1
102
RTVSPost2010Prop49
280
     0
102
RTVSPost2010PropOp49
 70
     1
102
RTVSPost2010Prop50
 90
       50
102
RTVSPost2010PropOp50
 70
     1
102
RTVSPost2010Prop51ColorIndex
 90
      256
102
RTVSPost2010Prop51ColorRGB
 90
-16777216
102
RTVSPost2010PropOp51
 70
     0
102
RTVSPost2010Prop52
140
1.0
102
RTVSPost2010PropOp52
 70
     0
102
RTVSPost2010Prop53
 90
        2
102
RTVSPost2010PropOp53
 70
     1
102
RTVSPost2010Prop54
  1
strokes_ogs.tif
102
RTVSPost2010PropOp54
 70
     1
102
RTVSPost2010Prop55
280
     0
102
RTVSPost2010PropOp55
 70
     1
102
RTVSPost2010Prop56
140
1.0
102
RTVSPost2010PropOp56
 70
     1
102
RTVSPost2010Prop57
140
1.0
102
RTVSPost2010PropOp57
 70
     1
102
RTVSPropertyOp0
 70
     1
102
RTVSPropertyOp1
 70
     1
102
RTVSPropertyOp2
 70
     1
102
RTVSPropertyOp3
 70
     1
102
RTVSPropertyOp4
 70
     1
102
RTVSPropertyOp5
 70
     1
102
RTVSPropertyOp6
 70
     1
102
RTVSPropertyOp7
 70
     1
102
RTVSPropertyOp8
 70
     1
102
RTVSPropertyOp9
 70
     1
102
RTVSPropertyOp10
 70
     1
102
RTVSPropertyOp11
 70
     1
102
RTVSPropertyOp12
 70
     1
102
RTVSPropertyOp13
 70
     1
102
RTVSPropertyOp14
 70
     1
102
RTVSPropertyOp15
 70
     1
102
RTVSPropertyOp16
 70
     1
102
RTVSPropertyOp17
 70
     1
102
RTVSPropertyOp18
 70
     1
102
RTVSPropertyOp19
 70
     1
102
RTVSPropertyOp20
 70
     1
102
RTVSPropertyOp21
 70
     1
102
RTVSPropertyOp22
 70
     1
102
RTVSPropertyOp23
 70
     1
102
RTVSPropertyOp24
 70
     1
102
RTVSPropertyOp25
 70
     1
102
RTVSPropertyOp26
 70
     1
102
RTVSPropertyOp27
 70
     1
102
RTVSPropertyOp28
 70
     1
102
RTVSPropertyOp29
 70
     1
102
RTVSPropertyOp30
 70
     1
102
RTVSPropertyOp31
 70
     1
102
RTVSPropertyOp32
 70
     1
102
RTVSPropertyOp33
 70
     1
102
RTVSPropertyOp34
 70
     1
102
RTVSPropertyOp35
 70
     1
102
RTVSPropertyOp36
 70
     1
102
RTVSPropertyOp37
 70
     1
102
RTVSPropertyOp38
 70
     1
102
RTVSPropertyOp39
 70
     1
102
RTVSPropertyOp40
 70
     1
102
RTVSPropertyOp41
 70
     1
102
RTVSPropertyOp42
 70
     1
102
RTVSPropertyOp43
 70
     1
102
RTVSPropertyOp44
 70
     1
102
RTVSPropertyOp45
 70
     1
102
RTVSPropertyOp46
 70
     1
102
RTVSPropertyOp47
 70
     1
102
RTVSPropertyOp48
 70
     1
102
RTVSPropertyOp49
 70
     1
102
RTVSPropertyOp50
 70
     1
102
RTVSPropertyOp51
 70
     0
102
RTVSPropertyOp52
 70
     0
102
RTVSPropertyOp53
 70
     1
102
RTVSPropertyOp54
 70
     1
102
RTVSPropertyOp55
 70
     1
102
RTVSPropertyOp56
 70
     1
102
RTVSPropertyOp57
 70
     1
102
RTVSPropertyOp58
 70
     1
102
RTVSPropertyOp59
 70
     1
102
RTVSPropertyOp60
 70
     1
102
RTVSPropertyOp61
 70
     1
102
RTVSPropertyOp62
 70
     1
  0
XRECORD
  5
39C
102
{ACAD_REACTORS
330
39B
102
}
330
39B
100
AcDbXrecord
280
     1
102
RTVSPost2010Prop28
280
     0
102
RTVSPost2010PropOp28
 70
     1
102
RTVSPost2010Prop29
280
     1
102
RTVSPost2010PropOp29
 70
     1
102
RTVSPost2010Prop30
280
     1
102
RTVSPost2010PropOp30
 70
     1
102
RTVSPost2010Prop31
280
     0
102
RTVSPost2010PropOp31
 70
     1
102
RTVSPost2010Prop32
280
     0
102
RTVSPost2010PropOp32
 70
     1
102
RTVSPost2010Prop33
280
     0
102
RTVSPost2010PropOp33
 70
     1
102
RTVSPost2010Prop34
280
     0
102
RTVSPost2010PropOp34
 70
     1
102
RTVSPost2010Prop35
280
     0
102
RTVSPost2010PropOp35
 70
     1
102
RTVSPost2010Prop36
280
     0
102
RTVSPost2010PropOp36
 70
     1
102
RTVSPost2010Prop37
 90
       50
102
RTVSPost2010PropOp37
 70
     1
102
RTVSPost2010Prop38
140
0.0
102
RTVSPost2010PropOp38
 70
     1
102
RTVSPost2010Prop39
140
1.0
102
RTVSPost2010PropOp39
 70
     1
102
RTVSPost2010Prop40
 90
        0
102
RTVSPost2010PropOp40
 70
     1
102
RTVSPost2010Prop41ColorIndex
 90
       18
102
RTVSPost2010Prop41ColorRGB
 90
        0
102
RTVSPost2010PropOp41
 70
     1
102
RTVSPost2010Prop42
 90
       50
102
RTVSPost2010PropOp42
 70
     1
102
RTVSPost2010Prop43
 90
        3
102
RTVSPost2010PropOp43
 70
     1
102
RTVSPost2010Prop44ColorIndex
 90
        5
102
RTVSPost2010Prop44ColorRGB
 90
      255
102
RTVSPost2010PropOp44
 70
     1
102
RTVSPost2010Prop45
280
     0
102
RTVSPost2010PropOp45
 70
     1
102
RTVSPost2010Prop46
 90
       50
102
RTVSPost2010PropOp46
 70
     1
102
RTVSPost2010Prop47
 90
       50
102
RTVSPost2010PropOp47
 70
     1
102
RTVSPost2010Prop48
 90
       50
102
RTVSPost2010PropOp48
 70
     1
102
RTVSPost2010Prop49
280
     0
102
RTVSPost2010PropOp49
 70
     1
102
RTVSPost2010Prop50
 90
       50
102
RTVSPost2010PropOp50
 70
     1
102
RTVSPost2010Prop51ColorIndex
 90
      256
102
RTVSPost2010Prop51ColorRGB
 90
-16777216
102
RTVSPost2010PropOp51
 70
     0
102
RTVSPost2010Prop52
140
1.0
102
RTVSPost2010PropOp52
 70
     0
102
RTVSPost2010Prop53
 90
        2
102
RTVSPost2010PropOp53
 70
     1
102
RTVSPost2010Prop54
  1
strokes_ogs.tif
102
RTVSPost2010PropOp54
 70
     1
102
RTVSPost2010Prop55
280
     0
102
RTVSPost2010PropOp55
 70
     1
102
RTVSPost2010Prop56
140
1.0
102
RTVSPost2010PropOp56
 70
     1
102
RTVSPost2010Prop57
140
1.0
102
RTVSPost2010PropOp57
 70
     1
102
RTVSPropertyOp0
 70
     1
102
RTVSPropertyOp1
 70
     1
102
RTVSPropertyOp2
 70
     1
102
RTVSPropertyOp3
 70
     1
102
RTVSPropertyOp4
 70
     1
102
RTVSPropertyOp5
 70
     1
102
RTVSPropertyOp6
 70
     1
102
RTVSPropertyOp7
 70
     1
102
RTVSPropertyOp8
 70
     1
102
RTVSPropertyOp9
 70
     1
102
RTVSPropertyOp10
 70
     1
102
RTVSPropertyOp11
 70
     1
102
RTVSPropertyOp12
 70
     1
102
RTVSPropertyOp13
 70
     1
102
RTVSPropertyOp14
 70
     1
102
RTVSPropertyOp15
 70
     1
102
RTVSPropertyOp16
 70
     1
102
RTVSPropertyOp17
 70
     1
102
RTVSPropertyOp18
 70
     1
102
RTVSPropertyOp19
 70
     1
102
RTVSPropertyOp20
 70
     1
102
RTVSPropertyOp21
 70
     1
102
RTVSPropertyOp22
 70
     1
102
RTVSPropertyOp23
 70
     1
102
RTVSPropertyOp24
 70
     1
102
RTVSPropertyOp25
 70
     1
102
RTVSPropertyOp26
 70
     1
102
RTVSPropertyOp27
 70
     1
102
RTVSPropertyOp28
 70
     1
102
RTVSPropertyOp29
 70
     1
102
RTVSPropertyOp30
 70
     1
102
RTVSPropertyOp31
 70
     1
102
RTVSPropertyOp32
 70
     1
102
RTVSPropertyOp33
 70
     1
102
RTVSPropertyOp34
 70
     1
102
RTVSPropertyOp35
 70
     1
102
RTVSPropertyOp36
 70
     1
102
RTVSPropertyOp37
 70
     1
102
RTVSPropertyOp38
 70
     1
102
RTVSPropertyOp39
 70
     1
102
RTVSPropertyOp40
 70
     1
102
RTVSPropertyOp41
 70
     1
102
RTVSPropertyOp42
 70
     1
102
RTVSPropertyOp43
 70
     1
102
RTVSPropertyOp44
 70
     1
102
RTVSPropertyOp45
 70
     1
102
RTVSPropertyOp46
 70
     1
102
RTVSPropertyOp47
 70
     1
102
RTVSPropertyOp48
 70
     1
102
RTVSPropertyOp49
 70
     1
102
RTVSPropertyOp50
 70
     1
102
RTVSPropertyOp51
 70
     0
102
RTVSPropertyOp52
 70
     0
102
RTVSPropertyOp53
 70
     1
102
RTVSPropertyOp54
 70
     1
102
RTVSPropertyOp55
 70
     1
102
RTVSPropertyOp56
 70
     1
102
RTVSPropertyOp57
 70
     1
102
RTVSPropertyOp58
 70
     1
102
RTVSPropertyOp59
 70
     1
102
RTVSPropertyOp60
 70
     1
102
RTVSPropertyOp61
 70
     1
102
RTVSPropertyOp62
 70
     1
  0
XRECORD
  5
390
102
{ACAD_REACTORS
330
38F
102
}
330
38F
100
AcDbXrecord
280
     1
102
RTVSPost2010Prop28
280
     0
102
RTVSPost2010PropOp28
 70
     1
102
RTVSPost2010Prop29
280
     1
102
RTVSPost2010PropOp29
 70
     1
102
RTVSPost2010Prop30
280
     1
102
RTVSPost2010PropOp30
 70
     1
102
RTVSPost2010Prop31
280
     0
102
RTVSPost2010PropOp31
 70
     1
102
RTVSPost2010Prop32
280
     0
102
RTVSPost2010PropOp32
 70
     1
102
RTVSPost2010Prop33
280
     0
102
RTVSPost2010PropOp33
 70
     1
102
RTVSPost2010Prop34
280
     0
102
RTVSPost2010PropOp34
 70
     1
102
RTVSPost2010Prop35
280
     0
102
RTVSPost2010PropOp35
 70
     1
102
RTVSPost2010Prop36
280
     0
102
RTVSPost2010PropOp36
 70
     1
102
RTVSPost2010Prop37
 90
       50
102
RTVSPost2010PropOp37
 70
     1
102
RTVSPost2010Prop38
140
0.0
102
RTVSPost2010PropOp38
 70
     1
102
RTVSPost2010Prop39
140
1.0
102
RTVSPost2010PropOp39
 70
     1
102
RTVSPost2010Prop40
 90
        0
102
RTVSPost2010PropOp40
 70
     1
102
RTVSPost2010Prop41ColorIndex
 90
       18
102
RTVSPost2010Prop41ColorRGB
 90
        0
102
RTVSPost2010PropOp41
 70
     1
102
RTVSPost2010Prop42
 90
       50
102
RTVSPost2010PropOp42
 70
     1
102
RTVSPost2010Prop43
 90
        3
102
RTVSPost2010PropOp43
 70
     1
102
RTVSPost2010Prop44ColorIndex
 90
        5
102
RTVSPost2010Prop44ColorRGB
 90
      255
102
RTVSPost2010PropOp44
 70
     1
102
RTVSPost2010Prop45
280
     0
102
RTVSPost2010PropOp45
 70
     1
102
RTVSPost2010Prop46
 90
       50
102
RTVSPost2010PropOp46
 70
     1
102
RTVSPost2010Prop47
 90
       50
102
RTVSPost2010PropOp47
 70
     1
102
RTVSPost2010Prop48
 90
       50
102
RTVSPost2010PropOp48
 70
     1
102
RTVSPost2010Prop49
280
     0
102
RTVSPost2010PropOp49
 70
     1
102
RTVSPost2010Prop50
 90
       50
102
RTVSPost2010PropOp50
 70
     1
102
RTVSPost2010Prop51ColorIndex
 90
      256
102
RTVSPost2010Prop51ColorRGB
 90
-16777216
102
RTVSPost2010PropOp51
 70
     0
102
RTVSPost2010Prop52
140
1.0
102
RTVSPost2010PropOp52
 70
     0
102
RTVSPost2010Prop53
 90
        2
102
RTVSPost2010PropOp53
 70
     1
102
RTVSPost2010Prop54
  1
strokes_ogs.tif
102
RTVSPost2010PropOp54
 70
     1
102
RTVSPost2010Prop55
280
     0
102
RTVSPost2010PropOp55
 70
     1
102
RTVSPost2010Prop56
140
1.0
102
RTVSPost2010PropOp56
 70
     1
102
RTVSPost2010Prop57
140
1.0
102
RTVSPost2010PropOp57
 70
     1
102
RTVSPropertyOp0
 70
     1
102
RTVSPropertyOp1
 70
     1
102
RTVSPropertyOp2
 70
     1
102
RTVSPropertyOp3
 70
     1
102
RTVSPropertyOp4
 70
     1
102
RTVSPropertyOp5
 70
     1
102
RTVSPropertyOp6
 70
     1
102
RTVSPropertyOp7
 70
     1
102
RTVSPropertyOp8
 70
     1
102
RTVSPropertyOp9
 70
     1
102
RTVSPropertyOp10
 70
     1
102
RTVSPropertyOp11
 70
     1
102
RTVSPropertyOp12
 70
     1
102
RTVSPropertyOp13
 70
     1
102
RTVSPropertyOp14
 70
     1
102
RTVSPropertyOp15
 70
     1
102
RTVSPropertyOp16
 70
     1
102
RTVSPropertyOp17
 70
     1
102
RTVSPropertyOp18
 70
     1
102
RTVSPropertyOp19
 70
     1
102
RTVSPropertyOp20
 70
     1
102
RTVSPropertyOp21
 70
     1
102
RTVSPropertyOp22
 70
     1
102
RTVSPropertyOp23
 70
     1
102
RTVSPropertyOp24
 70
     1
102
RTVSPropertyOp25
 70
     1
102
RTVSPropertyOp26
 70
     1
102
RTVSPropertyOp27
 70
     1
102
RTVSPropertyOp28
 70
     1
102
RTVSPropertyOp29
 70
     1
102
RTVSPropertyOp30
 70
     1
102
RTVSPropertyOp31
 70
     1
102
RTVSPropertyOp32
 70
     1
102
RTVSPropertyOp33
 70
     1
102
RTVSPropertyOp34
 70
     1
102
RTVSPropertyOp35
 70
     1
102
RTVSPropertyOp36
 70
     1
102
RTVSPropertyOp37
 70
     1
102
RTVSPropertyOp38
 70
     1
102
RTVSPropertyOp39
 70
     1
102
RTVSPropertyOp40
 70
     1
102
RTVSPropertyOp41
 70
     1
102
RTVSPropertyOp42
 70
     1
102
RTVSPropertyOp43
 70
     1
102
RTVSPropertyOp44
 70
     1
102
RTVSPropertyOp45
 70
     1
102
RTVSPropertyOp46
 70
     1
102
RTVSPropertyOp47
 70
     1
102
RTVSPropertyOp48
 70
     1
102
RTVSPropertyOp49
 70
     1
102
RTVSPropertyOp50
 70
     1
102
RTVSPropertyOp51
 70
     0
102
RTVSPropertyOp52
 70
     0
102
RTVSPropertyOp53
 70
     1
102
RTVSPropertyOp54
 70
     1
102
RTVSPropertyOp55
 70
     1
102
RTVSPropertyOp56
 70
     1
102
RTVSPropertyOp57
 70
     1
102
RTVSPropertyOp58
 70
     1
102
RTVSPropertyOp59
 70
     1
102
RTVSPropertyOp60
 70
     1
102
RTVSPropertyOp61
 70
     1
102
RTVSPropertyOp62
 70
     1
  0
XRECORD
  5
392
102
{ACAD_REACTORS
330
391
102
}
330
391
100
AcDbXrecord
280
     1
102
RTVSPost2010Prop28
280
     0
102
RTVSPost2010PropOp28
 70
     1
102
RTVSPost2010Prop29
280
     1
102
RTVSPost2010PropOp29
 70
     1
102
RTVSPost2010Prop30
280
     1
102
RTVSPost2010PropOp30
 70
     1
102
RTVSPost2010Prop31
280
     0
102
RTVSPost2010PropOp31
 70
     1
102
RTVSPost2010Prop32
280
     0
102
RTVSPost2010PropOp32
 70
     1
102
RTVSPost2010Prop33
280
     0
102
RTVSPost2010PropOp33
 70
     1
102
RTVSPost2010Prop34
280
     0
102
RTVSPost2010PropOp34
 70
     1
102
RTVSPost2010Prop35
280
     0
102
RTVSPost2010PropOp35
 70
     1
102
RTVSPost2010Prop36
280
     0
102
RTVSPost2010PropOp36
 70
     1
102
RTVSPost2010Prop37
 90
       50
102
RTVSPost2010PropOp37
 70
     1
102
RTVSPost2010Prop38
140
0.0
102
RTVSPost2010PropOp38
 70
     1
102
RTVSPost2010Prop39
140
1.0
102
RTVSPost2010PropOp39
 70
     1
102
RTVSPost2010Prop40
 90
        0
102
RTVSPost2010PropOp40
 70
     1
102
RTVSPost2010Prop41ColorIndex
 90
       18
102
RTVSPost2010Prop41ColorRGB
 90
        0
102
RTVSPost2010PropOp41
 70
     1
102
RTVSPost2010Prop42
 90
       50
102
RTVSPost2010PropOp42
 70
     1
102
RTVSPost2010Prop43
 90
        3
102
RTVSPost2010PropOp43
 70
     1
102
RTVSPost2010Prop44ColorIndex
 90
        5
102
RTVSPost2010Prop44ColorRGB
 90
      255
102
RTVSPost2010PropOp44
 70
     1
102
RTVSPost2010Prop45
280
     0
102
RTVSPost2010PropOp45
 70
     1
102
RTVSPost2010Prop46
 90
       50
102
RTVSPost2010PropOp46
 70
     1
102
RTVSPost2010Prop47
 90
       50
102
RTVSPost2010PropOp47
 70
     1
102
RTVSPost2010Prop48
 90
       50
102
RTVSPost2010PropOp48
 70
     1
102
RTVSPost2010Prop49
280
     0
102
RTVSPost2010PropOp49
 70
     1
102
RTVSPost2010Prop50
 90
       50
102
RTVSPost2010PropOp50
 70
     1
102
RTVSPost2010Prop51ColorIndex
 90
      256
102
RTVSPost2010Prop51ColorRGB
 90
-16777216
102
RTVSPost2010PropOp51
 70
     0
102
RTVSPost2010Prop52
140
1.0
102
RTVSPost2010PropOp52
 70
     0
102
RTVSPost2010Prop53
 90
        2
102
RTVSPost2010PropOp53
 70
     1
102
RTVSPost2010Prop54
  1
strokes_ogs.tif
102
RTVSPost2010PropOp54
 70
     1
102
RTVSPost2010Prop55
280
     0
102
RTVSPost2010PropOp55
 70
     1
102
RTVSPost2010Prop56
140
1.0
102
RTVSPost2010PropOp56
 70
     1
102
RTVSPost2010Prop57
140
1.0
102
RTVSPost2010PropOp57
 70
     1
102
RTVSPropertyOp0
 70
     1
102
RTVSPropertyOp1
 70
     1
102
RTVSPropertyOp2
 70
     1
102
RTVSPropertyOp3
 70
     1
102
RTVSPropertyOp4
 70
     1
102
RTVSPropertyOp5
 70
     1
102
RTVSPropertyOp6
 70
     1
102
RTVSPropertyOp7
 70
     1
102
RTVSPropertyOp8
 70
     1
102
RTVSPropertyOp9
 70
     1
102
RTVSPropertyOp10
 70
     1
102
RTVSPropertyOp11
 70
     1
102
RTVSPropertyOp12
 70
     1
102
RTVSPropertyOp13
 70
     1
102
RTVSPropertyOp14
 70
     1
102
RTVSPropertyOp15
 70
     1
102
RTVSPropertyOp16
 70
     1
102
RTVSPropertyOp17
 70
     1
102
RTVSPropertyOp18
 70
     1
102
RTVSPropertyOp19
 70
     1
102
RTVSPropertyOp20
 70
     1
102
RTVSPropertyOp21
 70
     1
102
RTVSPropertyOp22
 70
     1
102
RTVSPropertyOp23
 70
     1
102
RTVSPropertyOp24
 70
     1
102
RTVSPropertyOp25
 70
     1
102
RTVSPropertyOp26
 70
     1
102
RTVSPropertyOp27
 70
     1
102
RTVSPropertyOp28
 70
     1
102
RTVSPropertyOp29
 70
     1
102
RTVSPropertyOp30
 70
     1
102
RTVSPropertyOp31
 70
     1
102
RTVSPropertyOp32
 70
     1
102
RTVSPropertyOp33
 70
     1
102
RTVSPropertyOp34
 70
     1
102
RTVSPropertyOp35
 70
     1
102
RTVSPropertyOp36
 70
     1
102
RTVSPropertyOp37
 70
     1
102
RTVSPropertyOp38
 70
     1
102
RTVSPropertyOp39
 70
     1
102
RTVSPropertyOp40
 70
     1
102
RTVSPropertyOp41
 70
     1
102
RTVSPropertyOp42
 70
     1
102
RTVSPropertyOp43
 70
     1
102
RTVSPropertyOp44
 70
     1
102
RTVSPropertyOp45
 70
     1
102
RTVSPropertyOp46
 70
     1
102
RTVSPropertyOp47
 70
     1
102
RTVSPropertyOp48
 70
     1
102
RTVSPropertyOp49
 70
     1
102
RTVSPropertyOp50
 70
     1
102
RTVSPropertyOp51
 70
     0
102
RTVSPropertyOp52
 70
     0
102
RTVSPropertyOp53
 70
     1
102
RTVSPropertyOp54
 70
     1
102
RTVSPropertyOp55
 70
     1
102
RTVSPropertyOp56
 70
     1
102
RTVSPropertyOp57
 70
     1
102
RTVSPropertyOp58
 70
     1
102
RTVSPropertyOp59
 70
     1
102
RTVSPropertyOp60
 70
     1
102
RTVSPropertyOp61
 70
     1
102
RTVSPropertyOp62
 70
     1
  0
XRECORD
  5
3A2
102
{ACAD_REACTORS
330
3A1
102
}
330
3A1
100
AcDbXrecord
280
     1
102
RTVSPost2010Prop28
280
     0
102
RTVSPost2010PropOp28
 70
     0
102
RTVSPost2010Prop29
280
     1
102
RTVSPost2010PropOp29
 70
     0
102
RTVSPost2010Prop30
280
     1
102
RTVSPost2010PropOp30
 70
     0
102
RTVSPost2010Prop31
280
     0
102
RTVSPost2010PropOp31
 70
     0
102
RTVSPost2010Prop32
280
     0
102
RTVSPost2010PropOp32
 70
     0
102
RTVSPost2010Prop33
280
     0
102
RTVSPost2010PropOp33
 70
     0
102
RTVSPost2010Prop34
280
     0
102
RTVSPost2010PropOp34
 70
     0
102
RTVSPost2010Prop35
280
     0
102
RTVSPost2010PropOp35
 70
     0
102
RTVSPost2010Prop36
280
     0
102
RTVSPost2010PropOp36
 70
     0
102
RTVSPost2010Prop37
 90
       50
102
RTVSPost2010PropOp37
 70
     0
102
RTVSPost2010Prop38
140
0.0
102
RTVSPost2010PropOp38
 70
     0
102
RTVSPost2010Prop39
140
1.0
102
RTVSPost2010PropOp39
 70
     0
102
RTVSPost2010Prop40
 90
        0
102
RTVSPost2010PropOp40
 70
     0
102
RTVSPost2010Prop41ColorIndex
 90
       18
102
RTVSPost2010Prop41ColorRGB
 90
        0
102
RTVSPost2010PropOp41
 70
     0
102
RTVSPost2010Prop42
 90
       50
102
RTVSPost2010PropOp42
 70
     0
102
RTVSPost2010Prop43
 90
        3
102
RTVSPost2010PropOp43
 70
     0
102
RTVSPost2010Prop44ColorIndex
 90
        5
102
RTVSPost2010Prop44ColorRGB
 90
      255
102
RTVSPost2010PropOp44
 70
     0
102
RTVSPost2010Prop45
280
     0
102
RTVSPost2010PropOp45
 70
     0
102
RTVSPost2010Prop46
 90
       50
102
RTVSPost2010PropOp46
 70
     0
102
RTVSPost2010Prop47
 90
       50
102
RTVSPost2010PropOp47
 70
     0
102
RTVSPost2010Prop48
 90
       50
102
RTVSPost2010PropOp48
 70
     0
102
RTVSPost2010Prop49
280
     0
102
RTVSPost2010PropOp49
 70
     0
102
RTVSPost2010Prop50
 90
       50
102
RTVSPost2010PropOp50
 70
     0
102
RTVSPost2010Prop51ColorIndex
 90
      256
102
RTVSPost2010Prop51ColorRGB
 90
-16777216
102
RTVSPost2010PropOp51
 70
     0
102
RTVSPost2010Prop52
140
1.0
102
RTVSPost2010PropOp52
 70
     0
102
RTVSPost2010Prop53
 90
        2
102
RTVSPost2010PropOp53
 70
     0
102
RTVSPost2010Prop54
  1
strokes_ogs.tif
102
RTVSPost2010PropOp54
 70
     0
102
RTVSPost2010Prop55
280
     0
102
RTVSPost2010PropOp55
 70
     0
102
RTVSPost2010Prop56
140
1.0
102
RTVSPost2010PropOp56
 70
     0
102
RTVSPost2010Prop57
140
1.0
102
RTVSPost2010PropOp57
 70
     0
102
RTVSPropertyOp0
 70
     0
102
RTVSPropertyOp1
 70
     0
102
RTVSPropertyOp2
 70
     0
102
RTVSPropertyOp3
 70
     0
102
RTVSPropertyOp4
 70
     0
102
RTVSPropertyOp5
 70
     0
102
RTVSPropertyOp6
 70
     0
102
RTVSPropertyOp7
 70
     0
102
RTVSPropertyOp8
 70
     0
102
RTVSPropertyOp9
 70
     0
102
RTVSPropertyOp10
 70
     0
102
RTVSPropertyOp11
 70
     0
102
RTVSPropertyOp12
 70
     0
102
RTVSPropertyOp13
 70
     0
102
RTVSPropertyOp14
 70
     2
102
RTVSPropertyOp15
 70
     0
102
RTVSPropertyOp16
 70
     0
102
RTVSPropertyOp17
 70
     0
102
RTVSPropertyOp18
 70
     0
102
RTVSPropertyOp19
 70
     0
102
RTVSPropertyOp20
 70
     0
102
RTVSPropertyOp21
 70
     0
102
RTVSPropertyOp22
 70
     0
102
RTVSPropertyOp23
 70
     0
102
RTVSPropertyOp24
 70
     0
102
RTVSPropertyOp25
 70
     0
102
RTVSPropertyOp26
 70
     0
102
RTVSPropertyOp27
 70
     0
102
RTVSPropertyOp28
 70
     0
102
RTVSPropertyOp29
 70
     0
102
RTVSPropertyOp30
 70
     0
102
RTVSPropertyOp31
 70
     0
102
RTVSPropertyOp32
 70
     0
102
RTVSPropertyOp33
 70
     0
102
RTVSPropertyOp34
 70
     0
102
RTVSPropertyOp35
 70
     0
102
RTVSPropertyOp36
 70
     0
102
RTVSPropertyOp37
 70
     0
102
RTVSPropertyOp38
 70
     0
102
RTVSPropertyOp39
 70
     0
102
RTVSPropertyOp40
 70
     0
102
RTVSPropertyOp41
 70
     0
102
RTVSPropertyOp42
 70
     0
102
RTVSPropertyOp43
 70
     0
102
RTVSPropertyOp44
 70
     0
102
RTVSPropertyOp45
 70
     0
102
RTVSPropertyOp46
 70
     0
102
RTVSPropertyOp47
 70
     0
102
RTVSPropertyOp48
 70
     0
102
RTVSPropertyOp49
 70
     0
102
RTVSPropertyOp50
 70
     0
102
RTVSPropertyOp51
 70
     0
102
RTVSPropertyOp52
 70
     0
102
RTVSPropertyOp53
 70
     0
102
RTVSPropertyOp54
 70
     0
102
RTVSPropertyOp55
 70
     0
102
RTVSPropertyOp56
 70
     0
102
RTVSPropertyOp57
 70
     0
102
RTVSPropertyOp58
 70
     1
102
RTVSPropertyOp59
 70
     1
102
RTVSPropertyOp60
 70
     1
102
RTVSPropertyOp61
 70
     1
102
RTVSPropertyOp62
 70
     1
  0
XRECORD
  5
39A
102
{ACAD_REACTORS
330
399
102
}
330
399
100
AcDbXrecord
280
     1
102
RTVSPost2010Prop28
280
     0
102
RTVSPost2010PropOp28
 70
     1
102
RTVSPost2010Prop29
280
     1
102
RTVSPost2010PropOp29
 70
     1
102
RTVSPost2010Prop30
280
     1
102
RTVSPost2010PropOp30
 70
     1
102
RTVSPost2010Prop31
280
     0
102
RTVSPost2010PropOp31
 70
     1
102
RTVSPost2010Prop32
280
     0
102
RTVSPost2010PropOp32
 70
     1
102
RTVSPost2010Prop33
280
     0
102
RTVSPost2010PropOp33
 70
     1
102
RTVSPost2010Prop34
280
     0
102
RTVSPost2010PropOp34
 70
     1
102
RTVSPost2010Prop35
280
     0
102
RTVSPost2010PropOp35
 70
     1
102
RTVSPost2010Prop36
280
     0
102
RTVSPost2010PropOp36
 70
     1
102
RTVSPost2010Prop37
 90
       50
102
RTVSPost2010PropOp37
 70
     1
102
RTVSPost2010Prop38
140
0.0
102
RTVSPost2010PropOp38
 70
     1
102
RTVSPost2010Prop39
140
1.0
102
RTVSPost2010PropOp39
 70
     1
102
RTVSPost2010Prop40
 90
        0
102
RTVSPost2010PropOp40
 70
     1
102
RTVSPost2010Prop41ColorIndex
 90
       18
102
RTVSPost2010Prop41ColorRGB
 90
        0
102
RTVSPost2010PropOp41
 70
     1
102
RTVSPost2010Prop42
 90
       50
102
RTVSPost2010PropOp42
 70
     1
102
RTVSPost2010Prop43
 90
        3
102
RTVSPost2010PropOp43
 70
     1
102
RTVSPost2010Prop44ColorIndex
 90
        5
102
RTVSPost2010Prop44ColorRGB
 90
      255
102
RTVSPost2010PropOp44
 70
     1
102
RTVSPost2010Prop45
280
     0
102
RTVSPost2010PropOp45
 70
     1
102
RTVSPost2010Prop46
 90
       50
102
RTVSPost2010PropOp46
 70
     1
102
RTVSPost2010Prop47
 90
       50
102
RTVSPost2010PropOp47
 70
     1
102
RTVSPost2010Prop48
 90
       50
102
RTVSPost2010PropOp48
 70
     1
102
RTVSPost2010Prop49
280
     0
102
RTVSPost2010PropOp49
 70
     1
102
RTVSPost2010Prop50
 90
       50
102
RTVSPost2010PropOp50
 70
     1
102
RTVSPost2010Prop51ColorIndex
 90
      256
102
RTVSPost2010Prop51ColorRGB
 90
-16777216
102
RTVSPost2010PropOp51
 70
     0
102
RTVSPost2010Prop52
140
1.0
102
RTVSPost2010PropOp52
 70
     0
102
RTVSPost2010Prop53
 90
        2
102
RTVSPost2010PropOp53
 70
     1
102
RTVSPost2010Prop54
  1
strokes_ogs.tif
102
RTVSPost2010PropOp54
 70
     1
102
RTVSPost2010Prop55
280
     0
102
RTVSPost2010PropOp55
 70
     1
102
RTVSPost2010Prop56
140
1.0
102
RTVSPost2010PropOp56
 70
     1
102
RTVSPost2010Prop57
140
1.0
102
RTVSPost2010PropOp57
 70
     1
102
RTVSPropertyOp0
 70
     1
102
RTVSPropertyOp1
 70
     1
102
RTVSPropertyOp2
 70
     1
102
RTVSPropertyOp3
 70
     1
102
RTVSPropertyOp4
 70
     1
102
RTVSPropertyOp5
 70
     1
102
RTVSPropertyOp6
 70
     1
102
RTVSPropertyOp7
 70
     1
102
RTVSPropertyOp8
 70
     1
102
RTVSPropertyOp9
 70
     1
102
RTVSPropertyOp10
 70
     1
102
RTVSPropertyOp11
 70
     1
102
RTVSPropertyOp12
 70
     1
102
RTVSPropertyOp13
 70
     1
102
RTVSPropertyOp14
 70
     1
102
RTVSPropertyOp15
 70
     1
102
RTVSPropertyOp16
 70
     1
102
RTVSPropertyOp17
 70
     1
102
RTVSPropertyOp18
 70
     1
102
RTVSPropertyOp19
 70
     1
102
RTVSPropertyOp20
 70
     1
102
RTVSPropertyOp21
 70
     1
102
RTVSPropertyOp22
 70
     1
102
RTVSPropertyOp23
 70
     1
102
RTVSPropertyOp24
 70
     1
102
RTVSPropertyOp25
 70
     1
102
RTVSPropertyOp26
 70
     1
102
RTVSPropertyOp27
 70
     1
102
RTVSPropertyOp28
 70
     1
102
RTVSPropertyOp29
 70
     1
102
RTVSPropertyOp30
 70
     1
102
RTVSPropertyOp31
 70
     1
102
RTVSPropertyOp32
 70
     1
102
RTVSPropertyOp33
 70
     1
102
RTVSPropertyOp34
 70
     1
102
RTVSPropertyOp35
 70
     1
102
RTVSPropertyOp36
 70
     1
102
RTVSPropertyOp37
 70
     1
102
RTVSPropertyOp38
 70
     1
102
RTVSPropertyOp39
 70
     1
102
RTVSPropertyOp40
 70
     1
102
RTVSPropertyOp41
 70
     1
102
RTVSPropertyOp42
 70
     1
102
RTVSPropertyOp43
 70
     1
102
RTVSPropertyOp44
 70
     1
102
RTVSPropertyOp45
 70
     1
102
RTVSPropertyOp46
 70
     1
102
RTVSPropertyOp47
 70
     1
102
RTVSPropertyOp48
 70
     1
102
RTVSPropertyOp49
 70
     1
102
RTVSPropertyOp50
 70
     1
102
RTVSPropertyOp51
 70
     0
102
RTVSPropertyOp52
 70
     0
102
RTVSPropertyOp53
 70
     1
102
RTVSPropertyOp54
 70
     1
102
RTVSPropertyOp55
 70
     1
102
RTVSPropertyOp56
 70
     1
102
RTVSPropertyOp57
 70
     1
102
RTVSPropertyOp58
 70
     1
102
RTVSPropertyOp59
 70
     1
102
RTVSPropertyOp60
 70
     1
102
RTVSPropertyOp61
 70
     1
102
RTVSPropertyOp62
 70
     1
  0
XRECORD
  5
37E
102
{ACAD_REACTORS
330
37D
102
}
330
37D
100
AcDbXrecord
280
     1
102
RTVSPost2010Prop28
280
     0
102
RTVSPost2010PropOp28
 70
     1
102
RTVSPost2010Prop29
280
     1
102
RTVSPost2010PropOp29
 70
     1
102
RTVSPost2010Prop30
280
     1
102
RTVSPost2010PropOp30
 70
     1
102
RTVSPost2010Prop31
280
     0
102
RTVSPost2010PropOp31
 70
     1
102
RTVSPost2010Prop32
280
     0
102
RTVSPost2010PropOp32
 70
     1
102
RTVSPost2010Prop33
280
     0
102
RTVSPost2010PropOp33
 70
     1
102
RTVSPost2010Prop34
280
     0
102
RTVSPost2010PropOp34
 70
     1
102
RTVSPost2010Prop35
280
     0
102
RTVSPost2010PropOp35
 70
     1
102
RTVSPost2010Prop36
280
     0
102
RTVSPost2010PropOp36
 70
     1
102
RTVSPost2010Prop37
 90
       50
102
RTVSPost2010PropOp37
 70
     1
102
RTVSPost2010Prop38
140
0.0
102
RTVSPost2010PropOp38
 70
     1
102
RTVSPost2010Prop39
140
1.0
102
RTVSPost2010PropOp39
 70
     1
102
RTVSPost2010Prop40
 90
        0
102
RTVSPost2010PropOp40
 70
     1
102
RTVSPost2010Prop41ColorIndex
 90
       18
102
RTVSPost2010Prop41ColorRGB
 90
        0
102
RTVSPost2010PropOp41
 70
     1
102
RTVSPost2010Prop42
 90
       50
102
RTVSPost2010PropOp42
 70
     1
102
RTVSPost2010Prop43
 90
        3
102
RTVSPost2010PropOp43
 70
     1
102
RTVSPost2010Prop44ColorIndex
 90
        5
102
RTVSPost2010Prop44ColorRGB
 90
      255
102
RTVSPost2010PropOp44
 70
     1
102
RTVSPost2010Prop45
280
     0
102
RTVSPost2010PropOp45
 70
     1
102
RTVSPost2010Prop46
 90
       50
102
RTVSPost2010PropOp46
 70
     1
102
RTVSPost2010Prop47
 90
       50
102
RTVSPost2010PropOp47
 70
     1
102
RTVSPost2010Prop48
 90
       50
102
RTVSPost2010PropOp48
 70
     1
102
RTVSPost2010Prop49
280
     0
102
RTVSPost2010PropOp49
 70
     1
102
RTVSPost2010Prop50
 90
       50
102
RTVSPost2010PropOp50
 70
     1
102
RTVSPost2010Prop51ColorIndex
 90
      256
102
RTVSPost2010Prop51ColorRGB
 90
-16777216
102
RTVSPost2010PropOp51
 70
     0
102
RTVSPost2010Prop52
140
1.0
102
RTVSPost2010PropOp52
 70
     0
102
RTVSPost2010Prop53
 90
        2
102
RTVSPost2010PropOp53
 70
     1
102
RTVSPost2010Prop54
  1
strokes_ogs.tif
102
RTVSPost2010PropOp54
 70
     1
102
RTVSPost2010Prop55
280
     0
102
RTVSPost2010PropOp55
 70
     1
102
RTVSPost2010Prop56
140
1.0
102
RTVSPost2010PropOp56
 70
     1
102
RTVSPost2010Prop57
140
1.0
102
RTVSPost2010PropOp57
 70
     1
102
RTVSPropertyOp0
 70
     1
102
RTVSPropertyOp1
 70
     1
102
RTVSPropertyOp2
 70
     1
102
RTVSPropertyOp3
 70
     1
102
RTVSPropertyOp4
 70
     1
102
RTVSPropertyOp5
 70
     1
102
RTVSPropertyOp6
 70
     1
102
RTVSPropertyOp7
 70
     1
102
RTVSPropertyOp8
 70
     1
102
RTVSPropertyOp9
 70
     1
102
RTVSPropertyOp10
 70
     1
102
RTVSPropertyOp11
 70
     1
102
RTVSPropertyOp12
 70
     1
102
RTVSPropertyOp13
 70
     1
102
RTVSPropertyOp14
 70
     1
102
RTVSPropertyOp15
 70
     1
102
RTVSPropertyOp16
 70
     1
102
RTVSPropertyOp17
 70
     1
102
RTVSPropertyOp18
 70
     1
102
RTVSPropertyOp19
 70
     1
102
RTVSPropertyOp20
 70
     1
102
RTVSPropertyOp21
 70
     1
102
RTVSPropertyOp22
 70
     1
102
RTVSPropertyOp23
 70
     1
102
RTVSPropertyOp24
 70
     1
102
RTVSPropertyOp25
 70
     1
102
RTVSPropertyOp26
 70
     1
102
RTVSPropertyOp27
 70
     1
102
RTVSPropertyOp28
 70
     1
102
RTVSPropertyOp29
 70
     1
102
RTVSPropertyOp30
 70
     1
102
RTVSPropertyOp31
 70
     1
102
RTVSPropertyOp32
 70
     1
102
RTVSPropertyOp33
 70
     1
102
RTVSPropertyOp34
 70
     1
102
RTVSPropertyOp35
 70
     1
102
RTVSPropertyOp36
 70
     1
102
RTVSPropertyOp37
 70
     1
102
RTVSPropertyOp38
 70
     1
102
RTVSPropertyOp39
 70
     1
102
RTVSPropertyOp40
 70
     1
102
RTVSPropertyOp41
 70
     1
102
RTVSPropertyOp42
 70
     1
102
RTVSPropertyOp43
 70
     1
102
RTVSPropertyOp44
 70
     1
102
RTVSPropertyOp45
 70
     1
102
RTVSPropertyOp46
 70
     1
102
RTVSPropertyOp47
 70
     1
102
RTVSPropertyOp48
 70
     1
102
RTVSPropertyOp49
 70
     1
102
RTVSPropertyOp50
 70
     1
102
RTVSPropertyOp51
 70
     0
102
RTVSPropertyOp52
 70
     0
102
RTVSPropertyOp53
 70
     1
102
RTVSPropertyOp54
 70
     1
102
RTVSPropertyOp55
 70
     1
102
RTVSPropertyOp56
 70
     1
102
RTVSPropertyOp57
 70
     1
102
RTVSPropertyOp58
 70
     1
102
RTVSPropertyOp59
 70
     1
102
RTVSPropertyOp60
 70
     1
102
RTVSPropertyOp61
 70
     1
102
RTVSPropertyOp62
 70
     1
  0
XRECORD
  5
380
102
{ACAD_REACTORS
330
37F
102
}
330
37F
100
AcDbXrecord
280
     1
102
RTVSPost2010Prop28
280
     0
102
RTVSPost2010PropOp28
 70
     1
102
RTVSPost2010Prop29
280
     1
102
RTVSPost2010PropOp29
 70
     1
102
RTVSPost2010Prop30
280
     1
102
RTVSPost2010PropOp30
 70
     1
102
RTVSPost2010Prop31
280
     0
102
RTVSPost2010PropOp31
 70
     1
102
RTVSPost2010Prop32
280
     0
102
RTVSPost2010PropOp32
 70
     1
102
RTVSPost2010Prop33
280
     0
102
RTVSPost2010PropOp33
 70
     1
102
RTVSPost2010Prop34
280
     0
102
RTVSPost2010PropOp34
 70
     1
102
RTVSPost2010Prop35
280
     0
102
RTVSPost2010PropOp35
 70
     1
102
RTVSPost2010Prop36
280
     0
102
RTVSPost2010PropOp36
 70
     1
102
RTVSPost2010Prop37
 90
       50
102
RTVSPost2010PropOp37
 70
     1
102
RTVSPost2010Prop38
140
0.0
102
RTVSPost2010PropOp38
 70
     1
102
RTVSPost2010Prop39
140
1.0
102
RTVSPost2010PropOp39
 70
     1
102
RTVSPost2010Prop40
 90
        0
102
RTVSPost2010PropOp40
 70
     1
102
RTVSPost2010Prop41ColorIndex
 90
       18
102
RTVSPost2010Prop41ColorRGB
 90
        0
102
RTVSPost2010PropOp41
 70
     1
102
RTVSPost2010Prop42
 90
       50
102
RTVSPost2010PropOp42
 70
     1
102
RTVSPost2010Prop43
 90
        3
102
RTVSPost2010PropOp43
 70
     1
102
RTVSPost2010Prop44ColorIndex
 90
        5
102
RTVSPost2010Prop44ColorRGB
 90
      255
102
RTVSPost2010PropOp44
 70
     1
102
RTVSPost2010Prop45
280
     0
102
RTVSPost2010PropOp45
 70
     1
102
RTVSPost2010Prop46
 90
       50
102
RTVSPost2010PropOp46
 70
     1
102
RTVSPost2010Prop47
 90
       50
102
RTVSPost2010PropOp47
 70
     1
102
RTVSPost2010Prop48
 90
       50
102
RTVSPost2010PropOp48
 70
     1
102
RTVSPost2010Prop49
280
     0
102
RTVSPost2010PropOp49
 70
     1
102
RTVSPost2010Prop50
 90
       50
102
RTVSPost2010PropOp50
 70
     1
102
RTVSPost2010Prop51ColorIndex
 90
      256
102
RTVSPost2010Prop51ColorRGB
 90
-16777216
102
RTVSPost2010PropOp51
 70
     0
102
RTVSPost2010Prop52
140
1.0
102
RTVSPost2010PropOp52
 70
     0
102
RTVSPost2010Prop53
 90
        2
102
RTVSPost2010PropOp53
 70
     1
102
RTVSPost2010Prop54
  1
strokes_ogs.tif
102
RTVSPost2010PropOp54
 70
     1
102
RTVSPost2010Prop55
280
     0
102
RTVSPost2010PropOp55
 70
     1
102
RTVSPost2010Prop56
140
1.0
102
RTVSPost2010PropOp56
 70
     1
102
RTVSPost2010Prop57
140
1.0
102
RTVSPost2010PropOp57
 70
     1
102
RTVSPropertyOp0
 70
     1
102
RTVSPropertyOp1
 70
     1
102
RTVSPropertyOp2
 70
     1
102
RTVSPropertyOp3
 70
     1
102
RTVSPropertyOp4
 70
     1
102
RTVSPropertyOp5
 70
     1
102
RTVSPropertyOp6
 70
     1
102
RTVSPropertyOp7
 70
     1
102
RTVSPropertyOp8
 70
     1
102
RTVSPropertyOp9
 70
     1
102
RTVSPropertyOp10
 70
     1
102
RTVSPropertyOp11
 70
     1
102
RTVSPropertyOp12
 70
     1
102
RTVSPropertyOp13
 70
     1
102
RTVSPropertyOp14
 70
     1
102
RTVSPropertyOp15
 70
     1
102
RTVSPropertyOp16
 70
     1
102
RTVSPropertyOp17
 70
     1
102
RTVSPropertyOp18
 70
     1
102
RTVSPropertyOp19
 70
     1
102
RTVSPropertyOp20
 70
     1
102
RTVSPropertyOp21
 70
     1
102
RTVSPropertyOp22
 70
     1
102
RTVSPropertyOp23
 70
     1
102
RTVSPropertyOp24
 70
     1
102
RTVSPropertyOp25
 70
     1
102
RTVSPropertyOp26
 70
     1
102
RTVSPropertyOp27
 70
     1
102
RTVSPropertyOp28
 70
     1
102
RTVSPropertyOp29
 70
     1
102
RTVSPropertyOp30
 70
     1
102
RTVSPropertyOp31
 70
     1
102
RTVSPropertyOp32
 70
     1
102
RTVSPropertyOp33
 70
     1
102
RTVSPropertyOp34
 70
     1
102
RTVSPropertyOp35
 70
     1
102
RTVSPropertyOp36
 70
     1
102
RTVSPropertyOp37
 70
     1
102
RTVSPropertyOp38
 70
     1
102
RTVSPropertyOp39
 70
     1
102
RTVSPropertyOp40
 70
     1
102
RTVSPropertyOp41
 70
     1
102
RTVSPropertyOp42
 70
     1
102
RTVSPropertyOp43
 70
     1
102
RTVSPropertyOp44
 70
     1
102
RTVSPropertyOp45
 70
     1
102
RTVSPropertyOp46
 70
     1
102
RTVSPropertyOp47
 70
     1
102
RTVSPropertyOp48
 70
     1
102
RTVSPropertyOp49
 70
     1
102
RTVSPropertyOp50
 70
     1
102
RTVSPropertyOp51
 70
     0
102
RTVSPropertyOp52
 70
     0
102
RTVSPropertyOp53
 70
     1
102
RTVSPropertyOp54
 70
     1
102
RTVSPropertyOp55
 70
     1
102
RTVSPropertyOp56
 70
     1
102
RTVSPropertyOp57
 70
     1
102
RTVSPropertyOp58
 70
     1
102
RTVSPropertyOp59
 70
     1
102
RTVSPropertyOp60
 70
     1
102
RTVSPropertyOp61
 70
     1
102
RTVSPropertyOp62
 70
     1
  0
XRECORD
  5
382
102
{ACAD_REACTORS
330
381
102
}
330
381
100
AcDbXrecord
280
     1
102
RTVSPost2010Prop28
280
     0
102
RTVSPost2010PropOp28
 70
     1
102
RTVSPost2010Prop29
280
     1
102
RTVSPost2010PropOp29
 70
     1
102
RTVSPost2010Prop30
280
     1
102
RTVSPost2010PropOp30
 70
     1
102
RTVSPost2010Prop31
280
     0
102
RTVSPost2010PropOp31
 70
     1
102
RTVSPost2010Prop32
280
     0
102
RTVSPost2010PropOp32
 70
     1
102
RTVSPost2010Prop33
280
     0
102
RTVSPost2010PropOp33
 70
     1
102
RTVSPost2010Prop34
280
     0
102
RTVSPost2010PropOp34
 70
     1
102
RTVSPost2010Prop35
280
     0
102
RTVSPost2010PropOp35
 70
     1
102
RTVSPost2010Prop36
280
     0
102
RTVSPost2010PropOp36
 70
     1
102
RTVSPost2010Prop37
 90
       50
102
RTVSPost2010PropOp37
 70
     1
102
RTVSPost2010Prop38
140
0.0
102
RTVSPost2010PropOp38
 70
     1
102
RTVSPost2010Prop39
140
1.0
102
RTVSPost2010PropOp39
 70
     1
102
RTVSPost2010Prop40
 90
        0
102
RTVSPost2010PropOp40
 70
     1
102
RTVSPost2010Prop41ColorIndex
 90
       18
102
RTVSPost2010Prop41ColorRGB
 90
        0
102
RTVSPost2010PropOp41
 70
     1
102
RTVSPost2010Prop42
 90
       50
102
RTVSPost2010PropOp42
 70
     1
102
RTVSPost2010Prop43
 90
        3
102
RTVSPost2010PropOp43
 70
     1
102
RTVSPost2010Prop44ColorIndex
 90
        5
102
RTVSPost2010Prop44ColorRGB
 90
      255
102
RTVSPost2010PropOp44
 70
     1
102
RTVSPost2010Prop45
280
     0
102
RTVSPost2010PropOp45
 70
     1
102
RTVSPost2010Prop46
 90
       50
102
RTVSPost2010PropOp46
 70
     1
102
RTVSPost2010Prop47
 90
       50
102
RTVSPost2010PropOp47
 70
     1
102
RTVSPost2010Prop48
 90
       50
102
RTVSPost2010PropOp48
 70
     1
102
RTVSPost2010Prop49
280
     0
102
RTVSPost2010PropOp49
 70
     1
102
RTVSPost2010Prop50
 90
       50
102
RTVSPost2010PropOp50
 70
     1
102
RTVSPost2010Prop51ColorIndex
 90
      256
102
RTVSPost2010Prop51ColorRGB
 90
-16777216
102
RTVSPost2010PropOp51
 70
     0
102
RTVSPost2010Prop52
140
1.0
102
RTVSPost2010PropOp52
 70
     0
102
RTVSPost2010Prop53
 90
        2
102
RTVSPost2010PropOp53
 70
     1
102
RTVSPost2010Prop54
  1
strokes_ogs.tif
102
RTVSPost2010PropOp54
 70
     1
102
RTVSPost2010Prop55
280
     0
102
RTVSPost2010PropOp55
 70
     1
102
RTVSPost2010Prop56
140
1.0
102
RTVSPost2010PropOp56
 70
     1
102
RTVSPost2010Prop57
140
1.0
102
RTVSPost2010PropOp57
 70
     1
102
RTVSPropertyOp0
 70
     1
102
RTVSPropertyOp1
 70
     1
102
RTVSPropertyOp2
 70
     1
102
RTVSPropertyOp3
 70
     1
102
RTVSPropertyOp4
 70
     1
102
RTVSPropertyOp5
 70
     1
102
RTVSPropertyOp6
 70
     1
102
RTVSPropertyOp7
 70
     1
102
RTVSPropertyOp8
 70
     1
102
RTVSPropertyOp9
 70
     1
102
RTVSPropertyOp10
 70
     1
102
RTVSPropertyOp11
 70
     1
102
RTVSPropertyOp12
 70
     1
102
RTVSPropertyOp13
 70
     1
102
RTVSPropertyOp14
 70
     1
102
RTVSPropertyOp15
 70
     1
102
RTVSPropertyOp16
 70
     1
102
RTVSPropertyOp17
 70
     1
102
RTVSPropertyOp18
 70
     1
102
RTVSPropertyOp19
 70
     1
102
RTVSPropertyOp20
 70
     1
102
RTVSPropertyOp21
 70
     1
102
RTVSPropertyOp22
 70
     1
102
RTVSPropertyOp23
 70
     1
102
RTVSPropertyOp24
 70
     1
102
RTVSPropertyOp25
 70
     1
102
RTVSPropertyOp26
 70
     1
102
RTVSPropertyOp27
 70
     1
102
RTVSPropertyOp28
 70
     1
102
RTVSPropertyOp29
 70
     1
102
RTVSPropertyOp30
 70
     1
102
RTVSPropertyOp31
 70
     1
102
RTVSPropertyOp32
 70
     1
102
RTVSPropertyOp33
 70
     1
102
RTVSPropertyOp34
 70
     1
102
RTVSPropertyOp35
 70
     1
102
RTVSPropertyOp36
 70
     1
102
RTVSPropertyOp37
 70
     1
102
RTVSPropertyOp38
 70
     1
102
RTVSPropertyOp39
 70
     1
102
RTVSPropertyOp40
 70
     1
102
RTVSPropertyOp41
 70
     1
102
RTVSPropertyOp42
 70
     1
102
RTVSPropertyOp43
 70
     1
102
RTVSPropertyOp44
 70
     1
102
RTVSPropertyOp45
 70
     1
102
RTVSPropertyOp46
 70
     1
102
RTVSPropertyOp47
 70
     1
102
RTVSPropertyOp48
 70
     1
102
RTVSPropertyOp49
 70
     1
102
RTVSPropertyOp50
 70
     1
102
RTVSPropertyOp51
 70
     0
102
RTVSPropertyOp52
 70
     0
102
RTVSPropertyOp53
 70
     1
102
RTVSPropertyOp54
 70
     1
102
RTVSPropertyOp55
 70
     1
102
RTVSPropertyOp56
 70
     1
102
RTVSPropertyOp57
 70
     1
102
RTVSPropertyOp58
 70
     1
102
RTVSPropertyOp59
 70
     1
102
RTVSPropertyOp60
 70
     1
102
RTVSPropertyOp61
 70
     1
102
RTVSPropertyOp62
 70
     1
  0
XRECORD
  5
384
102
{ACAD_REACTORS
330
383
102
}
330
383
100
AcDbXrecord
280
     1
102
RTVSPost2010Prop28
280
     0
102
RTVSPost2010PropOp28
 70
     1
102
RTVSPost2010Prop29
280
     1
102
RTVSPost2010PropOp29
 70
     1
102
RTVSPost2010Prop30
280
     1
102
RTVSPost2010PropOp30
 70
     1
102
RTVSPost2010Prop31
280
     0
102
RTVSPost2010PropOp31
 70
     1
102
RTVSPost2010Prop32
280
     0
102
RTVSPost2010PropOp32
 70
     1
102
RTVSPost2010Prop33
280
     0
102
RTVSPost2010PropOp33
 70
     1
102
RTVSPost2010Prop34
280
     0
102
RTVSPost2010PropOp34
 70
     1
102
RTVSPost2010Prop35
280
     0
102
RTVSPost2010PropOp35
 70
     1
102
RTVSPost2010Prop36
280
     0
102
RTVSPost2010PropOp36
 70
     1
102
RTVSPost2010Prop37
 90
       50
102
RTVSPost2010PropOp37
 70
     1
102
RTVSPost2010Prop38
140
0.0
102
RTVSPost2010PropOp38
 70
     1
102
RTVSPost2010Prop39
140
1.0
102
RTVSPost2010PropOp39
 70
     1
102
RTVSPost2010Prop40
 90
        0
102
RTVSPost2010PropOp40
 70
     1
102
RTVSPost2010Prop41ColorIndex
 90
       18
102
RTVSPost2010Prop41ColorRGB
 90
        0
102
RTVSPost2010PropOp41
 70
     1
102
RTVSPost2010Prop42
 90
       50
102
RTVSPost2010PropOp42
 70
     1
102
RTVSPost2010Prop43
 90
        3
102
RTVSPost2010PropOp43
 70
     1
102
RTVSPost2010Prop44ColorIndex
 90
        5
102
RTVSPost2010Prop44ColorRGB
 90
      255
102
RTVSPost2010PropOp44
 70
     1
102
RTVSPost2010Prop45
280
     0
102
RTVSPost2010PropOp45
 70
     1
102
RTVSPost2010Prop46
 90
       50
102
RTVSPost2010PropOp46
 70
     1
102
RTVSPost2010Prop47
 90
       50
102
RTVSPost2010PropOp47
 70
     1
102
RTVSPost2010Prop48
 90
       50
102
RTVSPost2010PropOp48
 70
     1
102
RTVSPost2010Prop49
280
     0
102
RTVSPost2010PropOp49
 70
     1
102
RTVSPost2010Prop50
 90
       50
102
RTVSPost2010PropOp50
 70
     1
102
RTVSPost2010Prop51ColorIndex
 90
      256
102
RTVSPost2010Prop51ColorRGB
 90
-16777216
102
RTVSPost2010PropOp51
 70
     0
102
RTVSPost2010Prop52
140
1.0
102
RTVSPost2010PropOp52
 70
     0
102
RTVSPost2010Prop53
 90
        2
102
RTVSPost2010PropOp53
 70
     1
102
RTVSPost2010Prop54
  1
strokes_ogs.tif
102
RTVSPost2010PropOp54
 70
     1
102
RTVSPost2010Prop55
280
     0
102
RTVSPost2010PropOp55
 70
     1
102
RTVSPost2010Prop56
140
1.0
102
RTVSPost2010PropOp56
 70
     1
102
RTVSPost2010Prop57
140
1.0
102
RTVSPost2010PropOp57
 70
     1
102
RTVSPropertyOp0
 70
     1
102
RTVSPropertyOp1
 70
     1
102
RTVSPropertyOp2
 70
     1
102
RTVSPropertyOp3
 70
     1
102
RTVSPropertyOp4
 70
     1
102
RTVSPropertyOp5
 70
     1
102
RTVSPropertyOp6
 70
     1
102
RTVSPropertyOp7
 70
     1
102
RTVSPropertyOp8
 70
     1
102
RTVSPropertyOp9
 70
     1
102
RTVSPropertyOp10
 70
     1
102
RTVSPropertyOp11
 70
     1
102
RTVSPropertyOp12
 70
     1
102
RTVSPropertyOp13
 70
     1
102
RTVSPropertyOp14
 70
     1
102
RTVSPropertyOp15
 70
     1
102
RTVSPropertyOp16
 70
     1
102
RTVSPropertyOp17
 70
     1
102
RTVSPropertyOp18
 70
     1
102
RTVSPropertyOp19
 70
     1
102
RTVSPropertyOp20
 70
     1
102
RTVSPropertyOp21
 70
     1
102
RTVSPropertyOp22
 70
     1
102
RTVSPropertyOp23
 70
     1
102
RTVSPropertyOp24
 70
     1
102
RTVSPropertyOp25
 70
     1
102
RTVSPropertyOp26
 70
     1
102
RTVSPropertyOp27
 70
     1
102
RTVSPropertyOp28
 70
     1
102
RTVSPropertyOp29
 70
     1
102
RTVSPropertyOp30
 70
     1
102
RTVSPropertyOp31
 70
     1
102
RTVSPropertyOp32
 70
     1
102
RTVSPropertyOp33
 70
     1
102
RTVSPropertyOp34
 70
     1
102
RTVSPropertyOp35
 70
     1
102
RTVSPropertyOp36
 70
     1
102
RTVSPropertyOp37
 70
     1
102
RTVSPropertyOp38
 70
     1
102
RTVSPropertyOp39
 70
     1
102
RTVSPropertyOp40
 70
     1
102
RTVSPropertyOp41
 70
     1
102
RTVSPropertyOp42
 70
     1
102
RTVSPropertyOp43
 70
     1
102
RTVSPropertyOp44
 70
     1
102
RTVSPropertyOp45
 70
     1
102
RTVSPropertyOp46
 70
     1
102
RTVSPropertyOp47
 70
     1
102
RTVSPropertyOp48
 70
     1
102
RTVSPropertyOp49
 70
     1
102
RTVSPropertyOp50
 70
     1
102
RTVSPropertyOp51
 70
     0
102
RTVSPropertyOp52
 70
     0
102
RTVSPropertyOp53
 70
     1
102
RTVSPropertyOp54
 70
     1
102
RTVSPropertyOp55
 70
     1
102
RTVSPropertyOp56
 70
     1
102
RTVSPropertyOp57
 70
     1
102
RTVSPropertyOp58
 70
     1
102
RTVSPropertyOp59
 70
     1
102
RTVSPropertyOp60
 70
     1
102
RTVSPropertyOp61
 70
     1
102
RTVSPropertyOp62
 70
     1
  0
XRECORD
  5
38A
102
{ACAD_REACTORS
330
389
102
}
330
389
100
AcDbXrecord
280
     1
102
RTVSPost2010Prop28
280
     0
102
RTVSPost2010PropOp28
 70
     1
102
RTVSPost2010Prop29
280
     1
102
RTVSPost2010PropOp29
 70
     1
102
RTVSPost2010Prop30
280
     1
102
RTVSPost2010PropOp30
 70
     1
102
RTVSPost2010Prop31
280
     0
102
RTVSPost2010PropOp31
 70
     1
102
RTVSPost2010Prop32
280
     0
102
RTVSPost2010PropOp32
 70
     1
102
RTVSPost2010Prop33
280
     0
102
RTVSPost2010PropOp33
 70
     1
102
RTVSPost2010Prop34
280
     0
102
RTVSPost2010PropOp34
 70
     1
102
RTVSPost2010Prop35
280
     0
102
RTVSPost2010PropOp35
 70
     1
102
RTVSPost2010Prop36
280
     0
102
RTVSPost2010PropOp36
 70
     1
102
RTVSPost2010Prop37
 90
       50
102
RTVSPost2010PropOp37
 70
     1
102
RTVSPost2010Prop38
140
0.0
102
RTVSPost2010PropOp38
 70
     1
102
RTVSPost2010Prop39
140
1.0
102
RTVSPost2010PropOp39
 70
     1
102
RTVSPost2010Prop40
 90
        0
102
RTVSPost2010PropOp40
 70
     1
102
RTVSPost2010Prop41ColorIndex
 90
       18
102
RTVSPost2010Prop41ColorRGB
 90
        0
102
RTVSPost2010PropOp41
 70
     1
102
RTVSPost2010Prop42
 90
       50
102
RTVSPost2010PropOp42
 70
     1
102
RTVSPost2010Prop43
 90
        3
102
RTVSPost2010PropOp43
 70
     1
102
RTVSPost2010Prop44ColorIndex
 90
        5
102
RTVSPost2010Prop44ColorRGB
 90
      255
102
RTVSPost2010PropOp44
 70
     1
102
RTVSPost2010Prop45
280
     0
102
RTVSPost2010PropOp45
 70
     1
102
RTVSPost2010Prop46
 90
       50
102
RTVSPost2010PropOp46
 70
     1
102
RTVSPost2010Prop47
 90
       50
102
RTVSPost2010PropOp47
 70
     1
102
RTVSPost2010Prop48
 90
       50
102
RTVSPost2010PropOp48
 70
     1
102
RTVSPost2010Prop49
280
     0
102
RTVSPost2010PropOp49
 70
     1
102
RTVSPost2010Prop50
 90
       50
102
RTVSPost2010PropOp50
 70
     1
102
RTVSPost2010Prop51ColorIndex
 90
      256
102
RTVSPost2010Prop51ColorRGB
 90
-16777216
102
RTVSPost2010PropOp51
 70
     0
102
RTVSPost2010Prop52
140
1.0
102
RTVSPost2010PropOp52
 70
     0
102
RTVSPost2010Prop53
 90
        2
102
RTVSPost2010PropOp53
 70
     1
102
RTVSPost2010Prop54
  1
strokes_ogs.tif
102
RTVSPost2010PropOp54
 70
     1
102
RTVSPost2010Prop55
280
     0
102
RTVSPost2010PropOp55
 70
     1
102
RTVSPost2010Prop56
140
1.0
102
RTVSPost2010PropOp56
 70
     1
102
RTVSPost2010Prop57
140
1.0
102
RTVSPost2010PropOp57
 70
     1
102
RTVSPropertyOp0
 70
     1
102
RTVSPropertyOp1
 70
     1
102
RTVSPropertyOp2
 70
     1
102
RTVSPropertyOp3
 70
     1
102
RTVSPropertyOp4
 70
     1
102
RTVSPropertyOp5
 70
     1
102
RTVSPropertyOp6
 70
     1
102
RTVSPropertyOp7
 70
     1
102
RTVSPropertyOp8
 70
     1
102
RTVSPropertyOp9
 70
     1
102
RTVSPropertyOp10
 70
     1
102
RTVSPropertyOp11
 70
     1
102
RTVSPropertyOp12
 70
     1
102
RTVSPropertyOp13
 70
     1
102
RTVSPropertyOp14
 70
     1
102
RTVSPropertyOp15
 70
     1
102
RTVSPropertyOp16
 70
     1
102
RTVSPropertyOp17
 70
     1
102
RTVSPropertyOp18
 70
     1
102
RTVSPropertyOp19
 70
     1
102
RTVSPropertyOp20
 70
     1
102
RTVSPropertyOp21
 70
     1
102
RTVSPropertyOp22
 70
     1
102
RTVSPropertyOp23
 70
     1
102
RTVSPropertyOp24
 70
     1
102
RTVSPropertyOp25
 70
     1
102
RTVSPropertyOp26
 70
     1
102
RTVSPropertyOp27
 70
     1
102
RTVSPropertyOp28
 70
     1
102
RTVSPropertyOp29
 70
     1
102
RTVSPropertyOp30
 70
     1
102
RTVSPropertyOp31
 70
     1
102
RTVSPropertyOp32
 70
     1
102
RTVSPropertyOp33
 70
     1
102
RTVSPropertyOp34
 70
     1
102
RTVSPropertyOp35
 70
     1
102
RTVSPropertyOp36
 70
     1
102
RTVSPropertyOp37
 70
     1
102
RTVSPropertyOp38
 70
     1
102
RTVSPropertyOp39
 70
     1
102
RTVSPropertyOp40
 70
     1
102
RTVSPropertyOp41
 70
     1
102
RTVSPropertyOp42
 70
     1
102
RTVSPropertyOp43
 70
     1
102
RTVSPropertyOp44
 70
     1
102
RTVSPropertyOp45
 70
     1
102
RTVSPropertyOp46
 70
     1
102
RTVSPropertyOp47
 70
     1
102
RTVSPropertyOp48
 70
     1
102
RTVSPropertyOp49
 70
     1
102
RTVSPropertyOp50
 70
     1
102
RTVSPropertyOp51
 70
     0
102
RTVSPropertyOp52
 70
     0
102
RTVSPropertyOp53
 70
     1
102
RTVSPropertyOp54
 70
     1
102
RTVSPropertyOp55
 70
     1
102
RTVSPropertyOp56
 70
     1
102
RTVSPropertyOp57
 70
     1
102
RTVSPropertyOp58
 70
     1
102
RTVSPropertyOp59
 70
     1
102
RTVSPropertyOp60
 70
     1
102
RTVSPropertyOp61
 70
     1
102
RTVSPropertyOp62
 70
     1
  0
XRECORD
  5
39E
102
{ACAD_REACTORS
330
39D
102
}
330
39D
100
AcDbXrecord
280
     1
102
RTVSPost2010Prop28
280
     0
102
RTVSPost2010PropOp28
 70
     0
102
RTVSPost2010Prop29
280
     1
102
RTVSPost2010PropOp29
 70
     0
102
RTVSPost2010Prop30
280
     1
102
RTVSPost2010PropOp30
 70
     0
102
RTVSPost2010Prop31
280
     0
102
RTVSPost2010PropOp31
 70
     0
102
RTVSPost2010Prop32
280
     0
102
RTVSPost2010PropOp32
 70
     0
102
RTVSPost2010Prop33
280
     0
102
RTVSPost2010PropOp33
 70
     0
102
RTVSPost2010Prop34
280
     0
102
RTVSPost2010PropOp34
 70
     0
102
RTVSPost2010Prop35
280
     0
102
RTVSPost2010PropOp35
 70
     0
102
RTVSPost2010Prop36
280
     0
102
RTVSPost2010PropOp36
 70
     0
102
RTVSPost2010Prop37
 90
       50
102
RTVSPost2010PropOp37
 70
     0
102
RTVSPost2010Prop38
140
0.0
102
RTVSPost2010PropOp38
 70
     0
102
RTVSPost2010Prop39
140
1.0
102
RTVSPost2010PropOp39
 70
     0
102
RTVSPost2010Prop40
 90
        0
102
RTVSPost2010PropOp40
 70
     0
102
RTVSPost2010Prop41ColorIndex
 90
       18
102
RTVSPost2010Prop41ColorRGB
 90
        0
102
RTVSPost2010PropOp41
 70
     0
102
RTVSPost2010Prop42
 90
       50
102
RTVSPost2010PropOp42
 70
     0
102
RTVSPost2010Prop43
 90
        3
102
RTVSPost2010PropOp43
 70
     0
102
RTVSPost2010Prop44ColorIndex
 90
        5
102
RTVSPost2010Prop44ColorRGB
 90
      255
102
RTVSPost2010PropOp44
 70
     0
102
RTVSPost2010Prop45
280
     0
102
RTVSPost2010PropOp45
 70
     0
102
RTVSPost2010Prop46
 90
       50
102
RTVSPost2010PropOp46
 70
     0
102
RTVSPost2010Prop47
 90
       50
102
RTVSPost2010PropOp47
 70
     0
102
RTVSPost2010Prop48
 90
       50
102
RTVSPost2010PropOp48
 70
     0
102
RTVSPost2010Prop49
280
     0
102
RTVSPost2010PropOp49
 70
     0
102
RTVSPost2010Prop50
 90
       50
102
RTVSPost2010PropOp50
 70
     0
102
RTVSPost2010Prop51ColorIndex
 90
      256
102
RTVSPost2010Prop51ColorRGB
 90
-16777216
102
RTVSPost2010PropOp51
 70
     0
102
RTVSPost2010Prop52
140
1.0
102
RTVSPost2010PropOp52
 70
     0
102
RTVSPost2010Prop53
 90
        2
102
RTVSPost2010PropOp53
 70
     0
102
RTVSPost2010Prop54
  1
strokes_ogs.tif
102
RTVSPost2010PropOp54
 70
     0
102
RTVSPost2010Prop55
280
     0
102
RTVSPost2010PropOp55
 70
     0
102
RTVSPost2010Prop56
140
1.0
102
RTVSPost2010PropOp56
 70
     0
102
RTVSPost2010Prop57
140
1.0
102
RTVSPost2010PropOp57
 70
     0
102
RTVSPropertyOp0
 70
     0
102
RTVSPropertyOp1
 70
     0
102
RTVSPropertyOp2
 70
     0
102
RTVSPropertyOp3
 70
     0
102
RTVSPropertyOp4
 70
     0
102
RTVSPropertyOp5
 70
     0
102
RTVSPropertyOp6
 70
     0
102
RTVSPropertyOp7
 70
     0
102
RTVSPropertyOp8
 70
     0
102
RTVSPropertyOp9
 70
     0
102
RTVSPropertyOp10
 70
     0
102
RTVSPropertyOp11
 70
     0
102
RTVSPropertyOp12
 70
     0
102
RTVSPropertyOp13
 70
     0
102
RTVSPropertyOp14
 70
     2
102
RTVSPropertyOp15
 70
     0
102
RTVSPropertyOp16
 70
     0
102
RTVSPropertyOp17
 70
     0
102
RTVSPropertyOp18
 70
     0
102
RTVSPropertyOp19
 70
     0
102
RTVSPropertyOp20
 70
     0
102
RTVSPropertyOp21
 70
     0
102
RTVSPropertyOp22
 70
     0
102
RTVSPropertyOp23
 70
     0
102
RTVSPropertyOp24
 70
     0
102
RTVSPropertyOp25
 70
     0
102
RTVSPropertyOp26
 70
     0
102
RTVSPropertyOp27
 70
     0
102
RTVSPropertyOp28
 70
     0
102
RTVSPropertyOp29
 70
     0
102
RTVSPropertyOp30
 70
     0
102
RTVSPropertyOp31
 70
     0
102
RTVSPropertyOp32
 70
     0
102
RTVSPropertyOp33
 70
     0
102
RTVSPropertyOp34
 70
     0
102
RTVSPropertyOp35
 70
     0
102
RTVSPropertyOp36
 70
     0
102
RTVSPropertyOp37
 70
     0
102
RTVSPropertyOp38
 70
     0
102
RTVSPropertyOp39
 70
     0
102
RTVSPropertyOp40
 70
     0
102
RTVSPropertyOp41
 70
     0
102
RTVSPropertyOp42
 70
     0
102
RTVSPropertyOp43
 70
     0
102
RTVSPropertyOp44
 70
     0
102
RTVSPropertyOp45
 70
     0
102
RTVSPropertyOp46
 70
     0
102
RTVSPropertyOp47
 70
     0
102
RTVSPropertyOp48
 70
     0
102
RTVSPropertyOp49
 70
     0
102
RTVSPropertyOp50
 70
     0
102
RTVSPropertyOp51
 70
     0
102
RTVSPropertyOp52
 70
     0
102
RTVSPropertyOp53
 70
     0
102
RTVSPropertyOp54
 70
     0
102
RTVSPropertyOp55
 70
     0
102
RTVSPropertyOp56
 70
     0
102
RTVSPropertyOp57
 70
     0
102
RTVSPropertyOp58
 70
     1
102
RTVSPropertyOp59
 70
     1
102
RTVSPropertyOp60
 70
     1
102
RTVSPropertyOp61
 70
     1
102
RTVSPropertyOp62
 70
     1
  0
XRECORD
  5
398
102
{ACAD_REACTORS
330
397
102
}
330
397
100
AcDbXrecord
280
     1
102
RTVSPost2010Prop28
280
     0
102
RTVSPost2010PropOp28
 70
     1
102
RTVSPost2010Prop29
280
     1
102
RTVSPost2010PropOp29
 70
     1
102
RTVSPost2010Prop30
280
     1
102
RTVSPost2010PropOp30
 70
     1
102
RTVSPost2010Prop31
280
     0
102
RTVSPost2010PropOp31
 70
     1
102
RTVSPost2010Prop32
280
     0
102
RTVSPost2010PropOp32
 70
     1
102
RTVSPost2010Prop33
280
     0
102
RTVSPost2010PropOp33
 70
     1
102
RTVSPost2010Prop34
280
     0
102
RTVSPost2010PropOp34
 70
     1
102
RTVSPost2010Prop35
280
     0
102
RTVSPost2010PropOp35
 70
     1
102
RTVSPost2010Prop36
280
     0
102
RTVSPost2010PropOp36
 70
     1
102
RTVSPost2010Prop37
 90
       50
102
RTVSPost2010PropOp37
 70
     1
102
RTVSPost2010Prop38
140
0.0
102
RTVSPost2010PropOp38
 70
     1
102
RTVSPost2010Prop39
140
1.0
102
RTVSPost2010PropOp39
 70
     1
102
RTVSPost2010Prop40
 90
        0
102
RTVSPost2010PropOp40
 70
     1
102
RTVSPost2010Prop41ColorIndex
 90
       18
102
RTVSPost2010Prop41ColorRGB
 90
        0
102
RTVSPost2010PropOp41
 70
     1
102
RTVSPost2010Prop42
 90
       50
102
RTVSPost2010PropOp42
 70
     1
102
RTVSPost2010Prop43
 90
        3
102
RTVSPost2010PropOp43
 70
     1
102
RTVSPost2010Prop44ColorIndex
 90
        5
102
RTVSPost2010Prop44ColorRGB
 90
      255
102
RTVSPost2010PropOp44
 70
     1
102
RTVSPost2010Prop45
280
     0
102
RTVSPost2010PropOp45
 70
     1
102
RTVSPost2010Prop46
 90
       50
102
RTVSPost2010PropOp46
 70
     1
102
RTVSPost2010Prop47
 90
       50
102
RTVSPost2010PropOp47
 70
     1
102
RTVSPost2010Prop48
 90
       50
102
RTVSPost2010PropOp48
 70
     1
102
RTVSPost2010Prop49
280
     0
102
RTVSPost2010PropOp49
 70
     1
102
RTVSPost2010Prop50
 90
       50
102
RTVSPost2010PropOp50
 70
     1
102
RTVSPost2010Prop51ColorIndex
 90
      256
102
RTVSPost2010Prop51ColorRGB
 90
-16777216
102
RTVSPost2010PropOp51
 70
     0
102
RTVSPost2010Prop52
140
1.0
102
RTVSPost2010PropOp52
 70
     0
102
RTVSPost2010Prop53
 90
        2
102
RTVSPost2010PropOp53
 70
     1
102
RTVSPost2010Prop54
  1
strokes_ogs.tif
102
RTVSPost2010PropOp54
 70
     1
102
RTVSPost2010Prop55
280
     0
102
RTVSPost2010PropOp55
 70
     1
102
RTVSPost2010Prop56
140
1.0
102
RTVSPost2010PropOp56
 70
     1
102
RTVSPost2010Prop57
140
1.0
102
RTVSPost2010PropOp57
 70
     1
102
RTVSPropertyOp0
 70
     1
102
RTVSPropertyOp1
 70
     1
102
RTVSPropertyOp2
 70
     1
102
RTVSPropertyOp3
 70
     1
102
RTVSPropertyOp4
 70
     1
102
RTVSPropertyOp5
 70
     1
102
RTVSPropertyOp6
 70
     1
102
RTVSPropertyOp7
 70
     1
102
RTVSPropertyOp8
 70
     1
102
RTVSPropertyOp9
 70
     1
102
RTVSPropertyOp10
 70
     1
102
RTVSPropertyOp11
 70
     1
102
RTVSPropertyOp12
 70
     1
102
RTVSPropertyOp13
 70
     1
102
RTVSPropertyOp14
 70
     1
102
RTVSPropertyOp15
 70
     1
102
RTVSPropertyOp16
 70
     1
102
RTVSPropertyOp17
 70
     1
102
RTVSPropertyOp18
 70
     1
102
RTVSPropertyOp19
 70
     1
102
RTVSPropertyOp20
 70
     1
102
RTVSPropertyOp21
 70
     1
102
RTVSPropertyOp22
 70
     1
102
RTVSPropertyOp23
 70
     1
102
RTVSPropertyOp24
 70
     1
102
RTVSPropertyOp25
 70
     1
102
RTVSPropertyOp26
 70
     1
102
RTVSPropertyOp27
 70
     1
102
RTVSPropertyOp28
 70
     1
102
RTVSPropertyOp29
 70
     1
102
RTVSPropertyOp30
 70
     1
102
RTVSPropertyOp31
 70
     1
102
RTVSPropertyOp32
 70
     1
102
RTVSPropertyOp33
 70
     1
102
RTVSPropertyOp34
 70
     1
102
RTVSPropertyOp35
 70
     1
102
RTVSPropertyOp36
 70
     1
102
RTVSPropertyOp37
 70
     1
102
RTVSPropertyOp38
 70
     1
102
RTVSPropertyOp39
 70
     1
102
RTVSPropertyOp40
 70
     1
102
RTVSPropertyOp41
 70
     1
102
RTVSPropertyOp42
 70
     1
102
RTVSPropertyOp43
 70
     1
102
RTVSPropertyOp44
 70
     1
102
RTVSPropertyOp45
 70
     1
102
RTVSPropertyOp46
 70
     1
102
RTVSPropertyOp47
 70
     1
102
RTVSPropertyOp48
 70
     1
102
RTVSPropertyOp49
 70
     1
102
RTVSPropertyOp50
 70
     1
102
RTVSPropertyOp51
 70
     0
102
RTVSPropertyOp52
 70
     0
102
RTVSPropertyOp53
 70
     1
102
RTVSPropertyOp54
 70
     1
102
RTVSPropertyOp55
 70
     1
102
RTVSPropertyOp56
 70
     1
102
RTVSPropertyOp57
 70
     1
102
RTVSPropertyOp58
 70
     1
102
RTVSPropertyOp59
 70
     1
102
RTVSPropertyOp60
 70
     1
102
RTVSPropertyOp61
 70
     1
102
RTVSPropertyOp62
 70
     1
  0
XRECORD
  5
3A0
102
{ACAD_REACTORS
330
39F
102
}
330
39F
100
AcDbXrecord
280
     1
102
RTVSPost2010Prop28
280
     0
102
RTVSPost2010PropOp28
 70
     0
102
RTVSPost2010Prop29
280
     1
102
RTVSPost2010PropOp29
 70
     0
102
RTVSPost2010Prop30
280
     1
102
RTVSPost2010PropOp30
 70
     0
102
RTVSPost2010Prop31
280
     0
102
RTVSPost2010PropOp31
 70
     0
102
RTVSPost2010Prop32
280
     0
102
RTVSPost2010PropOp32
 70
     0
102
RTVSPost2010Prop33
280
     0
102
RTVSPost2010PropOp33
 70
     0
102
RTVSPost2010Prop34
280
     0
102
RTVSPost2010PropOp34
 70
     0
102
RTVSPost2010Prop35
280
     0
102
RTVSPost2010PropOp35
 70
     0
102
RTVSPost2010Prop36
280
     0
102
RTVSPost2010PropOp36
 70
     0
102
RTVSPost2010Prop37
 90
       50
102
RTVSPost2010PropOp37
 70
     0
102
RTVSPost2010Prop38
140
0.0
102
RTVSPost2010PropOp38
 70
     0
102
RTVSPost2010Prop39
140
1.0
102
RTVSPost2010PropOp39
 70
     0
102
RTVSPost2010Prop40
 90
        0
102
RTVSPost2010PropOp40
 70
     0
102
RTVSPost2010Prop41ColorIndex
 90
       18
102
RTVSPost2010Prop41ColorRGB
 90
        0
102
RTVSPost2010PropOp41
 70
     0
102
RTVSPost2010Prop42
 90
       50
102
RTVSPost2010PropOp42
 70
     0
102
RTVSPost2010Prop43
 90
        3
102
RTVSPost2010PropOp43
 70
     0
102
RTVSPost2010Prop44ColorIndex
 90
        5
102
RTVSPost2010Prop44ColorRGB
 90
      255
102
RTVSPost2010PropOp44
 70
     0
102
RTVSPost2010Prop45
280
     0
102
RTVSPost2010PropOp45
 70
     0
102
RTVSPost2010Prop46
 90
       50
102
RTVSPost2010PropOp46
 70
     0
102
RTVSPost2010Prop47
 90
       50
102
RTVSPost2010PropOp47
 70
     0
102
RTVSPost2010Prop48
 90
       50
102
RTVSPost2010PropOp48
 70
     0
102
RTVSPost2010Prop49
280
     0
102
RTVSPost2010PropOp49
 70
     0
102
RTVSPost2010Prop50
 90
       50
102
RTVSPost2010PropOp50
 70
     0
102
RTVSPost2010Prop51ColorIndex
 90
      256
102
RTVSPost2010Prop51ColorRGB
 90
-16777216
102
RTVSPost2010PropOp51
 70
     0
102
RTVSPost2010Prop52
140
1.0
102
RTVSPost2010PropOp52
 70
     0
102
RTVSPost2010Prop53
 90
        2
102
RTVSPost2010PropOp53
 70
     0
102
RTVSPost2010Prop54
  1
strokes_ogs.tif
102
RTVSPost2010PropOp54
 70
     0
102
RTVSPost2010Prop55
280
     0
102
RTVSPost2010PropOp55
 70
     0
102
RTVSPost2010Prop56
140
1.0
102
RTVSPost2010PropOp56
 70
     0
102
RTVSPost2010Prop57
140
1.0
102
RTVSPost2010PropOp57
 70
     0
102
RTVSPropertyOp0
 70
     0
102
RTVSPropertyOp1
 70
     0
102
RTVSPropertyOp2
 70
     0
102
RTVSPropertyOp3
 70
     0
102
RTVSPropertyOp4
 70
     0
102
RTVSPropertyOp5
 70
     0
102
RTVSPropertyOp6
 70
     0
102
RTVSPropertyOp7
 70
     0
102
RTVSPropertyOp8
 70
     0
102
RTVSPropertyOp9
 70
     0
102
RTVSPropertyOp10
 70
     0
102
RTVSPropertyOp11
 70
     0
102
RTVSPropertyOp12
 70
     0
102
RTVSPropertyOp13
 70
     0
102
RTVSPropertyOp14
 70
     2
102
RTVSPropertyOp15
 70
     0
102
RTVSPropertyOp16
 70
     0
102
RTVSPropertyOp17
 70
     0
102
RTVSPropertyOp18
 70
     0
102
RTVSPropertyOp19
 70
     0
102
RTVSPropertyOp20
 70
     0
102
RTVSPropertyOp21
 70
     0
102
RTVSPropertyOp22
 70
     0
102
RTVSPropertyOp23
 70
     0
102
RTVSPropertyOp24
 70
     0
102
RTVSPropertyOp25
 70
     0
102
RTVSPropertyOp26
 70
     0
102
RTVSPropertyOp27
 70
     0
102
RTVSPropertyOp28
 70
     0
102
RTVSPropertyOp29
 70
     0
102
RTVSPropertyOp30
 70
     0
102
RTVSPropertyOp31
 70
     0
102
RTVSPropertyOp32
 70
     0
102
RTVSPropertyOp33
 70
     0
102
RTVSPropertyOp34
 70
     0
102
RTVSPropertyOp35
 70
     0
102
RTVSPropertyOp36
 70
     0
102
RTVSPropertyOp37
 70
     0
102
RTVSPropertyOp38
 70
     0
102
RTVSPropertyOp39
 70
     0
102
RTVSPropertyOp40
 70
     0
102
RTVSPropertyOp41
 70
     0
102
RTVSPropertyOp42
 70
     0
102
RTVSPropertyOp43
 70
     0
102
RTVSPropertyOp44
 70
     0
102
RTVSPropertyOp45
 70
     0
102
RTVSPropertyOp46
 70
     0
102
RTVSPropertyOp47
 70
     0
102
RTVSPropertyOp48
 70
     0
102
RTVSPropertyOp49
 70
     0
102
RTVSPropertyOp50
 70
     0
102
RTVSPropertyOp51
 70
     0
102
RTVSPropertyOp52
 70
     0
102
RTVSPropertyOp53
 70
     0
102
RTVSPropertyOp54
 70
     0
102
RTVSPropertyOp55
 70
     0
102
RTVSPropertyOp56
 70
     0
102
RTVSPropertyOp57
 70
     0
102
RTVSPropertyOp58
 70
     1
102
RTVSPropertyOp59
 70
     1
102
RTVSPropertyOp60
 70
     1
102
RTVSPropertyOp61
 70
     1
102
RTVSPropertyOp62
 70
     1
  0
XRECORD
  5
38E
102
{ACAD_REACTORS
330
38D
102
}
330
38D
100
AcDbXrecord
280
     1
102
RTVSPost2010Prop28
280
     0
102
RTVSPost2010PropOp28
 70
     1
102
RTVSPost2010Prop29
280
     1
102
RTVSPost2010PropOp29
 70
     1
102
RTVSPost2010Prop30
280
     1
102
RTVSPost2010PropOp30
 70
     1
102
RTVSPost2010Prop31
280
     0
102
RTVSPost2010PropOp31
 70
     1
102
RTVSPost2010Prop32
280
     0
102
RTVSPost2010PropOp32
 70
     1
102
RTVSPost2010Prop33
280
     0
102
RTVSPost2010PropOp33
 70
     1
102
RTVSPost2010Prop34
280
     0
102
RTVSPost2010PropOp34
 70
     1
102
RTVSPost2010Prop35
280
     0
102
RTVSPost2010PropOp35
 70
     1
102
RTVSPost2010Prop36
280
     0
102
RTVSPost2010PropOp36
 70
     1
102
RTVSPost2010Prop37
 90
       50
102
RTVSPost2010PropOp37
 70
     1
102
RTVSPost2010Prop38
140
0.0
102
RTVSPost2010PropOp38
 70
     1
102
RTVSPost2010Prop39
140
1.0
102
RTVSPost2010PropOp39
 70
     1
102
RTVSPost2010Prop40
 90
        0
102
RTVSPost2010PropOp40
 70
     1
102
RTVSPost2010Prop41ColorIndex
 90
       18
102
RTVSPost2010Prop41ColorRGB
 90
        0
102
RTVSPost2010PropOp41
 70
     1
102
RTVSPost2010Prop42
 90
       50
102
RTVSPost2010PropOp42
 70
     1
102
RTVSPost2010Prop43
 90
        3
102
RTVSPost2010PropOp43
 70
     1
102
RTVSPost2010Prop44ColorIndex
 90
        5
102
RTVSPost2010Prop44ColorRGB
 90
      255
102
RTVSPost2010PropOp44
 70
     1
102
RTVSPost2010Prop45
280
     0
102
RTVSPost2010PropOp45
 70
     1
102
RTVSPost2010Prop46
 90
       50
102
RTVSPost2010PropOp46
 70
     1
102
RTVSPost2010Prop47
 90
       50
102
RTVSPost2010PropOp47
 70
     1
102
RTVSPost2010Prop48
 90
       50
102
RTVSPost2010PropOp48
 70
     1
102
RTVSPost2010Prop49
280
     0
102
RTVSPost2010PropOp49
 70
     1
102
RTVSPost2010Prop50
 90
       50
102
RTVSPost2010PropOp50
 70
     1
102
RTVSPost2010Prop51ColorIndex
 90
      256
102
RTVSPost2010Prop51ColorRGB
 90
-16777216
102
RTVSPost2010PropOp51
 70
     0
102
RTVSPost2010Prop52
140
1.0
102
RTVSPost2010PropOp52
 70
     0
102
RTVSPost2010Prop53
 90
        2
102
RTVSPost2010PropOp53
 70
     1
102
RTVSPost2010Prop54
  1
strokes_ogs.tif
102
RTVSPost2010PropOp54
 70
     1
102
RTVSPost2010Prop55
280
     0
102
RTVSPost2010PropOp55
 70
     1
102
RTVSPost2010Prop56
140
1.0
102
RTVSPost2010PropOp56
 70
     1
102
RTVSPost2010Prop57
140
1.0
102
RTVSPost2010PropOp57
 70
     1
102
RTVSPropertyOp0
 70
     1
102
RTVSPropertyOp1
 70
     1
102
RTVSPropertyOp2
 70
     1
102
RTVSPropertyOp3
 70
     1
102
RTVSPropertyOp4
 70
     1
102
RTVSPropertyOp5
 70
     1
102
RTVSPropertyOp6
 70
     1
102
RTVSPropertyOp7
 70
     1
102
RTVSPropertyOp8
 70
     1
102
RTVSPropertyOp9
 70
     1
102
RTVSPropertyOp10
 70
     1
102
RTVSPropertyOp11
 70
     1
102
RTVSPropertyOp12
 70
     1
102
RTVSPropertyOp13
 70
     1
102
RTVSPropertyOp14
 70
     1
102
RTVSPropertyOp15
 70
     1
102
RTVSPropertyOp16
 70
     1
102
RTVSPropertyOp17
 70
     1
102
RTVSPropertyOp18
 70
     1
102
RTVSPropertyOp19
 70
     1
102
RTVSPropertyOp20
 70
     1
102
RTVSPropertyOp21
 70
     1
102
RTVSPropertyOp22
 70
     1
102
RTVSPropertyOp23
 70
     1
102
RTVSPropertyOp24
 70
     1
102
RTVSPropertyOp25
 70
     1
102
RTVSPropertyOp26
 70
     1
102
RTVSPropertyOp27
 70
     1
102
RTVSPropertyOp28
 70
     1
102
RTVSPropertyOp29
 70
     1
102
RTVSPropertyOp30
 70
     1
102
RTVSPropertyOp31
 70
     1
102
RTVSPropertyOp32
 70
     1
102
RTVSPropertyOp33
 70
     1
102
RTVSPropertyOp34
 70
     1
102
RTVSPropertyOp35
 70
     1
102
RTVSPropertyOp36
 70
     1
102
RTVSPropertyOp37
 70
     1
102
RTVSPropertyOp38
 70
     1
102
RTVSPropertyOp39
 70
     1
102
RTVSPropertyOp40
 70
     1
102
RTVSPropertyOp41
 70
     1
102
RTVSPropertyOp42
 70
     1
102
RTVSPropertyOp43
 70
     1
102
RTVSPropertyOp44
 70
     1
102
RTVSPropertyOp45
 70
     1
102
RTVSPropertyOp46
 70
     1
102
RTVSPropertyOp47
 70
     1
102
RTVSPropertyOp48
 70
     1
102
RTVSPropertyOp49
 70
     1
102
RTVSPropertyOp50
 70
     1
102
RTVSPropertyOp51
 70
     0
102
RTVSPropertyOp52
 70
     0
102
RTVSPropertyOp53
 70
     1
102
RTVSPropertyOp54
 70
     1
102
RTVSPropertyOp55
 70
     1
102
RTVSPropertyOp56
 70
     1
102
RTVSPropertyOp57
 70
     1
102
RTVSPropertyOp58
 70
     1
102
RTVSPropertyOp59
 70
     1
102
RTVSPropertyOp60
 70
     1
102
RTVSPropertyOp61
 70
     1
102
RTVSPropertyOp62
 70
     1
  0
XRECORD
  5
3AC
102
{ACAD_REACTORS
330
3AB
102
}
330
3AB
100
AcDbXrecord
280
     1
102
RTVSPost2010Prop28
280
     0
102
RTVSPost2010PropOp28
 70
     1
102
RTVSPost2010Prop29
280
     1
102
RTVSPost2010PropOp29
 70
     1
102
RTVSPost2010Prop30
280
     1
102
RTVSPost2010PropOp30
 70
     1
102
RTVSPost2010Prop31
280
     0
102
RTVSPost2010PropOp31
 70
     1
102
RTVSPost2010Prop32
280
     0
102
RTVSPost2010PropOp32
 70
     1
102
RTVSPost2010Prop33
280
     0
102
RTVSPost2010PropOp33
 70
     1
102
RTVSPost2010Prop34
280
     0
102
RTVSPost2010PropOp34
 70
     1
102
RTVSPost2010Prop35
280
     0
102
RTVSPost2010PropOp35
 70
     1
102
RTVSPost2010Prop36
280
     0
102
RTVSPost2010PropOp36
 70
     1
102
RTVSPost2010Prop37
 90
       50
102
RTVSPost2010PropOp37
 70
     1
102
RTVSPost2010Prop38
140
0.0
102
RTVSPost2010PropOp38
 70
     1
102
RTVSPost2010Prop39
140
1.0
102
RTVSPost2010PropOp39
 70
     1
102
RTVSPost2010Prop40
 90
        0
102
RTVSPost2010PropOp40
 70
     1
102
RTVSPost2010Prop41ColorIndex
 90
       18
102
RTVSPost2010Prop41ColorRGB
 90
        0
102
RTVSPost2010PropOp41
 70
     1
102
RTVSPost2010Prop42
 90
       50
102
RTVSPost2010PropOp42
 70
     1
102
RTVSPost2010Prop43
 90
        3
102
RTVSPost2010PropOp43
 70
     1
102
RTVSPost2010Prop44ColorIndex
 90
        5
102
RTVSPost2010Prop44ColorRGB
 90
      255
102
RTVSPost2010PropOp44
 70
     1
102
RTVSPost2010Prop45
280
     0
102
RTVSPost2010PropOp45
 70
     1
102
RTVSPost2010Prop46
 90
       50
102
RTVSPost2010PropOp46
 70
     1
102
RTVSPost2010Prop47
 90
       50
102
RTVSPost2010PropOp47
 70
     1
102
RTVSPost2010Prop48
 90
       50
102
RTVSPost2010PropOp48
 70
     1
102
RTVSPost2010Prop49
280
     0
102
RTVSPost2010PropOp49
 70
     1
102
RTVSPost2010Prop50
 90
       50
102
RTVSPost2010PropOp50
 70
     1
102
RTVSPost2010Prop51ColorIndex
 90
      256
102
RTVSPost2010Prop51ColorRGB
 90
-16777216
102
RTVSPost2010PropOp51
 70
     0
102
RTVSPost2010Prop52
140
1.0
102
RTVSPost2010PropOp52
 70
     0
102
RTVSPost2010Prop53
 90
        2
102
RTVSPost2010PropOp53
 70
     1
102
RTVSPost2010Prop54
  1
strokes_ogs.tif
102
RTVSPost2010PropOp54
 70
     1
102
RTVSPost2010Prop55
280
     0
102
RTVSPost2010PropOp55
 70
     1
102
RTVSPost2010Prop56
140
1.0
102
RTVSPost2010PropOp56
 70
     1
102
RTVSPost2010Prop57
140
1.0
102
RTVSPost2010PropOp57
 70
     1
102
RTVSPropertyOp0
 70
     1
102
RTVSPropertyOp1
 70
     1
102
RTVSPropertyOp2
 70
     1
102
RTVSPropertyOp3
 70
     1
102
RTVSPropertyOp4
 70
     1
102
RTVSPropertyOp5
 70
     1
102
RTVSPropertyOp6
 70
     1
102
RTVSPropertyOp7
 70
     1
102
RTVSPropertyOp8
 70
     1
102
RTVSPropertyOp9
 70
     1
102
RTVSPropertyOp10
 70
     1
102
RTVSPropertyOp11
 70
     1
102
RTVSPropertyOp12
 70
     1
102
RTVSPropertyOp13
 70
     1
102
RTVSPropertyOp14
 70
     1
102
RTVSPropertyOp15
 70
     1
102
RTVSPropertyOp16
 70
     1
102
RTVSPropertyOp17
 70
     1
102
RTVSPropertyOp18
 70
     1
102
RTVSPropertyOp19
 70
     1
102
RTVSPropertyOp20
 70
     1
102
RTVSPropertyOp21
 70
     1
102
RTVSPropertyOp22
 70
     1
102
RTVSPropertyOp23
 70
     1
102
RTVSPropertyOp24
 70
     1
102
RTVSPropertyOp25
 70
     1
102
RTVSPropertyOp26
 70
     1
102
RTVSPropertyOp27
 70
     1
102
RTVSPropertyOp28
 70
     1
102
RTVSPropertyOp29
 70
     1
102
RTVSPropertyOp30
 70
     1
102
RTVSPropertyOp31
 70
     1
102
RTVSPropertyOp32
 70
     1
102
RTVSPropertyOp33
 70
     1
102
RTVSPropertyOp34
 70
     1
102
RTVSPropertyOp35
 70
     1
102
RTVSPropertyOp36
 70
     1
102
RTVSPropertyOp37
 70
     1
102
RTVSPropertyOp38
 70
     1
102
RTVSPropertyOp39
 70
     1
102
RTVSPropertyOp40
 70
     1
102
RTVSPropertyOp41
 70
     1
102
RTVSPropertyOp42
 70
     1
102
RTVSPropertyOp43
 70
     1
102
RTVSPropertyOp44
 70
     1
102
RTVSPropertyOp45
 70
     1
102
RTVSPropertyOp46
 70
     1
102
RTVSPropertyOp47
 70
     1
102
RTVSPropertyOp48
 70
     1
102
RTVSPropertyOp49
 70
     1
102
RTVSPropertyOp50
 70
     1
102
RTVSPropertyOp51
 70
     0
102
RTVSPropertyOp52
 70
     0
102
RTVSPropertyOp53
 70
     1
102
RTVSPropertyOp54
 70
     1
102
RTVSPropertyOp55
 70
     1
102
RTVSPropertyOp56
 70
     1
102
RTVSPropertyOp57
 70
     1
102
RTVSPropertyOp58
 70
     1
102
RTVSPropertyOp59
 70
     1
102
RTVSPropertyOp60
 70
     1
102
RTVSPropertyOp61
 70
     1
102
RTVSPropertyOp62
 70
     1
  0
XRECORD
  5
3AA
102
{ACAD_REACTORS
330
3A9
102
}
330
3A9
100
AcDbXrecord
280
     1
102
RTVSPost2010Prop28
280
     0
102
RTVSPost2010PropOp28
 70
     1
102
RTVSPost2010Prop29
280
     1
102
RTVSPost2010PropOp29
 70
     1
102
RTVSPost2010Prop30
280
     1
102
RTVSPost2010PropOp30
 70
     1
102
RTVSPost2010Prop31
280
     0
102
RTVSPost2010PropOp31
 70
     1
102
RTVSPost2010Prop32
280
     0
102
RTVSPost2010PropOp32
 70
     1
102
RTVSPost2010Prop33
280
     0
102
RTVSPost2010PropOp33
 70
     1
102
RTVSPost2010Prop34
280
     0
102
RTVSPost2010PropOp34
 70
     1
102
RTVSPost2010Prop35
280
     0
102
RTVSPost2010PropOp35
 70
     1
102
RTVSPost2010Prop36
280
     0
102
RTVSPost2010PropOp36
 70
     1
102
RTVSPost2010Prop37
 90
       50
102
RTVSPost2010PropOp37
 70
     1
102
RTVSPost2010Prop38
140
0.0
102
RTVSPost2010PropOp38
 70
     1
102
RTVSPost2010Prop39
140
1.0
102
RTVSPost2010PropOp39
 70
     1
102
RTVSPost2010Prop40
 90
        0
102
RTVSPost2010PropOp40
 70
     1
102
RTVSPost2010Prop41ColorIndex
 90
       18
102
RTVSPost2010Prop41ColorRGB
 90
        0
102
RTVSPost2010PropOp41
 70
     1
102
RTVSPost2010Prop42
 90
       50
102
RTVSPost2010PropOp42
 70
     1
102
RTVSPost2010Prop43
 90
        3
102
RTVSPost2010PropOp43
 70
     1
102
RTVSPost2010Prop44ColorIndex
 90
        5
102
RTVSPost2010Prop44ColorRGB
 90
      255
102
RTVSPost2010PropOp44
 70
     1
102
RTVSPost2010Prop45
280
     0
102
RTVSPost2010PropOp45
 70
     1
102
RTVSPost2010Prop46
 90
       50
102
RTVSPost2010PropOp46
 70
     1
102
RTVSPost2010Prop47
 90
       50
102
RTVSPost2010PropOp47
 70
     1
102
RTVSPost2010Prop48
 90
       50
102
RTVSPost2010PropOp48
 70
     1
102
RTVSPost2010Prop49
280
     0
102
RTVSPost2010PropOp49
 70
     1
102
RTVSPost2010Prop50
 90
       50
102
RTVSPost2010PropOp50
 70
     1
102
RTVSPost2010Prop51ColorIndex
 90
      256
102
RTVSPost2010Prop51ColorRGB
 90
-16777216
102
RTVSPost2010PropOp51
 70
     0
102
RTVSPost2010Prop52
140
1.0
102
RTVSPost2010PropOp52
 70
     0
102
RTVSPost2010Prop53
 90
        2
102
RTVSPost2010PropOp53
 70
     1
102
RTVSPost2010Prop54
  1
strokes_ogs.tif
102
RTVSPost2010PropOp54
 70
     1
102
RTVSPost2010Prop55
280
     0
102
RTVSPost2010PropOp55
 70
     1
102
RTVSPost2010Prop56
140
1.0
102
RTVSPost2010PropOp56
 70
     1
102
RTVSPost2010Prop57
140
1.0
102
RTVSPost2010PropOp57
 70
     1
102
RTVSPropertyOp0
 70
     1
102
RTVSPropertyOp1
 70
     1
102
RTVSPropertyOp2
 70
     1
102
RTVSPropertyOp3
 70
     1
102
RTVSPropertyOp4
 70
     1
102
RTVSPropertyOp5
 70
     1
102
RTVSPropertyOp6
 70
     1
102
RTVSPropertyOp7
 70
     1
102
RTVSPropertyOp8
 70
     1
102
RTVSPropertyOp9
 70
     1
102
RTVSPropertyOp10
 70
     1
102
RTVSPropertyOp11
 70
     1
102
RTVSPropertyOp12
 70
     1
102
RTVSPropertyOp13
 70
     1
102
RTVSPropertyOp14
 70
     1
102
RTVSPropertyOp15
 70
     1
102
RTVSPropertyOp16
 70
     1
102
RTVSPropertyOp17
 70
     1
102
RTVSPropertyOp18
 70
     1
102
RTVSPropertyOp19
 70
     1
102
RTVSPropertyOp20
 70
     1
102
RTVSPropertyOp21
 70
     1
102
RTVSPropertyOp22
 70
     1
102
RTVSPropertyOp23
 70
     1
102
RTVSPropertyOp24
 70
     1
102
RTVSPropertyOp25
 70
     1
102
RTVSPropertyOp26
 70
     1
102
RTVSPropertyOp27
 70
     1
102
RTVSPropertyOp28
 70
     1
102
RTVSPropertyOp29
 70
     1
102
RTVSPropertyOp30
 70
     1
102
RTVSPropertyOp31
 70
     1
102
RTVSPropertyOp32
 70
     1
102
RTVSPropertyOp33
 70
     1
102
RTVSPropertyOp34
 70
     1
102
RTVSPropertyOp35
 70
     1
102
RTVSPropertyOp36
 70
     1
102
RTVSPropertyOp37
 70
     1
102
RTVSPropertyOp38
 70
     1
102
RTVSPropertyOp39
 70
     1
102
RTVSPropertyOp40
 70
     1
102
RTVSPropertyOp41
 70
     1
102
RTVSPropertyOp42
 70
     1
102
RTVSPropertyOp43
 70
     1
102
RTVSPropertyOp44
 70
     1
102
RTVSPropertyOp45
 70
     1
102
RTVSPropertyOp46
 70
     1
102
RTVSPropertyOp47
 70
     1
102
RTVSPropertyOp48
 70
     1
102
RTVSPropertyOp49
 70
     1
102
RTVSPropertyOp50
 70
     1
102
RTVSPropertyOp51
 70
     0
102
RTVSPropertyOp52
 70
     0
102
RTVSPropertyOp53
 70
     1
102
RTVSPropertyOp54
 70
     1
102
RTVSPropertyOp55
 70
     1
102
RTVSPropertyOp56
 70
     1
102
RTVSPropertyOp57
 70
     1
102
RTVSPropertyOp58
 70
     1
102
RTVSPropertyOp59
 70
     1
102
RTVSPropertyOp60
 70
     1
102
RTVSPropertyOp61
 70
     1
102
RTVSPropertyOp62
 70
     1
  0
XRECORD
  5
3A4
102
{ACAD_REACTORS
330
3A3
102
}
330
3A3
100
AcDbXrecord
280
     1
102
RTVSPost2010Prop28
280
     0
102
RTVSPost2010PropOp28
 70
     1
102
RTVSPost2010Prop29
280
     1
102
RTVSPost2010PropOp29
 70
     1
102
RTVSPost2010Prop30
280
     1
102
RTVSPost2010PropOp30
 70
     1
102
RTVSPost2010Prop31
280
     0
102
RTVSPost2010PropOp31
 70
     1
102
RTVSPost2010Prop32
280
     0
102
RTVSPost2010PropOp32
 70
     1
102
RTVSPost2010Prop33
280
     0
102
RTVSPost2010PropOp33
 70
     1
102
RTVSPost2010Prop34
280
     0
102
RTVSPost2010PropOp34
 70
     1
102
RTVSPost2010Prop35
280
     0
102
RTVSPost2010PropOp35
 70
     1
102
RTVSPost2010Prop36
280
     0
102
RTVSPost2010PropOp36
 70
     1
102
RTVSPost2010Prop37
 90
       50
102
RTVSPost2010PropOp37
 70
     1
102
RTVSPost2010Prop38
140
0.0
102
RTVSPost2010PropOp38
 70
     1
102
RTVSPost2010Prop39
140
1.0
102
RTVSPost2010PropOp39
 70
     1
102
RTVSPost2010Prop40
 90
        0
102
RTVSPost2010PropOp40
 70
     1
102
RTVSPost2010Prop41ColorIndex
 90
       18
102
RTVSPost2010Prop41ColorRGB
 90
        0
102
RTVSPost2010PropOp41
 70
     1
102
RTVSPost2010Prop42
 90
       50
102
RTVSPost2010PropOp42
 70
     1
102
RTVSPost2010Prop43
 90
        3
102
RTVSPost2010PropOp43
 70
     1
102
RTVSPost2010Prop44ColorIndex
 90
        5
102
RTVSPost2010Prop44ColorRGB
 90
      255
102
RTVSPost2010PropOp44
 70
     1
102
RTVSPost2010Prop45
280
     0
102
RTVSPost2010PropOp45
 70
     1
102
RTVSPost2010Prop46
 90
       50
102
RTVSPost2010PropOp46
 70
     1
102
RTVSPost2010Prop47
 90
       50
102
RTVSPost2010PropOp47
 70
     1
102
RTVSPost2010Prop48
 90
       50
102
RTVSPost2010PropOp48
 70
     1
102
RTVSPost2010Prop49
280
     0
102
RTVSPost2010PropOp49
 70
     1
102
RTVSPost2010Prop50
 90
       50
102
RTVSPost2010PropOp50
 70
     1
102
RTVSPost2010Prop51ColorIndex
 90
      256
102
RTVSPost2010Prop51ColorRGB
 90
-16777216
102
RTVSPost2010PropOp51
 70
     0
102
RTVSPost2010Prop52
140
1.0
102
RTVSPost2010PropOp52
 70
     0
102
RTVSPost2010Prop53
 90
        2
102
RTVSPost2010PropOp53
 70
     1
102
RTVSPost2010Prop54
  1
strokes_ogs.tif
102
RTVSPost2010PropOp54
 70
     1
102
RTVSPost2010Prop55
280
     0
102
RTVSPost2010PropOp55
 70
     1
102
RTVSPost2010Prop56
140
1.0
102
RTVSPost2010PropOp56
 70
     1
102
RTVSPost2010Prop57
140
1.0
102
RTVSPost2010PropOp57
 70
     1
102
RTVSPropertyOp0
 70
     1
102
RTVSPropertyOp1
 70
     1
102
RTVSPropertyOp2
 70
     1
102
RTVSPropertyOp3
 70
     1
102
RTVSPropertyOp4
 70
     1
102
RTVSPropertyOp5
 70
     1
102
RTVSPropertyOp6
 70
     1
102
RTVSPropertyOp7
 70
     1
102
RTVSPropertyOp8
 70
     1
102
RTVSPropertyOp9
 70
     1
102
RTVSPropertyOp10
 70
     1
102
RTVSPropertyOp11
 70
     1
102
RTVSPropertyOp12
 70
     1
102
RTVSPropertyOp13
 70
     1
102
RTVSPropertyOp14
 70
     1
102
RTVSPropertyOp15
 70
     1
102
RTVSPropertyOp16
 70
     1
102
RTVSPropertyOp17
 70
     1
102
RTVSPropertyOp18
 70
     1
102
RTVSPropertyOp19
 70
     1
102
RTVSPropertyOp20
 70
     1
102
RTVSPropertyOp21
 70
     1
102
RTVSPropertyOp22
 70
     1
102
RTVSPropertyOp23
 70
     1
102
RTVSPropertyOp24
 70
     1
102
RTVSPropertyOp25
 70
     1
102
RTVSPropertyOp26
 70
     1
102
RTVSPropertyOp27
 70
     1
102
RTVSPropertyOp28
 70
     1
102
RTVSPropertyOp29
 70
     1
102
RTVSPropertyOp30
 70
     1
102
RTVSPropertyOp31
 70
     1
102
RTVSPropertyOp32
 70
     1
102
RTVSPropertyOp33
 70
     1
102
RTVSPropertyOp34
 70
     1
102
RTVSPropertyOp35
 70
     1
102
RTVSPropertyOp36
 70
     1
102
RTVSPropertyOp37
 70
     1
102
RTVSPropertyOp38
 70
     1
102
RTVSPropertyOp39
 70
     1
102
RTVSPropertyOp40
 70
     1
102
RTVSPropertyOp41
 70
     1
102
RTVSPropertyOp42
 70
     1
102
RTVSPropertyOp43
 70
     1
102
RTVSPropertyOp44
 70
     1
102
RTVSPropertyOp45
 70
     1
102
RTVSPropertyOp46
 70
     1
102
RTVSPropertyOp47
 70
     1
102
RTVSPropertyOp48
 70
     1
102
RTVSPropertyOp49
 70
     1
102
RTVSPropertyOp50
 70
     1
102
RTVSPropertyOp51
 70
     0
102
RTVSPropertyOp52
 70
     0
102
RTVSPropertyOp53
 70
     1
102
RTVSPropertyOp54
 70
     1
102
RTVSPropertyOp55
 70
     1
102
RTVSPropertyOp56
 70
     1
102
RTVSPropertyOp57
 70
     1
102
RTVSPropertyOp58
 70
     1
102
RTVSPropertyOp59
 70
     1
102
RTVSPropertyOp60
 70
     1
102
RTVSPropertyOp61
 70
     1
102
RTVSPropertyOp62
 70
     1
  0
XRECORD
  5
3A6
102
{ACAD_REACTORS
330
3A5
102
}
330
3A5
100
AcDbXrecord
280
     1
102
RTVSPost2010Prop28
280
     0
102
RTVSPost2010PropOp28
 70
     1
102
RTVSPost2010Prop29
280
     1
102
RTVSPost2010PropOp29
 70
     1
102
RTVSPost2010Prop30
280
     1
102
RTVSPost2010PropOp30
 70
     1
102
RTVSPost2010Prop31
280
     0
102
RTVSPost2010PropOp31
 70
     1
102
RTVSPost2010Prop32
280
     0
102
RTVSPost2010PropOp32
 70
     1
102
RTVSPost2010Prop33
280
     0
102
RTVSPost2010PropOp33
 70
     1
102
RTVSPost2010Prop34
280
     0
102
RTVSPost2010PropOp34
 70
     1
102
RTVSPost2010Prop35
280
     0
102
RTVSPost2010PropOp35
 70
     1
102
RTVSPost2010Prop36
280
     0
102
RTVSPost2010PropOp36
 70
     1
102
RTVSPost2010Prop37
 90
       50
102
RTVSPost2010PropOp37
 70
     1
102
RTVSPost2010Prop38
140
0.0
102
RTVSPost2010PropOp38
 70
     1
102
RTVSPost2010Prop39
140
1.0
102
RTVSPost2010PropOp39
 70
     1
102
RTVSPost2010Prop40
 90
        0
102
RTVSPost2010PropOp40
 70
     1
102
RTVSPost2010Prop41ColorIndex
 90
       18
102
RTVSPost2010Prop41ColorRGB
 90
        0
102
RTVSPost2010PropOp41
 70
     1
102
RTVSPost2010Prop42
 90
       50
102
RTVSPost2010PropOp42
 70
     1
102
RTVSPost2010Prop43
 90
        3
102
RTVSPost2010PropOp43
 70
     1
102
RTVSPost2010Prop44ColorIndex
 90
        5
102
RTVSPost2010Prop44ColorRGB
 90
      255
102
RTVSPost2010PropOp44
 70
     1
102
RTVSPost2010Prop45
280
     0
102
RTVSPost2010PropOp45
 70
     1
102
RTVSPost2010Prop46
 90
       50
102
RTVSPost2010PropOp46
 70
     1
102
RTVSPost2010Prop47
 90
       50
102
RTVSPost2010PropOp47
 70
     1
102
RTVSPost2010Prop48
 90
       50
102
RTVSPost2010PropOp48
 70
     1
102
RTVSPost2010Prop49
280
     0
102
RTVSPost2010PropOp49
 70
     1
102
RTVSPost2010Prop50
 90
       50
102
RTVSPost2010PropOp50
 70
     1
102
RTVSPost2010Prop51ColorIndex
 90
      256
102
RTVSPost2010Prop51ColorRGB
 90
-16777216
102
RTVSPost2010PropOp51
 70
     0
102
RTVSPost2010Prop52
140
1.0
102
RTVSPost2010PropOp52
 70
     0
102
RTVSPost2010Prop53
 90
        2
102
RTVSPost2010PropOp53
 70
     1
102
RTVSPost2010Prop54
  1
strokes_ogs.tif
102
RTVSPost2010PropOp54
 70
     1
102
RTVSPost2010Prop55
280
     0
102
RTVSPost2010PropOp55
 70
     1
102
RTVSPost2010Prop56
140
1.0
102
RTVSPost2010PropOp56
 70
     1
102
RTVSPost2010Prop57
140
1.0
102
RTVSPost2010PropOp57
 70
     1
102
RTVSPropertyOp0
 70
     1
102
RTVSPropertyOp1
 70
     1
102
RTVSPropertyOp2
 70
     1
102
RTVSPropertyOp3
 70
     1
102
RTVSPropertyOp4
 70
     1
102
RTVSPropertyOp5
 70
     1
102
RTVSPropertyOp6
 70
     1
102
RTVSPropertyOp7
 70
     1
102
RTVSPropertyOp8
 70
     1
102
RTVSPropertyOp9
 70
     1
102
RTVSPropertyOp10
 70
     1
102
RTVSPropertyOp11
 70
     1
102
RTVSPropertyOp12
 70
     1
102
RTVSPropertyOp13
 70
     1
102
RTVSPropertyOp14
 70
     1
102
RTVSPropertyOp15
 70
     1
102
RTVSPropertyOp16
 70
     1
102
RTVSPropertyOp17
 70
     1
102
RTVSPropertyOp18
 70
     1
102
RTVSPropertyOp19
 70
     1
102
RTVSPropertyOp20
 70
     1
102
RTVSPropertyOp21
 70
     1
102
RTVSPropertyOp22
 70
     1
102
RTVSPropertyOp23
 70
     1
102
RTVSPropertyOp24
 70
     1
102
RTVSPropertyOp25
 70
     1
102
RTVSPropertyOp26
 70
     1
102
RTVSPropertyOp27
 70
     1
102
RTVSPropertyOp28
 70
     1
102
RTVSPropertyOp29
 70
     1
102
RTVSPropertyOp30
 70
     1
102
RTVSPropertyOp31
 70
     1
102
RTVSPropertyOp32
 70
     1
102
RTVSPropertyOp33
 70
     1
102
RTVSPropertyOp34
 70
     1
102
RTVSPropertyOp35
 70
     1
102
RTVSPropertyOp36
 70
     1
102
RTVSPropertyOp37
 70
     1
102
RTVSPropertyOp38
 70
     1
102
RTVSPropertyOp39
 70
     1
102
RTVSPropertyOp40
 70
     1
102
RTVSPropertyOp41
 70
     1
102
RTVSPropertyOp42
 70
     1
102
RTVSPropertyOp43
 70
     1
102
RTVSPropertyOp44
 70
     1
102
RTVSPropertyOp45
 70
     1
102
RTVSPropertyOp46
 70
     1
102
RTVSPropertyOp47
 70
     1
102
RTVSPropertyOp48
 70
     1
102
RTVSPropertyOp49
 70
     1
102
RTVSPropertyOp50
 70
     1
102
RTVSPropertyOp51
 70
     0
102
RTVSPropertyOp52
 70
     0
102
RTVSPropertyOp53
 70
     1
102
RTVSPropertyOp54
 70
     1
102
RTVSPropertyOp55
 70
     1
102
RTVSPropertyOp56
 70
     1
102
RTVSPropertyOp57
 70
     1
102
RTVSPropertyOp58
 70
     1
102
RTVSPropertyOp59
 70
     1
102
RTVSPropertyOp60
 70
     1
102
RTVSPropertyOp61
 70
     1
102
RTVSPropertyOp62
 70
     1
  0
XRECORD
  5
396
102
{ACAD_REACTORS
330
395
102
}
330
395
100
AcDbXrecord
280
     1
102
RTVSPost2010Prop28
280
     0
102
RTVSPost2010PropOp28
 70
     1
102
RTVSPost2010Prop29
280
     1
102
RTVSPost2010PropOp29
 70
     1
102
RTVSPost2010Prop30
280
     1
102
RTVSPost2010PropOp30
 70
     1
102
RTVSPost2010Prop31
280
     0
102
RTVSPost2010PropOp31
 70
     1
102
RTVSPost2010Prop32
280
     0
102
RTVSPost2010PropOp32
 70
     1
102
RTVSPost2010Prop33
280
     0
102
RTVSPost2010PropOp33
 70
     1
102
RTVSPost2010Prop34
280
     0
102
RTVSPost2010PropOp34
 70
     1
102
RTVSPost2010Prop35
280
     0
102
RTVSPost2010PropOp35
 70
     1
102
RTVSPost2010Prop36
280
     0
102
RTVSPost2010PropOp36
 70
     1
102
RTVSPost2010Prop37
 90
       50
102
RTVSPost2010PropOp37
 70
     1
102
RTVSPost2010Prop38
140
0.0
102
RTVSPost2010PropOp38
 70
     1
102
RTVSPost2010Prop39
140
1.0
102
RTVSPost2010PropOp39
 70
     1
102
RTVSPost2010Prop40
 90
        0
102
RTVSPost2010PropOp40
 70
     1
102
RTVSPost2010Prop41ColorIndex
 90
       18
102
RTVSPost2010Prop41ColorRGB
 90
        0
102
RTVSPost2010PropOp41
 70
     1
102
RTVSPost2010Prop42
 90
       50
102
RTVSPost2010PropOp42
 70
     1
102
RTVSPost2010Prop43
 90
        3
102
RTVSPost2010PropOp43
 70
     1
102
RTVSPost2010Prop44ColorIndex
 90
        5
102
RTVSPost2010Prop44ColorRGB
 90
      255
102
RTVSPost2010PropOp44
 70
     1
102
RTVSPost2010Prop45
280
     0
102
RTVSPost2010PropOp45
 70
     1
102
RTVSPost2010Prop46
 90
       50
102
RTVSPost2010PropOp46
 70
     1
102
RTVSPost2010Prop47
 90
       50
102
RTVSPost2010PropOp47
 70
     1
102
RTVSPost2010Prop48
 90
       50
102
RTVSPost2010PropOp48
 70
     1
102
RTVSPost2010Prop49
280
     0
102
RTVSPost2010PropOp49
 70
     1
102
RTVSPost2010Prop50
 90
       50
102
RTVSPost2010PropOp50
 70
     1
102
RTVSPost2010Prop51ColorIndex
 90
      256
102
RTVSPost2010Prop51ColorRGB
 90
-16777216
102
RTVSPost2010PropOp51
 70
     0
102
RTVSPost2010Prop52
140
1.0
102
RTVSPost2010PropOp52
 70
     0
102
RTVSPost2010Prop53
 90
        2
102
RTVSPost2010PropOp53
 70
     1
102
RTVSPost2010Prop54
  1
strokes_ogs.tif
102
RTVSPost2010PropOp54
 70
     1
102
RTVSPost2010Prop55
280
     0
102
RTVSPost2010PropOp55
 70
     1
102
RTVSPost2010Prop56
140
1.0
102
RTVSPost2010PropOp56
 70
     1
102
RTVSPost2010Prop57
140
1.0
102
RTVSPost2010PropOp57
 70
     1
102
RTVSPropertyOp0
 70
     1
102
RTVSPropertyOp1
 70
     1
102
RTVSPropertyOp2
 70
     1
102
RTVSPropertyOp3
 70
     1
102
RTVSPropertyOp4
 70
     1
102
RTVSPropertyOp5
 70
     1
102
RTVSPropertyOp6
 70
     1
102
RTVSPropertyOp7
 70
     1
102
RTVSPropertyOp8
 70
     1
102
RTVSPropertyOp9
 70
     1
102
RTVSPropertyOp10
 70
     1
102
RTVSPropertyOp11
 70
     1
102
RTVSPropertyOp12
 70
     1
102
RTVSPropertyOp13
 70
     1
102
RTVSPropertyOp14
 70
     1
102
RTVSPropertyOp15
 70
     1
102
RTVSPropertyOp16
 70
     1
102
RTVSPropertyOp17
 70
     1
102
RTVSPropertyOp18
 70
     1
102
RTVSPropertyOp19
 70
     1
102
RTVSPropertyOp20
 70
     1
102
RTVSPropertyOp21
 70
     1
102
RTVSPropertyOp22
 70
     1
102
RTVSPropertyOp23
 70
     1
102
RTVSPropertyOp24
 70
     1
102
RTVSPropertyOp25
 70
     1
102
RTVSPropertyOp26
 70
     1
102
RTVSPropertyOp27
 70
     1
102
RTVSPropertyOp28
 70
     1
102
RTVSPropertyOp29
 70
     1
102
RTVSPropertyOp30
 70
     1
102
RTVSPropertyOp31
 70
     1
102
RTVSPropertyOp32
 70
     1
102
RTVSPropertyOp33
 70
     1
102
RTVSPropertyOp34
 70
     1
102
RTVSPropertyOp35
 70
     1
102
RTVSPropertyOp36
 70
     1
102
RTVSPropertyOp37
 70
     1
102
RTVSPropertyOp38
 70
     1
102
RTVSPropertyOp39
 70
     1
102
RTVSPropertyOp40
 70
     1
102
RTVSPropertyOp41
 70
     1
102
RTVSPropertyOp42
 70
     1
102
RTVSPropertyOp43
 70
     1
102
RTVSPropertyOp44
 70
     1
102
RTVSPropertyOp45
 70
     1
102
RTVSPropertyOp46
 70
     1
102
RTVSPropertyOp47
 70
     1
102
RTVSPropertyOp48
 70
     1
102
RTVSPropertyOp49
 70
     1
102
RTVSPropertyOp50
 70
     1
102
RTVSPropertyOp51
 70
     0
102
RTVSPropertyOp52
 70
     0
102
RTVSPropertyOp53
 70
     1
102
RTVSPropertyOp54
 70
     1
102
RTVSPropertyOp55
 70
     1
102
RTVSPropertyOp56
 70
     1
102
RTVSPropertyOp57
 70
     1
102
RTVSPropertyOp58
 70
     1
102
RTVSPropertyOp59
 70
     1
102
RTVSPropertyOp60
 70
     1
102
RTVSPropertyOp61
 70
     1
102
RTVSPropertyOp62
 70
     1
  0
XRECORD
  5
388
102
{ACAD_REACTORS
330
387
102
}
330
387
100
AcDbXrecord
280
     1
102
RTVSPost2010Prop28
280
     0
102
RTVSPost2010PropOp28
 70
     1
102
RTVSPost2010Prop29
280
     1
102
RTVSPost2010PropOp29
 70
     1
102
RTVSPost2010Prop30
280
     1
102
RTVSPost2010PropOp30
 70
     1
102
RTVSPost2010Prop31
280
     0
102
RTVSPost2010PropOp31
 70
     1
102
RTVSPost2010Prop32
280
     0
102
RTVSPost2010PropOp32
 70
     1
102
RTVSPost2010Prop33
280
     0
102
RTVSPost2010PropOp33
 70
     1
102
RTVSPost2010Prop34
280
     0
102
RTVSPost2010PropOp34
 70
     1
102
RTVSPost2010Prop35
280
     0
102
RTVSPost2010PropOp35
 70
     1
102
RTVSPost2010Prop36
280
     0
102
RTVSPost2010PropOp36
 70
     1
102
RTVSPost2010Prop37
 90
       50
102
RTVSPost2010PropOp37
 70
     1
102
RTVSPost2010Prop38
140
0.0
102
RTVSPost2010PropOp38
 70
     1
102
RTVSPost2010Prop39
140
1.0
102
RTVSPost2010PropOp39
 70
     1
102
RTVSPost2010Prop40
 90
        0
102
RTVSPost2010PropOp40
 70
     1
102
RTVSPost2010Prop41ColorIndex
 90
       18
102
RTVSPost2010Prop41ColorRGB
 90
        0
102
RTVSPost2010PropOp41
 70
     1
102
RTVSPost2010Prop42
 90
       50
102
RTVSPost2010PropOp42
 70
     1
102
RTVSPost2010Prop43
 90
        3
102
RTVSPost2010PropOp43
 70
     1
102
RTVSPost2010Prop44ColorIndex
 90
        5
102
RTVSPost2010Prop44ColorRGB
 90
      255
102
RTVSPost2010PropOp44
 70
     1
102
RTVSPost2010Prop45
280
     0
102
RTVSPost2010PropOp45
 70
     1
102
RTVSPost2010Prop46
 90
       50
102
RTVSPost2010PropOp46
 70
     1
102
RTVSPost2010Prop47
 90
       50
102
RTVSPost2010PropOp47
 70
     1
102
RTVSPost2010Prop48
 90
       50
102
RTVSPost2010PropOp48
 70
     1
102
RTVSPost2010Prop49
280
     0
102
RTVSPost2010PropOp49
 70
     1
102
RTVSPost2010Prop50
 90
       50
102
RTVSPost2010PropOp50
 70
     1
102
RTVSPost2010Prop51ColorIndex
 90
      256
102
RTVSPost2010Prop51ColorRGB
 90
-16777216
102
RTVSPost2010PropOp51
 70
     0
102
RTVSPost2010Prop52
140
1.0
102
RTVSPost2010PropOp52
 70
     0
102
RTVSPost2010Prop53
 90
        2
102
RTVSPost2010PropOp53
 70
     1
102
RTVSPost2010Prop54
  1
strokes_ogs.tif
102
RTVSPost2010PropOp54
 70
     1
102
RTVSPost2010Prop55
280
     0
102
RTVSPost2010PropOp55
 70
     1
102
RTVSPost2010Prop56
140
1.0
102
RTVSPost2010PropOp56
 70
     1
102
RTVSPost2010Prop57
140
1.0
102
RTVSPost2010PropOp57
 70
     1
102
RTVSPropertyOp0
 70
     1
102
RTVSPropertyOp1
 70
     1
102
RTVSPropertyOp2
 70
     1
102
RTVSPropertyOp3
 70
     1
102
RTVSPropertyOp4
 70
     1
102
RTVSPropertyOp5
 70
     1
102
RTVSPropertyOp6
 70
     1
102
RTVSPropertyOp7
 70
     1
102
RTVSPropertyOp8
 70
     1
102
RTVSPropertyOp9
 70
     1
102
RTVSPropertyOp10
 70
     1
102
RTVSPropertyOp11
 70
     1
102
RTVSPropertyOp12
 70
     1
102
RTVSPropertyOp13
 70
     1
102
RTVSPropertyOp14
 70
     1
102
RTVSPropertyOp15
 70
     1
102
RTVSPropertyOp16
 70
     1
102
RTVSPropertyOp17
 70
     1
102
RTVSPropertyOp18
 70
     1
102
RTVSPropertyOp19
 70
     1
102
RTVSPropertyOp20
 70
     1
102
RTVSPropertyOp21
 70
     1
102
RTVSPropertyOp22
 70
     1
102
RTVSPropertyOp23
 70
     1
102
RTVSPropertyOp24
 70
     1
102
RTVSPropertyOp25
 70
     1
102
RTVSPropertyOp26
 70
     1
102
RTVSPropertyOp27
 70
     1
102
RTVSPropertyOp28
 70
     1
102
RTVSPropertyOp29
 70
     1
102
RTVSPropertyOp30
 70
     1
102
RTVSPropertyOp31
 70
     1
102
RTVSPropertyOp32
 70
     1
102
RTVSPropertyOp33
 70
     1
102
RTVSPropertyOp34
 70
     1
102
RTVSPropertyOp35
 70
     1
102
RTVSPropertyOp36
 70
     1
102
RTVSPropertyOp37
 70
     1
102
RTVSPropertyOp38
 70
     1
102
RTVSPropertyOp39
 70
     1
102
RTVSPropertyOp40
 70
     1
102
RTVSPropertyOp41
 70
     1
102
RTVSPropertyOp42
 70
     1
102
RTVSPropertyOp43
 70
     1
102
RTVSPropertyOp44
 70
     1
102
RTVSPropertyOp45
 70
     1
102
RTVSPropertyOp46
 70
     1
102
RTVSPropertyOp47
 70
     1
102
RTVSPropertyOp48
 70
     1
102
RTVSPropertyOp49
 70
     1
102
RTVSPropertyOp50
 70
     1
102
RTVSPropertyOp51
 70
     0
102
RTVSPropertyOp52
 70
     0
102
RTVSPropertyOp53
 70
     1
102
RTVSPropertyOp54
 70
     1
102
RTVSPropertyOp55
 70
     1
102
RTVSPropertyOp56
 70
     1
102
RTVSPropertyOp57
 70
     1
102
RTVSPropertyOp58
 70
     1
102
RTVSPropertyOp59
 70
     1
102
RTVSPropertyOp60
 70
     1
102
RTVSPropertyOp61
 70
     1
102
RTVSPropertyOp62
 70
     1
  0
XRECORD
  5
3A8
102
{ACAD_REACTORS
330
3A7
102
}
330
3A7
100
AcDbXrecord
280
     1
102
RTVSPost2010Prop28
280
     0
102
RTVSPost2010PropOp28
 70
     1
102
RTVSPost2010Prop29
280
     1
102
RTVSPost2010PropOp29
 70
     1
102
RTVSPost2010Prop30
280
     1
102
RTVSPost2010PropOp30
 70
     1
102
RTVSPost2010Prop31
280
     0
102
RTVSPost2010PropOp31
 70
     1
102
RTVSPost2010Prop32
280
     0
102
RTVSPost2010PropOp32
 70
     1
102
RTVSPost2010Prop33
280
     0
102
RTVSPost2010PropOp33
 70
     1
102
RTVSPost2010Prop34
280
     0
102
RTVSPost2010PropOp34
 70
     1
102
RTVSPost2010Prop35
280
     0
102
RTVSPost2010PropOp35
 70
     1
102
RTVSPost2010Prop36
280
     0
102
RTVSPost2010PropOp36
 70
     1
102
RTVSPost2010Prop37
 90
       50
102
RTVSPost2010PropOp37
 70
     1
102
RTVSPost2010Prop38
140
0.0
102
RTVSPost2010PropOp38
 70
     1
102
RTVSPost2010Prop39
140
1.0
102
RTVSPost2010PropOp39
 70
     1
102
RTVSPost2010Prop40
 90
        0
102
RTVSPost2010PropOp40
 70
     1
102
RTVSPost2010Prop41ColorIndex
 90
       18
102
RTVSPost2010Prop41ColorRGB
 90
        0
102
RTVSPost2010PropOp41
 70
     1
102
RTVSPost2010Prop42
 90
       50
102
RTVSPost2010PropOp42
 70
     1
102
RTVSPost2010Prop43
 90
        3
102
RTVSPost2010PropOp43
 70
     1
102
RTVSPost2010Prop44ColorIndex
 90
        5
102
RTVSPost2010Prop44ColorRGB
 90
      255
102
RTVSPost2010PropOp44
 70
     1
102
RTVSPost2010Prop45
280
     0
102
RTVSPost2010PropOp45
 70
     1
102
RTVSPost2010Prop46
 90
       50
102
RTVSPost2010PropOp46
 70
     1
102
RTVSPost2010Prop47
 90
       50
102
RTVSPost2010PropOp47
 70
     1
102
RTVSPost2010Prop48
 90
       50
102
RTVSPost2010PropOp48
 70
     1
102
RTVSPost2010Prop49
280
     0
102
RTVSPost2010PropOp49
 70
     1
102
RTVSPost2010Prop50
 90
       50
102
RTVSPost2010PropOp50
 70
     1
102
RTVSPost2010Prop51ColorIndex
 90
      256
102
RTVSPost2010Prop51ColorRGB
 90
-16777216
102
RTVSPost2010PropOp51
 70
     0
102
RTVSPost2010Prop52
140
1.0
102
RTVSPost2010PropOp52
 70
     0
102
RTVSPost2010Prop53
 90
        2
102
RTVSPost2010PropOp53
 70
     1
102
RTVSPost2010Prop54
  1
strokes_ogs.tif
102
RTVSPost2010PropOp54
 70
     1
102
RTVSPost2010Prop55
280
     0
102
RTVSPost2010PropOp55
 70
     1
102
RTVSPost2010Prop56
140
1.0
102
RTVSPost2010PropOp56
 70
     1
102
RTVSPost2010Prop57
140
1.0
102
RTVSPost2010PropOp57
 70
     1
102
RTVSPropertyOp0
 70
     1
102
RTVSPropertyOp1
 70
     1
102
RTVSPropertyOp2
 70
     1
102
RTVSPropertyOp3
 70
     1
102
RTVSPropertyOp4
 70
     1
102
RTVSPropertyOp5
 70
     1
102
RTVSPropertyOp6
 70
     1
102
RTVSPropertyOp7
 70
     1
102
RTVSPropertyOp8
 70
     1
102
RTVSPropertyOp9
 70
     1
102
RTVSPropertyOp10
 70
     1
102
RTVSPropertyOp11
 70
     1
102
RTVSPropertyOp12
 70
     1
102
RTVSPropertyOp13
 70
     1
102
RTVSPropertyOp14
 70
     1
102
RTVSPropertyOp15
 70
     1
102
RTVSPropertyOp16
 70
     1
102
RTVSPropertyOp17
 70
     1
102
RTVSPropertyOp18
 70
     1
102
RTVSPropertyOp19
 70
     1
102
RTVSPropertyOp20
 70
     1
102
RTVSPropertyOp21
 70
     1
102
RTVSPropertyOp22
 70
     1
102
RTVSPropertyOp23
 70
     1
102
RTVSPropertyOp24
 70
     1
102
RTVSPropertyOp25
 70
     1
102
RTVSPropertyOp26
 70
     1
102
RTVSPropertyOp27
 70
     1
102
RTVSPropertyOp28
 70
     1
102
RTVSPropertyOp29
 70
     1
102
RTVSPropertyOp30
 70
     1
102
RTVSPropertyOp31
 70
     1
102
RTVSPropertyOp32
 70
     1
102
RTVSPropertyOp33
 70
     1
102
RTVSPropertyOp34
 70
     1
102
RTVSPropertyOp35
 70
     1
102
RTVSPropertyOp36
 70
     1
102
RTVSPropertyOp37
 70
     1
102
RTVSPropertyOp38
 70
     1
102
RTVSPropertyOp39
 70
     1
102
RTVSPropertyOp40
 70
     1
102
RTVSPropertyOp41
 70
     1
102
RTVSPropertyOp42
 70
     1
102
RTVSPropertyOp43
 70
     1
102
RTVSPropertyOp44
 70
     1
102
RTVSPropertyOp45
 70
     1
102
RTVSPropertyOp46
 70
     1
102
RTVSPropertyOp47
 70
     1
102
RTVSPropertyOp48
 70
     1
102
RTVSPropertyOp49
 70
     1
102
RTVSPropertyOp50
 70
     1
102
RTVSPropertyOp51
 70
     0
102
RTVSPropertyOp52
 70
     0
102
RTVSPropertyOp53
 70
     1
102
RTVSPropertyOp54
 70
     1
102
RTVSPropertyOp55
 70
     1
102
RTVSPropertyOp56
 70
     1
102
RTVSPropertyOp57
 70
     1
102
RTVSPropertyOp58
 70
     1
102
RTVSPropertyOp59
 70
     1
102
RTVSPropertyOp60
 70
     1
102
RTVSPropertyOp61
 70
     1
102
RTVSPropertyOp62
 70
     1
  0
ENDSEC
  0
EOF
