  0
SECTION
  2
HEADER
  9
$ACADVER
  1
AC1018
  9
$ACADMAINTVER
 70
   104
  9
$DWGCODEPAGE
  3
ANSI_1250
  9
$LASTSAVEDBY
  1
wq7085
  9
$INSBASE
 10
0.0
 20
0.0
 30
0.0
  9
$EXTMIN
 10
177.3344163333333
 20
114.534924
 30
0.0
  9
$EXTMAX
 10
440.220949
 20
345.2288016666667
 30
0.0
  9
$LIMMIN
 10
-0.5
 20
-0.5
  9
$LIMMAX
 10
5.0
 20
5.0
  9
$ORTHOMODE
 70
     0
  9
$REGENMODE
 70
     1
  9
$FILLMODE
 70
     1
  9
$QTEXTMODE
 70
     0
  9
$MIRRTEXT
 70
     1
  9
$LTSCALE
 40
1.0
  9
$ATTMODE
 70
     1
  9
$TEXTSIZE
 40
0.2
  9
$TRACEWID
 40
0.05
  9
$TEXTSTYLE
  7
Standard
  9
$CLAYER
  8
0
  9
$CELTYPE
  6
ByLayer
  9
$CECOLOR
 62
   256
  9
$CELTSCALE
 40
1.0
  9
$DISPSILH
 70
     0
  9
$DIMSCALE
 40
1.0
  9
$DIMASZ
 40
0.18
  9
$DIMEXO
 40
0.0625
  9
$DIMDLI
 40
0.38
  9
$DIMRND
 40
0.0
  9
$DIMDLE
 40
0.0
  9
$DIMEXE
 40
0.18
  9
$DIMTP
 40
0.0
  9
$DIMTM
 40
0.0
  9
$DIMTXT
 40
0.18
  9
$DIMCEN
 40
0.09
  9
$DIMTSZ
 40
0.0
  9
$DIMTOL
 70
     0
  9
$DIMLIM
 70
     0
  9
$DIMTIH
 70
     1
  9
$DIMTOH
 70
     1
  9
$DIMSE1
 70
     0
  9
$DIMSE2
 70
     0
  9
$DIMTAD
 70
     0
  9
$DIMZIN
 70
     0
  9
$DIMBLK
  1

  9
$DIMASO
 70
     1
  9
$DIMSHO
 70
     1
  9
$DIMPOST
  1

  9
$DIMAPOST
  1

  9
$DIMALT
 70
     0
  9
$DIMALTD
 70
     2
  9
$DIMALTF
 40
25.4
  9
$DIMLFAC
 40
1.0
  9
$DIMTOFL
 70
     0
  9
$DIMTVP
 40
0.0
  9
$DIMTIX
 70
     0
  9
$DIMSOXD
 70
     0
  9
$DIMSAH
 70
     0
  9
$DIMBLK1
  1

  9
$DIMBLK2
  1

  9
$DIMSTYLE
  2
Standard
  9
$DIMCLRD
 70
     0
  9
$DIMCLRE
 70
     0
  9
$DIMCLRT
 70
     0
  9
$DIMTFAC
 40
1.0
  9
$DIMGAP
 40
0.09
  9
$DIMJUST
 70
     0
  9
$DIMSD1
 70
     0
  9
$DIMSD2
 70
     0
  9
$DIMTOLJ
 70
     1
  9
$DIMTZIN
 70
     0
  9
$DIMALTZ
 70
     0
  9
$DIMALTTZ
 70
     0
  9
$DIMUPT
 70
     0
  9
$DIMDEC
 70
     4
  9
$DIMTDEC
 70
     4
  9
$DIMALTU
 70
     2
  9
$DIMALTTD
 70
     2
  9
$DIMTXSTY
  7
Standard
  9
$DIMAUNIT
 70
     0
  9
$DIMADEC
 70
     0
  9
$DIMALTRND
 40
0.0
  9
$DIMAZIN
 70
     0
  9
$DIMDSEP
 70
    46
  9
$DIMATFIT
 70
     3
  9
$DIMFRAC
 70
     0
  9
$DIMLDRBLK
  1

  9
$DIMLUNIT
 70
     2
  9
$DIMLWD
 70
    -2
  9
$DIMLWE
 70
    -2
  9
$DIMTMOVE
 70
     0
  9
$LUNITS
 70
     2
  9
$LUPREC
 70
     4
  9
$SKETCHINC
 40
0.1
  9
$FILLETRAD
 40
0.5
  9
$AUNITS
 70
     0
  9
$AUPREC
 70
     0
  9
$MENU
  1
.
  9
$ELEVATION
 40
0.0
  9
$PELEVATION
 40
0.0
  9
$THICKNESS
 40
0.0
  9
$LIMCHECK
 70
     0
  9
$CHAMFERA
 40
0.0
  9
$CHAMFERB
 40
0.0
  9
$CHAMFERC
 40
0.0
  9
$CHAMFERD
 40
0.0
  9
$SKPOLY
 70
     0
  9
$TDCREATE
 40
2459066.500115741
  9
$TDUCREATE
 40
2459066.416786887
  9
$TDUPDATE
 40
2459066.510925926
  9
$TDUUPDATE
 40
2459066.427592593
  9
$TDINDWG
 40
0.0019328819
  9
$TDUSRTIMER
 40
0.0019328819
  9
$USRTIMER
 70
     1
  9
$ANGBASE
 50
0.0
  9
$ANGDIR
 70
     0
  9
$PDMODE
 70
     0
  9
$PDSIZE
 40
0.0
  9
$PLINEWID
 40
0.0
  9
$SPLFRAME
 70
     0
  9
$SPLINETYPE
 70
     6
  9
$SPLINESEGS
 70
     8
  9
$HANDSEED
  5
3B5
  9
$SURFTAB1
 70
     6
  9
$SURFTAB2
 70
     6
  9
$SURFTYPE
 70
     6
  9
$SURFU
 70
     6
  9
$SURFV
 70
     6
  9
$UCSBASE
  2

  9
$UCSNAME
  2

  9
$UCSORG
 10
274.404842
 20
288.907994
 30
0.0
  9
$UCSXDIR
 10
1.0
 20
0.0
 30
0.0
  9
$UCSYDIR
 10
0.0
 20
1.0
 30
0.0
  9
$UCSORTHOREF
  2

  9
$UCSORTHOVIEW
 70
     0
  9
$UCSORGTOP
 10
0.0
 20
0.0
 30
0.0
  9
$UCSORGBOTTOM
 10
0.0
 20
0.0
 30
0.0
  9
$UCSORGLEFT
 10
0.0
 20
0.0
 30
0.0
  9
$UCSORGRIGHT
 10
0.0
 20
0.0
 30
0.0
  9
$UCSORGFRONT
 10
0.0
 20
0.0
 30
0.0
  9
$UCSORGBACK
 10
0.0
 20
0.0
 30
0.0
  9
$PUCSBASE
  2

  9
$PUCSNAME
  2

  9
$PUCSORG
 10
0.0
 20
0.0
 30
0.0
  9
$PUCSXDIR
 10
1.0
 20
0.0
 30
0.0
  9
$PUCSYDIR
 10
0.0
 20
1.0
 30
0.0
  9
$PUCSORTHOREF
  2

  9
$PUCSORTHOVIEW
 70
     0
  9
$PUCSORGTOP
 10
0.0
 20
0.0
 30
0.0
  9
$PUCSORGBOTTOM
 10
0.0
 20
0.0
 30
0.0
  9
$PUCSORGLEFT
 10
0.0
 20
0.0
 30
0.0
  9
$PUCSORGRIGHT
 10
0.0
 20
0.0
 30
0.0
  9
$PUCSORGFRONT
 10
0.0
 20
0.0
 30
0.0
  9
$PUCSORGBACK
 10
0.0
 20
0.0
 30
0.0
  9
$USERI1
 70
     0
  9
$USERI2
 70
     0
  9
$USERI3
 70
     0
  9
$USERI4
 70
     0
  9
$USERI5
 70
     0
  9
$USERR1
 40
0.0
  9
$USERR2
 40
0.0
  9
$USERR3
 40
0.0
  9
$USERR4
 40
0.0
  9
$USERR5
 40
0.0
  9
$WORLDVIEW
 70
     1
  9
$SHADEDGE
 70
     3
  9
$SHADEDIF
 70
    70
  9
$TILEMODE
 70
     1
  9
$MAXACTVP
 70
    64
  9
$PINSBASE
 10
0.0
 20
0.0
 30
0.0
  9
$PLIMCHECK
 70
     0
  9
$PEXTMIN
 10
-0.5
 20
-0.5
 30
-0.5
  9
$PEXTMAX
 10
5.0
 20
5.0
 30
5.0
  9
$PLIMMIN
 10
-0.5
 20
-0.5
  9
$PLIMMAX
 10
5.0
 20
5.0
  9
$UNITMODE
 70
     0
  9
$VISRETAIN
 70
     1
  9
$PLINEGEN
 70
     0
  9
$PSLTSCALE
 70
     1
  9
$TREEDEPTH
 70
  3020
  9
$CMLSTYLE
  2
Standard
  9
$CMLJUST
 70
     0
  9
$CMLSCALE
 40
1.0
  9
$PROXYGRAPHICS
 70
     1
  9
$MEASUREMENT
 70
     1
  9
$CELWEIGHT
370
    13
  9
$ENDCAPS
280
     0
  9
$JOINSTYLE
280
     0
  9
$LWDISPLAY
290
     0
  9
$INSUNITS
 70
     4
  9
$HYPERLINKBASE
  1

  9
$STYLESHEET
  1

  9
$XEDIT
290
     1
  9
$CEPSNTYPE
380
     0
  9
$PSTYLEMODE
290
     1
  9
$FINGERPRINTGUID
  2
{931D625E-AE08-4EF6-A2C2-D37E25156BAC}
  9
$VERSIONGUID
  2
{F426C3DA-70C9-FE49-A459-9ABC944D7D76}
  9
$EXTNAMES
290
     1
  9
$PSVPSCALE
 40
0.0
  9
$OLESTARTUP
290
     0
  9
$SORTENTS
280
   127
  9
$INDEXCTL
280
     0
  9
$HIDETEXT
280
     1
  9
$XCLIPFRAME
290
     0
  9
$HALOGAP
280
     0
  9
$OBSCOLOR
 70
   257
  9
$OBSLTYPE
280
     0
  9
$INTERSECTIONDISPLAY
280
     0
  9
$INTERSECTIONCOLOR
 70
   257
  9
$DIMASSOC
280
     2
  9
$PROJECTNAME
  1

  0
ENDSEC
  0
SECTION
  2
CLASSES
  0
CLASS
  1
ACDBDICTIONARYWDFLT
  2
AcDbDictionaryWithDefault
  3
ObjectDBX Classes
 90
        0
 91
        1
280
     0
281
     0
  0
CLASS
  1
VISUALSTYLE
  2
AcDbVisualStyle
  3
ObjectDBX Classes
 90
     4095
 91
       24
280
     0
281
     0
  0
CLASS
  1
MATERIAL
  2
AcDbMaterial
  3
ObjectDBX Classes
 90
     1153
 91
        3
280
     0
281
     0
  0
CLASS
  1
SCALE
  2
AcDbScale
  3
ObjectDBX Classes
 90
     1153
 91
       33
280
     0
281
     0
  0
CLASS
  1
TABLESTYLE
  2
AcDbTableStyle
  3
ObjectDBX Classes
 90
     4095
 91
        1
280
     0
281
     0
  0
CLASS
  1
MLEADERSTYLE
  2
AcDbMLeaderStyle
  3
ACDB_MLEADERSTYLE_CLASS
 90
     4095
 91
        1
280
     0
281
     0
  0
CLASS
  1
SUN
  2
AcDbSun
  3
SCENEOE
 90
     1153
 91
        0
280
     0
281
     0
  0
CLASS
  1
DIMASSOC
  2
AcDbDimAssoc
  3
"AcDbDimAssoc|Product Desc:     AcDim ARX App For Dimension|Company:          Autodesk, Inc.|WEB Address:      www.autodesk.com"
 90
        0
 91
        7
280
     0
281
     0
  0
CLASS
  1
DICTIONARYVAR
  2
AcDbDictionaryVar
  3
ObjectDBX Classes
 90
        0
 91
        8
280
     0
281
     0
  0
CLASS
  1
CELLSTYLEMAP
  2
AcDbCellStyleMap
  3
ObjectDBX Classes
 90
     1152
 91
        2
280
     0
281
     0
  0
CLASS
  1
ACDBSECTIONVIEWSTYLE
  2
AcDbSectionViewStyle
  3
ObjectDBX Classes
 90
     1025
 91
        1
280
     0
281
     0
  0
CLASS
  1
ACDBDETAILVIEWSTYLE
  2
AcDbDetailViewStyle
  3
ObjectDBX Classes
 90
     1025
 91
        1
280
     0
281
     0
  0
CLASS
  1
SORTENTSTABLE
  2
AcDbSortentsTable
  3
ObjectDBX Classes
 90
        0
 91
        1
280
     0
281
     0
  0
ENDSEC
  0
SECTION
  2
TABLES
  0
TABLE
  2
VPORT
  5
8
330
0
100
AcDbSymbolTable
 70
    16
  0
VPORT
  5
29
330
8
100
AcDbSymbolTableRecord
100
AcDbViewportTableRecord
  2
*Active
 70
     0
 10
0.0
 20
0.0
 11
1.0
 21
1.0
 12
310.2280849211143
 22
277.6045367298972
 13
0.0
 23
0.0
 14
0.5
 24
0.5
 15
0.5
 25
0.5
 16
0.0
 26
0.0
 36
1.0
 17
0.0
 27
0.0
 37
0.0
 40
227.6093273649274
 41
2.292712066905615
 42
50.0
 43
475.36578
 44
-475.36578
 50
0.0
 51
0.0
 71
     0
 72
   100
 73
     1
 74
     3
 75
     0
 76
     0
 77
     0
 78
     0
281
     0
 65
     1
110
274.404842
120
288.907994
130
0.0
111
1.0
121
0.0
131
0.0
112
0.0
122
1.0
132
0.0
 79
     0
146
0.0
1001
ACAD_NAV_VCDISPLAY
1070
     3
  0
VPORT
  5
2B0
330
8
100
AcDbSymbolTableRecord
100
AcDbViewportTableRecord
  2
L1
 70
     0
 10
0.0
 20
0.0
 11
1.0
 21
1.0
 12
308.273476
 22
229.875998
 13
0.0
 23
0.0
 14
0.5
 24
0.5
 15
0.5
 25
0.5
 16
0.0
 26
0.0
 36
1.0
 17
0.0
 27
0.0
 37
0.0
 40
207.433333
 41
0.085602
 42
50.0
 43
475.36578
 44
-475.36578
 50
0.0
 51
0.0
 71
     0
 72
   100
 73
     1
 74
     3
 75
     0
 76
     0
 77
     0
 78
     0
281
     0
 65
     1
110
0.0
120
0.0
130
0.0
111
1.0
121
0.0
131
0.0
112
0.0
122
1.0
132
0.0
 79
     0
146
0.0
  0
VPORT
  5
2B1
330
8
100
AcDbSymbolTableRecord
100
AcDbViewportTableRecord
  2
L2
 70
     0
 10
0.0
 20
0.0
 11
0.5
 21
1.0
 12
0.0
 22
0.0
 13
0.0
 23
0.0
 14
0.5
 24
0.5
 15
0.5
 25
0.5
 16
0.0
 26
-1.0
 36
0.0
 17
0.0
 27
0.0
 37
0.0
 40
1319.143726
 41
0.013461
 42
50.0
 43
679.601336
 44
-679.601336
 50
0.0
 51
0.0
 71
     0
 72
   100
 73
     1
 74
     3
 75
     0
 76
     0
 77
     0
 78
     0
281
     0
 65
     1
110
0.0
120
0.0
130
0.0
111
1.0
121
0.0
131
0.0
112
0.0
122
1.0
132
0.0
 79
     0
146
0.0
  0
VPORT
  5
2B2
330
8
100
AcDbSymbolTableRecord
100
AcDbViewportTableRecord
  2
L2
 70
     0
 10
0.5
 20
0.0
 11
1.0
 21
1.0
 12
0.0
 22
0.0
 13
0.0
 23
0.0
 14
0.5
 24
0.5
 15
0.5
 25
0.5
 16
1.0
 26
0.0
 36
0.0
 17
0.0
 27
0.0
 37
0.0
 40
1319.143726
 41
0.013461
 42
50.0
 43
667.6767099999999
 44
-667.6767099999999
 50
0.0
 51
0.0
 71
     0
 72
   100
 73
     1
 74
     3
 75
     0
 76
     0
 77
     0
 78
     0
281
     0
 65
     1
110
0.0
120
0.0
130
0.0
111
1.0
121
0.0
131
0.0
112
0.0
122
1.0
132
0.0
 79
     0
146
0.0
  0
VPORT
  5
2B3
330
8
100
AcDbSymbolTableRecord
100
AcDbViewportTableRecord
  2
L3
 70
     0
 10
0.0
 20
0.5
 11
1.0
 21
1.0
 12
308.273476
 22
229.875998
 13
0.0
 23
0.0
 14
0.5
 24
0.5
 15
0.5
 25
0.5
 16
0.0
 26
0.0
 36
1.0
 17
0.0
 27
0.0
 37
0.0
 40
207.433333
 41
0.085602
 42
50.0
 43
475.36578
 44
-475.36578
 50
0.0
 51
0.0
 71
     0
 72
   100
 73
     1
 74
     3
 75
     0
 76
     0
 77
     0
 78
     0
281
     0
 65
     1
110
0.0
120
0.0
130
0.0
111
1.0
121
0.0
131
0.0
112
0.0
122
1.0
132
0.0
 79
     0
146
0.0
  0
VPORT
  5
2B4
330
8
100
AcDbSymbolTableRecord
100
AcDbViewportTableRecord
  2
L3
 70
     0
 10
0.0
 20
0.0
 11
1.0
 21
0.5
 12
0.0
 22
0.0
 13
0.0
 23
0.0
 14
0.5
 24
0.5
 15
0.5
 25
0.5
 16
0.0
 26
-1.0
 36
0.0
 17
0.0
 27
0.0
 37
0.0
 40
1319.143726
 41
0.013461
 42
50.0
 43
679.601336
 44
-679.601336
 50
0.0
 51
0.0
 71
     0
 72
   100
 73
     1
 74
     3
 75
     0
 76
     0
 77
     0
 78
     0
281
     0
 65
     1
110
0.0
120
0.0
130
0.0
111
1.0
121
0.0
131
0.0
112
0.0
122
1.0
132
0.0
 79
     0
146
0.0
  0
VPORT
  5
2B5
330
8
100
AcDbSymbolTableRecord
100
AcDbViewportTableRecord
  2
L4
 70
     0
 10
0.0
 20
0.5
 11
0.5
 21
1.0
 12
308.273476
 22
229.875998
 13
0.0
 23
0.0
 14
0.5
 24
0.5
 15
0.5
 25
0.5
 16
0.0
 26
0.0
 36
1.0
 17
0.0
 27
0.0
 37
0.0
 40
207.433333
 41
0.085602
 42
50.0
 43
475.36578
 44
-475.36578
 50
0.0
 51
0.0
 71
     0
 72
   100
 73
     1
 74
     3
 75
     0
 76
     0
 77
     0
 78
     0
281
     0
 65
     1
110
0.0
120
0.0
130
0.0
111
1.0
121
0.0
131
0.0
112
0.0
122
1.0
132
0.0
 79
     0
146
0.0
  0
VPORT
  5
2B6
330
8
100
AcDbSymbolTableRecord
100
AcDbViewportTableRecord
  2
L4
 70
     0
 10
0.0
 20
0.0
 11
0.5
 21
0.5
 12
0.0
 22
0.0
 13
0.0
 23
0.0
 14
0.5
 24
0.5
 15
0.5
 25
0.5
 16
0.0
 26
-1.0
 36
0.0
 17
0.0
 27
0.0
 37
0.0
 40
1319.143726
 41
0.013461
 42
50.0
 43
679.601336
 44
-679.601336
 50
0.0
 51
0.0
 71
     0
 72
   100
 73
     1
 74
     3
 75
     0
 76
     0
 77
     0
 78
     0
281
     0
 65
     1
110
0.0
120
0.0
130
0.0
111
1.0
121
0.0
131
0.0
112
0.0
122
1.0
132
0.0
 79
     0
146
0.0
  0
VPORT
  5
2B7
330
8
100
AcDbSymbolTableRecord
100
AcDbViewportTableRecord
  2
L4
 70
     0
 10
0.5
 20
0.0
 11
1.0
 21
0.5
 12
0.0
 22
0.0
 13
0.0
 23
0.0
 14
0.5
 24
0.5
 15
0.5
 25
0.5
 16
1.0
 26
0.0
 36
0.0
 17
0.0
 27
0.0
 37
0.0
 40
1319.143726
 41
0.013461
 42
50.0
 43
667.6767099999999
 44
-667.6767099999999
 50
0.0
 51
0.0
 71
     0
 72
   100
 73
     1
 74
     3
 75
     0
 76
     0
 77
     0
 78
     0
281
     0
 65
     1
110
0.0
120
0.0
130
0.0
111
1.0
121
0.0
131
0.0
112
0.0
122
1.0
132
0.0
 79
     0
146
0.0
  0
VPORT
  5
2B8
330
8
100
AcDbSymbolTableRecord
100
AcDbViewportTableRecord
  2
L4
 70
     0
 10
0.5
 20
0.5
 11
1.0
 21
1.0
 12
0.0
 22
0.0
 13
0.0
 23
0.0
 14
0.5
 24
0.5
 15
0.5
 25
0.5
 16
0.5773502691896259
 26
-0.5773502691896259
 36
0.5773502691896259
 17
0.0
 27
0.0
 37
0.0
 40
1295.484074
 41
0.013707
 42
50.0
 43
674.79345
 44
-674.79345
 50
0.0
 51
0.0
 71
     0
 72
   100
 73
     1
 74
     3
 75
     0
 76
     0
 77
     0
 78
     0
281
     0
 65
     1
110
0.0
120
0.0
130
0.0
111
1.0
121
0.0
131
0.0
112
0.0
122
1.0
132
0.0
 79
     0
146
0.0
  0
VPORT
  5
2B9
330
8
100
AcDbSymbolTableRecord
100
AcDbViewportTableRecord
  2
L6
 70
     0
 10
0.0
 20
0.5
 11
0.333333
 21
1.0
 12
0.0
 22
0.0
 13
0.0
 23
0.0
 14
0.5
 24
0.5
 15
0.5
 25
0.5
 16
0.7188730927569434
 26
-0.5850486126764433
 36
0.3754192287502549
 17
0.0
 27
0.0
 37
0.0
 40
1367.187154
 41
0.012988
 42
50.0
 43
707.8776949999999
 44
-707.8776949999999
 50
0.0
 51
0.0
 71
     0
 72
   100
 73
     1
 74
     3
 75
     0
 76
     0
 77
     0
 78
     0
281
     0
 65
     1
110
0.0
120
0.0
130
0.0
111
1.0
121
0.0
131
0.0
112
0.0
122
1.0
132
0.0
 79
     0
146
0.0
  0
VPORT
  5
2BA
330
8
100
AcDbSymbolTableRecord
100
AcDbViewportTableRecord
  2
L6
 70
     0
 10
0.0
 20
0.0
 11
0.333333
 21
0.5
 12
0.0
 22
0.0
 13
0.0
 23
0.0
 14
0.5
 24
0.5
 15
0.5
 25
0.5
 16
-1.0
 26
0.0
 36
0.0
 17
0.0
 27
0.0
 37
0.0
 40
1319.143726
 41
0.013461
 42
50.0
 43
667.6767099999999
 44
-667.6767099999999
 50
0.0
 51
0.0
 71
     0
 72
   100
 73
     1
 74
     3
 75
     0
 76
     0
 77
     0
 78
     0
281
     0
 65
     1
110
0.0
120
0.0
130
0.0
111
1.0
121
0.0
131
0.0
112
0.0
122
1.0
132
0.0
 79
     0
146
0.0
  0
VPORT
  5
2BB
330
8
100
AcDbSymbolTableRecord
100
AcDbViewportTableRecord
  2
L6
 70
     0
 10
0.333333
 20
0.5
 11
0.666667
 21
1.0
 12
308.273476
 22
229.875998
 13
0.0
 23
0.0
 14
0.5
 24
0.5
 15
0.5
 25
0.5
 16
0.0
 26
0.0
 36
1.0
 17
0.0
 27
0.0
 37
0.0
 40
207.433333
 41
0.085602
 42
50.0
 43
475.36578
 44
-475.36578
 50
0.0
 51
0.0
 71
     0
 72
   100
 73
     1
 74
     3
 75
     0
 76
     0
 77
     0
 78
     0
281
     0
 65
     1
110
0.0
120
0.0
130
0.0
111
1.0
121
0.0
131
0.0
112
0.0
122
1.0
132
0.0
 79
     0
146
0.0
  0
VPORT
  5
2BC
330
8
100
AcDbSymbolTableRecord
100
AcDbViewportTableRecord
  2
L6
 70
     0
 10
0.333333
 20
0.0
 11
0.666667
 21
0.5
 12
0.0
 22
0.0
 13
0.0
 23
0.0
 14
0.5
 24
0.5
 15
0.5
 25
0.5
 16
0.0
 26
-1.0
 36
0.0
 17
0.0
 27
0.0
 37
0.0
 40
1319.143726
 41
0.013461
 42
50.0
 43
679.601336
 44
-679.601336
 50
0.0
 51
0.0
 71
     0
 72
   100
 73
     1
 74
     3
 75
     0
 76
     0
 77
     0
 78
     0
281
     0
 65
     1
110
0.0
120
0.0
130
0.0
111
1.0
121
0.0
131
0.0
112
0.0
122
1.0
132
0.0
 79
     0
146
0.0
  0
VPORT
  5
2BD
330
8
100
AcDbSymbolTableRecord
100
AcDbViewportTableRecord
  2
L6
 70
     0
 10
0.666667
 20
0.5
 11
1.0
 21
1.0
 12
0.0
 22
0.0
 13
0.0
 23
0.0
 14
0.5
 24
0.5
 15
0.5
 25
0.5
 16
0.5773502691896259
 26
-0.5773502691896259
 36
0.5773502691896259
 17
0.0
 27
0.0
 37
0.0
 40
1295.484074
 41
0.013707
 42
50.0
 43
674.79345
 44
-674.79345
 50
0.0
 51
0.0
 71
     0
 72
   100
 73
     1
 74
     3
 75
     0
 76
     0
 77
     0
 78
     0
281
     0
 65
     1
110
0.0
120
0.0
130
0.0
111
1.0
121
0.0
131
0.0
112
0.0
122
1.0
132
0.0
 79
     0
146
0.0
  0
VPORT
  5
2BE
330
8
100
AcDbSymbolTableRecord
100
AcDbViewportTableRecord
  2
L6
 70
     0
 10
0.666667
 20
0.0
 11
1.0
 21
0.5
 12
0.0
 22
0.0
 13
0.0
 23
0.0
 14
0.5
 24
0.5
 15
0.5
 25
0.5
 16
1.0
 26
0.0
 36
0.0
 17
0.0
 27
0.0
 37
0.0
 40
1319.143726
 41
0.013461
 42
50.0
 43
667.6767099999999
 44
-667.6767099999999
 50
0.0
 51
0.0
 71
     0
 72
   100
 73
     1
 74
     3
 75
     0
 76
     0
 77
     0
 78
     0
281
     0
 65
     1
110
0.0
120
0.0
130
0.0
111
1.0
121
0.0
131
0.0
112
0.0
122
1.0
132
0.0
 79
     0
146
0.0
  0
ENDTAB
  0
TABLE
  2
LTYPE
  5
5
330
0
100
AcDbSymbolTable
 70
     8
  0
LTYPE
  5
14
330
5
100
AcDbSymbolTableRecord
100
AcDbLinetypeTableRecord
  2
ByBlock
 70
     0
  3

 72
    65
 73
     0
 40
0.0
  0
LTYPE
  5
15
330
5
100
AcDbSymbolTableRecord
100
AcDbLinetypeTableRecord
  2
ByLayer
 70
     0
  3

 72
    65
 73
     0
 40
0.0
  0
LTYPE
  5
16
330
5
100
AcDbSymbolTableRecord
100
AcDbLinetypeTableRecord
  2
Continuous
 70
     0
  3
Solid line
 72
    65
 73
     0
 40
0.0
  0
LTYPE
  5
6E
330
5
100
AcDbSymbolTableRecord
100
AcDbLinetypeTableRecord
  2
CENTER
 70
     0
  3
____ _ ____ _ ____ _ ____
 72
    65
 73
     4
 40
47.4
 49
22.0
 74
     4
 75
     0
340
0
 46
0.0
 50
0.0
 44
0.0
 45
0.0
 49
-8.5
 74
     4
 75
     0
340
0
 46
0.0
 50
0.0
 44
0.0
 45
0.0
 49
8.5
 74
     4
 75
     0
340
0
 46
0.0
 50
0.0
 44
0.0
 45
0.0
 49
-8.5
 74
     4
 75
     0
340
0
 46
0.0
 50
0.0
 44
0.0
 45
0.0
  0
LTYPE
  5
6F
330
5
100
AcDbSymbolTableRecord
100
AcDbLinetypeTableRecord
  2
DASHDOT
 70
     0
  3
_._._._._._._._._._._._._._._._.
 72
    65
 73
     4
 40
70.0
 49
31.0
 74
     4
 75
     0
340
0
 46
0.0
 50
0.0
 44
0.0
 45
0.0
 49
-13.0
 74
     4
 75
     0
340
0
 46
0.0
 50
0.0
 44
0.0
 45
0.0
 49
13.0
 74
     4
 75
     0
340
0
 46
0.0
 50
0.0
 44
0.0
 45
0.0
 49
-13.0
 74
     4
 75
     0
340
0
 46
0.0
 50
0.0
 44
0.0
 45
0.0
  0
LTYPE
  5
70
330
5
100
AcDbSymbolTableRecord
100
AcDbLinetypeTableRecord
  2
DASHED
 70
     0
  3
__ __ __ __ __ __ __ __ __
 72
    65
 73
     2
 40
25.72
 49
12.86
 74
     4
 75
     0
340
0
 46
0.0
 50
0.0
 44
0.0
 45
0.0
 49
-12.86
 74
     4
 75
     0
340
0
 46
0.0
 50
0.0
 44
0.0
 45
0.0
  0
LTYPE
  5
71
330
5
100
AcDbSymbolTableRecord
100
AcDbLinetypeTableRecord
  2
DOT
 70
     0
  3
.........................
 72
    65
 73
     2
 40
10.0
 49
0.0
 74
     4
 75
     0
340
0
 46
0.0
 50
0.0
 44
0.0
 45
0.0
 49
-10.0
 74
     4
 75
     0
340
0
 46
0.0
 50
0.0
 44
0.0
 45
0.0
  0
LTYPE
  5
72
330
5
100
AcDbSymbolTableRecord
100
AcDbLinetypeTableRecord
  2
PHANTOM
 70
     0
  3
____ _ _ ____ _ _ _____ _ _ ____
 72
    65
 73
     6
 40
50.5
 49
18.0
 74
     4
 75
     0
340
0
 46
0.0
 50
0.0
 44
0.0
 45
0.0
 49
-6.5
 74
     4
 75
     0
340
0
 46
0.0
 50
0.0
 44
0.0
 45
0.0
 49
6.5
 74
     4
 75
     0
340
0
 46
0.0
 50
0.0
 44
0.0
 45
0.0
 49
-6.5
 74
     4
 75
     0
340
0
 46
0.0
 50
0.0
 44
0.0
 45
0.0
 49
6.5
 74
     4
 75
     0
340
0
 46
0.0
 50
0.0
 44
0.0
 45
0.0
 49
-6.5
 74
     4
 75
     0
340
0
 46
0.0
 50
0.0
 44
0.0
 45
0.0
  0
LTYPE
  5
34E
330
5
100
AcDbSymbolTableRecord
100
AcDbLinetypeTableRecord
  2
CENTER2
 70
     0
  3
Center (.5x) ___ _ ___ _ ___ _ ___ _ ___ _ ___
 72
    65
 73
     4
 40
1.125
 49
0.75
 74
     0
 49
-0.125
 74
     0
 49
0.125
 74
     0
 49
-0.125
 74
     0
  0
ENDTAB
  0
TABLE
  2
LAYER
  5
2
330
0
100
AcDbSymbolTable
 70
    22
  0
LAYER
  5
10
102
{ACAD_XDICTIONARY
360
362
102
}
330
2
100
AcDbSymbolTableRecord
100
AcDbLayerTableRecord
  2
0
 70
     0
 62
     7
  6
Continuous
370
    -3
390
F
  0
LAYER
  5
20A
330
2
100
AcDbSymbolTableRecord
100
AcDbLayerTableRecord
  2
Defpoints
 70
     0
 62
     7
  6
Continuous
290
     0
370
    -3
390
F
  0
LAYER
  5
34B
102
{ACAD_XDICTIONARY
360
364
102
}
330
2
100
AcDbSymbolTableRecord
100
AcDbLayerTableRecord
  2
1
 70
     0
 62
     4
  6
Continuous
370
    -3
390
F
  0
LAYER
  5
34C
102
{ACAD_XDICTIONARY
360
366
102
}
330
2
100
AcDbSymbolTableRecord
100
AcDbLayerTableRecord
  2
2
 70
     0
 62
     7
  6
Continuous
370
    -3
390
F
  0
LAYER
  5
34D
102
{ACAD_XDICTIONARY
360
368
102
}
330
2
100
AcDbSymbolTableRecord
100
AcDbLayerTableRecord
  2
4
 70
     0
 62
     2
  6
CENTER2
370
    -3
390
F
  0
LAYER
  5
34F
102
{ACAD_XDICTIONARY
360
36A
102
}
330
2
100
AcDbSymbolTableRecord
100
AcDbLayerTableRecord
  2
SK1
 70
     0
 62
     4
  6
Continuous
370
    -3
390
F
  0
LAYER
  5
350
102
{ACAD_XDICTIONARY
360
36C
102
}
330
2
100
AcDbSymbolTableRecord
100
AcDbLayerTableRecord
  2
SK2
 70
     0
 62
     7
  6
Continuous
370
    -3
390
F
  0
LAYER
  5
352
102
{ACAD_XDICTIONARY
360
36E
102
}
330
2
100
AcDbSymbolTableRecord
100
AcDbLayerTableRecord
  2
SK4
 70
     0
 62
     2
  6
CENTER2
370
    -3
390
F
  0
LAYER
  5
353
102
{ACAD_XDICTIONARY
360
370
102
}
330
2
100
AcDbSymbolTableRecord
100
AcDbLayerTableRecord
  2
SK6
 70
     0
 62
     5
  6
Continuous
370
    -3
390
F
  0
LAYER
  5
354
102
{ACAD_XDICTIONARY
360
372
102
}
330
2
100
AcDbSymbolTableRecord
100
AcDbLayerTableRecord
  2
CUT
 70
     0
 62
     1
  6
Continuous
370
    -3
390
F
  0
LAYER
  5
355
102
{ACAD_XDICTIONARY
360
374
102
}
330
2
100
AcDbSymbolTableRecord
100
AcDbLayerTableRecord
  2
NOCUT
 70
     0
 62
     7
  6
Continuous
370
    -3
390
F
  0
LAYER
  5
356
102
{ACAD_XDICTIONARY
360
376
102
}
330
2
100
AcDbSymbolTableRecord
100
AcDbLayerTableRecord
  2
80
 70
     0
 62
     6
  6
Continuous
370
    -3
390
F
  0
LAYER
  5
357
102
{ACAD_XDICTIONARY
360
378
102
}
330
2
100
AcDbSymbolTableRecord
100
AcDbLayerTableRecord
  2
81
 70
     0
 62
     3
  6
Continuous
370
    -3
390
F
  0
ENDTAB
  0
TABLE
  2
STYLE
  5
3
330
0
100
AcDbSymbolTable
 70
     3
  0
STYLE
  5
11
330
3
100
AcDbSymbolTableRecord
100
AcDbTextStyleTableRecord
  2
Standard
 70
     0
 40
0.0
 41
1.0
 50
0.0
 71
     0
 42
0.2
  3
txt
  4

  0
STYLE
  5
1FE
330
3
100
AcDbSymbolTableRecord
100
AcDbTextStyleTableRecord
  2
cesky
 70
     0
 40
0.0
 41
1.0
 50
0.0
 71
     0
 42
0.2
  3
simplex.shx
  4

  0
STYLE
  5
1FF
330
3
100
AcDbSymbolTableRecord
100
AcDbTextStyleTableRecord
  2
DWGDirectTextStyle
 70
     0
 40
0.0
 41
1.0
 50
0.0
 71
     0
 42
0.2
  3
simplex
  4

  0
ENDTAB
  0
TABLE
  2
VIEW
  5
6
330
0
100
AcDbSymbolTable
 70
     0
  0
ENDTAB
  0
TABLE
  2
UCS
  5
7
330
0
100
AcDbSymbolTable
 70
     0
  0
ENDTAB
  0
TABLE
  2
APPID
  5
9
330
0
100
AcDbSymbolTable
 70
     8
  0
APPID
  5
12
330
9
100
AcDbSymbolTableRecord
100
AcDbRegAppTableRecord
  2
ACAD
 70
     0
  0
APPID
  5
206
330
9
100
AcDbSymbolTableRecord
100
AcDbRegAppTableRecord
  2
ACAD_DSTYLE_DIMBREAK
 70
     0
  0
APPID
  5
2BF
330
9
100
AcDbSymbolTableRecord
100
AcDbRegAppTableRecord
  2
ACAD_DSTYLE_DIM_LINETYPE
 70
     0
  0
APPID
  5
2C0
330
9
100
AcDbSymbolTableRecord
100
AcDbRegAppTableRecord
  2
ACAD_DSTYLE_DIM_EXT1_LINETYPE
 70
     0
  0
APPID
  5
2C1
330
9
100
AcDbSymbolTableRecord
100
AcDbRegAppTableRecord
  2
ACAD_DSTYLE_DIM_EXT2_LINETYPE
 70
     0
  0
APPID
  5
301
330
9
100
AcDbSymbolTableRecord
100
AcDbRegAppTableRecord
  2
ACAD_MLEADERVER
 70
     0
  0
APPID
  5
35B
330
9
100
AcDbSymbolTableRecord
100
AcDbRegAppTableRecord
  2
ACAD_EXEMPT_FROM_CAD_STANDARDS
 70
     0
  0
APPID
  5
37D
330
9
100
AcDbSymbolTableRecord
100
AcDbRegAppTableRecord
  2
ACAD_NAV_VCDISPLAY
 70
     0
  0
ENDTAB
  0
TABLE
  2
DIMSTYLE
  5
A
330
0
100
AcDbSymbolTable
 70
     2
100
AcDbDimStyleTable
 71
     1
340
27
  0
DIMSTYLE
105
27
330
A
100
AcDbSymbolTableRecord
100
AcDbDimStyleTableRecord
  2
Standard
 70
     0
340
11
1001
ACAD_DSTYLE_DIMBREAK
1070
   391
1040
6.349999999999999
  0
ENDTAB
  0
TABLE
  2
BLOCK_RECORD
  5
1
330
0
100
AcDbSymbolTable
 70
    17
  0
BLOCK_RECORD
  5
1F
102
{ACAD_XDICTIONARY
360
311
102
}
330
1
100
AcDbSymbolTableRecord
100
AcDbBlockTableRecord
  2
*Model_Space
340
22
  0
BLOCK_RECORD
  5
1B
330
1
100
AcDbSymbolTableRecord
100
AcDbBlockTableRecord
  2
*Paper_Space
340
1E
  0
BLOCK_RECORD
  5
23
330
1
100
AcDbSymbolTableRecord
100
AcDbBlockTableRecord
  2
*Paper_Space0
340
26
  0
BLOCK_RECORD
  5
201
330
1
100
AcDbSymbolTableRecord
100
AcDbBlockTableRecord
  2
ASSORTED_DRAFT1
340
0
  0
BLOCK_RECORD
  5
20B
330
1
100
AcDbSymbolTableRecord
100
AcDbBlockTableRecord
  2
*D2
340
0
  0
BLOCK_RECORD
  5
217
330
1
100
AcDbSymbolTableRecord
100
AcDbBlockTableRecord
  2
_U0
340
0
  0
BLOCK_RECORD
  5
223
330
1
100
AcDbSymbolTableRecord
100
AcDbBlockTableRecord
  2
*D4
340
0
  0
BLOCK_RECORD
  5
22E
330
1
100
AcDbSymbolTableRecord
100
AcDbBlockTableRecord
  2
_U1
340
0
  0
BLOCK_RECORD
  5
239
330
1
100
AcDbSymbolTableRecord
100
AcDbBlockTableRecord
  2
*D6
340
0
  0
BLOCK_RECORD
  5
245
330
1
100
AcDbSymbolTableRecord
100
AcDbBlockTableRecord
  2
_U2
340
0
  0
BLOCK_RECORD
  5
252
330
1
100
AcDbSymbolTableRecord
100
AcDbBlockTableRecord
  2
*D8
340
0
  0
BLOCK_RECORD
  5
25E
330
1
100
AcDbSymbolTableRecord
100
AcDbBlockTableRecord
  2
_U3
340
0
  0
BLOCK_RECORD
  5
26B
330
1
100
AcDbSymbolTableRecord
100
AcDbBlockTableRecord
  2
*D10
340
0
  0
BLOCK_RECORD
  5
277
330
1
100
AcDbSymbolTableRecord
100
AcDbBlockTableRecord
  2
_U4
340
0
  0
BLOCK_RECORD
  5
283
330
1
100
AcDbSymbolTableRecord
100
AcDbBlockTableRecord
  2
*D12
340
0
  0
BLOCK_RECORD
  5
28F
330
1
100
AcDbSymbolTableRecord
100
AcDbBlockTableRecord
  2
_U5
340
0
  0
BLOCK_RECORD
  5
29B
330
1
100
AcDbSymbolTableRecord
100
AcDbBlockTableRecord
  2
*D14
340
0
  0
BLOCK_RECORD
  5
2A7
330
1
100
AcDbSymbolTableRecord
100
AcDbBlockTableRecord
  2
_U6
340
0
  0
ENDTAB
  0
ENDSEC
  0
SECTION
  2
BLOCKS
  0
BLOCK
  5
20
330
1F
100
AcDbEntity
  8
0
100
AcDbBlockBegin
  2
*Model_Space
 70
     0
 10
0.0
 20
0.0
 30
0.0
  3
*Model_Space
  1

  0
ENDBLK
  5
21
330
1F
100
AcDbEntity
  8
0
100
AcDbBlockEnd
  0
BLOCK
  5
1C
330
1B
100
AcDbEntity
 67
     1
  8
0
100
AcDbBlockBegin
  2
*Paper_Space
 70
     0
 10
0.0
 20
0.0
 30
0.0
  3
*Paper_Space
  1

  0
ENDBLK
  5
1D
330
1B
100
AcDbEntity
 67
     1
  8
0
100
AcDbBlockEnd
  0
BLOCK
  5
24
330
23
100
AcDbEntity
 67
     1
  8
0
100
AcDbBlockBegin
  2
*Paper_Space0
 70
     0
 10
0.0
 20
0.0
 30
0.0
  3
*Paper_Space0
  1

  0
ENDBLK
  5
25
330
23
100
AcDbEntity
 67
     1
  8
0
100
AcDbBlockEnd
  0
BLOCK
  5
204
330
201
100
AcDbEntity
  8
0
100
AcDbBlockBegin
  2
ASSORTED_DRAFT1
 70
     0
 10
0.0
 20
0.0
 30
0.0
  3
ASSORTED_DRAFT1
  1

  0
SOLID
  5
202
330
201
100
AcDbEntity
  8
0
 62
   254
370
    13
100
AcDbTrace
 10
270.185042
 20
168.534924
 30
0.0
 11
265.185046
 21
167.42645
 31
0.0
 12
265.1850379999999
 22
169.643397
 32
0.0
 13
270.185042
 23
168.534924
 33
0.0
  0
ENDBLK
  5
205
330
201
100
AcDbEntity
  8
0
100
AcDbBlockEnd
  0
BLOCK
  5
20C
330
20B
100
AcDbEntity
  8
0
100
AcDbBlockBegin
  2
*D2
 70
     1
 10
0.0
 20
0.0
 30
0.0
  3
*D2
  1

  0
LINE
  5
20E
330
20B
100
AcDbEntity
  8
0
 62
   254
370
    -2
100
AcDbLine
 10
423.4048419999999
 20
309.407994
 30
0.0
 11
423.4048419999999
 21
328.5109970000001
 31
0.0
  0
LINE
  5
20F
330
20B
100
AcDbEntity
  8
0
 62
   254
370
    -2
100
AcDbLine
 10
274.404842
 20
288.907994
 30
0.0
 11
274.404842
 21
328.5109970000001
 31
0.0
  0
LINE
  5
210
330
20B
100
AcDbEntity
  8
0
 62
   254
370
    -2
100
AcDbLine
 10
419.9048419999999
 20
327.510997
 30
0.0
 11
277.904842
 21
327.510997
 31
0.0
  0
SOLID
  5
211
330
20B
100
AcDbEntity
  8
0
 62
   254
100
AcDbTrace
 10
419.9048419999999
 20
326.927663
 30
0.0
 11
419.9048419999999
 21
328.09433
 31
0.0
 12
423.4048419999999
 22
327.510997
 32
0.0
 13
423.4048419999999
 23
327.510997
 33
0.0
  0
SOLID
  5
212
330
20B
100
AcDbEntity
  8
0
 62
   254
100
AcDbTrace
 10
277.904842
 20
328.09433
 30
0.0
 11
277.904842
 21
326.927663
 31
0.0
 12
274.404842
 22
327.510997
 32
0.0
 13
274.404842
 23
327.510997
 33
0.0
  0
MTEXT
  5
213
330
20B
100
AcDbEntity
  8
0
 62
   254
370
    13
100
AcDbMText
 10
348.904842
 20
332.7609970000001
 30
0.0
 40
3.5
 41
0.0
 71
     5
 72
     1
  1
\A1;149
  7
cesky
 73
     1
 44
1.0
  0
POINT
  5
214
330
20B
100
AcDbEntity
  8
Defpoints
 62
     0
100
AcDbPoint
 10
423.4048419999999
 20
309.407994
 30
0.0
  0
POINT
  5
215
330
20B
100
AcDbEntity
  8
Defpoints
 62
     0
100
AcDbPoint
 10
274.404842
 20
288.907994
 30
0.0
  0
POINT
  5
216
330
20B
100
AcDbEntity
  8
Defpoints
 62
     0
100
AcDbPoint
 10
274.404842
 20
327.510997
 30
0.0
  0
ENDBLK
  5
20D
330
20B
100
AcDbEntity
  8
0
100
AcDbBlockEnd
  0
BLOCK
  5
21E
330
217
100
AcDbEntity
  8
0
100
AcDbBlockBegin
  2
_U0
 70
     0
 10
0.0
 20
0.0
 30
0.0
  3
_U0
  1

  0
ENDBLK
  5
21F
330
217
100
AcDbEntity
  8
0
100
AcDbBlockEnd
  0
BLOCK
  5
224
330
223
100
AcDbEntity
  8
0
100
AcDbBlockBegin
  2
*D4
 70
     1
 10
0.0
 20
0.0
 30
0.0
  3
*D4
  1

  0
LINE
  5
226
330
223
100
AcDbEntity
  8
0
 62
   254
370
    -2
100
AcDbLine
 10
290.203832
 20
288.907994
 30
0.0
 11
440.220949
 21
288.907994
 31
0.0
  0
LINE
  5
227
330
223
100
AcDbEntity
  8
0
 62
   254
370
    -2
100
AcDbLine
 10
330.83929
 20
309.407994
 30
0.0
 11
440.220949
 21
309.407994
 31
0.0
  0
LINE
  5
228
330
223
100
AcDbEntity
  8
0
 62
   254
370
    -2
100
AcDbLine
 10
439.2209489999999
 20
288.907994
 30
0.0
 11
439.2209489999999
 21
309.407994
 31
0.0
  0
SOLID
  5
229
330
223
100
AcDbEntity
  8
0
 62
   254
100
AcDbTrace
 10
439.804282
 20
305.907994
 30
0.0
 11
438.637616
 21
305.907994
 31
0.0
 12
439.2209489999999
 22
309.407994
 32
0.0
 13
439.2209489999999
 23
309.407994
 33
0.0
  0
MTEXT
  5
22A
330
223
100
AcDbEntity
  8
0
 62
   254
370
    13
100
AcDbMText
 10
433.970949
 20
279.82466
 30
0.0
 40
3.5
 41
0.0
 71
     5
 72
     1
  1
\A1;41
  7
cesky
 11
0.0
 21
1.0
 31
0.0
 73
     1
 44
1.0
  0
POINT
  5
22B
330
223
100
AcDbEntity
  8
Defpoints
 62
     0
100
AcDbPoint
 10
290.203832
 20
288.907994
 30
0.0
  0
POINT
  5
22C
330
223
100
AcDbEntity
  8
Defpoints
 62
     0
100
AcDbPoint
 10
330.83929
 20
309.407994
 30
0.0
  0
POINT
  5
22D
330
223
100
AcDbEntity
  8
Defpoints
 62
     0
100
AcDbPoint
 10
439.2209489999999
 20
309.407994
 30
0.0
  0
ENDBLK
  5
225
330
223
100
AcDbEntity
  8
0
100
AcDbBlockEnd
  0
BLOCK
  5
234
330
22E
100
AcDbEntity
  8
0
100
AcDbBlockBegin
  2
_U1
 70
     0
 10
0.0
 20
0.0
 30
0.0
  3
_U1
  1

  0
ENDBLK
  5
235
330
22E
100
AcDbEntity
  8
0
100
AcDbBlockEnd
  0
BLOCK
  5
23A
330
239
100
AcDbEntity
  8
0
100
AcDbBlockBegin
  2
*D6
 70
     1
 10
0.0
 20
0.0
 30
0.0
  3
*D6
  1

  0
LINE
  5
23C
330
239
100
AcDbEntity
  8
0
 62
    95
370
    -2
100
AcDbLine
 10
206.404842
 20
308.907994
 30
0.0
 11
192.996832
 21
308.907994
 31
0.0
  0
LINE
  5
23D
330
239
100
AcDbEntity
  8
0
 62
    95
370
    -2
100
AcDbLine
 10
206.404842
 20
268.907994
 30
0.0
 11
192.996832
 21
268.907994
 31
0.0
  0
LINE
  5
23E
330
239
100
AcDbEntity
  8
0
 62
    95
370
    -2
100
AcDbLine
 10
193.996832
 20
305.407994
 30
0.0
 11
193.996832
 21
272.407994
 31
0.0
  0
SOLID
  5
23F
330
239
100
AcDbEntity
  8
0
 62
    95
100
AcDbTrace
 10
194.580166
 20
305.407994
 30
0.0
 11
193.413499
 21
305.407994
 31
0.0
 12
193.996832
 22
308.907994
 32
0.0
 13
193.996832
 23
308.907994
 33
0.0
  0
SOLID
  5
240
330
239
100
AcDbEntity
  8
0
 62
    95
100
AcDbTrace
 10
193.413499
 20
272.407994
 30
0.0
 11
194.580166
 21
272.407994
 31
0.0
 12
193.996832
 22
268.907994
 32
0.0
 13
193.996832
 23
268.907994
 33
0.0
  0
MTEXT
  5
241
330
239
100
AcDbEntity
  8
0
 62
    95
370
    13
100
AcDbMText
 10
188.746832
 20
288.907994
 30
0.0
 40
3.5
 41
0.0
 71
     5
 72
     1
  1
\A1;40
  7
cesky
 11
0.0
 21
1.0
 31
0.0
 73
     1
 44
1.0
  0
POINT
  5
242
330
239
100
AcDbEntity
  8
Defpoints
 62
     0
100
AcDbPoint
 10
206.404842
 20
308.907994
 30
0.0
  0
POINT
  5
243
330
239
100
AcDbEntity
  8
Defpoints
 62
     0
100
AcDbPoint
 10
206.404842
 20
268.907994
 30
0.0
  0
POINT
  5
244
330
239
100
AcDbEntity
  8
Defpoints
 62
     0
100
AcDbPoint
 10
193.996832
 20
268.907994
 30
0.0
  0
ENDBLK
  5
23B
330
239
100
AcDbEntity
  8
0
100
AcDbBlockEnd
  0
BLOCK
  5
24D
330
245
100
AcDbEntity
  8
0
100
AcDbBlockBegin
  2
_U2
 70
     0
 10
0.0
 20
0.0
 30
0.0
  3
_U2
  1

  0
ENDBLK
  5
24E
330
245
100
AcDbEntity
  8
0
100
AcDbBlockEnd
  0
BLOCK
  5
253
330
252
100
AcDbEntity
  8
0
100
AcDbBlockBegin
  2
*D8
 70
     1
 10
0.0
 20
0.0
 30
0.0
  3
*D8
  1

  0
LINE
  5
255
330
252
100
AcDbEntity
  8
0
 62
    95
370
    -2
100
AcDbLine
 10
277.154842
 20
313.907994
 30
0.0
 11
181.188499
 21
313.907994
 31
0.0
  0
LINE
  5
256
330
252
100
AcDbEntity
  8
0
 62
    95
370
    -2
100
AcDbLine
 10
277.154842
 20
263.907994
 30
0.0
 11
181.188499
 21
263.907994
 31
0.0
  0
LINE
  5
257
330
252
100
AcDbEntity
  8
0
 62
    95
370
    -2
100
AcDbLine
 10
182.188499
 20
310.407994
 30
0.0
 11
182.188499
 21
267.407994
 31
0.0
  0
SOLID
  5
258
330
252
100
AcDbEntity
  8
0
 62
    95
100
AcDbTrace
 10
182.771833
 20
310.407994
 30
0.0
 11
181.605166
 21
310.407994
 31
0.0
 12
182.188499
 22
313.907994
 32
0.0
 13
182.188499
 23
313.907994
 33
0.0
  0
SOLID
  5
259
330
252
100
AcDbEntity
  8
0
 62
    95
100
AcDbTrace
 10
181.605166
 20
267.407994
 30
0.0
 11
182.771833
 21
267.407994
 31
0.0
 12
182.188499
 22
263.907994
 32
0.0
 13
182.188499
 23
263.907994
 33
0.0
  0
MTEXT
  5
25A
330
252
100
AcDbEntity
  8
0
 62
    95
370
    13
100
AcDbMText
 10
176.938499
 20
288.907994
 30
0.0
 40
3.5
 41
0.0
 71
     5
 72
     1
  1
\A1;50
  7
cesky
 11
0.0
 21
1.0
 31
0.0
 73
     1
 44
1.0
  0
POINT
  5
25B
330
252
100
AcDbEntity
  8
Defpoints
 62
     0
100
AcDbPoint
 10
277.154842
 20
313.907994
 30
0.0
  0
POINT
  5
25C
330
252
100
AcDbEntity
  8
Defpoints
 62
     0
100
AcDbPoint
 10
277.154842
 20
263.907994
 30
0.0
  0
POINT
  5
25D
330
252
100
AcDbEntity
  8
Defpoints
 62
     0
100
AcDbPoint
 10
182.188499
 20
263.907994
 30
0.0
  0
ENDBLK
  5
254
330
252
100
AcDbEntity
  8
0
100
AcDbBlockEnd
  0
BLOCK
  5
266
330
25E
100
AcDbEntity
  8
0
100
AcDbBlockBegin
  2
_U3
 70
     0
 10
0.0
 20
0.0
 30
0.0
  3
_U3
  1

  0
ENDBLK
  5
267
330
25E
100
AcDbEntity
  8
0
100
AcDbBlockEnd
  0
BLOCK
  5
26C
330
26B
100
AcDbEntity
  8
0
100
AcDbBlockBegin
  2
*D10
 70
     1
 10
0.0
 20
0.0
 30
0.0
  3
*D10
  1

  0
LINE
  5
26E
330
26B
100
AcDbEntity
  8
0
 62
   254
370
    -2
100
AcDbLine
 10
423.4048419999999
 20
311.407994
 30
0.0
 11
423.4048419999999
 21
341.687968
 31
0.0
  0
LINE
  5
26F
330
26B
100
AcDbEntity
  8
0
 62
   254
370
    -2
100
AcDbLine
 10
204.404842
 20
306.907994
 30
0.0
 11
204.404842
 21
341.687968
 31
0.0
  0
LINE
  5
270
330
26B
100
AcDbEntity
  8
0
 62
   254
370
    -2
100
AcDbLine
 10
419.9048419999999
 20
340.687968
 30
0.0
 11
207.904842
 21
340.687968
 31
0.0
  0
SOLID
  5
271
330
26B
100
AcDbEntity
  8
0
 62
   254
100
AcDbTrace
 10
419.9048419999999
 20
340.104634
 30
0.0
 11
419.9048419999999
 21
341.271301
 31
0.0
 12
423.4048419999999
 22
340.687968
 32
0.0
 13
423.4048419999999
 23
340.687968
 33
0.0
  0
SOLID
  5
272
330
26B
100
AcDbEntity
  8
0
 62
   254
100
AcDbTrace
 10
207.904842
 20
341.271301
 30
0.0
 11
207.904842
 21
340.104634
 31
0.0
 12
204.404842
 22
340.687968
 32
0.0
 13
204.404842
 23
340.687968
 33
0.0
  0
MTEXT
  5
273
330
26B
100
AcDbEntity
  8
0
 62
   254
370
    13
100
AcDbMText
 10
313.904842
 20
345.937968
 30
0.0
 40
3.5
 41
0.0
 71
     5
 72
     1
  1
\A1;219
  7
cesky
 73
     1
 44
1.0
  0
POINT
  5
274
330
26B
100
AcDbEntity
  8
Defpoints
 62
     0
100
AcDbPoint
 10
423.4048419999999
 20
311.407994
 30
0.0
  0
POINT
  5
275
330
26B
100
AcDbEntity
  8
Defpoints
 62
     0
100
AcDbPoint
 10
204.404842
 20
306.907994
 30
0.0
  0
POINT
  5
276
330
26B
100
AcDbEntity
  8
Defpoints
 62
     0
100
AcDbPoint
 10
204.404842
 20
340.687968
 30
0.0
  0
ENDBLK
  5
26D
330
26B
100
AcDbEntity
  8
0
100
AcDbBlockEnd
  0
BLOCK
  5
27E
330
277
100
AcDbEntity
  8
0
100
AcDbBlockBegin
  2
_U4
 70
     0
 10
0.0
 20
0.0
 30
0.0
  3
_U4
  1

  0
ENDBLK
  5
27F
330
277
100
AcDbEntity
  8
0
100
AcDbBlockEnd
  0
BLOCK
  5
284
330
283
100
AcDbEntity
  8
0
100
AcDbBlockBegin
  2
*D12
 70
     1
 10
0.0
 20
0.0
 30
0.0
  3
*D12
  1

  0
LINE
  5
286
330
283
100
AcDbEntity
  8
0
 62
   254
370
    -2
100
AcDbLine
 10
274.404842
 20
288.907994
 30
0.0
 11
274.404842
 21
328.5109970000001
 31
0.0
  0
LINE
  5
287
330
283
100
AcDbEntity
  8
0
 62
   254
370
    -2
100
AcDbLine
 10
204.404842
 20
303.696669
 30
0.0
 11
204.404842
 21
328.5109970000001
 31
0.0
  0
LINE
  5
288
330
283
100
AcDbEntity
  8
0
 62
   254
370
    -2
100
AcDbLine
 10
270.904842
 20
327.510997
 30
0.0
 11
207.904842
 21
327.510997
 31
0.0
  0
SOLID
  5
289
330
283
100
AcDbEntity
  8
0
 62
   254
100
AcDbTrace
 10
270.904842
 20
326.927663
 30
0.0
 11
270.904842
 21
328.09433
 31
0.0
 12
274.404842
 22
327.510997
 32
0.0
 13
274.404842
 23
327.510997
 33
0.0
  0
SOLID
  5
28A
330
283
100
AcDbEntity
  8
0
 62
   254
100
AcDbTrace
 10
207.904842
 20
328.09433
 30
0.0
 11
207.904842
 21
326.927663
 31
0.0
 12
204.404842
 22
327.510997
 32
0.0
 13
204.404842
 23
327.510997
 33
0.0
  0
MTEXT
  5
28B
330
283
100
AcDbEntity
  8
0
 62
   254
370
    13
100
AcDbMText
 10
239.404842
 20
332.7609970000001
 30
0.0
 40
3.5
 41
0.0
 71
     5
 72
     1
  1
\A1;70
  7
cesky
 73
     1
 44
1.0
  0
POINT
  5
28C
330
283
100
AcDbEntity
  8
Defpoints
 62
     0
100
AcDbPoint
 10
274.404842
 20
288.907994
 30
0.0
  0
POINT
  5
28D
330
283
100
AcDbEntity
  8
Defpoints
 62
     0
100
AcDbPoint
 10
204.404842
 20
303.696669
 30
0.0
  0
POINT
  5
28E
330
283
100
AcDbEntity
  8
Defpoints
 62
     0
100
AcDbPoint
 10
204.404842
 20
327.510997
 30
0.0
  0
ENDBLK
  5
285
330
283
100
AcDbEntity
  8
0
100
AcDbBlockEnd
  0
BLOCK
  5
296
330
28F
100
AcDbEntity
  8
0
100
AcDbBlockBegin
  2
_U5
 70
     0
 10
0.0
 20
0.0
 30
0.0
  3
_U5
  1

  0
ENDBLK
  5
297
330
28F
100
AcDbEntity
  8
0
100
AcDbBlockEnd
  0
BLOCK
  5
29C
330
29B
100
AcDbEntity
  8
0
100
AcDbBlockBegin
  2
*D14
 70
     1
 10
0.0
 20
0.0
 30
0.0
  3
*D14
  1

  0
LINE
  5
29E
330
29B
100
AcDbEntity
  8
0
 62
   254
370
    -2
100
AcDbLine
 10
423.4048419999999
 20
309.407994
 30
0.0
 11
423.4048419999999
 21
317.848012
 31
0.0
  0
LINE
  5
29F
330
29B
100
AcDbEntity
  8
0
 62
   254
370
    -2
100
AcDbLine
 10
290.398098
 20
309.670277
 30
0.0
 11
290.398098
 21
317.848012
 31
0.0
  0
LINE
  5
2A0
330
29B
100
AcDbEntity
  8
0
 62
   254
370
    -2
100
AcDbLine
 10
419.9048419999999
 20
316.848012
 30
0.0
 11
293.898098
 21
316.848012
 31
0.0
  0
SOLID
  5
2A1
330
29B
100
AcDbEntity
  8
0
 62
   254
100
AcDbTrace
 10
419.9048419999999
 20
316.264679
 30
0.0
 11
419.9048419999999
 21
317.431346
 31
0.0
 12
423.4048419999999
 22
316.848012
 32
0.0
 13
423.4048419999999
 23
316.848012
 33
0.0
  0
SOLID
  5
2A2
330
29B
100
AcDbEntity
  8
0
 62
   254
100
AcDbTrace
 10
293.898098
 20
317.431346
 30
0.0
 11
293.898098
 21
316.264679
 31
0.0
 12
290.398098
 22
316.848012
 32
0.0
 13
290.398098
 23
316.848012
 33
0.0
  0
MTEXT
  5
2A3
330
29B
100
AcDbEntity
  8
0
 62
   254
370
    13
100
AcDbMText
 10
356.90147
 20
322.098012
 30
0.0
 40
3.5
 41
0.0
 71
     5
 72
     1
  1
\A1;133
  7
cesky
 73
     1
 44
1.0
  0
POINT
  5
2A4
330
29B
100
AcDbEntity
  8
Defpoints
 62
     0
100
AcDbPoint
 10
423.4048419999999
 20
309.407994
 30
0.0
  0
POINT
  5
2A5
330
29B
100
AcDbEntity
  8
Defpoints
 62
     0
100
AcDbPoint
 10
290.398098
 20
309.670277
 30
0.0
  0
POINT
  5
2A6
330
29B
100
AcDbEntity
  8
Defpoints
 62
     0
100
AcDbPoint
 10
290.398098
 20
316.848012
 30
0.0
  0
ENDBLK
  5
29D
330
29B
100
AcDbEntity
  8
0
100
AcDbBlockEnd
  0
BLOCK
  5
2AE
330
2A7
100
AcDbEntity
  8
0
100
AcDbBlockBegin
  2
_U6
 70
     0
 10
0.0
 20
0.0
 30
0.0
  3
_U6
  1

  0
ENDBLK
  5
2AF
330
2A7
100
AcDbEntity
  8
0
100
AcDbBlockEnd
  0
ENDSEC
  0
SECTION
  2
ENTITIES
  0
POINT
  5
73
102
{ACAD_REACTORS
330
358
102
}
330
1F
100
AcDbEntity
  8
80
100
AcDbPoint
 10
274.404842
 20
288.907994
 30
0.0
  0
POINT
  5
76
330
1F
100
AcDbEntity
  8
4
 60
     1
100
AcDbPoint
 10
290.203832
 20
288.907994
 30
0.0
  0
POINT
  5
78
330
1F
100
AcDbEntity
  8
4
 60
     1
100
AcDbPoint
 10
422.442478
 20
288.907994
 30
0.0
  0
POINT
  5
79
330
1F
100
AcDbEntity
  8
SK4
 60
     1
100
AcDbPoint
 10
206.404842
 20
288.907994
 30
0.0
  0
POINT
  5
7A
330
1F
100
AcDbEntity
  8
SK4
 60
     1
100
AcDbPoint
 10
274.404842
 20
288.907994
 30
0.0
  0
POINT
  5
7B
330
1F
100
AcDbEntity
  8
SK6
 60
     1
100
AcDbPoint
 10
274.404842
 20
288.907994
 30
0.0
  0
POINT
  5
7C
330
1F
100
AcDbEntity
  8
SK6
 60
     1
100
AcDbPoint
 10
290.398098
 20
309.670277
 30
0.0
  0
LINE
  5
7D
330
1F
100
AcDbEntity
  8
1
100
AcDbLine
 10
414.8677859999999
 20
302.778707
 30
0.0
 11
414.903337
 21
302.879498
 31
0.0
  0
LINE
  5
7F
330
1F
100
AcDbEntity
  8
1
100
AcDbLine
 10
417.4556009999999
 20
302.429439
 30
0.0
 11
417.42005
 21
302.328648
 31
0.0
  0
LINE
  5
80
330
1F
100
AcDbEntity
  8
1
100
AcDbLine
 10
421.48025
 20
278.859184
 30
0.0
 11
421.562895
 21
278.904995
 31
0.0
  0
LINE
  5
82
330
1F
100
AcDbEntity
  8
1
100
AcDbLine
 10
290.203832
 20
268.907994
 30
0.0
 11
312.706331
 21
268.907994
 31
0.0
  0
LINE
  5
84
330
1F
100
AcDbEntity
  8
1
100
AcDbLine
 10
410.009645
 20
308.907994
 30
0.0
 11
403.97516
 21
308.907994
 31
0.0
  0
LINE
  5
85
330
1F
100
AcDbEntity
  8
1
100
AcDbLine
 10
422.4448419999999
 20
290.086715
 30
0.0
 11
422.4448419999999
 21
290.37816
 31
0.0
  0
LINE
  5
86
330
1F
100
AcDbEntity
  8
1
100
AcDbLine
 10
326.090335
 20
308.907994
 30
0.0
 11
290.203832
 21
308.907994
 31
0.0
  0
LINE
  5
87
330
1F
100
AcDbEntity
  8
1
100
AcDbLine
 10
414.801961
 20
303.402222
 30
0.0
 11
414.768134
 21
303.306318
 31
0.0
  0
LINE
  5
88
330
1F
100
AcDbEntity
  8
1
100
AcDbLine
 10
414.8670909999999
 20
303.342582
 30
0.0
 11
414.832715
 21
303.245119
 31
0.0
  0
LINE
  5
89
330
1F
100
AcDbEntity
  8
1
100
AcDbLine
 10
417.6231079999999
 20
302.600453
 30
0.0
 11
417.6575
 21
302.697958
 31
0.0
  0
LINE
  5
8A
330
1F
100
AcDbEntity
  8
1
100
AcDbLine
 10
414.915898
 20
301.860272
 30
0.0
 11
414.8815759999999
 21
301.762963
 31
0.0
  0
LINE
  5
8B
330
1F
100
AcDbEntity
  8
1
100
AcDbLine
 10
414.8725869999999
 20
301.8397109999999
 30
0.0
 11
414.8385639999999
 21
301.743251
 31
0.0
  0
LINE
  5
8C
330
1F
100
AcDbEntity
  8
1
100
AcDbLine
 10
416.931602
 20
301.291547
 30
0.0
 11
416.9659389999999
 21
301.388896
 31
0.0
  0
LINE
  5
8D
330
1F
100
AcDbEntity
  8
1
100
AcDbLine
 10
416.969174
 20
301.248595
 30
0.0
 11
417.003148
 21
301.344917
 31
0.0
  0
LINE
  5
8E
330
1F
100
AcDbEntity
  8
1
100
AcDbLine
 10
284.404842
 20
308.665369
 30
0.0
 11
284.404842
 21
291.609818
 31
0.0
  0
LINE
  5
8F
330
1F
100
AcDbEntity
  8
1
100
AcDbLine
 10
284.404842
 20
272.905969
 30
0.0
 11
284.404842
 21
269.15062
 31
0.0
  0
LINE
  5
90
330
1F
100
AcDbEntity
  8
1
100
AcDbLine
 10
407.808652
 20
292.205013
 30
0.0
 11
407.82761
 21
291.650924
 31
0.0
  0
LINE
  5
91
330
1F
100
AcDbEntity
  8
1
100
AcDbLine
 10
407.8862049999999
 20
295.647039
 30
0.0
 11
407.8899739999999
 21
295.657725
 31
0.0
  0
LINE
  5
92
330
1F
100
AcDbEntity
  8
1
100
AcDbLine
 10
403.6857089999999
 20
297.372254
 30
0.0
 11
402.9103099999999
 21
297.819229
 31
0.0
  0
LINE
  5
93
330
1F
100
AcDbEntity
  8
1
100
AcDbLine
 10
420.681661
 20
295.522006
 30
0.0
 11
412.2880529999999
 21
295.2292
 31
0.0
  0
LINE
  5
94
330
1F
100
AcDbEntity
  8
1
100
AcDbLine
 10
412.7750759999999
 20
303.825325
 30
0.0
 11
412.774967
 21
303.825018
 31
0.0
  0
LINE
  5
95
330
1F
100
AcDbEntity
  8
1
100
AcDbLine
 10
422.4664
 20
308.550825
 30
0.0
 11
422.864985
 21
297.42424
 31
0.0
  0
LINE
  5
96
330
1F
100
AcDbEntity
  8
1
100
AcDbLine
 10
410.524572
 20
308.910286
 30
0.0
 11
421.6627509999999
 21
309.298834
 31
0.0
  0
LINE
  5
97
330
1F
100
AcDbEntity
  8
1
100
AcDbLine
 10
410.1750399999999
 20
296.981559
 30
0.0
 11
409.776454
 21
308.108144
 31
0.0
  0
LINE
  5
98
330
1F
100
AcDbEntity
  8
1
100
AcDbLine
 10
422.1168679999999
 20
296.622099
 30
0.0
 11
410.9786879999999
 21
296.23355
 31
0.0
  0
LINE
  5
99
330
1F
100
AcDbEntity
  8
1
100
AcDbLine
 10
411.6592409999999
 20
307.089374
 30
0.0
 11
420.652116
 21
307.403085
 31
0.0
  0
LINE
  5
9A
330
1F
100
AcDbEntity
  8
1
100
AcDbLine
 10
411.981056
 20
298.10586
 30
0.0
 11
411.6592409999999
 21
307.089374
 31
0.0
  0
LINE
  5
9B
330
1F
100
AcDbEntity
  8
1
100
AcDbLine
 10
420.9739309999999
 20
298.419571
 30
0.0
 11
411.981056
 21
298.10586
 31
0.0
  0
LINE
  5
9C
330
1F
100
AcDbEntity
  8
1
100
AcDbLine
 10
420.652116
 20
307.403085
 30
0.0
 11
420.9739309999999
 21
298.419571
 31
0.0
  0
LINE
  5
9D
330
1F
100
AcDbEntity
  8
1
100
AcDbLine
 10
422.135199
 20
289.48638
 30
0.0
 11
422.68309
 21
289.157174
 31
0.0
  0
LINE
  5
9E
330
1F
100
AcDbEntity
  8
1
100
AcDbLine
 10
422.5062139999999
 20
277.928159
 30
0.0
 11
421.6124409999999
 21
277.432733
 31
0.0
  0
LINE
  5
9F
330
1F
100
AcDbEntity
  8
1
100
AcDbLine
 10
422.0253429999999
 20
278.426115
 30
0.0
 11
422.5062139999999
 21
277.928159
 31
0.0
  0
LINE
  5
A0
330
1F
100
AcDbEntity
  8
1
100
AcDbLine
 10
423.253269
 20
279.171467
 30
0.0
 11
422.5062139999999
 21
277.928159
 31
0.0
  0
LINE
  5
A1
330
1F
100
AcDbEntity
  8
1
100
AcDbLine
 10
422.1851339999999
 20
288.676303
 30
0.0
 11
422.68309
 21
289.157174
 31
0.0
  0
LINE
  5
A2
330
1F
100
AcDbEntity
  8
1
100
AcDbLine
 10
422.68309
 20
289.157174
 30
0.0
 11
423.4048419999999
 21
287.855099
 31
0.0
  0
LINE
  5
A3
330
1F
100
AcDbEntity
  8
1
100
AcDbLine
 10
422.733164
 20
287.68763
 30
0.0
 11
423.4048419999999
 21
287.855099
 31
0.0
  0
LINE
  5
A4
330
1F
100
AcDbEntity
  8
1
100
AcDbLine
 10
422.587844
 20
279.362274
 30
0.0
 11
423.253269
 21
279.171467
 31
0.0
  0
LINE
  5
A5
330
1F
100
AcDbEntity
  8
1
100
AcDbLine
 10
423.4048419999999
 20
287.855099
 30
0.0
 11
423.253269
 21
279.171467
 31
0.0
  0
LINE
  5
A6
330
1F
100
AcDbEntity
  8
1
100
AcDbLine
 10
422.733164
 20
287.68763
 30
0.0
 11
422.587844
 21
279.362274
 31
0.0
  0
LINE
  5
A7
330
1F
100
AcDbEntity
  8
1
100
AcDbLine
 10
422.0253429999999
 20
278.426115
 30
0.0
 11
421.3973509999999
 21
278.078013
 31
0.0
  0
LINE
  5
A8
330
1F
100
AcDbEntity
  8
1
100
AcDbLine
 10
421.872837
 20
288.86395
 30
0.0
 11
422.1851339999999
 21
288.676303
 31
0.0
  0
LINE
  5
A9
330
1F
100
AcDbEntity
  8
1
100
AcDbLine
 10
421.947912
 20
279.545771
 30
0.0
 11
422.0872179999999
 21
287.526578
 31
0.0
  0
LINE
  5
AA
330
1F
100
AcDbEntity
  8
1
100
AcDbLine
 10
422.1851339999999
 20
288.676303
 30
0.0
 11
421.872845
 21
288.374729
 31
0.0
  0
LINE
  5
AB
330
1F
100
AcDbEntity
  8
1
100
AcDbLine
 10
422.0872179999999
 20
287.526578
 30
0.0
 11
421.8728429999999
 21
287.913321
 31
0.0
  0
LINE
  5
AC
330
1F
100
AcDbEntity
  8
1
100
AcDbLine
 10
422.733164
 20
287.68763
 30
0.0
 11
422.0872179999999
 21
287.526578
 31
0.0
  0
LINE
  5
AD
330
1F
100
AcDbEntity
  8
1
100
AcDbLine
 10
422.1851339999999
 20
288.676303
 30
0.0
 11
422.733164
 21
287.68763
 31
0.0
  0
LINE
  5
AE
330
1F
100
AcDbEntity
  8
1
100
AcDbLine
 10
422.587844
 20
279.362274
 30
0.0
 11
421.947912
 21
279.545771
 31
0.0
  0
LINE
  5
AF
330
1F
100
AcDbEntity
  8
1
100
AcDbLine
 10
421.562895
 20
278.904995
 30
0.0
 11
421.947912
 21
279.545771
 31
0.0
  0
LINE
  5
B0
330
1F
100
AcDbEntity
  8
1
100
AcDbLine
 10
422.0253429999999
 20
278.426115
 30
0.0
 11
421.562895
 21
278.904995
 31
0.0
  0
LINE
  5
B1
330
1F
100
AcDbEntity
  8
1
100
AcDbLine
 10
422.587844
 20
279.362274
 30
0.0
 11
422.0253429999999
 21
278.426115
 31
0.0
  0
LINE
  5
B2
330
1F
100
AcDbEntity
  8
1
100
AcDbLine
 10
279.404842
 20
263.907994
 30
0.0
 11
279.404842
 21
274.559488
 31
0.0
  0
LINE
  5
B3
330
1F
100
AcDbEntity
  8
1
100
AcDbLine
 10
279.404842
 20
313.907994
 30
0.0
 11
279.404842
 21
286.381006
 31
0.0
  0
LINE
  5
B4
330
1F
100
AcDbEntity
  8
1
100
AcDbLine
 10
419.779462
 20
282.557994
 30
0.0
 11
420.2494689999999
 21
282.557994
 31
0.0
  0
LINE
  5
B5
330
1F
100
AcDbEntity
  8
1
100
AcDbLine
 10
410.067666
 20
308.738037
 30
0.0
 11
410.061944
 21
308.904549
 31
0.0
  0
LINE
  5
B6
330
1F
100
AcDbEntity
  8
1
100
AcDbLine
 10
413.5342249999999
 20
296.117931
 30
0.0
 11
422.2265659999999
 21
296.421158
 31
0.0
  0
LINE
  5
B7
330
1F
100
AcDbEntity
  8
1
100
AcDbLine
 10
422.228965
 20
296.075691
 30
0.0
 11
422.2265659999999
 21
296.421158
 31
0.0
  0
LINE
  5
B8
330
1F
100
AcDbEntity
  8
1
100
AcDbLine
 10
422.153044
 20
295.545642
 30
0.0
 11
412.2958859999999
 21
295.20178
 31
0.0
  0
LINE
  5
B9
330
1F
100
AcDbEntity
  8
1
100
AcDbLine
 10
422.153044
 20
295.545642
 30
0.0
 11
419.656085
 21
291.408751
 31
0.0
  0
LINE
  5
BA
330
1F
100
AcDbEntity
  8
1
100
AcDbLine
 10
422.268571
 20
296.437276
 30
0.0
 11
413.5394569999999
 21
296.132766
 31
0.0
  0
LINE
  5
BB
330
1F
100
AcDbEntity
  8
1
100
AcDbLine
 10
413.5342249999999
 20
296.117931
 30
0.0
 11
413.5394569999999
 21
296.132766
 31
0.0
  0
LINE
  5
BC
330
1F
100
AcDbEntity
  8
1
100
AcDbLine
 10
421.943111
 20
289.467741
 30
0.0
 11
422.1191799999999
 21
289.464668
 31
0.0
  0
LINE
  5
BD
330
1F
100
AcDbEntity
  8
1
100
AcDbLine
 10
422.1191799999999
 20
289.464668
 30
0.0
 11
422.4026799999999
 21
289.848841
 31
0.0
  0
LINE
  5
BE
330
1F
100
AcDbEntity
  8
1
100
AcDbLine
 10
422.4026799999999
 20
290.087451
 30
0.0
 11
422.4026799999999
 21
289.848841
 31
0.0
  0
LINE
  5
BF
330
1F
100
AcDbEntity
  8
1
100
AcDbLine
 10
422.4026799999999
 20
290.087451
 30
0.0
 11
422.4448419999999
 21
290.086715
 31
0.0
  0
LINE
  5
C0
330
1F
100
AcDbEntity
  8
1
100
AcDbLine
 10
422.4448419999999
 20
296.708984
 30
0.0
 11
422.4448419999999
 21
290.37816
 31
0.0
  0
LINE
  5
C1
330
1F
100
AcDbEntity
  8
1
100
AcDbLine
 10
422.268571
 20
296.437276
 30
0.0
 11
422.2671449999999
 21
296.642789
 31
0.0
  0
LINE
  5
C2
330
1F
100
AcDbEntity
  8
1
100
AcDbLine
 10
422.268571
 20
296.437276
 30
0.0
 11
422.2265659999999
 21
296.421158
 31
0.0
  0
LINE
  5
C3
330
1F
100
AcDbEntity
  8
1
100
AcDbLine
 10
422.153044
 20
295.545642
 30
0.0
 11
422.1624249999999
 21
295.549241
 31
0.0
  0
LINE
  5
C4
330
1F
100
AcDbEntity
  8
1
100
AcDbLine
 10
420.99607
 20
268.907994
 30
0.0
 11
421.8392769999999
 21
276.852497
 31
0.0
  0
LINE
  5
C5
330
1F
100
AcDbEntity
  8
1
100
AcDbLine
 10
421.8392769999999
 20
276.852497
 30
0.0
 11
421.797186
 21
276.85317
 31
0.0
  0
LINE
  5
C6
330
1F
100
AcDbEntity
  8
1
100
AcDbLine
 10
421.8224679999999
 20
277.091371
 30
0.0
 11
421.797186
 21
276.85317
 31
0.0
  0
LINE
  5
C7
330
1F
100
AcDbEntity
  8
1
100
AcDbLine
 10
421.8224679999999
 20
277.091371
 30
0.0
 11
421.580678
 21
277.484351
 31
0.0
  0
LINE
  5
C8
330
1F
100
AcDbEntity
  8
1
100
AcDbLine
 10
421.580678
 20
277.484351
 30
0.0
 11
421.404908
 21
277.487164
 31
0.0
  0
LINE
  5
C9
330
1F
100
AcDbEntity
  8
1
100
AcDbLine
 10
421.387742
 20
277.987503
 30
0.0
 11
421.8728409999999
 21
282.557994
 31
0.0
  0
LINE
  5
CA
330
1F
100
AcDbEntity
  8
1
100
AcDbLine
 10
420.8575589999999
 20
282.557994
 30
0.0
 11
421.8728409999999
 21
282.557994
 31
0.0
  0
LINE
  5
CB
330
1F
100
AcDbEntity
  8
1
100
AcDbLine
 10
421.8728409999999
 20
282.557994
 30
0.0
 11
421.8728409999999
 21
288.968891
 31
0.0
  0
LINE
  5
CC
330
1F
100
AcDbEntity
  8
1
100
AcDbLine
 10
409.797622
 20
308.309862
 30
0.0
 11
409.7794109999999
 21
308.839795
 31
0.0
  0
LINE
  5
CD
330
1F
100
AcDbEntity
  8
SK1
100
AcDbLine
 10
206.404842
 20
308.907994
 30
0.0
 11
206.404842
 21
268.907994
 31
0.0
  0
LINE
  5
CE
330
1F
100
AcDbEntity
  8
SK1
100
AcDbLine
 10
204.404842
 20
306.907994
 30
0.0
 11
204.404842
 21
270.907994
 31
0.0
  0
LINE
  5
CF
330
1F
100
AcDbEntity
  8
1
100
AcDbLine
 10
409.875433
 20
299.517247
 30
0.0
 11
409.8702009999999
 21
299.502412
 31
0.0
  0
LINE
  5
D0
330
1F
100
AcDbEntity
  8
1
100
AcDbLine
 10
409.875433
 20
299.517247
 30
0.0
 11
409.555046
 21
308.840117
 31
0.0
  0
LINE
  5
D1
330
1F
100
AcDbEntity
  8
1
100
AcDbLine
 10
409.5502299999999
 20
308.81316
 30
0.0
 11
409.8702009999999
 21
299.502412
 31
0.0
  0
LINE
  5
D2
330
1F
100
AcDbEntity
  8
1
100
AcDbLine
 10
420.99607
 20
268.907994
 30
0.0
 11
404.326741
 21
268.907994
 31
0.0
  0
LINE
  5
D3
330
1F
100
AcDbEntity
  8
1
100
AcDbLine
 10
274.904842
 20
263.907994
 30
0.0
 11
274.904842
 21
288.907994
 31
0.0
  0
LINE
  5
D4
330
1F
100
AcDbEntity
  8
1
100
AcDbLine
 10
274.904842
 20
288.907994
 30
0.0
 11
274.904842
 21
313.907994
 31
0.0
  0
LINE
  5
D5
330
1F
100
AcDbEntity
  8
1
100
AcDbLine
 10
415.4419149999999
 20
301.234925
 30
0.0
 11
415.4761989999999
 21
301.3321279999999
 31
0.0
  0
LINE
  5
D6
330
1F
100
AcDbEntity
  8
1
100
AcDbLine
 10
416.237684
 20
301.178909
 30
0.0
 11
416.203268
 21
301.081335
 31
0.0
  0
LINE
  5
D7
330
1F
100
AcDbEntity
  8
1
100
AcDbLine
 10
416.0845669999999
 20
304.02602
 30
0.0
 11
416.118983
 21
304.123594
 31
0.0
  0
LINE
  5
D8
330
1F
100
AcDbEntity
  8
1
100
AcDbLine
 10
416.8619679999999
 20
303.917924
 30
0.0
 11
416.8459209999999
 21
303.872429
 31
0.0
  0
LINE
  5
D9
330
1F
100
AcDbEntity
  8
1
100
AcDbLine
 10
412.7750759999999
 20
303.825325
 30
0.0
 11
412.758946
 21
303.779595
 31
0.0
  0
LINE
  5
DA
330
1F
100
AcDbEntity
  8
1
100
AcDbLine
 10
419.5489559999999
 20
301.384649
 30
0.0
 11
419.5650849999999
 21
301.430379
 31
0.0
  0
LINE
  5
DB
330
1F
100
AcDbEntity
  8
1
100
AcDbLine
 10
279.404842
 20
263.907994
 30
0.0
 11
280.3043370000001
 21
264.807488
 31
0.0
  0
LINE
  5
DC
330
1F
100
AcDbEntity
  8
1
100
AcDbLine
 10
280.3043370000001
 20
313.008499
 30
0.0
 11
279.404842
 21
313.907994
 31
0.0
  0
LINE
  5
DD
330
1F
100
AcDbEntity
  8
SK1
100
AcDbLine
 10
204.404842
 20
270.907994
 30
0.0
 11
206.404842
 21
268.907994
 31
0.0
  0
LINE
  5
DE
330
1F
100
AcDbEntity
  8
SK1
100
AcDbLine
 10
206.404842
 20
308.907994
 30
0.0
 11
204.404842
 21
306.907994
 31
0.0
  0
LINE
  5
DF
330
1F
100
AcDbEntity
  8
SK1
100
AcDbLine
 10
274.404842
 20
308.907994
 30
0.0
 11
206.404842
 21
308.907994
 31
0.0
  0
LINE
  5
E0
330
1F
100
AcDbEntity
  8
1
100
AcDbLine
 10
274.904842
 20
263.907994
 30
0.0
 11
274.404842
 21
264.407994
 31
0.0
  0
LINE
  5
E1
330
1F
100
AcDbEntity
  8
1
100
AcDbLine
 10
274.404842
 20
313.407994
 30
0.0
 11
274.904842
 21
313.907994
 31
0.0
  0
LINE
  5
E2
330
1F
100
AcDbEntity
  8
1
100
AcDbLine
 10
279.404842
 20
313.907994
 30
0.0
 11
274.904842
 21
313.907994
 31
0.0
  0
LINE
  5
E7
330
1F
100
AcDbEntity
  8
80
100
AcDbLine
 10
275.404416
 20
288.907994
 30
0.0
 11
273.405268
 21
288.907994
 31
0.0
  0
LINE
  5
E8
330
1F
100
AcDbEntity
  8
1
100
AcDbLine
 10
274.404842
 20
313.407994
 30
0.0
 11
274.404842
 21
288.907994
 31
0.0
  0
LINE
  5
E9
330
1F
100
AcDbEntity
  8
1
100
AcDbLine
 10
274.404842
 20
288.907994
 30
0.0
 11
274.404842
 21
264.407994
 31
0.0
  0
LINE
  5
EA
330
1F
100
AcDbEntity
  8
80
100
AcDbLine
 10
274.404842
 20
287.90842
 30
0.0
 11
274.404842
 21
289.907567
 31
0.0
  0
LINE
  5
EB
330
1F
100
AcDbEntity
  8
81
100
AcDbLine
 10
423.4048419999999
 20
311.407994
 30
0.0
 11
423.4048419999999
 21
307.407994
 31
0.0
  0
LINE
  5
EC
330
1F
100
AcDbEntity
  8
81
100
AcDbLine
 10
421.404842
 20
309.407994
 30
0.0
 11
425.404842
 21
309.407994
 31
0.0
  0
LINE
  5
ED
330
1F
100
AcDbEntity
  8
SK1
100
AcDbLine
 10
206.404842
 20
268.907994
 30
0.0
 11
274.404842
 21
268.907994
 31
0.0
  0
LINE
  5
EE
330
1F
100
AcDbEntity
  8
1
100
AcDbLine
 10
274.904842
 20
263.907994
 30
0.0
 11
279.404842
 21
263.907994
 31
0.0
  0
LINE
  5
120
330
1F
100
AcDbEntity
  8
NOCUT
100
AcDbLine
 10
422.0245549999999
 20
308.907994
 30
0.0
 11
422.4448419999999
 21
296.975902
 31
0.0
  0
LINE
  5
121
330
1F
100
AcDbEntity
  8
NOCUT
100
AcDbLine
 10
422.4448419999999
 20
296.975902
 30
0.0
 11
422.4448419999999
 21
288.907994
 31
0.0
  0
LINE
  5
127
330
1F
100
AcDbEntity
  8
NOCUT
100
AcDbLine
 10
274.404842
 20
308.907994
 30
0.0
 11
206.404842
 21
308.907994
 31
0.0
  0
LINE
  5
128
330
1F
100
AcDbEntity
  8
NOCUT
100
AcDbLine
 10
279.404842
 20
313.907994
 30
0.0
 11
280.3043370000001
 21
313.008499
 31
0.0
  0
LINE
  5
129
330
1F
100
AcDbEntity
  8
NOCUT
100
AcDbLine
 10
290.203832
 20
308.907994
 30
0.0
 11
422.0245549999999
 21
308.907994
 31
0.0
  0
LINE
  5
12A
330
1F
100
AcDbEntity
  8
NOCUT
100
AcDbLine
 10
274.404842
 20
308.907994
 30
0.0
 11
274.404842
 21
313.407994
 31
0.0
  0
LINE
  5
12B
330
1F
100
AcDbEntity
  8
NOCUT
100
AcDbLine
 10
274.404842
 20
313.407994
 30
0.0
 11
274.904842
 21
313.907994
 31
0.0
  0
LINE
  5
12C
330
1F
100
AcDbEntity
  8
NOCUT
100
AcDbLine
 10
204.404842
 20
306.907994
 30
0.0
 11
206.404842
 21
308.907994
 31
0.0
  0
LINE
  5
12D
330
1F
100
AcDbEntity
  8
NOCUT
100
AcDbLine
 10
279.404842
 20
313.907994
 30
0.0
 11
274.904842
 21
313.907994
 31
0.0
  0
ARC
  5
136
330
1F
100
AcDbEntity
  8
1
100
AcDbCircle
 10
416.813137
 20
283.804045
 30
0.0
 40
2.0
100
AcDbArc
 50
75.0
 51
345.0
  0
CIRCLE
  5
137
330
1F
100
AcDbEntity
  8
1
100
AcDbCircle
 10
416.813137
 20
283.804045
 30
0.0
 40
1.35
  0
ARC
  5
138
330
1F
100
AcDbEntity
  8
1
100
AcDbCircle
 10
290.203832
 20
254.907994
 30
0.0
 40
14.0
100
AcDbArc
 50
90.0
 51
135.0
  0
ARC
  5
139
330
1F
100
AcDbEntity
  8
1
100
AcDbCircle
 10
290.203832
 20
322.907994
 30
0.0
 40
14.0
100
AcDbArc
 50
225.0
 51
270.0
  0
ARC
  5
149
330
1F
100
AcDbEntity
  8
NOCUT
100
AcDbCircle
 10
290.203832
 20
322.907994
 30
0.0
 40
14.0
100
AcDbArc
 50
225.0
 51
270.0
  0
ELLIPSE
  5
14A
330
1F
100
AcDbEntity
  8
1
100
AcDbEllipse
 10
411.164341
 20
292.633622
 30
0.0
 11
-3.444838689054785
 21
-0.135201587440346
 31
0.0
210
0.0
220
0.0
230
1.0
 40
0.22151
 41
1.931000882998228
 42
4.349957464792268
  0
ELLIPSE
  5
14B
330
1F
100
AcDbEntity
  8
1
100
AcDbEllipse
 10
416.17008
 20
302.627852
 30
0.0
 11
-3.395004864809725
 21
1.197473159581585
 31
0.0
210
0.0
220
0.0
230
0.9999999999999998
 40
0.9986239999999998
 41
3.141585274248861
 42
5.872218228534566
  0
ELLIPSE
  5
14C
330
1F
100
AcDbEntity
  8
1
100
AcDbEllipse
 10
416.17008
 20
302.627852
 30
0.0
 11
-3.395004864809725
 21
1.197473159581585
 31
0.0
210
0.0
220
0.0
230
0.9999999999999998
 40
0.9986239999999998
 41
5.87221822853457
 42
6.283185307179585
  0
ELLIPSE
  5
14D
330
1F
100
AcDbEntity
  8
1
100
AcDbEllipse
 10
414.765468
 20
303.177719
 30
0.0
 11
-0.0898897536456661
 21
0.0317055708602406
 31
0.0
210
0.0
220
0.0
230
0.9999999999999998
 40
0.998624
 41
3.88648947637481
 42
4.563221393255744
  0
ELLIPSE
  5
14E
330
1F
100
AcDbEntity
  8
1
100
AcDbEllipse
 10
414.854807
 20
303.345833
 30
0.0
 11
-0.0898897536456659
 21
0.0317055708602405
 31
0.0
210
0.0
220
0.0
230
1.0
 40
0.998624
 41
0.2212980471868586
 42
1.421628739665374
  0
ELLIPSE
  5
14F
330
1F
100
AcDbEntity
  8
1
100
AcDbEllipse
 10
415.3568289999999
 20
303.286273
 30
0.0
 11
-0.5666776289729544
 21
0.1998763706833383
 31
0.0
210
0.0
220
0.0
230
0.9999999999999998
 40
0.9986239999999998
 41
5.239953310136261
 42
6.5044833543664
  0
ELLIPSE
  5
150
330
1F
100
AcDbEntity
  8
1
100
AcDbEllipse
 10
415.261906
 20
303.78233
 30
0.0
 11
-0.089889753645668
 21
0.0317055708602412
 31
0.0
210
0.0
220
0.0
230
0.9999999999999998
 40
0.9986239999999998
 41
4.039622617657328
 42
5.239953310135969
  0
ELLIPSE
  5
151
330
1F
100
AcDbEntity
  8
1
100
AcDbEllipse
 10
415.4234609999999
 20
303.883228
 30
0.0
 11
-0.089889753645668
 21
0.0317055708602412
 31
0.0
210
0.0
220
0.0
230
0.9999999999999998
 40
0.9986239999999998
 41
0.898029964067231
 42
1.57476188094789
  0
ELLIPSE
  5
152
330
1F
100
AcDbEntity
  8
1
100
AcDbEllipse
 10
415.5895089999999
 20
304.360023
 30
0.0
 11
-0.5666776289729542
 21
0.1998763706833382
 31
0.0
210
0.0
220
0.0
230
1.0
 40
0.9986239999999998
 41
1.574761880948108
 42
2.839291925178292
  0
ELLIPSE
  5
153
330
1F
100
AcDbEntity
  8
1
100
AcDbEllipse
 10
415.9946779999999
 20
304.057725
 30
0.0
 11
-0.0898897536456661
 21
0.0317055708602406
 31
0.0
210
0.0
220
0.0
230
0.9999999999999998
 40
0.998624
 41
2.839291925178419
 42
3.516023842058973
  0
ELLIPSE
  5
154
330
1F
100
AcDbEntity
  8
1
100
AcDbEllipse
 10
416.185161
 20
304.06437
 30
0.0
 11
-0.0898897536456659
 21
0.0317055708602405
 31
0.0
210
0.0
220
0.0
230
1.0
 40
0.998624
 41
5.457285803169855
 42
6.657616495648697
  0
ELLIPSE
  5
155
330
1F
100
AcDbEntity
  8
1
100
AcDbEllipse
 10
416.384912
 20
303.600336
 30
0.0
 11
-0.5666776289729544
 21
0.1998763706833383
 31
0.0
210
0.0
220
0.0
230
0.9999999999999998
 40
0.9986239999999998
 41
4.19275575893962
 42
5.457285803169839
  0
ELLIPSE
  5
156
330
1F
100
AcDbEntity
  8
1
100
AcDbEllipse
 10
416.7674379999999
 20
303.930112
 30
0.0
 11
-0.089889753645668
 21
0.0317055708602412
 31
0.0
210
0.0
220
0.0
230
0.9999999999999998
 40
0.9986239999999998
 41
2.992425066460727
 42
4.192755758939852
  0
ELLIPSE
  5
157
330
1F
100
AcDbEntity
  8
1
100
AcDbEllipse
 10
416.935811
 20
303.840723
 30
0.0
 11
-0.089889753645668
 21
0.0317055708602412
 31
0.0
210
0.0
220
0.0
230
0.9999999999999998
 40
0.9986239999999998
 41
6.134017720050489
 42
6.810749636931054
  0
ELLIPSE
  5
158
330
1F
100
AcDbEntity
  8
1
100
AcDbEllipse
 10
417.432318
 20
303.935117
 30
0.0
 11
-0.5666776289729542
 21
0.1998763706833382
 31
0.0
210
0.0
220
0.0
230
1.0
 40
0.9986239999999998
 41
0.5275643297515554
 42
1.79209437398171
  0
ELLIPSE
  5
159
330
1F
100
AcDbEntity
  8
1
100
AcDbEllipse
 10
417.373127
 20
303.433684
 30
0.0
 11
-0.0898897536456661
 21
0.0317055708602406
 31
0.0
210
0.0
220
0.0
230
0.9999999999999998
 40
0.998624
 41
1.7920943739819
 42
2.468826290862645
  0
ELLIPSE
  5
15A
330
1F
100
AcDbEntity
  8
1
100
AcDbEllipse
 10
417.474273
 20
303.272214
 30
0.0
 11
-0.0898897536456659
 21
0.0317055708602405
 31
0.0
210
0.0
220
0.0
230
1.0
 40
0.998624
 41
4.410088251973254
 42
5.610418944452391
  0
ELLIPSE
  5
15B
330
1F
100
AcDbEntity
  8
1
100
AcDbEllipse
 10
417.1719999999999
 20
302.86774
 30
0.0
 11
-0.5666776289729544
 21
0.1998763706833383
 31
0.0
210
0.0
220
0.0
230
0.9999999999999998
 40
0.9986239999999998
 41
3.145558207743012
 42
4.41008825197324
  0
ELLIPSE
  5
15C
330
1F
100
AcDbEntity
  8
1
100
AcDbEllipse
 10
417.649451
 20
302.701459
 30
0.0
 11
-0.089889753645668
 21
0.0317055708602412
 31
0.0
210
0.0
220
0.0
230
0.9999999999999998
 40
0.9986239999999998
 41
1.945227515264443
 42
3.145558207743196
  0
ELLIPSE
  5
15D
330
1F
100
AcDbEntity
  8
1
100
AcDbEllipse
 10
417.656267
 20
302.511173
 30
0.0
 11
-0.089889753645668
 21
0.0317055708602412
 31
0.0
210
0.0
220
0.0
230
0.9999999999999998
 40
0.9986239999999998
 41
5.086820168853931
 42
5.763552085734623
  0
ELLIPSE
  5
15E
330
1F
100
AcDbEntity
  8
1
100
AcDbEllipse
 10
417.9867269999999
 20
302.128772
 30
0.0
 11
-0.5666776289729542
 21
0.1998763706833382
 31
0.0
210
0.0
220
0.0
230
1.0
 40
0.9986239999999998
 41
5.763552085734483
 42
7.028082129964714
  0
ELLIPSE
  5
15F
330
1F
100
AcDbEntity
  8
1
100
AcDbEllipse
 10
417.522368
 20
301.929636
 30
0.0
 11
-0.0898897536456661
 21
0.0317055708602406
 31
0.0
210
0.0
220
0.0
230
0.9999999999999998
 40
0.998624
 41
0.7448968227853296
 42
1.4216287396661
  0
ELLIPSE
  5
160
330
1F
100
AcDbEntity
  8
1
100
AcDbEllipse
 10
417.4330289999999
 20
301.761521
 30
0.0
 11
-0.0898897536456659
 21
0.0317055708602405
 31
0.0
210
0.0
220
0.0
230
1.0
 40
0.998624
 41
3.362890700776643
 42
4.563221393255326
  0
ELLIPSE
  5
161
330
1F
100
AcDbEntity
  8
1
100
AcDbEllipse
 10
416.9310059999999
 20
301.821082
 30
0.0
 11
-0.5666776289729544
 21
0.1998763706833383
 31
0.0
210
0.0
220
0.0
230
0.9999999999999998
 40
0.9986239999999998
 41
2.09836065654641
 42
3.36289070077659
  0
ELLIPSE
  5
162
330
1F
100
AcDbEntity
  8
1
100
AcDbEllipse
 10
417.0259299999999
 20
301.325024
 30
0.0
 11
-0.089889753645668
 21
0.0317055708602412
 31
0.0
210
0.0
220
0.0
230
0.9999999999999998
 40
0.9986239999999998
 41
0.8980299640675573
 42
2.098360656546395
  0
ELLIPSE
  5
163
330
1F
100
AcDbEntity
  8
1
100
AcDbEllipse
 10
416.864374
 20
301.224127
 30
0.0
 11
-0.089889753645668
 21
0.0317055708602412
 31
0.0
210
0.0
220
0.0
230
0.9999999999999998
 40
0.9986239999999998
 41
4.039622617657537
 42
4.71635453453798
  0
ELLIPSE
  5
164
330
1F
100
AcDbEntity
  8
1
100
AcDbEllipse
 10
416.698327
 20
300.747332
 30
0.0
 11
-0.5666776289729542
 21
0.1998763706833382
 31
0.0
210
0.0
220
0.0
230
1.0
 40
0.9986239999999998
 41
4.716354534537853
 42
5.980884578768129
  0
ELLIPSE
  5
165
330
1F
100
AcDbEntity
  8
1
100
AcDbEllipse
 10
416.293158
 20
301.049629
 30
0.0
 11
-0.0898897536456661
 21
0.0317055708602406
 31
0.0
210
0.0
220
0.0
230
0.9999999999999998
 40
0.998624
 41
5.980884578768337
 42
6.657616495648806
  0
ELLIPSE
  5
166
330
1F
100
AcDbEntity
  8
1
100
AcDbEllipse
 10
416.102674
 20
301.042984
 30
0.0
 11
-0.0898897536456659
 21
0.0317055708602405
 31
0.0
210
0.0
220
0.0
230
1.0
 40
0.998624
 41
2.315693149580063
 42
3.516023842059083
  0
ELLIPSE
  5
167
330
1F
100
AcDbEntity
  8
1
100
AcDbEllipse
 10
415.9029229999999
 20
301.507019
 30
0.0
 11
-0.5666776289729544
 21
0.1998763706833383
 31
0.0
210
0.0
220
0.0
230
0.9999999999999998
 40
0.9986239999999998
 41
1.051163105349768
 42
2.315693149579983
  0
ELLIPSE
  5
168
330
1F
100
AcDbEntity
  8
1
100
AcDbEllipse
 10
415.520397
 20
301.1772430000001
 30
0.0
 11
-0.089889753645668
 21
0.0317055708602412
 31
0.0
210
0.0
220
0.0
230
0.9999999999999998
 40
0.9986239999999998
 41
6.134017720050519
 42
7.334348412529312
  0
ELLIPSE
  5
169
330
1F
100
AcDbEntity
  8
1
100
AcDbEllipse
 10
415.352025
 20
301.266631
 30
0.0
 11
-0.089889753645668
 21
0.0317055708602412
 31
0.0
210
0.0
220
0.0
230
0.9999999999999998
 40
0.9986239999999998
 41
2.992425066460607
 42
3.669156983341238
  0
ELLIPSE
  5
16A
330
1F
100
AcDbEntity
  8
1
100
AcDbEllipse
 10
414.8555169999999
 20
301.172237
 30
0.0
 11
-0.5666776289729542
 21
0.1998763706833382
 31
0.0
210
0.0
220
0.0
230
1.0
 40
0.9986239999999998
 41
3.669156983341338
 42
4.93368702757156
  0
ELLIPSE
  5
16B
330
1F
100
AcDbEntity
  8
1
100
AcDbEllipse
 10
414.914708
 20
301.673671
 30
0.0
 11
-0.0898897536456661
 21
0.0317055708602406
 31
0.0
210
0.0
220
0.0
230
0.9999999999999998
 40
0.998624
 41
4.933687027571128
 42
5.610418944452497
  0
ELLIPSE
  5
16C
330
1F
100
AcDbEntity
  8
1
100
AcDbEllipse
 10
414.8135629999999
 20
301.835141
 30
0.0
 11
-0.0898897536456659
 21
0.0317055708602405
 31
0.0
210
0.0
220
0.0
230
1.0
 40
0.998624
 41
1.268495598383265
 42
2.468826290861993
  0
ELLIPSE
  5
16D
330
1F
100
AcDbEntity
  8
1
100
AcDbEllipse
 10
415.115835
 20
302.239615
 30
0.0
 11
-0.5666776289729544
 21
0.1998763706833383
 31
0.0
210
0.0
220
0.0
230
0.9999999999999998
 40
0.9986239999999998
 41
0.0039655541532079
 42
1.268495598383363
  0
ELLIPSE
  5
16E
330
1F
100
AcDbEntity
  8
1
100
AcDbEllipse
 10
414.638385
 20
302.405896
 30
0.0
 11
-0.089889753645668
 21
0.0317055708602412
 31
0.0
210
0.0
220
0.0
230
0.9999999999999998
 40
0.9986239999999998
 41
5.086820168854181
 42
6.287150861332691
  0
ELLIPSE
  5
16F
330
1F
100
AcDbEntity
  8
1
100
AcDbEllipse
 10
414.6315679999999
 20
302.596182
 30
0.0
 11
-0.089889753645668
 21
0.0317055708602412
 31
0.0
210
0.0
220
0.0
230
0.9999999999999998
 40
0.9986239999999998
 41
1.945227515263971
 42
2.621959432144885
  0
ELLIPSE
  5
170
330
1F
100
AcDbEntity
  8
1
100
AcDbEllipse
 10
414.3011079999999
 20
302.978583
 30
0.0
 11
-0.5666776289729542
 21
0.1998763706833382
 31
0.0
210
0.0
220
0.0
230
1.0
 40
0.9986239999999998
 41
2.621959432144747
 42
3.886489476374913
  0
ELLIPSE
  5
171
330
1F
100
AcDbEntity
  8
1
100
AcDbEllipse
 10
416.143918
 20
302.553677
 30
0.0
 11
1.98041950447234
 21
-0.6985260097559253
 31
0.0
210
0.0
220
0.0
230
1.0
 40
0.9986239999999998
 41
0.0
 42
6.283185307179585
  0
ELLIPSE
  5
172
330
1F
100
AcDbEntity
  8
1
100
AcDbEllipse
 10
416.1539509999999
 20
302.582122
 30
0.0
 11
3.395004864809725
 21
-1.197473159581585
 31
0.0
210
0.0
220
0.0
230
0.9999999999999998
 40
0.9986239999999998
 41
0.0
 42
6.283185307179585
  0
ELLIPSE
  5
173
330
1F
100
AcDbEntity
  8
1
100
AcDbEllipse
 10
416.3392599999999
 20
302.818757
 30
0.0
 11
3.531988007444661
 21
-1.24578933088394
 31
0.0
210
0.0
220
0.0
230
1.0
 40
0.9986239999999998
 41
1.945227552038383
 42
3.356097206659882
  0
ELLIPSE
  5
174
330
1F
100
AcDbEntity
  8
1
100
AcDbEllipse
 10
416.3392599999999
 20
302.818757
 30
0.0
 11
3.531988007444661
 21
-1.24578933088394
 31
0.0
210
0.0
220
0.0
230
1.0
 40
0.9986239999999998
 41
5.419043491545753
 42
6.283185307179585
  0
ELLIPSE
  5
175
330
1F
100
AcDbEntity
  8
1
100
AcDbEllipse
 10
416.3392599999999
 20
302.818757
 30
0.0
 11
3.531988007444661
 21
-1.24578933088394
 31
0.0
210
0.0
220
0.0
230
1.0
 40
0.9986239999999998
 41
0.0
 42
1.508938775396913
  0
ELLIPSE
  5
176
330
1F
100
AcDbEntity
  8
1
100
AcDbEllipse
 10
416.3392599999999
 20
302.818757
 30
0.0
 11
3.531988007444661
 21
-1.24578933088394
 31
0.0
210
0.0
220
0.0
230
1.0
 40
0.9986239999999998
 41
1.632540859458624
 42
1.945227552038381
  0
ELLIPSE
  5
177
330
1F
100
AcDbEntity
  8
1
100
AcDbEllipse
 10
411.566769
 20
297.653569
 30
0.0
 11
0.4817434591831787
 21
0.5170545785619562
 31
0.0
210
0.0
220
0.0
230
1.0
 40
0.01483
 41
0.5198738242340726
 42
1.536779664862633
  0
ELLIPSE
  5
178
330
1F
100
AcDbEntity
  8
1
100
AcDbEllipse
 10
416.319464
 20
302.762632
 30
0.0
 11
3.588083700633126
 21
-1.265575189707762
 31
0.0
210
0.0
220
0.0
230
0.9999999999999998
 40
0.9986239999999998
 41
1.945227451328569
 42
3.745261875445962
  0
ELLIPSE
  5
179
330
1F
100
AcDbEntity
  8
1
100
AcDbEllipse
 10
416.319464
 20
302.762632
 30
0.0
 11
3.588083700633126
 21
-1.265575189707762
 31
0.0
210
0.0
220
0.0
230
0.9999999999999998
 40
0.9986239999999998
 41
4.874566385899282
 42
6.283185307179585
  0
ELLIPSE
  5
17A
330
1F
100
AcDbEntity
  8
1
100
AcDbEllipse
 10
416.319464
 20
302.762632
 30
0.0
 11
3.588083700633126
 21
-1.265575189707762
 31
0.0
210
0.0
220
0.0
230
0.9999999999999998
 40
0.9986239999999998
 41
0.0
 42
1.945227440221053
  0
ELLIPSE
  5
17B
330
1F
100
AcDbEntity
  8
1
100
AcDbEllipse
 10
411.2145429999999
 20
307.486009
 30
0.0
 11
0.5172967687821322
 21
-0.4819691095429622
 31
0.0
210
0.0
220
0.0
230
1.0
 40
0.033998
 41
0.5687050474055289
 42
1.58561088770152
  0
ELLIPSE
  5
17C
330
1F
100
AcDbEntity
  8
1
100
AcDbEllipse
 10
421.0572289999999
 20
307.829365
 30
0.0
 11
0.4817434593470009
 21
0.5170545787414569
 31
0.0
210
0.0
220
0.0
230
0.9999999999999998
 40
0.01483
 41
1.536779664629384
 42
2.553685504982654
  0
ELLIPSE
  5
17D
330
1F
100
AcDbEntity
  8
1
100
AcDbEllipse
 10
421.4094549999999
 20
297.996925
 30
0.0
 11
0.5172967686802208
 21
-0.4819691094461645
 31
0.0
210
0.0
220
0.0
230
1.0
 40
0.033998
 41
1.585610887642273
 42
2.602516728104065
  0
ELLIPSE
  5
17E
330
1F
100
AcDbEntity
  8
1
100
AcDbEllipse
 10
416.3165859999999
 20
302.754472
 30
0.0
 11
-3.677921936877199
 21
1.297262589546718
 31
0.0
210
0.0
220
0.0
230
1.0
 40
0.9986239999999998
 41
0.0
 42
6.283185307179585
  0
ELLIPSE
  5
17F
330
1F
100
AcDbEntity
  8
1
100
AcDbEllipse
 10
418.6671539999999
 20
288.907993
 30
0.0
 11
34.30200908048227
 21
-19.7313324708149
 31
0.0
210
0.0
220
0.0
230
1.0
 40
0.095248
 41
4.276643278878343
 42
4.321599764512616
  0
ELLIPSE
  5
180
330
1F
100
AcDbEntity
  8
1
100
AcDbEllipse
 10
410.723339
 20
288.907994
 30
0.0
 11
0.6688507950161236
 21
-19.99999592465051
 31
0.0
210
0.0
220
0.0
230
0.9999999999999998
 40
0.0191
 41
3.019983652601113
 42
3.122394581894881
  0
ELLIPSE
  5
181
330
1F
100
AcDbEntity
  8
1
100
AcDbEllipse
 10
411.8144619999999
 20
297.931448
 30
0.0
 11
2.357642267228975
 21
-0.831578583042768
 31
0.0
210
0.0
220
0.0
230
1.0
 40
0.9986239999999998
 41
2.800651535553506
 42
4.534214749197797
  0
ELLIPSE
  5
182
330
1F
100
AcDbEntity
  8
1
100
AcDbEllipse
 10
410.559352
 20
288.907993
 30
0.0
 11
0.560788233108616
 21
-19.99984472586636
 31
0.0
210
0.0
220
0.0
230
1.0
 40
0.140543
 41
3.119092585529729
 42
3.220258069611893
  0
ELLIPSE
  5
183
330
1F
100
AcDbEntity
  8
1
100
AcDbEllipse
 10
241.004122
 20
288.907987
 30
0.0
 11
522.5876852785863
 21
19.50385141720906
 31
0.0
210
0.0
220
0.0
230
1.0
 40
0.008472
 41
5.046304517200914
 42
5.060968490698526
  0
ELLIPSE
  5
184
330
1F
100
AcDbEntity
  8
1
100
AcDbEllipse
 10
411.819695
 20
297.946283
 30
0.0
 11
-2.357642267228975
 21
0.831578583042768
 31
0.0
210
0.0
220
0.0
230
1.0
 40
0.9986239999999998
 41
2.668199979721753
 42
2.776747666076897
  0
ELLIPSE
  5
185
330
1F
100
AcDbEntity
  8
1
100
AcDbEllipse
 10
421.943111
 20
288.967665
 30
0.0
 11
0.0001758288826013
 21
-0.5000776676689852
 31
0.0
210
0.0
220
0.0
230
1.0
 40
0.140519
 41
3.139090475970843
 42
4.709886802757879
  0
ELLIPSE
  5
186
330
1F
100
AcDbEntity
  8
1
100
AcDbEllipse
 10
422.1589559999999
 20
296.0488279999999
 30
0.0
 11
0.0003016037624908
 21
0.5003084758631625
 31
0.0
210
0.0
220
0.0
230
0.9999999999999998
 40
0.140101
 41
3.195395734395857
 42
4.766192061177707
  0
ELLIPSE
  5
187
330
1F
100
AcDbEntity
  8
1
100
AcDbEllipse
 10
421.457893
 20
277.98638
 30
0.0
 11
0.0538770024353561
 21
0.4991611425091091
 31
0.0
210
0.0
220
0.0
230
0.9999999999999996
 40
0.139171
 41
1.583568179248123
 42
3.154364506042633
  0
ELLIPSE
  5
188
330
1F
100
AcDbEntity
  8
1
100
AcDbEllipse
 10
423.1188129999999
 20
288.907994
 30
0.0
 11
2.1647753884054
 21
19.99773810421789
 31
0.0
210
0.0
220
0.0
230
1.0
 40
0.138944
 41
1.90892797589416
 42
3.156632395651093
  0
ELLIPSE
  5
189
330
1F
100
AcDbEntity
  8
1
100
AcDbEllipse
 10
422.4448419999999
 20
288.907994
 30
0.0
 11
0.0
 21
20.00000000063447
 31
0.0
210
0.0
220
0.0
230
1.0
 40
0.140541
 41
1.445430338743672
 42
1.893888233822531
  0
ELLIPSE
  5
18A
330
1F
100
AcDbEntity
  8
1
100
AcDbEllipse
 10
411.900974
 20
298.1767200000001
 30
0.0
 11
-2.357642267228974
 21
0.8315785830427676
 31
0.0
210
0.0
220
0.0
230
1.0
 40
0.998624
 41
0.0520252572636118
 42
1.945227431237595
  0
ELLIPSE
  5
18B
330
1F
100
AcDbEntity
  8
1
100
AcDbEllipse
 10
411.900974
 20
298.1767200000001
 30
0.0
 11
-2.357642267228974
 21
0.8315785830427676
 31
0.0
210
0.0
220
0.0
230
1.0
 40
0.998624
 41
1.945227431237593
 42
2.645311779347055
  0
ELLIPSE
  5
18C
330
1F
100
AcDbEntity
  8
1
100
AcDbEllipse
 10
411.819695
 20
297.946283
 30
0.0
 11
-2.357642267228975
 21
0.831578583042768
 31
0.0
210
0.0
220
0.0
230
1.0
 40
0.9986239999999998
 41
5.822888314034135
 42
5.942244189143312
  0
ELLIPSE
  5
18D
330
1F
100
AcDbEntity
  8
1
100
AcDbEllipse
 10
411.8144619999999
 20
297.931448
 30
0.0
 11
2.357642267228975
 21
-0.831578583042768
 31
0.0
210
0.0
220
0.0
230
1.0
 40
0.9986239999999998
 41
5.564326405964871
 42
5.809792633311539
  0
ELLIPSE
  5
18E
330
1F
100
AcDbEntity
  8
1
100
AcDbEllipse
 10
410.252873
 20
288.907737
 30
0.0
 11
0.6688598087631654
 21
-20.00025205481432
 31
0.0
210
0.0
220
0.0
230
1.0
 40
0.0191
 41
3.223363740665412
 42
3.238374137606627
  0
ELLIPSE
  5
18F
330
1F
100
AcDbEntity
  8
1
100
AcDbEllipse
 10
353.6755
 20
288.56582
 30
0.0
 11
1156.329793371106
 21
-0.9816287764486663
 31
0.0
210
0.0
220
0.0
230
0.9999999999999996
 40
0.017572
 41
1.52247166341162
 42
1.523994427023306
  0
ELLIPSE
  5
190
330
1F
100
AcDbEntity
  8
1
100
AcDbEllipse
 10
411.7106879999999
 20
311.275228
 30
0.0
 11
-15.1832162009546
 21
5.355366074795425
 31
0.0
210
0.0
220
0.0
230
1.0
 40
0.998624
 41
1.386722154625869
 42
1.945227515264103
  0
SPLINE
  5
196
330
1F
100
AcDbEntity
  8
1
100
AcDbSpline
210
0.0
220
0.0
230
1.0
 70
     8
 71
     3
 72
     8
 73
     4
 74
     0
 42
0.000000001
 43
0.0000000001
 40
0.0
 40
0.0
 40
0.0
 40
0.0
 40
1.0
 40
1.0
 40
1.0
 40
1.0
 10
407.7988954099656
 20
304.8959692294161
 30
0.0
 10
407.7960072207386
 20
306.2026872436219
 30
0.0
 10
407.7935639850204
 20
307.5094057193402
 30
0.0
 10
407.7914062656389
 20
308.8161244911997
 30
0.0
  0
SPLINE
  5
197
330
1F
100
AcDbEntity
  8
1
100
AcDbSpline
210
0.0
220
0.0
230
1.0
 70
     8
 71
     3
 72
    41
 73
    37
 74
     0
 42
0.000000001
 43
0.0000000001
 40
0.0
 40
0.0
 40
0.0
 40
0.0
 40
0.0694131120289882
 40
0.0694131120289882
 40
0.1388262240579764
 40
0.1388262240579764
 40
0.2082393360869646
 40
0.2082393360869646
 40
0.2776524481159537
 40
0.2776524481159537
 40
0.3470655601449427
 40
0.3470655601449427
 40
0.4164786721739319
 40
0.4164786721739319
 40
0.4338319501811797
 40
0.4338319501811797
 40
0.4511852281884277
 40
0.4511852281884277
 40
0.4858917842029243
 40
0.520598340217421
 40
0.520598340217421
 40
0.5553048962319176
 40
0.5553048962319176
 40
0.6247180082609117
 40
0.6247180082609117
 40
0.6941311202899059
 40
0.6941311202899059
 40
0.8329573443478942
 40
0.8329573443478942
 40
0.9023704563768887
 40
0.9023704563768887
 40
0.9370770123913864
 40
0.9370770123913864
 40
0.971783568405884
 40
0.971783568405884
 40
1.0
 40
1.0
 40
1.0
 40
1.0
 10
407.7914062656389
 20
308.8161244911997
 30
0.0
 10
406.8584688179236
 20
308.863896892194
 30
0.0
 10
405.9188697071432
 20
308.8913317037997
 30
0.0
 10
404.0250527042576
 20
308.9133291885616
 30
0.0
 10
403.0708394633232
 20
308.9079099608013
 30
0.0
 10
401.1475403995956
 20
308.8713973178675
 30
0.0
 10
400.1784570464543
 20
308.8403169328898
 30
0.0
 10
398.2260887836604
 20
308.7585685773998
 30
0.0
 10
397.242805674302
 20
308.707910829834
 30
0.0
 10
395.263575063899
 20
308.5916409829792
 30
0.0
 10
394.2676297622439
 20
308.5260369510445
 30
0.0
 10
392.2654220584071
 20
308.3827818621451
 30
0.0
 10
391.2591631539262
 20
308.3051368727207
 30
0.0
 10
389.9968134563968
 20
308.2011574453836
 30
0.0
 10
389.7440955921815
 20
308.1800083967923
 30
0.0
 10
389.2385177563849
 20
308.1370247288305
 30
0.0
 10
388.9856298675999
 20
308.1151878759945
 30
0.0
 10
388.2267304897793
 20
308.0486224733032
 30
0.0
 10
387.2142340426746
 20
307.9570641181124
 30
0.0
 10
386.2011780605355
 20
307.8594834364021
 30
0.0
 10
385.1882214403965
 20
307.7585487643462
 30
0.0
 10
384.6818025594185
 20
307.7063936424246
 30
0.0
 10
383.1632336682428
 20
307.5442518759544
 30
0.0
 10
382.1516442644643
 20
307.4287094806105
 30
0.0
 10
380.1296214777726
 20
307.182776828213
 30
0.0
 10
379.1191890895299
 20
307.0523864360902
 30
0.0
 10
376.0890571136414
 20
306.6391289242529
 30
0.0
 10
374.0705153702622
 20
306.3341410497604
 30
0.0
 10
371.0429151685024
 20
305.8338623811886
 30
0.0
 10
370.0337519778017
 20
305.6599805815352
 30
0.0
 10
368.5198327909144
 20
305.3886923868948
 30
0.0
 10
368.0151667301072
 20
305.2965185362987
 30
0.0
 10
367.0062717866084
 20
305.1088133288591
 30
0.0
 10
366.5019770855868
 20
305.0132705162677
 30
0.0
 10
365.5879449580406
 20
304.8370132879226
 30
0.0
 10
365.1781590417453
 20
304.7568690461838
 30
0.0
 10
364.7684618325238
 20
304.6756196722059
 30
0.0
  0
SPLINE
  5
198
330
1F
100
AcDbEntity
  8
1
100
AcDbSpline
210
0.0
220
0.0
230
1.0
 70
     8
 71
     3
 72
    12
 73
     8
 74
     0
 42
0.000000001
 43
0.0000000001
 40
0.0
 40
0.0
 40
0.0
 40
0.0
 40
0.1036782406952969
 40
0.1036782406952969
 40
0.2829423038893465
 40
0.2829423038893465
 40
1.0
 40
1.0
 40
1.0
 40
1.0
 10
305.9183222650387
 20
273.1200216411789
 30
0.0
 10
305.9479377436205
 20
273.2295057473856
 30
0.0
 10
305.9778929227521
 20
273.3395985939038
 30
0.0
 10
306.0602459758584
 20
273.640516496855
 30
0.0
 10
306.1132075742816
 20
273.8321497645815
 30
0.0
 10
306.3818875889012
 20
274.7951513395939
 30
0.0
 10
306.6091052222972
 20
275.5808794377354
 30
0.0
 10
306.84885554651
 20
276.3822578897983
 30
0.0
  0
SPLINE
  5
199
330
1F
100
AcDbEntity
  8
1
100
AcDbSpline
210
0.0
220
0.0
230
1.0
 70
     8
 71
     3
 72
     8
 73
     4
 74
     0
 42
0.000000001
 43
0.0000000001
 40
0.0
 40
0.0
 40
0.0
 40
0.0
 40
1.0
 40
1.0
 40
1.0
 40
1.0
 10
306.84885554651
 20
276.3822578897984
 30
0.0
 10
306.9687307086165
 20
276.7829471158298
 30
0.0
 10
307.0923819571536
 20
277.189539942847
 30
0.0
 10
307.2168520691316
 20
277.5922319743893
 30
0.0
  0
SPLINE
  5
19A
330
1F
100
AcDbEntity
  8
1
100
AcDbSpline
210
0.0
220
0.0
230
1.0
 70
     8
 71
     3
 72
    10
 73
     6
 74
     0
 42
0.000000001
 43
0.0000000001
 40
0.0
 40
0.0
 40
0.0
 40
0.0
 40
0.5000009013535234
 40
0.5000009013535234
 40
1.0
 40
1.0
 40
1.0
 40
1.0
 10
307.2168520691316
 20
277.5922319743893
 30
0.0
 10
307.3413221811096
 20
277.9949240059316
 30
0.0
 10
307.4669832189273
 20
278.395023821185
 30
0.0
 10
307.7206629067476
 20
279.1900917797561
 30
0.0
 10
307.8486814891432
 20
279.5850600702301
 30
0.0
 10
307.9779035965949
 20
279.9774087204625
 30
0.0
  0
SPLINE
  5
19B
330
1F
100
AcDbEntity
  8
1
100
AcDbSpline
210
0.0
220
0.0
230
1.0
 70
     8
 71
     3
 72
    14
 73
    10
 74
     0
 42
0.000000001
 43
0.0000000001
 40
0.0
 40
0.0
 40
0.0
 40
0.0
 40
0.1428886250070251
 40
0.1428886250070251
 40
0.2857775134769436
 40
0.2857775134769436
 40
0.857333067356614
 40
0.857333067356614
 40
1.0
 40
1.0
 40
1.0
 40
1.0
 10
307.977903596595
 20
279.9774087204624
 30
0.0
 10
308.0425146503208
 20
280.1735830455787
 30
0.0
 10
308.107427163673
 20
280.369101201748
 30
0.0
 10
308.2378687586432
 20
280.7587954672117
 30
0.0
 10
308.3035593676176
 20
280.9534404925066
 30
0.0
 10
308.6302070073741
 20
281.9132883490108
 30
0.0
 10
308.8876134925541
 20
282.6443111366767
 30
0.0
 10
309.2043955717218
 20
283.511863246412
 30
0.0
 10
309.2675058564436
 20
283.6830536274181
 30
0.0
 10
309.3303214560447
 20
283.8517651883088
 30
0.0
  0
SPLINE
  5
19C
330
1F
100
AcDbEntity
  8
1
100
AcDbSpline
210
0.0
220
0.0
230
1.0
 70
     8
 71
     3
 72
    12
 73
     8
 74
     0
 42
0.000000001
 43
0.0000000001
 40
0.0
 40
0.0
 40
0.0
 40
0.0
 40
0.1627443347333767
 40
0.1627443347333767
 40
0.4877281919546778
 40
0.4877281919546778
 40
1.0
 40
1.0
 40
1.0
 40
1.0
 10
309.3303214560447
 20
283.8517651883088
 30
0.0
 10
309.3933325079215
 20
284.0210016993508
 30
0.0
 10
309.4560470379845
 20
284.1877439404596
 30
0.0
 10
309.6427223423293
 20
284.6788456405271
 30
0.0
 10
309.7638494634542
 20
284.9905449158699
 30
0.0
 10
310.0677415005873
 20
285.7546444605571
 30
0.0
 10
310.2458630766013
 20
286.1849123364748
 30
0.0
 10
310.4159109525308
 20
286.5766970716149
 30
0.0
  0
SPLINE
  5
19D
330
1F
100
AcDbEntity
  8
1
100
AcDbSpline
210
0.0
220
0.0
230
1.0
 70
     8
 71
     3
 72
    26
 73
    22
 74
     0
 42
0.000000001
 43
0.0000000001
 40
0.0
 40
0.0
 40
0.0
 40
0.0
 40
0.1249999999999996
 40
0.1249999999999996
 40
0.2499999999999991
 40
0.2499999999999991
 40
0.3749999999999987
 40
0.3749999999999987
 40
0.4999999999999983
 40
0.4999999999999983
 40
0.5312499999999984
 40
0.5312499999999984
 40
0.5624999999999984
 40
0.5624999999999984
 40
0.6249999999999987
 40
0.6249999999999987
 40
0.7499999999999992
 40
0.7499999999999992
 40
0.8749999999999996
 40
0.8749999999999996
 40
1.0
 40
1.0
 40
1.0
 40
1.0
 10
290.2038318185191
 20
291.9646044606312
 30
0.0
 10
290.661421553132
 20
292.0332684489923
 30
0.0
 10
291.1185103357165
 20
292.0821137013845
 30
0.0
 10
292.0317548170807
 20
292.1430105889182
 30
0.0
 10
292.4879083925402
 20
292.1549778258307
 30
0.0
 10
293.3993108673143
 20
292.1432673984405
 30
0.0
 10
293.8545596106191
 20
292.1195832019876
 30
0.0
 10
294.7641904064623
 20
292.0380100962158
 30
0.0
 10
295.2185702396215
 20
291.980033524664
 30
0.0
 10
295.7860129074658
 20
291.8864773769767
 30
0.0
 10
295.8994749504668
 20
291.8667162589302
 30
0.0
 10
296.1263459201946
 20
291.8250860679519
 30
0.0
 10
296.2398117294313
 20
291.8032090888728
 30
0.0
 10
296.5790070439288
 20
291.7346854708815
 30
0.0
 10
296.8038756703289
 20
291.6850825468798
 30
0.0
 10
297.4748532267119
 20
291.52496838072
 30
0.0
 10
297.9173418492012
 20
291.4031770570192
 30
0.0
 10
298.7935639586295
 20
291.1321302969893
 30
0.0
 10
299.2272649851778
 20
290.9827737436323
 30
0.0
 10
300.0867724680433
 20
290.6590799447836
 30
0.0
 10
300.5125772062876
 20
290.4847364718693
 30
0.0
 10
300.935068926544
 20
290.299781019147
 30
0.0
  0
SPLINE
  5
19E
330
1F
100
AcDbEntity
  8
1
100
AcDbSpline
210
0.0
220
0.0
230
1.0
 70
     8
 71
     3
 72
    57
 73
    53
 74
     0
 42
0.000000001
 43
0.0000000001
 40
0.0
 40
0.0
 40
0.0
 40
0.0
 40
0.0420707211225942
 40
0.0420707211225942
 40
0.0841414422451884
 40
0.0841414422451884
 40
0.1262121633677827
 40
0.1262121633677827
 40
0.1682828844903769
 40
0.1682828844903769
 40
0.2103536056129711
 40
0.2103536056129711
 40
0.2524243267355653
 40
0.2524243267355653
 40
0.2944950478581595
 40
0.2944950478581595
 40
0.3365657689807537
 40
0.3365657689807537
 40
0.3786364901033479
 40
0.3786364901033479
 40
0.4207072112259422
 40
0.4207072112259422
 40
0.4627779323485365
 40
0.4627779323485365
 40
0.5048486534711306
 40
0.5048486534711306
 40
0.5469193745937249
 40
0.5469193745937249
 40
0.5889900957163189
 40
0.5889900957163189
 40
0.6310608168389134
 40
0.6310608168389134
 40
0.6731315379615072
 40
0.7152022590841009
 40
0.7152022590841009
 40
0.7362376196453977
 40
0.7362376196453977
 40
0.7572729802066945
 40
0.7572729802066945
 40
0.7993437013292892
 40
0.7993437013292892
 40
0.8203790618905863
 40
0.8203790618905863
 40
0.8414144224518834
 40
0.8414144224518834
 40
0.8834851435744768
 40
0.8834851435744768
 40
0.9255558646970708
 40
0.9255558646970708
 40
0.9676265858196643
 40
0.9676265858196643
 40
1.0
 40
1.0
 40
1.0
 40
1.0
 10
310.7525631675206
 20
268.9227837556996
 30
0.0
 10
311.3200740952351
 20
268.9988676873355
 30
0.0
 10
311.8881429601834
 20
269.0776714047393
 30
0.0
 10
313.0257935822145
 20
269.2390418085202
 30
0.0
 10
313.5953758344091
 20
269.3216071916319
 30
0.0
 10
314.736414106742
 20
269.4886709870851
 30
0.0
 10
315.3078707051761
 20
269.5731670803483
 30
0.0
 10
316.4529654388256
 20
269.7421634092444
 30
0.0
 10
317.0266041981349
 20
269.8266600871187
 30
0.0
 10
318.176299697381
 20
269.9937171540034
 30
0.0
 10
318.7523570293382
 20
270.0762727188639
 30
0.0
 10
319.9070362010762
 20
270.2376215017688
 30
0.0
 10
320.4856584792252
 20
270.3164089775648
 30
0.0
 10
321.645508184568
 20
270.4686702239901
 30
0.0
 10
322.2267357504589
 20
270.5421381791003
 30
0.0
 10
323.3917215580433
 20
270.6826608869124
 30
0.0
 10
323.9754795173079
 20
270.749710997025
 30
0.0
 10
325.1453382660717
 20
270.8769123414783
 30
0.0
 10
325.7314383192735
 20
270.937061350895
 30
0.0
 10
326.905695309098
 20
271.0506961963504
 30
0.0
 10
327.4938511508776
 20
271.1041828969726
 30
0.0
 10
328.671863633753
 20
271.2054723909628
 30
0.0
 10
329.2617190216667
 20
271.2532788630158
 30
0.0
 10
330.4427404406505
 20
271.3448605601854
 30
0.0
 10
331.0339298915813
 20
271.3886428787304
 30
0.0
 10
332.2169888368057
 20
271.4743441118674
 30
0.0
 10
332.8088891614854
 20
271.5162713127497
 30
0.0
 10
333.9931717038195
 20
271.6008181650823
 30
0.0
 10
334.5855534352331
 20
271.6434425450404
 30
0.0
 10
335.7705904961548
 20
271.7321302464423
 30
0.0
 10
336.3632455231272
 20
271.7781968273546
 30
0.0
 10
337.5486854455185
 20
271.8765898008876
 30
0.0
 10
338.7342550178613
 20
271.9812457215148
 30
0.0
 10
339.9199397604414
 20
272.1040642253637
 30
0.0
 10
340.8092502822382
 20
272.2050843799512
 30
0.0
 10
341.1056955646443
 20
272.2402419246009
 30
0.0
 10
341.6986112913137
 20
272.3138730449188
 30
0.0
 10
341.9951863944242
 20
272.3523618332541
 30
0.0
 10
342.8835839447821
 20
272.4731298751405
 30
0.0
 10
343.4743856772211
 20
272.5607470979428
 30
0.0
 10
344.3580872299792
 20
272.7046555227985
 30
0.0
 10
344.6522310207
 20
272.7547348933549
 30
0.0
 10
345.2396823488459
 20
272.8591832389591
 30
0.0
 10
345.533000584135
 20
272.9135037085723
 30
0.0
 10
346.411884772014
 20
273.0821999357987
 30
0.0
 10
346.9963849852025
 20
273.2022940128944
 30
0.0
 10
348.1632226441602
 20
273.4552264392958
 30
0.0
 10
348.7455592382488
 20
273.5880674480561
 30
0.0
 10
349.9086068046036
 20
273.8644831441666
 30
0.0
 10
350.4893171866172
 20
274.0080592359608
 30
0.0
 10
351.515813437869
 20
274.2702218012839
 30
0.0
 10
351.9618458394331
 20
274.3869404833125
 30
0.0
 10
352.4075902653195
 20
274.5061060914111
 30
0.0
  0
SPLINE
  5
19F
330
1F
100
AcDbEntity
  8
1
100
AcDbSpline
210
0.0
220
0.0
230
1.0
 70
     8
 71
     3
 72
    10
 73
     6
 74
     0
 42
0.000000001
 43
0.0000000001
 40
0.0
 40
0.0
 40
0.0
 40
0.0
 40
0.5
 40
0.5
 40
1.0
 40
1.0
 40
1.0
 40
1.0
 10
310.7525631675199
 20
268.9227837557034
 30
0.0
 10
309.7829084775761
 20
268.9337745423756
 30
0.0
 10
308.811732894197
 20
268.95070969993
 30
0.0
 10
306.8663071844579
 20
268.9953187517025
 30
0.0
 10
305.8920575037678
 20
269.0229905998891
 30
0.0
 10
304.9163140553897
 20
269.055515586559
 30
0.0
  0
SPLINE
  5
1A0
330
1F
100
AcDbEntity
  8
1
100
AcDbSpline
210
0.0
220
0.0
230
1.0
 70
     8
 71
     3
 72
    10
 73
     6
 74
     0
 42
0.000000001
 43
0.0000000001
 40
0.0
 40
0.0
 40
0.0
 40
0.0
 40
0.5
 40
0.5
 40
1.0
 40
1.0
 40
1.0
 40
1.0
 10
412.3577012420953
 20
293.3950536086909
 30
0.0
 10
412.087979357838
 20
293.4070826620107
 30
0.0
 10
411.8150384861037
 20
293.4231625304541
 30
0.0
 10
411.2638085938242
 20
293.4651600605482
 30
0.0
 10
410.9855115830609
 20
293.4910671096446
 30
0.0
 10
410.7048419452958
 20
293.5225501434048
 30
0.0
  0
SPLINE
  5
1A1
330
1F
100
AcDbEntity
  8
1
100
AcDbSpline
210
0.0
220
0.0
230
1.0
 70
     8
 71
     3
 72
   107
 73
   103
 74
     0
 42
0.000000001
 43
0.0000000001
 40
0.0
 40
0.0
 40
0.0
 40
0.0
 40
0.0156249999999986
 40
0.0156249999999986
 40
0.0312499999999972
 40
0.0468749999999959
 40
0.0468749999999959
 40
0.0624999999999945
 40
0.0624999999999945
 40
0.0937499999999926
 40
0.0937499999999926
 40
0.1249999999999906
 40
0.1249999999999906
 40
0.1406249999999897
 40
0.1406249999999897
 40
0.1562499999999887
 40
0.1718749999999878
 40
0.1718749999999878
 40
0.1874999999999868
 40
0.1874999999999868
 40
0.2031249999999858
 40
0.2031249999999858
 40
0.2187499999999848
 40
0.2187499999999848
 40
0.2499999999999835
 40
0.2499999999999835
 40
0.2656249999999824
 40
0.2656249999999824
 40
0.2812499999999813
 40
0.2812499999999813
 40
0.312499999999979
 40
0.312499999999979
 40
0.3281249999999791
 40
0.3281249999999791
 40
0.3437499999999791
 40
0.3437499999999791
 40
0.3749999999999791
 40
0.3749999999999791
 40
0.4062499999999791
 40
0.4062499999999791
 40
0.4218749999999791
 40
0.4218749999999791
 40
0.4374999999999789
 40
0.4374999999999789
 40
0.4453124999999789
 40
0.4453124999999789
 40
0.4531249999999789
 40
0.4531249999999789
 40
0.4687499999999793
 40
0.4687499999999793
 40
0.4999999999999813
 40
0.4999999999999813
 40
0.5156249999999828
 40
0.5156249999999828
 40
0.5234374999999826
 40
0.5234374999999826
 40
0.5312499999999825
 40
0.5312499999999825
 40
0.5624999999999825
 40
0.5624999999999825
 40
0.5781249999999824
 40
0.5781249999999824
 40
0.5937499999999822
 40
0.5937499999999822
 40
0.6249999999999825
 40
0.6249999999999825
 40
0.6406249999999827
 40
0.6406249999999827
 40
0.656249999999983
 40
0.656249999999983
 40
0.6874999999999836
 40
0.6874999999999836
 40
0.703124999999984
 40
0.703124999999984
 40
0.7187499999999844
 40
0.7343749999999848
 40
0.7343749999999848
 40
0.7499999999999851
 40
0.7499999999999851
 40
0.7656249999999857
 40
0.7656249999999857
 40
0.7812499999999859
 40
0.7812499999999859
 40
0.8124999999999873
 40
0.8124999999999873
 40
0.8281249999999882
 40
0.8281249999999882
 40
0.8437499999999889
 40
0.8593749999999896
 40
0.8593749999999896
 40
0.8749999999999904
 40
0.8749999999999904
 40
0.9062499999999921
 40
0.9062499999999921
 40
0.9374999999999939
 40
0.9374999999999939
 40
0.9531249999999953
 40
0.9531249999999953
 40
0.9687499999999969
 40
0.9843749999999984
 40
0.9843749999999984
 40
1.0
 40
1.0
 40
1.0
 40
1.0
 10
420.8575592133838
 20
282.5579935136935
 30
0.0
 10
420.8559994715188
 20
282.5126255154148
 30
0.0
 10
420.8541824552584
 20
282.4664806785515
 30
0.0
 10
420.8500531915468
 20
282.3731904254086
 30
0.0
 10
420.8454303691913
 20
282.2788963660075
 30
0.0
 10
420.8398214650836
 20
282.1825968001787
 30
0.0
 10
420.8337144315623
 20
282.0852841319989
 30
0.0
 10
420.8304114493554
 20
282.0361286449889
 30
0.0
 10
420.8198109683821
 20
281.888036970819
 30
0.0
 10
420.8118043030976
 20
281.788153367468
 30
0.0
 10
420.7938845162011
 20
281.5861950611159
 30
0.0
 10
420.7840524013461
 20
281.4850279640697
 30
0.0
 10
420.7679812560153
 20
281.3329922479059
 30
0.0
 10
420.7623931900205
 20
281.2821821176834
 30
0.0
 10
420.7508283539594
 20
281.1810125649154
 30
0.0
 10
420.7388725107962
 20
281.080255757288
 30
0.0
 10
420.7261309711226
 20
280.9803283269664
 30
0.0
 10
420.7129900150972
 20
280.8808225185476
 30
0.0
 10
420.7062225082782
 20
280.8313081433728
 30
0.0
 10
420.6923778573394
 20
280.7333948581336
 30
0.0
 10
420.6852896136449
 20
280.6849103978625
 30
0.0
 10
420.6707782418706
 20
280.5888945160558
 30
0.0
 10
420.6633474018066
 20
280.5413154391104
 30
0.0
 10
420.6405928082973
 20
280.4003534088903
 30
0.0
 10
420.6249061070511
 20
280.309327746067
 30
0.0
 10
420.6005893039424
 20
280.1772772070831
 30
0.0
 10
420.5923405515878
 20
280.1339595730415
 30
0.0
 10
420.5757596028996
 20
280.0497783924631
 30
0.0
 10
420.5674064898476
 20
280.0087968745112
 30
0.0
 10
420.5421615459143
 20
279.8891386133034
 30
0.0
 10
420.5250848598117
 20
279.813734891151
 30
0.0
 10
420.4990953624758
 20
279.7072595900114
 30
0.0
 10
420.4903696003809
 20
279.6728761447264
 30
0.0
 10
420.4727897860183
 20
279.6063807422929
 30
0.0
 10
420.4639155284801
 20
279.5742045151848
 30
0.0
 10
420.4373852284117
 20
279.4821904449407
 30
0.0
 10
420.4197421808625
 20
279.426529000721
 30
0.0
 10
420.3845735333685
 20
279.3267367028858
 30
0.0
 10
420.3672390919611
 20
279.2831451735934
 30
0.0
 10
420.3416081559827
 20
279.2271114308334
 30
0.0
 10
420.3331196461851
 20
279.2099901883406
 30
0.0
 10
420.3163906041684
 20
279.1791208645169
 30
0.0
 10
420.3081349175766
 20
279.1653368695013
 30
0.0
 10
420.2959133568478
 20
279.1471174264541
 30
0.0
 10
420.2918665192903
 20
279.1414540245956
 30
0.0
 10
420.2838269142498
 20
279.1309472894297
 30
0.0
 10
420.2798289364521
 20
279.1260983586091
 30
0.0
 10
420.2679582766577
 20
279.1128317745204
 30
0.0
 10
420.2602174416601
 20
279.1056976259316
 30
0.0
 10
420.237497358631
 20
279.0892637906278
 30
0.0
 10
420.2230185771871
 20
279.0849133770396
 30
0.0
 10
420.202275600678
 20
279.0880317764074
 30
0.0
 10
420.1955243113785
 20
279.0906835596909
 30
0.0
 10
420.1856430148922
 20
279.0970904215467
 30
0.0
 10
420.1823902191995
 20
279.0996312055681
 30
0.0
 10
420.1759671176023
 20
279.1055285413307
 30
0.0
 10
420.1727928717071
 20
279.1088901402153
 30
0.0
 10
420.1571848061121
 20
279.1276882641278
 30
0.0
 10
420.1455514965342
 20
279.1490305958455
 30
0.0
 10
420.1293513086278
 20
279.1902786326773
 30
0.0
 10
420.1241570448327
 20
279.2055943108038
 30
0.0
 10
420.1142806496219
 20
279.2389735631326
 30
0.0
 10
420.1095850657974
 20
279.2570666805276
 30
0.0
 10
420.0962073648294
 20
279.3154478036895
 30
0.0
 10
420.0882316857045
 20
279.3598224675195
 30
0.0
 10
420.0776578715716
 20
279.4344237351762
 30
0.0
 10
420.0743655500806
 20
279.4606345545856
 30
0.0
 10
420.0682493419662
 20
279.5157660321687
 30
0.0
 10
420.0654203192049
 20
279.5447566579391
 30
0.0
 10
420.0577085115216
 20
279.6351277338225
 30
0.0
 10
420.0535812246753
 20
279.6999793982437
 30
0.0
 10
420.0488952214039
 20
279.8040908835613
 30
0.0
 10
420.0475858450142
 20
279.8399406526744
 30
0.0
 10
420.0454849816931
 20
279.9134722547513
 30
0.0
 10
420.0438965976833
 20
279.9889427334937
 30
0.0
 10
420.0433279637841
 20
280.068271260063
 30
0.0
 10
420.0432723437076
 20
280.1495406855295
 30
0.0
 10
420.0435014587646
 20
280.1910122400583
 30
0.0
 10
420.0444684611285
 20
280.2754572693687
 30
0.0
 10
420.0452063225446
 20
280.3184556585381
 30
0.0
 10
420.0471912408746
 20
280.4060056348861
 30
0.0
 10
420.0484402115508
 20
280.4506129173865
 30
0.0
 10
420.0529466670761
 20
280.5863963225858
 30
0.0
 10
420.0569477708112
 20
280.6792085693386
 30
0.0
 10
420.06444858135
 20
280.8218709900058
 30
0.0
 10
420.0672041112713
 20
280.8700706494972
 30
0.0
 10
420.0731903654866
 20
280.967097985656
 30
0.0
 10
420.0796545423833
 20
281.0648300899026
 30
0.0
 10
420.0870758294916
 20
281.1639735955318
 30
0.0
 10
420.0949818035002
 20
281.2638318440956
 30
0.0
 10
420.0991770170988
 20
281.3141056091116
 30
0.0
 10
420.1124140906723
 20
281.4650288077221
 30
0.0
 10
420.1221294664984
 20
281.5661010539797
 30
0.0
 10
420.1433858638856
 20
281.769181840142
 30
0.0
 10
420.154831004658
 20
281.8702660196719
 30
0.0
 10
420.1732133852922
 20
282.0209727474777
 30
0.0
 10
420.1795561124389
 20
282.0711494496034
 30
0.0
 10
420.1926023656204
 20
282.1707802645985
 30
0.0
 10
420.2059963767082
 20
282.2696025200081
 30
0.0
 10
420.2200884395723
 20
282.3668017599672
 30
0.0
 10
420.2345350335781
 20
282.463176692131
 30
0.0
 10
420.2419386052436
 20
282.5109641302741
 30
0.0
 10
420.2494687637384
 20
282.5579935136643
 30
0.0
  0
SPLINE
  5
1A2
330
1F
100
AcDbEntity
  8
1
100
AcDbSpline
210
0.0
220
0.0
230
1.0
 70
     8
 71
     3
 72
    70
 73
    66
 74
     0
 42
0.000000001
 43
0.0000000001
 40
0.0
 40
0.0
 40
0.0
 40
0.0
 40
0.031250000000002
 40
0.031250000000002
 40
0.0468750000000036
 40
0.0468750000000036
 40
0.0625000000000053
 40
0.0625000000000053
 40
0.125000000000008
 40
0.125000000000008
 40
0.1406250000000087
 40
0.1406250000000087
 40
0.1562500000000093
 40
0.1875000000000124
 40
0.1875000000000124
 40
0.2187500000000154
 40
0.2187500000000154
 40
0.2500000000000184
 40
0.2500000000000184
 40
0.2812500000000214
 40
0.2812500000000214
 40
0.3125000000000244
 40
0.3125000000000244
 40
0.328125000000025
 40
0.328125000000025
 40
0.3437500000000256
 40
0.3437500000000256
 40
0.3750000000000267
 40
0.3750000000000267
 40
0.4062500000000278
 40
0.4062500000000278
 40
0.437500000000029
 40
0.437500000000029
 40
0.5000000000000303
 40
0.5000000000000303
 40
0.5156250000000307
 40
0.5156250000000307
 40
0.531250000000031
 40
0.5625000000000306
 40
0.5625000000000306
 40
0.6250000000000298
 40
0.6250000000000298
 40
0.6406250000000292
 40
0.6406250000000292
 40
0.6562500000000285
 40
0.6562500000000285
 40
0.6875000000000271
 40
0.7187500000000257
 40
0.7187500000000257
 40
0.7343750000000249
 40
0.7343750000000249
 40
0.7500000000000241
 40
0.7812500000000206
 40
0.7812500000000206
 40
0.8125000000000168
 40
0.8125000000000168
 40
0.8437500000000133
 40
0.8437500000000133
 40
0.8593750000000117
 40
0.8593750000000117
 40
0.8750000000000101
 40
0.8750000000000101
 40
0.9375000000000051
 40
0.9375000000000051
 40
1.0
 40
1.0
 40
1.0
 40
1.0
 10
420.2494687637416
 20
282.5579935136645
 30
0.0
 10
420.2525607047869
 20
282.6115441536517
 30
0.0
 10
420.2559089732258
 20
282.6642254504994
 30
0.0
 10
420.2613187806074
 20
282.7419334993779
 30
0.0
 10
420.2631866774303
 20
282.7676169952921
 30
0.0
 10
420.2670529558426
 20
282.818541443565
 30
0.0
 10
420.2690534077421
 20
282.8438069466874
 30
0.0
 10
420.2793572106189
 20
282.9686667879927
 30
0.0
 10
420.2885511247148
 20
283.0638074103746
 30
0.0
 10
420.3012560936431
 20
283.1766793715111
 30
0.0
 10
420.3038574242108
 20
283.1989422743409
 30
0.0
 10
420.3091613767093
 20
283.2426764613346
 30
0.0
 10
420.3172768977201
 20
283.3071579397337
 30
0.0
 10
420.3258705724523
 20
283.3682843836935
 30
0.0
 10
420.3377589725181
 20
283.4467679796473
 30
0.0
 10
420.3439234177666
 20
283.484517255406
 30
0.0
 10
420.3565855615702
 20
283.5563448847877
 30
0.0
 10
420.3630948844208
 20
283.5905055816492
 30
0.0
 10
420.3764722520401
 20
283.6552989055647
 30
0.0
 10
420.3833548957954
 20
283.6859862934547
 30
0.0
 10
420.3973859720893
 20
283.7433622576684
 30
0.0
 10
420.4045386873805
 20
283.7700836147823
 30
0.0
 10
420.4154735237789
 20
283.8072157452952
 30
0.0
 10
420.4191527967976
 20
283.8191009889669
 30
0.0
 10
420.4265804060916
 20
283.8418813585455
 30
0.0
 10
420.4303325030761
 20
283.8527861502025
 30
0.0
 10
420.4416515741083
 20
283.8838895909159
 30
0.0
 10
420.4492882802948
 20
283.9025061180729
 30
0.0
 10
420.4647418573426
 20
283.9355279228698
 30
0.0
 10
420.4725622644083
 20
283.9499386785424
 30
0.0
 10
420.4883704782923
 20
283.9744865548707
 30
0.0
 10
420.4963032411232
 20
283.9845403629663
 30
0.0
 10
420.5201856492712
 20
284.0081845727258
 30
0.0
 10
420.5362189848377
 20
284.0152910282981
 30
0.0
 10
420.5564008545221
 20
284.0133120114651
 30
0.0
 10
420.5604500698091
 20
284.0123667950782
 30
0.0
 10
420.568505814553
 20
284.0094000409521
 30
0.0
 10
420.5805437377883
 20
284.0033369197258
 30
0.0
 10
420.5924472778962
 20
283.9925300856801
 30
0.0
 10
420.6160795707184
 20
283.9647464376542
 30
0.0
 10
420.631602240468
 20
283.9380276433943
 30
0.0
 10
420.6507163210794
 20
283.8944184183694
 30
0.0
 10
420.6545246059278
 20
283.8851836206503
 30
0.0
 10
420.6621118604978
 20
283.8656792037591
 30
0.0
 10
420.6658963517831
 20
283.855393368028
 30
0.0
 10
420.6771604501926
 20
283.8230950068012
 30
0.0
 10
420.6919247550153
 20
283.776255517257
 30
0.0
 10
420.7061890585002
 20
283.7219992870279
 30
0.0
 10
420.7167002787866
 20
283.6785331520734
 30
0.0
 10
420.7201713934718
 20
283.6635862642443
 30
0.0
 10
420.7270257149152
 20
283.6328832534975
 30
0.0
 10
420.7371849073941
 20
283.5855749488405
 30
0.0
 10
420.7469809682079
 20
283.5345435966198
 30
0.0
 10
420.7597216782489
 20
283.4632137365543
 30
0.0
 10
420.7659353637938
 20
283.4258709053922
 30
0.0
 10
420.7779561130162
 20
283.3484454239053
 30
0.0
 10
420.7837744693325
 20
283.3083039864562
 30
0.0
 10
420.7922165629311
 20
283.2459680303636
 30
0.0
 10
420.794982976351
 20
283.2248350820648
 30
0.0
 10
420.800420471992
 20
283.1818598813394
 30
0.0
 10
420.8030919567032
 20
283.1600118029939
 30
0.0
 10
420.8161431837736
 20
283.0495789104355
 30
0.0
 10
420.825666392706
 20
282.9569917031925
 30
0.0
 10
420.8429463769552
 20
282.763654857958
 30
0.0
 10
420.8507029876261
 20
282.6629044591621
 30
0.0
 10
420.8575592133838
 20
282.5579935136935
 30
0.0
  0
SPLINE
  5
1A3
330
1F
100
AcDbEntity
  8
1
100
AcDbSpline
210
0.0
220
0.0
230
1.0
 70
     8
 71
     3
 72
    10
 73
     6
 74
     0
 42
0.000000001
 43
0.0000000001
 40
0.0
 40
0.0
 40
0.0
 40
0.0
 40
0.5
 40
0.5
 40
1.0
 40
1.0
 40
1.0
 40
1.0
 10
410.7048419452958
 20
291.8805041682753
 30
0.0
 10
410.9942077862609
 20
291.8751001832605
 30
0.0
 10
411.2809534386348
 20
291.8797538536093
 30
0.0
 10
411.8485064565913
 20
291.9087331067362
 30
0.0
 10
412.1293234871408
 20
291.933056814565
 30
0.0
 10
412.4065546642602
 20
291.9671782706309
 30
0.0
  0
SPLINE
  5
1A4
330
1F
100
AcDbEntity
  8
1
100
AcDbSpline
210
0.0
220
0.0
230
1.0
 70
     8
 71
     3
 72
    14
 73
    10
 74
     0
 42
0.000000001
 43
0.0000000001
 40
0.0
 40
0.0
 40
0.0
 40
0.0
 40
0.25
 40
0.25
 40
0.5
 40
0.5
 40
0.75
 40
0.75
 40
1.0
 40
1.0
 40
1.0
 40
1.0
 10
300.9350689273804
 20
290.2997810199382
 30
0.0
 10
301.8302179527898
 20
289.9079089775754
 30
0.0
 10
302.7286537055174
 20
289.524987571433
 30
0.0
 10
304.5327418745494
 20
288.7785915574488
 30
0.0
 10
305.4384003503864
 20
288.4151328502605
 30
0.0
 10
307.2577522075165
 20
287.7096609963536
 30
0.0
 10
308.171457647973
 20
287.3676789683336
 30
0.0
 10
310.0076232615882
 20
286.7069015144274
 30
0.0
 10
310.9300959461854
 20
286.3881380245132
 30
0.0
 10
311.8570567865663
 20
286.0811961829303
 30
0.0
  0
SPLINE
  5
1A5
330
1F
100
AcDbEntity
  8
1
100
AcDbSpline
210
0.0
220
0.0
230
1.0
 70
     8
 71
     3
 72
    75
 73
    71
 74
     0
 42
0.000000001
 43
0.0000000001
 40
0.0
 40
0.0
 40
0.0
 40
0.0
 40
0.0312500000000002
 40
0.0312500000000002
 40
0.0625000000000004
 40
0.0625000000000004
 40
0.0937500000000006
 40
0.0937500000000006
 40
0.1250000000000008
 40
0.1250000000000008
 40
0.156250000000001
 40
0.156250000000001
 40
0.1875000000000012
 40
0.1875000000000012
 40
0.2187500000000014
 40
0.2187500000000014
 40
0.2500000000000016
 40
0.2500000000000016
 40
0.2656250000000017
 40
0.2656250000000017
 40
0.2812500000000018
 40
0.2812500000000018
 40
0.3125000000000024
 40
0.3125000000000024
 40
0.3437500000000031
 40
0.3437500000000031
 40
0.3593750000000031
 40
0.3593750000000031
 40
0.3750000000000032
 40
0.3750000000000032
 40
0.4062500000000031
 40
0.4062500000000031
 40
0.4375000000000028
 40
0.4375000000000028
 40
0.4687500000000026
 40
0.4687500000000026
 40
0.5000000000000025
 40
0.5000000000000025
 40
0.5312500000000023
 40
0.5312500000000023
 40
0.5625000000000022
 40
0.5625000000000022
 40
0.5937500000000022
 40
0.5937500000000022
 40
0.6250000000000019
 40
0.6250000000000019
 40
0.6562500000000018
 40
0.6875000000000016
 40
0.6875000000000016
 40
0.7187500000000015
 40
0.7187500000000015
 40
0.7500000000000014
 40
0.7500000000000014
 40
0.7812500000000013
 40
0.7812500000000013
 40
0.7968750000000011
 40
0.7968750000000011
 40
0.8125000000000008
 40
0.8125000000000008
 40
0.8437500000000007
 40
0.8437500000000007
 40
0.8750000000000007
 40
0.8750000000000007
 40
0.9062500000000005
 40
0.9062500000000005
 40
0.9375000000000003
 40
0.9375000000000003
 40
0.9687500000000001
 40
0.9687500000000001
 40
1.0
 40
1.0
 40
1.0
 40
1.0
 10
311.8570625188722
 20
286.081210287184
 30
0.0
 10
312.8243953378368
 20
285.7947827784272
 30
0.0
 10
313.789661096572
 20
285.5041463044159
 30
0.0
 10
315.7164570057397
 20
284.9161138188819
 30
0.0
 10
316.6779871990756
 20
284.6187188137393
 30
0.0
 10
318.5978353948652
 20
284.0191500235308
 30
0.0
 10
319.5561536857951
 20
283.7169779753897
 30
0.0
 10
321.4702218852437
 20
283.110116533333
 30
0.0
 10
322.42597234332
 20
282.8054295757289
 30
0.0
 10
324.335656544406
 20
282.1960176292094
 30
0.0
 10
325.2895910885992
 20
281.8912956657084
 30
0.0
 10
327.1964826636718
 20
281.2844284664072
 30
0.0
 10
328.1494407104433
 20
280.9822866586422
 30
0.0
 10
330.0552785991717
 20
280.3832323732663
 30
0.0
 10
331.00815960848
 20
280.0863234781417
 30
0.0
 10
332.9147698173513
 20
279.5003192851992
 30
0.0
 10
333.8685002511783
 20
279.2112274396302
 30
0.0
 10
335.3004198766487
 20
278.7852568264059
 30
0.0
 10
335.7779468905622
 20
278.6445427861902
 30
0.0
 10
336.7335523667705
 20
278.3659430317916
 30
0.0
 10
337.211589443875
 20
278.2280701220384
 30
0.0
 10
338.6457322408813
 20
277.8193452548059
 30
0.0
 10
339.6021770788507
 20
277.5533108412944
 30
0.0
 10
341.5165862196008
 20
277.0358123707588
 30
0.0
 10
342.4745514827252
 20
276.7843493142684
 30
0.0
 10
343.9132028358267
 20
276.4190133536315
 30
0.0
 10
344.3930369061766
 20
276.299208548477
 30
0.0
 10
345.3533551291524
 20
276.0636537434977
 30
0.0
 10
345.8338367802364
 20
275.9478967783508
 30
0.0
 10
347.276278239953
 20
275.6065972671273
 30
0.0
 10
348.2392391017372
 20
275.3870351050821
 30
0.0
 10
350.1678684514204
 20
274.9631267033056
 30
0.0
 10
351.1335361684232
 20
274.7587768863229
 30
0.0
 10
353.0674831355284
 20
274.3643161310212
 30
0.0
 10
354.0357610847403
 20
274.1742009952117
 30
0.0
 10
355.9747266385912
 20
273.8071041508395
 30
0.0
 10
356.945412428944
 20
273.6301179176284
 30
0.0
 10
358.8889330098938
 20
273.2881774733134
 30
0.0
 10
359.8617580347471
 20
273.1231958191691
 30
0.0
 10
361.8088295124591
 20
272.803378511814
 30
0.0
 10
362.7832338747496
 20
272.6485238719426
 30
0.0
 10
364.7316569327799
 20
272.3478711648997
 30
0.0
 10
365.7057747413787
 20
272.2020587061745
 30
0.0
 10
367.6533736093445
 20
271.9185808437252
 30
0.0
 10
368.6268552681732
 20
271.78091775415
 30
0.0
 10
370.5727857469566
 20
271.5132187349592
 30
0.0
 10
372.517684080097
 20
271.2531489954424
 30
0.0
 10
374.4597999116964
 20
271.0078992922986
 30
0.0
 10
376.4002013055492
 20
270.7701269679574
 30
0.0
 10
377.3695442013558
 20
270.6549789242218
 30
0.0
 10
379.306237297686
 20
270.4325207177851
 30
0.0
 10
380.2735864108551
 20
270.3252097316592
 30
0.0
 10
382.2060837145216
 20
270.1191018843164
 30
0.0
 10
383.1712303146888
 20
270.0203045466714
 30
0.0
 10
384.6172260433956
 20
269.8792546450262
 30
0.0
 10
385.0989291197251
 20
269.8334232632199
 30
0.0
 10
386.0618932323518
 20
269.7444360233496
 30
0.0
 10
386.5432187324949
 20
269.7012772305043
 30
0.0
 10
387.9862196344905
 20
269.5762874452189
 30
0.0
 10
388.9469176511625
 20
269.4989646595501
 30
0.0
 10
390.8669882725933
 20
269.3579669101745
 30
0.0
 10
391.8263630205404
 20
269.2942913039571
 30
0.0
 10
393.7450010394402
 20
269.1814972717744
 30
0.0
 10
394.7042658320144
 20
269.1323760780445
 30
0.0
 10
396.6237710026532
 20
269.0489187270137
 30
0.0
 10
397.5840120377518
 20
269.0145784971983
 30
0.0
 10
399.5063963383484
 20
268.9603355042908
 30
0.0
 10
400.4685392537816
 20
268.9404283797927
 30
0.0
 10
402.3954884823194
 20
268.9142591869897
 30
0.0
 10
403.3602933950808
 20
268.9079935137005
 30
0.0
 10
404.32674093249
 20
268.9079935137005
 30
0.0
  0
SPLINE
  5
1A6
330
1F
100
AcDbEntity
  8
1
100
AcDbSpline
210
0.0
220
0.0
230
1.0
 70
     8
 71
     3
 72
    72
 73
    68
 74
     0
 42
0.000000001
 43
0.0000000001
 40
0.0
 40
0.0
 40
0.0
 40
0.0
 40
0.0077593272885976
 40
0.0077593272885976
 40
0.0474489541970531
 40
0.0474489541970531
 40
0.0871385811055087
 40
0.0871385811055087
 40
0.1268282080139642
 40
0.1268282080139642
 40
0.1665178349224197
 40
0.1665178349224197
 40
0.2062074618308752
 40
0.2062074618308752
 40
0.2458970887393307
 40
0.2458970887393307
 40
0.2855867156477862
 40
0.2855867156477862
 40
0.305431529102014
 40
0.305431529102014
 40
0.3252763425562417
 40
0.3252763425562417
 40
0.3649659694646973
 40
0.3649659694646973
 40
0.4046555963731528
 40
0.4046555963731528
 40
0.4443452232816084
 40
0.4443452232816084
 40
0.4840348501900638
 40
0.4840348501900638
 40
0.503879663644292
 40
0.503879663644292
 40
0.5237244770985199
 40
0.5237244770985199
 40
0.5634141040069764
 40
0.5634141040069764
 40
0.603103730915433
 40
0.603103730915433
 40
0.6427933578238894
 40
0.6427933578238894
 40
0.6824829847323459
 40
0.6824829847323459
 40
0.7023277981865741
 40
0.7023277981865741
 40
0.7221726116408023
 40
0.7221726116408023
 40
0.7618622385492588
 40
0.7618622385492588
 40
0.7817070520034873
 40
0.7817070520034873
 40
0.8015518654577157
 40
0.8015518654577157
 40
0.841241492366173
 40
0.841241492366173
 40
0.8610863058204015
 40
0.8610863058204015
 40
0.8809311192746299
 40
0.8809311192746299
 40
0.9007759327288585
 40
0.9007759327288585
 40
0.9206207461830871
 40
0.9206207461830871
 40
0.9404655596373153
 40
0.9404655596373153
 40
0.9603103730915441
 40
0.9603103730915441
 40
1.0
 40
1.0
 40
1.0
 40
1.0
 10
326.0915522762271
 20
308.9079925392086
 30
0.0
 10
326.289298467842
 20
308.9079950366072
 30
0.0
 10
326.4870164177754
 20
308.9076640718829
 30
0.0
 10
327.6959230164312
 20
308.9035843105435
 30
0.0
 10
328.7064720419174
 20
308.8913750354822
 30
0.0
 10
330.7270031817898
 20
308.8489484777257
 30
0.0
 10
331.736986316488
 20
308.8187316391409
 30
0.0
 10
333.7571385117552
 20
308.7401924470319
 30
0.0
 10
334.7674752959453
 20
308.6918587142377
 30
0.0
 10
336.7873188991886
 20
308.5773916461036
 30
0.0
 10
337.7970031776608
 20
308.511256420888
 30
0.0
 10
339.8165556137201
 20
308.361689598409
 30
0.0
 10
340.8264244996863
 20
308.2782604063034
 30
0.0
 10
342.8469288748309
 20
308.0947919921886
 30
0.0
 10
343.8575649275771
 20
307.9947554566049
 30
0.0
 10
345.8800890070004
 20
307.7788571658518
 30
0.0
 10
346.8919628540943
 20
307.6630198898379
 30
0.0
 10
348.4098913950785
 20
307.476698445719
 30
0.0
 10
348.9159447115554
 20
307.4124888806089
 30
0.0
 10
349.9277607119892
 20
307.2797971025466
 30
0.0
 10
350.4334852133738
 20
307.2113199681927
 30
0.0
 10
351.9500533101494
 20
306.9993654849235
 30
0.0
 10
352.9602729286283
 20
306.8493414144118
 30
0.0
 10
354.9792258529088
 20
306.5316112841094
 30
0.0
 10
355.9879630474075
 20
306.3638986971318
 30
0.0
 10
358.0046687958251
 20
306.0113700406393
 30
0.0
 10
359.0126220166113
 20
305.8265175420738
 30
0.0
 10
361.0290706022547
 20
305.4415502493414
 30
0.0
 10
362.0375905206645
 20
305.2414823698383
 30
0.0
 10
363.5515511095747
 20
304.9313905942164
 30
0.0
 10
364.0564480562144
 20
304.826347353467
 30
0.0
 10
365.0662795514543
 20
304.6132006623423
 30
0.0
 10
365.5712504121744
 20
304.5050901222088
 30
0.0
 10
367.0864156704622
 20
304.1763825858713
 30
0.0
 10
368.0968711205282
 20
303.9514268085069
 30
0.0
 10
370.1187049989817
 20
303.4907203645473
 30
0.0
 10
371.1300806741548
 20
303.2549682003792
 30
0.0
 10
373.1537467864116
 20
302.7729788537471
 30
0.0
 10
374.1660353188164
 20
302.5267404171792
 30
0.0
 10
376.1913558397412
 20
302.0236057376028
 30
0.0
 10
377.2043869232037
 20
301.7667096978859
 30
0.0
 10
378.7242722910227
 20
301.37289590316
 30
0.0
 10
379.2309511972129
 20
301.240210297061
 30
0.0
 10
380.2439173531823
 20
300.972005536919
 30
0.0
 10
380.7502613735555
 20
300.8364719083234
 30
0.0
 10
382.2687898123145
 20
300.4253478592938
 30
0.0
 10
383.2804770805187
 20
300.1452579143619
 30
0.0
 10
384.7965647317019
 20
299.7148268446338
 30
0.0
 10
385.3016770840065
 20
299.5696078328456
 30
0.0
 10
386.3113866223067
 20
299.2755956058872
 30
0.0
 10
386.8159862509221
 20
299.1268080375801
 30
0.0
 10
388.3290980509033
 20
298.6752131076976
 30
0.0
 10
389.3368906297058
 20
298.3670809623378
 30
0.0
 10
390.847990870376
 20
297.8961393037473
 30
0.0
 10
391.3516005959451
 20
297.7377230484662
 30
0.0
 10
392.3588825390273
 20
297.4186353343052
 30
0.0
 10
392.8625545774048
 20
297.257962858158
 30
0.0
 10
393.8702827818519
 20
296.9352251292988
 30
0.0
 10
394.3744054489009
 20
296.7731379364482
 30
0.0
 10
395.3830911275184
 20
296.4488183755739
 30
0.0
 10
395.887613584555
 20
296.2865997652714
 30
0.0
 10
396.8974205954084
 20
295.9634794588958
 30
0.0
 10
397.4027056774121
 20
295.8025793814024
 30
0.0
 10
398.4144999431688
 20
295.483776647922
 30
0.0
 10
398.921009986993
 20
295.3258769109029
 30
0.0
 10
400.4431260676716
 20
294.8594602862274
 30
0.0
 10
401.4613341180051
 20
294.5582632795689
 30
0.0
 10
402.4849845075821
 20
294.2744259956476
 30
0.0
  0
SPLINE
  5
1A7
330
1F
100
AcDbEntity
  8
1
100
AcDbSpline
210
0.0
220
0.0
230
1.0
 70
     8
 71
     3
 72
    12
 73
     8
 74
     0
 42
0.000000001
 43
0.0000000001
 40
0.0
 40
0.0
 40
0.0
 40
0.0
 40
0.2500000000000104
 40
0.2500000000000104
 40
0.5000000000000208
 40
0.5000000000000208
 40
1.0
 40
1.0
 40
1.0
 40
1.0
 10
403.8576421967865
 20
293.5658988731905
 30
0.0
 10
403.7442869319287
 20
293.6228298495937
 30
0.0
 10
403.6306625660569
 20
293.6803113249559
 30
0.0
 10
403.4029110772246
 20
293.7963027640161
 30
0.0
 10
403.2887946382463
 20
293.8547908715307
 30
0.0
 10
402.9456270928328
 20
294.0319290410796
 30
0.0
 10
402.7157752865202
 20
294.1522170919216
 30
0.0
 10
402.4849845075701
 20
294.274425995651
 30
0.0
  0
SPLINE
  5
1A8
330
1F
100
AcDbEntity
  8
1
100
AcDbSpline
210
0.0
220
0.0
230
1.0
 70
     8
 71
     3
 72
    30
 73
    26
 74
     0
 42
0.000000001
 43
0.0000000001
 40
0.0
 40
0.0
 40
0.0
 40
0.0
 40
0.0624999999999957
 40
0.0624999999999957
 40
0.1249999999999915
 40
0.1249999999999915
 40
0.1874999999999872
 40
0.1874999999999872
 40
0.249999999999983
 40
0.249999999999983
 40
0.3124999999999787
 40
0.3124999999999787
 40
0.3437499999999821
 40
0.3437499999999821
 40
0.3749999999999854
 40
0.3749999999999854
 40
0.4999999999999883
 40
0.4999999999999883
 40
0.6249999999999912
 40
0.6249999999999912
 40
0.7499999999999942
 40
0.7499999999999942
 40
0.8749999999999971
 40
0.8749999999999971
 40
1.0
 40
1.0
 40
1.0
 40
1.0
 10
410.7048419452958
 20
291.8805041682753
 30
0.0
 10
410.553801684614
 20
291.8829195446981
 30
0.0
 10
410.4027334496085
 20
291.8878512033907
 30
0.0
 10
410.1009393380957
 20
291.9023289840841
 30
0.0
 10
409.95020996902
 20
291.9118781194551
 30
0.0
 10
409.6493181356851
 20
291.9353372097387
 30
0.0
 10
409.4991539688262
 20
291.9492486306142
 30
0.0
 10
409.1995289069965
 20
291.9812693205023
 30
0.0
 10
409.0500671079141
 20
291.9993793664225
 30
0.0
 10
408.7519309406804
 20
292.0396940697352
 30
0.0
 10
408.603256058974
 20
292.0618991659422
 30
0.0
 10
408.3808732328344
 20
292.0982323150978
 30
0.0
 10
408.3068503311413
 20
292.110847911973
 30
0.0
 10
408.159018469684
 20
292.1370837156999
 30
0.0
 10
408.0851709935284
 20
292.1507114340733
 30
0.0
 10
407.7169967101526
 20
292.2212541530094
 30
0.0
 10
407.4261078432351
 20
292.2853088360965
 30
0.0
 10
406.8515100770873
 20
292.4281478573974
 30
0.0
 10
406.5677976698162
 20
292.5069355339659
 30
0.0
 10
406.0073593770122
 20
292.679060063528
 30
0.0
 10
405.7306319401624
 20
292.7723984950052
 30
0.0
 10
405.1839811777536
 20
292.9736933445031
 30
0.0
 10
404.9140570908763
 20
293.0816503603698
 30
0.0
 10
404.3808727007301
 20
293.3124702323596
 30
0.0
 10
404.1176119698146
 20
293.435332965799
 30
0.0
 10
403.8576421967867
 20
293.5658988731906
 30
0.0
  0
SPLINE
  5
1A9
330
1F
100
AcDbEntity
  8
1
100
AcDbSpline
210
0.0
220
0.0
230
1.0
 70
    24
 71
     3
 72
    12
 73
     8
 74
     0
 42
0.000000001
 43
0.0000000001
 40
0.0
 40
0.0
 40
0.0
 40
0.0
 40
0.3568082889050228
 40
0.3568082889050228
 40
0.7136165778100457
 40
0.7136165778100457
 40
1.0
 40
1.0
 40
1.0
 40
1.0
 10
410.7048419452958
 20
293.5225501434048
 30
0.0
 10
410.7048419452958
 20
293.2074753007117
 30
0.0
 10
410.7048419452958
 20
292.9335735981443
 30
0.0
 10
410.7048419452958
 20
292.4743373167028
 30
0.0
 10
410.7048419452958
 20
292.2890067087088
 30
0.0
 10
410.7048419452958
 20
292.0385526923978
 30
0.0
 10
410.7048419452956
 20
291.9569248624446
 30
0.0
 10
410.7048419452956
 20
291.9057281434081
 30
0.0
  0
SPLINE
  5
1AA
330
1F
100
AcDbEntity
  8
1
100
AcDbSpline
210
0.0
220
0.0
230
1.0
 70
     8
 71
     3
 72
    33
 73
    29
 74
     0
 42
0.000000001
 43
0.0000000001
 40
0.0
 40
0.0
 40
0.0
 40
0.0
 40
0.124999999999995
 40
0.124999999999995
 40
0.2499999999999901
 40
0.2499999999999901
 40
0.3124999999999878
 40
0.3437499999999867
 40
0.3437499999999867
 40
0.3749999999999856
 40
0.3749999999999856
 40
0.4999999999999812
 40
0.4999999999999812
 40
0.6249999999999769
 40
0.6249999999999769
 40
0.6874999999999774
 40
0.6874999999999774
 40
0.7499999999999778
 40
0.7499999999999778
 40
0.7812499999999807
 40
0.7812499999999807
 40
0.8124999999999836
 40
0.8124999999999836
 40
0.8749999999999889
 40
0.8749999999999889
 40
0.9374999999999944
 40
0.9374999999999944
 40
1.0
 40
1.0
 40
1.0
 40
1.0
 10
403.8589011113463
 20
297.2072904259709
 30
0.0
 10
404.1379261238849
 20
296.9871499196091
 30
0.0
 10
404.4184266739788
 20
296.7762246399644
 30
0.0
 10
404.9825647090462
 20
296.3716383927577
 30
0.0
 10
405.2662061125976
 20
296.1779792154282
 30
0.0
 10
405.6941877248026
 20
295.8998331929345
 30
0.0
 10
405.9088082484517
 20
295.7638497956947
 30
0.0
 10
406.1243930094112
 20
295.6324195584421
 30
0.0
 10
406.2683310865924
 20
295.5458042063099
 30
0.0
 10
406.3404050220665
 20
295.503000840146
 30
0.0
 10
406.7008910514994
 20
295.2917210899461
 30
0.0
 10
406.9900118408519
 20
295.1312433722382
 30
0.0
 10
407.5693929414287
 20
294.8267311652455
 30
0.0
 10
407.8596731222646
 20
294.6827044237924
 30
0.0
 10
408.2950579700917
 20
294.4786010072008
 30
0.0
 10
408.4401717593747
 20
294.4125561983483
 30
0.0
 10
408.7300692494659
 20
294.2843638494074
 30
0.0
 10
408.8748548111442
 20
294.2222169880027
 30
0.0
 10
409.0914470618234
 20
294.1318366802044
 30
0.0
 10
409.1635454330834
 20
294.1021829489235
 30
0.0
 10
409.3074674579609
 20
294.0438028425692
 30
0.0
 10
409.3793099688821
 20
294.0150776751308
 30
0.0
 10
409.5941118404862
 20
293.9302479953053
 30
0.0
 10
409.7363628703012
 20
293.8754903448669
 30
0.0
 10
410.0183449481401
 20
293.7693127215625
 30
0.0
 10
410.1580780510257
 20
293.7178936280862
 30
0.0
 10
410.4342184477092
 20
293.6180682642465
 30
0.0
 10
410.5706285988619
 20
293.5696632186818
 30
0.0
 10
410.7048419452958
 20
293.5225501434048
 30
0.0
  0
SPLINE
  5
1AB
330
1F
100
AcDbEntity
  8
1
100
AcDbSpline
210
0.0
220
0.0
230
1.0
 70
     8
 71
     3
 72
     8
 73
     4
 74
     0
 42
0.000000001
 43
0.0000000001
 40
0.0
 40
0.0
 40
0.0
 40
0.0
 40
1.0
 40
1.0
 40
1.0
 40
1.0
 10
403.8589011113463
 20
297.2072904259709
 30
0.0
 10
403.7943263690274
 20
297.2463945239923
 30
0.0
 10
403.7299489840105
 20
297.2859818199102
 30
0.0
 10
403.665765921303
 20
297.3260569944885
 30
0.0
  0
SPLINE
  5
1AC
330
1F
100
AcDbEntity
  8
1
100
AcDbSpline
210
0.0
220
0.0
230
1.0
 70
     8
 71
     3
 72
     8
 73
     4
 74
     0
 42
0.000000001
 43
0.0000000001
 40
0.0
 40
0.0
 40
0.0
 40
0.0
 40
1.0
 40
1.0
 40
1.0
 40
1.0
 10
403.665765921303
 20
297.3260569944884
 30
0.0
 10
403.4681882333833
 20
297.4494222563212
 30
0.0
 10
403.2690353151531
 20
297.5735354989451
 30
0.0
 10
403.0683405482938
 20
297.6983808714349
 30
0.0
  0
SPLINE
  5
1AD
330
1F
100
AcDbEntity
  8
1
100
AcDbSpline
210
0.0
220
0.0
230
1.0
 70
     8
 71
     3
 72
    39
 73
    35
 74
     0
 42
0.000000001
 43
0.0000000001
 40
0.0
 40
0.0
 40
0.0
 40
0.0
 40
0.1250000000000323
 40
0.1250000000000323
 40
0.2500000000000646
 40
0.2500000000000646
 40
0.3125000000000567
 40
0.3125000000000567
 40
0.3750000000000487
 40
0.3750000000000487
 40
0.5000000000000363
 40
0.5000000000000363
 40
0.5625000000000182
 40
0.5625000000000182
 40
0.6250000000000001
 40
0.6250000000000001
 40
0.6562499999999894
 40
0.6562499999999894
 40
0.6874999999999785
 40
0.6874999999999785
 40
0.7499999999999624
 40
0.7499999999999624
 40
0.7812499999999542
 40
0.7812499999999542
 40
0.8124999999999458
 40
0.8437499999999376
 40
0.8437499999999376
 40
0.8749999999999293
 40
0.8749999999999293
 40
0.9374999999999632
 40
0.9374999999999632
 40
0.9687499999999815
 40
0.9687499999999815
 40
1.0
 40
1.0
 40
1.0
 40
1.0
 10
403.0683405482936
 20
297.6983808714346
 30
0.0
 10
403.0378973072313
 20
297.7173185738457
 30
0.0
 10
403.008697984015
 20
297.7374294198686
 30
0.0
 10
402.9530818777256
 20
297.7802887504398
 30
0.0
 10
402.9266591798346
 20
297.8030316032579
 30
0.0
 10
402.8895411638846
 20
297.839540022494
 30
0.0
 10
402.8775904543934
 20
297.8521110103603
 30
0.0
 10
402.8546550058861
 20
297.8781733180479
 30
0.0
 10
402.8436501107312
 20
297.8916899385811
 30
0.0
 10
402.8124781477203
 20
297.9337027075833
 30
0.0
 10
402.7943324446359
 20
297.963291108522
 30
0.0
 10
402.7727148991278
 20
298.0110301930715
 30
0.0
 10
402.7664635614195
 20
298.027540296616
 30
0.0
 10
402.7565743780323
 20
298.0611865002943
 30
0.0
 10
402.7528904231455
 20
298.0784016464714
 30
0.0
 10
402.749701178461
 20
298.1049488406294
 30
0.0
 10
402.7490296524353
 20
298.1139192912431
 30
0.0
 10
402.7485812516023
 20
298.132137009826
 30
0.0
 10
402.7488091627603
 20
298.1414370980713
 30
0.0
 10
402.7510218470677
 20
298.1694069432685
 30
0.0
 10
402.7544916181278
 20
298.1880171369438
 30
0.0
 10
402.7631811365521
 20
298.215864321246
 30
0.0
 10
402.7666934285788
 20
298.2252014925319
 30
0.0
 10
402.7748244279437
 20
298.2434600492496
 30
0.0
 10
402.7840362079431
 20
298.2612965740658
 30
0.0
 10
402.7953792817548
 20
298.2782994667969
 30
0.0
 10
402.8077860656912
 20
298.2948855945917
 30
0.0
 10
402.8145712053619
 20
298.3030199933133
 30
0.0
 10
402.8360598454724
 20
298.3262978104269
 30
0.0
 10
402.8518985738191
 20
298.3403958499236
 30
0.0
 10
402.8775702673924
 20
298.3597444183606
 30
0.0
 10
402.8864537708723
 20
298.3658917032209
 30
0.0
 10
402.9045749624903
 20
298.3774766978059
 30
0.0
 10
402.9138420427499
 20
298.3829376454074
 30
0.0
 10
402.9232949281569
 20
298.3881002475113
 30
0.0
  0
SPLINE
  5
1AE
330
1F
100
AcDbEntity
  8
1
100
AcDbSpline
210
0.0
220
0.0
230
1.0
 70
     8
 71
     3
 72
    40
 73
    36
 74
     0
 42
0.000000001
 43
0.0000000001
 40
0.0
 40
0.0
 40
0.0
 40
0.0
 40
0.1250000000000031
 40
0.1250000000000031
 40
0.2500000000000061
 40
0.2500000000000061
 40
0.3750000000000092
 40
0.3750000000000092
 40
0.3906250000000087
 40
0.3906250000000087
 40
0.4062500000000084
 40
0.4375000000000073
 40
0.4375000000000073
 40
0.5000000000000061
 40
0.5000000000000061
 40
0.5625000000000048
 40
0.5625000000000048
 40
0.6250000000000035
 40
0.6250000000000035
 40
0.6562500000000057
 40
0.6562500000000057
 40
0.6875000000000079
 40
0.6875000000000079
 40
0.7500000000000072
 40
0.7500000000000072
 40
0.8125000000000065
 40
0.8125000000000065
 40
0.8750000000000056
 40
0.8750000000000056
 40
0.9062500000000055
 40
0.9062500000000055
 40
0.9218750000000047
 40
0.9218750000000047
 40
0.9375000000000039
 40
1.0
 40
1.0
 40
1.0
 40
1.0
 10
402.9232949281574
 20
298.3881002475108
 30
0.0
 10
403.2344894749439
 20
298.5580561448737
 30
0.0
 10
403.5383707875666
 20
298.7384578488291
 30
0.0
 10
404.1298032362343
 20
299.1225863496241
 30
0.0
 10
404.4173662763974
 20
299.3262961433002
 30
0.0
 10
404.9737579532641
 20
299.7604748840974
 30
0.0
 10
405.2426085976684
 20
299.9909123966737
 30
0.0
 10
405.5325016468039
 20
300.2681001934189
 30
0.0
 10
405.5645585547153
 20
300.2991715374587
 30
0.0
 10
405.628187104097
 20
300.361705307883
 30
0.0
 10
405.7228886592994
 20
300.4560773896717
 30
0.0
 10
405.8153365926844
 20
300.5521867337352
 30
0.0
 10
405.9971394328936
 20
300.7467897608483
 30
0.0
 10
406.1142211516601
 20
300.8797012547793
 30
0.0
 10
406.3395896670004
 20
301.1523040343608
 30
0.0
 10
406.4478776268457
 20
301.2919944232734
 30
0.0
 10
406.6549686113998
 20
301.5786869070226
 30
0.0
 10
406.753773327095
 20
301.7256876983188
 30
0.0
 10
406.8942149028358
 20
301.9521751187444
 30
0.0
 10
406.9397329576251
 20
302.0286698291952
 30
0.0
 10
407.0280467591864
 20
302.1837578111697
 30
0.0
 10
407.0708923431661
 20
302.2624606839959
 30
0.0
 10
407.1941574985351
 20
302.4999446703654
 30
0.0
 10
407.2696334168351
 20
302.660629414774
 30
0.0
 10
407.4066566455391
 20
302.986908813781
 30
0.0
 10
407.4682052196912
 20
303.1525030229017
 30
0.0
 10
407.5766734276004
 20
303.4888482223557
 30
0.0
 10
407.6235949606673
 20
303.6595985431722
 30
0.0
 10
407.6823140619656
 20
303.9198353653593
 30
0.0
 10
407.6999413216058
 20
304.0072668687382
 30
0.0
 10
407.723357071582
 20
304.1394805019609
 30
0.0
 10
407.7306570872206
 20
304.1837323505022
 30
0.0
 10
407.7441822596211
 20
304.2722593760473
 30
0.0
 10
407.7753446135508
 20
304.4938436139018
 30
0.0
 10
407.7932380072922
 20
304.7167628389992
 30
0.0
 10
407.7988954099656
 20
304.8959692294161
 30
0.0
  0
SPLINE
  5
1AF
330
1F
100
AcDbEntity
  8
1
100
AcDbSpline
210
0.0
220
0.0
230
1.0
 70
    12
 71
     3
 72
     9
 73
     5
 74
     0
 42
0.000000001
 43
0.0000000001
 40
0.0
 40
0.0
 40
0.0
 40
0.0
 40
0.3361081220220926
 40
1.0
 40
1.0
 40
1.0
 40
1.0
 10
372.717292875408
 20
302.8751545211867
 30
0.0
 41
1.004612004160208
 10
376.6529290137181
 20
303.1222162278461
 30
0.0
 41
1.00571296613262
 10
388.327116854002
 20
303.4353452503682
 30
0.0
 41
1.007936949318126
 10
400.3637882988922
 20
303.2448280031486
 30
0.0
 41
0.994856300642896
 10
407.7988954099668
 20
304.8959692294164
 30
0.0
 41
0.9990814175223215
  0
SPLINE
  5
1B0
330
1F
100
AcDbEntity
  8
1
100
AcDbSpline
210
0.0
220
0.0
230
1.0
 70
     8
 71
     3
 72
    35
 73
    31
 74
     0
 42
0.000000001
 43
0.0000000001
 40
0.0
 40
0.0
 40
0.0
 40
0.0
 40
0.0624999999999996
 40
0.0624999999999996
 40
0.1249999999999992
 40
0.1249999999999992
 40
0.1874999999999988
 40
0.1874999999999988
 40
0.2499999999999984
 40
0.3124999999999981
 40
0.3124999999999981
 40
0.3437499999999978
 40
0.3437499999999978
 40
0.359374999999998
 40
0.359374999999998
 40
0.3749999999999982
 40
0.3749999999999982
 40
0.4999999999999981
 40
0.4999999999999981
 40
0.6249999999999979
 40
0.6249999999999979
 40
0.7499999999999978
 40
0.7499999999999978
 40
0.7812499999999979
 40
0.7812499999999979
 40
0.8124999999999978
 40
0.8124999999999978
 40
0.8749999999999987
 40
0.8749999999999987
 40
1.0
 40
1.0
 40
1.0
 40
1.0
 10
290.2038318185191
 20
291.9646044606312
 30
0.0
 10
289.9523405545851
 20
291.9268667407623
 30
0.0
 10
289.7036352243152
 20
291.8838999652651
 30
0.0
 10
289.2113319113962
 20
291.7884356618501
 30
0.0
 10
288.9677324023017
 20
291.7359441348432
 30
0.0
 10
288.4852774112989
 20
291.6221247032689
 30
0.0
 10
288.2464223893847
 20
291.5607956875651
 30
0.0
 10
287.7731696210064
 20
291.4298259393996
 30
0.0
 10
287.3043758799801
 20
291.2905393642824
 30
0.0
 10
286.8441036811754
 20
291.1352113196364
 30
0.0
 10
286.5019807680642
 20
291.0128546814342
 30
0.0
 10
286.3884532600329
 20
290.9710932514803
 30
0.0
 10
286.2189232175206
 20
290.9069922759891
 30
0.0
 10
286.1625128536944
 20
290.8853714257179
 30
0.0
 10
286.0500666778195
 20
290.8416923168526
 30
0.0
 10
285.9940993341809
 20
290.8196609709973
 30
0.0
 10
285.4926502140807
 20
290.6196776116868
 30
0.0
 10
285.0628829870903
 20
290.4298787805853
 30
0.0
 10
284.2315139023672
 20
290.0279664695552
 30
0.0
 10
283.8299001256478
 20
289.8159134776581
 30
0.0
 10
283.0527921222527
 20
289.3698806362834
 30
0.0
 10
282.6773060626432
 20
289.1358930094584
 30
0.0
 10
282.2235725904172
 20
288.8296714541703
 30
0.0
 10
282.1336089616356
 20
288.7677398675131
 30
0.0
 10
281.9552372197545
 20
288.6425003399322
 30
0.0
 10
281.8667906704626
 20
288.5791642363121
 30
0.0
 10
281.6040292215654
 20
288.3872766841051
 30
0.0
 10
281.4327054300211
 20
288.2571652128863
 30
0.0
 10
280.9300184414961
 20
287.8602162233814
 30
0.0
 10
280.6099108194958
 20
287.5867672387774
 30
0.0
 10
280.3043368819075
 20
287.3045593231548
 30
0.0
  0
SPLINE
  5
1B1
330
1F
100
AcDbEntity
  8
1
100
AcDbSpline
210
0.0
220
0.0
230
1.0
 70
     8
 71
     3
 72
    10
 73
     6
 74
     0
 42
0.000000001
 43
0.0000000001
 40
0.0
 40
0.0
 40
0.0
 40
0.0
 40
0.5
 40
0.5
 40
1.0
 40
1.0
 40
1.0
 40
1.0
 10
279.4048419452957
 20
286.3810059673461
 30
0.0
 10
279.5500710360204
 20
286.5469625207193
 30
0.0
 10
279.6977487878776
 20
286.7065141265434
 30
0.0
 10
279.9976737272457
 20
287.0140139826032
 30
0.0
 10
280.1499243576327
 20
287.1619541096164
 30
0.0
 10
280.3043368819075
 20
287.3045593231548
 30
0.0
  0
SPLINE
  5
1B2
330
1F
100
AcDbEntity
  8
1
100
AcDbSpline
210
0.0
220
0.0
230
1.0
 70
     8
 71
     3
 72
    46
 73
    42
 74
     0
 42
0.000000001
 43
0.0000000001
 40
0.0
 40
0.0
 40
0.0
 40
0.0
 40
0.1250000000000029
 40
0.1250000000000029
 40
0.1875000000000047
 40
0.1875000000000047
 40
0.2500000000000065
 40
0.2500000000000065
 40
0.2812500000000074
 40
0.2812500000000074
 40
0.2968750000000077
 40
0.2968750000000077
 40
0.312500000000008
 40
0.3750000000000092
 40
0.3750000000000092
 40
0.4375000000000103
 40
0.4375000000000103
 40
0.5000000000000116
 40
0.5000000000000116
 40
0.5625000000000128
 40
0.5625000000000128
 40
0.5703125000000126
 40
0.5703125000000126
 40
0.5781250000000125
 40
0.5781250000000125
 40
0.5937500000000121
 40
0.6250000000000112
 40
0.6250000000000112
 40
0.6875000000000094
 40
0.6875000000000094
 40
0.7500000000000073
 40
0.7500000000000073
 40
0.8125000000000055
 40
0.8125000000000055
 40
0.8281250000000051
 40
0.8281250000000051
 40
0.8437500000000046
 40
0.8750000000000037
 40
0.9375000000000019
 40
0.9375000000000019
 40
1.0
 40
1.0
 40
1.0
 40
1.0
 10
279.4048419452957
 20
274.5594882950364
 30
0.0
 10
279.1007471703084
 20
274.9538224004799
 30
0.0
 10
278.8263195385667
 20
275.3663545156261
 30
0.0
 10
278.4622840641526
 20
276.0154614928986
 30
0.0
 10
278.3488785510695
 20
276.2368873563441
 30
0.0
 10
278.1388169523355
 20
276.6905467588705
 30
0.0
 10
278.0421279378738
 20
276.9227668994117
 30
0.0
 10
277.9104176000706
 20
277.2798041643718
 30
0.0
 10
277.8687445034286
 20
277.4002721190913
 30
0.0
 10
277.8097204551376
 20
277.5832553820007
 30
0.0
 10
277.7906422163331
 20
277.6445881520716
 30
0.0
 10
277.7538325463728
 20
277.7674602872012
 30
0.0
 10
277.6650682666345
 20
278.0754861857305
 30
0.0
 10
277.5926034967337
 20
278.3877500999293
 30
0.0
 10
277.4975759361005
 20
278.8928679118116
 30
0.0
 10
277.4604966151333
 20
279.1481722396871
 30
0.0
 10
277.4077816622819
 20
279.6644050733556
 30
0.0
 10
277.3920351028298
 20
279.9253228587732
 30
0.0
 10
277.3829089187027
 20
280.4529652761956
 30
0.0
 10
277.3894432603696
 20
280.7196815265182
 30
0.0
 10
277.4099968831724
 20
281.0231272926743
 30
0.0
 10
277.4124641086429
 20
281.0568905978771
 30
0.0
 10
277.4177682452647
 20
281.1245119335376
 30
0.0
 10
277.4206059449789
 20
281.1583754738641
 30
0.0
 10
277.4296507199943
 20
281.2598262691576
 30
0.0
 10
277.4498869447376
 20
281.4624476194562
 30
0.0
 10
277.4765032107675
 20
281.6642312271286
 30
0.0
 10
277.538157722853
 20
282.0666731139459
 30
0.0
 10
277.5904856081063
 20
282.333467896154
 30
0.0
 10
277.7172150872746
 20
282.8640065584744
 30
0.0
 10
277.791634763194
 20
283.127746305513
 30
0.0
 10
277.9626343478108
 20
283.6520244787822
 30
0.0
 10
278.0591883309161
 20
283.9125693029673
 30
0.0
 10
278.1939233728045
 20
284.236126634441
 30
0.0
 10
278.2215967641903
 20
284.3007794445307
 30
0.0
 10
278.2782688964817
 20
284.4296432978728
 30
0.0
 10
278.3651444990141
 20
284.6220104269573
 30
0.0
 10
278.5808172692966
 20
285.0644017991098
 30
0.0
 10
278.7875458998998
 20
285.4326251732037
 30
0.0
 10
279.0820772540101
 20
285.9140053676754
 30
0.0
 10
279.238748547561
 20
286.1499265464646
 30
0.0
 10
279.4048419452957
 20
286.3810059673461
 30
0.0
  0
SPLINE
  5
1B3
330
1F
100
AcDbEntity
  8
1
100
AcDbSpline
210
0.0
220
0.0
230
1.0
 70
     8
 71
     3
 72
    10
 73
     6
 74
     0
 42
0.000000001
 43
0.0000000001
 40
0.0
 40
0.0
 40
0.0
 40
0.0
 40
0.5
 40
0.5
 40
1.0
 40
1.0
 40
1.0
 40
1.0
 10
280.3043368819075
 20
274.1545682964752
 30
0.0
 10
280.1505252674062
 20
274.2094713855971
 30
0.0
 10
279.9985281524401
 20
274.2702592616571
 30
0.0
 10
279.6985523493262
 20
274.4047886801849
 30
0.0
 10
279.5505709014758
 20
274.4785236155358
 30
0.0
 10
279.4048419452957
 20
274.5594882950364
 30
0.0
  0
SPLINE
  5
1B4
330
1F
100
AcDbEntity
  8
1
100
AcDbSpline
210
0.0
220
0.0
230
1.0
 70
     8
 71
     3
 72
    30
 73
    26
 74
     0
 42
0.000000001
 43
0.0000000001
 40
0.0
 40
0.0
 40
0.0
 40
0.0
 40
0.1249999999999997
 40
0.1249999999999997
 40
0.2499999999999994
 40
0.2499999999999994
 40
0.3749999999999992
 40
0.3749999999999992
 40
0.499999999999999
 40
0.499999999999999
 40
0.6249999999999987
 40
0.6249999999999987
 40
0.7499999999999984
 40
0.7499999999999984
 40
0.7656249999999984
 40
0.7656249999999984
 40
0.7812499999999984
 40
0.7812499999999984
 40
0.8124999999999987
 40
0.8124999999999987
 40
0.8749999999999991
 40
0.8749999999999991
 40
0.9374999999999996
 40
0.9374999999999996
 40
1.0
 40
1.0
 40
1.0
 40
1.0
 10
280.3043368819075
 20
274.1545682964752
 30
0.0
 10
280.6226195247492
 20
274.0409572381521
 30
0.0
 10
280.9537327749108
 20
273.928658762257
 30
0.0
 10
281.6401867103321
 20
273.7061243313628
 30
0.0
 10
281.9955278298248
 20
273.5958807424842
 30
0.0
 10
282.7294498083554
 20
273.3762344776059
 30
0.0
 10
283.1080292010956
 20
273.2668310426709
 30
0.0
 10
283.8878968537559
 20
273.0471321517709
 30
0.0
 10
284.2891869665767
 20
272.9368497604806
 30
0.0
 10
285.1145501908164
 20
272.7131628392456
 30
0.0
 10
285.5386164059404
 20
272.5997672544464
 30
0.0
 10
286.4102928655018
 20
272.3668194930526
 30
0.0
 10
286.8578876718487
 20
272.2472813044346
 30
0.0
 10
287.3756611205756
 20
272.1069891631711
 30
0.0
 10
287.4333899443954
 20
272.0913194779043
 30
0.0
 10
287.549249551464
 20
272.0598068882522
 30
0.0
 10
287.6073968692828
 20
272.0439594537616
 30
0.0
 10
287.7822477529364
 20
271.9961971467105
 30
0.0
 10
287.899402539043
 20
271.9640509765727
 30
0.0
 10
288.2526545590856
 20
271.8665856844876
 30
0.0
 10
288.4905371063183
 20
271.8002429373794
 30
0.0
 10
288.9712494747497
 20
271.6641542479356
 30
0.0
 10
289.2140785931618
 20
271.5944091149747
 30
0.0
 10
289.7049513279037
 20
271.4507349491497
 30
0.0
 10
289.9529939003305
 20
271.3768070317665
 30
0.0
 10
290.2038318185191
 20
271.3003273547748
 30
0.0
  0
SPLINE
  5
1B5
330
1F
100
AcDbEntity
  8
1
100
AcDbSpline
210
0.0
220
0.0
230
1.0
 70
     8
 71
     3
 72
    22
 73
    18
 74
     0
 42
0.000000001
 43
0.0000000001
 40
0.0
 40
0.0
 40
0.0
 40
0.0
 40
0.125
 40
0.125
 40
0.25
 40
0.25
 40
0.375
 40
0.375
 40
0.5
 40
0.5
 40
0.625
 40
0.625
 40
0.75
 40
0.75
 40
0.875
 40
0.875
 40
1.0
 40
1.0
 40
1.0
 40
1.0
 10
304.9162664628187
 20
269.0555170801857
 30
0.0
 10
304.2595158019112
 20
269.0828874895745
 30
0.0
 10
303.6116678419347
 20
269.1161658783619
 30
0.0
 10
302.3306701537147
 20
269.1969560179772
 30
0.0
 10
301.6975170014674
 20
269.2444730314589
 30
0.0
 10
300.4428424027628
 20
269.3555774042384
 30
0.0
 10
299.8213079901876
 20
269.4191594137386
 30
0.0
 10
298.5871253072356
 20
269.5636259055725
 30
0.0
 10
297.9744674038453
 20
269.6444980181354
 30
0.0
 10
296.755995462292
 20
269.8244564469422
 30
0.0
 10
296.1501741363082
 20
269.9235246632772
 30
0.0
 10
294.9443112052763
 20
270.140941272621
 30
0.0
 10
294.3442695200898
 20
270.259271868509
 30
0.0
 10
293.150000180191
 20
270.516992338182
 30
0.0
 10
292.5557779471741
 20
270.6563672214248
 30
0.0
 10
291.3741905653674
 20
270.9591662173489
 30
0.0
 10
290.7868293809311
 20
271.1225732672659
 30
0.0
 10
290.2038318185191
 20
271.3003273547748
 30
0.0
  0
SPLINE
  5
1B6
330
1F
100
AcDbEntity
  8
1
100
AcDbSpline
210
0.0
220
0.0
230
1.0
 70
     8
 71
     3
 72
    12
 73
     8
 74
     0
 42
0.000000001
 43
0.0000000001
 40
0.0
 40
0.0
 40
0.0
 40
0.0
 40
0.1015127062141854
 40
0.1015127062141854
 40
0.2812101570305683
 40
0.2812101570305683
 40
1.0
 40
1.0
 40
1.0
 40
1.0
 10
304.9162675666922
 20
269.0555222214522
 30
0.0
 10
304.9342398883471
 20
269.1387278129474
 30
0.0
 10
304.9526790640793
 20
269.2231221975233
 30
0.0
 10
305.0050643576284
 20
269.4602346625242
 30
0.0
 10
305.0401099887633
 20
269.6159154260334
 30
0.0
 10
305.2210921497748
 20
270.4057738036888
 30
0.0
 10
305.3847878536282
 20
271.0772381267079
 30
0.0
 10
305.5669019339818
 20
271.7872511797451
 30
0.0
  0
SPLINE
  5
1B7
330
1F
100
AcDbEntity
  8
1
100
AcDbSpline
210
0.0
220
0.0
230
1.0
 70
     8
 71
     3
 72
     8
 73
     4
 74
     0
 42
0.000000001
 43
0.0000000001
 40
0.0
 40
0.0
 40
0.0
 40
0.0
 40
1.0
 40
1.0
 40
1.0
 40
1.0
 10
305.5669019339818
 20
271.7872511797451
 30
0.0
 10
305.654757566078
 20
272.1297762906536
 30
0.0
 10
305.7469312310919
 20
272.4813388259599
 30
0.0
 10
305.8435563394034
 20
272.8422180068386
 30
0.0
  0
SPLINE
  5
1B8
330
1F
100
AcDbEntity
  8
1
100
AcDbSpline
210
0.0
220
0.0
230
1.0
 70
     8
 71
     3
 72
    10
 73
     6
 74
     0
 42
0.000000001
 43
0.0000000001
 40
0.0
 40
0.0
 40
0.0
 40
0.0
 40
0.1429309296319671
 40
0.1429309296319671
 40
1.0
 40
1.0
 40
1.0
 40
1.0
 10
305.8435563394036
 20
272.8422180068389
 30
0.0
 10
305.8470773020915
 20
272.8553682340722
 30
0.0
 10
305.8506041755446
 20
272.8685308322377
 30
0.0
 10
305.8753209438636
 20
272.9607081002513
 30
0.0
 10
305.896731328577
 20
273.0402030971655
 30
0.0
 10
305.9183222650386
 20
273.1200216411789
 30
0.0
  0
SPLINE
  5
1B9
330
1F
100
AcDbEntity
  8
1
100
AcDbSpline
210
0.0
220
0.0
230
1.0
 70
     8
 71
     3
 72
    10
 73
     6
 74
     0
 42
0.000000001
 43
0.0000000001
 40
0.0
 40
0.0
 40
0.0
 40
0.0
 40
0.7126968672813604
 40
0.7126968672813604
 40
1.0
 40
1.0
 40
1.0
 40
1.0
 10
414.7937828051547
 20
303.4523899343729
 30
0.0
 10
414.7974166901787
 20
303.4836251433116
 30
0.0
 10
414.803507347301
 20
303.5143207056364
 30
0.0
 10
414.8154460936007
 20
303.5566370796806
 30
0.0
 10
414.8192708872323
 20
303.5687070899808
 30
0.0
 10
414.8234968313324
 20
303.5806877613727
 30
0.0
  0
SPLINE
  5
1BA
330
1F
100
AcDbEntity
  8
1
100
AcDbSpline
210
0.0
220
0.0
230
1.0
 70
     8
 71
     3
 72
    10
 73
     6
 74
     0
 42
0.000000001
 43
0.0000000001
 40
0.0
 40
0.0
 40
0.0
 40
0.0
 40
0.6805073224774706
 40
0.6805073224774706
 40
1.0
 40
1.0
 40
1.0
 40
1.0
 10
416.1220273074258
 20
304.1342132992438
 30
0.0
 10
416.1214855371468
 20
304.1317814452303
 30
0.0
 10
416.1208422325211
 20
304.1293624572517
 30
0.0
 10
416.1197473115329
 20
304.1258284202696
 30
0.0
 10
416.1193769974478
 20
304.124708172562
 30
0.0
 10
416.1189860469236
 20
304.1235968269857
 30
0.0
  0
SPLINE
  5
1BB
330
1F
100
AcDbEntity
  8
1
100
AcDbSpline
210
0.0
220
0.0
230
1.0
 70
     8
 71
     3
 72
    27
 73
    23
 74
     0
 42
0.000000001
 43
0.0000000001
 40
0.0
 40
0.0
 40
0.0
 40
0.0
 40
0.1249999999998281
 40
0.1249999999998281
 40
0.1874999999997941
 40
0.1874999999997941
 40
0.24999999999976
 40
0.24999999999976
 40
0.3749999999998003
 40
0.3749999999998003
 40
0.4374999999998201
 40
0.4374999999998201
 40
0.4999999999998401
 40
0.4999999999998401
 40
0.6249999999998798
 40
0.6249999999998798
 40
0.6874999999999011
 40
0.6874999999999011
 40
0.7499999999999223
 40
0.7499999999999223
 40
0.874999999999961
 40
1.0
 40
1.0
 40
1.0
 40
1.0
 10
416.1739569407986
 20
301.0508264823159
 30
0.0
 10
416.1447409650818
 20
301.0381050345586
 30
0.0
 10
416.1148030179995
 20
301.027812952011
 30
0.0
 10
416.0688341656548
 20
301.0159627928899
 30
0.0
 10
416.0533333986005
 20
301.0126134764615
 30
0.0
 10
416.0219696217031
 20
301.0071406470707
 30
0.0
 10
416.0060605478952
 20
301.0050172439942
 30
0.0
 10
415.9585449226906
 20
301.0006042335663
 30
0.0
 10
415.92693354112
 20
301.0002075811246
 30
0.0
 10
415.8796140987245
 20
301.0033697923733
 30
0.0
 10
415.8638572938031
 20
301.0050529803225
 30
0.0
 10
415.8323770908526
 20
301.0097032406808
 30
0.0
 10
415.8165818392856
 20
301.01268939808
 30
0.0
 10
415.7699527752367
 20
301.0234729850522
 30
0.0
 10
415.7398001616799
 20
301.0330659807286
 30
0.0
 10
415.6959293628772
 20
301.0509525262447
 30
0.0
 10
415.681533214698
 20
301.0575003647858
 30
0.0
 10
415.6532018252193
 20
301.0717825498745
 30
0.0
 10
415.6392163279603
 20
301.0795481151469
 30
0.0
 10
415.5983322667855
 20
301.1044597615767
 30
0.0
 10
415.5472043461744
 20
301.1415837837601
 30
0.0
 10
415.5025556559087
 20
301.1861779379636
 30
0.0
 10
415.4819022447628
 20
301.2103969520193
 30
0.0
  0
SPLINE
  5
1BC
330
1F
100
AcDbEntity
  8
1
100
AcDbSpline
210
0.0
220
0.0
230
1.0
 70
     8
 71
     3
 72
    16
 73
    12
 74
     0
 42
0.000000001
 43
0.0000000001
 40
0.0
 40
0.0
 40
0.0
 40
0.0
 40
0.3597118104602789
 40
0.3597118104602789
 40
0.5395677156904473
 40
0.5395677156904473
 40
0.7194236209206154
 40
0.7194236209206154
 40
0.8992795261507835
 40
0.8992795261507835
 40
1.0
 40
1.0
 40
1.0
 40
1.0
 10
415.4819022447628
 20
301.2103969520193
 30
0.0
 10
415.4754353916627
 20
301.2179802420155
 30
0.0
 10
415.4702491676904
 20
301.2265163546429
 30
0.0
 10
415.4646351100763
 20
301.2399259856543
 30
0.0
 10
415.4631059953482
 20
301.2445223154027
 30
0.0
 10
415.4607373695659
 20
301.2539690943815
 30
0.0
 10
415.4599150977341
 20
301.2587737398126
 30
0.0
 10
415.4589944936433
 20
301.2683173850378
 30
0.0
 10
415.4588874418788
 20
301.2730900221902
 30
0.0
 10
415.4592632877898
 20
301.2805360859149
 30
0.0
 10
415.4595104655937
 20
301.2832206681721
 30
0.0
 10
415.4598658316535
 20
301.2858878316643
 30
0.0
  0
SPLINE
  5
1BD
330
1F
100
AcDbEntity
  8
1
100
AcDbSpline
210
0.0
220
0.0
230
1.0
 70
     8
 71
     3
 72
    10
 73
     6
 74
     0
 42
0.000000001
 43
0.0000000001
 40
0.0
 40
0.0
 40
0.0
 40
0.0
 40
0.1238045677596038
 40
0.1238045677596038
 40
1.0
 40
1.0
 40
1.0
 40
1.0
 10
416.2017848145524
 20
301.0693073911781
 30
0.0
 10
416.2007832347603
 20
301.068353761795
 30
0.0
 10
416.1997597644024
 20
301.0674201623142
 30
0.0
 10
416.1913270496448
 20
301.0600571154979
 30
0.0
 10
416.183091559389
 20
301.0548039491069
 30
0.0
 10
416.1739569407986
 20
301.0508264823159
 30
0.0
  0
SPLINE
  5
1BE
330
1F
100
AcDbEntity
  8
1
100
AcDbSpline
210
0.0
220
0.0
230
1.0
 70
     8
 71
     3
 72
    10
 73
     6
 74
     0
 42
0.000000001
 43
0.0000000001
 40
0.0
 40
0.0
 40
0.0
 40
0.0
 40
0.6428245118273554
 40
0.6428245118273554
 40
1.0
 40
1.0
 40
1.0
 40
1.0
 10
415.4802054103273
 20
301.3824462339097
 30
0.0
 10
415.4822208219234
 20
301.3714794438108
 30
0.0
 10
415.4823229993972
 20
301.3604960640561
 30
0.0
 10
415.4796804172542
 20
301.3436290330537
 30
0.0
 10
415.4782071375377
 20
301.3377864954188
 30
0.0
 10
415.4762082662653
 20
301.3321242524399
 30
0.0
  0
SPLINE
  5
1BF
330
1F
100
AcDbEntity
  8
1
100
AcDbSpline
210
0.0
220
0.0
230
1.0
 70
     8
 71
     3
 72
     8
 73
     4
 74
     0
 42
0.000000001
 43
0.0000000001
 40
0.0
 40
0.0
 40
0.0
 40
0.0
 40
1.0
 40
1.0
 40
1.0
 40
1.0
 10
416.2376816572568
 20
301.1789066521107
 30
0.0
 10
416.2409098417849
 20
301.1880825012704
 30
0.0
 10
416.2454402214963
 20
301.1966700667153
 30
0.0
 10
416.2513435568062
 20
301.204641102401
 30
0.0
  0
SPLINE
  5
1C0
330
1F
100
AcDbEntity
  8
1
100
AcDbSpline
210
0.0
220
0.0
230
1.0
 70
     8
 71
     3
 72
    20
 73
    16
 74
     0
 42
0.000000001
 43
0.0000000001
 40
0.0
 40
0.0
 40
0.0
 40
0.0
 40
0.1249999999999982
 40
0.1249999999999982
 40
0.2499999999999967
 40
0.2499999999999967
 40
0.374999999999995
 40
0.374999999999995
 40
0.4999999999999933
 40
0.4999999999999933
 40
0.6249999999999917
 40
0.6249999999999917
 40
0.7499999999999901
 40
0.7499999999999901
 40
1.0
 40
1.0
 40
1.0
 40
1.0
 10
414.8983304609893
 20
301.8513531257989
 30
0.0
 10
414.8943148879471
 20
301.8487792497112
 30
0.0
 10
414.8901418430789
 20
301.8465154114958
 30
0.0
 10
414.8814830018013
 20
301.8426038167282
 30
0.0
 10
414.8769895329113
 20
301.840958942006
 30
0.0
 10
414.8678997687039
 20
301.8383670114404
 30
0.0
 10
414.8632780605481
 20
301.8374066953425
 30
0.0
 10
414.8538790671976
 20
301.8361685931821
 30
0.0
 10
414.8490636467075
 20
301.8358933355934
 30
0.0
 10
414.8395044612723
 20
301.8360711322265
 30
0.0
 10
414.8347562151329
 20
301.8365166723589
 30
0.0
 10
414.8253238505042
 20
301.8381279922235
 30
0.0
 10
414.8206090041937
 20
301.8393042878468
 30
0.0
 10
414.8067866434517
 20
301.8439246337487
 30
0.0
 10
414.7981721148402
 20
301.848352173623
 30
0.0
 10
414.7901984760206
 20
301.8542117589812
 30
0.0
  0
SPLINE
  5
1C1
330
1F
100
AcDbEntity
  8
1
100
AcDbSpline
210
0.0
220
0.0
230
1.0
 70
     8
 71
     3
 72
    10
 73
     6
 74
     0
 42
0.000000001
 43
0.0000000001
 40
0.0
 40
0.0
 40
0.0
 40
0.0
 40
0.5
 40
0.5
 40
1.0
 40
1.0
 40
1.0
 40
1.0
 10
414.8983304609893
 20
301.8513531257989
 30
0.0
 10
414.9075091597256
 20
301.8572364288654
 30
0.0
 10
414.9174345407311
 20
301.8614890843369
 30
0.0
 10
414.9386481125683
 20
301.8666102734687
 30
0.0
 10
414.9494422568952
 20
301.8673717343607
 30
0.0
 10
414.9604404457922
 20
301.8662261342508
 30
0.0
  0
SPLINE
  5
1C2
330
1F
100
AcDbEntity
  8
1
100
AcDbSpline
210
0.0
220
0.0
230
1.0
 70
     8
 71
     3
 72
    24
 73
    20
 74
     0
 42
0.000000001
 43
0.0000000001
 40
0.0
 40
0.0
 40
0.0
 40
0.0
 40
0.1250000000001329
 40
0.1250000000001329
 40
0.2500000000002656
 40
0.2500000000002656
 40
0.3125000000002826
 40
0.3125000000002826
 40
0.3750000000002995
 40
0.3750000000002995
 40
0.5000000000002397
 40
0.5000000000002397
 40
0.6250000000001796
 40
0.6250000000001796
 40
0.7500000000001199
 40
0.7500000000001199
 40
0.87500000000006
 40
0.87500000000006
 40
1.0
 40
1.0
 40
1.0
 40
1.0
 10
414.9604404457922
 20
301.8662261342508
 30
0.0
 10
414.9915888191554
 20
301.8629816382451
 30
0.0
 10
415.0222205285551
 20
301.8573285895072
 30
0.0
 10
415.082498270068
 20
301.8412055110136
 30
0.0
 10
415.1121447273255
 20
301.8307378371635
 30
0.0
 10
415.1558519478479
 20
301.8111234849931
 30
0.0
 10
415.1701998185001
 20
301.8039654734169
 30
0.0
 10
415.1981083504129
 20
301.7885885551288
 30
0.0
 10
415.2117231385044
 20
301.7803458816765
 30
0.0
 10
415.2515515979965
 20
301.7539540864589
 30
0.0
 10
415.276793752545
 20
301.7341180380597
 30
0.0
 10
415.3242788663811
 20
301.6899077848348
 30
0.0
 10
415.3458311309111
 20
301.6661881818355
 30
0.0
 10
415.3848063956559
 20
301.6157008275944
 30
0.0
 10
415.4022341505459
 20
301.5889222188099
 30
0.0
 10
415.4328642117451
 20
301.5322912498452
 30
0.0
 10
415.4456237710575
 20
301.5032672949343
 30
0.0
 10
415.4664415841183
 20
301.4438752990681
 30
0.0
 10
415.4744973224193
 20
301.4135065900555
 30
0.0
 10
415.4802054103273
 20
301.3824462339097
 30
0.0
  0
SPLINE
  5
1C3
330
1F
100
AcDbEntity
  8
1
100
AcDbSpline
210
0.0
220
0.0
230
1.0
 70
     8
 71
     3
 72
    18
 73
    14
 74
     0
 42
0.000000001
 43
0.0000000001
 40
0.0
 40
0.0
 40
0.0
 40
0.0
 40
0.2499999999999971
 40
0.2499999999999971
 40
0.3749999999999929
 40
0.3749999999999929
 40
0.4999999999999887
 40
0.4999999999999887
 40
0.6249999999999845
 40
0.6249999999999845
 40
0.7499999999999803
 40
0.7499999999999803
 40
1.0
 40
1.0
 40
1.0
 40
1.0
 10
417.0774496692081
 20
301.3268289533775
 30
0.0
 10
417.067721123533
 20
301.3250456505968
 30
0.0
 10
417.0578300849787
 20
301.3248518069254
 30
0.0
 10
417.0435763125563
 20
301.3267424068908
 30
0.0
 10
417.0388909775899
 20
301.3277328703058
 30
0.0
 10
417.0296538952016
 20
301.3304394110142
 30
0.0
 10
417.0251498492318
 20
301.3321473545701
 30
0.0
 10
417.016564933225
 20
301.3361575479144
 30
0.0
 10
417.012451025052
 20
301.3384691878892
 30
0.0
 10
417.0045757026043
 20
301.3436960853699
 30
0.0
 10
417.0007882384622
 20
301.346638420544
 30
0.0
 10
416.9902631966734
 20
301.3561420016348
 30
0.0
 10
416.9842826303361
 20
301.3633787915951
 30
0.0
 10
416.9793470789256
 20
301.3715228449167
 30
0.0
  0
SPLINE
  5
1C4
330
1F
100
AcDbEntity
  8
1
100
AcDbSpline
210
0.0
220
0.0
230
1.0
 70
     8
 71
     3
 72
    10
 73
     6
 74
     0
 42
0.000000001
 43
0.0000000001
 40
0.0
 40
0.0
 40
0.0
 40
0.0
 40
0.5
 40
0.5
 40
1.0
 40
1.0
 40
1.0
 40
1.0
 10
416.9302524874216
 20
301.4120368418283
 30
0.0
 10
416.9406072683436
 20
301.4082589684246
 30
0.0
 10
416.9500027413163
 20
301.4028142693778
 30
0.0
 10
416.9667238226556
 20
301.3889453459011
 30
0.0
 10
416.9737117896579
 20
301.3808215214903
 30
0.0
 10
416.9793470789256
 20
301.3715228449167
 30
0.0
  0
SPLINE
  5
1C5
330
1F
100
AcDbEntity
  8
1
100
AcDbSpline
210
0.0
220
0.0
230
1.0
 70
     8
 71
     3
 72
    24
 73
    20
 74
     0
 42
0.000000001
 43
0.0000000001
 40
0.0
 40
0.0
 40
0.0
 40
0.0
 40
0.1249999999999971
 40
0.1249999999999971
 40
0.2499999999999942
 40
0.2499999999999942
 40
0.3124999999999947
 40
0.3124999999999947
 40
0.3749999999999951
 40
0.3749999999999951
 40
0.4999999999999961
 40
0.4999999999999961
 40
0.6249999999999972
 40
0.6249999999999972
 40
0.7499999999999979
 40
0.7499999999999979
 40
0.8749999999999989
 40
0.8749999999999989
 40
1.0
 40
1.0
 40
1.0
 40
1.0
 10
416.2513435568062
 20
301.204641102401
 30
0.0
 10
416.2701592155135
 20
301.2300471278313
 30
0.0
 10
416.2907653185333
 20
301.2537926430833
 30
0.0
 10
416.3355713716196
 20
301.2980019812563
 30
0.0
 10
416.3597695487927
 20
301.3184673619274
 30
0.0
 10
416.3989965732292
 20
301.3465311847106
 30
0.0
 10
416.4124842514876
 20
301.3553810841241
 30
0.0
 10
416.4399532042956
 20
301.3718626279557
 30
0.0
 10
416.4539825034746
 20
301.3795292084647
 30
0.0
 10
416.4969556337478
 20
301.400807698522
 30
0.0
 10
416.5268275733737
 20
301.4127253406204
 30
0.0
 10
416.5888619543916
 20
301.4316660358308
 30
0.0
 10
416.6201133135887
 20
301.4384198081525
 30
0.0
 10
416.6830647212021
 20
301.4468041672421
 30
0.0
 10
416.7147770163008
 20
301.4484333985296
 30
0.0
 10
416.7786294635988
 20
301.4464739212191
 30
0.0
 10
416.8098396052521
 20
301.4429185767175
 30
0.0
 10
416.8709884301584
 20
301.4310510162345
 30
0.0
 10
416.9009263759035
 20
301.4227362798533
 30
0.0
 10
416.9302524874217
 20
301.4120368418282
 30
0.0
  0
SPLINE
  5
1C6
330
1F
100
AcDbEntity
  8
1
100
AcDbSpline
210
0.0
220
0.0
230
1.0
 70
     8
 71
     3
 72
    27
 73
    23
 74
     0
 42
0.000000001
 43
0.0000000001
 40
0.0
 40
0.0
 40
0.0
 40
0.0
 40
0.1378026508803873
 40
0.1378026508803873
 40
0.2067039763205836
 40
0.2067039763205836
 40
0.2756053017607797
 40
0.2756053017607797
 40
0.4134079526412355
 40
0.4134079526412355
 40
0.4823092780814634
 40
0.4823092780814634
 40
0.5512106035216914
 40
0.5512106035216914
 40
0.6890132544021191
 40
0.6890132544021191
 40
0.7579145798423328
 40
0.7579145798423328
 40
0.8268159052825467
 40
0.8268159052825467
 40
0.9646185561629771
 40
1.0
 40
1.0
 40
1.0
 40
1.0
 10
414.7901984760206
 20
301.8542117589812
 30
0.0
 10
414.7646962899311
 20
301.8729525421534
 30
0.0
 10
414.7409187913274
 20
301.8935540794945
 30
0.0
 10
414.7078036068997
 20
301.9271987678294
 30
0.0
 10
414.6971923251054
 20
301.9388728449547
 30
0.0
 10
414.6768418067538
 20
301.9631571709481
 30
0.0
 10
414.667079628393
 20
301.9758072924339
 30
0.0
 10
414.6395798482338
 20
302.0145704502368
 30
0.0
 10
414.6234659857145
 20
302.0416501664491
 30
0.0
 10
414.6025721605624
 20
302.0840951112546
 30
0.0
 10
414.5961562515178
 20
302.0985490839357
 30
0.0
 10
414.5844442872186
 20
302.1280806789416
 30
0.0
 10
414.5791287682096
 20
302.1432300280345
 30
0.0
 10
414.5651279422339
 20
302.1889529337458
 30
0.0
 10
414.5583255045815
 20
302.2198509265388
 30
0.0
 10
414.5518042050858
 20
302.2668032356476
 30
0.0
 10
414.5502471261773
 20
302.2825553808597
 30
0.0
 10
414.5483822790744
 20
302.3142650865858
 30
0.0
 10
414.5480762542237
 20
302.3302818144043
 30
0.0
 10
414.5490804623953
 20
302.3782284444079
 30
0.0
 10
414.5530924828614
 20
302.4178136581713
 30
0.0
 10
414.5609133055633
 20
302.4566925168729
 30
0.0
 10
414.5626712721139
 20
302.46460571523
 30
0.0
  0
SPLINE
  5
1C7
330
1F
100
AcDbEntity
  8
1
100
AcDbSpline
210
0.0
220
0.0
230
1.0
 70
     8
 71
     3
 72
    25
 73
    21
 74
     0
 42
0.000000001
 43
0.0000000001
 40
0.0
 40
0.0
 40
0.0
 40
0.0
 40
0.0146845592493631
 40
0.0146845592493631
 40
0.0904780546916933
 40
0.0904780546916933
 40
0.2420650455764092
 40
0.2420650455764092
 40
0.3178585410187705
 40
0.3178585410187705
 40
0.3936520364611319
 40
0.3936520364611319
 40
0.5452390273458548
 40
0.5452390273458548
 40
0.6210325227882136
 40
0.6210325227882136
 40
0.6968260182305725
 40
0.6968260182305725
 40
0.8484130091152861
 40
1.0
 40
1.0
 40
1.0
 40
1.0
 10
417.5310288253543
 20
301.7157427119146
 30
0.0
 10
417.530003110268
 20
301.7128347892877
 30
0.0
 10
417.528954408405
 20
301.7099325312865
 30
0.0
 10
417.5223507135806
 20
301.6920854848338
 30
0.0
 10
417.5161807499704
 20
301.6772465054262
 30
0.0
 10
417.496103600519
 20
301.6338969013933
 30
0.0
 10
417.4805756908618
 20
301.6063345166738
 30
0.0
 10
417.454119647381
 20
301.5669652723234
 30
0.0
 10
417.4447711506423
 20
301.5541727777653
 30
0.0
 10
417.4249928763662
 20
301.5292624574437
 30
0.0
 10
417.4145106851083
 20
301.5170919886783
 30
0.0
 10
417.3818821247112
 20
301.4821527271077
 30
0.0
 10
417.3585421466483
 20
301.4608770166861
 30
0.0
 10
417.3212232593331
 20
301.43189797704
 30
0.0
 10
417.3083969613397
 20
301.422729752454
 30
0.0
 10
417.2819612235215
 20
301.4053890643638
 30
0.0
 10
417.2683000346035
 20
301.3971888891815
 30
0.0
 10
417.226472683656
 20
301.374328132874
 30
0.0
 10
417.1690606852178
 20
301.3487427572615
 30
0.0
 10
417.1085207043549
 20
301.3325244668928
 30
0.0
 10
417.0774496692081
 20
301.3268289533775
 30
0.0
  0
SPLINE
  5
1C8
330
1F
100
AcDbEntity
  8
1
100
AcDbSpline
210
0.0
220
0.0
230
1.0
 70
     8
 71
     3
 72
    18
 73
    14
 74
     0
 42
0.000000001
 43
0.0000000001
 40
0.0
 40
0.0
 40
0.0
 40
0.0
 40
0.2127208427213307
 40
0.2127208427213307
 40
0.4254416854426615
 40
0.4254416854426615
 40
0.5318021068033127
 40
0.5318021068033127
 40
0.638162528163964
 40
0.638162528163964
 40
0.8508833708852776
 40
0.8508833708852776
 40
1.0
 40
1.0
 40
1.0
 40
1.0
 10
414.8875875281039
 20
303.3132812847527
 30
0.0
 10
414.9000732084013
 20
303.2850637390227
 30
0.0
 10
414.9102383406225
 20
303.2560599827572
 30
0.0
 10
414.9259585399319
 20
303.196430627489
 30
0.0
 10
414.9315158250408
 20
303.165805880932
 30
0.0
 10
414.9361317800531
 20
303.1185116570938
 30
0.0
 10
414.9370319223535
 20
303.1026179906423
 30
0.0
 10
414.9375404496785
 20
303.0709557288226
 30
0.0
 10
414.9371549747273
 20
303.0551290322045
 30
0.0
 10
414.9340805692292
 20
303.0076583408037
 30
0.0
 10
414.9294755322838
 20
302.9759731132068
 30
0.0
 10
414.9171008592916
 20
302.9222637535976
 30
0.0
 10
414.9107978675206
 20
302.9006371439263
 30
0.0
 10
414.9033389148766
 20
302.8794977251705
 30
0.0
  0
SPLINE
  5
1C9
330
1F
100
AcDbEntity
  8
1
100
AcDbSpline
210
0.0
220
0.0
230
1.0
 70
     8
 71
     3
 72
    10
 73
     6
 74
     0
 42
0.000000001
 43
0.0000000001
 40
0.0
 40
0.0
 40
0.0
 40
0.0
 40
0.5
 40
0.5
 40
1.0
 40
1.0
 40
1.0
 40
1.0
 10
414.8443321988963
 20
303.3587235151492
 30
0.0
 10
414.8538951953157
 20
303.3538762734957
 30
0.0
 10
414.8624221178823
 20
303.3475649059312
 30
0.0
 10
414.8772302126714
 20
303.3320663817581
 30
0.0
 10
414.8831788067984
 20
303.3232449625091
 30
0.0
 10
414.8875875281039
 20
303.3132812847527
 30
0.0
  0
SPLINE
  5
1CA
330
1F
100
AcDbEntity
  8
1
100
AcDbSpline
210
0.0
220
0.0
230
1.0
 70
     8
 71
     3
 72
    20
 73
    16
 74
     0
 42
0.000000001
 43
0.0000000001
 40
0.0
 40
0.0
 40
0.0
 40
0.0
 40
0.1249999999999999
 40
0.1249999999999999
 40
0.2499999999999998
 40
0.2499999999999998
 40
0.3749999999999998
 40
0.3749999999999998
 40
0.4999999999999998
 40
0.4999999999999998
 40
0.6249999999999997
 40
0.6249999999999997
 40
0.7499999999999997
 40
0.7499999999999997
 40
1.0
 40
1.0
 40
1.0
 40
1.0
 10
414.8443321988963
 20
303.3587235151492
 30
0.0
 10
414.8401484430361
 20
303.3608441554575
 30
0.0
 10
414.8361543144763
 20
303.3632562223248
 30
0.0
 10
414.8285429261762
 20
303.368659233746
 30
0.0
 10
414.8249239510195
 20
303.3716585265062
 30
0.0
 10
414.8182363337315
 20
303.3780983463956
 30
0.0
 10
414.8151438311213
 20
303.3815537783618
 30
0.0
 10
414.8094701308581
 20
303.3889428262017
 30
0.0
 10
414.8068723558911
 20
303.3929102654645
 30
0.0
 10
414.8023383408411
 20
303.401153850267
 30
0.0
 10
414.8003938127886
 20
303.4054293975792
 30
0.0
 10
414.7971563757718
 20
303.414290100415
 30
0.0
 10
414.7958575116533
 20
303.4189063933584
 30
0.0
 10
414.7930580711457
 20
303.4330358189576
 30
0.0
 10
414.7926467006559
 20
303.4426245011916
 30
0.0
 10
414.7937828051547
 20
303.4523899343729
 30
0.0
  0
SPLINE
  5
1CB
330
1F
100
AcDbEntity
  8
1
100
AcDbSpline
210
0.0
220
0.0
230
1.0
 70
     8
 71
     3
 72
    14
 73
    10
 74
     0
 42
0.000000001
 43
0.0000000001
 40
0.0
 40
0.0
 40
0.0
 40
0.0
 40
0.0906340314211508
 40
0.0906340314211508
 40
0.3937560209474341
 40
0.3937560209474341
 40
0.696878010473717
 40
0.696878010473717
 40
1.0
 40
1.0
 40
1.0
 40
1.0
 10
417.4556069155181
 20
302.4294645623281
 30
0.0
 10
417.4587685560676
 20
302.4384249413002
 30
0.0
 10
417.4621363929762
 20
302.4472850221933
 30
0.0
 10
417.4776481471441
 20
302.4853497063252
 30
0.0
 10
417.4918632954416
 20
302.5135620025182
 30
0.0
 10
417.5249049518002
 20
302.5677195606612
 30
0.0
 10
417.5432466098688
 20
302.5928790551899
 30
0.0
 10
417.5833294018205
 20
302.6396995104321
 30
0.0
 10
417.6050722905321
 20
302.6613585603996
 30
0.0
 10
417.6285377162122
 20
302.6812868608214
 30
0.0
  0
SPLINE
  5
1CC
330
1F
100
AcDbEntity
  8
1
100
AcDbSpline
210
0.0
220
0.0
230
1.0
 70
     8
 71
     3
 72
    10
 73
     6
 74
     0
 42
0.000000001
 43
0.0000000001
 40
0.0
 40
0.0
 40
0.0
 40
0.0
 40
0.5
 40
0.5
 40
1.0
 40
1.0
 40
1.0
 40
1.0
 10
417.6285377162122
 20
302.6812868608214
 30
0.0
 10
417.6368235233481
 20
302.6883236841073
 30
0.0
 10
417.6460546730009
 20
302.6936911351975
 30
0.0
 10
417.666046602029
 20
302.7011416332835
 30
0.0
 10
417.6763818030208
 20
302.7030819550005
 30
0.0
 10
417.6870537646949
 20
302.7032631619591
 30
0.0
  0
SPLINE
  5
1CD
330
1F
100
AcDbEntity
  8
1
100
AcDbSpline
210
0.0
220
0.0
230
1.0
 70
     8
 71
     3
 72
    16
 73
    12
 74
     0
 42
0.000000001
 43
0.0000000001
 40
0.0
 40
0.0
 40
0.0
 40
0.0
 40
0.0485886740200295
 40
0.0485886740200295
 40
0.2388709392162122
 40
0.2388709392162122
 40
0.429153204412395
 40
0.429153204412395
 40
0.6194354696085778
 40
0.6194354696085778
 40
1.0
 40
1.0
 40
1.0
 40
1.0
 10
417.7526124315662
 20
302.7318819232692
 30
0.0
 10
417.7517774247164
 20
302.731006694649
 30
0.0
 10
417.7509244393257
 20
302.730147114069
 30
0.0
 10
417.7466424915881
 20
302.7259983461956
 30
0.0
 10
417.7429842542755
 20
302.7229698502964
 30
0.0
 10
417.7353698077777
 20
302.7175786396665
 30
0.0
 10
417.7313890511921
 20
302.7151917078136
 30
0.0
 10
417.7230865297941
 20
302.7110262758275
 30
0.0
 10
417.7187287828645
 20
302.7092387931755
 30
0.0
 10
417.705487273345
 20
302.7049393597883
 30
0.0
 10
417.6964003985238
 20
302.7034218652173
 30
0.0
 10
417.6870537646951
 20
302.7032631619591
 30
0.0
  0
SPLINE
  5
1CE
330
1F
100
AcDbEntity
  8
1
100
AcDbSpline
210
0.0
220
0.0
230
1.0
 70
     8
 71
     3
 72
    36
 73
    32
 74
     0
 42
0.000000001
 43
0.0000000001
 40
0.0
 40
0.0
 40
0.0
 40
0.0
 40
0.1250000000000159
 40
0.1250000000000159
 40
0.187500000000028
 40
0.187500000000028
 40
0.2187500000000341
 40
0.2187500000000341
 40
0.2500000000000401
 40
0.2500000000000401
 40
0.3750000000000303
 40
0.3750000000000303
 40
0.4062500000000445
 40
0.4062500000000445
 40
0.4375000000000587
 40
0.4375000000000587
 40
0.500000000000042
 40
0.500000000000042
 40
0.6250000000000028
 40
0.6250000000000028
 40
0.656250000000023
 40
0.656250000000023
 40
0.6875000000000431
 40
0.7500000000000873
 40
0.8125000000001314
 40
0.8125000000001314
 40
0.8437500000001204
 40
0.8437500000001204
 40
0.8750000000001096
 40
0.8750000000001096
 40
1.0
 40
1.0
 40
1.0
 40
1.0
 10
422.4663996638915
 20
308.5508252727526
 30
0.0
 10
422.4645684673086
 20
308.6019434272855
 30
0.0
 10
422.4576076432086
 20
308.6520023935407
 30
0.0
 10
422.4399119256659
 20
308.7255929053781
 30
0.0
 10
422.4327944710341
 20
308.7498713957961
 30
0.0
 10
422.4202602091801
 20
308.7859054668296
 30
0.0
 10
422.4157592739736
 20
308.7978830775526
 30
0.0
 10
422.4061890782325
 20
308.8215515289839
 30
0.0
 10
422.4011297952503
 20
308.8332228619565
 30
0.0
 10
422.3744927403858
 20
308.890783055711
 30
0.0
 10
422.3489324354195
 20
308.9343059027627
 30
0.0
 10
422.3117410135136
 20
308.9855957713727
 30
0.0
 10
422.3040382370792
 20
308.995696610975
 30
0.0
 10
422.2880955816179
 20
309.0155791987671
 30
0.0
 10
422.2798356363819
 20
309.0253819450723
 30
0.0
 10
422.2544894274428
 20
309.0540191677553
 30
0.0
 10
422.2367858436347
 20
309.0721589932485
 30
0.0
 10
422.1813255266665
 20
309.1238046850561
 30
0.0
 10
422.1412423676964
 20
309.1545640843606
 30
0.0
 10
422.0871270889751
 20
309.1882777491941
 30
0.0
 10
422.0760810978443
 20
309.1947912079755
 30
0.0
 10
422.0538155538349
 20
309.2071988919097
 30
0.0
 10
422.020081676401
 20
309.2249310601982
 30
0.0
 10
421.9622108946891
 20
309.2501669073696
 30
0.0
 10
421.9141715613072
 20
309.2657887205429
 30
0.0
 10
421.8774742995535
 20
309.2757551732086
 30
0.0
 10
421.8651303797558
 20
309.2787851341259
 30
0.0
 10
421.8402145145833
 20
309.2842475020825
 30
0.0
 10
421.8276242290186
 20
309.2866816066737
 30
0.0
 10
421.7646756732563
 20
309.2972273467917
 30
0.0
 10
421.7139180668598
 20
309.3006193617481
 30
0.0
 10
421.662751235697
 20
309.2988344365658
 30
0.0
  0
SPLINE
  5
1CF
330
1F
100
AcDbEntity
  8
1
100
AcDbSpline
210
0.0
220
0.0
230
1.0
 70
     8
 71
     3
 72
    36
 73
    32
 74
     0
 42
0.000000001
 43
0.0000000001
 40
0.0
 40
0.0
 40
0.0
 40
0.0
 40
0.124999999999978
 40
0.124999999999978
 40
0.1874999999999336
 40
0.1874999999999336
 40
0.2187499999999113
 40
0.2187499999999113
 40
0.2499999999998891
 40
0.2499999999998891
 40
0.3749999999999791
 40
0.3749999999999791
 40
0.4062500000000154
 40
0.4062500000000154
 40
0.4375000000000517
 40
0.4375000000000517
 40
0.5000000000000792
 40
0.5000000000000792
 40
0.6250000000000808
 40
0.6250000000000808
 40
0.6562500000000831
 40
0.6562500000000831
 40
0.6875000000000853
 40
0.7500000000000595
 40
0.8125000000000335
 40
0.8125000000000335
 40
0.8437500000000246
 40
0.8437500000000246
 40
0.8750000000000158
 40
0.8750000000000158
 40
1.0
 40
1.0
 40
1.0
 40
1.0
 10
410.5245720366188
 20
308.9102855253668
 30
0.0
 10
410.4734006157579
 20
308.9085004400755
 30
0.0
 10
410.4232939500245
 20
308.9015903066433
 30
0.0
 10
410.3496397617846
 20
308.8839771014009
 30
0.0
 10
410.3253413686721
 20
308.8768882390025
 30
0.0
 10
410.2892794600497
 20
308.8643985242638
 30
0.0
 10
410.2772928851778
 20
308.8599127547418
 30
0.0
 10
410.2536073039959
 20
308.8503732514059
 30
0.0
 10
410.2419278177353
 20
308.8453294676095
 30
0.0
 10
410.1843288700155
 20
308.81877065669
 30
0.0
 10
410.1407814005838
 20
308.7932753185584
 30
0.0
 10
410.0894686214799
 20
308.7561680294615
 30
0.0
 10
410.0793635968157
 20
308.7484822271634
 30
0.0
 10
410.0594734451601
 20
308.7325738196544
 30
0.0
 10
410.049667314854
 20
308.7243311878623
 30
0.0
 10
410.0210212566087
 20
308.6990368599639
 30
0.0
 10
410.0028772580584
 20
308.6813679049854
 30
0.0
 10
409.9512240525323
 20
308.6260115953767
 30
0.0
 10
409.9204662687222
 20
308.5859979346159
 30
0.0
 10
409.8867631688884
 20
308.5319697350135
 30
0.0
 10
409.8802522616555
 20
308.520941200465
 30
0.0
 10
409.867850495136
 20
308.4987102206941
 30
0.0
 10
409.8501284363071
 20
308.4650277895395
 30
0.0
 10
409.8249154940921
 20
308.4072407871867
 30
0.0
 10
409.8093184101119
 20
308.3592663995212
 30
0.0
 10
409.7993729586627
 20
308.3226170509054
 30
0.0
 10
409.7963504079602
 20
308.3102889692172
 30
0.0
 10
409.7909036985286
 20
308.285404508396
 30
0.0
 10
409.7884778562663
 20
308.2728298101835
 30
0.0
 10
409.7779751686451
 20
308.2099577848051
 30
0.0
 10
409.7746233527367
 20
308.1592574728941
 30
0.0
 10
409.7764543850748
 20
308.1081439032819
 30
0.0
  0
SPLINE
  5
1D0
330
1F
100
AcDbEntity
  8
1
100
AcDbSpline
210
0.0
220
0.0
230
1.0
 70
     8
 71
     3
 72
    36
 73
    32
 74
     0
 42
0.000000001
 43
0.0000000001
 40
0.0
 40
0.0
 40
0.0
 40
0.0
 40
0.1249999999998436
 40
0.1249999999998436
 40
0.1874999999997632
 40
0.1874999999997632
 40
0.2187499999997231
 40
0.2187499999997231
 40
0.2499999999996829
 40
0.2499999999996829
 40
0.3749999999995816
 40
0.3749999999995816
 40
0.4062499999995773
 40
0.4062499999995773
 40
0.4374999999995728
 40
0.4374999999995728
 40
0.4999999999996108
 40
0.4999999999996108
 40
0.6249999999996866
 40
0.6249999999996866
 40
0.656249999999735
 40
0.656249999999735
 40
0.6874999999997833
 40
0.7499999999998792
 40
0.8124999999999747
 40
0.8124999999999747
 40
0.84374999999999
 40
0.84374999999999
 40
0.8750000000000051
 40
0.8750000000000051
 40
1.0
 40
1.0
 40
1.0
 40
1.0
 10
410.1750400672031
 20
296.9815588693864
 30
0.0
 10
410.1768712637861
 20
296.9304407148535
 30
0.0
 10
410.1838320878859
 20
296.8803817485983
 30
0.0
 10
410.2015278054286
 20
296.8067912367609
 30
0.0
 10
410.2086452600604
 20
296.7825127463429
 30
0.0
 10
410.2211795219146
 20
296.7464786753093
 30
0.0
 10
410.2256804571211
 20
296.7345010645865
 30
0.0
 10
410.2352506528622
 20
296.7108326131551
 30
0.0
 10
410.2403099358443
 20
296.6991612801825
 30
0.0
 10
410.2669469907088
 20
296.6416010864281
 30
0.0
 10
410.2925072956751
 20
296.5980782393763
 30
0.0
 10
410.329698717581
 20
296.5467883707664
 30
0.0
 10
410.3374014940156
 20
296.5366875311641
 30
0.0
 10
410.3533441494768
 20
296.516804943372
 30
0.0
 10
410.3616040947127
 20
296.5070021970666
 30
0.0
 10
410.3869503036518
 20
296.4783649743837
 30
0.0
 10
410.4046538874601
 20
296.4602251488905
 30
0.0
 10
410.4601142044281
 20
296.408579457083
 30
0.0
 10
410.5001973633982
 20
296.3778200577785
 30
0.0
 10
410.5543126421196
 20
296.3441063929449
 30
0.0
 10
410.5653586332503
 20
296.3375929341637
 30
0.0
 10
410.5876241772596
 20
296.3251852502294
 30
0.0
 10
410.6213580546937
 20
296.3074530819408
 30
0.0
 10
410.6792288364054
 20
296.2822172347695
 30
0.0
 10
410.7272681697875
 20
296.2665954215962
 30
0.0
 10
410.7639654315413
 20
296.2566289689304
 30
0.0
 10
410.7763093513388
 20
296.2535990080132
 30
0.0
 10
410.8012252165115
 20
296.2481366400566
 30
0.0
 10
410.813815502076
 20
296.2457025354654
 30
0.0
 10
410.8767640578382
 20
296.2351567953474
 30
0.0
 10
410.9275216642348
 20
296.231764780391
 30
0.0
 10
410.9786884953976
 20
296.2335497055733
 30
0.0
  0
SPLINE
  5
1D1
330
1F
100
AcDbEntity
  8
1
100
AcDbSpline
210
0.0
220
0.0
230
1.0
 70
     8
 71
     3
 72
    36
 73
    32
 74
     0
 42
0.000000001
 43
0.0000000001
 40
0.0
 40
0.0
 40
0.0
 40
0.0
 40
0.1250000000000384
 40
0.1250000000000384
 40
0.1875000000000242
 40
0.1875000000000242
 40
0.2187500000000174
 40
0.2187500000000174
 40
0.2500000000000107
 40
0.2500000000000107
 40
0.3749999999999863
 40
0.3749999999999863
 40
0.4062499999999936
 40
0.4062499999999936
 40
0.4375000000000007
 40
0.4375000000000007
 40
0.4999999999999641
 40
0.4999999999999641
 40
0.6249999999999409
 40
0.6249999999999409
 40
0.656249999999934
 40
0.656249999999934
 40
0.6874999999999274
 40
0.7499999999999404
 40
0.8124999999999534
 40
0.8124999999999534
 40
0.8437499999999602
 40
0.8437499999999602
 40
0.8749999999999666
 40
0.8749999999999666
 40
1.0
 40
1.0
 40
1.0
 40
1.0
 10
422.1168676944757
 20
296.6220986167722
 30
0.0
 10
422.1680391153366
 20
296.6238837020636
 30
0.0
 10
422.2181457810701
 20
296.6307938354958
 30
0.0
 10
422.2917999693101
 20
296.6484070407382
 30
0.0
 10
422.3160983624224
 20
296.6554959031364
 30
0.0
 10
422.352160271045
 20
296.6679856178751
 30
0.0
 10
422.3641468459168
 20
296.6724713873973
 30
0.0
 10
422.3878324270988
 20
296.6820108907331
 30
0.0
 10
422.3995119133594
 20
296.6870546745296
 30
0.0
 10
422.4571108610793
 20
296.7136134854491
 30
0.0
 10
422.5006583305107
 20
296.7391088235807
 30
0.0
 10
422.5519711096147
 20
296.7762161126775
 30
0.0
 10
422.562076134279
 20
296.7839019149756
 30
0.0
 10
422.5819662859345
 20
296.7998103224847
 30
0.0
 10
422.5917724162405
 20
296.8080529542768
 30
0.0
 10
422.620418474486
 20
296.8333472821752
 30
0.0
 10
422.6385624730362
 20
296.8510162371536
 30
0.0
 10
422.6902156785623
 20
296.9063725467623
 30
0.0
 10
422.7209734623723
 20
296.9463862075231
 30
0.0
 10
422.7546765622063
 20
297.0004144071253
 30
0.0
 10
422.7611874694391
 20
297.011442941674
 30
0.0
 10
422.7735892359586
 20
297.0336739214449
 30
0.0
 10
422.7913112947873
 20
297.0673563525996
 30
0.0
 10
422.8165242370026
 20
297.1251433549523
 30
0.0
 10
422.8321213209826
 20
297.1731177426179
 30
0.0
 10
422.8420667724318
 20
297.2097670912337
 30
0.0
 10
422.8450893231345
 20
297.2220951729219
 30
0.0
 10
422.850536032566
 20
297.246979633743
 30
0.0
 10
422.8529618748283
 20
297.2595543319555
 30
0.0
 10
422.8634645624494
 20
297.3224263573338
 30
0.0
 10
422.866816378358
 20
297.3731266692449
 30
0.0
 10
422.8649853460199
 20
297.4242402388572
 30
0.0
  0
SPLINE
  5
1D2
330
1F
100
AcDbEntity
  8
1
100
AcDbSpline
210
0.0
220
0.0
230
1.0
 70
     8
 71
     3
 72
    44
 73
    40
 74
     0
 42
0.000000001
 43
0.0000000001
 40
0.0
 40
0.0
 40
0.0
 40
0.0
 40
0.0059060800493524
 40
0.0059060800493524
 40
0.0351441365184893
 40
0.0351441365184893
 40
0.064382192987626
 40
0.064382192987626
 40
0.1813344188641729
 40
0.1813344188641729
 40
0.2398105318024468
 40
0.2398105318024468
 40
0.2982866447407207
 40
0.2982866447407207
 40
0.3567627576789948
 40
0.3567627576789948
 40
0.4152388706172687
 40
0.4152388706172687
 40
0.4444769270864053
 40
0.4444769270864053
 40
0.473714983555542
 40
0.473714983555542
 40
0.532191096493815
 40
0.532191096493815
 40
0.5906672094320881
 40
0.5906672094320881
 40
0.6491433223703613
 40
0.6491433223703613
 40
0.7076194353086344
 40
0.7076194353086344
 40
0.7660955482469074
 40
0.7660955482469074
 40
0.8245716611851806
 40
0.8245716611851806
 40
0.8830477741234536
 40
0.8830477741234536
 40
0.9415238870617271
 40
0.9415238870617271
 40
1.0
 40
1.0
 40
1.0
 40
1.0
 10
355.2908387099968
 20
273.9399513128821
 30
0.0
 10
355.2028175416165
 20
273.9202563413145
 30
0.0
 10
355.1147898461061
 20
273.900617472626
 30
0.0
 10
354.5909411568597
 20
273.7840915864327
 30
0.0
 10
354.1549367431551
 20
273.6885230433088
 30
0.0
 10
353.2826739298585
 20
273.5002246615583
 30
0.0
 10
352.8465166156571
 20
273.4075164748414
 30
0.0
 10
350.6654964860662
 20
272.9512914059299
 30
0.0
 10
348.9199461171591
 20
272.6097570437677
 30
0.0
 10
346.2983656786944
 20
272.1343696576125
 30
0.0
 10
345.4239603592936
 20
271.9820527611994
 30
0.0
 10
343.6736711372822
 20
271.6898979317452
 30
0.0
 10
342.7977775262846
 20
271.5500553187564
 30
0.0
 10
341.0452171808306
 20
271.2813521192377
 30
0.0
 10
340.1685519989626
 20
271.1524905027641
 30
0.0
 10
338.4151162660675
 20
270.9047110752497
 30
0.0
 10
337.5383468967408
 20
270.7857931866035
 30
0.0
 10
336.2235394163583
 20
270.6144459101049
 30
0.0
 10
335.7853271271101
 20
270.5585053936813
 30
0.0
 10
334.9090749816729
 20
270.4489466310823
 30
0.0
 10
334.4709989652804
 20
270.3953244485329
 30
0.0
 10
333.1579499368221
 20
270.2380399952347
 30
0.0
 10
332.2839021175477
 20
270.1379144728804
 30
0.0
 10
330.538830380706
 20
269.9473914085947
 30
0.0
 10
329.6678070837058
 20
269.8569963008852
 30
0.0
 10
327.9290117201878
 20
269.6865648949995
 30
0.0
 10
327.0612398894698
 20
269.6065315523124
 30
0.0
 10
325.3289997487741
 20
269.4577338766057
 30
0.0
 10
324.4645313033355
 20
269.3889728019299
 30
0.0
 10
322.7387737669186
 20
269.2638151216626
 30
0.0
 10
321.8774842155343
 20
269.2074218262584
 30
0.0
 10
320.1577929913419
 20
269.1081809028481
 30
0.0
 10
319.2993906033264
 20
269.0653363941357
 30
0.0
 10
317.5850328461
 20
268.9943626164104
 30
0.0
 10
316.7290765889075
 20
268.9662360757744
 30
0.0
 10
315.0190452237586
 20
268.9257677362153
 30
0.0
 10
314.164969137174
 20
268.913428138196
 30
0.0
 10
312.4580355495737
 20
268.9054287069276
 30
0.0
 10
311.6051770523303
 20
268.9097704793327
 30
0.0
 10
310.7525631675204
 20
268.9227837557034
 30
0.0
  0
SPLINE
  5
1D3
330
1F
100
AcDbEntity
  8
1
100
AcDbSpline
210
0.0
220
0.0
230
1.0
 70
     8
 71
     3
 72
    12
 73
     8
 74
     0
 42
0.000000001
 43
0.0000000001
 40
0.0
 40
0.0
 40
0.0
 40
0.0
 40
0.2499999999999756
 40
0.2499999999999756
 40
0.4999999999999513
 40
0.4999999999999513
 40
1.0
 40
1.0
 40
1.0
 40
1.0
 10
413.0418609761099
 20
295.7552038016038
 30
0.0
 10
412.9822442975433
 20
295.7216872220267
 30
0.0
 10
412.9218136206101
 20
295.6908103960905
 30
0.0
 10
412.7992645765421
 20
295.6341226640824
 30
0.0
 10
412.7371469172167
 20
295.6083127271284
 30
0.0
 10
412.5481385943296
 20
295.5383987282057
 30
0.0
 10
412.418617130273
 20
295.5017395166262
 30
0.0
 10
412.2849927695243
 20
295.4756496635083
 30
0.0
  0
SPLINE
  5
1D4
330
1F
100
AcDbEntity
  8
1
100
AcDbSpline
210
0.0
220
0.0
230
1.0
 70
     8
 71
     3
 72
    26
 73
    22
 74
     0
 42
0.000000001
 43
0.0000000001
 40
0.0
 40
0.0
 40
0.0
 40
0.0
 40
0.1249999999999967
 40
0.2499999999999934
 40
0.3749999999999901
 40
0.3749999999999901
 40
0.4062499999999892
 40
0.4062499999999892
 40
0.4374999999999886
 40
0.4374999999999886
 40
0.4999999999999867
 40
0.4999999999999867
 40
0.6249999999999833
 40
0.6249999999999833
 40
0.687499999999986
 40
0.687499999999986
 40
0.7499999999999889
 40
0.7499999999999889
 40
0.8749999999999944
 40
0.8749999999999944
 40
1.0
 40
1.0
 40
1.0
 40
1.0
 10
412.2852100575495
 20
295.2014068621316
 30
0.0
 10
411.9180241114618
 20
295.1885277255529
 30
0.0
 10
411.1856990959168
 20
295.1876933934889
 30
0.0
 10
410.0932462250225
 20
295.2598929576167
 30
0.0
 10
409.3689544158846
 20
295.3568040330473
 30
0.0
 10
408.9175387487649
 20
295.4327676114019
 30
0.0
 10
408.8273190219793
 20
295.4487308768379
 30
0.0
 10
408.6470070073572
 20
295.4822056863164
 30
0.0
 10
408.5568880738312
 20
295.4997235333402
 30
0.0
 10
408.2873399168404
 20
295.5544818078618
 30
0.0
 10
408.1085266136943
 20
295.5939599901977
 30
0.0
 10
407.5747257986401
 20
295.721246589338
 30
0.0
 10
407.2223742863803
 20
295.8178971336935
 30
0.0
 10
406.6991079199273
 20
295.9804812324377
 30
0.0
 10
406.5255633902621
 20
296.0376131419696
 30
0.0
 10
406.1802367663905
 20
296.1577677471336
 30
0.0
 10
406.0083365737287
 20
296.2208409504597
 30
0.0
 10
405.4971550282155
 20
296.4182055997871
 30
0.0
 10
405.1618652507707
 20
296.560796648376
 30
0.0
 10
404.5021894373094
 20
296.8677293757881
 30
0.0
 10
404.1778034262121
 20
297.0320715780284
 30
0.0
 10
403.8589011113463
 20
297.2072904259709
 30
0.0
  0
SPLINE
  5
1D5
330
1F
100
AcDbEntity
  8
1
100
AcDbSpline
210
0.0
220
0.0
230
1.0
 70
     8
 71
     3
 72
     8
 73
     4
 74
     0
 42
0.000000001
 43
0.0000000001
 40
0.0
 40
0.0
 40
0.0
 40
0.0
 40
1.0
 40
1.0
 40
1.0
 40
1.0
 10
412.2852100575495
 20
295.2014068621316
 30
0.0
 10
412.2887680193517
 20
295.2015316585092
 30
0.0
 10
412.2923265914736
 20
295.201656136877
 30
0.0
 10
412.2958857745379
 20
295.2017802969107
 30
0.0
  0
SPLINE
  5
1D6
330
1F
100
AcDbEntity
  8
1
100
AcDbSpline
210
0.0
220
0.0
230
1.0
 70
     8
 71
     3
 72
    28
 73
    24
 74
     0
 42
0.000000001
 43
0.0000000001
 40
0.0
 40
0.0
 40
0.0
 40
0.0
 40
0.1249999999999853
 40
0.1249999999999853
 40
0.2499999999999707
 40
0.2499999999999707
 40
0.2812499999999734
 40
0.2812499999999734
 40
0.3124999999999761
 40
0.3749999999999814
 40
0.3749999999999814
 40
0.4999999999999923
 40
0.4999999999999923
 40
0.5312499999999928
 40
0.5312499999999928
 40
0.5624999999999933
 40
0.5624999999999933
 40
0.6249999999999943
 40
0.6249999999999943
 40
0.7499999999999961
 40
0.874999999999998
 40
0.874999999999998
 40
1.0
 40
1.0
 40
1.0
 40
1.0
 10
403.8632109255528
 20
293.4031374919582
 30
0.0
 10
404.1804511224016
 20
293.2037032568758
 30
0.0
 10
404.5046383222548
 20
293.0163978023006
 30
0.0
 10
405.1667665214101
 20
292.6662293317632
 30
0.0
 10
405.5047069014007
 20
292.5033647347092
 30
0.0
 10
405.9357600519017
 20
292.3153556189549
 30
0.0
 10
406.022450232261
 20
292.2785138348399
 30
0.0
 10
406.196396426163
 20
292.2065225299827
 30
0.0
 10
406.4581834403182
 20
292.1010621887063
 30
0.0
 10
406.7225598322851
 20
292.0031599510469
 30
0.0
 10
407.2547417968563
 20
291.8174098297665
 30
0.0
 10
407.6140970702653
 20
291.7069690812168
 30
0.0
 10
408.0689956397403
 20
291.585774030863
 30
0.0
 10
408.1602609647293
 20
291.5623788432112
 30
0.0
 10
408.3433642973971
 20
291.5172831953727
 30
0.0
 10
408.4351707261618
 20
291.4955920220565
 30
0.0
 10
408.7106716105926
 20
291.4332376965181
 30
0.0
 10
408.8946966795021
 20
291.3952303267059
 30
0.0
 10
409.4478301638723
 20
291.2917654678016
 30
0.0
 10
410.1881602602573
 20
291.1819348958074
 30
0.0
 10
410.934047514578
 20
291.1277135466577
 30
0.0
 10
411.6827260824353
 20
291.1014658886285
 30
0.0
 10
412.0584608754481
 20
291.1023274723182
 30
0.0
 10
412.4356251341622
 20
291.1175140055778
 30
0.0
  0
SPLINE
  5
1D7
330
1F
100
AcDbEntity
  8
1
100
AcDbSpline
210
0.0
220
0.0
230
1.0
 70
     9
 71
     3
 72
   133
 73
   129
 74
     0
 42
0.000000001
 43
0.0000000001
 40
0.0
 40
0.0
 40
0.0
 40
0.0
 40
0.031250000000022
 40
0.031250000000022
 40
0.0468750000000337
 40
0.0468750000000337
 40
0.0546875000000396
 40
0.0546875000000396
 40
0.0625000000000455
 40
0.0625000000000455
 40
0.0937500000000617
 40
0.0937500000000617
 40
0.1093750000000697
 40
0.1093750000000697
 40
0.1171875000000736
 40
0.1171875000000736
 40
0.1250000000000776
 40
0.1250000000000776
 40
0.1562500000001122
 40
0.1562500000001122
 40
0.1640625000001209
 40
0.1640625000001209
 40
0.1718750000001295
 40
0.1718750000001295
 40
0.1875000000001388
 40
0.203125000000148
 40
0.203125000000148
 40
0.2109375000001483
 40
0.2109375000001483
 40
0.2187500000001485
 40
0.2187500000001485
 40
0.2500000000001586
 40
0.2500000000001586
 40
0.2656250000001636
 40
0.2656250000001636
 40
0.2734375000001661
 40
0.2734375000001661
 40
0.2812500000001686
 40
0.2812500000001686
 40
0.3125000000001874
 40
0.3125000000001874
 40
0.320312500000192
 40
0.320312500000192
 40
0.3281250000001967
 40
0.3281250000001967
 40
0.3437500000002061
 40
0.3593750000002153
 40
0.3593750000002153
 40
0.3671875000002199
 40
0.3671875000002199
 40
0.3750000000002247
 40
0.3750000000002247
 40
0.406250000000231
 40
0.406250000000231
 40
0.4218750000002342
 40
0.4218750000002342
 40
0.4296875000002341
 40
0.4296875000002341
 40
0.4375000000002338
 40
0.4375000000002338
 40
0.4687500000002272
 40
0.4687500000002272
 40
0.4765625000002259
 40
0.4765625000002259
 40
0.4843750000002247
 40
0.4843750000002247
 40
0.5000000000002223
 40
0.5000000000002223
 40
0.5312500000002166
 40
0.5312500000002166
 40
0.5390625000002143
 40
0.5390625000002143
 40
0.5468750000002122
 40
0.5468750000002122
 40
0.5625000000002078
 40
0.5781250000002033
 40
0.5781250000002033
 40
0.5859375000002011
 40
0.5859375000002011
 40
0.5937500000001988
 40
0.5937500000001988
 40
0.6250000000001747
 40
0.6250000000001747
 40
0.6406250000001627
 40
0.6406250000001627
 40
0.6484375000001567
 40
0.6484375000001567
 40
0.6562500000001506
 40
0.6562500000001506
 40
0.6875000000001338
 40
0.6875000000001338
 40
0.7031250000001213
 40
0.7031250000001213
 40
0.7187500000001088
 40
0.7187500000001088
 40
0.7500000000000836
 40
0.7500000000000836
 40
0.7578125000000795
 40
0.7578125000000795
 40
0.7656250000000755
 40
0.7656250000000755
 40
0.7812500000000675
 40
0.7968750000000595
 40
0.7968750000000595
 40
0.8125000000000515
 40
0.8125000000000515
 40
0.8437500000000351
 40
0.8437500000000351
 40
0.8515625000000344
 40
0.8515625000000344
 40
0.8593750000000341
 40
0.8593750000000341
 40
0.8750000000000326
 40
0.8750000000000326
 40
0.9062500000000245
 40
0.9062500000000245
 40
0.9140625000000223
 40
0.9140625000000223
 40
0.9218750000000198
 40
0.9218750000000198
 40
0.9375000000000154
 40
0.9531250000000108
 40
0.9531250000000108
 40
0.9609375000000097
 40
0.9609375000000097
 40
0.9687500000000085
 40
0.9687500000000085
 40
1.0
 40
1.0
 40
1.0
 40
1.0
 10
415.363358210799
 20
283.8293513132516
 30
0.0
 10
415.3650029178352
 20
283.9235765162522
 30
0.0
 10
415.3757251503176
 20
284.0163466629467
 30
0.0
 10
415.4050669163987
 20
284.1533575584934
 30
0.0
 10
415.4170726219731
 20
284.1986677333375
 30
0.0
 10
415.4385148967458
 20
284.2660723417538
 30
0.0
 10
415.4462356038632
 20
284.2884469225017
 30
0.0
 10
415.4628525698182
 20
284.3330030777468
 30
0.0
 10
415.4716966281322
 20
284.3550414403646
 30
0.0
 10
415.5184317075983
 20
284.4637399099825
 30
0.0
 10
415.5639182206114
 20
284.5462863050593
 30
0.0
 10
415.6442922464795
 20
284.6634309292433
 30
0.0
 10
415.6731211480455
 20
284.7013591274272
 30
0.0
 10
415.7195531998982
 20
284.7564900346251
 30
0.0
 10
415.7354938016587
 20
284.7744869557768
 30
0.0
 10
415.7681024467213
 20
284.8095176657953
 30
0.0
 10
415.7847987670755
 20
284.8265852726935
 30
0.0
 10
415.8702163222848
 20
284.9097087109905
 30
0.0
 10
415.9446895700573
 20
284.9691846296344
 30
0.0
 10
416.0456311664206
 20
285.0344974473861
 30
0.0
 10
416.0662155354828
 20
285.0471043436692
 30
0.0
 10
416.1081958020082
 20
285.0713832185133
 30
0.0
 10
416.1294432346002
 20
285.0829681208356
 30
0.0
 10
416.1937830204889
 20
285.1159998928371
 30
0.0
 10
416.281298460613
 20
285.1555369258323
 30
0.0
 10
416.3722075099928
 20
285.1862165294247
 30
0.0
 10
416.4416757681427
 20
285.2058639194141
 30
0.0
 10
416.4650466585332
 20
285.211851650286
 30
0.0
 10
416.5122253098888
 20
285.2226847171167
 30
0.0
 10
416.5360904104987
 20
285.2275398583106
 30
0.0
 10
416.6558483855023
 20
285.2487693392021
 30
0.0
 10
416.7518415908251
 20
285.2559397950675
 30
0.0
 10
416.896102082869
 20
285.2524687903641
 30
0.0
 10
416.9442343730088
 20
285.2489227688813
 30
0.0
 10
417.0165029541663
 20
285.2399184912098
 30
0.0
 10
417.0406521989195
 20
285.2362903195057
 30
0.0
 10
417.0884445190276
 20
285.2278763175199
 30
0.0
 10
417.1121445307523
 20
285.2230858726219
 30
0.0
 10
417.2296818046083
 20
285.1962710676334
 30
0.0
 10
417.3206591900506
 20
285.1657425621646
 30
0.0
 10
417.4305587103721
 20
285.1162465270201
 30
0.0
 10
417.4523457246115
 20
285.1057753299935
 30
0.0
 10
417.4955264684185
 20
285.0836677086771
 30
0.0
 10
417.516815944389
 20
285.0720821493261
 30
0.0
 10
417.5794485493444
 20
285.0359503478673
 30
0.0
 10
417.6599681197761
 20
284.9839647021066
 30
0.0
 10
417.7346590242498
 20
284.9245723382042
 30
0.0
 10
417.7884848818656
 20
284.8772498554598
 30
0.0
 10
417.8060607971413
 20
284.8610118379535
 30
0.0
 10
417.8404714488487
 20
284.8275978796326
 30
0.0
 10
417.8573462942597
 20
284.8103782453343
 30
0.0
 10
417.9393315539215
 20
284.7224343035708
 30
0.0
 10
417.9967935179687
 20
284.6468972442129
 30
0.0
 10
418.0713725307738
 20
284.5262499949623
 30
0.0
 10
418.0942822407987
 20
284.4848014093195
 30
0.0
 10
418.1256682388251
 20
284.4207526879876
 30
0.0
 10
418.1356510430103
 20
284.3990421846754
 30
0.0
 10
418.1544215914167
 20
284.3554256980182
 30
0.0
 10
418.1632317510404
 20
284.3334796619889
 30
0.0
 10
418.2044679189599
 20
284.2230778402548
 30
0.0
 10
418.2285270183821
 20
284.1326266781235
 30
0.0
 10
418.2476098976654
 20
284.0169729214002
 30
0.0
 10
418.2508721529107
 20
283.9937114710978
 30
0.0
 10
418.2562729188821
 20
283.9469240869188
 30
0.0
 10
418.2584091542583
 20
283.9233806955772
 30
0.0
 10
418.2630687328488
 20
283.8530850918823
 30
0.0
 10
418.2638802273693
 20
283.8064262180593
 30
0.0
 10
418.2596412379756
 20
283.6670467908618
 30
0.0
 10
418.2479790091447
 20
283.574919178755
 30
0.0
 10
418.2221092459351
 20
283.4607577883415
 30
0.0
 10
418.2163540270833
 20
283.437944193328
 30
0.0
 10
418.2038166242174
 20
283.3928784034885
 30
0.0
 10
418.1970239334011
 20
283.3705720409287
 30
0.0
 10
418.1750990415486
 20
283.3043202838853
 30
0.0
 10
418.1417477068426
 20
283.2177612871065
 30
0.0
 10
418.1002466229785
 20
283.1347002454569
 30
0.0
 10
418.0660083094646
 20
283.0737319168408
 30
0.0
 10
418.0540758650676
 20
283.0536307613463
 30
0.0
 10
418.0291504283909
 20
283.0138791349781
 30
0.0
 10
418.0161195776451
 20
282.9941761125594
 30
0.0
 10
417.9488004011575
 20
282.8976023711184
 30
0.0
 10
417.8881443823946
 20
282.8264762479361
 30
0.0
 10
417.7870657925351
 20
282.7287970875532
 30
0.0
 10
417.7516785032473
 20
282.6977497735446
 30
0.0
 10
417.6959546510101
 20
282.653525453313
 30
0.0
 10
417.6769132170328
 20
282.6391576899141
 30
0.0
 10
417.6380290270416
 20
282.6113065981231
 30
0.0
 10
417.6183056411024
 20
282.5979068417654
 30
0.0
 10
417.5183020569353
 20
282.5334948444768
 30
0.0
 10
417.4339023332798
 20
282.4901666310676
 30
0.0
 10
417.3005935095257
 20
282.43760172793
 30
0.0
 10
417.2549788472048
 20
282.4221511722255
 30
0.0
 10
417.1615888927441
 20
282.3956998854738
 30
0.0
 10
417.114584480679
 20
282.384912368832
 30
0.0
 10
416.9726688532036
 20
282.3596476891178
 30
0.0
 10
416.87686395706
 20
282.3521981860679
 30
0.0
 10
416.7555674602179
 20
282.3549854459321
 30
0.0
 10
416.7311591325685
 20
282.3561606697101
 30
0.0
 10
416.6826932544449
 20
282.3597203133546
 30
0.0
 10
416.6586054266943
 20
282.3621014622594
 30
0.0
 10
416.5867681168005
 20
282.3710116166166
 30
0.0
 10
416.4921193226107
 20
282.3875938767684
 30
0.0
 10
416.3996937852773
 20
282.413404928225
 30
0.0
 10
416.3083897946112
 20
282.4438812921762
 30
0.0
 10
416.2631169950166
 20
282.4615559356437
 30
0.0
 10
416.1318535920601
 20
282.5204748769626
 30
0.0
 10
416.0495425437463
 20
282.5677493453352
 30
0.0
 10
415.9529093921883
 20
282.6365391661121
 30
0.0
 10
415.9338984969303
 20
282.6507865737342
 30
0.0
 10
415.8965139003074
 20
282.6802712560145
 30
0.0
 10
415.8781172027422
 20
282.6955325319313
 30
0.0
 10
415.8244489337945
 20
282.7423257460251
 30
0.0
 10
415.790508573797
 20
282.7750026300203
 30
0.0
 10
415.6939896523995
 20
282.8773293686981
 30
0.0
 10
415.6366631120607
 20
282.9512347340948
 30
0.0
 10
415.5738682059948
 20
283.0508741675015
 30
0.0
 10
415.5618068353749
 20
283.0710922919235
 30
0.0
 10
415.5387938221111
 20
283.1118771535972
 30
0.0
 10
415.5278205041639
 20
283.1324780127472
 30
0.0
 10
415.496472289465
 20
283.1948971652792
 30
0.0
 10
415.4588585933141
 20
283.2797642202489
 30
0.0
 10
415.4295031551566
 20
283.3678914052016
 30
0.0
 10
415.4106317330435
 20
283.435234517112
 30
0.0
 10
415.4048663769589
 20
283.4578905250996
 30
0.0
 10
415.3944056672034
 20
283.5036277976463
 30
0.0
 10
415.3897254505052
 20
283.5266527195957
 30
0.0
 10
415.3691916159141
 20
283.6419003304589
 30
0.0
 10
415.3617135037627
 20
283.7351261102512
 30
0.0
 10
415.363358210799
 20
283.8293513132516
 30
0.0
  0
SPLINE
  5
1D8
330
1F
100
AcDbEntity
  8
1
100
AcDbSpline
210
0.0
220
0.0
230
1.0
 70
     8
 71
     3
 72
    25
 73
    21
 74
     0
 42
0.000000001
 43
0.0000000001
 40
0.0
 40
0.0
 40
0.0
 40
0.0
 40
0.124999999999971
 40
0.124999999999971
 40
0.2499999999999419
 40
0.2499999999999419
 40
0.3749999999999129
 40
0.3749999999999129
 40
0.4374999999999217
 40
0.4374999999999217
 40
0.4999999999999307
 40
0.4999999999999307
 40
0.6249999999999481
 40
0.7499999999999655
 40
0.7499999999999655
 40
0.8124999999999738
 40
0.8124999999999738
 40
0.8749999999999824
 40
0.8749999999999824
 40
1.0
 40
1.0
 40
1.0
 40
1.0
 10
412.2849927695228
 20
295.4756496635079
 30
0.0
 10
412.2121714661828
 20
295.4614314693303
 30
0.0
 10
412.1392189256122
 20
295.450575576614
 30
0.0
 10
411.9930591259089
 20
295.4354726767866
 30
0.0
 10
411.9198518500882
 20
295.4312265954908
 30
0.0
 10
411.773183464989
 20
295.4293560464881
 30
0.0
 10
411.6997223573326
 20
295.4317316524755
 30
0.0
 10
411.5893360471181
 20
295.4403527436659
 30
0.0
 10
411.5524352989557
 20
295.4440796564868
 30
0.0
 10
411.4789084111729
 20
295.4532036552663
 30
0.0
 10
411.4423989195117
 20
295.4585823318358
 30
0.0
 10
411.3335894211288
 20
295.4771091878661
 30
0.0
 10
411.190425021452
 20
295.5081752484334
 30
0.0
 10
411.0506759385104
 20
295.5516303709242
 30
0.0
 10
410.9470154853177
 20
295.588886474001
 30
0.0
 10
410.9126541682006
 20
295.6020841472549
 30
0.0
 10
410.8442967721925
 20
295.6300596982128
 30
0.0
 10
410.8102290057507
 20
295.6448722538935
 30
0.0
 10
410.7092645196278
 20
295.6913934496204
 30
0.0
 10
410.6435261787908
 20
295.7251977183448
 30
0.0
 10
410.5793223561653
 20
295.7617053357698
 30
0.0
  0
SPLINE
  5
1D9
330
1F
100
AcDbEntity
  8
1
100
AcDbSpline
210
0.0
220
0.0
230
1.0
 70
    12
 71
     2
 72
     6
 73
     3
 74
     0
 42
0.000000001
 43
0.0000000001
 40
0.0
 40
0.0
 40
0.0
 40
1.0
 40
1.0
 40
1.0
 10
409.5550463975047
 20
308.8401172696167
 30
0.0
 41
0.4999924756002092
 10
409.6672288727082
 20
308.8399560907646
 30
0.0
 41
0.5000075243997908
 10
409.7794106228977
 20
308.8397945298299
 30
0.0
 41
0.4999924756002092
  0
LINE
  5
1FB
330
1F
100
AcDbEntity
  8
4
100
AcDbLine
 10
267.203832
 20
288.907994
 30
0.0
 11
427.242478
 21
288.907994
 31
0.0
  0
LINE
  5
1FC
330
1F
100
AcDbEntity
  8
SK4
100
AcDbLine
 10
200.904842
 20
288.907994
 30
0.0
 11
277.404842
 21
288.907994
 31
0.0
  0
MTEXT
  5
1FD
330
1F
100
AcDbEntity
  8
SK6
100
AcDbMText
 10
298.851423
 20
241.131885
 30
0.0
 40
3.5
 41
0.0
 71
     7
 72
     5
  1
\W0.7240;803D-41-123-S40
  7
cesky
 73
     2
 44
0.8433729999999998
  0
MTEXT
  5
313
330
1F
100
AcDbEntity
  8
2
100
AcDbMText
 10
345.827842
 20
327.385163
 30
0.0
 40
3.5
 41
0.0
 71
     7
 72
     5
  1
\W0.7969;149
  7
cesky
 73
     2
 44
0.8433729999999998
  0
LINE
  5
314
330
1F
100
AcDbEntity
  8
2
100
AcDbLine
 10
423.4048419999999
 20
309.407994
 30
0.0
 11
423.4048419999999
 21
328.5109970000001
 31
0.0
  0
LINE
  5
315
330
1F
100
AcDbEntity
  8
2
100
AcDbLine
 10
274.404842
 20
289.907567
 30
0.0
 11
274.404842
 21
328.5109970000001
 31
0.0
  0
LINE
  5
316
330
1F
100
AcDbEntity
  8
2
100
AcDbLine
 10
423.4048419999999
 20
327.510997
 30
0.0
 11
274.404842
 21
327.510997
 31
0.0
  0
SOLID
  5
317
330
1F
100
AcDbEntity
  8
2
100
AcDbTrace
 10
423.4048419999999
 20
327.510997
 30
0.0
 11
419.904844
 21
326.893852
 31
0.0
 12
419.90484
 22
328.128141
 32
0.0
 13
419.90484
 23
328.128141
 33
0.0
  0
SOLID
  5
318
330
1F
100
AcDbEntity
  8
2
100
AcDbTrace
 10
274.404842
 20
327.510997
 30
0.0
 11
277.90484
 21
328.128141
 31
0.0
 12
277.904844
 22
326.893852
 32
0.0
 13
277.904844
 23
326.893852
 33
0.0
  0
MTEXT
  5
319
330
1F
100
AcDbEntity
  8
2
100
AcDbMText
 10
439.033532
 20
288.60711
 30
0.0
 40
3.5
 41
0.0
 71
     7
 72
     5
  1
\W0.9581;41
  7
cesky
 11
0.0000000000000001
 21
1.0
 31
0.0
 73
     2
 44
0.8433729999999998
  0
MTEXT
  5
31A
330
1F
100
AcDbEntity
  8
2
100
AcDbMText
 10
439.033532
 20
281.86961
 30
0.0
 40
3.5
 41
0.0
 71
     7
 72
     5
  1
\W3.0115;\H2.63;%%c\H3.50;
  7
cesky
 11
0.0000000000000001
 21
1.0
 31
0.0
 73
     2
 44
0.8433729999999998
  0
LINE
  5
31B
330
1F
100
AcDbEntity
  8
2
100
AcDbLine
 10
425.404842
 20
309.407994
 30
0.0
 11
440.220949
 21
309.407994
 31
0.0
  0
LINE
  5
31C
330
1F
100
AcDbEntity
  8
2
100
AcDbLine
 10
439.2209489999999
 20
309.407994
 30
0.0
 11
439.2209489999999
 21
281.71211
 31
0.0
  0
SOLID
  5
31D
330
1F
100
AcDbEntity
  8
2
100
AcDbTrace
 10
439.2209489999999
 20
309.407994
 30
0.0
 11
439.838093
 21
305.907996
 31
0.0
 12
438.603804
 22
305.907991
 32
0.0
 13
438.603804
 23
305.907991
 33
0.0
  0
MTEXT
  5
31E
330
1F
100
AcDbEntity
  8
2
100
AcDbMText
 10
310.827842
 20
340.562135
 30
0.0
 40
3.5
 41
0.0
 71
     7
 72
     5
  1
\W0.7969;219
  7
cesky
 73
     2
 44
0.8433729999999998
  0
LINE
  5
31F
330
1F
100
AcDbEntity
  8
2
100
AcDbLine
 10
423.4048419999999
 20
311.407994
 30
0.0
 11
423.4048419999999
 21
341.687968
 31
0.0
  0
LINE
  5
320
330
1F
100
AcDbEntity
  8
2
100
AcDbLine
 10
204.404842
 20
306.907994
 30
0.0
 11
204.404842
 21
341.687968
 31
0.0
  0
LINE
  5
321
330
1F
100
AcDbEntity
  8
2
100
AcDbLine
 10
423.4048419999999
 20
340.687968
 30
0.0
 11
204.404842
 21
340.687968
 31
0.0
  0
SOLID
  5
322
330
1F
100
AcDbEntity
  8
2
100
AcDbTrace
 10
423.4048419999999
 20
340.687968
 30
0.0
 11
419.904844
 21
340.070823
 31
0.0
 12
419.90484
 22
341.305112
 32
0.0
 13
419.90484
 23
341.305112
 33
0.0
  0
SOLID
  5
323
330
1F
100
AcDbEntity
  8
2
100
AcDbTrace
 10
204.404842
 20
340.687968
 30
0.0
 11
207.90484
 21
341.305112
 31
0.0
 12
207.904844
 22
340.070823
 32
0.0
 13
207.904844
 23
340.070823
 33
0.0
  0
MTEXT
  5
324
330
1F
100
AcDbEntity
  8
2
100
AcDbMText
 10
237.590342
 20
327.385163
 30
0.0
 40
3.5
 41
0.0
 71
     7
 72
     5
  1
\W0.7045;70
  7
cesky
 73
     2
 44
0.8433729999999998
  0
LINE
  5
325
330
1F
100
AcDbEntity
  8
2
100
AcDbLine
 10
274.404842
 20
288.907994
 30
0.0
 11
274.404842
 21
328.5109970000001
 31
0.0
  0
LINE
  5
326
330
1F
100
AcDbEntity
  8
2
100
AcDbLine
 10
204.404842
 20
306.907994
 30
0.0
 11
204.404842
 21
328.5109970000001
 31
0.0
  0
LINE
  5
327
330
1F
100
AcDbEntity
  8
2
100
AcDbLine
 10
274.404842
 20
327.510997
 30
0.0
 11
204.404842
 21
327.510997
 31
0.0
  0
SOLID
  5
328
330
1F
100
AcDbEntity
  8
2
100
AcDbTrace
 10
274.404842
 20
327.510997
 30
0.0
 11
270.904844
 21
326.893852
 31
0.0
 12
270.90484
 22
328.128141
 32
0.0
 13
270.90484
 23
328.128141
 33
0.0
  0
SOLID
  5
329
330
1F
100
AcDbEntity
  8
2
100
AcDbTrace
 10
204.404842
 20
327.510997
 30
0.0
 11
207.90484
 21
328.128141
 31
0.0
 12
207.904844
 22
326.893852
 32
0.0
 13
207.904844
 23
326.893852
 33
0.0
  0
MTEXT
  5
32A
330
1F
100
AcDbEntity
  8
2
100
AcDbMText
 10
353.82447
 20
316.722179
 30
0.0
 40
3.5
 41
0.0
 71
     7
 72
     5
  1
\W0.7809;133
  7
cesky
 73
     2
 44
0.8433729999999998
  0
LINE
  5
32B
330
1F
100
AcDbEntity
  8
2
100
AcDbLine
 10
423.4048419999999
 20
311.407994
 30
0.0
 11
423.4048419999999
 21
317.848012
 31
0.0
  0
LINE
  5
32C
330
1F
100
AcDbEntity
  8
2
100
AcDbLine
 10
290.398098
 20
309.670277
 30
0.0
 11
290.398098
 21
317.848012
 31
0.0
  0
LINE
  5
32D
330
1F
100
AcDbEntity
  8
2
100
AcDbLine
 10
423.4048419999999
 20
316.848012
 30
0.0
 11
290.398098
 21
316.848012
 31
0.0
  0
SOLID
  5
32E
330
1F
100
AcDbEntity
  8
2
100
AcDbTrace
 10
423.4048419999999
 20
316.848012
 30
0.0
 11
419.904844
 21
316.2308680000001
 31
0.0
 12
419.90484
 22
317.465157
 32
0.0
 13
419.90484
 23
317.465157
 33
0.0
  0
SOLID
  5
32F
330
1F
100
AcDbEntity
  8
2
100
AcDbTrace
 10
290.398098
 20
316.848012
 30
0.0
 11
293.898096
 21
317.465157
 31
0.0
 12
293.898101
 22
316.2308680000001
 32
0.0
 13
293.898101
 23
316.2308680000001
 33
0.0
  0
MTEXT
  5
330
330
1F
100
AcDbEntity
  8
SK2
100
AcDbMText
 10
193.809415
 20
290.434244
 30
0.0
 40
3.5
 41
0.0
 71
     7
 72
     5
  1
\W0.7045;40
  7
cesky
 11
0.0000000000000001
 21
1.0
 31
0.0
 73
     2
 44
0.8433729999999998
  0
MTEXT
  5
331
330
1F
100
AcDbEntity
  8
SK2
100
AcDbMText
 10
193.809415
 20
283.696744
 30
0.0
 40
3.5
 41
0.0
 71
     7
 72
     5
  1
\W3.0115;\H2.63;%%c\H3.50;
  7
cesky
 11
0.0000000000000001
 21
1.0
 31
0.0
 73
     2
 44
0.8433729999999998
  0
LINE
  5
332
330
1F
100
AcDbEntity
  8
SK2
100
AcDbLine
 10
206.404842
 20
308.907994
 30
0.0
 11
192.996832
 21
308.907994
 31
0.0
  0
LINE
  5
333
330
1F
100
AcDbEntity
  8
SK2
100
AcDbLine
 10
206.404842
 20
268.907994
 30
0.0
 11
192.996832
 21
268.907994
 31
0.0
  0
LINE
  5
334
330
1F
100
AcDbEntity
  8
SK2
100
AcDbLine
 10
193.996832
 20
308.907994
 30
0.0
 11
193.996832
 21
268.907994
 31
0.0
  0
SOLID
  5
335
330
1F
100
AcDbEntity
  8
SK2
100
AcDbTrace
 10
193.996832
 20
308.907994
 30
0.0
 11
194.613977
 21
305.407996
 31
0.0
 12
193.379688
 22
305.407991
 32
0.0
 13
193.379688
 23
305.407991
 33
0.0
  0
SOLID
  5
336
330
1F
100
AcDbEntity
  8
SK2
100
AcDbTrace
 10
193.996832
 20
268.907994
 30
0.0
 11
193.379688
 21
272.407991
 31
0.0
 12
194.613977
 22
272.407996
 32
0.0
 13
194.613977
 23
272.407996
 33
0.0
  0
MTEXT
  5
337
330
1F
100
AcDbEntity
  8
SK2
100
AcDbMText
 10
182.001083
 20
290.434244
 30
0.0
 40
3.5
 41
0.0
 71
     7
 72
     5
  1
\W0.7045;50
  7
cesky
 11
0.0000000000000001
 21
1.0
 31
0.0
 73
     2
 44
0.8433729999999998
  0
MTEXT
  5
338
330
1F
100
AcDbEntity
  8
SK2
100
AcDbMText
 10
182.001083
 20
283.696744
 30
0.0
 40
3.5
 41
0.0
 71
     7
 72
     5
  1
\W3.0115;\H2.63;%%c\H3.50;
  7
cesky
 11
0.0000000000000001
 21
1.0
 31
0.0
 73
     2
 44
0.8433729999999998
  0
LINE
  5
339
330
1F
100
AcDbEntity
  8
SK2
100
AcDbLine
 10
274.904842
 20
313.907994
 30
0.0
 11
181.188499
 21
313.907994
 31
0.0
  0
LINE
  5
33A
330
1F
100
AcDbEntity
  8
SK2
100
AcDbLine
 10
274.904842
 20
263.907994
 30
0.0
 11
181.188499
 21
263.907994
 31
0.0
  0
LINE
  5
33B
330
1F
100
AcDbEntity
  8
SK2
100
AcDbLine
 10
182.188499
 20
313.907994
 30
0.0
 11
182.188499
 21
263.907994
 31
0.0
  0
SOLID
  5
33C
330
1F
100
AcDbEntity
  8
SK2
100
AcDbTrace
 10
182.188499
 20
313.907994
 30
0.0
 11
182.805644
 21
310.407996
 31
0.0
 12
181.571355
 22
310.407991
 32
0.0
 13
181.571355
 23
310.407991
 33
0.0
  0
SOLID
  5
33D
330
1F
100
AcDbEntity
  8
SK2
100
AcDbTrace
 10
182.188499
 20
263.907994
 30
0.0
 11
181.571355
 21
267.4079910000001
 31
0.0
 12
182.805644
 22
267.407996
 32
0.0
 13
182.805644
 23
267.407996
 33
0.0
  0
LINE
  5
33E
330
1F
100
AcDbEntity
  8
CUT
100
AcDbLine
 10
422.7985652302583
 20
299.401750375908
 30
0.0
 11
423.2532685852162
 21
298.6450339436931
 31
0.0
  0
LINE
  5
340
330
1F
100
AcDbEntity
  8
CUT
100
AcDbLine
 10
422.4663996638915
 20
308.6583195952317
 30
0.0
 11
422.7985652302583
 21
299.401750375908
 31
0.0
  0
LINE
  5
342
330
1F
100
AcDbEntity
  8
CUT
100
AcDbLine
 10
410.5245720366188
 20
308.9972312122031
 30
0.0
 11
421.662751235697
 21
309.4047283049373
 31
0.0
  0
LINE
  5
343
330
1F
100
AcDbEntity
  8
CUT
100
AcDbLine
 10
423.2532685852162
 20
298.6450339436931
 30
0.0
 11
423.4048419452957
 21
289.9656265947038
 31
0.0
  0
LINE
  5
344
330
1F
100
AcDbEntity
  8
CUT
100
AcDbLine
 10
423.4048419999999
 20
288.907994
 30
0.0
 11
409.776454
 21
288.907994
 31
0.0
  0
LINE
  5
345
330
1F
100
AcDbEntity
  8
CUT
100
AcDbLine
 10
409.776454
 20
288.907994
 30
0.0
 11
409.776454
 21
308.193668
 31
0.0
  0
LINE
  5
346
330
1F
100
AcDbEntity
  8
CUT
100
AcDbLine
 10
423.4048419999999
 20
289.965627
 30
0.0
 11
423.4048419999999
 21
288.907994
 31
0.0
  0
LINE
  5
347
330
1F
100
AcDbEntity
  8
CUT
100
AcDbLine
 10
409.7764543850748
 20
308.19366792822
 30
0.0
 11
409.7764543850748
 21
308.19366792822
 31
0.0
  0
ARC
  5
348
330
1F
100
AcDbEntity
  8
CUT
100
AcDbCircle
 10
410.5582844551899
 20
308.2158144229049
 30
0.0
 40
0.7821436733510289
100
AcDbArc
 50
92.47036185265717
 51
181.622553933436
  0
LINE
  5
349
330
1F
100
AcDbEntity
  8
CUT
100
AcDbLine
 10
421.662751235697
 20
309.4047283049373
 30
0.0
 11
421.662751235697
 21
309.4047283049373
 31
0.0
  0
ARC
  5
34A
330
1F
100
AcDbEntity
  8
CUT
100
AcDbCircle
 10
421.686550975471
 20
308.6245099768303
 30
0.0
 40
0.7805812367252504
100
AcDbArc
 50
2.482450973534698
 51
91.74720572775447
  0
LINE
  5
359
330
1F
100
AcDbEntity
  8
NOCUT
370
    13
100
AcDbLine
 10
422.4448419999999
 20
288.9079935137005
 30
0.0
 11
204.404842
 21
288.9079935137005
 31
0.0
  0
LINE
  5
35A
330
1F
100
AcDbEntity
  8
NOCUT
370
    13
100
AcDbLine
 10
204.404842
 20
288.9079935137005
 30
0.0
 11
204.4048419511121
 21
306.9079939511121
 31
0.0
  0
ENDSEC
  0
SECTION
  2
OBJECTS
  0
DICTIONARY
  5
C
330
0
100
AcDbDictionary
281
     1
  3
ACAD_CIP_PREVIOUS_PRODUCT_INFO
350
310
  3
ACAD_COLOR
350
30B
  3
ACAD_DETAILVIEWSTYLE
350
307
  3
ACAD_GROUP
350
D
  3
ACAD_LAYOUT
350
1A
  3
ACAD_MATERIAL
350
43
  3
ACAD_MLEADERSTYLE
350
6B
  3
ACAD_MLINESTYLE
350
17
  3
ACAD_PLOTSETTINGS
350
19
  3
ACAD_PLOTSTYLENAME
350
E
  3
ACAD_SCALELIST
350
47
  3
ACAD_SECTIONVIEWSTYLE
350
308
  3
ACAD_TABLESTYLE
350
69
  3
ACAD_VISUALSTYLE
350
2A
  3
ACDB_RECOMPOSE_DATA
350
37F
  3
AcDbVariableDictionary
350
2C4
  0
DICTIONARY
  5
362
330
10
100
AcDbDictionary
280
     1
281
     1
  3
ADSK_XREC_LAYER_RECONCILED
360
363
  0
DICTIONARY
  5
364
330
34B
100
AcDbDictionary
280
     1
281
     1
  3
ADSK_XREC_LAYER_RECONCILED
360
365
  0
DICTIONARY
  5
366
330
34C
100
AcDbDictionary
280
     1
281
     1
  3
ADSK_XREC_LAYER_RECONCILED
360
367
  0
DICTIONARY
  5
368
330
34D
100
AcDbDictionary
280
     1
281
     1
  3
ADSK_XREC_LAYER_RECONCILED
360
369
  0
DICTIONARY
  5
36A
330
34F
100
AcDbDictionary
280
     1
281
     1
  3
ADSK_XREC_LAYER_RECONCILED
360
36B
  0
DICTIONARY
  5
36C
330
350
100
AcDbDictionary
280
     1
281
     1
  3
ADSK_XREC_LAYER_RECONCILED
360
36D
  0
DICTIONARY
  5
36E
330
352
100
AcDbDictionary
280
     1
281
     1
  3
ADSK_XREC_LAYER_RECONCILED
360
36F
  0
DICTIONARY
  5
370
330
353
100
AcDbDictionary
280
     1
281
     1
  3
ADSK_XREC_LAYER_RECONCILED
360
371
  0
DICTIONARY
  5
372
330
354
100
AcDbDictionary
280
     1
281
     1
  3
ADSK_XREC_LAYER_RECONCILED
360
373
  0
DICTIONARY
  5
374
330
355
100
AcDbDictionary
280
     1
281
     1
  3
ADSK_XREC_LAYER_RECONCILED
360
375
  0
DICTIONARY
  5
376
330
356
100
AcDbDictionary
280
     1
281
     1
  3
ADSK_XREC_LAYER_RECONCILED
360
377
  0
DICTIONARY
  5
378
330
357
100
AcDbDictionary
280
     1
281
     1
  3
ADSK_XREC_LAYER_RECONCILED
360
379
  0
DICTIONARY
  5
311
330
1F
100
AcDbDictionary
280
     1
281
     1
  3
ACAD_SORTENTS
360
312
  0
XRECORD
  5
310
102
{ACAD_REACTORS
330
C
102
}
330
C
100
AcDbXrecord
280
     1
300
ACD
300
2019
300
87084ACD_2019_0F
  0
DICTIONARY
  5
30B
102
{ACAD_REACTORS
330
C
102
}
330
C
100
AcDbDictionary
281
     1
  0
DICTIONARY
  5
307
102
{ACAD_REACTORS
330
C
102
}
330
C
100
AcDbDictionary
281
     1
  3
Metric50
350
30D
  0
DICTIONARY
  5
D
102
{ACAD_REACTORS
330
C
102
}
330
C
100
AcDbDictionary
281
     1
  3
NULOVY_BOD
350
358
  0
DICTIONARY
  5
1A
102
{ACAD_REACTORS
330
C
102
}
330
C
100
AcDbDictionary
281
     1
  3
Layout1
350
1E
  3
Layout2
350
26
  3
Model
350
22
  0
DICTIONARY
  5
43
102
{ACAD_REACTORS
330
C
102
}
330
C
100
AcDbDictionary
281
     1
  3
ByBlock
350
45
  3
ByLayer
350
44
  3
Global
350
46
  0
DICTIONARY
  5
6B
102
{ACAD_REACTORS
330
C
102
}
330
C
100
AcDbDictionary
281
     1
  3
Standard
350
6C
  0
DICTIONARY
  5
17
102
{ACAD_REACTORS
330
C
102
}
330
C
100
AcDbDictionary
281
     1
  3
Standard
350
18
  0
DICTIONARY
  5
19
102
{ACAD_REACTORS
330
C
102
}
330
C
100
AcDbDictionary
281
     1
  0
ACDBDICTIONARYWDFLT
  5
E
102
{ACAD_REACTORS
330
C
102
}
330
C
100
AcDbDictionary
281
     1
  3
Normal
350
F
100
AcDbDictionaryWithDefault
340
F
  0
DICTIONARY
  5
47
102
{ACAD_REACTORS
330
C
102
}
330
C
100
AcDbDictionary
281
     1
  3
A0
350
48
  3
A1
350
49
  3
A2
350
4A
  3
A3
350
4B
  3
A4
350
4C
  3
A5
350
4D
  3
A6
350
4E
  3
A7
350
4F
  3
A8
350
50
  3
A9
350
51
  3
B0
350
52
  3
B1
350
53
  3
B2
350
54
  3
B3
350
55
  3
B4
350
56
  3
B5
350
57
  3
B6
350
58
  3
B7
350
59
  3
B8
350
5A
  3
B9
350
5B
  3
C0
350
5C
  3
C1
350
5D
  3
C2
350
5E
  3
C3
350
5F
  3
C4
350
60
  3
C5
350
61
  3
C6
350
62
  3
C7
350
63
  3
C8
350
64
  3
C9
350
65
  3
D0
350
66
  3
D1
350
67
  3
D2
350
68
  0
DICTIONARY
  5
308
102
{ACAD_REACTORS
330
C
102
}
330
C
100
AcDbDictionary
281
     1
  3
Metric50
350
30C
  0
DICTIONARY
  5
69
102
{ACAD_REACTORS
330
C
102
}
330
C
100
AcDbDictionary
281
     1
  3
Standard
350
6A
  0
DICTIONARY
  5
2A
102
{ACAD_REACTORS
330
C
102
}
330
C
100
AcDbDictionary
281
     1
  3
2dWireframe
350
2F
  3
Basic
350
32
  3
Brighten
350
36
  3
ColorChange
350
3A
  3
Conceptual
350
34
  3
Dim
350
35
  3
EdgeColorOff
350
3D
  3
Facepattern
350
39
  3
Flat
350
2B
  3
FlatWithEdges
350
2C
  3
Gouraud
350
2D
  3
GouraudWithEdges
350
2E
  3
Hidden
350
31
  3
JitterOff
350
3B
  3
Linepattern
350
38
  3
OverhangOff
350
3C
  3
Realistic
350
33
  3
Shaded
350
42
  3
Shaded with edges
350
41
  3
Shades of Gray
350
3E
  3
Sketchy
350
3F
  3
Thicken
350
37
  3
Wireframe
350
30
  3
X-Ray
350
40
  0
XRECORD
  5
37F
102
{ACAD_REACTORS
330
C
102
}
330
C
100
AcDbXrecord
280
     1
 90
        1
330
6A
  0
DICTIONARY
  5
2C4
102
{ACAD_REACTORS
330
C
102
}
330
C
100
AcDbDictionary
281
     1
  3
CANNOSCALE
350
2C5
  3
CMLEADERSTYLE
350
306
  3
CTABLESTYLE
350
305
  3
CVIEWDETAILSTYLE
350
37A
  3
CVIEWSECTIONSTYLE
350
37B
  3
MSLTSCALE
350
2C6
  3
XCLIPFRAME
350
37C
  0
XRECORD
  5
363
102
{ACAD_REACTORS
330
362
102
}
330
362
100
AcDbXrecord
280
     1
290
     1
  0
XRECORD
  5
365
102
{ACAD_REACTORS
330
364
102
}
330
364
100
AcDbXrecord
280
     1
290
     1
  0
XRECORD
  5
367
102
{ACAD_REACTORS
330
366
102
}
330
366
100
AcDbXrecord
280
     1
290
     1
  0
XRECORD
  5
369
102
{ACAD_REACTORS
330
368
102
}
330
368
100
AcDbXrecord
280
     1
290
     1
  0
XRECORD
  5
36B
102
{ACAD_REACTORS
330
36A
102
}
330
36A
100
AcDbXrecord
280
     1
290
     1
  0
XRECORD
  5
36D
102
{ACAD_REACTORS
330
36C
102
}
330
36C
100
AcDbXrecord
280
     1
290
     1
  0
XRECORD
  5
36F
102
{ACAD_REACTORS
330
36E
102
}
330
36E
100
AcDbXrecord
280
     1
290
     1
  0
XRECORD
  5
371
102
{ACAD_REACTORS
330
370
102
}
330
370
100
AcDbXrecord
280
     1
290
     1
  0
XRECORD
  5
373
102
{ACAD_REACTORS
330
372
102
}
330
372
100
AcDbXrecord
280
     1
290
     1
  0
XRECORD
  5
375
102
{ACAD_REACTORS
330
374
102
}
330
374
100
AcDbXrecord
280
     1
290
     1
  0
XRECORD
  5
377
102
{ACAD_REACTORS
330
376
102
}
330
376
100
AcDbXrecord
280
     1
290
     1
  0
XRECORD
  5
379
102
{ACAD_REACTORS
330
378
102
}
330
378
100
AcDbXrecord
280
     1
290
     1
  0
SORTENTSTABLE
  5
312
102
{ACAD_REACTORS
330
311
102
}
330
311
100
AcDbSortentsTable
330
1F
331
313
  5
236
331
314
  5
24F
331
315
  5
313
331
316
  5
314
331
317
  5
315
331
318
  5
316
331
319
  5
317
331
31A
  5
318
331
31B
  5
319
331
31C
  5
31A
331
31D
  5
31B
331
31E
  5
32C
331
31F
  5
32D
331
320
  5
32E
331
321
  5
32F
331
322
  5
330
331
323
  5
331
331
324
  5
332
331
325
  5
333
331
326
  5
334
331
327
  5
335
331
328
  5
336
331
329
  5
337
331
32A
  5
338
331
32B
  5
339
331
32C
  5
33A
331
32D
  5
33B
331
32E
  5
33C
331
32F
  5
33D
331
330
  5
31E
331
331
  5
31F
331
332
  5
320
331
333
  5
321
331
334
  5
322
331
335
  5
323
331
336
  5
324
331
337
  5
325
331
338
  5
326
331
339
  5
327
331
33A
  5
328
331
33B
  5
329
331
33C
  5
32A
331
33D
  5
32B
331
340
  5
343
331
342
  5
346
331
343
  5
347
331
344
  5
348
331
345
  5
349
331
346
  5
34A
331
347
  5
340
331
348
  5
342
331
349
  5
344
331
34A
  5
345
  0
ACDBDETAILVIEWSTYLE
  5
30D
102
{ACAD_XDICTIONARY
360
3B3
102
}
102
{ACAD_REACTORS
330
307
102
}
330
307
100
AcDbModelDocViewStyle
 70
     0
  3
Metric50
290
     0
100
AcDbDetailViewStyle
 70
     0
 71
     0
 90
        3
 71
     1
340
11
 62
   256
 40
5.0
340
0
 62
   256
 40
5.0
300

 40
0.0
280
     1
 71
     2
340
16
 90
       25
 62
   256
 71
     3
340
11
 62
   256
 40
5.0
 90
        0
 40
15.0
 90
        1
300
%<\AcVar ViewDetailId>% (%<\AcVar ViewScale \f "%sn">%)
 71
     4
340
16
 90
       25
 62
   256
340
16
 90
       25
 62
   256
280
     0
  0
GROUP
  5
358
102
{ACAD_REACTORS
330
D
102
}
330
D
100
AcDbGroup
300

 70
     0
 71
     1
340
73
  0
LAYOUT
  5
1E
102
{ACAD_REACTORS
330
1A
102
}
330
1A
100
AcDbPlotSettings
  1

  2
none_device
  4

  6

 40
0.0
 41
0.0
 42
0.0
 43
0.0
 44
0.0
 45
0.0
 46
0.0
 47
0.0
 48
0.0
 49
0.0
140
0.0
141
0.0
142
1.0
143
1.0
 70
   688
 72
     0
 73
     0
 74
     5
  7

 75
    16
147
1.0
 76
     0
 77
     2
 78
   300
148
0.0
149
0.0
100
AcDbLayout
  1
Layout1
 70
     1
 71
     1
 10
-0.5
 20
-0.5
 11
5.0
 21
5.0
 12
0.0
 22
0.0
 32
0.0
 14
-0.5
 24
-0.5
 34
-0.5
 15
5.0
 25
5.0
 35
5.0
146
0.0
 13
0.0
 23
0.0
 33
0.0
 16
1.0
 26
0.0
 36
0.0
 17
0.0
 27
1.0
 37
0.0
 76
     0
330
1B
  0
LAYOUT
  5
26
102
{ACAD_REACTORS
330
1A
102
}
330
1A
100
AcDbPlotSettings
  1

  2
none_device
  4

  6

 40
0.0
 41
0.0
 42
0.0
 43
0.0
 44
0.0
 45
0.0
 46
0.0
 47
0.0
 48
0.0
 49
0.0
140
0.0
141
0.0
142
1.0
143
1.0
 70
   688
 72
     0
 73
     0
 74
     5
  7

 75
    16
147
1.0
 76
     0
 77
     2
 78
   300
148
0.0
149
0.0
100
AcDbLayout
  1
Layout2
 70
     1
 71
     2
 10
0.0
 20
0.0
 11
0.0
 21
0.0
 12
0.0
 22
0.0
 32
0.0
 14
0.0
 24
0.0
 34
0.0
 15
0.0
 25
0.0
 35
0.0
146
0.0
 13
0.0
 23
0.0
 33
0.0
 16
1.0
 26
0.0
 36
0.0
 17
0.0
 27
1.0
 37
0.0
 76
     0
330
23
  0
LAYOUT
  5
22
102
{ACAD_REACTORS
330
1A
102
}
330
1A
100
AcDbPlotSettings
  1

  2
none_device
  4
Letter_(8.50_x_11.00_Inches)
  6

 40
6.349999999999999
 41
6.349999999999999
 42
6.350005
 43
6.350005
 44
215.9
 45
279.4
 46
0.0
 47
0.0
 48
0.0
 49
0.0
140
0.0
141
0.0
142
1.0
143
1.0
 70
  1712
 72
     0
 73
     0
 74
     0
  7

 75
     0
147
1.0
 76
     0
 77
     2
 78
   300
148
0.0
149
0.0
100
AcDbLayout
  1
Model
 70
     1
 71
     0
 10
-0.5
 20
-0.5
 11
5.0
 21
5.0
 12
0.0
 22
0.0
 32
0.0
 14
-0.5
 24
-0.5
 34
-0.5
 15
5.0
 25
5.0
 35
5.0
146
0.0
 13
0.0
 23
0.0
 33
0.0
 16
1.0
 26
0.0
 36
0.0
 17
0.0
 27
1.0
 37
0.0
 76
     0
330
1F
331
29
  0
MATERIAL
  5
45
102
{ACAD_XDICTIONARY
360
2FA
102
}
102
{ACAD_REACTORS
330
43
102
}
330
43
100
AcDbMaterial
  1
ByBlock
  0
MATERIAL
  5
44
102
{ACAD_XDICTIONARY
360
2F8
102
}
102
{ACAD_REACTORS
330
43
102
}
330
43
100
AcDbMaterial
  1
ByLayer
  0
MATERIAL
  5
46
102
{ACAD_XDICTIONARY
360
2FC
102
}
102
{ACAD_REACTORS
330
43
102
}
330
43
100
AcDbMaterial
  1
Global
  0
MLEADERSTYLE
  5
6C
102
{ACAD_REACTORS
330
6B
102
}
330
6B
100
AcDbMLeaderStyle
170
     2
171
     1
172
     0
 90
        2
 40
0.0
 41
0.0
173
     1
 91
-1056964608
340
14
 92
       -2
290
     1
 42
0.09
291
     1
 43
0.36
  3
Standard
 44
0.18
300

342
11
174
     1
178
     6
175
     1
176
     0
 93
-1056964608
 45
0.18
292
     0
297
     0
 46
0.18
 94
-1056964608
 47
1.0
 49
1.0
140
1.0
293
     1
141
0.0
294
     1
177
     0
142
1.0
295
     0
296
     0
143
0.125
1001
ACAD_MLEADERVER
1070
     2
  0
MLINESTYLE
  5
18
102
{ACAD_REACTORS
330
17
102
}
330
17
100
AcDbMlineStyle
  2
STANDARD
 70
     0
  3

 62
   256
 51
90.0
 52
90.0
 71
     2
 49
0.5
 62
   256
  6
BYLAYER
 49
-0.5
 62
   256
  6
BYLAYER
  0
ACDBPLACEHOLDER
  5
F
102
{ACAD_REACTORS
330
E
102
}
330
E
  0
SCALE
  5
48
102
{ACAD_REACTORS
330
47
102
}
330
47
100
AcDbScale
 70
     0
300
1:1
140
1.0
141
1.0
290
     1
  0
SCALE
  5
49
102
{ACAD_REACTORS
330
47
102
}
330
47
100
AcDbScale
 70
     0
300
1:2
140
1.0
141
2.0
290
     0
  0
SCALE
  5
4A
102
{ACAD_REACTORS
330
47
102
}
330
47
100
AcDbScale
 70
     0
300
1:4
140
1.0
141
4.0
290
     0
  0
SCALE
  5
4B
102
{ACAD_REACTORS
330
47
102
}
330
47
100
AcDbScale
 70
     0
300
1:5
140
1.0
141
5.0
290
     0
  0
SCALE
  5
4C
102
{ACAD_REACTORS
330
47
102
}
330
47
100
AcDbScale
 70
     0
300
1:8
140
1.0
141
8.0
290
     0
  0
SCALE
  5
4D
102
{ACAD_REACTORS
330
47
102
}
330
47
100
AcDbScale
 70
     0
300
1:10
140
1.0
141
10.0
290
     0
  0
SCALE
  5
4E
102
{ACAD_REACTORS
330
47
102
}
330
47
100
AcDbScale
 70
     0
300
1:16
140
1.0
141
16.0
290
     0
  0
SCALE
  5
4F
102
{ACAD_REACTORS
330
47
102
}
330
47
100
AcDbScale
 70
     0
300
1:20
140
1.0
141
20.0
290
     0
  0
SCALE
  5
50
102
{ACAD_REACTORS
330
47
102
}
330
47
100
AcDbScale
 70
     0
300
1:30
140
1.0
141
30.0
290
     0
  0
SCALE
  5
51
102
{ACAD_REACTORS
330
47
102
}
330
47
100
AcDbScale
 70
     0
300
1:40
140
1.0
141
40.0
290
     0
  0
SCALE
  5
52
102
{ACAD_REACTORS
330
47
102
}
330
47
100
AcDbScale
 70
     0
300
1:50
140
1.0
141
50.0
290
     0
  0
SCALE
  5
53
102
{ACAD_REACTORS
330
47
102
}
330
47
100
AcDbScale
 70
     0
300
1:100
140
1.0
141
100.0
290
     0
  0
SCALE
  5
54
102
{ACAD_REACTORS
330
47
102
}
330
47
100
AcDbScale
 70
     0
300
2:1
140
2.0
141
1.0
290
     0
  0
SCALE
  5
55
102
{ACAD_REACTORS
330
47
102
}
330
47
100
AcDbScale
 70
     0
300
4:1
140
4.0
141
1.0
290
     0
  0
SCALE
  5
56
102
{ACAD_REACTORS
330
47
102
}
330
47
100
AcDbScale
 70
     0
300
8:1
140
8.0
141
1.0
290
     0
  0
SCALE
  5
57
102
{ACAD_REACTORS
330
47
102
}
330
47
100
AcDbScale
 70
     0
300
10:1
140
10.0
141
1.0
290
     0
  0
SCALE
  5
58
102
{ACAD_REACTORS
330
47
102
}
330
47
100
AcDbScale
 70
     0
300
100:1
140
100.0
141
1.0
290
     0
  0
SCALE
  5
59
102
{ACAD_REACTORS
330
47
102
}
330
47
100
AcDbScale
 70
     0
300
1/128" = 1'-0"
140
0.007812
141
12.0
290
     0
  0
SCALE
  5
5A
102
{ACAD_REACTORS
330
47
102
}
330
47
100
AcDbScale
 70
     0
300
1/64" = 1'-0"
140
0.015625
141
12.0
290
     0
  0
SCALE
  5
5B
102
{ACAD_REACTORS
330
47
102
}
330
47
100
AcDbScale
 70
     0
300
1/32" = 1'-0"
140
0.03125
141
12.0
290
     0
  0
SCALE
  5
5C
102
{ACAD_REACTORS
330
47
102
}
330
47
100
AcDbScale
 70
     0
300
1/16" = 1'-0"
140
0.0625
141
12.0
290
     0
  0
SCALE
  5
5D
102
{ACAD_REACTORS
330
47
102
}
330
47
100
AcDbScale
 70
     0
300
3/32" = 1'-0"
140
0.09375
141
12.0
290
     0
  0
SCALE
  5
5E
102
{ACAD_REACTORS
330
47
102
}
330
47
100
AcDbScale
 70
     0
300
1/8" = 1'-0"
140
0.125
141
12.0
290
     0
  0
SCALE
  5
5F
102
{ACAD_REACTORS
330
47
102
}
330
47
100
AcDbScale
 70
     0
300
3/16" = 1'-0"
140
0.1875
141
12.0
290
     0
  0
SCALE
  5
60
102
{ACAD_REACTORS
330
47
102
}
330
47
100
AcDbScale
 70
     0
300
1/4" = 1'-0"
140
0.25
141
12.0
290
     0
  0
SCALE
  5
61
102
{ACAD_REACTORS
330
47
102
}
330
47
100
AcDbScale
 70
     0
300
3/8" = 1'-0"
140
0.375
141
12.0
290
     0
  0
SCALE
  5
62
102
{ACAD_REACTORS
330
47
102
}
330
47
100
AcDbScale
 70
     0
300
1/2" = 1'-0"
140
0.5
141
12.0
290
     0
  0
SCALE
  5
63
102
{ACAD_REACTORS
330
47
102
}
330
47
100
AcDbScale
 70
     0
300
3/4" = 1'-0"
140
0.75
141
12.0
290
     0
  0
SCALE
  5
64
102
{ACAD_REACTORS
330
47
102
}
330
47
100
AcDbScale
 70
     0
300
1" = 1'-0"
140
1.0
141
12.0
290
     0
  0
SCALE
  5
65
102
{ACAD_REACTORS
330
47
102
}
330
47
100
AcDbScale
 70
     0
300
1-1/2" = 1'-0"
140
1.5
141
12.0
290
     0
  0
SCALE
  5
66
102
{ACAD_REACTORS
330
47
102
}
330
47
100
AcDbScale
 70
     0
300
3" = 1'-0"
140
3.0
141
12.0
290
     0
  0
SCALE
  5
67
102
{ACAD_REACTORS
330
47
102
}
330
47
100
AcDbScale
 70
     0
300
6" = 1'-0"
140
6.0
141
12.0
290
     0
  0
SCALE
  5
68
102
{ACAD_REACTORS
330
47
102
}
330
47
100
AcDbScale
 70
     0
300
1'-0" = 1'-0"
140
12.0
141
12.0
290
     0
  0
ACDBSECTIONVIEWSTYLE
  5
30C
102
{ACAD_XDICTIONARY
360
3B1
102
}
102
{ACAD_REACTORS
330
308
102
}
330
308
100
AcDbModelDocViewStyle
 70
     0
  3
Metric50
290
     0
100
AcDbSectionViewStyle
 70
     0
 71
     0
 90
      102
 71
     1
340
11
 62
   256
 40
5.0
340
0
340
0
 62
   256
 40
5.0
300
I, O, Q, S, X, Z
 40
10.0
 90
        0
 40
2.5
 90
        0
 71
     2
340
16
 90
       25
 62
   256
340
16
 90
       50
 62
   256
 40
5.0
 40
2.5
 40
5.0
 71
     3
340
11
 62
   256
 40
5.0
 90
        0
 40
15.0
 90
        1
300
%<\AcVar ViewSectionStartId>%-%<\AcVar ViewSectionEndId>% (%<\AcVar ViewScale \f "%sn">%)
 71
     4
 62
   256
 62
   257
300
ANSI31
 40
1.0
 90
        0
290
     0
290
     0
 90
        6
 40
0.0
 40
1.570796326794896
 40
0.2617993877991494
 40
1.308996938995747
 40
-0.2617993877991494
 40
1.832595714594046
  0
TABLESTYLE
  5
6A
102
{ACAD_XDICTIONARY
360
2FE
102
}
102
{ACAD_REACTORS
330
69
102
}
330
69
100
AcDbTableStyle
  3
Standard
 70
     0
 71
     0
 40
0.06
 41
0.06
280
     0
281
     0
  7
Standard
140
0.18
170
     2
 62
     0
 63
     7
283
     0
274
    -2
284
     1
 64
     0
275
    -2
285
     1
 65
     0
276
    -2
286
     1
 66
     0
277
    -2
287
     1
 67
     0
278
    -2
288
     1
 68
     0
279
    -2
289
     1
 69
     0
  7
Standard
140
0.25
170
     5
 62
     0
 63
     7
283
     0
274
    -2
284
     1
 64
     0
275
    -2
285
     1
 65
     0
276
    -2
286
     1
 66
     0
277
    -2
287
     1
 67
     0
278
    -2
288
     1
 68
     0
279
    -2
289
     1
 69
     0
  7
Standard
140
0.18
170
     5
 62
     0
 63
     7
283
     0
274
    -2
284
     1
 64
     0
275
    -2
285
     1
 65
     0
276
    -2
286
     1
 66
     0
277
    -2
287
     1
 67
     0
278
    -2
288
     1
 68
     0
279
    -2
289
     1
 69
     0
  0
VISUALSTYLE
  5
2F
102
{ACAD_XDICTIONARY
360
388
102
}
102
{ACAD_REACTORS
330
2A
102
}
330
2A
100
AcDbVisualStyle
  2

 70
     4
 71
     0
 72
     2
 73
     0
 90
        0
 40
-0.6
 41
-30.0
 62
     5
 63
     7
421
 16777215
 74
     1
 91
        4
 64
     7
 65
   257
 75
     1
175
     1
 42
1.0
 92
        0
 66
   257
 43
1.0
 76
     1
 77
     6
 78
     2
 67
     7
 79
     5
170
     0
171
     0
290
     0
174
     0
 93
        1
 44
0.0
173
     0
291
     0
 45
0.0
1001
ACAD
1000
AcDbSavedByObjectVersion
1070
     0
  0
VISUALSTYLE
  5
32
102
{ACAD_XDICTIONARY
360
38E
102
}
102
{ACAD_REACTORS
330
2A
102
}
330
2A
100
AcDbVisualStyle
  2

 70
     7
 71
     1
 72
     0
 73
     1
 90
        0
 40
-0.6
 41
-30.0
 62
     5
 63
     7
421
 16777215
 74
     0
 91
        4
 64
     7
 65
   257
 75
     1
175
     1
 42
1.0
 92
        8
 66
     7
 43
1.0
 76
     1
 77
     6
 78
     2
 67
     7
 79
     5
170
     0
171
     0
290
     0
174
     0
 93
        1
 44
0.0
173
     0
291
     1
 45
0.0
1001
ACAD
1000
AcDbSavedByObjectVersion
1070
     0
  0
VISUALSTYLE
  5
36
102
{ACAD_XDICTIONARY
360
396
102
}
102
{ACAD_REACTORS
330
2A
102
}
330
2A
100
AcDbVisualStyle
  2

 70
    12
 71
     2
 72
     2
 73
     0
 90
        0
 40
-0.6
 41
-30.0
 62
     5
 63
     7
421
 16777215
 74
     1
 91
        4
 64
     7
 65
   257
 75
     1
175
     1
 42
1.0
 92
        8
 66
     7
 43
1.0
 76
     1
 77
     6
 78
     2
 67
     7
 79
     5
170
     0
171
     0
290
     0
174
     0
 93
        1
 44
50.0
173
     0
291
     1
 45
0.0
1001
ACAD
1000
AcDbSavedByObjectVersion
1070
     0
  0
VISUALSTYLE
  5
3A
102
{ACAD_XDICTIONARY
360
39E
102
}
102
{ACAD_REACTORS
330
2A
102
}
330
2A
100
AcDbVisualStyle
  2

 70
    16
 71
     2
 72
     2
 73
     3
 90
        0
 40
-0.6
 41
-30.0
 62
     5
 63
     8
421
  8421504
 74
     1
 91
        4
 64
     7
 65
   257
 75
     1
175
     1
 42
1.0
 92
        8
 66
     8
424
  8421504
 43
1.0
 76
     1
 77
     6
 78
     2
 67
     7
 79
     5
170
     0
171
     0
290
     0
174
     0
 93
        1
 44
0.0
173
     0
291
     1
 45
0.0
1001
ACAD
1000
AcDbSavedByObjectVersion
1070
     0
  0
VISUALSTYLE
  5
34
102
{ACAD_XDICTIONARY
360
392
102
}
102
{ACAD_REACTORS
330
2A
102
}
330
2A
100
AcDbVisualStyle
  2

 70
     9
 71
     3
 72
     2
 73
     0
 90
        0
 40
-0.6
 41
-30.0
 62
     5
 63
     7
421
 16777215
 74
     2
 91
        2
 64
     7
 65
   257
 75
     1
175
     1
 42
179.0
 92
        8
 66
     7
 43
1.0
 76
     1
 77
     6
 78
     2
 67
     7
 79
     3
170
     0
171
     0
290
     0
174
     0
 93
        1
 44
0.0
173
     0
291
     0
 45
0.0
1001
ACAD
1000
AcDbSavedByObjectVersion
1070
     0
  0
VISUALSTYLE
  5
35
102
{ACAD_XDICTIONARY
360
394
102
}
102
{ACAD_REACTORS
330
2A
102
}
330
2A
100
AcDbVisualStyle
  2

 70
    11
 71
     2
 72
     2
 73
     0
 90
        0
 40
-0.6
 41
-30.0
 62
     5
 63
     7
421
 16777215
 74
     1
 91
        4
 64
     7
 65
   257
 75
     1
175
     1
 42
1.0
 92
        8
 66
     7
 43
1.0
 76
     1
 77
     6
 78
     2
 67
     7
 79
     5
170
     0
171
     0
290
     0
174
     0
 93
        1
 44
-50.0
173
     0
291
     1
 45
0.0
1001
ACAD
1000
AcDbSavedByObjectVersion
1070
     0
  0
VISUALSTYLE
  5
3D
102
{ACAD_XDICTIONARY
360
3A4
102
}
102
{ACAD_REACTORS
330
2A
102
}
330
2A
100
AcDbVisualStyle
  2

 70
    22
 71
     2
 72
     2
 73
     0
 90
        0
 40
-0.6
 41
-30.0
 62
     5
 63
     7
421
 16777215
 74
     1
 91
        4
 64
     7
 65
   257
 75
     1
175
     1
 42
1.0
 92
        8
 66
     7
 43
1.0
 76
     1
 77
     6
 78
     2
 67
     7
 79
     5
170
     0
171
     0
290
     0
174
     0
 93
        1
 44
0.0
173
     0
291
     1
 45
0.0
1001
ACAD
1000
AcDbSavedByObjectVersion
1070
     0
  0
VISUALSTYLE
  5
39
102
{ACAD_XDICTIONARY
360
39C
102
}
102
{ACAD_REACTORS
330
2A
102
}
330
2A
100
AcDbVisualStyle
  2

 70
    15
 71
     2
 72
     2
 73
     0
 90
        0
 40
-0.6
 41
-30.0
 62
     5
 63
     7
421
 16777215
 74
     1
 91
        4
 64
     7
 65
   257
 75
     1
175
     1
 42
1.0
 92
        8
 66
     7
 43
1.0
 76
     1
 77
     6
 78
     2
 67
     7
 79
     5
170
     0
171
     0
290
     0
174
     0
 93
        1
 44
0.0
173
     0
291
     1
 45
0.0
1001
ACAD
1000
AcDbSavedByObjectVersion
1070
     0
  0
VISUALSTYLE
  5
2B
102
{ACAD_XDICTIONARY
360
380
102
}
102
{ACAD_REACTORS
330
2A
102
}
330
2A
100
AcDbVisualStyle
  2

 70
     0
 71
     2
 72
     1
 73
     1
 90
        2
 40
-0.6
 41
30.0
 62
     5
 63
     7
421
 16777215
 74
     0
 91
        0
 64
     7
 65
   257
 75
     1
175
     1
 42
1.0
 92
        8
 66
     7
 43
1.0
 76
     1
 77
     6
 78
     2
 67
     7
 79
     5
170
     0
171
     0
290
     0
174
     0
 93
       13
 44
0.0
173
     0
291
     1
 45
0.0
1001
ACAD
1000
AcDbSavedByObjectVersion
1070
     0
  0
VISUALSTYLE
  5
2C
102
{ACAD_XDICTIONARY
360
382
102
}
102
{ACAD_REACTORS
330
2A
102
}
330
2A
100
AcDbVisualStyle
  2

 70
     1
 71
     2
 72
     1
 73
     1
 90
        2
 40
-0.6
 41
30.0
 62
     5
 63
     7
421
 16777215
 74
     1
 91
        0
 64
     7
 65
   257
 75
     1
175
     1
 42
1.0
 92
        0
 66
   257
 43
1.0
 76
     1
 77
     6
 78
     2
 67
     7
 79
     5
170
     0
171
     0
290
     0
174
     0
 93
       13
 44
0.0
173
     0
291
     1
 45
0.0
1001
ACAD
1000
AcDbSavedByObjectVersion
1070
     0
  0
VISUALSTYLE
  5
2D
102
{ACAD_XDICTIONARY
360
384
102
}
102
{ACAD_REACTORS
330
2A
102
}
330
2A
100
AcDbVisualStyle
  2

 70
     2
 71
     2
 72
     2
 73
     1
 90
        2
 40
-0.6
 41
30.0
 62
     5
 63
     7
421
 16777215
 74
     0
 91
        0
 64
     7
 65
   257
 75
     1
175
     1
 42
1.0
 92
        0
 66
     7
 43
1.0
 76
     1
 77
     6
 78
     2
 67
     7
 79
     5
170
     0
171
     0
290
     0
174
     0
 93
       13
 44
0.0
173
     0
291
     1
 45
0.0
1001
ACAD
1000
AcDbSavedByObjectVersion
1070
     0
  0
VISUALSTYLE
  5
2E
102
{ACAD_XDICTIONARY
360
386
102
}
102
{ACAD_REACTORS
330
2A
102
}
330
2A
100
AcDbVisualStyle
  2

 70
     3
 71
     2
 72
     2
 73
     1
 90
        2
 40
-0.6
 41
30.0
 62
     5
 63
     7
421
 16777215
 74
     1
 91
        0
 64
     7
 65
   257
 75
     1
175
     1
 42
1.0
 92
        0
 66
   257
 43
1.0
 76
     1
 77
     6
 78
     2
 67
     7
 79
     5
170
     0
171
     0
290
     0
174
     0
 93
       13
 44
0.0
173
     0
291
     1
 45
0.0
1001
ACAD
1000
AcDbSavedByObjectVersion
1070
     0
  0
VISUALSTYLE
  5
31
102
{ACAD_XDICTIONARY
360
38C
102
}
102
{ACAD_REACTORS
330
2A
102
}
330
2A
100
AcDbVisualStyle
  2

 70
     6
 71
     1
 72
     2
 73
     2
 90
        0
 40
-0.6
 41
-30.0
 62
     5
 63
     7
421
 16777215
 74
     2
 91
        2
 64
     7
 65
   257
 75
     2
175
     1
 42
40.0
 92
        0
 66
   257
 43
1.0
 76
     1
 77
     6
 78
     2
 67
     7
 79
     3
170
     0
171
     0
290
     0
174
     0
 93
        1
 44
0.0
173
     0
291
     0
 45
0.0
1001
ACAD
1000
AcDbSavedByObjectVersion
1070
     0
  0
VISUALSTYLE
  5
3B
102
{ACAD_XDICTIONARY
360
3A0
102
}
102
{ACAD_REACTORS
330
2A
102
}
330
2A
100
AcDbVisualStyle
  2

 70
    20
 71
     2
 72
     2
 73
     0
 90
        0
 40
-0.6
 41
-30.0
 62
     5
 63
     7
421
 16777215
 74
     1
 91
        4
 64
     7
 65
   257
 75
     1
175
     1
 42
1.0
 92
       10
 66
     7
 43
1.0
 76
     1
 77
     6
 78
     2
 67
     7
 79
     5
170
     0
171
     0
290
     0
174
     0
 93
        1
 44
0.0
173
     0
291
     1
 45
0.0
1001
ACAD
1000
AcDbSavedByObjectVersion
1070
     0
  0
VISUALSTYLE
  5
38
102
{ACAD_XDICTIONARY
360
39A
102
}
102
{ACAD_REACTORS
330
2A
102
}
330
2A
100
AcDbVisualStyle
  2

 70
    14
 71
     2
 72
     2
 73
     0
 90
        0
 40
-0.6
 41
-30.0
 62
     5
 63
     7
421
 16777215
 74
     1
 91
        4
 64
     7
 65
   257
 75
     7
175
     7
 42
1.0
 92
        8
 66
     7
 43
1.0
 76
     1
 77
     6
 78
     2
 67
     7
 79
     5
170
     0
171
     0
290
     0
174
     0
 93
        1
 44
0.0
173
     0
291
     1
 45
0.0
1001
ACAD
1000
AcDbSavedByObjectVersion
1070
     0
  0
VISUALSTYLE
  5
3C
102
{ACAD_XDICTIONARY
360
3A2
102
}
102
{ACAD_REACTORS
330
2A
102
}
330
2A
100
AcDbVisualStyle
  2

 70
    21
 71
     2
 72
     2
 73
     0
 90
        0
 40
-0.6
 41
-30.0
 62
     5
 63
     7
421
 16777215
 74
     1
 91
        4
 64
     7
 65
   257
 75
     1
175
     1
 42
1.0
 92
        9
 66
     7
 43
1.0
 76
     1
 77
     6
 78
     2
 67
     7
 79
     5
170
     0
171
     0
290
     0
174
     0
 93
        1
 44
0.0
173
     0
291
     1
 45
0.0
1001
ACAD
1000
AcDbSavedByObjectVersion
1070
     0
  0
VISUALSTYLE
  5
33
102
{ACAD_XDICTIONARY
360
390
102
}
102
{ACAD_REACTORS
330
2A
102
}
330
2A
100
AcDbVisualStyle
  2

 70
     8
 71
     2
 72
     3
 73
     0
 90
        2
 40
-0.6
 41
30.0
 62
     5
 63
     7
421
 16777215
 74
     0
 91
        0
 64
     7
 65
   257
 75
     1
175
     1
 42
1.0
 92
        8
 66
   257
 43
1.0
 76
     1
 77
     6
 78
     2
 67
     7
 79
     3
170
     0
171
     0
290
     0
174
     0
 93
       13
 44
0.0
173
     0
291
     0
 45
0.0
1001
ACAD
1000
AcDbSavedByObjectVersion
1070
     0
  0
VISUALSTYLE
  5
42
102
{ACAD_XDICTIONARY
360
3AE
102
}
102
{ACAD_REACTORS
330
2A
102
}
330
2A
100
AcDbVisualStyle
  2

 70
    27
 71
     2
 72
     2
 73
     1
 90
        2
 40
-0.6
 41
30.0
 62
     5
 63
     7
421
 16777215
 74
     0
 91
        4
 64
     7
 65
   257
 75
     1
175
     1
 42
1.0
 92
        8
 66
   257
 43
1.0
 76
     1
 77
     6
 78
     2
 67
     8
425
  7895160
 79
     3
170
     0
171
     0
290
     0
174
     0
 93
        5
 44
0.0
173
     0
291
     0
 45
0.0
1001
ACAD
1000
AcDbSavedByObjectVersion
1070
     0
  0
VISUALSTYLE
  5
41
102
{ACAD_XDICTIONARY
360
3AC
102
}
102
{ACAD_REACTORS
330
2A
102
}
330
2A
100
AcDbVisualStyle
  2

 70
    26
 71
     2
 72
     2
 73
     1
 90
        2
 40
-0.6
 41
30.0
 62
     5
 63
     7
421
 16777215
 74
     1
 91
       10
 64
     7
 65
   257
 75
     2
175
     1
 42
1.0
 92
        8
 66
   257
 43
1.0
 76
     1
 77
     6
 78
     2
 67
     7
 79
     3
170
     0
171
     0
290
     0
174
     0
 93
        5
 44
0.0
173
     0
291
     0
 45
0.0
1001
ACAD
1000
AcDbSavedByObjectVersion
1070
     0
  0
VISUALSTYLE
  5
3E
102
{ACAD_XDICTIONARY
360
3A6
102
}
102
{ACAD_REACTORS
330
2A
102
}
330
2A
100
AcDbVisualStyle
  2

 70
    23
 71
     2
 72
     2
 73
     3
 90
        0
 40
-0.6
 41
-30.0
 62
     5
 63
     7
421
 16777215
 74
     2
 91
        2
 64
     7
 65
     7
 75
     1
175
     1
 42
40.0
 92
        8
 66
     7
 43
1.0
 76
     1
 77
     6
 78
     2
 67
     7
 79
     3
170
     0
171
     0
290
     0
174
     0
 93
        1
 44
0.0
173
     0
291
     0
 45
0.0
1001
ACAD
1000
AcDbSavedByObjectVersion
1070
     0
  0
VISUALSTYLE
  5
3F
102
{ACAD_XDICTIONARY
360
3A8
102
}
102
{ACAD_REACTORS
330
2A
102
}
330
2A
100
AcDbVisualStyle
  2

 70
    24
 71
     1
 72
     2
 73
     2
 90
        0
 40
-0.6
 41
-30.0
 62
     5
 63
     7
421
 16777215
 74
     2
 91
        2
 64
     7
 65
     7
 75
     1
175
     1
 42
40.0
 92
       11
 66
     7
 43
1.0
 76
     1
 77
     6
 78
     2
 67
     7
 79
     6
170
     0
171
     0
290
     0
174
     0
 93
        1
 44
0.0
173
     0
291
     0
 45
0.0
1001
ACAD
1000
AcDbSavedByObjectVersion
1070
     0
  0
VISUALSTYLE
  5
37
102
{ACAD_XDICTIONARY
360
398
102
}
102
{ACAD_REACTORS
330
2A
102
}
330
2A
100
AcDbVisualStyle
  2

 70
    13
 71
     2
 72
     2
 73
     0
 90
        0
 40
-0.6
 41
-30.0
 62
     5
 63
     7
421
 16777215
 74
     1
 91
        4
 64
     7
 65
   257
 75
     1
175
     1
 42
1.0
 92
       12
 66
     7
 43
1.0
 76
     1
 77
     6
 78
     2
 67
     7
 79
     5
170
     0
171
     0
290
     0
174
     0
 93
        1
 44
0.0
173
     0
291
     1
 45
0.0
1001
ACAD
1000
AcDbSavedByObjectVersion
1070
     0
  0
VISUALSTYLE
  5
30
102
{ACAD_XDICTIONARY
360
38A
102
}
102
{ACAD_REACTORS
330
2A
102
}
330
2A
100
AcDbVisualStyle
  2

 70
     5
 71
     0
 72
     2
 73
     0
 90
        0
 40
-0.6
 41
-30.0
 62
     5
 63
     7
421
 16777215
 74
     1
 91
        4
 64
     7
 65
   257
 75
     1
175
     1
 42
1.0
 92
        0
 66
   257
 43
1.0
 76
     1
 77
     6
 78
     2
 67
     7
 79
     3
170
     0
171
     0
290
     0
174
     0
 93
        1
 44
0.0
173
     0
291
     0
 45
0.0
1001
ACAD
1000
AcDbSavedByObjectVersion
1070
     0
  0
VISUALSTYLE
  5
40
102
{ACAD_XDICTIONARY
360
3AA
102
}
102
{ACAD_REACTORS
330
2A
102
}
330
2A
100
AcDbVisualStyle
  2

 70
    25
 71
     2
 72
     2
 73
     1
 90
        1
 40
0.5
 41
-30.0
 62
     5
 63
     7
421
 16777215
 74
     1
 91
        0
 64
     7
 65
   257
 75
     1
175
     1
 42
1.0
 92
        8
 66
     7
 43
1.0
 76
     1
 77
     6
 78
     2
 67
     7
 79
     3
170
     0
171
     0
290
     0
174
     0
 93
       13
 44
0.0
173
     0
291
     0
 45
0.0
1001
ACAD
1000
AcDbSavedByObjectVersion
1070
     0
  0
DICTIONARYVAR
  5
2C5
102
{ACAD_REACTORS
330
2C4
102
}
330
2C4
100
DictionaryVariables
280
     0
  1
1:1
  0
DICTIONARYVAR
  5
306
102
{ACAD_REACTORS
330
2C4
102
}
330
2C4
100
DictionaryVariables
280
     0
  1
STANDARD
  0
DICTIONARYVAR
  5
305
102
{ACAD_REACTORS
330
2C4
102
}
330
2C4
100
DictionaryVariables
280
     0
  1
STANDARD
  0
DICTIONARYVAR
  5
37A
102
{ACAD_REACTORS
330
2C4
102
}
330
2C4
100
DictionaryVariables
280
     0
  1
Metric50
  0
DICTIONARYVAR
  5
37B
102
{ACAD_REACTORS
330
2C4
102
}
330
2C4
100
DictionaryVariables
280
     0
  1
Metric50
  0
DICTIONARYVAR
  5
2C6
102
{ACAD_REACTORS
330
2C4
102
}
330
2C4
100
DictionaryVariables
280
     0
  1
1
  0
DICTIONARYVAR
  5
37C
102
{ACAD_REACTORS
330
2C4
102
}
330
2C4
100
DictionaryVariables
280
     0
  1
2
  0
DICTIONARY
  5
3B3
330
30D
100
AcDbDictionary
280
     1
281
     1
  3
ACAD_XREC_ROUNDTRIP
360
3B4
  0
DICTIONARY
  5
2FA
330
45
100
AcDbDictionary
280
     1
281
     1
  3
ACAD_XREC_ROUNDTRIP
360
2FB
  0
DICTIONARY
  5
2F8
330
44
100
AcDbDictionary
280
     1
281
     1
  3
ACAD_XREC_ROUNDTRIP
360
2F9
  0
DICTIONARY
  5
2FC
330
46
100
AcDbDictionary
280
     1
281
     1
  3
ACAD_XREC_ROUNDTRIP
360
2FD
  0
DICTIONARY
  5
3B1
330
30C
100
AcDbDictionary
280
     1
281
     1
  3
ACAD_XREC_ROUNDTRIP
360
3B2
  0
DICTIONARY
  5
2FE
330
6A
100
AcDbDictionary
280
     1
281
     1
  3
ACAD_ROUNDTRIP_2008_TABLESTYLE_CELLSTYLEMAP
360
37E
  3
ACAD_XREC_ROUNDTRIP
360
3B0
  0
DICTIONARY
  5
388
330
2F
100
AcDbDictionary
280
     1
281
     1
  3
ACAD_XREC_ROUNDTRIP
360
389
  0
DICTIONARY
  5
38E
330
32
100
AcDbDictionary
280
     1
281
     1
  3
ACAD_XREC_ROUNDTRIP
360
38F
  0
DICTIONARY
  5
396
330
36
100
AcDbDictionary
280
     1
281
     1
  3
ACAD_XREC_ROUNDTRIP
360
397
  0
DICTIONARY
  5
39E
330
3A
100
AcDbDictionary
280
     1
281
     1
  3
ACAD_XREC_ROUNDTRIP
360
39F
  0
DICTIONARY
  5
392
330
34
100
AcDbDictionary
280
     1
281
     1
  3
ACAD_XREC_ROUNDTRIP
360
393
  0
DICTIONARY
  5
394
330
35
100
AcDbDictionary
280
     1
281
     1
  3
ACAD_XREC_ROUNDTRIP
360
395
  0
DICTIONARY
  5
3A4
330
3D
100
AcDbDictionary
280
     1
281
     1
  3
ACAD_XREC_ROUNDTRIP
360
3A5
  0
DICTIONARY
  5
39C
330
39
100
AcDbDictionary
280
     1
281
     1
  3
ACAD_XREC_ROUNDTRIP
360
39D
  0
DICTIONARY
  5
380
330
2B
100
AcDbDictionary
280
     1
281
     1
  3
ACAD_XREC_ROUNDTRIP
360
381
  0
DICTIONARY
  5
382
330
2C
100
AcDbDictionary
280
     1
281
     1
  3
ACAD_XREC_ROUNDTRIP
360
383
  0
DICTIONARY
  5
384
330
2D
100
AcDbDictionary
280
     1
281
     1
  3
ACAD_XREC_ROUNDTRIP
360
385
  0
DICTIONARY
  5
386
330
2E
100
AcDbDictionary
280
     1
281
     1
  3
ACAD_XREC_ROUNDTRIP
360
387
  0
DICTIONARY
  5
38C
330
31
100
AcDbDictionary
280
     1
281
     1
  3
ACAD_XREC_ROUNDTRIP
360
38D
  0
DICTIONARY
  5
3A0
330
3B
100
AcDbDictionary
280
     1
281
     1
  3
ACAD_XREC_ROUNDTRIP
360
3A1
  0
DICTIONARY
  5
39A
330
38
100
AcDbDictionary
280
     1
281
     1
  3
ACAD_XREC_ROUNDTRIP
360
39B
  0
DICTIONARY
  5
3A2
330
3C
100
AcDbDictionary
280
     1
281
     1
  3
ACAD_XREC_ROUNDTRIP
360
3A3
  0
DICTIONARY
  5
390
330
33
100
AcDbDictionary
280
     1
281
     1
  3
ACAD_XREC_ROUNDTRIP
360
391
  0
DICTIONARY
  5
3AE
330
42
100
AcDbDictionary
280
     1
281
     1
  3
ACAD_XREC_ROUNDTRIP
360
3AF
  0
DICTIONARY
  5
3AC
330
41
100
AcDbDictionary
280
     1
281
     1
  3
ACAD_XREC_ROUNDTRIP
360
3AD
  0
DICTIONARY
  5
3A6
330
3E
100
AcDbDictionary
280
     1
281
     1
  3
ACAD_XREC_ROUNDTRIP
360
3A7
  0
DICTIONARY
  5
3A8
330
3F
100
AcDbDictionary
280
     1
281
     1
  3
ACAD_XREC_ROUNDTRIP
360
3A9
  0
DICTIONARY
  5
398
330
37
100
AcDbDictionary
280
     1
281
     1
  3
ACAD_XREC_ROUNDTRIP
360
399
  0
DICTIONARY
  5
38A
330
30
100
AcDbDictionary
280
     1
281
     1
  3
ACAD_XREC_ROUNDTRIP
360
38B
  0
DICTIONARY
  5
3AA
330
40
100
AcDbDictionary
280
     1
281
     1
  3
ACAD_XREC_ROUNDTRIP
360
3AB
  0
XRECORD
  5
3B4
102
{ACAD_REACTORS
330
3B3
102
}
330
3B3
100
AcDbXrecord
280
     1
102
DISPLAYNAME
  1
Metric50
102
FLAGS
 90
        0
  0
XRECORD
  5
2FB
102
{ACAD_REACTORS
330
2FA
102
}
330
2FA
100
AcDbXrecord
280
     1
102
MATERIAL
148
0.0
149
0.0
149
0.0
 93
        0
 94
      127
282
     0
 72
     1
 77
     1
171
     1
175
     1
179
     1
273
     0
  0
XRECORD
  5
2F9
102
{ACAD_REACTORS
330
2F8
102
}
330
2F8
100
AcDbXrecord
280
     1
102
MATERIAL
148
0.0
149
0.0
149
0.0
 93
        0
 94
      127
282
     0
 72
     1
 77
     1
171
     1
175
     1
179
     1
273
     0
  0
XRECORD
  5
2FD
102
{ACAD_REACTORS
330
2FC
102
}
330
2FC
100
AcDbXrecord
280
     1
102
MATERIAL
148
0.0
149
0.0
149
0.0
 93
        0
 94
      127
282
     0
 72
     1
 77
     1
171
     1
175
     1
179
     1
273
     0
  0
XRECORD
  5
3B2
102
{ACAD_REACTORS
330
3B1
102
}
330
3B1
100
AcDbXrecord
280
     1
102
DISPLAYNAME
  1
Metric50
102
FLAGS
 90
        0
  0
CELLSTYLEMAP
  5
37E
102
{ACAD_REACTORS
330
2FE
102
}
330
2FE
100
AcDbCellStyleMap
 90
        3
300
CELLSTYLE
  1
TABLEFORMAT_BEGIN
 90
        5
170
     1
 91
        0
 92
    32768
 62
   257
 93
        1
300
CONTENTFORMAT
  1
CONTENTFORMAT_BEGIN
 90
        0
 91
        0
 92
        4
 93
        0
300

 40
0.0
140
1.0
 94
        5
 62
     0
340
11
144
0.25
309
CONTENTFORMAT_END
171
     1
301
MARGIN
  1
CELLMARGIN_BEGIN
 40
0.06
 40
0.06
 40
0.06
 40
0.06
 40
0.18
 40
0.18
309
CELLMARGIN_END
 94
        6
 95
        1
302
GRIDFORMAT
  1
GRIDFORMAT_BEGIN
 90
        0
 91
        1
 62
     0
 92
       -2
340
14
 93
        0
 40
0.045
309
GRIDFORMAT_END
 95
        2
302
GRIDFORMAT
  1
GRIDFORMAT_BEGIN
 90
        0
 91
        1
 62
     0
 92
       -2
340
14
 93
        0
 40
0.045
309
GRIDFORMAT_END
 95
        4
302
GRIDFORMAT
  1
GRIDFORMAT_BEGIN
 90
        0
 91
        1
 62
     0
 92
       -2
340
14
 93
        0
 40
0.045
309
GRIDFORMAT_END
 95
        8
302
GRIDFORMAT
  1
GRIDFORMAT_BEGIN
 90
        0
 91
        1
 62
     0
 92
       -2
340
14
 93
        0
 40
0.045
309
GRIDFORMAT_END
 95
       16
302
GRIDFORMAT
  1
GRIDFORMAT_BEGIN
 90
        0
 91
        1
 62
     0
 92
       -2
340
14
 93
        0
 40
0.045
309
GRIDFORMAT_END
 95
       32
302
GRIDFORMAT
  1
GRIDFORMAT_BEGIN
 90
        0
 91
        1
 62
     0
 92
       -2
340
14
 93
        0
 40
0.045
309
GRIDFORMAT_END
309
TABLEFORMAT_END
  1
CELLSTYLE_BEGIN
 90
        1
 91
        1
300
_TITLE
309
CELLSTYLE_END
300
CELLSTYLE
  1
TABLEFORMAT_BEGIN
 90
        5
170
     1
 91
        0
 92
        0
 62
   257
 93
        1
300
CONTENTFORMAT
  1
CONTENTFORMAT_BEGIN
 90
        0
 91
        0
 92
        4
 93
        0
300

 40
0.0
140
1.0
 94
        5
 62
     0
340
11
144
0.18
309
CONTENTFORMAT_END
171
     1
301
MARGIN
  1
CELLMARGIN_BEGIN
 40
0.06
 40
0.06
 40
0.06
 40
0.06
 40
0.18
 40
0.18
309
CELLMARGIN_END
 94
        6
 95
        1
302
GRIDFORMAT
  1
GRIDFORMAT_BEGIN
 90
        0
 91
        1
 62
     0
 92
       -2
340
14
 93
        0
 40
0.045
309
GRIDFORMAT_END
 95
        2
302
GRIDFORMAT
  1
GRIDFORMAT_BEGIN
 90
        0
 91
        1
 62
     0
 92
       -2
340
14
 93
        0
 40
0.045
309
GRIDFORMAT_END
 95
        4
302
GRIDFORMAT
  1
GRIDFORMAT_BEGIN
 90
        0
 91
        1
 62
     0
 92
       -2
340
14
 93
        0
 40
0.045
309
GRIDFORMAT_END
 95
        8
302
GRIDFORMAT
  1
GRIDFORMAT_BEGIN
 90
        0
 91
        1
 62
     0
 92
       -2
340
14
 93
        0
 40
0.045
309
GRIDFORMAT_END
 95
       16
302
GRIDFORMAT
  1
GRIDFORMAT_BEGIN
 90
        0
 91
        1
 62
     0
 92
       -2
340
14
 93
        0
 40
0.045
309
GRIDFORMAT_END
 95
       32
302
GRIDFORMAT
  1
GRIDFORMAT_BEGIN
 90
        0
 91
        1
 62
     0
 92
       -2
340
14
 93
        0
 40
0.045
309
GRIDFORMAT_END
309
TABLEFORMAT_END
  1
CELLSTYLE_BEGIN
 90
        2
 91
        1
300
_HEADER
309
CELLSTYLE_END
300
CELLSTYLE
  1
TABLEFORMAT_BEGIN
 90
        5
170
     1
 91
        0
 92
        0
 62
   257
 93
        1
300
CONTENTFORMAT
  1
CONTENTFORMAT_BEGIN
 90
        0
 91
        0
 92
        4
 93
        0
300

 40
0.0
140
1.0
 94
        2
 62
     0
340
11
144
0.18
309
CONTENTFORMAT_END
171
     1
301
MARGIN
  1
CELLMARGIN_BEGIN
 40
0.06
 40
0.06
 40
0.06
 40
0.06
 40
0.18
 40
0.18
309
CELLMARGIN_END
 94
        6
 95
        1
302
GRIDFORMAT
  1
GRIDFORMAT_BEGIN
 90
        0
 91
        1
 62
     0
 92
       -2
340
14
 93
        0
 40
0.045
309
GRIDFORMAT_END
 95
        2
302
GRIDFORMAT
  1
GRIDFORMAT_BEGIN
 90
        0
 91
        1
 62
     0
 92
       -2
340
14
 93
        0
 40
0.045
309
GRIDFORMAT_END
 95
        4
302
GRIDFORMAT
  1
GRIDFORMAT_BEGIN
 90
        0
 91
        1
 62
     0
 92
       -2
340
14
 93
        0
 40
0.045
309
GRIDFORMAT_END
 95
        8
302
GRIDFORMAT
  1
GRIDFORMAT_BEGIN
 90
        0
 91
        1
 62
     0
 92
       -2
340
14
 93
        0
 40
0.045
309
GRIDFORMAT_END
 95
       16
302
GRIDFORMAT
  1
GRIDFORMAT_BEGIN
 90
        0
 91
        1
 62
     0
 92
       -2
340
14
 93
        0
 40
0.045
309
GRIDFORMAT_END
 95
       32
302
GRIDFORMAT
  1
GRIDFORMAT_BEGIN
 90
        0
 91
        1
 62
     0
 92
       -2
340
14
 93
        0
 40
0.045
309
GRIDFORMAT_END
309
TABLEFORMAT_END
  1
CELLSTYLE_BEGIN
 90
        3
 91
        2
300
_DATA
309
CELLSTYLE_END
  0
XRECORD
  5
3B0
102
{ACAD_REACTORS
330
2FE
102
}
330
2FE
100
AcDbXrecord
280
     1
102
ACAD_ROUNDTRIP_PRE2007_TABLESTYLE
 90
        4
 91
        0
  1

 92
        4
 93
        0
  2

 94
        4
 95
        0
  3

  0
XRECORD
  5
389
102
{ACAD_REACTORS
330
388
102
}
330
388
100
AcDbXrecord
280
     1
102
RTVSPost2010Prop28
280
     1
102
RTVSPost2010PropOp28
 70
     1
102
RTVSPost2010Prop29
280
     1
102
RTVSPost2010PropOp29
 70
     1
102
RTVSPost2010Prop30
280
     0
102
RTVSPost2010PropOp30
 70
     1
102
RTVSPost2010Prop31
280
     0
102
RTVSPost2010PropOp31
 70
     1
102
RTVSPost2010Prop32
280
     0
102
RTVSPost2010PropOp32
 70
     1
102
RTVSPost2010Prop33
280
     0
102
RTVSPost2010PropOp33
 70
     1
102
RTVSPost2010Prop34
280
     0
102
RTVSPost2010PropOp34
 70
     1
102
RTVSPost2010Prop35
280
     0
102
RTVSPost2010PropOp35
 70
     1
102
RTVSPost2010Prop36
280
     0
102
RTVSPost2010PropOp36
 70
     1
102
RTVSPost2010Prop37
 90
       50
102
RTVSPost2010PropOp37
 70
     1
102
RTVSPost2010Prop38
140
0.0
102
RTVSPost2010PropOp38
 70
     1
102
RTVSPost2010Prop39
140
1.0
102
RTVSPost2010PropOp39
 70
     1
102
RTVSPost2010Prop40
 90
        0
102
RTVSPost2010PropOp40
 70
     1
102
RTVSPost2010Prop41ColorIndex
 90
       18
102
RTVSPost2010Prop41ColorRGB
 90
        0
102
RTVSPost2010PropOp41
 70
     1
102
RTVSPost2010Prop42
 90
       50
102
RTVSPost2010PropOp42
 70
     1
102
RTVSPost2010Prop43
 90
        3
102
RTVSPost2010PropOp43
 70
     1
102
RTVSPost2010Prop44ColorIndex
 90
        5
102
RTVSPost2010Prop44ColorRGB
 90
      255
102
RTVSPost2010PropOp44
 70
     1
102
RTVSPost2010Prop45
280
     0
102
RTVSPost2010PropOp45
 70
     1
102
RTVSPost2010Prop46
 90
       50
102
RTVSPost2010PropOp46
 70
     1
102
RTVSPost2010Prop47
 90
       50
102
RTVSPost2010PropOp47
 70
     1
102
RTVSPost2010Prop48
 90
       50
102
RTVSPost2010PropOp48
 70
     1
102
RTVSPost2010Prop49
280
     0
102
RTVSPost2010PropOp49
 70
     1
102
RTVSPost2010Prop50
 90
       50
102
RTVSPost2010PropOp50
 70
     1
102
RTVSPost2010Prop51ColorIndex
 90
      256
102
RTVSPost2010Prop51ColorRGB
 90
-16777216
102
RTVSPost2010PropOp51
 70
     0
102
RTVSPost2010Prop52
140
1.0
102
RTVSPost2010PropOp52
 70
     0
102
RTVSPost2010Prop53
 90
        2
102
RTVSPost2010PropOp53
 70
     1
102
RTVSPost2010Prop54
  1
strokes_ogs.tif
102
RTVSPost2010PropOp54
 70
     1
102
RTVSPost2010Prop55
280
     0
102
RTVSPost2010PropOp55
 70
     1
102
RTVSPost2010Prop56
140
1.0
102
RTVSPost2010PropOp56
 70
     1
102
RTVSPost2010Prop57
140
1.0
102
RTVSPost2010PropOp57
 70
     1
102
RTVSPropertyOp0
 70
     1
102
RTVSPropertyOp1
 70
     1
102
RTVSPropertyOp2
 70
     1
102
RTVSPropertyOp3
 70
     1
102
RTVSPropertyOp4
 70
     1
102
RTVSPropertyOp5
 70
     1
102
RTVSPropertyOp6
 70
     1
102
RTVSPropertyOp7
 70
     1
102
RTVSPropertyOp8
 70
     1
102
RTVSPropertyOp9
 70
     1
102
RTVSPropertyOp10
 70
     1
102
RTVSPropertyOp11
 70
     1
102
RTVSPropertyOp12
 70
     1
102
RTVSPropertyOp13
 70
     1
102
RTVSPropertyOp14
 70
     1
102
RTVSPropertyOp15
 70
     1
102
RTVSPropertyOp16
 70
     1
102
RTVSPropertyOp17
 70
     1
102
RTVSPropertyOp18
 70
     1
102
RTVSPropertyOp19
 70
     1
102
RTVSPropertyOp20
 70
     1
102
RTVSPropertyOp21
 70
     1
102
RTVSPropertyOp22
 70
     1
102
RTVSPropertyOp23
 70
     1
102
RTVSPropertyOp24
 70
     1
102
RTVSPropertyOp25
 70
     1
102
RTVSPropertyOp26
 70
     1
102
RTVSPropertyOp27
 70
     1
102
RTVSPropertyOp28
 70
     1
102
RTVSPropertyOp29
 70
     1
102
RTVSPropertyOp30
 70
     1
102
RTVSPropertyOp31
 70
     1
102
RTVSPropertyOp32
 70
     1
102
RTVSPropertyOp33
 70
     1
102
RTVSPropertyOp34
 70
     1
102
RTVSPropertyOp35
 70
     1
102
RTVSPropertyOp36
 70
     1
102
RTVSPropertyOp37
 70
     1
102
RTVSPropertyOp38
 70
     1
102
RTVSPropertyOp39
 70
     1
102
RTVSPropertyOp40
 70
     1
102
RTVSPropertyOp41
 70
     1
102
RTVSPropertyOp42
 70
     1
102
RTVSPropertyOp43
 70
     1
102
RTVSPropertyOp44
 70
     1
102
RTVSPropertyOp45
 70
     1
102
RTVSPropertyOp46
 70
     1
102
RTVSPropertyOp47
 70
     1
102
RTVSPropertyOp48
 70
     1
102
RTVSPropertyOp49
 70
     1
102
RTVSPropertyOp50
 70
     1
102
RTVSPropertyOp51
 70
     0
102
RTVSPropertyOp52
 70
     0
102
RTVSPropertyOp53
 70
     1
102
RTVSPropertyOp54
 70
     1
102
RTVSPropertyOp55
 70
     1
102
RTVSPropertyOp56
 70
     1
102
RTVSPropertyOp57
 70
     1
102
RTVSPropertyOp58
 70
     1
102
RTVSPropertyOp59
 70
     1
102
RTVSPropertyOp60
 70
     1
102
RTVSPropertyOp61
 70
     1
102
RTVSPropertyOp62
 70
     1
  0
XRECORD
  5
38F
102
{ACAD_REACTORS
330
38E
102
}
330
38E
100
AcDbXrecord
280
     1
102
RTVSPost2010Prop28
280
     0
102
RTVSPost2010PropOp28
 70
     1
102
RTVSPost2010Prop29
280
     1
102
RTVSPost2010PropOp29
 70
     1
102
RTVSPost2010Prop30
280
     1
102
RTVSPost2010PropOp30
 70
     1
102
RTVSPost2010Prop31
280
     0
102
RTVSPost2010PropOp31
 70
     1
102
RTVSPost2010Prop32
280
     0
102
RTVSPost2010PropOp32
 70
     1
102
RTVSPost2010Prop33
280
     0
102
RTVSPost2010PropOp33
 70
     1
102
RTVSPost2010Prop34
280
     0
102
RTVSPost2010PropOp34
 70
     1
102
RTVSPost2010Prop35
280
     0
102
RTVSPost2010PropOp35
 70
     1
102
RTVSPost2010Prop36
280
     0
102
RTVSPost2010PropOp36
 70
     1
102
RTVSPost2010Prop37
 90
       50
102
RTVSPost2010PropOp37
 70
     1
102
RTVSPost2010Prop38
140
0.0
102
RTVSPost2010PropOp38
 70
     1
102
RTVSPost2010Prop39
140
1.0
102
RTVSPost2010PropOp39
 70
     1
102
RTVSPost2010Prop40
 90
        0
102
RTVSPost2010PropOp40
 70
     1
102
RTVSPost2010Prop41ColorIndex
 90
       18
102
RTVSPost2010Prop41ColorRGB
 90
        0
102
RTVSPost2010PropOp41
 70
     1
102
RTVSPost2010Prop42
 90
       50
102
RTVSPost2010PropOp42
 70
     1
102
RTVSPost2010Prop43
 90
        3
102
RTVSPost2010PropOp43
 70
     1
102
RTVSPost2010Prop44ColorIndex
 90
        5
102
RTVSPost2010Prop44ColorRGB
 90
      255
102
RTVSPost2010PropOp44
 70
     1
102
RTVSPost2010Prop45
280
     0
102
RTVSPost2010PropOp45
 70
     1
102
RTVSPost2010Prop46
 90
       50
102
RTVSPost2010PropOp46
 70
     1
102
RTVSPost2010Prop47
 90
       50
102
RTVSPost2010PropOp47
 70
     1
102
RTVSPost2010Prop48
 90
       50
102
RTVSPost2010PropOp48
 70
     1
102
RTVSPost2010Prop49
280
     0
102
RTVSPost2010PropOp49
 70
     1
102
RTVSPost2010Prop50
 90
       50
102
RTVSPost2010PropOp50
 70
     1
102
RTVSPost2010Prop51ColorIndex
 90
      256
102
RTVSPost2010Prop51ColorRGB
 90
-16777216
102
RTVSPost2010PropOp51
 70
     0
102
RTVSPost2010Prop52
140
1.0
102
RTVSPost2010PropOp52
 70
     0
102
RTVSPost2010Prop53
 90
        2
102
RTVSPost2010PropOp53
 70
     1
102
RTVSPost2010Prop54
  1
strokes_ogs.tif
102
RTVSPost2010PropOp54
 70
     1
102
RTVSPost2010Prop55
280
     0
102
RTVSPost2010PropOp55
 70
     1
102
RTVSPost2010Prop56
140
1.0
102
RTVSPost2010PropOp56
 70
     1
102
RTVSPost2010Prop57
140
1.0
102
RTVSPost2010PropOp57
 70
     1
102
RTVSPropertyOp0
 70
     1
102
RTVSPropertyOp1
 70
     1
102
RTVSPropertyOp2
 70
     1
102
RTVSPropertyOp3
 70
     1
102
RTVSPropertyOp4
 70
     1
102
RTVSPropertyOp5
 70
     1
102
RTVSPropertyOp6
 70
     1
102
RTVSPropertyOp7
 70
     1
102
RTVSPropertyOp8
 70
     1
102
RTVSPropertyOp9
 70
     1
102
RTVSPropertyOp10
 70
     1
102
RTVSPropertyOp11
 70
     1
102
RTVSPropertyOp12
 70
     1
102
RTVSPropertyOp13
 70
     1
102
RTVSPropertyOp14
 70
     1
102
RTVSPropertyOp15
 70
     1
102
RTVSPropertyOp16
 70
     1
102
RTVSPropertyOp17
 70
     1
102
RTVSPropertyOp18
 70
     1
102
RTVSPropertyOp19
 70
     1
102
RTVSPropertyOp20
 70
     1
102
RTVSPropertyOp21
 70
     1
102
RTVSPropertyOp22
 70
     1
102
RTVSPropertyOp23
 70
     1
102
RTVSPropertyOp24
 70
     1
102
RTVSPropertyOp25
 70
     1
102
RTVSPropertyOp26
 70
     1
102
RTVSPropertyOp27
 70
     1
102
RTVSPropertyOp28
 70
     1
102
RTVSPropertyOp29
 70
     1
102
RTVSPropertyOp30
 70
     1
102
RTVSPropertyOp31
 70
     1
102
RTVSPropertyOp32
 70
     1
102
RTVSPropertyOp33
 70
     1
102
RTVSPropertyOp34
 70
     1
102
RTVSPropertyOp35
 70
     1
102
RTVSPropertyOp36
 70
     1
102
RTVSPropertyOp37
 70
     1
102
RTVSPropertyOp38
 70
     1
102
RTVSPropertyOp39
 70
     1
102
RTVSPropertyOp40
 70
     1
102
RTVSPropertyOp41
 70
     1
102
RTVSPropertyOp42
 70
     1
102
RTVSPropertyOp43
 70
     1
102
RTVSPropertyOp44
 70
     1
102
RTVSPropertyOp45
 70
     1
102
RTVSPropertyOp46
 70
     1
102
RTVSPropertyOp47
 70
     1
102
RTVSPropertyOp48
 70
     1
102
RTVSPropertyOp49
 70
     1
102
RTVSPropertyOp50
 70
     1
102
RTVSPropertyOp51
 70
     0
102
RTVSPropertyOp52
 70
     0
102
RTVSPropertyOp53
 70
     1
102
RTVSPropertyOp54
 70
     1
102
RTVSPropertyOp55
 70
     1
102
RTVSPropertyOp56
 70
     1
102
RTVSPropertyOp57
 70
     1
102
RTVSPropertyOp58
 70
     1
102
RTVSPropertyOp59
 70
     1
102
RTVSPropertyOp60
 70
     1
102
RTVSPropertyOp61
 70
     1
102
RTVSPropertyOp62
 70
     1
  0
XRECORD
  5
397
102
{ACAD_REACTORS
330
396
102
}
330
396
100
AcDbXrecord
280
     1
102
RTVSPost2010Prop28
280
     0
102
RTVSPost2010PropOp28
 70
     1
102
RTVSPost2010Prop29
280
     1
102
RTVSPost2010PropOp29
 70
     1
102
RTVSPost2010Prop30
280
     1
102
RTVSPost2010PropOp30
 70
     1
102
RTVSPost2010Prop31
280
     0
102
RTVSPost2010PropOp31
 70
     1
102
RTVSPost2010Prop32
280
     0
102
RTVSPost2010PropOp32
 70
     1
102
RTVSPost2010Prop33
280
     0
102
RTVSPost2010PropOp33
 70
     1
102
RTVSPost2010Prop34
280
     0
102
RTVSPost2010PropOp34
 70
     1
102
RTVSPost2010Prop35
280
     0
102
RTVSPost2010PropOp35
 70
     1
102
RTVSPost2010Prop36
280
     0
102
RTVSPost2010PropOp36
 70
     1
102
RTVSPost2010Prop37
 90
       50
102
RTVSPost2010PropOp37
 70
     1
102
RTVSPost2010Prop38
140
0.0
102
RTVSPost2010PropOp38
 70
     1
102
RTVSPost2010Prop39
140
1.0
102
RTVSPost2010PropOp39
 70
     1
102
RTVSPost2010Prop40
 90
        0
102
RTVSPost2010PropOp40
 70
     1
102
RTVSPost2010Prop41ColorIndex
 90
       18
102
RTVSPost2010Prop41ColorRGB
 90
        0
102
RTVSPost2010PropOp41
 70
     1
102
RTVSPost2010Prop42
 90
       50
102
RTVSPost2010PropOp42
 70
     1
102
RTVSPost2010Prop43
 90
        3
102
RTVSPost2010PropOp43
 70
     1
102
RTVSPost2010Prop44ColorIndex
 90
        5
102
RTVSPost2010Prop44ColorRGB
 90
      255
102
RTVSPost2010PropOp44
 70
     1
102
RTVSPost2010Prop45
280
     0
102
RTVSPost2010PropOp45
 70
     1
102
RTVSPost2010Prop46
 90
       50
102
RTVSPost2010PropOp46
 70
     1
102
RTVSPost2010Prop47
 90
       50
102
RTVSPost2010PropOp47
 70
     1
102
RTVSPost2010Prop48
 90
       50
102
RTVSPost2010PropOp48
 70
     1
102
RTVSPost2010Prop49
280
     0
102
RTVSPost2010PropOp49
 70
     1
102
RTVSPost2010Prop50
 90
       50
102
RTVSPost2010PropOp50
 70
     1
102
RTVSPost2010Prop51ColorIndex
 90
      256
102
RTVSPost2010Prop51ColorRGB
 90
-16777216
102
RTVSPost2010PropOp51
 70
     0
102
RTVSPost2010Prop52
140
1.0
102
RTVSPost2010PropOp52
 70
     0
102
RTVSPost2010Prop53
 90
        2
102
RTVSPost2010PropOp53
 70
     1
102
RTVSPost2010Prop54
  1
strokes_ogs.tif
102
RTVSPost2010PropOp54
 70
     1
102
RTVSPost2010Prop55
280
     0
102
RTVSPost2010PropOp55
 70
     1
102
RTVSPost2010Prop56
140
1.0
102
RTVSPost2010PropOp56
 70
     1
102
RTVSPost2010Prop57
140
1.0
102
RTVSPost2010PropOp57
 70
     1
102
RTVSPropertyOp0
 70
     1
102
RTVSPropertyOp1
 70
     1
102
RTVSPropertyOp2
 70
     1
102
RTVSPropertyOp3
 70
     1
102
RTVSPropertyOp4
 70
     1
102
RTVSPropertyOp5
 70
     1
102
RTVSPropertyOp6
 70
     1
102
RTVSPropertyOp7
 70
     1
102
RTVSPropertyOp8
 70
     1
102
RTVSPropertyOp9
 70
     1
102
RTVSPropertyOp10
 70
     1
102
RTVSPropertyOp11
 70
     1
102
RTVSPropertyOp12
 70
     1
102
RTVSPropertyOp13
 70
     1
102
RTVSPropertyOp14
 70
     1
102
RTVSPropertyOp15
 70
     1
102
RTVSPropertyOp16
 70
     1
102
RTVSPropertyOp17
 70
     1
102
RTVSPropertyOp18
 70
     1
102
RTVSPropertyOp19
 70
     1
102
RTVSPropertyOp20
 70
     1
102
RTVSPropertyOp21
 70
     1
102
RTVSPropertyOp22
 70
     1
102
RTVSPropertyOp23
 70
     1
102
RTVSPropertyOp24
 70
     1
102
RTVSPropertyOp25
 70
     1
102
RTVSPropertyOp26
 70
     1
102
RTVSPropertyOp27
 70
     1
102
RTVSPropertyOp28
 70
     1
102
RTVSPropertyOp29
 70
     1
102
RTVSPropertyOp30
 70
     1
102
RTVSPropertyOp31
 70
     1
102
RTVSPropertyOp32
 70
     1
102
RTVSPropertyOp33
 70
     1
102
RTVSPropertyOp34
 70
     1
102
RTVSPropertyOp35
 70
     1
102
RTVSPropertyOp36
 70
     1
102
RTVSPropertyOp37
 70
     1
102
RTVSPropertyOp38
 70
     1
102
RTVSPropertyOp39
 70
     1
102
RTVSPropertyOp40
 70
     1
102
RTVSPropertyOp41
 70
     1
102
RTVSPropertyOp42
 70
     1
102
RTVSPropertyOp43
 70
     1
102
RTVSPropertyOp44
 70
     1
102
RTVSPropertyOp45
 70
     1
102
RTVSPropertyOp46
 70
     1
102
RTVSPropertyOp47
 70
     1
102
RTVSPropertyOp48
 70
     1
102
RTVSPropertyOp49
 70
     1
102
RTVSPropertyOp50
 70
     1
102
RTVSPropertyOp51
 70
     0
102
RTVSPropertyOp52
 70
     0
102
RTVSPropertyOp53
 70
     1
102
RTVSPropertyOp54
 70
     1
102
RTVSPropertyOp55
 70
     1
102
RTVSPropertyOp56
 70
     1
102
RTVSPropertyOp57
 70
     1
102
RTVSPropertyOp58
 70
     1
102
RTVSPropertyOp59
 70
     1
102
RTVSPropertyOp60
 70
     1
102
RTVSPropertyOp61
 70
     1
102
RTVSPropertyOp62
 70
     1
  0
XRECORD
  5
39F
102
{ACAD_REACTORS
330
39E
102
}
330
39E
100
AcDbXrecord
280
     1
102
RTVSPost2010Prop28
280
     0
102
RTVSPost2010PropOp28
 70
     1
102
RTVSPost2010Prop29
280
     1
102
RTVSPost2010PropOp29
 70
     1
102
RTVSPost2010Prop30
280
     1
102
RTVSPost2010PropOp30
 70
     1
102
RTVSPost2010Prop31
280
     0
102
RTVSPost2010PropOp31
 70
     1
102
RTVSPost2010Prop32
280
     0
102
RTVSPost2010PropOp32
 70
     1
102
RTVSPost2010Prop33
280
     0
102
RTVSPost2010PropOp33
 70
     1
102
RTVSPost2010Prop34
280
     0
102
RTVSPost2010PropOp34
 70
     1
102
RTVSPost2010Prop35
280
     0
102
RTVSPost2010PropOp35
 70
     1
102
RTVSPost2010Prop36
280
     0
102
RTVSPost2010PropOp36
 70
     1
102
RTVSPost2010Prop37
 90
       50
102
RTVSPost2010PropOp37
 70
     1
102
RTVSPost2010Prop38
140
0.0
102
RTVSPost2010PropOp38
 70
     1
102
RTVSPost2010Prop39
140
1.0
102
RTVSPost2010PropOp39
 70
     1
102
RTVSPost2010Prop40
 90
        0
102
RTVSPost2010PropOp40
 70
     1
102
RTVSPost2010Prop41ColorIndex
 90
       18
102
RTVSPost2010Prop41ColorRGB
 90
        0
102
RTVSPost2010PropOp41
 70
     1
102
RTVSPost2010Prop42
 90
       50
102
RTVSPost2010PropOp42
 70
     1
102
RTVSPost2010Prop43
 90
        3
102
RTVSPost2010PropOp43
 70
     1
102
RTVSPost2010Prop44ColorIndex
 90
        5
102
RTVSPost2010Prop44ColorRGB
 90
      255
102
RTVSPost2010PropOp44
 70
     1
102
RTVSPost2010Prop45
280
     0
102
RTVSPost2010PropOp45
 70
     1
102
RTVSPost2010Prop46
 90
       50
102
RTVSPost2010PropOp46
 70
     1
102
RTVSPost2010Prop47
 90
       50
102
RTVSPost2010PropOp47
 70
     1
102
RTVSPost2010Prop48
 90
       50
102
RTVSPost2010PropOp48
 70
     1
102
RTVSPost2010Prop49
280
     0
102
RTVSPost2010PropOp49
 70
     1
102
RTVSPost2010Prop50
 90
       50
102
RTVSPost2010PropOp50
 70
     1
102
RTVSPost2010Prop51ColorIndex
 90
      256
102
RTVSPost2010Prop51ColorRGB
 90
-16777216
102
RTVSPost2010PropOp51
 70
     0
102
RTVSPost2010Prop52
140
1.0
102
RTVSPost2010PropOp52
 70
     0
102
RTVSPost2010Prop53
 90
        2
102
RTVSPost2010PropOp53
 70
     1
102
RTVSPost2010Prop54
  1
strokes_ogs.tif
102
RTVSPost2010PropOp54
 70
     1
102
RTVSPost2010Prop55
280
     0
102
RTVSPost2010PropOp55
 70
     1
102
RTVSPost2010Prop56
140
1.0
102
RTVSPost2010PropOp56
 70
     1
102
RTVSPost2010Prop57
140
1.0
102
RTVSPost2010PropOp57
 70
     1
102
RTVSPropertyOp0
 70
     1
102
RTVSPropertyOp1
 70
     1
102
RTVSPropertyOp2
 70
     1
102
RTVSPropertyOp3
 70
     1
102
RTVSPropertyOp4
 70
     1
102
RTVSPropertyOp5
 70
     1
102
RTVSPropertyOp6
 70
     1
102
RTVSPropertyOp7
 70
     1
102
RTVSPropertyOp8
 70
     1
102
RTVSPropertyOp9
 70
     1
102
RTVSPropertyOp10
 70
     1
102
RTVSPropertyOp11
 70
     1
102
RTVSPropertyOp12
 70
     1
102
RTVSPropertyOp13
 70
     1
102
RTVSPropertyOp14
 70
     1
102
RTVSPropertyOp15
 70
     1
102
RTVSPropertyOp16
 70
     1
102
RTVSPropertyOp17
 70
     1
102
RTVSPropertyOp18
 70
     1
102
RTVSPropertyOp19
 70
     1
102
RTVSPropertyOp20
 70
     1
102
RTVSPropertyOp21
 70
     1
102
RTVSPropertyOp22
 70
     1
102
RTVSPropertyOp23
 70
     1
102
RTVSPropertyOp24
 70
     1
102
RTVSPropertyOp25
 70
     1
102
RTVSPropertyOp26
 70
     1
102
RTVSPropertyOp27
 70
     1
102
RTVSPropertyOp28
 70
     1
102
RTVSPropertyOp29
 70
     1
102
RTVSPropertyOp30
 70
     1
102
RTVSPropertyOp31
 70
     1
102
RTVSPropertyOp32
 70
     1
102
RTVSPropertyOp33
 70
     1
102
RTVSPropertyOp34
 70
     1
102
RTVSPropertyOp35
 70
     1
102
RTVSPropertyOp36
 70
     1
102
RTVSPropertyOp37
 70
     1
102
RTVSPropertyOp38
 70
     1
102
RTVSPropertyOp39
 70
     1
102
RTVSPropertyOp40
 70
     1
102
RTVSPropertyOp41
 70
     1
102
RTVSPropertyOp42
 70
     1
102
RTVSPropertyOp43
 70
     1
102
RTVSPropertyOp44
 70
     1
102
RTVSPropertyOp45
 70
     1
102
RTVSPropertyOp46
 70
     1
102
RTVSPropertyOp47
 70
     1
102
RTVSPropertyOp48
 70
     1
102
RTVSPropertyOp49
 70
     1
102
RTVSPropertyOp50
 70
     1
102
RTVSPropertyOp51
 70
     0
102
RTVSPropertyOp52
 70
     0
102
RTVSPropertyOp53
 70
     1
102
RTVSPropertyOp54
 70
     1
102
RTVSPropertyOp55
 70
     1
102
RTVSPropertyOp56
 70
     1
102
RTVSPropertyOp57
 70
     1
102
RTVSPropertyOp58
 70
     1
102
RTVSPropertyOp59
 70
     1
102
RTVSPropertyOp60
 70
     1
102
RTVSPropertyOp61
 70
     1
102
RTVSPropertyOp62
 70
     1
  0
XRECORD
  5
393
102
{ACAD_REACTORS
330
392
102
}
330
392
100
AcDbXrecord
280
     1
102
RTVSPost2010Prop28
280
     0
102
RTVSPost2010PropOp28
 70
     1
102
RTVSPost2010Prop29
280
     1
102
RTVSPost2010PropOp29
 70
     1
102
RTVSPost2010Prop30
280
     1
102
RTVSPost2010PropOp30
 70
     1
102
RTVSPost2010Prop31
280
     0
102
RTVSPost2010PropOp31
 70
     1
102
RTVSPost2010Prop32
280
     0
102
RTVSPost2010PropOp32
 70
     1
102
RTVSPost2010Prop33
280
     0
102
RTVSPost2010PropOp33
 70
     1
102
RTVSPost2010Prop34
280
     0
102
RTVSPost2010PropOp34
 70
     1
102
RTVSPost2010Prop35
280
     0
102
RTVSPost2010PropOp35
 70
     1
102
RTVSPost2010Prop36
280
     0
102
RTVSPost2010PropOp36
 70
     1
102
RTVSPost2010Prop37
 90
       50
102
RTVSPost2010PropOp37
 70
     1
102
RTVSPost2010Prop38
140
0.0
102
RTVSPost2010PropOp38
 70
     1
102
RTVSPost2010Prop39
140
1.0
102
RTVSPost2010PropOp39
 70
     1
102
RTVSPost2010Prop40
 90
        0
102
RTVSPost2010PropOp40
 70
     1
102
RTVSPost2010Prop41ColorIndex
 90
       18
102
RTVSPost2010Prop41ColorRGB
 90
        0
102
RTVSPost2010PropOp41
 70
     1
102
RTVSPost2010Prop42
 90
       50
102
RTVSPost2010PropOp42
 70
     1
102
RTVSPost2010Prop43
 90
        3
102
RTVSPost2010PropOp43
 70
     1
102
RTVSPost2010Prop44ColorIndex
 90
        5
102
RTVSPost2010Prop44ColorRGB
 90
      255
102
RTVSPost2010PropOp44
 70
     1
102
RTVSPost2010Prop45
280
     0
102
RTVSPost2010PropOp45
 70
     1
102
RTVSPost2010Prop46
 90
       50
102
RTVSPost2010PropOp46
 70
     1
102
RTVSPost2010Prop47
 90
       50
102
RTVSPost2010PropOp47
 70
     1
102
RTVSPost2010Prop48
 90
       50
102
RTVSPost2010PropOp48
 70
     1
102
RTVSPost2010Prop49
280
     0
102
RTVSPost2010PropOp49
 70
     1
102
RTVSPost2010Prop50
 90
       50
102
RTVSPost2010PropOp50
 70
     1
102
RTVSPost2010Prop51ColorIndex
 90
      256
102
RTVSPost2010Prop51ColorRGB
 90
-16777216
102
RTVSPost2010PropOp51
 70
     0
102
RTVSPost2010Prop52
140
1.0
102
RTVSPost2010PropOp52
 70
     0
102
RTVSPost2010Prop53
 90
        2
102
RTVSPost2010PropOp53
 70
     1
102
RTVSPost2010Prop54
  1
strokes_ogs.tif
102
RTVSPost2010PropOp54
 70
     1
102
RTVSPost2010Prop55
280
     0
102
RTVSPost2010PropOp55
 70
     1
102
RTVSPost2010Prop56
140
1.0
102
RTVSPost2010PropOp56
 70
     1
102
RTVSPost2010Prop57
140
1.0
102
RTVSPost2010PropOp57
 70
     1
102
RTVSPropertyOp0
 70
     1
102
RTVSPropertyOp1
 70
     1
102
RTVSPropertyOp2
 70
     1
102
RTVSPropertyOp3
 70
     1
102
RTVSPropertyOp4
 70
     1
102
RTVSPropertyOp5
 70
     1
102
RTVSPropertyOp6
 70
     1
102
RTVSPropertyOp7
 70
     1
102
RTVSPropertyOp8
 70
     1
102
RTVSPropertyOp9
 70
     1
102
RTVSPropertyOp10
 70
     1
102
RTVSPropertyOp11
 70
     1
102
RTVSPropertyOp12
 70
     1
102
RTVSPropertyOp13
 70
     1
102
RTVSPropertyOp14
 70
     1
102
RTVSPropertyOp15
 70
     1
102
RTVSPropertyOp16
 70
     1
102
RTVSPropertyOp17
 70
     1
102
RTVSPropertyOp18
 70
     1
102
RTVSPropertyOp19
 70
     1
102
RTVSPropertyOp20
 70
     1
102
RTVSPropertyOp21
 70
     1
102
RTVSPropertyOp22
 70
     1
102
RTVSPropertyOp23
 70
     1
102
RTVSPropertyOp24
 70
     1
102
RTVSPropertyOp25
 70
     1
102
RTVSPropertyOp26
 70
     1
102
RTVSPropertyOp27
 70
     1
102
RTVSPropertyOp28
 70
     1
102
RTVSPropertyOp29
 70
     1
102
RTVSPropertyOp30
 70
     1
102
RTVSPropertyOp31
 70
     1
102
RTVSPropertyOp32
 70
     1
102
RTVSPropertyOp33
 70
     1
102
RTVSPropertyOp34
 70
     1
102
RTVSPropertyOp35
 70
     1
102
RTVSPropertyOp36
 70
     1
102
RTVSPropertyOp37
 70
     1
102
RTVSPropertyOp38
 70
     1
102
RTVSPropertyOp39
 70
     1
102
RTVSPropertyOp40
 70
     1
102
RTVSPropertyOp41
 70
     1
102
RTVSPropertyOp42
 70
     1
102
RTVSPropertyOp43
 70
     1
102
RTVSPropertyOp44
 70
     1
102
RTVSPropertyOp45
 70
     1
102
RTVSPropertyOp46
 70
     1
102
RTVSPropertyOp47
 70
     1
102
RTVSPropertyOp48
 70
     1
102
RTVSPropertyOp49
 70
     1
102
RTVSPropertyOp50
 70
     1
102
RTVSPropertyOp51
 70
     0
102
RTVSPropertyOp52
 70
     0
102
RTVSPropertyOp53
 70
     1
102
RTVSPropertyOp54
 70
     1
102
RTVSPropertyOp55
 70
     1
102
RTVSPropertyOp56
 70
     1
102
RTVSPropertyOp57
 70
     1
102
RTVSPropertyOp58
 70
     1
102
RTVSPropertyOp59
 70
     1
102
RTVSPropertyOp60
 70
     1
102
RTVSPropertyOp61
 70
     1
102
RTVSPropertyOp62
 70
     1
  0
XRECORD
  5
395
102
{ACAD_REACTORS
330
394
102
}
330
394
100
AcDbXrecord
280
     1
102
RTVSPost2010Prop28
280
     0
102
RTVSPost2010PropOp28
 70
     1
102
RTVSPost2010Prop29
280
     1
102
RTVSPost2010PropOp29
 70
     1
102
RTVSPost2010Prop30
280
     1
102
RTVSPost2010PropOp30
 70
     1
102
RTVSPost2010Prop31
280
     0
102
RTVSPost2010PropOp31
 70
     1
102
RTVSPost2010Prop32
280
     0
102
RTVSPost2010PropOp32
 70
     1
102
RTVSPost2010Prop33
280
     0
102
RTVSPost2010PropOp33
 70
     1
102
RTVSPost2010Prop34
280
     0
102
RTVSPost2010PropOp34
 70
     1
102
RTVSPost2010Prop35
280
     0
102
RTVSPost2010PropOp35
 70
     1
102
RTVSPost2010Prop36
280
     0
102
RTVSPost2010PropOp36
 70
     1
102
RTVSPost2010Prop37
 90
       50
102
RTVSPost2010PropOp37
 70
     1
102
RTVSPost2010Prop38
140
0.0
102
RTVSPost2010PropOp38
 70
     1
102
RTVSPost2010Prop39
140
1.0
102
RTVSPost2010PropOp39
 70
     1
102
RTVSPost2010Prop40
 90
        0
102
RTVSPost2010PropOp40
 70
     1
102
RTVSPost2010Prop41ColorIndex
 90
       18
102
RTVSPost2010Prop41ColorRGB
 90
        0
102
RTVSPost2010PropOp41
 70
     1
102
RTVSPost2010Prop42
 90
       50
102
RTVSPost2010PropOp42
 70
     1
102
RTVSPost2010Prop43
 90
        3
102
RTVSPost2010PropOp43
 70
     1
102
RTVSPost2010Prop44ColorIndex
 90
        5
102
RTVSPost2010Prop44ColorRGB
 90
      255
102
RTVSPost2010PropOp44
 70
     1
102
RTVSPost2010Prop45
280
     0
102
RTVSPost2010PropOp45
 70
     1
102
RTVSPost2010Prop46
 90
       50
102
RTVSPost2010PropOp46
 70
     1
102
RTVSPost2010Prop47
 90
       50
102
RTVSPost2010PropOp47
 70
     1
102
RTVSPost2010Prop48
 90
       50
102
RTVSPost2010PropOp48
 70
     1
102
RTVSPost2010Prop49
280
     0
102
RTVSPost2010PropOp49
 70
     1
102
RTVSPost2010Prop50
 90
       50
102
RTVSPost2010PropOp50
 70
     1
102
RTVSPost2010Prop51ColorIndex
 90
      256
102
RTVSPost2010Prop51ColorRGB
 90
-16777216
102
RTVSPost2010PropOp51
 70
     0
102
RTVSPost2010Prop52
140
1.0
102
RTVSPost2010PropOp52
 70
     0
102
RTVSPost2010Prop53
 90
        2
102
RTVSPost2010PropOp53
 70
     1
102
RTVSPost2010Prop54
  1
strokes_ogs.tif
102
RTVSPost2010PropOp54
 70
     1
102
RTVSPost2010Prop55
280
     0
102
RTVSPost2010PropOp55
 70
     1
102
RTVSPost2010Prop56
140
1.0
102
RTVSPost2010PropOp56
 70
     1
102
RTVSPost2010Prop57
140
1.0
102
RTVSPost2010PropOp57
 70
     1
102
RTVSPropertyOp0
 70
     1
102
RTVSPropertyOp1
 70
     1
102
RTVSPropertyOp2
 70
     1
102
RTVSPropertyOp3
 70
     1
102
RTVSPropertyOp4
 70
     1
102
RTVSPropertyOp5
 70
     1
102
RTVSPropertyOp6
 70
     1
102
RTVSPropertyOp7
 70
     1
102
RTVSPropertyOp8
 70
     1
102
RTVSPropertyOp9
 70
     1
102
RTVSPropertyOp10
 70
     1
102
RTVSPropertyOp11
 70
     1
102
RTVSPropertyOp12
 70
     1
102
RTVSPropertyOp13
 70
     1
102
RTVSPropertyOp14
 70
     1
102
RTVSPropertyOp15
 70
     1
102
RTVSPropertyOp16
 70
     1
102
RTVSPropertyOp17
 70
     1
102
RTVSPropertyOp18
 70
     1
102
RTVSPropertyOp19
 70
     1
102
RTVSPropertyOp20
 70
     1
102
RTVSPropertyOp21
 70
     1
102
RTVSPropertyOp22
 70
     1
102
RTVSPropertyOp23
 70
     1
102
RTVSPropertyOp24
 70
     1
102
RTVSPropertyOp25
 70
     1
102
RTVSPropertyOp26
 70
     1
102
RTVSPropertyOp27
 70
     1
102
RTVSPropertyOp28
 70
     1
102
RTVSPropertyOp29
 70
     1
102
RTVSPropertyOp30
 70
     1
102
RTVSPropertyOp31
 70
     1
102
RTVSPropertyOp32
 70
     1
102
RTVSPropertyOp33
 70
     1
102
RTVSPropertyOp34
 70
     1
102
RTVSPropertyOp35
 70
     1
102
RTVSPropertyOp36
 70
     1
102
RTVSPropertyOp37
 70
     1
102
RTVSPropertyOp38
 70
     1
102
RTVSPropertyOp39
 70
     1
102
RTVSPropertyOp40
 70
     1
102
RTVSPropertyOp41
 70
     1
102
RTVSPropertyOp42
 70
     1
102
RTVSPropertyOp43
 70
     1
102
RTVSPropertyOp44
 70
     1
102
RTVSPropertyOp45
 70
     1
102
RTVSPropertyOp46
 70
     1
102
RTVSPropertyOp47
 70
     1
102
RTVSPropertyOp48
 70
     1
102
RTVSPropertyOp49
 70
     1
102
RTVSPropertyOp50
 70
     1
102
RTVSPropertyOp51
 70
     0
102
RTVSPropertyOp52
 70
     0
102
RTVSPropertyOp53
 70
     1
102
RTVSPropertyOp54
 70
     1
102
RTVSPropertyOp55
 70
     1
102
RTVSPropertyOp56
 70
     1
102
RTVSPropertyOp57
 70
     1
102
RTVSPropertyOp58
 70
     1
102
RTVSPropertyOp59
 70
     1
102
RTVSPropertyOp60
 70
     1
102
RTVSPropertyOp61
 70
     1
102
RTVSPropertyOp62
 70
     1
  0
XRECORD
  5
3A5
102
{ACAD_REACTORS
330
3A4
102
}
330
3A4
100
AcDbXrecord
280
     1
102
RTVSPost2010Prop28
280
     0
102
RTVSPost2010PropOp28
 70
     0
102
RTVSPost2010Prop29
280
     1
102
RTVSPost2010PropOp29
 70
     0
102
RTVSPost2010Prop30
280
     1
102
RTVSPost2010PropOp30
 70
     0
102
RTVSPost2010Prop31
280
     0
102
RTVSPost2010PropOp31
 70
     0
102
RTVSPost2010Prop32
280
     0
102
RTVSPost2010PropOp32
 70
     0
102
RTVSPost2010Prop33
280
     0
102
RTVSPost2010PropOp33
 70
     0
102
RTVSPost2010Prop34
280
     0
102
RTVSPost2010PropOp34
 70
     0
102
RTVSPost2010Prop35
280
     0
102
RTVSPost2010PropOp35
 70
     0
102
RTVSPost2010Prop36
280
     0
102
RTVSPost2010PropOp36
 70
     0
102
RTVSPost2010Prop37
 90
       50
102
RTVSPost2010PropOp37
 70
     0
102
RTVSPost2010Prop38
140
0.0
102
RTVSPost2010PropOp38
 70
     0
102
RTVSPost2010Prop39
140
1.0
102
RTVSPost2010PropOp39
 70
     0
102
RTVSPost2010Prop40
 90
        0
102
RTVSPost2010PropOp40
 70
     0
102
RTVSPost2010Prop41ColorIndex
 90
       18
102
RTVSPost2010Prop41ColorRGB
 90
        0
102
RTVSPost2010PropOp41
 70
     0
102
RTVSPost2010Prop42
 90
       50
102
RTVSPost2010PropOp42
 70
     0
102
RTVSPost2010Prop43
 90
        3
102
RTVSPost2010PropOp43
 70
     0
102
RTVSPost2010Prop44ColorIndex
 90
        5
102
RTVSPost2010Prop44ColorRGB
 90
      255
102
RTVSPost2010PropOp44
 70
     0
102
RTVSPost2010Prop45
280
     0
102
RTVSPost2010PropOp45
 70
     0
102
RTVSPost2010Prop46
 90
       50
102
RTVSPost2010PropOp46
 70
     0
102
RTVSPost2010Prop47
 90
       50
102
RTVSPost2010PropOp47
 70
     0
102
RTVSPost2010Prop48
 90
       50
102
RTVSPost2010PropOp48
 70
     0
102
RTVSPost2010Prop49
280
     0
102
RTVSPost2010PropOp49
 70
     0
102
RTVSPost2010Prop50
 90
       50
102
RTVSPost2010PropOp50
 70
     0
102
RTVSPost2010Prop51ColorIndex
 90
      256
102
RTVSPost2010Prop51ColorRGB
 90
-16777216
102
RTVSPost2010PropOp51
 70
     0
102
RTVSPost2010Prop52
140
1.0
102
RTVSPost2010PropOp52
 70
     0
102
RTVSPost2010Prop53
 90
        2
102
RTVSPost2010PropOp53
 70
     0
102
RTVSPost2010Prop54
  1
strokes_ogs.tif
102
RTVSPost2010PropOp54
 70
     0
102
RTVSPost2010Prop55
280
     0
102
RTVSPost2010PropOp55
 70
     0
102
RTVSPost2010Prop56
140
1.0
102
RTVSPost2010PropOp56
 70
     0
102
RTVSPost2010Prop57
140
1.0
102
RTVSPost2010PropOp57
 70
     0
102
RTVSPropertyOp0
 70
     0
102
RTVSPropertyOp1
 70
     0
102
RTVSPropertyOp2
 70
     0
102
RTVSPropertyOp3
 70
     0
102
RTVSPropertyOp4
 70
     0
102
RTVSPropertyOp5
 70
     0
102
RTVSPropertyOp6
 70
     0
102
RTVSPropertyOp7
 70
     0
102
RTVSPropertyOp8
 70
     0
102
RTVSPropertyOp9
 70
     0
102
RTVSPropertyOp10
 70
     0
102
RTVSPropertyOp11
 70
     0
102
RTVSPropertyOp12
 70
     0
102
RTVSPropertyOp13
 70
     0
102
RTVSPropertyOp14
 70
     2
102
RTVSPropertyOp15
 70
     0
102
RTVSPropertyOp16
 70
     0
102
RTVSPropertyOp17
 70
     0
102
RTVSPropertyOp18
 70
     0
102
RTVSPropertyOp19
 70
     0
102
RTVSPropertyOp20
 70
     0
102
RTVSPropertyOp21
 70
     0
102
RTVSPropertyOp22
 70
     0
102
RTVSPropertyOp23
 70
     0
102
RTVSPropertyOp24
 70
     0
102
RTVSPropertyOp25
 70
     0
102
RTVSPropertyOp26
 70
     0
102
RTVSPropertyOp27
 70
     0
102
RTVSPropertyOp28
 70
     0
102
RTVSPropertyOp29
 70
     0
102
RTVSPropertyOp30
 70
     0
102
RTVSPropertyOp31
 70
     0
102
RTVSPropertyOp32
 70
     0
102
RTVSPropertyOp33
 70
     0
102
RTVSPropertyOp34
 70
     0
102
RTVSPropertyOp35
 70
     0
102
RTVSPropertyOp36
 70
     0
102
RTVSPropertyOp37
 70
     0
102
RTVSPropertyOp38
 70
     0
102
RTVSPropertyOp39
 70
     0
102
RTVSPropertyOp40
 70
     0
102
RTVSPropertyOp41
 70
     0
102
RTVSPropertyOp42
 70
     0
102
RTVSPropertyOp43
 70
     0
102
RTVSPropertyOp44
 70
     0
102
RTVSPropertyOp45
 70
     0
102
RTVSPropertyOp46
 70
     0
102
RTVSPropertyOp47
 70
     0
102
RTVSPropertyOp48
 70
     0
102
RTVSPropertyOp49
 70
     0
102
RTVSPropertyOp50
 70
     0
102
RTVSPropertyOp51
 70
     0
102
RTVSPropertyOp52
 70
     0
102
RTVSPropertyOp53
 70
     0
102
RTVSPropertyOp54
 70
     0
102
RTVSPropertyOp55
 70
     0
102
RTVSPropertyOp56
 70
     0
102
RTVSPropertyOp57
 70
     0
102
RTVSPropertyOp58
 70
     1
102
RTVSPropertyOp59
 70
     1
102
RTVSPropertyOp60
 70
     1
102
RTVSPropertyOp61
 70
     1
102
RTVSPropertyOp62
 70
     1
  0
XRECORD
  5
39D
102
{ACAD_REACTORS
330
39C
102
}
330
39C
100
AcDbXrecord
280
     1
102
RTVSPost2010Prop28
280
     0
102
RTVSPost2010PropOp28
 70
     1
102
RTVSPost2010Prop29
280
     1
102
RTVSPost2010PropOp29
 70
     1
102
RTVSPost2010Prop30
280
     1
102
RTVSPost2010PropOp30
 70
     1
102
RTVSPost2010Prop31
280
     0
102
RTVSPost2010PropOp31
 70
     1
102
RTVSPost2010Prop32
280
     0
102
RTVSPost2010PropOp32
 70
     1
102
RTVSPost2010Prop33
280
     0
102
RTVSPost2010PropOp33
 70
     1
102
RTVSPost2010Prop34
280
     0
102
RTVSPost2010PropOp34
 70
     1
102
RTVSPost2010Prop35
280
     0
102
RTVSPost2010PropOp35
 70
     1
102
RTVSPost2010Prop36
280
     0
102
RTVSPost2010PropOp36
 70
     1
102
RTVSPost2010Prop37
 90
       50
102
RTVSPost2010PropOp37
 70
     1
102
RTVSPost2010Prop38
140
0.0
102
RTVSPost2010PropOp38
 70
     1
102
RTVSPost2010Prop39
140
1.0
102
RTVSPost2010PropOp39
 70
     1
102
RTVSPost2010Prop40
 90
        0
102
RTVSPost2010PropOp40
 70
     1
102
RTVSPost2010Prop41ColorIndex
 90
       18
102
RTVSPost2010Prop41ColorRGB
 90
        0
102
RTVSPost2010PropOp41
 70
     1
102
RTVSPost2010Prop42
 90
       50
102
RTVSPost2010PropOp42
 70
     1
102
RTVSPost2010Prop43
 90
        3
102
RTVSPost2010PropOp43
 70
     1
102
RTVSPost2010Prop44ColorIndex
 90
        5
102
RTVSPost2010Prop44ColorRGB
 90
      255
102
RTVSPost2010PropOp44
 70
     1
102
RTVSPost2010Prop45
280
     0
102
RTVSPost2010PropOp45
 70
     1
102
RTVSPost2010Prop46
 90
       50
102
RTVSPost2010PropOp46
 70
     1
102
RTVSPost2010Prop47
 90
       50
102
RTVSPost2010PropOp47
 70
     1
102
RTVSPost2010Prop48
 90
       50
102
RTVSPost2010PropOp48
 70
     1
102
RTVSPost2010Prop49
280
     0
102
RTVSPost2010PropOp49
 70
     1
102
RTVSPost2010Prop50
 90
       50
102
RTVSPost2010PropOp50
 70
     1
102
RTVSPost2010Prop51ColorIndex
 90
      256
102
RTVSPost2010Prop51ColorRGB
 90
-16777216
102
RTVSPost2010PropOp51
 70
     0
102
RTVSPost2010Prop52
140
1.0
102
RTVSPost2010PropOp52
 70
     0
102
RTVSPost2010Prop53
 90
        2
102
RTVSPost2010PropOp53
 70
     1
102
RTVSPost2010Prop54
  1
strokes_ogs.tif
102
RTVSPost2010PropOp54
 70
     1
102
RTVSPost2010Prop55
280
     0
102
RTVSPost2010PropOp55
 70
     1
102
RTVSPost2010Prop56
140
1.0
102
RTVSPost2010PropOp56
 70
     1
102
RTVSPost2010Prop57
140
1.0
102
RTVSPost2010PropOp57
 70
     1
102
RTVSPropertyOp0
 70
     1
102
RTVSPropertyOp1
 70
     1
102
RTVSPropertyOp2
 70
     1
102
RTVSPropertyOp3
 70
     1
102
RTVSPropertyOp4
 70
     1
102
RTVSPropertyOp5
 70
     1
102
RTVSPropertyOp6
 70
     1
102
RTVSPropertyOp7
 70
     1
102
RTVSPropertyOp8
 70
     1
102
RTVSPropertyOp9
 70
     1
102
RTVSPropertyOp10
 70
     1
102
RTVSPropertyOp11
 70
     1
102
RTVSPropertyOp12
 70
     1
102
RTVSPropertyOp13
 70
     1
102
RTVSPropertyOp14
 70
     1
102
RTVSPropertyOp15
 70
     1
102
RTVSPropertyOp16
 70
     1
102
RTVSPropertyOp17
 70
     1
102
RTVSPropertyOp18
 70
     1
102
RTVSPropertyOp19
 70
     1
102
RTVSPropertyOp20
 70
     1
102
RTVSPropertyOp21
 70
     1
102
RTVSPropertyOp22
 70
     1
102
RTVSPropertyOp23
 70
     1
102
RTVSPropertyOp24
 70
     1
102
RTVSPropertyOp25
 70
     1
102
RTVSPropertyOp26
 70
     1
102
RTVSPropertyOp27
 70
     1
102
RTVSPropertyOp28
 70
     1
102
RTVSPropertyOp29
 70
     1
102
RTVSPropertyOp30
 70
     1
102
RTVSPropertyOp31
 70
     1
102
RTVSPropertyOp32
 70
     1
102
RTVSPropertyOp33
 70
     1
102
RTVSPropertyOp34
 70
     1
102
RTVSPropertyOp35
 70
     1
102
RTVSPropertyOp36
 70
     1
102
RTVSPropertyOp37
 70
     1
102
RTVSPropertyOp38
 70
     1
102
RTVSPropertyOp39
 70
     1
102
RTVSPropertyOp40
 70
     1
102
RTVSPropertyOp41
 70
     1
102
RTVSPropertyOp42
 70
     1
102
RTVSPropertyOp43
 70
     1
102
RTVSPropertyOp44
 70
     1
102
RTVSPropertyOp45
 70
     1
102
RTVSPropertyOp46
 70
     1
102
RTVSPropertyOp47
 70
     1
102
RTVSPropertyOp48
 70
     1
102
RTVSPropertyOp49
 70
     1
102
RTVSPropertyOp50
 70
     1
102
RTVSPropertyOp51
 70
     0
102
RTVSPropertyOp52
 70
     0
102
RTVSPropertyOp53
 70
     1
102
RTVSPropertyOp54
 70
     1
102
RTVSPropertyOp55
 70
     1
102
RTVSPropertyOp56
 70
     1
102
RTVSPropertyOp57
 70
     1
102
RTVSPropertyOp58
 70
     1
102
RTVSPropertyOp59
 70
     1
102
RTVSPropertyOp60
 70
     1
102
RTVSPropertyOp61
 70
     1
102
RTVSPropertyOp62
 70
     1
  0
XRECORD
  5
381
102
{ACAD_REACTORS
330
380
102
}
330
380
100
AcDbXrecord
280
     1
102
RTVSPost2010Prop28
280
     0
102
RTVSPost2010PropOp28
 70
     1
102
RTVSPost2010Prop29
280
     1
102
RTVSPost2010PropOp29
 70
     1
102
RTVSPost2010Prop30
280
     1
102
RTVSPost2010PropOp30
 70
     1
102
RTVSPost2010Prop31
280
     0
102
RTVSPost2010PropOp31
 70
     1
102
RTVSPost2010Prop32
280
     0
102
RTVSPost2010PropOp32
 70
     1
102
RTVSPost2010Prop33
280
     0
102
RTVSPost2010PropOp33
 70
     1
102
RTVSPost2010Prop34
280
     0
102
RTVSPost2010PropOp34
 70
     1
102
RTVSPost2010Prop35
280
     0
102
RTVSPost2010PropOp35
 70
     1
102
RTVSPost2010Prop36
280
     0
102
RTVSPost2010PropOp36
 70
     1
102
RTVSPost2010Prop37
 90
       50
102
RTVSPost2010PropOp37
 70
     1
102
RTVSPost2010Prop38
140
0.0
102
RTVSPost2010PropOp38
 70
     1
102
RTVSPost2010Prop39
140
1.0
102
RTVSPost2010PropOp39
 70
     1
102
RTVSPost2010Prop40
 90
        0
102
RTVSPost2010PropOp40
 70
     1
102
RTVSPost2010Prop41ColorIndex
 90
       18
102
RTVSPost2010Prop41ColorRGB
 90
        0
102
RTVSPost2010PropOp41
 70
     1
102
RTVSPost2010Prop42
 90
       50
102
RTVSPost2010PropOp42
 70
     1
102
RTVSPost2010Prop43
 90
        3
102
RTVSPost2010PropOp43
 70
     1
102
RTVSPost2010Prop44ColorIndex
 90
        5
102
RTVSPost2010Prop44ColorRGB
 90
      255
102
RTVSPost2010PropOp44
 70
     1
102
RTVSPost2010Prop45
280
     0
102
RTVSPost2010PropOp45
 70
     1
102
RTVSPost2010Prop46
 90
       50
102
RTVSPost2010PropOp46
 70
     1
102
RTVSPost2010Prop47
 90
       50
102
RTVSPost2010PropOp47
 70
     1
102
RTVSPost2010Prop48
 90
       50
102
RTVSPost2010PropOp48
 70
     1
102
RTVSPost2010Prop49
280
     0
102
RTVSPost2010PropOp49
 70
     1
102
RTVSPost2010Prop50
 90
       50
102
RTVSPost2010PropOp50
 70
     1
102
RTVSPost2010Prop51ColorIndex
 90
      256
102
RTVSPost2010Prop51ColorRGB
 90
-16777216
102
RTVSPost2010PropOp51
 70
     0
102
RTVSPost2010Prop52
140
1.0
102
RTVSPost2010PropOp52
 70
     0
102
RTVSPost2010Prop53
 90
        2
102
RTVSPost2010PropOp53
 70
     1
102
RTVSPost2010Prop54
  1
strokes_ogs.tif
102
RTVSPost2010PropOp54
 70
     1
102
RTVSPost2010Prop55
280
     0
102
RTVSPost2010PropOp55
 70
     1
102
RTVSPost2010Prop56
140
1.0
102
RTVSPost2010PropOp56
 70
     1
102
RTVSPost2010Prop57
140
1.0
102
RTVSPost2010PropOp57
 70
     1
102
RTVSPropertyOp0
 70
     1
102
RTVSPropertyOp1
 70
     1
102
RTVSPropertyOp2
 70
     1
102
RTVSPropertyOp3
 70
     1
102
RTVSPropertyOp4
 70
     1
102
RTVSPropertyOp5
 70
     1
102
RTVSPropertyOp6
 70
     1
102
RTVSPropertyOp7
 70
     1
102
RTVSPropertyOp8
 70
     1
102
RTVSPropertyOp9
 70
     1
102
RTVSPropertyOp10
 70
     1
102
RTVSPropertyOp11
 70
     1
102
RTVSPropertyOp12
 70
     1
102
RTVSPropertyOp13
 70
     1
102
RTVSPropertyOp14
 70
     1
102
RTVSPropertyOp15
 70
     1
102
RTVSPropertyOp16
 70
     1
102
RTVSPropertyOp17
 70
     1
102
RTVSPropertyOp18
 70
     1
102
RTVSPropertyOp19
 70
     1
102
RTVSPropertyOp20
 70
     1
102
RTVSPropertyOp21
 70
     1
102
RTVSPropertyOp22
 70
     1
102
RTVSPropertyOp23
 70
     1
102
RTVSPropertyOp24
 70
     1
102
RTVSPropertyOp25
 70
     1
102
RTVSPropertyOp26
 70
     1
102
RTVSPropertyOp27
 70
     1
102
RTVSPropertyOp28
 70
     1
102
RTVSPropertyOp29
 70
     1
102
RTVSPropertyOp30
 70
     1
102
RTVSPropertyOp31
 70
     1
102
RTVSPropertyOp32
 70
     1
102
RTVSPropertyOp33
 70
     1
102
RTVSPropertyOp34
 70
     1
102
RTVSPropertyOp35
 70
     1
102
RTVSPropertyOp36
 70
     1
102
RTVSPropertyOp37
 70
     1
102
RTVSPropertyOp38
 70
     1
102
RTVSPropertyOp39
 70
     1
102
RTVSPropertyOp40
 70
     1
102
RTVSPropertyOp41
 70
     1
102
RTVSPropertyOp42
 70
     1
102
RTVSPropertyOp43
 70
     1
102
RTVSPropertyOp44
 70
     1
102
RTVSPropertyOp45
 70
     1
102
RTVSPropertyOp46
 70
     1
102
RTVSPropertyOp47
 70
     1
102
RTVSPropertyOp48
 70
     1
102
RTVSPropertyOp49
 70
     1
102
RTVSPropertyOp50
 70
     1
102
RTVSPropertyOp51
 70
     0
102
RTVSPropertyOp52
 70
     0
102
RTVSPropertyOp53
 70
     1
102
RTVSPropertyOp54
 70
     1
102
RTVSPropertyOp55
 70
     1
102
RTVSPropertyOp56
 70
     1
102
RTVSPropertyOp57
 70
     1
102
RTVSPropertyOp58
 70
     1
102
RTVSPropertyOp59
 70
     1
102
RTVSPropertyOp60
 70
     1
102
RTVSPropertyOp61
 70
     1
102
RTVSPropertyOp62
 70
     1
  0
XRECORD
  5
383
102
{ACAD_REACTORS
330
382
102
}
330
382
100
AcDbXrecord
280
     1
102
RTVSPost2010Prop28
280
     0
102
RTVSPost2010PropOp28
 70
     1
102
RTVSPost2010Prop29
280
     1
102
RTVSPost2010PropOp29
 70
     1
102
RTVSPost2010Prop30
280
     1
102
RTVSPost2010PropOp30
 70
     1
102
RTVSPost2010Prop31
280
     0
102
RTVSPost2010PropOp31
 70
     1
102
RTVSPost2010Prop32
280
     0
102
RTVSPost2010PropOp32
 70
     1
102
RTVSPost2010Prop33
280
     0
102
RTVSPost2010PropOp33
 70
     1
102
RTVSPost2010Prop34
280
     0
102
RTVSPost2010PropOp34
 70
     1
102
RTVSPost2010Prop35
280
     0
102
RTVSPost2010PropOp35
 70
     1
102
RTVSPost2010Prop36
280
     0
102
RTVSPost2010PropOp36
 70
     1
102
RTVSPost2010Prop37
 90
       50
102
RTVSPost2010PropOp37
 70
     1
102
RTVSPost2010Prop38
140
0.0
102
RTVSPost2010PropOp38
 70
     1
102
RTVSPost2010Prop39
140
1.0
102
RTVSPost2010PropOp39
 70
     1
102
RTVSPost2010Prop40
 90
        0
102
RTVSPost2010PropOp40
 70
     1
102
RTVSPost2010Prop41ColorIndex
 90
       18
102
RTVSPost2010Prop41ColorRGB
 90
        0
102
RTVSPost2010PropOp41
 70
     1
102
RTVSPost2010Prop42
 90
       50
102
RTVSPost2010PropOp42
 70
     1
102
RTVSPost2010Prop43
 90
        3
102
RTVSPost2010PropOp43
 70
     1
102
RTVSPost2010Prop44ColorIndex
 90
        5
102
RTVSPost2010Prop44ColorRGB
 90
      255
102
RTVSPost2010PropOp44
 70
     1
102
RTVSPost2010Prop45
280
     0
102
RTVSPost2010PropOp45
 70
     1
102
RTVSPost2010Prop46
 90
       50
102
RTVSPost2010PropOp46
 70
     1
102
RTVSPost2010Prop47
 90
       50
102
RTVSPost2010PropOp47
 70
     1
102
RTVSPost2010Prop48
 90
       50
102
RTVSPost2010PropOp48
 70
     1
102
RTVSPost2010Prop49
280
     0
102
RTVSPost2010PropOp49
 70
     1
102
RTVSPost2010Prop50
 90
       50
102
RTVSPost2010PropOp50
 70
     1
102
RTVSPost2010Prop51ColorIndex
 90
      256
102
RTVSPost2010Prop51ColorRGB
 90
-16777216
102
RTVSPost2010PropOp51
 70
     0
102
RTVSPost2010Prop52
140
1.0
102
RTVSPost2010PropOp52
 70
     0
102
RTVSPost2010Prop53
 90
        2
102
RTVSPost2010PropOp53
 70
     1
102
RTVSPost2010Prop54
  1
strokes_ogs.tif
102
RTVSPost2010PropOp54
 70
     1
102
RTVSPost2010Prop55
280
     0
102
RTVSPost2010PropOp55
 70
     1
102
RTVSPost2010Prop56
140
1.0
102
RTVSPost2010PropOp56
 70
     1
102
RTVSPost2010Prop57
140
1.0
102
RTVSPost2010PropOp57
 70
     1
102
RTVSPropertyOp0
 70
     1
102
RTVSPropertyOp1
 70
     1
102
RTVSPropertyOp2
 70
     1
102
RTVSPropertyOp3
 70
     1
102
RTVSPropertyOp4
 70
     1
102
RTVSPropertyOp5
 70
     1
102
RTVSPropertyOp6
 70
     1
102
RTVSPropertyOp7
 70
     1
102
RTVSPropertyOp8
 70
     1
102
RTVSPropertyOp9
 70
     1
102
RTVSPropertyOp10
 70
     1
102
RTVSPropertyOp11
 70
     1
102
RTVSPropertyOp12
 70
     1
102
RTVSPropertyOp13
 70
     1
102
RTVSPropertyOp14
 70
     1
102
RTVSPropertyOp15
 70
     1
102
RTVSPropertyOp16
 70
     1
102
RTVSPropertyOp17
 70
     1
102
RTVSPropertyOp18
 70
     1
102
RTVSPropertyOp19
 70
     1
102
RTVSPropertyOp20
 70
     1
102
RTVSPropertyOp21
 70
     1
102
RTVSPropertyOp22
 70
     1
102
RTVSPropertyOp23
 70
     1
102
RTVSPropertyOp24
 70
     1
102
RTVSPropertyOp25
 70
     1
102
RTVSPropertyOp26
 70
     1
102
RTVSPropertyOp27
 70
     1
102
RTVSPropertyOp28
 70
     1
102
RTVSPropertyOp29
 70
     1
102
RTVSPropertyOp30
 70
     1
102
RTVSPropertyOp31
 70
     1
102
RTVSPropertyOp32
 70
     1
102
RTVSPropertyOp33
 70
     1
102
RTVSPropertyOp34
 70
     1
102
RTVSPropertyOp35
 70
     1
102
RTVSPropertyOp36
 70
     1
102
RTVSPropertyOp37
 70
     1
102
RTVSPropertyOp38
 70
     1
102
RTVSPropertyOp39
 70
     1
102
RTVSPropertyOp40
 70
     1
102
RTVSPropertyOp41
 70
     1
102
RTVSPropertyOp42
 70
     1
102
RTVSPropertyOp43
 70
     1
102
RTVSPropertyOp44
 70
     1
102
RTVSPropertyOp45
 70
     1
102
RTVSPropertyOp46
 70
     1
102
RTVSPropertyOp47
 70
     1
102
RTVSPropertyOp48
 70
     1
102
RTVSPropertyOp49
 70
     1
102
RTVSPropertyOp50
 70
     1
102
RTVSPropertyOp51
 70
     0
102
RTVSPropertyOp52
 70
     0
102
RTVSPropertyOp53
 70
     1
102
RTVSPropertyOp54
 70
     1
102
RTVSPropertyOp55
 70
     1
102
RTVSPropertyOp56
 70
     1
102
RTVSPropertyOp57
 70
     1
102
RTVSPropertyOp58
 70
     1
102
RTVSPropertyOp59
 70
     1
102
RTVSPropertyOp60
 70
     1
102
RTVSPropertyOp61
 70
     1
102
RTVSPropertyOp62
 70
     1
  0
XRECORD
  5
385
102
{ACAD_REACTORS
330
384
102
}
330
384
100
AcDbXrecord
280
     1
102
RTVSPost2010Prop28
280
     0
102
RTVSPost2010PropOp28
 70
     1
102
RTVSPost2010Prop29
280
     1
102
RTVSPost2010PropOp29
 70
     1
102
RTVSPost2010Prop30
280
     1
102
RTVSPost2010PropOp30
 70
     1
102
RTVSPost2010Prop31
280
     0
102
RTVSPost2010PropOp31
 70
     1
102
RTVSPost2010Prop32
280
     0
102
RTVSPost2010PropOp32
 70
     1
102
RTVSPost2010Prop33
280
     0
102
RTVSPost2010PropOp33
 70
     1
102
RTVSPost2010Prop34
280
     0
102
RTVSPost2010PropOp34
 70
     1
102
RTVSPost2010Prop35
280
     0
102
RTVSPost2010PropOp35
 70
     1
102
RTVSPost2010Prop36
280
     0
102
RTVSPost2010PropOp36
 70
     1
102
RTVSPost2010Prop37
 90
       50
102
RTVSPost2010PropOp37
 70
     1
102
RTVSPost2010Prop38
140
0.0
102
RTVSPost2010PropOp38
 70
     1
102
RTVSPost2010Prop39
140
1.0
102
RTVSPost2010PropOp39
 70
     1
102
RTVSPost2010Prop40
 90
        0
102
RTVSPost2010PropOp40
 70
     1
102
RTVSPost2010Prop41ColorIndex
 90
       18
102
RTVSPost2010Prop41ColorRGB
 90
        0
102
RTVSPost2010PropOp41
 70
     1
102
RTVSPost2010Prop42
 90
       50
102
RTVSPost2010PropOp42
 70
     1
102
RTVSPost2010Prop43
 90
        3
102
RTVSPost2010PropOp43
 70
     1
102
RTVSPost2010Prop44ColorIndex
 90
        5
102
RTVSPost2010Prop44ColorRGB
 90
      255
102
RTVSPost2010PropOp44
 70
     1
102
RTVSPost2010Prop45
280
     0
102
RTVSPost2010PropOp45
 70
     1
102
RTVSPost2010Prop46
 90
       50
102
RTVSPost2010PropOp46
 70
     1
102
RTVSPost2010Prop47
 90
       50
102
RTVSPost2010PropOp47
 70
     1
102
RTVSPost2010Prop48
 90
       50
102
RTVSPost2010PropOp48
 70
     1
102
RTVSPost2010Prop49
280
     0
102
RTVSPost2010PropOp49
 70
     1
102
RTVSPost2010Prop50
 90
       50
102
RTVSPost2010PropOp50
 70
     1
102
RTVSPost2010Prop51ColorIndex
 90
      256
102
RTVSPost2010Prop51ColorRGB
 90
-16777216
102
RTVSPost2010PropOp51
 70
     0
102
RTVSPost2010Prop52
140
1.0
102
RTVSPost2010PropOp52
 70
     0
102
RTVSPost2010Prop53
 90
        2
102
RTVSPost2010PropOp53
 70
     1
102
RTVSPost2010Prop54
  1
strokes_ogs.tif
102
RTVSPost2010PropOp54
 70
     1
102
RTVSPost2010Prop55
280
     0
102
RTVSPost2010PropOp55
 70
     1
102
RTVSPost2010Prop56
140
1.0
102
RTVSPost2010PropOp56
 70
     1
102
RTVSPost2010Prop57
140
1.0
102
RTVSPost2010PropOp57
 70
     1
102
RTVSPropertyOp0
 70
     1
102
RTVSPropertyOp1
 70
     1
102
RTVSPropertyOp2
 70
     1
102
RTVSPropertyOp3
 70
     1
102
RTVSPropertyOp4
 70
     1
102
RTVSPropertyOp5
 70
     1
102
RTVSPropertyOp6
 70
     1
102
RTVSPropertyOp7
 70
     1
102
RTVSPropertyOp8
 70
     1
102
RTVSPropertyOp9
 70
     1
102
RTVSPropertyOp10
 70
     1
102
RTVSPropertyOp11
 70
     1
102
RTVSPropertyOp12
 70
     1
102
RTVSPropertyOp13
 70
     1
102
RTVSPropertyOp14
 70
     1
102
RTVSPropertyOp15
 70
     1
102
RTVSPropertyOp16
 70
     1
102
RTVSPropertyOp17
 70
     1
102
RTVSPropertyOp18
 70
     1
102
RTVSPropertyOp19
 70
     1
102
RTVSPropertyOp20
 70
     1
102
RTVSPropertyOp21
 70
     1
102
RTVSPropertyOp22
 70
     1
102
RTVSPropertyOp23
 70
     1
102
RTVSPropertyOp24
 70
     1
102
RTVSPropertyOp25
 70
     1
102
RTVSPropertyOp26
 70
     1
102
RTVSPropertyOp27
 70
     1
102
RTVSPropertyOp28
 70
     1
102
RTVSPropertyOp29
 70
     1
102
RTVSPropertyOp30
 70
     1
102
RTVSPropertyOp31
 70
     1
102
RTVSPropertyOp32
 70
     1
102
RTVSPropertyOp33
 70
     1
102
RTVSPropertyOp34
 70
     1
102
RTVSPropertyOp35
 70
     1
102
RTVSPropertyOp36
 70
     1
102
RTVSPropertyOp37
 70
     1
102
RTVSPropertyOp38
 70
     1
102
RTVSPropertyOp39
 70
     1
102
RTVSPropertyOp40
 70
     1
102
RTVSPropertyOp41
 70
     1
102
RTVSPropertyOp42
 70
     1
102
RTVSPropertyOp43
 70
     1
102
RTVSPropertyOp44
 70
     1
102
RTVSPropertyOp45
 70
     1
102
RTVSPropertyOp46
 70
     1
102
RTVSPropertyOp47
 70
     1
102
RTVSPropertyOp48
 70
     1
102
RTVSPropertyOp49
 70
     1
102
RTVSPropertyOp50
 70
     1
102
RTVSPropertyOp51
 70
     0
102
RTVSPropertyOp52
 70
     0
102
RTVSPropertyOp53
 70
     1
102
RTVSPropertyOp54
 70
     1
102
RTVSPropertyOp55
 70
     1
102
RTVSPropertyOp56
 70
     1
102
RTVSPropertyOp57
 70
     1
102
RTVSPropertyOp58
 70
     1
102
RTVSPropertyOp59
 70
     1
102
RTVSPropertyOp60
 70
     1
102
RTVSPropertyOp61
 70
     1
102
RTVSPropertyOp62
 70
     1
  0
XRECORD
  5
387
102
{ACAD_REACTORS
330
386
102
}
330
386
100
AcDbXrecord
280
     1
102
RTVSPost2010Prop28
280
     0
102
RTVSPost2010PropOp28
 70
     1
102
RTVSPost2010Prop29
280
     1
102
RTVSPost2010PropOp29
 70
     1
102
RTVSPost2010Prop30
280
     1
102
RTVSPost2010PropOp30
 70
     1
102
RTVSPost2010Prop31
280
     0
102
RTVSPost2010PropOp31
 70
     1
102
RTVSPost2010Prop32
280
     0
102
RTVSPost2010PropOp32
 70
     1
102
RTVSPost2010Prop33
280
     0
102
RTVSPost2010PropOp33
 70
     1
102
RTVSPost2010Prop34
280
     0
102
RTVSPost2010PropOp34
 70
     1
102
RTVSPost2010Prop35
280
     0
102
RTVSPost2010PropOp35
 70
     1
102
RTVSPost2010Prop36
280
     0
102
RTVSPost2010PropOp36
 70
     1
102
RTVSPost2010Prop37
 90
       50
102
RTVSPost2010PropOp37
 70
     1
102
RTVSPost2010Prop38
140
0.0
102
RTVSPost2010PropOp38
 70
     1
102
RTVSPost2010Prop39
140
1.0
102
RTVSPost2010PropOp39
 70
     1
102
RTVSPost2010Prop40
 90
        0
102
RTVSPost2010PropOp40
 70
     1
102
RTVSPost2010Prop41ColorIndex
 90
       18
102
RTVSPost2010Prop41ColorRGB
 90
        0
102
RTVSPost2010PropOp41
 70
     1
102
RTVSPost2010Prop42
 90
       50
102
RTVSPost2010PropOp42
 70
     1
102
RTVSPost2010Prop43
 90
        3
102
RTVSPost2010PropOp43
 70
     1
102
RTVSPost2010Prop44ColorIndex
 90
        5
102
RTVSPost2010Prop44ColorRGB
 90
      255
102
RTVSPost2010PropOp44
 70
     1
102
RTVSPost2010Prop45
280
     0
102
RTVSPost2010PropOp45
 70
     1
102
RTVSPost2010Prop46
 90
       50
102
RTVSPost2010PropOp46
 70
     1
102
RTVSPost2010Prop47
 90
       50
102
RTVSPost2010PropOp47
 70
     1
102
RTVSPost2010Prop48
 90
       50
102
RTVSPost2010PropOp48
 70
     1
102
RTVSPost2010Prop49
280
     0
102
RTVSPost2010PropOp49
 70
     1
102
RTVSPost2010Prop50
 90
       50
102
RTVSPost2010PropOp50
 70
     1
102
RTVSPost2010Prop51ColorIndex
 90
      256
102
RTVSPost2010Prop51ColorRGB
 90
-16777216
102
RTVSPost2010PropOp51
 70
     0
102
RTVSPost2010Prop52
140
1.0
102
RTVSPost2010PropOp52
 70
     0
102
RTVSPost2010Prop53
 90
        2
102
RTVSPost2010PropOp53
 70
     1
102
RTVSPost2010Prop54
  1
strokes_ogs.tif
102
RTVSPost2010PropOp54
 70
     1
102
RTVSPost2010Prop55
280
     0
102
RTVSPost2010PropOp55
 70
     1
102
RTVSPost2010Prop56
140
1.0
102
RTVSPost2010PropOp56
 70
     1
102
RTVSPost2010Prop57
140
1.0
102
RTVSPost2010PropOp57
 70
     1
102
RTVSPropertyOp0
 70
     1
102
RTVSPropertyOp1
 70
     1
102
RTVSPropertyOp2
 70
     1
102
RTVSPropertyOp3
 70
     1
102
RTVSPropertyOp4
 70
     1
102
RTVSPropertyOp5
 70
     1
102
RTVSPropertyOp6
 70
     1
102
RTVSPropertyOp7
 70
     1
102
RTVSPropertyOp8
 70
     1
102
RTVSPropertyOp9
 70
     1
102
RTVSPropertyOp10
 70
     1
102
RTVSPropertyOp11
 70
     1
102
RTVSPropertyOp12
 70
     1
102
RTVSPropertyOp13
 70
     1
102
RTVSPropertyOp14
 70
     1
102
RTVSPropertyOp15
 70
     1
102
RTVSPropertyOp16
 70
     1
102
RTVSPropertyOp17
 70
     1
102
RTVSPropertyOp18
 70
     1
102
RTVSPropertyOp19
 70
     1
102
RTVSPropertyOp20
 70
     1
102
RTVSPropertyOp21
 70
     1
102
RTVSPropertyOp22
 70
     1
102
RTVSPropertyOp23
 70
     1
102
RTVSPropertyOp24
 70
     1
102
RTVSPropertyOp25
 70
     1
102
RTVSPropertyOp26
 70
     1
102
RTVSPropertyOp27
 70
     1
102
RTVSPropertyOp28
 70
     1
102
RTVSPropertyOp29
 70
     1
102
RTVSPropertyOp30
 70
     1
102
RTVSPropertyOp31
 70
     1
102
RTVSPropertyOp32
 70
     1
102
RTVSPropertyOp33
 70
     1
102
RTVSPropertyOp34
 70
     1
102
RTVSPropertyOp35
 70
     1
102
RTVSPropertyOp36
 70
     1
102
RTVSPropertyOp37
 70
     1
102
RTVSPropertyOp38
 70
     1
102
RTVSPropertyOp39
 70
     1
102
RTVSPropertyOp40
 70
     1
102
RTVSPropertyOp41
 70
     1
102
RTVSPropertyOp42
 70
     1
102
RTVSPropertyOp43
 70
     1
102
RTVSPropertyOp44
 70
     1
102
RTVSPropertyOp45
 70
     1
102
RTVSPropertyOp46
 70
     1
102
RTVSPropertyOp47
 70
     1
102
RTVSPropertyOp48
 70
     1
102
RTVSPropertyOp49
 70
     1
102
RTVSPropertyOp50
 70
     1
102
RTVSPropertyOp51
 70
     0
102
RTVSPropertyOp52
 70
     0
102
RTVSPropertyOp53
 70
     1
102
RTVSPropertyOp54
 70
     1
102
RTVSPropertyOp55
 70
     1
102
RTVSPropertyOp56
 70
     1
102
RTVSPropertyOp57
 70
     1
102
RTVSPropertyOp58
 70
     1
102
RTVSPropertyOp59
 70
     1
102
RTVSPropertyOp60
 70
     1
102
RTVSPropertyOp61
 70
     1
102
RTVSPropertyOp62
 70
     1
  0
XRECORD
  5
38D
102
{ACAD_REACTORS
330
38C
102
}
330
38C
100
AcDbXrecord
280
     1
102
RTVSPost2010Prop28
280
     0
102
RTVSPost2010PropOp28
 70
     1
102
RTVSPost2010Prop29
280
     1
102
RTVSPost2010PropOp29
 70
     1
102
RTVSPost2010Prop30
280
     1
102
RTVSPost2010PropOp30
 70
     1
102
RTVSPost2010Prop31
280
     0
102
RTVSPost2010PropOp31
 70
     1
102
RTVSPost2010Prop32
280
     0
102
RTVSPost2010PropOp32
 70
     1
102
RTVSPost2010Prop33
280
     0
102
RTVSPost2010PropOp33
 70
     1
102
RTVSPost2010Prop34
280
     0
102
RTVSPost2010PropOp34
 70
     1
102
RTVSPost2010Prop35
280
     0
102
RTVSPost2010PropOp35
 70
     1
102
RTVSPost2010Prop36
280
     0
102
RTVSPost2010PropOp36
 70
     1
102
RTVSPost2010Prop37
 90
       50
102
RTVSPost2010PropOp37
 70
     1
102
RTVSPost2010Prop38
140
0.0
102
RTVSPost2010PropOp38
 70
     1
102
RTVSPost2010Prop39
140
1.0
102
RTVSPost2010PropOp39
 70
     1
102
RTVSPost2010Prop40
 90
        0
102
RTVSPost2010PropOp40
 70
     1
102
RTVSPost2010Prop41ColorIndex
 90
       18
102
RTVSPost2010Prop41ColorRGB
 90
        0
102
RTVSPost2010PropOp41
 70
     1
102
RTVSPost2010Prop42
 90
       50
102
RTVSPost2010PropOp42
 70
     1
102
RTVSPost2010Prop43
 90
        3
102
RTVSPost2010PropOp43
 70
     1
102
RTVSPost2010Prop44ColorIndex
 90
        5
102
RTVSPost2010Prop44ColorRGB
 90
      255
102
RTVSPost2010PropOp44
 70
     1
102
RTVSPost2010Prop45
280
     0
102
RTVSPost2010PropOp45
 70
     1
102
RTVSPost2010Prop46
 90
       50
102
RTVSPost2010PropOp46
 70
     1
102
RTVSPost2010Prop47
 90
       50
102
RTVSPost2010PropOp47
 70
     1
102
RTVSPost2010Prop48
 90
       50
102
RTVSPost2010PropOp48
 70
     1
102
RTVSPost2010Prop49
280
     0
102
RTVSPost2010PropOp49
 70
     1
102
RTVSPost2010Prop50
 90
       50
102
RTVSPost2010PropOp50
 70
     1
102
RTVSPost2010Prop51ColorIndex
 90
      256
102
RTVSPost2010Prop51ColorRGB
 90
-16777216
102
RTVSPost2010PropOp51
 70
     0
102
RTVSPost2010Prop52
140
1.0
102
RTVSPost2010PropOp52
 70
     0
102
RTVSPost2010Prop53
 90
        2
102
RTVSPost2010PropOp53
 70
     1
102
RTVSPost2010Prop54
  1
strokes_ogs.tif
102
RTVSPost2010PropOp54
 70
     1
102
RTVSPost2010Prop55
280
     0
102
RTVSPost2010PropOp55
 70
     1
102
RTVSPost2010Prop56
140
1.0
102
RTVSPost2010PropOp56
 70
     1
102
RTVSPost2010Prop57
140
1.0
102
RTVSPost2010PropOp57
 70
     1
102
RTVSPropertyOp0
 70
     1
102
RTVSPropertyOp1
 70
     1
102
RTVSPropertyOp2
 70
     1
102
RTVSPropertyOp3
 70
     1
102
RTVSPropertyOp4
 70
     1
102
RTVSPropertyOp5
 70
     1
102
RTVSPropertyOp6
 70
     1
102
RTVSPropertyOp7
 70
     1
102
RTVSPropertyOp8
 70
     1
102
RTVSPropertyOp9
 70
     1
102
RTVSPropertyOp10
 70
     1
102
RTVSPropertyOp11
 70
     1
102
RTVSPropertyOp12
 70
     1
102
RTVSPropertyOp13
 70
     1
102
RTVSPropertyOp14
 70
     1
102
RTVSPropertyOp15
 70
     1
102
RTVSPropertyOp16
 70
     1
102
RTVSPropertyOp17
 70
     1
102
RTVSPropertyOp18
 70
     1
102
RTVSPropertyOp19
 70
     1
102
RTVSPropertyOp20
 70
     1
102
RTVSPropertyOp21
 70
     1
102
RTVSPropertyOp22
 70
     1
102
RTVSPropertyOp23
 70
     1
102
RTVSPropertyOp24
 70
     1
102
RTVSPropertyOp25
 70
     1
102
RTVSPropertyOp26
 70
     1
102
RTVSPropertyOp27
 70
     1
102
RTVSPropertyOp28
 70
     1
102
RTVSPropertyOp29
 70
     1
102
RTVSPropertyOp30
 70
     1
102
RTVSPropertyOp31
 70
     1
102
RTVSPropertyOp32
 70
     1
102
RTVSPropertyOp33
 70
     1
102
RTVSPropertyOp34
 70
     1
102
RTVSPropertyOp35
 70
     1
102
RTVSPropertyOp36
 70
     1
102
RTVSPropertyOp37
 70
     1
102
RTVSPropertyOp38
 70
     1
102
RTVSPropertyOp39
 70
     1
102
RTVSPropertyOp40
 70
     1
102
RTVSPropertyOp41
 70
     1
102
RTVSPropertyOp42
 70
     1
102
RTVSPropertyOp43
 70
     1
102
RTVSPropertyOp44
 70
     1
102
RTVSPropertyOp45
 70
     1
102
RTVSPropertyOp46
 70
     1
102
RTVSPropertyOp47
 70
     1
102
RTVSPropertyOp48
 70
     1
102
RTVSPropertyOp49
 70
     1
102
RTVSPropertyOp50
 70
     1
102
RTVSPropertyOp51
 70
     0
102
RTVSPropertyOp52
 70
     0
102
RTVSPropertyOp53
 70
     1
102
RTVSPropertyOp54
 70
     1
102
RTVSPropertyOp55
 70
     1
102
RTVSPropertyOp56
 70
     1
102
RTVSPropertyOp57
 70
     1
102
RTVSPropertyOp58
 70
     1
102
RTVSPropertyOp59
 70
     1
102
RTVSPropertyOp60
 70
     1
102
RTVSPropertyOp61
 70
     1
102
RTVSPropertyOp62
 70
     1
  0
XRECORD
  5
3A1
102
{ACAD_REACTORS
330
3A0
102
}
330
3A0
100
AcDbXrecord
280
     1
102
RTVSPost2010Prop28
280
     0
102
RTVSPost2010PropOp28
 70
     0
102
RTVSPost2010Prop29
280
     1
102
RTVSPost2010PropOp29
 70
     0
102
RTVSPost2010Prop30
280
     1
102
RTVSPost2010PropOp30
 70
     0
102
RTVSPost2010Prop31
280
     0
102
RTVSPost2010PropOp31
 70
     0
102
RTVSPost2010Prop32
280
     0
102
RTVSPost2010PropOp32
 70
     0
102
RTVSPost2010Prop33
280
     0
102
RTVSPost2010PropOp33
 70
     0
102
RTVSPost2010Prop34
280
     0
102
RTVSPost2010PropOp34
 70
     0
102
RTVSPost2010Prop35
280
     0
102
RTVSPost2010PropOp35
 70
     0
102
RTVSPost2010Prop36
280
     0
102
RTVSPost2010PropOp36
 70
     0
102
RTVSPost2010Prop37
 90
       50
102
RTVSPost2010PropOp37
 70
     0
102
RTVSPost2010Prop38
140
0.0
102
RTVSPost2010PropOp38
 70
     0
102
RTVSPost2010Prop39
140
1.0
102
RTVSPost2010PropOp39
 70
     0
102
RTVSPost2010Prop40
 90
        0
102
RTVSPost2010PropOp40
 70
     0
102
RTVSPost2010Prop41ColorIndex
 90
       18
102
RTVSPost2010Prop41ColorRGB
 90
        0
102
RTVSPost2010PropOp41
 70
     0
102
RTVSPost2010Prop42
 90
       50
102
RTVSPost2010PropOp42
 70
     0
102
RTVSPost2010Prop43
 90
        3
102
RTVSPost2010PropOp43
 70
     0
102
RTVSPost2010Prop44ColorIndex
 90
        5
102
RTVSPost2010Prop44ColorRGB
 90
      255
102
RTVSPost2010PropOp44
 70
     0
102
RTVSPost2010Prop45
280
     0
102
RTVSPost2010PropOp45
 70
     0
102
RTVSPost2010Prop46
 90
       50
102
RTVSPost2010PropOp46
 70
     0
102
RTVSPost2010Prop47
 90
       50
102
RTVSPost2010PropOp47
 70
     0
102
RTVSPost2010Prop48
 90
       50
102
RTVSPost2010PropOp48
 70
     0
102
RTVSPost2010Prop49
280
     0
102
RTVSPost2010PropOp49
 70
     0
102
RTVSPost2010Prop50
 90
       50
102
RTVSPost2010PropOp50
 70
     0
102
RTVSPost2010Prop51ColorIndex
 90
      256
102
RTVSPost2010Prop51ColorRGB
 90
-16777216
102
RTVSPost2010PropOp51
 70
     0
102
RTVSPost2010Prop52
140
1.0
102
RTVSPost2010PropOp52
 70
     0
102
RTVSPost2010Prop53
 90
        2
102
RTVSPost2010PropOp53
 70
     0
102
RTVSPost2010Prop54
  1
strokes_ogs.tif
102
RTVSPost2010PropOp54
 70
     0
102
RTVSPost2010Prop55
280
     0
102
RTVSPost2010PropOp55
 70
     0
102
RTVSPost2010Prop56
140
1.0
102
RTVSPost2010PropOp56
 70
     0
102
RTVSPost2010Prop57
140
1.0
102
RTVSPost2010PropOp57
 70
     0
102
RTVSPropertyOp0
 70
     0
102
RTVSPropertyOp1
 70
     0
102
RTVSPropertyOp2
 70
     0
102
RTVSPropertyOp3
 70
     0
102
RTVSPropertyOp4
 70
     0
102
RTVSPropertyOp5
 70
     0
102
RTVSPropertyOp6
 70
     0
102
RTVSPropertyOp7
 70
     0
102
RTVSPropertyOp8
 70
     0
102
RTVSPropertyOp9
 70
     0
102
RTVSPropertyOp10
 70
     0
102
RTVSPropertyOp11
 70
     0
102
RTVSPropertyOp12
 70
     0
102
RTVSPropertyOp13
 70
     0
102
RTVSPropertyOp14
 70
     2
102
RTVSPropertyOp15
 70
     0
102
RTVSPropertyOp16
 70
     0
102
RTVSPropertyOp17
 70
     0
102
RTVSPropertyOp18
 70
     0
102
RTVSPropertyOp19
 70
     0
102
RTVSPropertyOp20
 70
     0
102
RTVSPropertyOp21
 70
     0
102
RTVSPropertyOp22
 70
     0
102
RTVSPropertyOp23
 70
     0
102
RTVSPropertyOp24
 70
     0
102
RTVSPropertyOp25
 70
     0
102
RTVSPropertyOp26
 70
     0
102
RTVSPropertyOp27
 70
     0
102
RTVSPropertyOp28
 70
     0
102
RTVSPropertyOp29
 70
     0
102
RTVSPropertyOp30
 70
     0
102
RTVSPropertyOp31
 70
     0
102
RTVSPropertyOp32
 70
     0
102
RTVSPropertyOp33
 70
     0
102
RTVSPropertyOp34
 70
     0
102
RTVSPropertyOp35
 70
     0
102
RTVSPropertyOp36
 70
     0
102
RTVSPropertyOp37
 70
     0
102
RTVSPropertyOp38
 70
     0
102
RTVSPropertyOp39
 70
     0
102
RTVSPropertyOp40
 70
     0
102
RTVSPropertyOp41
 70
     0
102
RTVSPropertyOp42
 70
     0
102
RTVSPropertyOp43
 70
     0
102
RTVSPropertyOp44
 70
     0
102
RTVSPropertyOp45
 70
     0
102
RTVSPropertyOp46
 70
     0
102
RTVSPropertyOp47
 70
     0
102
RTVSPropertyOp48
 70
     0
102
RTVSPropertyOp49
 70
     0
102
RTVSPropertyOp50
 70
     0
102
RTVSPropertyOp51
 70
     0
102
RTVSPropertyOp52
 70
     0
102
RTVSPropertyOp53
 70
     0
102
RTVSPropertyOp54
 70
     0
102
RTVSPropertyOp55
 70
     0
102
RTVSPropertyOp56
 70
     0
102
RTVSPropertyOp57
 70
     0
102
RTVSPropertyOp58
 70
     1
102
RTVSPropertyOp59
 70
     1
102
RTVSPropertyOp60
 70
     1
102
RTVSPropertyOp61
 70
     1
102
RTVSPropertyOp62
 70
     1
  0
XRECORD
  5
39B
102
{ACAD_REACTORS
330
39A
102
}
330
39A
100
AcDbXrecord
280
     1
102
RTVSPost2010Prop28
280
     0
102
RTVSPost2010PropOp28
 70
     1
102
RTVSPost2010Prop29
280
     1
102
RTVSPost2010PropOp29
 70
     1
102
RTVSPost2010Prop30
280
     1
102
RTVSPost2010PropOp30
 70
     1
102
RTVSPost2010Prop31
280
     0
102
RTVSPost2010PropOp31
 70
     1
102
RTVSPost2010Prop32
280
     0
102
RTVSPost2010PropOp32
 70
     1
102
RTVSPost2010Prop33
280
     0
102
RTVSPost2010PropOp33
 70
     1
102
RTVSPost2010Prop34
280
     0
102
RTVSPost2010PropOp34
 70
     1
102
RTVSPost2010Prop35
280
     0
102
RTVSPost2010PropOp35
 70
     1
102
RTVSPost2010Prop36
280
     0
102
RTVSPost2010PropOp36
 70
     1
102
RTVSPost2010Prop37
 90
       50
102
RTVSPost2010PropOp37
 70
     1
102
RTVSPost2010Prop38
140
0.0
102
RTVSPost2010PropOp38
 70
     1
102
RTVSPost2010Prop39
140
1.0
102
RTVSPost2010PropOp39
 70
     1
102
RTVSPost2010Prop40
 90
        0
102
RTVSPost2010PropOp40
 70
     1
102
RTVSPost2010Prop41ColorIndex
 90
       18
102
RTVSPost2010Prop41ColorRGB
 90
        0
102
RTVSPost2010PropOp41
 70
     1
102
RTVSPost2010Prop42
 90
       50
102
RTVSPost2010PropOp42
 70
     1
102
RTVSPost2010Prop43
 90
        3
102
RTVSPost2010PropOp43
 70
     1
102
RTVSPost2010Prop44ColorIndex
 90
        5
102
RTVSPost2010Prop44ColorRGB
 90
      255
102
RTVSPost2010PropOp44
 70
     1
102
RTVSPost2010Prop45
280
     0
102
RTVSPost2010PropOp45
 70
     1
102
RTVSPost2010Prop46
 90
       50
102
RTVSPost2010PropOp46
 70
     1
102
RTVSPost2010Prop47
 90
       50
102
RTVSPost2010PropOp47
 70
     1
102
RTVSPost2010Prop48
 90
       50
102
RTVSPost2010PropOp48
 70
     1
102
RTVSPost2010Prop49
280
     0
102
RTVSPost2010PropOp49
 70
     1
102
RTVSPost2010Prop50
 90
       50
102
RTVSPost2010PropOp50
 70
     1
102
RTVSPost2010Prop51ColorIndex
 90
      256
102
RTVSPost2010Prop51ColorRGB
 90
-16777216
102
RTVSPost2010PropOp51
 70
     0
102
RTVSPost2010Prop52
140
1.0
102
RTVSPost2010PropOp52
 70
     0
102
RTVSPost2010Prop53
 90
        2
102
RTVSPost2010PropOp53
 70
     1
102
RTVSPost2010Prop54
  1
strokes_ogs.tif
102
RTVSPost2010PropOp54
 70
     1
102
RTVSPost2010Prop55
280
     0
102
RTVSPost2010PropOp55
 70
     1
102
RTVSPost2010Prop56
140
1.0
102
RTVSPost2010PropOp56
 70
     1
102
RTVSPost2010Prop57
140
1.0
102
RTVSPost2010PropOp57
 70
     1
102
RTVSPropertyOp0
 70
     1
102
RTVSPropertyOp1
 70
     1
102
RTVSPropertyOp2
 70
     1
102
RTVSPropertyOp3
 70
     1
102
RTVSPropertyOp4
 70
     1
102
RTVSPropertyOp5
 70
     1
102
RTVSPropertyOp6
 70
     1
102
RTVSPropertyOp7
 70
     1
102
RTVSPropertyOp8
 70
     1
102
RTVSPropertyOp9
 70
     1
102
RTVSPropertyOp10
 70
     1
102
RTVSPropertyOp11
 70
     1
102
RTVSPropertyOp12
 70
     1
102
RTVSPropertyOp13
 70
     1
102
RTVSPropertyOp14
 70
     1
102
RTVSPropertyOp15
 70
     1
102
RTVSPropertyOp16
 70
     1
102
RTVSPropertyOp17
 70
     1
102
RTVSPropertyOp18
 70
     1
102
RTVSPropertyOp19
 70
     1
102
RTVSPropertyOp20
 70
     1
102
RTVSPropertyOp21
 70
     1
102
RTVSPropertyOp22
 70
     1
102
RTVSPropertyOp23
 70
     1
102
RTVSPropertyOp24
 70
     1
102
RTVSPropertyOp25
 70
     1
102
RTVSPropertyOp26
 70
     1
102
RTVSPropertyOp27
 70
     1
102
RTVSPropertyOp28
 70
     1
102
RTVSPropertyOp29
 70
     1
102
RTVSPropertyOp30
 70
     1
102
RTVSPropertyOp31
 70
     1
102
RTVSPropertyOp32
 70
     1
102
RTVSPropertyOp33
 70
     1
102
RTVSPropertyOp34
 70
     1
102
RTVSPropertyOp35
 70
     1
102
RTVSPropertyOp36
 70
     1
102
RTVSPropertyOp37
 70
     1
102
RTVSPropertyOp38
 70
     1
102
RTVSPropertyOp39
 70
     1
102
RTVSPropertyOp40
 70
     1
102
RTVSPropertyOp41
 70
     1
102
RTVSPropertyOp42
 70
     1
102
RTVSPropertyOp43
 70
     1
102
RTVSPropertyOp44
 70
     1
102
RTVSPropertyOp45
 70
     1
102
RTVSPropertyOp46
 70
     1
102
RTVSPropertyOp47
 70
     1
102
RTVSPropertyOp48
 70
     1
102
RTVSPropertyOp49
 70
     1
102
RTVSPropertyOp50
 70
     1
102
RTVSPropertyOp51
 70
     0
102
RTVSPropertyOp52
 70
     0
102
RTVSPropertyOp53
 70
     1
102
RTVSPropertyOp54
 70
     1
102
RTVSPropertyOp55
 70
     1
102
RTVSPropertyOp56
 70
     1
102
RTVSPropertyOp57
 70
     1
102
RTVSPropertyOp58
 70
     1
102
RTVSPropertyOp59
 70
     1
102
RTVSPropertyOp60
 70
     1
102
RTVSPropertyOp61
 70
     1
102
RTVSPropertyOp62
 70
     1
  0
XRECORD
  5
3A3
102
{ACAD_REACTORS
330
3A2
102
}
330
3A2
100
AcDbXrecord
280
     1
102
RTVSPost2010Prop28
280
     0
102
RTVSPost2010PropOp28
 70
     0
102
RTVSPost2010Prop29
280
     1
102
RTVSPost2010PropOp29
 70
     0
102
RTVSPost2010Prop30
280
     1
102
RTVSPost2010PropOp30
 70
     0
102
RTVSPost2010Prop31
280
     0
102
RTVSPost2010PropOp31
 70
     0
102
RTVSPost2010Prop32
280
     0
102
RTVSPost2010PropOp32
 70
     0
102
RTVSPost2010Prop33
280
     0
102
RTVSPost2010PropOp33
 70
     0
102
RTVSPost2010Prop34
280
     0
102
RTVSPost2010PropOp34
 70
     0
102
RTVSPost2010Prop35
280
     0
102
RTVSPost2010PropOp35
 70
     0
102
RTVSPost2010Prop36
280
     0
102
RTVSPost2010PropOp36
 70
     0
102
RTVSPost2010Prop37
 90
       50
102
RTVSPost2010PropOp37
 70
     0
102
RTVSPost2010Prop38
140
0.0
102
RTVSPost2010PropOp38
 70
     0
102
RTVSPost2010Prop39
140
1.0
102
RTVSPost2010PropOp39
 70
     0
102
RTVSPost2010Prop40
 90
        0
102
RTVSPost2010PropOp40
 70
     0
102
RTVSPost2010Prop41ColorIndex
 90
       18
102
RTVSPost2010Prop41ColorRGB
 90
        0
102
RTVSPost2010PropOp41
 70
     0
102
RTVSPost2010Prop42
 90
       50
102
RTVSPost2010PropOp42
 70
     0
102
RTVSPost2010Prop43
 90
        3
102
RTVSPost2010PropOp43
 70
     0
102
RTVSPost2010Prop44ColorIndex
 90
        5
102
RTVSPost2010Prop44ColorRGB
 90
      255
102
RTVSPost2010PropOp44
 70
     0
102
RTVSPost2010Prop45
280
     0
102
RTVSPost2010PropOp45
 70
     0
102
RTVSPost2010Prop46
 90
       50
102
RTVSPost2010PropOp46
 70
     0
102
RTVSPost2010Prop47
 90
       50
102
RTVSPost2010PropOp47
 70
     0
102
RTVSPost2010Prop48
 90
       50
102
RTVSPost2010PropOp48
 70
     0
102
RTVSPost2010Prop49
280
     0
102
RTVSPost2010PropOp49
 70
     0
102
RTVSPost2010Prop50
 90
       50
102
RTVSPost2010PropOp50
 70
     0
102
RTVSPost2010Prop51ColorIndex
 90
      256
102
RTVSPost2010Prop51ColorRGB
 90
-16777216
102
RTVSPost2010PropOp51
 70
     0
102
RTVSPost2010Prop52
140
1.0
102
RTVSPost2010PropOp52
 70
     0
102
RTVSPost2010Prop53
 90
        2
102
RTVSPost2010PropOp53
 70
     0
102
RTVSPost2010Prop54
  1
strokes_ogs.tif
102
RTVSPost2010PropOp54
 70
     0
102
RTVSPost2010Prop55
280
     0
102
RTVSPost2010PropOp55
 70
     0
102
RTVSPost2010Prop56
140
1.0
102
RTVSPost2010PropOp56
 70
     0
102
RTVSPost2010Prop57
140
1.0
102
RTVSPost2010PropOp57
 70
     0
102
RTVSPropertyOp0
 70
     0
102
RTVSPropertyOp1
 70
     0
102
RTVSPropertyOp2
 70
     0
102
RTVSPropertyOp3
 70
     0
102
RTVSPropertyOp4
 70
     0
102
RTVSPropertyOp5
 70
     0
102
RTVSPropertyOp6
 70
     0
102
RTVSPropertyOp7
 70
     0
102
RTVSPropertyOp8
 70
     0
102
RTVSPropertyOp9
 70
     0
102
RTVSPropertyOp10
 70
     0
102
RTVSPropertyOp11
 70
     0
102
RTVSPropertyOp12
 70
     0
102
RTVSPropertyOp13
 70
     0
102
RTVSPropertyOp14
 70
     2
102
RTVSPropertyOp15
 70
     0
102
RTVSPropertyOp16
 70
     0
102
RTVSPropertyOp17
 70
     0
102
RTVSPropertyOp18
 70
     0
102
RTVSPropertyOp19
 70
     0
102
RTVSPropertyOp20
 70
     0
102
RTVSPropertyOp21
 70
     0
102
RTVSPropertyOp22
 70
     0
102
RTVSPropertyOp23
 70
     0
102
RTVSPropertyOp24
 70
     0
102
RTVSPropertyOp25
 70
     0
102
RTVSPropertyOp26
 70
     0
102
RTVSPropertyOp27
 70
     0
102
RTVSPropertyOp28
 70
     0
102
RTVSPropertyOp29
 70
     0
102
RTVSPropertyOp30
 70
     0
102
RTVSPropertyOp31
 70
     0
102
RTVSPropertyOp32
 70
     0
102
RTVSPropertyOp33
 70
     0
102
RTVSPropertyOp34
 70
     0
102
RTVSPropertyOp35
 70
     0
102
RTVSPropertyOp36
 70
     0
102
RTVSPropertyOp37
 70
     0
102
RTVSPropertyOp38
 70
     0
102
RTVSPropertyOp39
 70
     0
102
RTVSPropertyOp40
 70
     0
102
RTVSPropertyOp41
 70
     0
102
RTVSPropertyOp42
 70
     0
102
RTVSPropertyOp43
 70
     0
102
RTVSPropertyOp44
 70
     0
102
RTVSPropertyOp45
 70
     0
102
RTVSPropertyOp46
 70
     0
102
RTVSPropertyOp47
 70
     0
102
RTVSPropertyOp48
 70
     0
102
RTVSPropertyOp49
 70
     0
102
RTVSPropertyOp50
 70
     0
102
RTVSPropertyOp51
 70
     0
102
RTVSPropertyOp52
 70
     0
102
RTVSPropertyOp53
 70
     0
102
RTVSPropertyOp54
 70
     0
102
RTVSPropertyOp55
 70
     0
102
RTVSPropertyOp56
 70
     0
102
RTVSPropertyOp57
 70
     0
102
RTVSPropertyOp58
 70
     1
102
RTVSPropertyOp59
 70
     1
102
RTVSPropertyOp60
 70
     1
102
RTVSPropertyOp61
 70
     1
102
RTVSPropertyOp62
 70
     1
  0
XRECORD
  5
391
102
{ACAD_REACTORS
330
390
102
}
330
390
100
AcDbXrecord
280
     1
102
RTVSPost2010Prop28
280
     0
102
RTVSPost2010PropOp28
 70
     1
102
RTVSPost2010Prop29
280
     1
102
RTVSPost2010PropOp29
 70
     1
102
RTVSPost2010Prop30
280
     1
102
RTVSPost2010PropOp30
 70
     1
102
RTVSPost2010Prop31
280
     0
102
RTVSPost2010PropOp31
 70
     1
102
RTVSPost2010Prop32
280
     0
102
RTVSPost2010PropOp32
 70
     1
102
RTVSPost2010Prop33
280
     0
102
RTVSPost2010PropOp33
 70
     1
102
RTVSPost2010Prop34
280
     0
102
RTVSPost2010PropOp34
 70
     1
102
RTVSPost2010Prop35
280
     0
102
RTVSPost2010PropOp35
 70
     1
102
RTVSPost2010Prop36
280
     0
102
RTVSPost2010PropOp36
 70
     1
102
RTVSPost2010Prop37
 90
       50
102
RTVSPost2010PropOp37
 70
     1
102
RTVSPost2010Prop38
140
0.0
102
RTVSPost2010PropOp38
 70
     1
102
RTVSPost2010Prop39
140
1.0
102
RTVSPost2010PropOp39
 70
     1
102
RTVSPost2010Prop40
 90
        0
102
RTVSPost2010PropOp40
 70
     1
102
RTVSPost2010Prop41ColorIndex
 90
       18
102
RTVSPost2010Prop41ColorRGB
 90
        0
102
RTVSPost2010PropOp41
 70
     1
102
RTVSPost2010Prop42
 90
       50
102
RTVSPost2010PropOp42
 70
     1
102
RTVSPost2010Prop43
 90
        3
102
RTVSPost2010PropOp43
 70
     1
102
RTVSPost2010Prop44ColorIndex
 90
        5
102
RTVSPost2010Prop44ColorRGB
 90
      255
102
RTVSPost2010PropOp44
 70
     1
102
RTVSPost2010Prop45
280
     0
102
RTVSPost2010PropOp45
 70
     1
102
RTVSPost2010Prop46
 90
       50
102
RTVSPost2010PropOp46
 70
     1
102
RTVSPost2010Prop47
 90
       50
102
RTVSPost2010PropOp47
 70
     1
102
RTVSPost2010Prop48
 90
       50
102
RTVSPost2010PropOp48
 70
     1
102
RTVSPost2010Prop49
280
     0
102
RTVSPost2010PropOp49
 70
     1
102
RTVSPost2010Prop50
 90
       50
102
RTVSPost2010PropOp50
 70
     1
102
RTVSPost2010Prop51ColorIndex
 90
      256
102
RTVSPost2010Prop51ColorRGB
 90
-16777216
102
RTVSPost2010PropOp51
 70
     0
102
RTVSPost2010Prop52
140
1.0
102
RTVSPost2010PropOp52
 70
     0
102
RTVSPost2010Prop53
 90
        2
102
RTVSPost2010PropOp53
 70
     1
102
RTVSPost2010Prop54
  1
strokes_ogs.tif
102
RTVSPost2010PropOp54
 70
     1
102
RTVSPost2010Prop55
280
     0
102
RTVSPost2010PropOp55
 70
     1
102
RTVSPost2010Prop56
140
1.0
102
RTVSPost2010PropOp56
 70
     1
102
RTVSPost2010Prop57
140
1.0
102
RTVSPost2010PropOp57
 70
     1
102
RTVSPropertyOp0
 70
     1
102
RTVSPropertyOp1
 70
     1
102
RTVSPropertyOp2
 70
     1
102
RTVSPropertyOp3
 70
     1
102
RTVSPropertyOp4
 70
     1
102
RTVSPropertyOp5
 70
     1
102
RTVSPropertyOp6
 70
     1
102
RTVSPropertyOp7
 70
     1
102
RTVSPropertyOp8
 70
     1
102
RTVSPropertyOp9
 70
     1
102
RTVSPropertyOp10
 70
     1
102
RTVSPropertyOp11
 70
     1
102
RTVSPropertyOp12
 70
     1
102
RTVSPropertyOp13
 70
     1
102
RTVSPropertyOp14
 70
     1
102
RTVSPropertyOp15
 70
     1
102
RTVSPropertyOp16
 70
     1
102
RTVSPropertyOp17
 70
     1
102
RTVSPropertyOp18
 70
     1
102
RTVSPropertyOp19
 70
     1
102
RTVSPropertyOp20
 70
     1
102
RTVSPropertyOp21
 70
     1
102
RTVSPropertyOp22
 70
     1
102
RTVSPropertyOp23
 70
     1
102
RTVSPropertyOp24
 70
     1
102
RTVSPropertyOp25
 70
     1
102
RTVSPropertyOp26
 70
     1
102
RTVSPropertyOp27
 70
     1
102
RTVSPropertyOp28
 70
     1
102
RTVSPropertyOp29
 70
     1
102
RTVSPropertyOp30
 70
     1
102
RTVSPropertyOp31
 70
     1
102
RTVSPropertyOp32
 70
     1
102
RTVSPropertyOp33
 70
     1
102
RTVSPropertyOp34
 70
     1
102
RTVSPropertyOp35
 70
     1
102
RTVSPropertyOp36
 70
     1
102
RTVSPropertyOp37
 70
     1
102
RTVSPropertyOp38
 70
     1
102
RTVSPropertyOp39
 70
     1
102
RTVSPropertyOp40
 70
     1
102
RTVSPropertyOp41
 70
     1
102
RTVSPropertyOp42
 70
     1
102
RTVSPropertyOp43
 70
     1
102
RTVSPropertyOp44
 70
     1
102
RTVSPropertyOp45
 70
     1
102
RTVSPropertyOp46
 70
     1
102
RTVSPropertyOp47
 70
     1
102
RTVSPropertyOp48
 70
     1
102
RTVSPropertyOp49
 70
     1
102
RTVSPropertyOp50
 70
     1
102
RTVSPropertyOp51
 70
     0
102
RTVSPropertyOp52
 70
     0
102
RTVSPropertyOp53
 70
     1
102
RTVSPropertyOp54
 70
     1
102
RTVSPropertyOp55
 70
     1
102
RTVSPropertyOp56
 70
     1
102
RTVSPropertyOp57
 70
     1
102
RTVSPropertyOp58
 70
     1
102
RTVSPropertyOp59
 70
     1
102
RTVSPropertyOp60
 70
     1
102
RTVSPropertyOp61
 70
     1
102
RTVSPropertyOp62
 70
     1
  0
XRECORD
  5
3AF
102
{ACAD_REACTORS
330
3AE
102
}
330
3AE
100
AcDbXrecord
280
     1
102
RTVSPost2010Prop28
280
     0
102
RTVSPost2010PropOp28
 70
     1
102
RTVSPost2010Prop29
280
     1
102
RTVSPost2010PropOp29
 70
     1
102
RTVSPost2010Prop30
280
     1
102
RTVSPost2010PropOp30
 70
     1
102
RTVSPost2010Prop31
280
     0
102
RTVSPost2010PropOp31
 70
     1
102
RTVSPost2010Prop32
280
     0
102
RTVSPost2010PropOp32
 70
     1
102
RTVSPost2010Prop33
280
     0
102
RTVSPost2010PropOp33
 70
     1
102
RTVSPost2010Prop34
280
     0
102
RTVSPost2010PropOp34
 70
     1
102
RTVSPost2010Prop35
280
     0
102
RTVSPost2010PropOp35
 70
     1
102
RTVSPost2010Prop36
280
     0
102
RTVSPost2010PropOp36
 70
     1
102
RTVSPost2010Prop37
 90
       50
102
RTVSPost2010PropOp37
 70
     1
102
RTVSPost2010Prop38
140
0.0
102
RTVSPost2010PropOp38
 70
     1
102
RTVSPost2010Prop39
140
1.0
102
RTVSPost2010PropOp39
 70
     1
102
RTVSPost2010Prop40
 90
        0
102
RTVSPost2010PropOp40
 70
     1
102
RTVSPost2010Prop41ColorIndex
 90
       18
102
RTVSPost2010Prop41ColorRGB
 90
        0
102
RTVSPost2010PropOp41
 70
     1
102
RTVSPost2010Prop42
 90
       50
102
RTVSPost2010PropOp42
 70
     1
102
RTVSPost2010Prop43
 90
        3
102
RTVSPost2010PropOp43
 70
     1
102
RTVSPost2010Prop44ColorIndex
 90
        5
102
RTVSPost2010Prop44ColorRGB
 90
      255
102
RTVSPost2010PropOp44
 70
     1
102
RTVSPost2010Prop45
280
     0
102
RTVSPost2010PropOp45
 70
     1
102
RTVSPost2010Prop46
 90
       50
102
RTVSPost2010PropOp46
 70
     1
102
RTVSPost2010Prop47
 90
       50
102
RTVSPost2010PropOp47
 70
     1
102
RTVSPost2010Prop48
 90
       50
102
RTVSPost2010PropOp48
 70
     1
102
RTVSPost2010Prop49
280
     0
102
RTVSPost2010PropOp49
 70
     1
102
RTVSPost2010Prop50
 90
       50
102
RTVSPost2010PropOp50
 70
     1
102
RTVSPost2010Prop51ColorIndex
 90
      256
102
RTVSPost2010Prop51ColorRGB
 90
-16777216
102
RTVSPost2010PropOp51
 70
     0
102
RTVSPost2010Prop52
140
1.0
102
RTVSPost2010PropOp52
 70
     0
102
RTVSPost2010Prop53
 90
        2
102
RTVSPost2010PropOp53
 70
     1
102
RTVSPost2010Prop54
  1
strokes_ogs.tif
102
RTVSPost2010PropOp54
 70
     1
102
RTVSPost2010Prop55
280
     0
102
RTVSPost2010PropOp55
 70
     1
102
RTVSPost2010Prop56
140
1.0
102
RTVSPost2010PropOp56
 70
     1
102
RTVSPost2010Prop57
140
1.0
102
RTVSPost2010PropOp57
 70
     1
102
RTVSPropertyOp0
 70
     1
102
RTVSPropertyOp1
 70
     1
102
RTVSPropertyOp2
 70
     1
102
RTVSPropertyOp3
 70
     1
102
RTVSPropertyOp4
 70
     1
102
RTVSPropertyOp5
 70
     1
102
RTVSPropertyOp6
 70
     1
102
RTVSPropertyOp7
 70
     1
102
RTVSPropertyOp8
 70
     1
102
RTVSPropertyOp9
 70
     1
102
RTVSPropertyOp10
 70
     1
102
RTVSPropertyOp11
 70
     1
102
RTVSPropertyOp12
 70
     1
102
RTVSPropertyOp13
 70
     1
102
RTVSPropertyOp14
 70
     1
102
RTVSPropertyOp15
 70
     1
102
RTVSPropertyOp16
 70
     1
102
RTVSPropertyOp17
 70
     1
102
RTVSPropertyOp18
 70
     1
102
RTVSPropertyOp19
 70
     1
102
RTVSPropertyOp20
 70
     1
102
RTVSPropertyOp21
 70
     1
102
RTVSPropertyOp22
 70
     1
102
RTVSPropertyOp23
 70
     1
102
RTVSPropertyOp24
 70
     1
102
RTVSPropertyOp25
 70
     1
102
RTVSPropertyOp26
 70
     1
102
RTVSPropertyOp27
 70
     1
102
RTVSPropertyOp28
 70
     1
102
RTVSPropertyOp29
 70
     1
102
RTVSPropertyOp30
 70
     1
102
RTVSPropertyOp31
 70
     1
102
RTVSPropertyOp32
 70
     1
102
RTVSPropertyOp33
 70
     1
102
RTVSPropertyOp34
 70
     1
102
RTVSPropertyOp35
 70
     1
102
RTVSPropertyOp36
 70
     1
102
RTVSPropertyOp37
 70
     1
102
RTVSPropertyOp38
 70
     1
102
RTVSPropertyOp39
 70
     1
102
RTVSPropertyOp40
 70
     1
102
RTVSPropertyOp41
 70
     1
102
RTVSPropertyOp42
 70
     1
102
RTVSPropertyOp43
 70
     1
102
RTVSPropertyOp44
 70
     1
102
RTVSPropertyOp45
 70
     1
102
RTVSPropertyOp46
 70
     1
102
RTVSPropertyOp47
 70
     1
102
RTVSPropertyOp48
 70
     1
102
RTVSPropertyOp49
 70
     1
102
RTVSPropertyOp50
 70
     1
102
RTVSPropertyOp51
 70
     0
102
RTVSPropertyOp52
 70
     0
102
RTVSPropertyOp53
 70
     1
102
RTVSPropertyOp54
 70
     1
102
RTVSPropertyOp55
 70
     1
102
RTVSPropertyOp56
 70
     1
102
RTVSPropertyOp57
 70
     1
102
RTVSPropertyOp58
 70
     1
102
RTVSPropertyOp59
 70
     1
102
RTVSPropertyOp60
 70
     1
102
RTVSPropertyOp61
 70
     1
102
RTVSPropertyOp62
 70
     1
  0
XRECORD
  5
3AD
102
{ACAD_REACTORS
330
3AC
102
}
330
3AC
100
AcDbXrecord
280
     1
102
RTVSPost2010Prop28
280
     0
102
RTVSPost2010PropOp28
 70
     1
102
RTVSPost2010Prop29
280
     1
102
RTVSPost2010PropOp29
 70
     1
102
RTVSPost2010Prop30
280
     1
102
RTVSPost2010PropOp30
 70
     1
102
RTVSPost2010Prop31
280
     0
102
RTVSPost2010PropOp31
 70
     1
102
RTVSPost2010Prop32
280
     0
102
RTVSPost2010PropOp32
 70
     1
102
RTVSPost2010Prop33
280
     0
102
RTVSPost2010PropOp33
 70
     1
102
RTVSPost2010Prop34
280
     0
102
RTVSPost2010PropOp34
 70
     1
102
RTVSPost2010Prop35
280
     0
102
RTVSPost2010PropOp35
 70
     1
102
RTVSPost2010Prop36
280
     0
102
RTVSPost2010PropOp36
 70
     1
102
RTVSPost2010Prop37
 90
       50
102
RTVSPost2010PropOp37
 70
     1
102
RTVSPost2010Prop38
140
0.0
102
RTVSPost2010PropOp38
 70
     1
102
RTVSPost2010Prop39
140
1.0
102
RTVSPost2010PropOp39
 70
     1
102
RTVSPost2010Prop40
 90
        0
102
RTVSPost2010PropOp40
 70
     1
102
RTVSPost2010Prop41ColorIndex
 90
       18
102
RTVSPost2010Prop41ColorRGB
 90
        0
102
RTVSPost2010PropOp41
 70
     1
102
RTVSPost2010Prop42
 90
       50
102
RTVSPost2010PropOp42
 70
     1
102
RTVSPost2010Prop43
 90
        3
102
RTVSPost2010PropOp43
 70
     1
102
RTVSPost2010Prop44ColorIndex
 90
        5
102
RTVSPost2010Prop44ColorRGB
 90
      255
102
RTVSPost2010PropOp44
 70
     1
102
RTVSPost2010Prop45
280
     0
102
RTVSPost2010PropOp45
 70
     1
102
RTVSPost2010Prop46
 90
       50
102
RTVSPost2010PropOp46
 70
     1
102
RTVSPost2010Prop47
 90
       50
102
RTVSPost2010PropOp47
 70
     1
102
RTVSPost2010Prop48
 90
       50
102
RTVSPost2010PropOp48
 70
     1
102
RTVSPost2010Prop49
280
     0
102
RTVSPost2010PropOp49
 70
     1
102
RTVSPost2010Prop50
 90
       50
102
RTVSPost2010PropOp50
 70
     1
102
RTVSPost2010Prop51ColorIndex
 90
      256
102
RTVSPost2010Prop51ColorRGB
 90
-16777216
102
RTVSPost2010PropOp51
 70
     0
102
RTVSPost2010Prop52
140
1.0
102
RTVSPost2010PropOp52
 70
     0
102
RTVSPost2010Prop53
 90
        2
102
RTVSPost2010PropOp53
 70
     1
102
RTVSPost2010Prop54
  1
strokes_ogs.tif
102
RTVSPost2010PropOp54
 70
     1
102
RTVSPost2010Prop55
280
     0
102
RTVSPost2010PropOp55
 70
     1
102
RTVSPost2010Prop56
140
1.0
102
RTVSPost2010PropOp56
 70
     1
102
RTVSPost2010Prop57
140
1.0
102
RTVSPost2010PropOp57
 70
     1
102
RTVSPropertyOp0
 70
     1
102
RTVSPropertyOp1
 70
     1
102
RTVSPropertyOp2
 70
     1
102
RTVSPropertyOp3
 70
     1
102
RTVSPropertyOp4
 70
     1
102
RTVSPropertyOp5
 70
     1
102
RTVSPropertyOp6
 70
     1
102
RTVSPropertyOp7
 70
     1
102
RTVSPropertyOp8
 70
     1
102
RTVSPropertyOp9
 70
     1
102
RTVSPropertyOp10
 70
     1
102
RTVSPropertyOp11
 70
     1
102
RTVSPropertyOp12
 70
     1
102
RTVSPropertyOp13
 70
     1
102
RTVSPropertyOp14
 70
     1
102
RTVSPropertyOp15
 70
     1
102
RTVSPropertyOp16
 70
     1
102
RTVSPropertyOp17
 70
     1
102
RTVSPropertyOp18
 70
     1
102
RTVSPropertyOp19
 70
     1
102
RTVSPropertyOp20
 70
     1
102
RTVSPropertyOp21
 70
     1
102
RTVSPropertyOp22
 70
     1
102
RTVSPropertyOp23
 70
     1
102
RTVSPropertyOp24
 70
     1
102
RTVSPropertyOp25
 70
     1
102
RTVSPropertyOp26
 70
     1
102
RTVSPropertyOp27
 70
     1
102
RTVSPropertyOp28
 70
     1
102
RTVSPropertyOp29
 70
     1
102
RTVSPropertyOp30
 70
     1
102
RTVSPropertyOp31
 70
     1
102
RTVSPropertyOp32
 70
     1
102
RTVSPropertyOp33
 70
     1
102
RTVSPropertyOp34
 70
     1
102
RTVSPropertyOp35
 70
     1
102
RTVSPropertyOp36
 70
     1
102
RTVSPropertyOp37
 70
     1
102
RTVSPropertyOp38
 70
     1
102
RTVSPropertyOp39
 70
     1
102
RTVSPropertyOp40
 70
     1
102
RTVSPropertyOp41
 70
     1
102
RTVSPropertyOp42
 70
     1
102
RTVSPropertyOp43
 70
     1
102
RTVSPropertyOp44
 70
     1
102
RTVSPropertyOp45
 70
     1
102
RTVSPropertyOp46
 70
     1
102
RTVSPropertyOp47
 70
     1
102
RTVSPropertyOp48
 70
     1
102
RTVSPropertyOp49
 70
     1
102
RTVSPropertyOp50
 70
     1
102
RTVSPropertyOp51
 70
     0
102
RTVSPropertyOp52
 70
     0
102
RTVSPropertyOp53
 70
     1
102
RTVSPropertyOp54
 70
     1
102
RTVSPropertyOp55
 70
     1
102
RTVSPropertyOp56
 70
     1
102
RTVSPropertyOp57
 70
     1
102
RTVSPropertyOp58
 70
     1
102
RTVSPropertyOp59
 70
     1
102
RTVSPropertyOp60
 70
     1
102
RTVSPropertyOp61
 70
     1
102
RTVSPropertyOp62
 70
     1
  0
XRECORD
  5
3A7
102
{ACAD_REACTORS
330
3A6
102
}
330
3A6
100
AcDbXrecord
280
     1
102
RTVSPost2010Prop28
280
     0
102
RTVSPost2010PropOp28
 70
     1
102
RTVSPost2010Prop29
280
     1
102
RTVSPost2010PropOp29
 70
     1
102
RTVSPost2010Prop30
280
     1
102
RTVSPost2010PropOp30
 70
     1
102
RTVSPost2010Prop31
280
     0
102
RTVSPost2010PropOp31
 70
     1
102
RTVSPost2010Prop32
280
     0
102
RTVSPost2010PropOp32
 70
     1
102
RTVSPost2010Prop33
280
     0
102
RTVSPost2010PropOp33
 70
     1
102
RTVSPost2010Prop34
280
     0
102
RTVSPost2010PropOp34
 70
     1
102
RTVSPost2010Prop35
280
     0
102
RTVSPost2010PropOp35
 70
     1
102
RTVSPost2010Prop36
280
     0
102
RTVSPost2010PropOp36
 70
     1
102
RTVSPost2010Prop37
 90
       50
102
RTVSPost2010PropOp37
 70
     1
102
RTVSPost2010Prop38
140
0.0
102
RTVSPost2010PropOp38
 70
     1
102
RTVSPost2010Prop39
140
1.0
102
RTVSPost2010PropOp39
 70
     1
102
RTVSPost2010Prop40
 90
        0
102
RTVSPost2010PropOp40
 70
     1
102
RTVSPost2010Prop41ColorIndex
 90
       18
102
RTVSPost2010Prop41ColorRGB
 90
        0
102
RTVSPost2010PropOp41
 70
     1
102
RTVSPost2010Prop42
 90
       50
102
RTVSPost2010PropOp42
 70
     1
102
RTVSPost2010Prop43
 90
        3
102
RTVSPost2010PropOp43
 70
     1
102
RTVSPost2010Prop44ColorIndex
 90
        5
102
RTVSPost2010Prop44ColorRGB
 90
      255
102
RTVSPost2010PropOp44
 70
     1
102
RTVSPost2010Prop45
280
     0
102
RTVSPost2010PropOp45
 70
     1
102
RTVSPost2010Prop46
 90
       50
102
RTVSPost2010PropOp46
 70
     1
102
RTVSPost2010Prop47
 90
       50
102
RTVSPost2010PropOp47
 70
     1
102
RTVSPost2010Prop48
 90
       50
102
RTVSPost2010PropOp48
 70
     1
102
RTVSPost2010Prop49
280
     0
102
RTVSPost2010PropOp49
 70
     1
102
RTVSPost2010Prop50
 90
       50
102
RTVSPost2010PropOp50
 70
     1
102
RTVSPost2010Prop51ColorIndex
 90
      256
102
RTVSPost2010Prop51ColorRGB
 90
-16777216
102
RTVSPost2010PropOp51
 70
     0
102
RTVSPost2010Prop52
140
1.0
102
RTVSPost2010PropOp52
 70
     0
102
RTVSPost2010Prop53
 90
        2
102
RTVSPost2010PropOp53
 70
     1
102
RTVSPost2010Prop54
  1
strokes_ogs.tif
102
RTVSPost2010PropOp54
 70
     1
102
RTVSPost2010Prop55
280
     0
102
RTVSPost2010PropOp55
 70
     1
102
RTVSPost2010Prop56
140
1.0
102
RTVSPost2010PropOp56
 70
     1
102
RTVSPost2010Prop57
140
1.0
102
RTVSPost2010PropOp57
 70
     1
102
RTVSPropertyOp0
 70
     1
102
RTVSPropertyOp1
 70
     1
102
RTVSPropertyOp2
 70
     1
102
RTVSPropertyOp3
 70
     1
102
RTVSPropertyOp4
 70
     1
102
RTVSPropertyOp5
 70
     1
102
RTVSPropertyOp6
 70
     1
102
RTVSPropertyOp7
 70
     1
102
RTVSPropertyOp8
 70
     1
102
RTVSPropertyOp9
 70
     1
102
RTVSPropertyOp10
 70
     1
102
RTVSPropertyOp11
 70
     1
102
RTVSPropertyOp12
 70
     1
102
RTVSPropertyOp13
 70
     1
102
RTVSPropertyOp14
 70
     1
102
RTVSPropertyOp15
 70
     1
102
RTVSPropertyOp16
 70
     1
102
RTVSPropertyOp17
 70
     1
102
RTVSPropertyOp18
 70
     1
102
RTVSPropertyOp19
 70
     1
102
RTVSPropertyOp20
 70
     1
102
RTVSPropertyOp21
 70
     1
102
RTVSPropertyOp22
 70
     1
102
RTVSPropertyOp23
 70
     1
102
RTVSPropertyOp24
 70
     1
102
RTVSPropertyOp25
 70
     1
102
RTVSPropertyOp26
 70
     1
102
RTVSPropertyOp27
 70
     1
102
RTVSPropertyOp28
 70
     1
102
RTVSPropertyOp29
 70
     1
102
RTVSPropertyOp30
 70
     1
102
RTVSPropertyOp31
 70
     1
102
RTVSPropertyOp32
 70
     1
102
RTVSPropertyOp33
 70
     1
102
RTVSPropertyOp34
 70
     1
102
RTVSPropertyOp35
 70
     1
102
RTVSPropertyOp36
 70
     1
102
RTVSPropertyOp37
 70
     1
102
RTVSPropertyOp38
 70
     1
102
RTVSPropertyOp39
 70
     1
102
RTVSPropertyOp40
 70
     1
102
RTVSPropertyOp41
 70
     1
102
RTVSPropertyOp42
 70
     1
102
RTVSPropertyOp43
 70
     1
102
RTVSPropertyOp44
 70
     1
102
RTVSPropertyOp45
 70
     1
102
RTVSPropertyOp46
 70
     1
102
RTVSPropertyOp47
 70
     1
102
RTVSPropertyOp48
 70
     1
102
RTVSPropertyOp49
 70
     1
102
RTVSPropertyOp50
 70
     1
102
RTVSPropertyOp51
 70
     0
102
RTVSPropertyOp52
 70
     0
102
RTVSPropertyOp53
 70
     1
102
RTVSPropertyOp54
 70
     1
102
RTVSPropertyOp55
 70
     1
102
RTVSPropertyOp56
 70
     1
102
RTVSPropertyOp57
 70
     1
102
RTVSPropertyOp58
 70
     1
102
RTVSPropertyOp59
 70
     1
102
RTVSPropertyOp60
 70
     1
102
RTVSPropertyOp61
 70
     1
102
RTVSPropertyOp62
 70
     1
  0
XRECORD
  5
3A9
102
{ACAD_REACTORS
330
3A8
102
}
330
3A8
100
AcDbXrecord
280
     1
102
RTVSPost2010Prop28
280
     0
102
RTVSPost2010PropOp28
 70
     1
102
RTVSPost2010Prop29
280
     1
102
RTVSPost2010PropOp29
 70
     1
102
RTVSPost2010Prop30
280
     1
102
RTVSPost2010PropOp30
 70
     1
102
RTVSPost2010Prop31
280
     0
102
RTVSPost2010PropOp31
 70
     1
102
RTVSPost2010Prop32
280
     0
102
RTVSPost2010PropOp32
 70
     1
102
RTVSPost2010Prop33
280
     0
102
RTVSPost2010PropOp33
 70
     1
102
RTVSPost2010Prop34
280
     0
102
RTVSPost2010PropOp34
 70
     1
102
RTVSPost2010Prop35
280
     0
102
RTVSPost2010PropOp35
 70
     1
102
RTVSPost2010Prop36
280
     0
102
RTVSPost2010PropOp36
 70
     1
102
RTVSPost2010Prop37
 90
       50
102
RTVSPost2010PropOp37
 70
     1
102
RTVSPost2010Prop38
140
0.0
102
RTVSPost2010PropOp38
 70
     1
102
RTVSPost2010Prop39
140
1.0
102
RTVSPost2010PropOp39
 70
     1
102
RTVSPost2010Prop40
 90
        0
102
RTVSPost2010PropOp40
 70
     1
102
RTVSPost2010Prop41ColorIndex
 90
       18
102
RTVSPost2010Prop41ColorRGB
 90
        0
102
RTVSPost2010PropOp41
 70
     1
102
RTVSPost2010Prop42
 90
       50
102
RTVSPost2010PropOp42
 70
     1
102
RTVSPost2010Prop43
 90
        3
102
RTVSPost2010PropOp43
 70
     1
102
RTVSPost2010Prop44ColorIndex
 90
        5
102
RTVSPost2010Prop44ColorRGB
 90
      255
102
RTVSPost2010PropOp44
 70
     1
102
RTVSPost2010Prop45
280
     0
102
RTVSPost2010PropOp45
 70
     1
102
RTVSPost2010Prop46
 90
       50
102
RTVSPost2010PropOp46
 70
     1
102
RTVSPost2010Prop47
 90
       50
102
RTVSPost2010PropOp47
 70
     1
102
RTVSPost2010Prop48
 90
       50
102
RTVSPost2010PropOp48
 70
     1
102
RTVSPost2010Prop49
280
     0
102
RTVSPost2010PropOp49
 70
     1
102
RTVSPost2010Prop50
 90
       50
102
RTVSPost2010PropOp50
 70
     1
102
RTVSPost2010Prop51ColorIndex
 90
      256
102
RTVSPost2010Prop51ColorRGB
 90
-16777216
102
RTVSPost2010PropOp51
 70
     0
102
RTVSPost2010Prop52
140
1.0
102
RTVSPost2010PropOp52
 70
     0
102
RTVSPost2010Prop53
 90
        2
102
RTVSPost2010PropOp53
 70
     1
102
RTVSPost2010Prop54
  1
strokes_ogs.tif
102
RTVSPost2010PropOp54
 70
     1
102
RTVSPost2010Prop55
280
     0
102
RTVSPost2010PropOp55
 70
     1
102
RTVSPost2010Prop56
140
1.0
102
RTVSPost2010PropOp56
 70
     1
102
RTVSPost2010Prop57
140
1.0
102
RTVSPost2010PropOp57
 70
     1
102
RTVSPropertyOp0
 70
     1
102
RTVSPropertyOp1
 70
     1
102
RTVSPropertyOp2
 70
     1
102
RTVSPropertyOp3
 70
     1
102
RTVSPropertyOp4
 70
     1
102
RTVSPropertyOp5
 70
     1
102
RTVSPropertyOp6
 70
     1
102
RTVSPropertyOp7
 70
     1
102
RTVSPropertyOp8
 70
     1
102
RTVSPropertyOp9
 70
     1
102
RTVSPropertyOp10
 70
     1
102
RTVSPropertyOp11
 70
     1
102
RTVSPropertyOp12
 70
     1
102
RTVSPropertyOp13
 70
     1
102
RTVSPropertyOp14
 70
     1
102
RTVSPropertyOp15
 70
     1
102
RTVSPropertyOp16
 70
     1
102
RTVSPropertyOp17
 70
     1
102
RTVSPropertyOp18
 70
     1
102
RTVSPropertyOp19
 70
     1
102
RTVSPropertyOp20
 70
     1
102
RTVSPropertyOp21
 70
     1
102
RTVSPropertyOp22
 70
     1
102
RTVSPropertyOp23
 70
     1
102
RTVSPropertyOp24
 70
     1
102
RTVSPropertyOp25
 70
     1
102
RTVSPropertyOp26
 70
     1
102
RTVSPropertyOp27
 70
     1
102
RTVSPropertyOp28
 70
     1
102
RTVSPropertyOp29
 70
     1
102
RTVSPropertyOp30
 70
     1
102
RTVSPropertyOp31
 70
     1
102
RTVSPropertyOp32
 70
     1
102
RTVSPropertyOp33
 70
     1
102
RTVSPropertyOp34
 70
     1
102
RTVSPropertyOp35
 70
     1
102
RTVSPropertyOp36
 70
     1
102
RTVSPropertyOp37
 70
     1
102
RTVSPropertyOp38
 70
     1
102
RTVSPropertyOp39
 70
     1
102
RTVSPropertyOp40
 70
     1
102
RTVSPropertyOp41
 70
     1
102
RTVSPropertyOp42
 70
     1
102
RTVSPropertyOp43
 70
     1
102
RTVSPropertyOp44
 70
     1
102
RTVSPropertyOp45
 70
     1
102
RTVSPropertyOp46
 70
     1
102
RTVSPropertyOp47
 70
     1
102
RTVSPropertyOp48
 70
     1
102
RTVSPropertyOp49
 70
     1
102
RTVSPropertyOp50
 70
     1
102
RTVSPropertyOp51
 70
     0
102
RTVSPropertyOp52
 70
     0
102
RTVSPropertyOp53
 70
     1
102
RTVSPropertyOp54
 70
     1
102
RTVSPropertyOp55
 70
     1
102
RTVSPropertyOp56
 70
     1
102
RTVSPropertyOp57
 70
     1
102
RTVSPropertyOp58
 70
     1
102
RTVSPropertyOp59
 70
     1
102
RTVSPropertyOp60
 70
     1
102
RTVSPropertyOp61
 70
     1
102
RTVSPropertyOp62
 70
     1
  0
XRECORD
  5
399
102
{ACAD_REACTORS
330
398
102
}
330
398
100
AcDbXrecord
280
     1
102
RTVSPost2010Prop28
280
     0
102
RTVSPost2010PropOp28
 70
     1
102
RTVSPost2010Prop29
280
     1
102
RTVSPost2010PropOp29
 70
     1
102
RTVSPost2010Prop30
280
     1
102
RTVSPost2010PropOp30
 70
     1
102
RTVSPost2010Prop31
280
     0
102
RTVSPost2010PropOp31
 70
     1
102
RTVSPost2010Prop32
280
     0
102
RTVSPost2010PropOp32
 70
     1
102
RTVSPost2010Prop33
280
     0
102
RTVSPost2010PropOp33
 70
     1
102
RTVSPost2010Prop34
280
     0
102
RTVSPost2010PropOp34
 70
     1
102
RTVSPost2010Prop35
280
     0
102
RTVSPost2010PropOp35
 70
     1
102
RTVSPost2010Prop36
280
     0
102
RTVSPost2010PropOp36
 70
     1
102
RTVSPost2010Prop37
 90
       50
102
RTVSPost2010PropOp37
 70
     1
102
RTVSPost2010Prop38
140
0.0
102
RTVSPost2010PropOp38
 70
     1
102
RTVSPost2010Prop39
140
1.0
102
RTVSPost2010PropOp39
 70
     1
102
RTVSPost2010Prop40
 90
        0
102
RTVSPost2010PropOp40
 70
     1
102
RTVSPost2010Prop41ColorIndex
 90
       18
102
RTVSPost2010Prop41ColorRGB
 90
        0
102
RTVSPost2010PropOp41
 70
     1
102
RTVSPost2010Prop42
 90
       50
102
RTVSPost2010PropOp42
 70
     1
102
RTVSPost2010Prop43
 90
        3
102
RTVSPost2010PropOp43
 70
     1
102
RTVSPost2010Prop44ColorIndex
 90
        5
102
RTVSPost2010Prop44ColorRGB
 90
      255
102
RTVSPost2010PropOp44
 70
     1
102
RTVSPost2010Prop45
280
     0
102
RTVSPost2010PropOp45
 70
     1
102
RTVSPost2010Prop46
 90
       50
102
RTVSPost2010PropOp46
 70
     1
102
RTVSPost2010Prop47
 90
       50
102
RTVSPost2010PropOp47
 70
     1
102
RTVSPost2010Prop48
 90
       50
102
RTVSPost2010PropOp48
 70
     1
102
RTVSPost2010Prop49
280
     0
102
RTVSPost2010PropOp49
 70
     1
102
RTVSPost2010Prop50
 90
       50
102
RTVSPost2010PropOp50
 70
     1
102
RTVSPost2010Prop51ColorIndex
 90
      256
102
RTVSPost2010Prop51ColorRGB
 90
-16777216
102
RTVSPost2010PropOp51
 70
     0
102
RTVSPost2010Prop52
140
1.0
102
RTVSPost2010PropOp52
 70
     0
102
RTVSPost2010Prop53
 90
        2
102
RTVSPost2010PropOp53
 70
     1
102
RTVSPost2010Prop54
  1
strokes_ogs.tif
102
RTVSPost2010PropOp54
 70
     1
102
RTVSPost2010Prop55
280
     0
102
RTVSPost2010PropOp55
 70
     1
102
RTVSPost2010Prop56
140
1.0
102
RTVSPost2010PropOp56
 70
     1
102
RTVSPost2010Prop57
140
1.0
102
RTVSPost2010PropOp57
 70
     1
102
RTVSPropertyOp0
 70
     1
102
RTVSPropertyOp1
 70
     1
102
RTVSPropertyOp2
 70
     1
102
RTVSPropertyOp3
 70
     1
102
RTVSPropertyOp4
 70
     1
102
RTVSPropertyOp5
 70
     1
102
RTVSPropertyOp6
 70
     1
102
RTVSPropertyOp7
 70
     1
102
RTVSPropertyOp8
 70
     1
102
RTVSPropertyOp9
 70
     1
102
RTVSPropertyOp10
 70
     1
102
RTVSPropertyOp11
 70
     1
102
RTVSPropertyOp12
 70
     1
102
RTVSPropertyOp13
 70
     1
102
RTVSPropertyOp14
 70
     1
102
RTVSPropertyOp15
 70
     1
102
RTVSPropertyOp16
 70
     1
102
RTVSPropertyOp17
 70
     1
102
RTVSPropertyOp18
 70
     1
102
RTVSPropertyOp19
 70
     1
102
RTVSPropertyOp20
 70
     1
102
RTVSPropertyOp21
 70
     1
102
RTVSPropertyOp22
 70
     1
102
RTVSPropertyOp23
 70
     1
102
RTVSPropertyOp24
 70
     1
102
RTVSPropertyOp25
 70
     1
102
RTVSPropertyOp26
 70
     1
102
RTVSPropertyOp27
 70
     1
102
RTVSPropertyOp28
 70
     1
102
RTVSPropertyOp29
 70
     1
102
RTVSPropertyOp30
 70
     1
102
RTVSPropertyOp31
 70
     1
102
RTVSPropertyOp32
 70
     1
102
RTVSPropertyOp33
 70
     1
102
RTVSPropertyOp34
 70
     1
102
RTVSPropertyOp35
 70
     1
102
RTVSPropertyOp36
 70
     1
102
RTVSPropertyOp37
 70
     1
102
RTVSPropertyOp38
 70
     1
102
RTVSPropertyOp39
 70
     1
102
RTVSPropertyOp40
 70
     1
102
RTVSPropertyOp41
 70
     1
102
RTVSPropertyOp42
 70
     1
102
RTVSPropertyOp43
 70
     1
102
RTVSPropertyOp44
 70
     1
102
RTVSPropertyOp45
 70
     1
102
RTVSPropertyOp46
 70
     1
102
RTVSPropertyOp47
 70
     1
102
RTVSPropertyOp48
 70
     1
102
RTVSPropertyOp49
 70
     1
102
RTVSPropertyOp50
 70
     1
102
RTVSPropertyOp51
 70
     0
102
RTVSPropertyOp52
 70
     0
102
RTVSPropertyOp53
 70
     1
102
RTVSPropertyOp54
 70
     1
102
RTVSPropertyOp55
 70
     1
102
RTVSPropertyOp56
 70
     1
102
RTVSPropertyOp57
 70
     1
102
RTVSPropertyOp58
 70
     1
102
RTVSPropertyOp59
 70
     1
102
RTVSPropertyOp60
 70
     1
102
RTVSPropertyOp61
 70
     1
102
RTVSPropertyOp62
 70
     1
  0
XRECORD
  5
38B
102
{ACAD_REACTORS
330
38A
102
}
330
38A
100
AcDbXrecord
280
     1
102
RTVSPost2010Prop28
280
     0
102
RTVSPost2010PropOp28
 70
     1
102
RTVSPost2010Prop29
280
     1
102
RTVSPost2010PropOp29
 70
     1
102
RTVSPost2010Prop30
280
     1
102
RTVSPost2010PropOp30
 70
     1
102
RTVSPost2010Prop31
280
     0
102
RTVSPost2010PropOp31
 70
     1
102
RTVSPost2010Prop32
280
     0
102
RTVSPost2010PropOp32
 70
     1
102
RTVSPost2010Prop33
280
     0
102
RTVSPost2010PropOp33
 70
     1
102
RTVSPost2010Prop34
280
     0
102
RTVSPost2010PropOp34
 70
     1
102
RTVSPost2010Prop35
280
     0
102
RTVSPost2010PropOp35
 70
     1
102
RTVSPost2010Prop36
280
     0
102
RTVSPost2010PropOp36
 70
     1
102
RTVSPost2010Prop37
 90
       50
102
RTVSPost2010PropOp37
 70
     1
102
RTVSPost2010Prop38
140
0.0
102
RTVSPost2010PropOp38
 70
     1
102
RTVSPost2010Prop39
140
1.0
102
RTVSPost2010PropOp39
 70
     1
102
RTVSPost2010Prop40
 90
        0
102
RTVSPost2010PropOp40
 70
     1
102
RTVSPost2010Prop41ColorIndex
 90
       18
102
RTVSPost2010Prop41ColorRGB
 90
        0
102
RTVSPost2010PropOp41
 70
     1
102
RTVSPost2010Prop42
 90
       50
102
RTVSPost2010PropOp42
 70
     1
102
RTVSPost2010Prop43
 90
        3
102
RTVSPost2010PropOp43
 70
     1
102
RTVSPost2010Prop44ColorIndex
 90
        5
102
RTVSPost2010Prop44ColorRGB
 90
      255
102
RTVSPost2010PropOp44
 70
     1
102
RTVSPost2010Prop45
280
     0
102
RTVSPost2010PropOp45
 70
     1
102
RTVSPost2010Prop46
 90
       50
102
RTVSPost2010PropOp46
 70
     1
102
RTVSPost2010Prop47
 90
       50
102
RTVSPost2010PropOp47
 70
     1
102
RTVSPost2010Prop48
 90
       50
102
RTVSPost2010PropOp48
 70
     1
102
RTVSPost2010Prop49
280
     0
102
RTVSPost2010PropOp49
 70
     1
102
RTVSPost2010Prop50
 90
       50
102
RTVSPost2010PropOp50
 70
     1
102
RTVSPost2010Prop51ColorIndex
 90
      256
102
RTVSPost2010Prop51ColorRGB
 90
-16777216
102
RTVSPost2010PropOp51
 70
     0
102
RTVSPost2010Prop52
140
1.0
102
RTVSPost2010PropOp52
 70
     0
102
RTVSPost2010Prop53
 90
        2
102
RTVSPost2010PropOp53
 70
     1
102
RTVSPost2010Prop54
  1
strokes_ogs.tif
102
RTVSPost2010PropOp54
 70
     1
102
RTVSPost2010Prop55
280
     0
102
RTVSPost2010PropOp55
 70
     1
102
RTVSPost2010Prop56
140
1.0
102
RTVSPost2010PropOp56
 70
     1
102
RTVSPost2010Prop57
140
1.0
102
RTVSPost2010PropOp57
 70
     1
102
RTVSPropertyOp0
 70
     1
102
RTVSPropertyOp1
 70
     1
102
RTVSPropertyOp2
 70
     1
102
RTVSPropertyOp3
 70
     1
102
RTVSPropertyOp4
 70
     1
102
RTVSPropertyOp5
 70
     1
102
RTVSPropertyOp6
 70
     1
102
RTVSPropertyOp7
 70
     1
102
RTVSPropertyOp8
 70
     1
102
RTVSPropertyOp9
 70
     1
102
RTVSPropertyOp10
 70
     1
102
RTVSPropertyOp11
 70
     1
102
RTVSPropertyOp12
 70
     1
102
RTVSPropertyOp13
 70
     1
102
RTVSPropertyOp14
 70
     1
102
RTVSPropertyOp15
 70
     1
102
RTVSPropertyOp16
 70
     1
102
RTVSPropertyOp17
 70
     1
102
RTVSPropertyOp18
 70
     1
102
RTVSPropertyOp19
 70
     1
102
RTVSPropertyOp20
 70
     1
102
RTVSPropertyOp21
 70
     1
102
RTVSPropertyOp22
 70
     1
102
RTVSPropertyOp23
 70
     1
102
RTVSPropertyOp24
 70
     1
102
RTVSPropertyOp25
 70
     1
102
RTVSPropertyOp26
 70
     1
102
RTVSPropertyOp27
 70
     1
102
RTVSPropertyOp28
 70
     1
102
RTVSPropertyOp29
 70
     1
102
RTVSPropertyOp30
 70
     1
102
RTVSPropertyOp31
 70
     1
102
RTVSPropertyOp32
 70
     1
102
RTVSPropertyOp33
 70
     1
102
RTVSPropertyOp34
 70
     1
102
RTVSPropertyOp35
 70
     1
102
RTVSPropertyOp36
 70
     1
102
RTVSPropertyOp37
 70
     1
102
RTVSPropertyOp38
 70
     1
102
RTVSPropertyOp39
 70
     1
102
RTVSPropertyOp40
 70
     1
102
RTVSPropertyOp41
 70
     1
102
RTVSPropertyOp42
 70
     1
102
RTVSPropertyOp43
 70
     1
102
RTVSPropertyOp44
 70
     1
102
RTVSPropertyOp45
 70
     1
102
RTVSPropertyOp46
 70
     1
102
RTVSPropertyOp47
 70
     1
102
RTVSPropertyOp48
 70
     1
102
RTVSPropertyOp49
 70
     1
102
RTVSPropertyOp50
 70
     1
102
RTVSPropertyOp51
 70
     0
102
RTVSPropertyOp52
 70
     0
102
RTVSPropertyOp53
 70
     1
102
RTVSPropertyOp54
 70
     1
102
RTVSPropertyOp55
 70
     1
102
RTVSPropertyOp56
 70
     1
102
RTVSPropertyOp57
 70
     1
102
RTVSPropertyOp58
 70
     1
102
RTVSPropertyOp59
 70
     1
102
RTVSPropertyOp60
 70
     1
102
RTVSPropertyOp61
 70
     1
102
RTVSPropertyOp62
 70
     1
  0
XRECORD
  5
3AB
102
{ACAD_REACTORS
330
3AA
102
}
330
3AA
100
AcDbXrecord
280
     1
102
RTVSPost2010Prop28
280
     0
102
RTVSPost2010PropOp28
 70
     1
102
RTVSPost2010Prop29
280
     1
102
RTVSPost2010PropOp29
 70
     1
102
RTVSPost2010Prop30
280
     1
102
RTVSPost2010PropOp30
 70
     1
102
RTVSPost2010Prop31
280
     0
102
RTVSPost2010PropOp31
 70
     1
102
RTVSPost2010Prop32
280
     0
102
RTVSPost2010PropOp32
 70
     1
102
RTVSPost2010Prop33
280
     0
102
RTVSPost2010PropOp33
 70
     1
102
RTVSPost2010Prop34
280
     0
102
RTVSPost2010PropOp34
 70
     1
102
RTVSPost2010Prop35
280
     0
102
RTVSPost2010PropOp35
 70
     1
102
RTVSPost2010Prop36
280
     0
102
RTVSPost2010PropOp36
 70
     1
102
RTVSPost2010Prop37
 90
       50
102
RTVSPost2010PropOp37
 70
     1
102
RTVSPost2010Prop38
140
0.0
102
RTVSPost2010PropOp38
 70
     1
102
RTVSPost2010Prop39
140
1.0
102
RTVSPost2010PropOp39
 70
     1
102
RTVSPost2010Prop40
 90
        0
102
RTVSPost2010PropOp40
 70
     1
102
RTVSPost2010Prop41ColorIndex
 90
       18
102
RTVSPost2010Prop41ColorRGB
 90
        0
102
RTVSPost2010PropOp41
 70
     1
102
RTVSPost2010Prop42
 90
       50
102
RTVSPost2010PropOp42
 70
     1
102
RTVSPost2010Prop43
 90
        3
102
RTVSPost2010PropOp43
 70
     1
102
RTVSPost2010Prop44ColorIndex
 90
        5
102
RTVSPost2010Prop44ColorRGB
 90
      255
102
RTVSPost2010PropOp44
 70
     1
102
RTVSPost2010Prop45
280
     0
102
RTVSPost2010PropOp45
 70
     1
102
RTVSPost2010Prop46
 90
       50
102
RTVSPost2010PropOp46
 70
     1
102
RTVSPost2010Prop47
 90
       50
102
RTVSPost2010PropOp47
 70
     1
102
RTVSPost2010Prop48
 90
       50
102
RTVSPost2010PropOp48
 70
     1
102
RTVSPost2010Prop49
280
     0
102
RTVSPost2010PropOp49
 70
     1
102
RTVSPost2010Prop50
 90
       50
102
RTVSPost2010PropOp50
 70
     1
102
RTVSPost2010Prop51ColorIndex
 90
      256
102
RTVSPost2010Prop51ColorRGB
 90
-16777216
102
RTVSPost2010PropOp51
 70
     0
102
RTVSPost2010Prop52
140
1.0
102
RTVSPost2010PropOp52
 70
     0
102
RTVSPost2010Prop53
 90
        2
102
RTVSPost2010PropOp53
 70
     1
102
RTVSPost2010Prop54
  1
strokes_ogs.tif
102
RTVSPost2010PropOp54
 70
     1
102
RTVSPost2010Prop55
280
     0
102
RTVSPost2010PropOp55
 70
     1
102
RTVSPost2010Prop56
140
1.0
102
RTVSPost2010PropOp56
 70
     1
102
RTVSPost2010Prop57
140
1.0
102
RTVSPost2010PropOp57
 70
     1
102
RTVSPropertyOp0
 70
     1
102
RTVSPropertyOp1
 70
     1
102
RTVSPropertyOp2
 70
     1
102
RTVSPropertyOp3
 70
     1
102
RTVSPropertyOp4
 70
     1
102
RTVSPropertyOp5
 70
     1
102
RTVSPropertyOp6
 70
     1
102
RTVSPropertyOp7
 70
     1
102
RTVSPropertyOp8
 70
     1
102
RTVSPropertyOp9
 70
     1
102
RTVSPropertyOp10
 70
     1
102
RTVSPropertyOp11
 70
     1
102
RTVSPropertyOp12
 70
     1
102
RTVSPropertyOp13
 70
     1
102
RTVSPropertyOp14
 70
     1
102
RTVSPropertyOp15
 70
     1
102
RTVSPropertyOp16
 70
     1
102
RTVSPropertyOp17
 70
     1
102
RTVSPropertyOp18
 70
     1
102
RTVSPropertyOp19
 70
     1
102
RTVSPropertyOp20
 70
     1
102
RTVSPropertyOp21
 70
     1
102
RTVSPropertyOp22
 70
     1
102
RTVSPropertyOp23
 70
     1
102
RTVSPropertyOp24
 70
     1
102
RTVSPropertyOp25
 70
     1
102
RTVSPropertyOp26
 70
     1
102
RTVSPropertyOp27
 70
     1
102
RTVSPropertyOp28
 70
     1
102
RTVSPropertyOp29
 70
     1
102
RTVSPropertyOp30
 70
     1
102
RTVSPropertyOp31
 70
     1
102
RTVSPropertyOp32
 70
     1
102
RTVSPropertyOp33
 70
     1
102
RTVSPropertyOp34
 70
     1
102
RTVSPropertyOp35
 70
     1
102
RTVSPropertyOp36
 70
     1
102
RTVSPropertyOp37
 70
     1
102
RTVSPropertyOp38
 70
     1
102
RTVSPropertyOp39
 70
     1
102
RTVSPropertyOp40
 70
     1
102
RTVSPropertyOp41
 70
     1
102
RTVSPropertyOp42
 70
     1
102
RTVSPropertyOp43
 70
     1
102
RTVSPropertyOp44
 70
     1
102
RTVSPropertyOp45
 70
     1
102
RTVSPropertyOp46
 70
     1
102
RTVSPropertyOp47
 70
     1
102
RTVSPropertyOp48
 70
     1
102
RTVSPropertyOp49
 70
     1
102
RTVSPropertyOp50
 70
     1
102
RTVSPropertyOp51
 70
     0
102
RTVSPropertyOp52
 70
     0
102
RTVSPropertyOp53
 70
     1
102
RTVSPropertyOp54
 70
     1
102
RTVSPropertyOp55
 70
     1
102
RTVSPropertyOp56
 70
     1
102
RTVSPropertyOp57
 70
     1
102
RTVSPropertyOp58
 70
     1
102
RTVSPropertyOp59
 70
     1
102
RTVSPropertyOp60
 70
     1
102
RTVSPropertyOp61
 70
     1
102
RTVSPropertyOp62
 70
     1
  0
ENDSEC
  0
EOF
