  0
SECTION
  2
HEADER
  9
$ACADVER
  1
AC1018
  9
$ACADMAINTVER
 70
   104
  9
$DWGCODEPAGE
  3
ANSI_1250
  9
$LASTSAVEDBY
  1
wq7085
  9
$INSBASE
 10
0.0
 20
0.0
 30
0.0
  9
$EXTMIN
 10
177.3344163333333
 20
114.534924
 30
0.0
  9
$EXTMAX
 10
435.7165209999999
 20
345.2288016666667
 30
0.0
  9
$LIMMIN
 10
-0.5
 20
-0.5
  9
$LIMMAX
 10
5.0
 20
5.0
  9
$ORTHOMODE
 70
     0
  9
$REGENMODE
 70
     1
  9
$FILLMODE
 70
     1
  9
$QTEXTMODE
 70
     0
  9
$MIRRTEXT
 70
     1
  9
$LTSCALE
 40
1.0
  9
$ATTMODE
 70
     1
  9
$TEXTSIZE
 40
0.2
  9
$TRACEWID
 40
0.05
  9
$TEXTSTYLE
  7
Standard
  9
$CLAYER
  8
0
  9
$CELTYPE
  6
ByLayer
  9
$CECOLOR
 62
   256
  9
$CELTSCALE
 40
1.0
  9
$DISPSILH
 70
     0
  9
$DIMSCALE
 40
1.0
  9
$DIMASZ
 40
0.18
  9
$DIMEXO
 40
0.0625
  9
$DIMDLI
 40
0.38
  9
$DIMRND
 40
0.0
  9
$DIMDLE
 40
0.0
  9
$DIMEXE
 40
0.18
  9
$DIMTP
 40
0.0
  9
$DIMTM
 40
0.0
  9
$DIMTXT
 40
0.18
  9
$DIMCEN
 40
0.09
  9
$DIMTSZ
 40
0.0
  9
$DIMTOL
 70
     0
  9
$DIMLIM
 70
     0
  9
$DIMTIH
 70
     1
  9
$DIMTOH
 70
     1
  9
$DIMSE1
 70
     0
  9
$DIMSE2
 70
     0
  9
$DIMTAD
 70
     0
  9
$DIMZIN
 70
     0
  9
$DIMBLK
  1

  9
$DIMASO
 70
     1
  9
$DIMSHO
 70
     1
  9
$DIMPOST
  1

  9
$DIMAPOST
  1

  9
$DIMALT
 70
     0
  9
$DIMALTD
 70
     2
  9
$DIMALTF
 40
25.4
  9
$DIMLFAC
 40
1.0
  9
$DIMTOFL
 70
     0
  9
$DIMTVP
 40
0.0
  9
$DIMTIX
 70
     0
  9
$DIMSOXD
 70
     0
  9
$DIMSAH
 70
     0
  9
$DIMBLK1
  1

  9
$DIMBLK2
  1

  9
$DIMSTYLE
  2
Standard
  9
$DIMCLRD
 70
     0
  9
$DIMCLRE
 70
     0
  9
$DIMCLRT
 70
     0
  9
$DIMTFAC
 40
1.0
  9
$DIMGAP
 40
0.09
  9
$DIMJUST
 70
     0
  9
$DIMSD1
 70
     0
  9
$DIMSD2
 70
     0
  9
$DIMTOLJ
 70
     1
  9
$DIMTZIN
 70
     0
  9
$DIMALTZ
 70
     0
  9
$DIMALTTZ
 70
     0
  9
$DIMUPT
 70
     0
  9
$DIMDEC
 70
     4
  9
$DIMTDEC
 70
     4
  9
$DIMALTU
 70
     2
  9
$DIMALTTD
 70
     2
  9
$DIMTXSTY
  7
Standard
  9
$DIMAUNIT
 70
     0
  9
$DIMADEC
 70
     0
  9
$DIMALTRND
 40
0.0
  9
$DIMAZIN
 70
     0
  9
$DIMDSEP
 70
    46
  9
$DIMATFIT
 70
     3
  9
$DIMFRAC
 70
     0
  9
$DIMLDRBLK
  1

  9
$DIMLUNIT
 70
     2
  9
$DIMLWD
 70
    -2
  9
$DIMLWE
 70
    -2
  9
$DIMTMOVE
 70
     0
  9
$LUNITS
 70
     2
  9
$LUPREC
 70
     4
  9
$SKETCHINC
 40
0.1
  9
$FILLETRAD
 40
0.5
  9
$AUNITS
 70
     0
  9
$AUPREC
 70
     0
  9
$MENU
  1
.
  9
$ELEVATION
 40
0.0
  9
$PELEVATION
 40
0.0
  9
$THICKNESS
 40
0.0
  9
$LIMCHECK
 70
     0
  9
$CHAMFERA
 40
0.0
  9
$CHAMFERB
 40
0.0
  9
$CHAMFERC
 40
0.0
  9
$CHAMFERD
 40
0.0
  9
$SKPOLY
 70
     0
  9
$TDCREATE
 40
2459066.453738426
  9
$TDUCREATE
 40
2459066.370414896
  9
$TDUPDATE
 40
2459066.455879630
  9
$TDUUPDATE
 40
2459066.372546296
  9
$TDINDWG
 40
0.0019444560
  9
$TDUSRTIMER
 40
0.0019444560
  9
$USRTIMER
 70
     1
  9
$ANGBASE
 50
0.0
  9
$ANGDIR
 70
     0
  9
$PDMODE
 70
     0
  9
$PDSIZE
 40
0.0
  9
$PLINEWID
 40
0.0
  9
$SPLFRAME
 70
     0
  9
$SPLINETYPE
 70
     6
  9
$SPLINESEGS
 70
     8
  9
$HANDSEED
  5
3AA
  9
$SURFTAB1
 70
     6
  9
$SURFTAB2
 70
     6
  9
$SURFTYPE
 70
     6
  9
$SURFU
 70
     6
  9
$SURFV
 70
     6
  9
$UCSBASE
  2

  9
$UCSNAME
  2

  9
$UCSORG
 10
274.404842
 20
288.907994
 30
0.0
  9
$UCSXDIR
 10
1.0
 20
0.0
 30
0.0
  9
$UCSYDIR
 10
0.0
 20
1.0
 30
0.0
  9
$UCSORTHOREF
  2

  9
$UCSORTHOVIEW
 70
     0
  9
$UCSORGTOP
 10
0.0
 20
0.0
 30
0.0
  9
$UCSORGBOTTOM
 10
0.0
 20
0.0
 30
0.0
  9
$UCSORGLEFT
 10
0.0
 20
0.0
 30
0.0
  9
$UCSORGRIGHT
 10
0.0
 20
0.0
 30
0.0
  9
$UCSORGFRONT
 10
0.0
 20
0.0
 30
0.0
  9
$UCSORGBACK
 10
0.0
 20
0.0
 30
0.0
  9
$PUCSBASE
  2

  9
$PUCSNAME
  2

  9
$PUCSORG
 10
0.0
 20
0.0
 30
0.0
  9
$PUCSXDIR
 10
1.0
 20
0.0
 30
0.0
  9
$PUCSYDIR
 10
0.0
 20
1.0
 30
0.0
  9
$PUCSORTHOREF
  2

  9
$PUCSORTHOVIEW
 70
     0
  9
$PUCSORGTOP
 10
0.0
 20
0.0
 30
0.0
  9
$PUCSORGBOTTOM
 10
0.0
 20
0.0
 30
0.0
  9
$PUCSORGLEFT
 10
0.0
 20
0.0
 30
0.0
  9
$PUCSORGRIGHT
 10
0.0
 20
0.0
 30
0.0
  9
$PUCSORGFRONT
 10
0.0
 20
0.0
 30
0.0
  9
$PUCSORGBACK
 10
0.0
 20
0.0
 30
0.0
  9
$USERI1
 70
     0
  9
$USERI2
 70
     0
  9
$USERI3
 70
     0
  9
$USERI4
 70
     0
  9
$USERI5
 70
     0
  9
$USERR1
 40
0.0
  9
$USERR2
 40
0.0
  9
$USERR3
 40
0.0
  9
$USERR4
 40
0.0
  9
$USERR5
 40
0.0
  9
$WORLDVIEW
 70
     1
  9
$SHADEDGE
 70
     3
  9
$SHADEDIF
 70
    70
  9
$TILEMODE
 70
     1
  9
$MAXACTVP
 70
    64
  9
$PINSBASE
 10
0.0
 20
0.0
 30
0.0
  9
$PLIMCHECK
 70
     0
  9
$PEXTMIN
 10
-0.5
 20
-0.5
 30
-0.5
  9
$PEXTMAX
 10
5.0
 20
5.0
 30
5.0
  9
$PLIMMIN
 10
-0.5
 20
-0.5
  9
$PLIMMAX
 10
5.0
 20
5.0
  9
$UNITMODE
 70
     0
  9
$VISRETAIN
 70
     1
  9
$PLINEGEN
 70
     0
  9
$PSLTSCALE
 70
     1
  9
$TREEDEPTH
 70
  3020
  9
$CMLSTYLE
  2
Standard
  9
$CMLJUST
 70
     0
  9
$CMLSCALE
 40
1.0
  9
$PROXYGRAPHICS
 70
     1
  9
$MEASUREMENT
 70
     1
  9
$CELWEIGHT
370
    13
  9
$ENDCAPS
280
     0
  9
$JOINSTYLE
280
     0
  9
$LWDISPLAY
290
     0
  9
$INSUNITS
 70
     4
  9
$HYPERLINKBASE
  1

  9
$STYLESHEET
  1

  9
$XEDIT
290
     1
  9
$CEPSNTYPE
380
     0
  9
$PSTYLEMODE
290
     1
  9
$FINGERPRINTGUID
  2
{E25F40E6-DD66-44DD-904E-7C3FBA66031F}
  9
$VERSIONGUID
  2
{3706B089-B0DC-FB4E-935F-E7399F71A0C0}
  9
$EXTNAMES
290
     1
  9
$PSVPSCALE
 40
0.0
  9
$OLESTARTUP
290
     0
  9
$SORTENTS
280
   127
  9
$INDEXCTL
280
     0
  9
$HIDETEXT
280
     1
  9
$XCLIPFRAME
290
     0
  9
$HALOGAP
280
     0
  9
$OBSCOLOR
 70
   257
  9
$OBSLTYPE
280
     0
  9
$INTERSECTIONDISPLAY
280
     0
  9
$INTERSECTIONCOLOR
 70
   257
  9
$DIMASSOC
280
     2
  9
$PROJECTNAME
  1

  0
ENDSEC
  0
SECTION
  2
CLASSES
  0
CLASS
  1
ACDBDICTIONARYWDFLT
  2
AcDbDictionaryWithDefault
  3
ObjectDBX Classes
 90
        0
 91
        1
280
     0
281
     0
  0
CLASS
  1
VISUALSTYLE
  2
AcDbVisualStyle
  3
ObjectDBX Classes
 90
     4095
 91
       24
280
     0
281
     0
  0
CLASS
  1
MATERIAL
  2
AcDbMaterial
  3
ObjectDBX Classes
 90
     1153
 91
        3
280
     0
281
     0
  0
CLASS
  1
SCALE
  2
AcDbScale
  3
ObjectDBX Classes
 90
     1153
 91
       33
280
     0
281
     0
  0
CLASS
  1
TABLESTYLE
  2
AcDbTableStyle
  3
ObjectDBX Classes
 90
     4095
 91
        1
280
     0
281
     0
  0
CLASS
  1
MLEADERSTYLE
  2
AcDbMLeaderStyle
  3
ACDB_MLEADERSTYLE_CLASS
 90
     4095
 91
        1
280
     0
281
     0
  0
CLASS
  1
SUN
  2
AcDbSun
  3
SCENEOE
 90
     1153
 91
        0
280
     0
281
     0
  0
CLASS
  1
DIMASSOC
  2
AcDbDimAssoc
  3
"AcDbDimAssoc|Product Desc:     AcDim ARX App For Dimension|Company:          Autodesk, Inc.|WEB Address:      www.autodesk.com"
 90
        0
 91
        7
280
     0
281
     0
  0
CLASS
  1
DICTIONARYVAR
  2
AcDbDictionaryVar
  3
ObjectDBX Classes
 90
        0
 91
        8
280
     0
281
     0
  0
CLASS
  1
CELLSTYLEMAP
  2
AcDbCellStyleMap
  3
ObjectDBX Classes
 90
     1152
 91
        2
280
     0
281
     0
  0
CLASS
  1
ACDBSECTIONVIEWSTYLE
  2
AcDbSectionViewStyle
  3
ObjectDBX Classes
 90
     1025
 91
        1
280
     0
281
     0
  0
CLASS
  1
ACDBDETAILVIEWSTYLE
  2
AcDbDetailViewStyle
  3
ObjectDBX Classes
 90
     1025
 91
        1
280
     0
281
     0
  0
CLASS
  1
SORTENTSTABLE
  2
AcDbSortentsTable
  3
ObjectDBX Classes
 90
        0
 91
        1
280
     0
281
     0
  0
ENDSEC
  0
SECTION
  2
TABLES
  0
TABLE
  2
VPORT
  5
8
330
0
100
AcDbSymbolTable
 70
    16
  0
VPORT
  5
29
330
8
100
AcDbSymbolTableRecord
100
AcDbViewportTableRecord
  2
*Active
 70
     0
 10
0.0
 20
0.0
 11
1.0
 21
1.0
 12
308.1068381577319
 22
292.7623280895851
 13
0.0
 23
0.0
 14
0.5
 24
0.5
 15
0.5
 25
0.5
 16
0.0
 26
0.0
 36
1.0
 17
0.0
 27
0.0
 37
0.0
 40
213.2944040280332
 41
2.292712066905615
 42
50.0
 43
470.834478
 44
-470.834478
 50
0.0
 51
0.0
 71
     0
 72
   100
 73
     1
 74
     3
 75
     0
 76
     0
 77
     0
 78
     0
281
     0
 65
     1
110
274.404842
120
288.907994
130
0.0
111
1.0
121
0.0
131
0.0
112
0.0
122
1.0
132
0.0
 79
     0
146
0.0
1001
ACAD_NAV_VCDISPLAY
1070
     3
  0
VPORT
  5
2AE
330
8
100
AcDbSymbolTableRecord
100
AcDbViewportTableRecord
  2
L1
 70
     0
 10
0.0
 20
0.0
 11
1.0
 21
1.0
 12
306.021263
 22
229.841866
 13
0.0
 23
0.0
 14
0.5
 24
0.5
 15
0.5
 25
0.5
 16
0.0
 26
0.0
 36
1.0
 17
0.0
 27
0.0
 37
0.0
 40
207.433333
 41
0.085602
 42
50.0
 43
470.834478
 44
-470.834478
 50
0.0
 51
0.0
 71
     0
 72
   100
 73
     1
 74
     3
 75
     0
 76
     0
 77
     0
 78
     0
281
     0
 65
     1
110
0.0
120
0.0
130
0.0
111
1.0
121
0.0
131
0.0
112
0.0
122
1.0
132
0.0
 79
     0
146
0.0
  0
VPORT
  5
2AF
330
8
100
AcDbSymbolTableRecord
100
AcDbViewportTableRecord
  2
L2
 70
     0
 10
0.0
 20
0.0
 11
0.5
 21
1.0
 12
0.0
 22
0.0
 13
0.0
 23
0.0
 14
0.5
 24
0.5
 15
0.5
 25
0.5
 16
0.0
 26
-1.0
 36
0.0
 17
0.0
 27
0.0
 37
0.0
 40
1319.143726
 41
0.013461
 42
50.0
 43
679.601336
 44
-679.601336
 50
0.0
 51
0.0
 71
     0
 72
   100
 73
     1
 74
     3
 75
     0
 76
     0
 77
     0
 78
     0
281
     0
 65
     1
110
0.0
120
0.0
130
0.0
111
1.0
121
0.0
131
0.0
112
0.0
122
1.0
132
0.0
 79
     0
146
0.0
  0
VPORT
  5
2B0
330
8
100
AcDbSymbolTableRecord
100
AcDbViewportTableRecord
  2
L2
 70
     0
 10
0.5
 20
0.0
 11
1.0
 21
1.0
 12
0.0
 22
0.0
 13
0.0
 23
0.0
 14
0.5
 24
0.5
 15
0.5
 25
0.5
 16
1.0
 26
0.0
 36
0.0
 17
0.0
 27
0.0
 37
0.0
 40
1319.143726
 41
0.013461
 42
50.0
 43
667.6767099999999
 44
-667.6767099999999
 50
0.0
 51
0.0
 71
     0
 72
   100
 73
     1
 74
     3
 75
     0
 76
     0
 77
     0
 78
     0
281
     0
 65
     1
110
0.0
120
0.0
130
0.0
111
1.0
121
0.0
131
0.0
112
0.0
122
1.0
132
0.0
 79
     0
146
0.0
  0
VPORT
  5
2B1
330
8
100
AcDbSymbolTableRecord
100
AcDbViewportTableRecord
  2
L3
 70
     0
 10
0.0
 20
0.5
 11
1.0
 21
1.0
 12
306.021263
 22
229.841866
 13
0.0
 23
0.0
 14
0.5
 24
0.5
 15
0.5
 25
0.5
 16
0.0
 26
0.0
 36
1.0
 17
0.0
 27
0.0
 37
0.0
 40
207.433333
 41
0.085602
 42
50.0
 43
470.834478
 44
-470.834478
 50
0.0
 51
0.0
 71
     0
 72
   100
 73
     1
 74
     3
 75
     0
 76
     0
 77
     0
 78
     0
281
     0
 65
     1
110
0.0
120
0.0
130
0.0
111
1.0
121
0.0
131
0.0
112
0.0
122
1.0
132
0.0
 79
     0
146
0.0
  0
VPORT
  5
2B2
330
8
100
AcDbSymbolTableRecord
100
AcDbViewportTableRecord
  2
L3
 70
     0
 10
0.0
 20
0.0
 11
1.0
 21
0.5
 12
0.0
 22
0.0
 13
0.0
 23
0.0
 14
0.5
 24
0.5
 15
0.5
 25
0.5
 16
0.0
 26
-1.0
 36
0.0
 17
0.0
 27
0.0
 37
0.0
 40
1319.143726
 41
0.013461
 42
50.0
 43
679.601336
 44
-679.601336
 50
0.0
 51
0.0
 71
     0
 72
   100
 73
     1
 74
     3
 75
     0
 76
     0
 77
     0
 78
     0
281
     0
 65
     1
110
0.0
120
0.0
130
0.0
111
1.0
121
0.0
131
0.0
112
0.0
122
1.0
132
0.0
 79
     0
146
0.0
  0
VPORT
  5
2B3
330
8
100
AcDbSymbolTableRecord
100
AcDbViewportTableRecord
  2
L4
 70
     0
 10
0.0
 20
0.5
 11
0.5
 21
1.0
 12
306.021263
 22
229.841866
 13
0.0
 23
0.0
 14
0.5
 24
0.5
 15
0.5
 25
0.5
 16
0.0
 26
0.0
 36
1.0
 17
0.0
 27
0.0
 37
0.0
 40
207.433333
 41
0.085602
 42
50.0
 43
470.834478
 44
-470.834478
 50
0.0
 51
0.0
 71
     0
 72
   100
 73
     1
 74
     3
 75
     0
 76
     0
 77
     0
 78
     0
281
     0
 65
     1
110
0.0
120
0.0
130
0.0
111
1.0
121
0.0
131
0.0
112
0.0
122
1.0
132
0.0
 79
     0
146
0.0
  0
VPORT
  5
2B4
330
8
100
AcDbSymbolTableRecord
100
AcDbViewportTableRecord
  2
L4
 70
     0
 10
0.0
 20
0.0
 11
0.5
 21
0.5
 12
0.0
 22
0.0
 13
0.0
 23
0.0
 14
0.5
 24
0.5
 15
0.5
 25
0.5
 16
0.0
 26
-1.0
 36
0.0
 17
0.0
 27
0.0
 37
0.0
 40
1319.143726
 41
0.013461
 42
50.0
 43
679.601336
 44
-679.601336
 50
0.0
 51
0.0
 71
     0
 72
   100
 73
     1
 74
     3
 75
     0
 76
     0
 77
     0
 78
     0
281
     0
 65
     1
110
0.0
120
0.0
130
0.0
111
1.0
121
0.0
131
0.0
112
0.0
122
1.0
132
0.0
 79
     0
146
0.0
  0
VPORT
  5
2B5
330
8
100
AcDbSymbolTableRecord
100
AcDbViewportTableRecord
  2
L4
 70
     0
 10
0.5
 20
0.0
 11
1.0
 21
0.5
 12
0.0
 22
0.0
 13
0.0
 23
0.0
 14
0.5
 24
0.5
 15
0.5
 25
0.5
 16
1.0
 26
0.0
 36
0.0
 17
0.0
 27
0.0
 37
0.0
 40
1319.143726
 41
0.013461
 42
50.0
 43
667.6767099999999
 44
-667.6767099999999
 50
0.0
 51
0.0
 71
     0
 72
   100
 73
     1
 74
     3
 75
     0
 76
     0
 77
     0
 78
     0
281
     0
 65
     1
110
0.0
120
0.0
130
0.0
111
1.0
121
0.0
131
0.0
112
0.0
122
1.0
132
0.0
 79
     0
146
0.0
  0
VPORT
  5
2B6
330
8
100
AcDbSymbolTableRecord
100
AcDbViewportTableRecord
  2
L4
 70
     0
 10
0.5
 20
0.5
 11
1.0
 21
1.0
 12
0.0
 22
0.0
 13
0.0
 23
0.0
 14
0.5
 24
0.5
 15
0.5
 25
0.5
 16
0.5773502691896259
 26
-0.5773502691896259
 36
0.5773502691896259
 17
0.0
 27
0.0
 37
0.0
 40
1295.484074
 41
0.013707
 42
50.0
 43
674.79345
 44
-674.79345
 50
0.0
 51
0.0
 71
     0
 72
   100
 73
     1
 74
     3
 75
     0
 76
     0
 77
     0
 78
     0
281
     0
 65
     1
110
0.0
120
0.0
130
0.0
111
1.0
121
0.0
131
0.0
112
0.0
122
1.0
132
0.0
 79
     0
146
0.0
  0
VPORT
  5
2B7
330
8
100
AcDbSymbolTableRecord
100
AcDbViewportTableRecord
  2
L6
 70
     0
 10
0.0
 20
0.5
 11
0.333333
 21
1.0
 12
0.0
 22
0.0
 13
0.0
 23
0.0
 14
0.5
 24
0.5
 15
0.5
 25
0.5
 16
0.7188730927569434
 26
-0.5850486126764433
 36
0.3754192287502549
 17
0.0
 27
0.0
 37
0.0
 40
1367.187154
 41
0.012988
 42
50.0
 43
707.8776949999999
 44
-707.8776949999999
 50
0.0
 51
0.0
 71
     0
 72
   100
 73
     1
 74
     3
 75
     0
 76
     0
 77
     0
 78
     0
281
     0
 65
     1
110
0.0
120
0.0
130
0.0
111
1.0
121
0.0
131
0.0
112
0.0
122
1.0
132
0.0
 79
     0
146
0.0
  0
VPORT
  5
2B8
330
8
100
AcDbSymbolTableRecord
100
AcDbViewportTableRecord
  2
L6
 70
     0
 10
0.0
 20
0.0
 11
0.333333
 21
0.5
 12
0.0
 22
0.0
 13
0.0
 23
0.0
 14
0.5
 24
0.5
 15
0.5
 25
0.5
 16
-1.0
 26
0.0
 36
0.0
 17
0.0
 27
0.0
 37
0.0
 40
1319.143726
 41
0.013461
 42
50.0
 43
667.6767099999999
 44
-667.6767099999999
 50
0.0
 51
0.0
 71
     0
 72
   100
 73
     1
 74
     3
 75
     0
 76
     0
 77
     0
 78
     0
281
     0
 65
     1
110
0.0
120
0.0
130
0.0
111
1.0
121
0.0
131
0.0
112
0.0
122
1.0
132
0.0
 79
     0
146
0.0
  0
VPORT
  5
2B9
330
8
100
AcDbSymbolTableRecord
100
AcDbViewportTableRecord
  2
L6
 70
     0
 10
0.333333
 20
0.5
 11
0.666667
 21
1.0
 12
306.021263
 22
229.841866
 13
0.0
 23
0.0
 14
0.5
 24
0.5
 15
0.5
 25
0.5
 16
0.0
 26
0.0
 36
1.0
 17
0.0
 27
0.0
 37
0.0
 40
207.433333
 41
0.085602
 42
50.0
 43
470.834478
 44
-470.834478
 50
0.0
 51
0.0
 71
     0
 72
   100
 73
     1
 74
     3
 75
     0
 76
     0
 77
     0
 78
     0
281
     0
 65
     1
110
0.0
120
0.0
130
0.0
111
1.0
121
0.0
131
0.0
112
0.0
122
1.0
132
0.0
 79
     0
146
0.0
  0
VPORT
  5
2BA
330
8
100
AcDbSymbolTableRecord
100
AcDbViewportTableRecord
  2
L6
 70
     0
 10
0.333333
 20
0.0
 11
0.666667
 21
0.5
 12
0.0
 22
0.0
 13
0.0
 23
0.0
 14
0.5
 24
0.5
 15
0.5
 25
0.5
 16
0.0
 26
-1.0
 36
0.0
 17
0.0
 27
0.0
 37
0.0
 40
1319.143726
 41
0.013461
 42
50.0
 43
679.601336
 44
-679.601336
 50
0.0
 51
0.0
 71
     0
 72
   100
 73
     1
 74
     3
 75
     0
 76
     0
 77
     0
 78
     0
281
     0
 65
     1
110
0.0
120
0.0
130
0.0
111
1.0
121
0.0
131
0.0
112
0.0
122
1.0
132
0.0
 79
     0
146
0.0
  0
VPORT
  5
2BB
330
8
100
AcDbSymbolTableRecord
100
AcDbViewportTableRecord
  2
L6
 70
     0
 10
0.666667
 20
0.5
 11
1.0
 21
1.0
 12
0.0
 22
0.0
 13
0.0
 23
0.0
 14
0.5
 24
0.5
 15
0.5
 25
0.5
 16
0.5773502691896259
 26
-0.5773502691896259
 36
0.5773502691896259
 17
0.0
 27
0.0
 37
0.0
 40
1295.484074
 41
0.013707
 42
50.0
 43
674.79345
 44
-674.79345
 50
0.0
 51
0.0
 71
     0
 72
   100
 73
     1
 74
     3
 75
     0
 76
     0
 77
     0
 78
     0
281
     0
 65
     1
110
0.0
120
0.0
130
0.0
111
1.0
121
0.0
131
0.0
112
0.0
122
1.0
132
0.0
 79
     0
146
0.0
  0
VPORT
  5
2BC
330
8
100
AcDbSymbolTableRecord
100
AcDbViewportTableRecord
  2
L6
 70
     0
 10
0.666667
 20
0.0
 11
1.0
 21
0.5
 12
0.0
 22
0.0
 13
0.0
 23
0.0
 14
0.5
 24
0.5
 15
0.5
 25
0.5
 16
1.0
 26
0.0
 36
0.0
 17
0.0
 27
0.0
 37
0.0
 40
1319.143726
 41
0.013461
 42
50.0
 43
667.6767099999999
 44
-667.6767099999999
 50
0.0
 51
0.0
 71
     0
 72
   100
 73
     1
 74
     3
 75
     0
 76
     0
 77
     0
 78
     0
281
     0
 65
     1
110
0.0
120
0.0
130
0.0
111
1.0
121
0.0
131
0.0
112
0.0
122
1.0
132
0.0
 79
     0
146
0.0
  0
ENDTAB
  0
TABLE
  2
LTYPE
  5
5
330
0
100
AcDbSymbolTable
 70
     7
  0
LTYPE
  5
14
330
5
100
AcDbSymbolTableRecord
100
AcDbLinetypeTableRecord
  2
ByBlock
 70
     0
  3

 72
    65
 73
     0
 40
0.0
  0
LTYPE
  5
15
330
5
100
AcDbSymbolTableRecord
100
AcDbLinetypeTableRecord
  2
ByLayer
 70
     0
  3

 72
    65
 73
     0
 40
0.0
  0
LTYPE
  5
16
330
5
100
AcDbSymbolTableRecord
100
AcDbLinetypeTableRecord
  2
Continuous
 70
     0
  3
Solid line
 72
    65
 73
     0
 40
0.0
  0
LTYPE
  5
6E
330
5
100
AcDbSymbolTableRecord
100
AcDbLinetypeTableRecord
  2
CENTER
 70
     0
  3
____ _ ____ _ ____ _ ____
 72
    65
 73
     4
 40
47.4
 49
22.0
 74
     4
 75
     0
340
0
 46
0.0
 50
0.0
 44
0.0
 45
0.0
 49
-8.5
 74
     4
 75
     0
340
0
 46
0.0
 50
0.0
 44
0.0
 45
0.0
 49
8.5
 74
     4
 75
     0
340
0
 46
0.0
 50
0.0
 44
0.0
 45
0.0
 49
-8.5
 74
     4
 75
     0
340
0
 46
0.0
 50
0.0
 44
0.0
 45
0.0
  0
LTYPE
  5
6F
330
5
100
AcDbSymbolTableRecord
100
AcDbLinetypeTableRecord
  2
DASHDOT
 70
     0
  3
_._._._._._._._._._._._._._._._.
 72
    65
 73
     4
 40
70.0
 49
31.0
 74
     4
 75
     0
340
0
 46
0.0
 50
0.0
 44
0.0
 45
0.0
 49
-13.0
 74
     4
 75
     0
340
0
 46
0.0
 50
0.0
 44
0.0
 45
0.0
 49
13.0
 74
     4
 75
     0
340
0
 46
0.0
 50
0.0
 44
0.0
 45
0.0
 49
-13.0
 74
     4
 75
     0
340
0
 46
0.0
 50
0.0
 44
0.0
 45
0.0
  0
LTYPE
  5
70
330
5
100
AcDbSymbolTableRecord
100
AcDbLinetypeTableRecord
  2
DASHED
 70
     0
  3
__ __ __ __ __ __ __ __ __
 72
    65
 73
     2
 40
25.72
 49
12.86
 74
     4
 75
     0
340
0
 46
0.0
 50
0.0
 44
0.0
 45
0.0
 49
-12.86
 74
     4
 75
     0
340
0
 46
0.0
 50
0.0
 44
0.0
 45
0.0
  0
LTYPE
  5
71
330
5
100
AcDbSymbolTableRecord
100
AcDbLinetypeTableRecord
  2
DOT
 70
     0
  3
.........................
 72
    65
 73
     2
 40
10.0
 49
0.0
 74
     4
 75
     0
340
0
 46
0.0
 50
0.0
 44
0.0
 45
0.0
 49
-10.0
 74
     4
 75
     0
340
0
 46
0.0
 50
0.0
 44
0.0
 45
0.0
  0
LTYPE
  5
72
330
5
100
AcDbSymbolTableRecord
100
AcDbLinetypeTableRecord
  2
PHANTOM
 70
     0
  3
____ _ _ ____ _ _ _____ _ _ ____
 72
    65
 73
     6
 40
50.5
 49
18.0
 74
     4
 75
     0
340
0
 46
0.0
 50
0.0
 44
0.0
 45
0.0
 49
-6.5
 74
     4
 75
     0
340
0
 46
0.0
 50
0.0
 44
0.0
 45
0.0
 49
6.5
 74
     4
 75
     0
340
0
 46
0.0
 50
0.0
 44
0.0
 45
0.0
 49
-6.5
 74
     4
 75
     0
340
0
 46
0.0
 50
0.0
 44
0.0
 45
0.0
 49
6.5
 74
     4
 75
     0
340
0
 46
0.0
 50
0.0
 44
0.0
 45
0.0
 49
-6.5
 74
     4
 75
     0
340
0
 46
0.0
 50
0.0
 44
0.0
 45
0.0
  0
LTYPE
  5
34C
330
5
100
AcDbSymbolTableRecord
100
AcDbLinetypeTableRecord
  2
CENTER2
 70
     0
  3
Center (.5x) ___ _ ___ _ ___ _ ___ _ ___ _ ___
 72
    65
 73
     4
 40
1.125
 49
0.75
 74
     0
 49
-0.125
 74
     0
 49
0.125
 74
     0
 49
-0.125
 74
     0
  0
ENDTAB
  0
TABLE
  2
LAYER
  5
2
330
0
100
AcDbSymbolTable
 70
    22
  0
LAYER
  5
10
102
{ACAD_XDICTIONARY
360
357
102
}
330
2
100
AcDbSymbolTableRecord
100
AcDbLayerTableRecord
  2
0
 70
     0
 62
     7
  6
Continuous
370
    -3
390
F
  0
LAYER
  5
208
330
2
100
AcDbSymbolTableRecord
100
AcDbLayerTableRecord
  2
Defpoints
 70
     0
 62
     7
  6
Continuous
290
     0
370
    -3
390
F
  0
LAYER
  5
349
102
{ACAD_XDICTIONARY
360
359
102
}
330
2
100
AcDbSymbolTableRecord
100
AcDbLayerTableRecord
  2
1
 70
     0
 62
     4
  6
Continuous
370
    -3
390
F
  0
LAYER
  5
34A
102
{ACAD_XDICTIONARY
360
35B
102
}
330
2
100
AcDbSymbolTableRecord
100
AcDbLayerTableRecord
  2
2
 70
     0
 62
     7
  6
Continuous
370
    -3
390
F
  0
LAYER
  5
34B
102
{ACAD_XDICTIONARY
360
35D
102
}
330
2
100
AcDbSymbolTableRecord
100
AcDbLayerTableRecord
  2
4
 70
     0
 62
     2
  6
CENTER2
370
    -3
390
F
  0
LAYER
  5
34D
102
{ACAD_XDICTIONARY
360
35F
102
}
330
2
100
AcDbSymbolTableRecord
100
AcDbLayerTableRecord
  2
SK1
 70
     0
 62
     4
  6
Continuous
370
    -3
390
F
  0
LAYER
  5
34E
102
{ACAD_XDICTIONARY
360
361
102
}
330
2
100
AcDbSymbolTableRecord
100
AcDbLayerTableRecord
  2
SK2
 70
     0
 62
     7
  6
Continuous
370
    -3
390
F
  0
LAYER
  5
350
102
{ACAD_XDICTIONARY
360
363
102
}
330
2
100
AcDbSymbolTableRecord
100
AcDbLayerTableRecord
  2
SK4
 70
     0
 62
     2
  6
CENTER2
370
    -3
390
F
  0
LAYER
  5
351
102
{ACAD_XDICTIONARY
360
365
102
}
330
2
100
AcDbSymbolTableRecord
100
AcDbLayerTableRecord
  2
SK6
 70
     0
 62
     5
  6
Continuous
370
    -3
390
F
  0
LAYER
  5
352
102
{ACAD_XDICTIONARY
360
367
102
}
330
2
100
AcDbSymbolTableRecord
100
AcDbLayerTableRecord
  2
CUT
 70
     0
 62
     1
  6
Continuous
370
    -3
390
F
  0
LAYER
  5
353
102
{ACAD_XDICTIONARY
360
369
102
}
330
2
100
AcDbSymbolTableRecord
100
AcDbLayerTableRecord
  2
NOCUT
 70
     0
 62
     7
  6
Continuous
370
    -3
390
F
  0
LAYER
  5
354
102
{ACAD_XDICTIONARY
360
36B
102
}
330
2
100
AcDbSymbolTableRecord
100
AcDbLayerTableRecord
  2
80
 70
     0
 62
     6
  6
Continuous
370
    -3
390
F
  0
LAYER
  5
355
102
{ACAD_XDICTIONARY
360
36D
102
}
330
2
100
AcDbSymbolTableRecord
100
AcDbLayerTableRecord
  2
81
 70
     0
 62
     3
  6
Continuous
370
    -3
390
F
  0
ENDTAB
  0
TABLE
  2
STYLE
  5
3
330
0
100
AcDbSymbolTable
 70
     3
  0
STYLE
  5
11
330
3
100
AcDbSymbolTableRecord
100
AcDbTextStyleTableRecord
  2
Standard
 70
     0
 40
0.0
 41
1.0
 50
0.0
 71
     0
 42
0.2
  3
txt
  4

  0
STYLE
  5
1FC
330
3
100
AcDbSymbolTableRecord
100
AcDbTextStyleTableRecord
  2
cesky
 70
     0
 40
0.0
 41
1.0
 50
0.0
 71
     0
 42
0.2
  3
simplex.shx
  4

  0
STYLE
  5
1FD
330
3
100
AcDbSymbolTableRecord
100
AcDbTextStyleTableRecord
  2
DWGDirectTextStyle
 70
     0
 40
0.0
 41
1.0
 50
0.0
 71
     0
 42
0.2
  3
simplex
  4

  0
ENDTAB
  0
TABLE
  2
VIEW
  5
6
330
0
100
AcDbSymbolTable
 70
     0
  0
ENDTAB
  0
TABLE
  2
UCS
  5
7
330
0
100
AcDbSymbolTable
 70
     0
  0
ENDTAB
  0
TABLE
  2
APPID
  5
9
330
0
100
AcDbSymbolTable
 70
     7
  0
APPID
  5
12
330
9
100
AcDbSymbolTableRecord
100
AcDbRegAppTableRecord
  2
ACAD
 70
     0
  0
APPID
  5
204
330
9
100
AcDbSymbolTableRecord
100
AcDbRegAppTableRecord
  2
ACAD_DSTYLE_DIMBREAK
 70
     0
  0
APPID
  5
2BD
330
9
100
AcDbSymbolTableRecord
100
AcDbRegAppTableRecord
  2
ACAD_DSTYLE_DIM_LINETYPE
 70
     0
  0
APPID
  5
2BE
330
9
100
AcDbSymbolTableRecord
100
AcDbRegAppTableRecord
  2
ACAD_DSTYLE_DIM_EXT1_LINETYPE
 70
     0
  0
APPID
  5
2BF
330
9
100
AcDbSymbolTableRecord
100
AcDbRegAppTableRecord
  2
ACAD_DSTYLE_DIM_EXT2_LINETYPE
 70
     0
  0
APPID
  5
2FF
330
9
100
AcDbSymbolTableRecord
100
AcDbRegAppTableRecord
  2
ACAD_MLEADERVER
 70
     0
  0
APPID
  5
372
330
9
100
AcDbSymbolTableRecord
100
AcDbRegAppTableRecord
  2
ACAD_NAV_VCDISPLAY
 70
     0
  0
ENDTAB
  0
TABLE
  2
DIMSTYLE
  5
A
330
0
100
AcDbSymbolTable
 70
     1
100
AcDbDimStyleTable
 71
     0
  0
DIMSTYLE
105
27
330
A
100
AcDbSymbolTableRecord
100
AcDbDimStyleTableRecord
  2
Standard
 70
     0
340
11
1001
ACAD_DSTYLE_DIMBREAK
1070
   391
1040
6.349999999999999
  0
ENDTAB
  0
TABLE
  2
BLOCK_RECORD
  5
1
330
0
100
AcDbSymbolTable
 70
    16
  0
BLOCK_RECORD
  5
1F
102
{ACAD_XDICTIONARY
360
30F
102
}
330
1
100
AcDbSymbolTableRecord
100
AcDbBlockTableRecord
  2
*Model_Space
340
22
  0
BLOCK_RECORD
  5
1B
330
1
100
AcDbSymbolTableRecord
100
AcDbBlockTableRecord
  2
*Paper_Space
340
1E
  0
BLOCK_RECORD
  5
23
330
1
100
AcDbSymbolTableRecord
100
AcDbBlockTableRecord
  2
*Paper_Space0
340
26
  0
BLOCK_RECORD
  5
1FF
330
1
100
AcDbSymbolTableRecord
100
AcDbBlockTableRecord
  2
ASSORTED_DRAFT1
340
0
  0
BLOCK_RECORD
  5
209
330
1
100
AcDbSymbolTableRecord
100
AcDbBlockTableRecord
  2
*D2
340
0
  0
BLOCK_RECORD
  5
215
330
1
100
AcDbSymbolTableRecord
100
AcDbBlockTableRecord
  2
_U0
340
0
  0
BLOCK_RECORD
  5
221
330
1
100
AcDbSymbolTableRecord
100
AcDbBlockTableRecord
  2
*D4
340
0
  0
BLOCK_RECORD
  5
22C
330
1
100
AcDbSymbolTableRecord
100
AcDbBlockTableRecord
  2
_U1
340
0
  0
BLOCK_RECORD
  5
237
330
1
100
AcDbSymbolTableRecord
100
AcDbBlockTableRecord
  2
*D6
340
0
  0
BLOCK_RECORD
  5
243
330
1
100
AcDbSymbolTableRecord
100
AcDbBlockTableRecord
  2
_U2
340
0
  0
BLOCK_RECORD
  5
250
330
1
100
AcDbSymbolTableRecord
100
AcDbBlockTableRecord
  2
*D8
340
0
  0
BLOCK_RECORD
  5
25C
330
1
100
AcDbSymbolTableRecord
100
AcDbBlockTableRecord
  2
_U3
340
0
  0
BLOCK_RECORD
  5
269
330
1
100
AcDbSymbolTableRecord
100
AcDbBlockTableRecord
  2
*D10
340
0
  0
BLOCK_RECORD
  5
275
330
1
100
AcDbSymbolTableRecord
100
AcDbBlockTableRecord
  2
_U4
340
0
  0
BLOCK_RECORD
  5
281
330
1
100
AcDbSymbolTableRecord
100
AcDbBlockTableRecord
  2
*D12
340
0
  0
BLOCK_RECORD
  5
28D
330
1
100
AcDbSymbolTableRecord
100
AcDbBlockTableRecord
  2
_U5
340
0
  0
BLOCK_RECORD
  5
299
330
1
100
AcDbSymbolTableRecord
100
AcDbBlockTableRecord
  2
*D14
340
0
  0
BLOCK_RECORD
  5
2A5
330
1
100
AcDbSymbolTableRecord
100
AcDbBlockTableRecord
  2
_U6
340
0
  0
ENDTAB
  0
ENDSEC
  0
SECTION
  2
BLOCKS
  0
BLOCK
  5
20
330
1F
100
AcDbEntity
  8
0
100
AcDbBlockBegin
  2
*Model_Space
 70
     0
 10
0.0
 20
0.0
 30
0.0
  3
*Model_Space
  1

  0
ENDBLK
  5
21
330
1F
100
AcDbEntity
  8
0
100
AcDbBlockEnd
  0
BLOCK
  5
1C
330
1B
100
AcDbEntity
 67
     1
  8
0
100
AcDbBlockBegin
  2
*Paper_Space
 70
     0
 10
0.0
 20
0.0
 30
0.0
  3
*Paper_Space
  1

  0
ENDBLK
  5
1D
330
1B
100
AcDbEntity
 67
     1
  8
0
100
AcDbBlockEnd
  0
BLOCK
  5
24
330
23
100
AcDbEntity
 67
     1
  8
0
100
AcDbBlockBegin
  2
*Paper_Space0
 70
     0
 10
0.0
 20
0.0
 30
0.0
  3
*Paper_Space0
  1

  0
ENDBLK
  5
25
330
23
100
AcDbEntity
 67
     1
  8
0
100
AcDbBlockEnd
  0
BLOCK
  5
202
330
1FF
100
AcDbEntity
  8
0
100
AcDbBlockBegin
  2
ASSORTED_DRAFT1
 70
     0
 10
0.0
 20
0.0
 30
0.0
  3
ASSORTED_DRAFT1
  1

  0
SOLID
  5
200
330
1FF
100
AcDbEntity
  8
0
 62
   254
370
    13
100
AcDbTrace
 10
270.185042
 20
168.534924
 30
0.0
 11
265.185046
 21
167.42645
 31
0.0
 12
265.1850379999999
 22
169.643397
 32
0.0
 13
270.185042
 23
168.534924
 33
0.0
  0
ENDBLK
  5
203
330
1FF
100
AcDbEntity
  8
0
100
AcDbBlockEnd
  0
BLOCK
  5
20A
330
209
100
AcDbEntity
  8
0
100
AcDbBlockBegin
  2
*D2
 70
     1
 10
0.0
 20
0.0
 30
0.0
  3
*D2
  1

  0
LINE
  5
20C
330
209
100
AcDbEntity
  8
0
 62
   254
370
    -2
100
AcDbLine
 10
419.4048419999999
 20
308.907994
 30
0.0
 11
419.4048419999999
 21
328.5109970000001
 31
0.0
  0
LINE
  5
20D
330
209
100
AcDbEntity
  8
0
 62
   254
370
    -2
100
AcDbLine
 10
274.404842
 20
288.907994
 30
0.0
 11
274.404842
 21
328.5109970000001
 31
0.0
  0
LINE
  5
20E
330
209
100
AcDbEntity
  8
0
 62
   254
370
    -2
100
AcDbLine
 10
415.9048419999999
 20
327.510997
 30
0.0
 11
277.904842
 21
327.510997
 31
0.0
  0
SOLID
  5
20F
330
209
100
AcDbEntity
  8
0
 62
   254
100
AcDbTrace
 10
415.9048419999999
 20
326.927663
 30
0.0
 11
415.9048419999999
 21
328.09433
 31
0.0
 12
419.4048419999999
 22
327.510997
 32
0.0
 13
419.4048419999999
 23
327.510997
 33
0.0
  0
SOLID
  5
210
330
209
100
AcDbEntity
  8
0
 62
   254
100
AcDbTrace
 10
277.904842
 20
328.09433
 30
0.0
 11
277.904842
 21
326.927663
 31
0.0
 12
274.404842
 22
327.510997
 32
0.0
 13
274.404842
 23
327.510997
 33
0.0
  0
MTEXT
  5
211
330
209
100
AcDbEntity
  8
0
 62
   254
370
    13
100
AcDbMText
 10
346.904842
 20
332.7609970000001
 30
0.0
 40
3.5
 41
0.0
 71
     5
 72
     1
  1
\A1;145
  7
cesky
 73
     1
 44
1.0
  0
POINT
  5
212
330
209
100
AcDbEntity
  8
Defpoints
 62
     0
100
AcDbPoint
 10
419.4048419999999
 20
308.907994
 30
0.0
  0
POINT
  5
213
330
209
100
AcDbEntity
  8
Defpoints
 62
     0
100
AcDbPoint
 10
274.404842
 20
288.907994
 30
0.0
  0
POINT
  5
214
330
209
100
AcDbEntity
  8
Defpoints
 62
     0
100
AcDbPoint
 10
274.404842
 20
327.510997
 30
0.0
  0
ENDBLK
  5
20B
330
209
100
AcDbEntity
  8
0
100
AcDbBlockEnd
  0
BLOCK
  5
21C
330
215
100
AcDbEntity
  8
0
100
AcDbBlockBegin
  2
_U0
 70
     0
 10
0.0
 20
0.0
 30
0.0
  3
_U0
  1

  0
ENDBLK
  5
21D
330
215
100
AcDbEntity
  8
0
100
AcDbBlockEnd
  0
BLOCK
  5
222
330
221
100
AcDbEntity
  8
0
100
AcDbBlockBegin
  2
*D4
 70
     1
 10
0.0
 20
0.0
 30
0.0
  3
*D4
  1

  0
LINE
  5
224
330
221
100
AcDbEntity
  8
0
 62
   254
370
    -2
100
AcDbLine
 10
291.532259
 20
288.907994
 30
0.0
 11
435.7165209999999
 21
288.907994
 31
0.0
  0
LINE
  5
225
330
221
100
AcDbEntity
  8
0
 62
   254
370
    -2
100
AcDbLine
 10
330.83929
 20
308.907994
 30
0.0
 11
435.7165209999999
 21
308.907994
 31
0.0
  0
LINE
  5
226
330
221
100
AcDbEntity
  8
0
 62
   254
370
    -2
100
AcDbLine
 10
434.716521
 20
305.407994
 30
0.0
 11
434.716521
 21
282.731816
 31
0.0
  0
SOLID
  5
227
330
221
100
AcDbEntity
  8
0
 62
   254
100
AcDbTrace
 10
435.2998549999999
 20
305.407994
 30
0.0
 11
434.1331879999999
 21
305.407994
 31
0.0
 12
434.716521
 22
308.907994
 32
0.0
 13
434.716521
 23
308.907994
 33
0.0
  0
MTEXT
  5
228
330
221
100
AcDbEntity
  8
0
 62
   254
370
    13
100
AcDbMText
 10
429.4665209999999
 20
289.065149
 30
0.0
 40
3.5
 41
0.0
 71
     5
 72
     1
  1
\A1;40
  7
cesky
 11
0.0
 21
1.0
 31
0.0
 73
     1
 44
1.0
  0
POINT
  5
229
330
221
100
AcDbEntity
  8
Defpoints
 62
     0
100
AcDbPoint
 10
291.532259
 20
288.907994
 30
0.0
  0
POINT
  5
22A
330
221
100
AcDbEntity
  8
Defpoints
 62
     0
100
AcDbPoint
 10
330.83929
 20
308.907994
 30
0.0
  0
POINT
  5
22B
330
221
100
AcDbEntity
  8
Defpoints
 62
     0
100
AcDbPoint
 10
434.716521
 20
308.907994
 30
0.0
  0
ENDBLK
  5
223
330
221
100
AcDbEntity
  8
0
100
AcDbBlockEnd
  0
BLOCK
  5
232
330
22C
100
AcDbEntity
  8
0
100
AcDbBlockBegin
  2
_U1
 70
     0
 10
0.0
 20
0.0
 30
0.0
  3
_U1
  1

  0
ENDBLK
  5
233
330
22C
100
AcDbEntity
  8
0
100
AcDbBlockEnd
  0
BLOCK
  5
238
330
237
100
AcDbEntity
  8
0
100
AcDbBlockBegin
  2
*D6
 70
     1
 10
0.0
 20
0.0
 30
0.0
  3
*D6
  1

  0
LINE
  5
23A
330
237
100
AcDbEntity
  8
0
 62
    95
370
    -2
100
AcDbLine
 10
206.404842
 20
308.907994
 30
0.0
 11
192.996832
 21
308.907994
 31
0.0
  0
LINE
  5
23B
330
237
100
AcDbEntity
  8
0
 62
    95
370
    -2
100
AcDbLine
 10
206.404842
 20
268.907994
 30
0.0
 11
192.996832
 21
268.907994
 31
0.0
  0
LINE
  5
23C
330
237
100
AcDbEntity
  8
0
 62
    95
370
    -2
100
AcDbLine
 10
193.996832
 20
305.407994
 30
0.0
 11
193.996832
 21
272.407994
 31
0.0
  0
SOLID
  5
23D
330
237
100
AcDbEntity
  8
0
 62
    95
100
AcDbTrace
 10
194.580166
 20
305.407994
 30
0.0
 11
193.413499
 21
305.407994
 31
0.0
 12
193.996832
 22
308.907994
 32
0.0
 13
193.996832
 23
308.907994
 33
0.0
  0
SOLID
  5
23E
330
237
100
AcDbEntity
  8
0
 62
    95
100
AcDbTrace
 10
193.413499
 20
272.407994
 30
0.0
 11
194.580166
 21
272.407994
 31
0.0
 12
193.996832
 22
268.907994
 32
0.0
 13
193.996832
 23
268.907994
 33
0.0
  0
MTEXT
  5
23F
330
237
100
AcDbEntity
  8
0
 62
    95
370
    13
100
AcDbMText
 10
188.746832
 20
288.907994
 30
0.0
 40
3.5
 41
0.0
 71
     5
 72
     1
  1
\A1;40
  7
cesky
 11
0.0
 21
1.0
 31
0.0
 73
     1
 44
1.0
  0
POINT
  5
240
330
237
100
AcDbEntity
  8
Defpoints
 62
     0
100
AcDbPoint
 10
206.404842
 20
308.907994
 30
0.0
  0
POINT
  5
241
330
237
100
AcDbEntity
  8
Defpoints
 62
     0
100
AcDbPoint
 10
206.404842
 20
268.907994
 30
0.0
  0
POINT
  5
242
330
237
100
AcDbEntity
  8
Defpoints
 62
     0
100
AcDbPoint
 10
193.996832
 20
268.907994
 30
0.0
  0
ENDBLK
  5
239
330
237
100
AcDbEntity
  8
0
100
AcDbBlockEnd
  0
BLOCK
  5
24B
330
243
100
AcDbEntity
  8
0
100
AcDbBlockBegin
  2
_U2
 70
     0
 10
0.0
 20
0.0
 30
0.0
  3
_U2
  1

  0
ENDBLK
  5
24C
330
243
100
AcDbEntity
  8
0
100
AcDbBlockEnd
  0
BLOCK
  5
251
330
250
100
AcDbEntity
  8
0
100
AcDbBlockBegin
  2
*D8
 70
     1
 10
0.0
 20
0.0
 30
0.0
  3
*D8
  1

  0
LINE
  5
253
330
250
100
AcDbEntity
  8
0
 62
    95
370
    -2
100
AcDbLine
 10
277.154842
 20
313.907994
 30
0.0
 11
181.188499
 21
313.907994
 31
0.0
  0
LINE
  5
254
330
250
100
AcDbEntity
  8
0
 62
    95
370
    -2
100
AcDbLine
 10
277.154842
 20
263.907994
 30
0.0
 11
181.188499
 21
263.907994
 31
0.0
  0
LINE
  5
255
330
250
100
AcDbEntity
  8
0
 62
    95
370
    -2
100
AcDbLine
 10
182.188499
 20
310.407994
 30
0.0
 11
182.188499
 21
267.407994
 31
0.0
  0
SOLID
  5
256
330
250
100
AcDbEntity
  8
0
 62
    95
100
AcDbTrace
 10
182.771833
 20
310.407994
 30
0.0
 11
181.605166
 21
310.407994
 31
0.0
 12
182.188499
 22
313.907994
 32
0.0
 13
182.188499
 23
313.907994
 33
0.0
  0
SOLID
  5
257
330
250
100
AcDbEntity
  8
0
 62
    95
100
AcDbTrace
 10
181.605166
 20
267.407994
 30
0.0
 11
182.771833
 21
267.407994
 31
0.0
 12
182.188499
 22
263.907994
 32
0.0
 13
182.188499
 23
263.907994
 33
0.0
  0
MTEXT
  5
258
330
250
100
AcDbEntity
  8
0
 62
    95
370
    13
100
AcDbMText
 10
176.938499
 20
288.907994
 30
0.0
 40
3.5
 41
0.0
 71
     5
 72
     1
  1
\A1;50
  7
cesky
 11
0.0
 21
1.0
 31
0.0
 73
     1
 44
1.0
  0
POINT
  5
259
330
250
100
AcDbEntity
  8
Defpoints
 62
     0
100
AcDbPoint
 10
277.154842
 20
313.907994
 30
0.0
  0
POINT
  5
25A
330
250
100
AcDbEntity
  8
Defpoints
 62
     0
100
AcDbPoint
 10
277.154842
 20
263.907994
 30
0.0
  0
POINT
  5
25B
330
250
100
AcDbEntity
  8
Defpoints
 62
     0
100
AcDbPoint
 10
182.188499
 20
263.907994
 30
0.0
  0
ENDBLK
  5
252
330
250
100
AcDbEntity
  8
0
100
AcDbBlockEnd
  0
BLOCK
  5
264
330
25C
100
AcDbEntity
  8
0
100
AcDbBlockBegin
  2
_U3
 70
     0
 10
0.0
 20
0.0
 30
0.0
  3
_U3
  1

  0
ENDBLK
  5
265
330
25C
100
AcDbEntity
  8
0
100
AcDbBlockEnd
  0
BLOCK
  5
26A
330
269
100
AcDbEntity
  8
0
100
AcDbBlockBegin
  2
*D10
 70
     1
 10
0.0
 20
0.0
 30
0.0
  3
*D10
  1

  0
LINE
  5
26C
330
269
100
AcDbEntity
  8
0
 62
   254
370
    -2
100
AcDbLine
 10
419.4048419999999
 20
310.907994
 30
0.0
 11
419.4048419999999
 21
341.687968
 31
0.0
  0
LINE
  5
26D
330
269
100
AcDbEntity
  8
0
 62
   254
370
    -2
100
AcDbLine
 10
204.404842
 20
306.907994
 30
0.0
 11
204.404842
 21
341.687968
 31
0.0
  0
LINE
  5
26E
330
269
100
AcDbEntity
  8
0
 62
   254
370
    -2
100
AcDbLine
 10
415.9048419999999
 20
340.687968
 30
0.0
 11
207.904842
 21
340.687968
 31
0.0
  0
SOLID
  5
26F
330
269
100
AcDbEntity
  8
0
 62
   254
100
AcDbTrace
 10
415.9048419999999
 20
340.104634
 30
0.0
 11
415.9048419999999
 21
341.271301
 31
0.0
 12
419.4048419999999
 22
340.687968
 32
0.0
 13
419.4048419999999
 23
340.687968
 33
0.0
  0
SOLID
  5
270
330
269
100
AcDbEntity
  8
0
 62
   254
100
AcDbTrace
 10
207.904842
 20
341.271301
 30
0.0
 11
207.904842
 21
340.104634
 31
0.0
 12
204.404842
 22
340.687968
 32
0.0
 13
204.404842
 23
340.687968
 33
0.0
  0
MTEXT
  5
271
330
269
100
AcDbEntity
  8
0
 62
   254
370
    13
100
AcDbMText
 10
311.904842
 20
345.937968
 30
0.0
 40
3.5
 41
0.0
 71
     5
 72
     1
  1
\A1;215
  7
cesky
 73
     1
 44
1.0
  0
POINT
  5
272
330
269
100
AcDbEntity
  8
Defpoints
 62
     0
100
AcDbPoint
 10
419.4048419999999
 20
310.907994
 30
0.0
  0
POINT
  5
273
330
269
100
AcDbEntity
  8
Defpoints
 62
     0
100
AcDbPoint
 10
204.404842
 20
306.907994
 30
0.0
  0
POINT
  5
274
330
269
100
AcDbEntity
  8
Defpoints
 62
     0
100
AcDbPoint
 10
204.404842
 20
340.687968
 30
0.0
  0
ENDBLK
  5
26B
330
269
100
AcDbEntity
  8
0
100
AcDbBlockEnd
  0
BLOCK
  5
27C
330
275
100
AcDbEntity
  8
0
100
AcDbBlockBegin
  2
_U4
 70
     0
 10
0.0
 20
0.0
 30
0.0
  3
_U4
  1

  0
ENDBLK
  5
27D
330
275
100
AcDbEntity
  8
0
100
AcDbBlockEnd
  0
BLOCK
  5
282
330
281
100
AcDbEntity
  8
0
100
AcDbBlockBegin
  2
*D12
 70
     1
 10
0.0
 20
0.0
 30
0.0
  3
*D12
  1

  0
LINE
  5
284
330
281
100
AcDbEntity
  8
0
 62
   254
370
    -2
100
AcDbLine
 10
274.404842
 20
288.907994
 30
0.0
 11
274.404842
 21
328.5109970000001
 31
0.0
  0
LINE
  5
285
330
281
100
AcDbEntity
  8
0
 62
   254
370
    -2
100
AcDbLine
 10
204.404842
 20
297.907994
 30
0.0
 11
204.404842
 21
328.5109970000001
 31
0.0
  0
LINE
  5
286
330
281
100
AcDbEntity
  8
0
 62
   254
370
    -2
100
AcDbLine
 10
270.904842
 20
327.510997
 30
0.0
 11
207.904842
 21
327.510997
 31
0.0
  0
SOLID
  5
287
330
281
100
AcDbEntity
  8
0
 62
   254
100
AcDbTrace
 10
270.904842
 20
326.927663
 30
0.0
 11
270.904842
 21
328.09433
 31
0.0
 12
274.404842
 22
327.510997
 32
0.0
 13
274.404842
 23
327.510997
 33
0.0
  0
SOLID
  5
288
330
281
100
AcDbEntity
  8
0
 62
   254
100
AcDbTrace
 10
207.904842
 20
328.09433
 30
0.0
 11
207.904842
 21
326.927663
 31
0.0
 12
204.404842
 22
327.510997
 32
0.0
 13
204.404842
 23
327.510997
 33
0.0
  0
MTEXT
  5
289
330
281
100
AcDbEntity
  8
0
 62
   254
370
    13
100
AcDbMText
 10
239.404842
 20
332.7609970000001
 30
0.0
 40
3.5
 41
0.0
 71
     5
 72
     1
  1
\A1;70
  7
cesky
 73
     1
 44
1.0
  0
POINT
  5
28A
330
281
100
AcDbEntity
  8
Defpoints
 62
     0
100
AcDbPoint
 10
274.404842
 20
288.907994
 30
0.0
  0
POINT
  5
28B
330
281
100
AcDbEntity
  8
Defpoints
 62
     0
100
AcDbPoint
 10
204.404842
 20
297.907994
 30
0.0
  0
POINT
  5
28C
330
281
100
AcDbEntity
  8
Defpoints
 62
     0
100
AcDbPoint
 10
204.404842
 20
327.510997
 30
0.0
  0
ENDBLK
  5
283
330
281
100
AcDbEntity
  8
0
100
AcDbBlockEnd
  0
BLOCK
  5
294
330
28D
100
AcDbEntity
  8
0
100
AcDbBlockBegin
  2
_U5
 70
     0
 10
0.0
 20
0.0
 30
0.0
  3
_U5
  1

  0
ENDBLK
  5
295
330
28D
100
AcDbEntity
  8
0
100
AcDbBlockEnd
  0
BLOCK
  5
29A
330
299
100
AcDbEntity
  8
0
100
AcDbBlockBegin
  2
*D14
 70
     1
 10
0.0
 20
0.0
 30
0.0
  3
*D14
  1

  0
LINE
  5
29C
330
299
100
AcDbEntity
  8
0
 62
   254
370
    -2
100
AcDbLine
 10
419.4048419999999
 20
308.907994
 30
0.0
 11
419.4048419999999
 21
317.848012
 31
0.0
  0
LINE
  5
29D
330
299
100
AcDbEntity
  8
0
 62
   254
370
    -2
100
AcDbLine
 10
289.440743
 20
309.445216
 30
0.0
 11
289.440743
 21
317.848012
 31
0.0
  0
LINE
  5
29E
330
299
100
AcDbEntity
  8
0
 62
   254
370
    -2
100
AcDbLine
 10
415.9048419999999
 20
316.848012
 30
0.0
 11
292.940743
 21
316.848012
 31
0.0
  0
SOLID
  5
29F
330
299
100
AcDbEntity
  8
0
 62
   254
100
AcDbTrace
 10
415.9048419999999
 20
316.264679
 30
0.0
 11
415.9048419999999
 21
317.431346
 31
0.0
 12
419.4048419999999
 22
316.848012
 32
0.0
 13
419.4048419999999
 23
316.848012
 33
0.0
  0
SOLID
  5
2A0
330
299
100
AcDbEntity
  8
0
 62
   254
100
AcDbTrace
 10
292.940743
 20
317.431346
 30
0.0
 11
292.940743
 21
316.264679
 31
0.0
 12
289.440743
 22
316.848012
 32
0.0
 13
289.440743
 23
316.848012
 33
0.0
  0
MTEXT
  5
2A1
330
299
100
AcDbEntity
  8
0
 62
   254
370
    13
100
AcDbMText
 10
354.422793
 20
322.098012
 30
0.0
 40
3.5
 41
0.0
 71
     5
 72
     1
  1
\A1;130
  7
cesky
 73
     1
 44
1.0
  0
POINT
  5
2A2
330
299
100
AcDbEntity
  8
Defpoints
 62
     0
100
AcDbPoint
 10
419.4048419999999
 20
308.907994
 30
0.0
  0
POINT
  5
2A3
330
299
100
AcDbEntity
  8
Defpoints
 62
     0
100
AcDbPoint
 10
289.440743
 20
309.445216
 30
0.0
  0
POINT
  5
2A4
330
299
100
AcDbEntity
  8
Defpoints
 62
     0
100
AcDbPoint
 10
289.440743
 20
316.848012
 30
0.0
  0
ENDBLK
  5
29B
330
299
100
AcDbEntity
  8
0
100
AcDbBlockEnd
  0
BLOCK
  5
2AC
330
2A5
100
AcDbEntity
  8
0
100
AcDbBlockBegin
  2
_U6
 70
     0
 10
0.0
 20
0.0
 30
0.0
  3
_U6
  1

  0
ENDBLK
  5
2AD
330
2A5
100
AcDbEntity
  8
0
100
AcDbBlockEnd
  0
ENDSEC
  0
SECTION
  2
ENTITIES
  0
POINT
  5
73
102
{ACAD_REACTORS
330
356
102
}
330
1F
100
AcDbEntity
  8
80
100
AcDbPoint
 10
274.404842
 20
288.907994
 30
0.0
  0
POINT
  5
76
330
1F
100
AcDbEntity
  8
4
 60
     1
100
AcDbPoint
 10
291.532259
 20
288.907994
 30
0.0
  0
POINT
  5
78
330
1F
100
AcDbEntity
  8
4
 60
     1
100
AcDbPoint
 10
418.5349759999999
 20
288.907994
 30
0.0
  0
POINT
  5
79
330
1F
100
AcDbEntity
  8
SK4
 60
     1
100
AcDbPoint
 10
206.404842
 20
288.907994
 30
0.0
  0
POINT
  5
7A
330
1F
100
AcDbEntity
  8
SK4
 60
     1
100
AcDbPoint
 10
274.404842
 20
288.907994
 30
0.0
  0
POINT
  5
7B
330
1F
100
AcDbEntity
  8
SK6
 60
     1
100
AcDbPoint
 10
274.404842
 20
288.907994
 30
0.0
  0
POINT
  5
7C
330
1F
100
AcDbEntity
  8
SK6
 60
     1
100
AcDbPoint
 10
289.440743
 20
309.445216
 30
0.0
  0
LINE
  5
7D
330
1F
100
AcDbEntity
  8
1
100
AcDbLine
 10
406.132923
 20
308.407994
 30
0.0
 11
397.873304
 21
308.407994
 31
0.0
  0
LINE
  5
7F
330
1F
100
AcDbEntity
  8
1
100
AcDbLine
 10
411.007939
 20
302.288779
 30
0.0
 11
411.043481
 21
302.389544
 31
0.0
  0
LINE
  5
81
330
1F
100
AcDbEntity
  8
1
100
AcDbLine
 10
413.595745
 20
301.939485
 30
0.0
 11
413.560203
 21
301.83872
 31
0.0
  0
LINE
  5
82
330
1F
100
AcDbEntity
  8
1
100
AcDbLine
 10
284.904842
 20
308.344909
 30
0.0
 11
284.904842
 21
285.35361
 31
0.0
  0
LINE
  5
83
330
1F
100
AcDbEntity
  8
1
100
AcDbLine
 10
284.904842
 20
269.530712
 30
0.0
 11
284.904842
 21
269.471079
 31
0.0
  0
LINE
  5
84
330
1F
100
AcDbEntity
  8
1
100
AcDbLine
 10
280.21855
 20
313.094285
 30
0.0
 11
279.404842
 21
313.907994
 31
0.0
  0
LINE
  5
85
330
1F
100
AcDbEntity
  8
1
100
AcDbLine
 10
279.404842
 20
263.907994
 30
0.0
 11
279.404842
 21
268.456251
 31
0.0
  0
LINE
  5
86
330
1F
100
AcDbEntity
  8
1
100
AcDbLine
 10
279.404842
 20
313.907994
 30
0.0
 11
279.404842
 21
279.718821
 31
0.0
  0
LINE
  5
89
330
1F
100
AcDbEntity
  8
1
100
AcDbLine
 10
291.532259
 20
269.407994
 30
0.0
 11
308.229575
 21
269.407994
 31
0.0
  0
LINE
  5
8A
330
1F
100
AcDbEntity
  8
1
100
AcDbLine
 10
279.404842
 20
263.907994
 30
0.0
 11
280.21855
 21
264.721702
 31
0.0
  0
LINE
  5
8B
330
1F
100
AcDbEntity
  8
1
100
AcDbLine
 10
310.513206
 20
308.407994
 30
0.0
 11
291.532259
 21
308.407994
 31
0.0
  0
LINE
  5
8C
330
1F
100
AcDbEntity
  8
1
100
AcDbLine
 10
410.942114
 20
302.912294
 30
0.0
 11
410.9082869999999
 21
302.81639
 31
0.0
  0
LINE
  5
8D
330
1F
100
AcDbEntity
  8
1
100
AcDbLine
 10
411.007245
 20
302.852654
 30
0.0
 11
410.9728679999999
 21
302.755191
 31
0.0
  0
LINE
  5
8E
330
1F
100
AcDbEntity
  8
1
100
AcDbLine
 10
413.7632609999999
 20
302.110525
 30
0.0
 11
413.7976529999999
 21
302.208031
 31
0.0
  0
LINE
  5
8F
330
1F
100
AcDbEntity
  8
1
100
AcDbLine
 10
411.0560519999999
 20
301.370344
 30
0.0
 11
411.0217289999999
 21
301.273035
 31
0.0
  0
LINE
  5
90
330
1F
100
AcDbEntity
  8
1
100
AcDbLine
 10
411.012741
 20
301.349783
 30
0.0
 11
410.978718
 21
301.253323
 31
0.0
  0
LINE
  5
91
330
1F
100
AcDbEntity
  8
1
100
AcDbLine
 10
413.0717559999999
 20
300.80162
 30
0.0
 11
413.106092
 21
300.898968
 31
0.0
  0
LINE
  5
92
330
1F
100
AcDbEntity
  8
1
100
AcDbLine
 10
413.1093279999999
 20
300.758667
 30
0.0
 11
413.143302
 21
300.85499
 31
0.0
  0
LINE
  5
93
330
1F
100
AcDbEntity
  8
1
100
AcDbLine
 10
403.6941829999999
 20
295.1458
 30
0.0
 11
403.716477
 21
294.494207
 31
0.0
  0
LINE
  5
94
330
1F
100
AcDbEntity
  8
1
100
AcDbLine
 10
403.798731
 20
292.090108
 30
0.0
 11
403.8303339999999
 21
291.166429
 31
0.0
  0
LINE
  5
95
330
1F
100
AcDbEntity
  8
1
100
AcDbLine
 10
403.839535
 20
295.109845
 30
0.0
 11
403.8428999999999
 21
295.119385
 31
0.0
  0
LINE
  5
96
330
1F
100
AcDbEntity
  8
1
100
AcDbLine
 10
400.555161
 20
296.466186
 30
0.0
 11
399.382427
 21
297.142202
 31
0.0
  0
LINE
  5
97
330
1F
100
AcDbEntity
  8
1
100
AcDbLine
 10
416.8382419999999
 20
295.122591
 30
0.0
 11
407.2852389999999
 21
294.78934
 31
0.0
  0
LINE
  5
98
330
1F
100
AcDbEntity
  8
1
100
AcDbLine
 10
408.915229
 20
303.335397
 30
0.0
 11
408.9151209999999
 21
303.33509
 31
0.0
  0
LINE
  5
99
330
1F
100
AcDbEntity
  8
1
100
AcDbLine
 10
418.6065529999999
 20
308.060897
 30
0.0
 11
419.0051389999999
 21
296.934312
 31
0.0
  0
LINE
  5
9B
330
1F
100
AcDbEntity
  8
1
100
AcDbLine
 10
406.6647259999999
 20
308.420358
 30
0.0
 11
417.802905
 21
308.808906
 31
0.0
  0
LINE
  5
9C
330
1F
100
AcDbEntity
  8
1
100
AcDbLine
 10
406.315194
 20
296.491631
 30
0.0
 11
405.9166079999999
 21
307.618216
 31
0.0
  0
LINE
  5
9D
330
1F
100
AcDbEntity
  8
1
100
AcDbLine
 10
418.2570209999999
 20
296.1321709999999
 30
0.0
 11
407.1188419999999
 21
295.743622
 31
0.0
  0
LINE
  5
9E
330
1F
100
AcDbEntity
  8
1
100
AcDbLine
 10
407.7993949999999
 20
306.599446
 30
0.0
 11
416.79227
 21
306.913157
 31
0.0
  0
LINE
  5
9F
330
1F
100
AcDbEntity
  8
1
100
AcDbLine
 10
408.12121
 20
297.615932
 30
0.0
 11
407.7993949999999
 21
306.599446
 31
0.0
  0
LINE
  5
A0
330
1F
100
AcDbEntity
  8
1
100
AcDbLine
 10
417.1140839999999
 20
297.929643
 30
0.0
 11
408.12121
 21
297.615932
 31
0.0
  0
LINE
  5
A1
330
1F
100
AcDbEntity
  8
1
100
AcDbLine
 10
416.79227
 20
306.913157
 30
0.0
 11
417.1140839999999
 21
297.929643
 31
0.0
  0
LINE
  5
A2
330
1F
100
AcDbEntity
  8
1
100
AcDbLine
 10
418.1728869999999
 20
289.463735
 30
0.0
 11
418.68309
 21
289.157174
 31
0.0
  0
LINE
  5
A3
330
1F
100
AcDbEntity
  8
1
100
AcDbLine
 10
418.506214
 20
277.928159
 30
0.0
 11
417.702061
 21
277.482409
 31
0.0
  0
LINE
  5
A4
330
1F
100
AcDbEntity
  8
1
100
AcDbLine
 10
418.025343
 20
278.426115
 30
0.0
 11
418.506214
 21
277.928159
 31
0.0
  0
LINE
  5
A5
330
1F
100
AcDbEntity
  8
1
100
AcDbLine
 10
419.253269
 20
279.171467
 30
0.0
 11
418.506214
 21
277.928159
 31
0.0
  0
LINE
  5
A6
330
1F
100
AcDbEntity
  8
1
100
AcDbLine
 10
418.1851339999999
 20
288.676303
 30
0.0
 11
418.68309
 21
289.157174
 31
0.0
  0
LINE
  5
A7
330
1F
100
AcDbEntity
  8
1
100
AcDbLine
 10
418.68309
 20
289.157174
 30
0.0
 11
419.4048419999999
 21
287.855099
 31
0.0
  0
LINE
  5
A8
330
1F
100
AcDbEntity
  8
1
100
AcDbLine
 10
418.733164
 20
287.68763
 30
0.0
 11
419.4048419999999
 21
287.855099
 31
0.0
  0
LINE
  5
A9
330
1F
100
AcDbEntity
  8
1
100
AcDbLine
 10
418.587844
 20
279.362274
 30
0.0
 11
419.253269
 21
279.171467
 31
0.0
  0
LINE
  5
AA
330
1F
100
AcDbEntity
  8
1
100
AcDbLine
 10
419.4048419999999
 20
287.855099
 30
0.0
 11
419.253269
 21
279.171467
 31
0.0
  0
LINE
  5
AB
330
1F
100
AcDbEntity
  8
1
100
AcDbLine
 10
418.733164
 20
287.68763
 30
0.0
 11
418.587844
 21
279.362274
 31
0.0
  0
LINE
  5
AC
330
1F
100
AcDbEntity
  8
1
100
AcDbLine
 10
418.025343
 20
278.426115
 30
0.0
 11
417.546084
 21
278.160457
 31
0.0
  0
LINE
  5
AD
330
1F
100
AcDbEntity
  8
1
100
AcDbLine
 10
418.012837
 20
288.77983
 30
0.0
 11
418.1851339999999
 21
288.676303
 31
0.0
  0
LINE
  5
AE
330
1F
100
AcDbEntity
  8
1
100
AcDbLine
 10
417.947912
 20
279.545771
 30
0.0
 11
417.99806
 21
282.418737
 31
0.0
  0
LINE
  5
AF
330
1F
100
AcDbEntity
  8
1
100
AcDbLine
 10
418.0128419999999
 20
283.265576
 30
0.0
 11
418.0872179999999
 21
287.526578
 31
0.0
  0
LINE
  5
B0
330
1F
100
AcDbEntity
  8
1
100
AcDbLine
 10
418.1851339999999
 20
288.676303
 30
0.0
 11
418.012834
 21
288.509916
 31
0.0
  0
LINE
  5
B1
330
1F
100
AcDbEntity
  8
1
100
AcDbLine
 10
418.0872179999999
 20
287.526578
 30
0.0
 11
418.012835
 21
287.660769
 31
0.0
  0
LINE
  5
B2
330
1F
100
AcDbEntity
  8
1
100
AcDbLine
 10
418.733164
 20
287.68763
 30
0.0
 11
418.0872179999999
 21
287.526578
 31
0.0
  0
LINE
  5
B3
330
1F
100
AcDbEntity
  8
1
100
AcDbLine
 10
418.1851339999999
 20
288.676303
 30
0.0
 11
418.733164
 21
287.68763
 31
0.0
  0
LINE
  5
B4
330
1F
100
AcDbEntity
  8
1
100
AcDbLine
 10
418.587844
 20
279.362274
 30
0.0
 11
417.947912
 21
279.545771
 31
0.0
  0
LINE
  5
B5
330
1F
100
AcDbEntity
  8
1
100
AcDbLine
 10
417.6384729999999
 20
279.030777
 30
0.0
 11
417.947912
 21
279.545771
 31
0.0
  0
LINE
  5
B6
330
1F
100
AcDbEntity
  8
1
100
AcDbLine
 10
418.025343
 20
278.426115
 30
0.0
 11
417.618967
 21
278.84693
 31
0.0
  0
LINE
  5
B7
330
1F
100
AcDbEntity
  8
1
100
AcDbLine
 10
418.587844
 20
279.362274
 30
0.0
 11
418.025343
 21
278.426115
 31
0.0
  0
LINE
  5
B8
330
1F
100
AcDbEntity
  8
1
100
AcDbLine
 10
400.533664
 20
296.415583
 30
0.0
 11
400.508968
 21
296.429661
 31
0.0
  0
LINE
  5
B9
330
1F
100
AcDbEntity
  8
1
100
AcDbLine
 10
415.993673
 20
282.557994
 30
0.0
 11
416.6268389999999
 21
282.557994
 31
0.0
  0
LINE
  5
BA
330
1F
100
AcDbEntity
  8
1
100
AcDbLine
 10
406.207818
 20
308.248177
 30
0.0
 11
406.20254
 21
308.401742
 31
0.0
  0
LINE
  5
BB
330
1F
100
AcDbEntity
  8
1
100
AcDbLine
 10
409.6743779999999
 20
295.628003
 30
0.0
 11
418.38366
 21
295.931821
 31
0.0
  0
LINE
  5
BC
330
1F
100
AcDbEntity
  8
1
100
AcDbLine
 10
418.3854339999999
 20
295.676271
 30
0.0
 11
418.38366
 21
295.931821
 31
0.0
  0
LINE
  5
BD
330
1F
100
AcDbEntity
  8
1
100
AcDbLine
 10
418.3095129999999
 20
295.146222
 30
0.0
 11
407.2930709999999
 21
294.76192
 31
0.0
  0
LINE
  5
BE
330
1F
100
AcDbEntity
  8
1
100
AcDbLine
 10
418.3095129999999
 20
295.146222
 30
0.0
 11
415.861514
 21
291.090448
 31
0.0
  0
LINE
  5
BF
330
1F
100
AcDbEntity
  8
1
100
AcDbLine
 10
418.425665
 20
295.947939
 30
0.0
 11
409.6796109999999
 21
295.642838
 31
0.0
  0
LINE
  5
C0
330
1F
100
AcDbEntity
  8
1
100
AcDbLine
 10
409.6743779999999
 20
295.628003
 30
0.0
 11
409.6796109999999
 21
295.642838
 31
0.0
  0
LINE
  5
C1
330
1F
100
AcDbEntity
  8
1
100
AcDbLine
 10
418.0831109999999
 20
289.465297
 30
0.0
 11
418.2591799999999
 21
289.462224
 31
0.0
  0
LINE
  5
C2
330
1F
100
AcDbEntity
  8
1
100
AcDbLine
 10
418.2591799999999
 20
289.462224
 30
0.0
 11
418.54268
 21
289.846397
 31
0.0
  0
LINE
  5
C3
330
1F
100
AcDbEntity
  8
1
100
AcDbLine
 10
418.54268
 20
290.085008
 30
0.0
 11
418.54268
 21
289.846397
 31
0.0
  0
LINE
  5
C4
330
1F
100
AcDbEntity
  8
1
100
AcDbLine
 10
418.54268
 20
290.085008
 30
0.0
 11
418.584842
 21
290.084272
 31
0.0
  0
LINE
  5
C5
330
1F
100
AcDbEntity
  8
1
100
AcDbLine
 10
418.584842
 20
296.218964
 30
0.0
 11
418.584842
 21
290.084272
 31
0.0
  0
LINE
  5
C6
330
1F
100
AcDbEntity
  8
1
100
AcDbLine
 10
418.425665
 20
295.947939
 30
0.0
 11
418.424214
 21
296.156883
 31
0.0
  0
LINE
  5
C7
330
1F
100
AcDbEntity
  8
1
100
AcDbLine
 10
418.425665
 20
295.947939
 30
0.0
 11
418.38366
 21
295.931821
 31
0.0
  0
LINE
  5
C8
330
1F
100
AcDbEntity
  8
1
100
AcDbLine
 10
418.3095129999999
 20
295.146222
 30
0.0
 11
418.3188939999999
 21
295.149821
 31
0.0
  0
LINE
  5
C9
330
1F
100
AcDbEntity
  8
1
100
AcDbLine
 10
417.1891379999999
 20
269.407994
 30
0.0
 11
417.9790389999999
 21
276.85026
 31
0.0
  0
LINE
  5
CA
330
1F
100
AcDbEntity
  8
1
100
AcDbLine
 10
417.9790389999999
 20
276.85026
 30
0.0
 11
417.936949
 21
276.850934
 31
0.0
  0
LINE
  5
CB
330
1F
100
AcDbEntity
  8
1
100
AcDbLine
 10
417.962231
 20
277.089134
 30
0.0
 11
417.936949
 21
276.850934
 31
0.0
  0
LINE
  5
CC
330
1F
100
AcDbEntity
  8
1
100
AcDbLine
 10
417.962231
 20
277.089134
 30
0.0
 11
417.7204409999999
 21
277.482115
 31
0.0
  0
LINE
  5
CD
330
1F
100
AcDbEntity
  8
1
100
AcDbLine
 10
417.7204409999999
 20
277.482115
 30
0.0
 11
417.54467
 21
277.484928
 31
0.0
  0
LINE
  5
CE
330
1F
100
AcDbEntity
  8
1
100
AcDbLine
 10
417.527504
 20
277.985266
 30
0.0
 11
418.012841
 21
282.557994
 31
0.0
  0
LINE
  5
CF
330
1F
100
AcDbEntity
  8
1
100
AcDbLine
 10
417.223085
 20
282.557994
 30
0.0
 11
418.012841
 21
282.557994
 31
0.0
  0
LINE
  5
D0
330
1F
100
AcDbEntity
  8
1
100
AcDbLine
 10
418.012841
 20
282.557994
 30
0.0
 11
418.012841
 21
288.966448
 31
0.0
  0
LINE
  5
D1
330
1F
100
AcDbEntity
  8
1
100
AcDbLine
 10
405.9377719999999
 20
307.82004
 30
0.0
 11
405.919628
 21
308.348019
 31
0.0
  0
LINE
  5
D2
330
1F
100
AcDbEntity
  8
SK1
100
AcDbLine
 10
206.404842
 20
308.907994
 30
0.0
 11
206.404842
 21
268.907994
 31
0.0
  0
LINE
  5
D3
330
1F
100
AcDbEntity
  8
SK1
100
AcDbLine
 10
204.404842
 20
306.907994
 30
0.0
 11
204.404842
 21
270.907994
 31
0.0
  0
LINE
  5
D4
330
1F
100
AcDbEntity
  8
1
100
AcDbLine
 10
406.015587
 20
299.027319
 30
0.0
 11
406.010354
 21
299.012484
 31
0.0
  0
LINE
  5
D5
330
1F
100
AcDbEntity
  8
1
100
AcDbLine
 10
406.015587
 20
299.027319
 30
0.0
 11
405.695264
 21
308.348325
 31
0.0
  0
LINE
  5
D6
330
1F
100
AcDbEntity
  8
1
100
AcDbLine
 10
405.6904069999999
 20
308.32256
 30
0.0
 11
406.010354
 21
299.012484
 31
0.0
  0
LINE
  5
D7
330
1F
100
AcDbEntity
  8
1
100
AcDbLine
 10
417.1891379999999
 20
269.407994
 30
0.0
 11
396.106023
 21
269.407994
 31
0.0
  0
LINE
  5
D8
330
1F
100
AcDbEntity
  8
1
100
AcDbLine
 10
274.904842
 20
263.907994
 30
0.0
 11
274.904842
 21
288.907994
 31
0.0
  0
LINE
  5
D9
330
1F
100
AcDbEntity
  8
1
100
AcDbLine
 10
274.904842
 20
288.907994
 30
0.0
 11
274.904842
 21
313.907994
 31
0.0
  0
LINE
  5
DA
330
1F
100
AcDbEntity
  8
1
100
AcDbLine
 10
411.5820679999999
 20
300.744997
 30
0.0
 11
411.6163529999999
 21
300.842199
 31
0.0
  0
LINE
  5
DB
330
1F
100
AcDbEntity
  8
1
100
AcDbLine
 10
412.377837
 20
300.688979
 30
0.0
 11
412.343422
 21
300.591407
 31
0.0
  0
LINE
  5
DC
330
1F
100
AcDbEntity
  8
1
100
AcDbLine
 10
412.224721
 20
303.536092
 30
0.0
 11
412.259136
 21
303.633664
 31
0.0
  0
LINE
  5
DD
330
1F
100
AcDbEntity
  8
1
100
AcDbLine
 10
413.0021209999999
 20
303.427996
 30
0.0
 11
412.986074
 21
303.382501
 31
0.0
  0
LINE
  5
DE
330
1F
100
AcDbEntity
  8
1
100
AcDbLine
 10
408.915229
 20
303.335397
 30
0.0
 11
408.8991
 21
303.289667
 31
0.0
  0
LINE
  5
DF
330
1F
100
AcDbEntity
  8
1
100
AcDbLine
 10
415.689109
 20
300.894721
 30
0.0
 11
415.705239
 21
300.940451
 31
0.0
  0
LINE
  5
E0
330
1F
100
AcDbEntity
  8
SK1
100
AcDbLine
 10
204.404842
 20
270.907994
 30
0.0
 11
206.404842
 21
268.907994
 31
0.0
  0
LINE
  5
E1
330
1F
100
AcDbEntity
  8
SK1
100
AcDbLine
 10
206.404842
 20
308.907994
 30
0.0
 11
204.404842
 21
306.907994
 31
0.0
  0
LINE
  5
E2
330
1F
100
AcDbEntity
  8
SK1
100
AcDbLine
 10
274.404842
 20
308.907994
 30
0.0
 11
206.404842
 21
308.907994
 31
0.0
  0
LINE
  5
E3
330
1F
100
AcDbEntity
  8
1
100
AcDbLine
 10
274.904842
 20
263.907994
 30
0.0
 11
274.404842
 21
264.407994
 31
0.0
  0
LINE
  5
E4
330
1F
100
AcDbEntity
  8
1
100
AcDbLine
 10
274.404842
 20
313.407994
 30
0.0
 11
274.904842
 21
313.907994
 31
0.0
  0
LINE
  5
E5
330
1F
100
AcDbEntity
  8
1
100
AcDbLine
 10
279.404842
 20
313.907994
 30
0.0
 11
274.904842
 21
313.907994
 31
0.0
  0
LINE
  5
E8
330
1F
100
AcDbEntity
  8
80
100
AcDbLine
 10
275.404416
 20
288.907994
 30
0.0
 11
273.405268
 21
288.907994
 31
0.0
  0
LINE
  5
E9
330
1F
100
AcDbEntity
  8
1
100
AcDbLine
 10
274.404842
 20
313.407994
 30
0.0
 11
274.404842
 21
288.907994
 31
0.0
  0
LINE
  5
EA
330
1F
100
AcDbEntity
  8
1
100
AcDbLine
 10
274.404842
 20
288.907994
 30
0.0
 11
274.404842
 21
264.407994
 31
0.0
  0
LINE
  5
EB
330
1F
100
AcDbEntity
  8
81
100
AcDbLine
 10
417.404842
 20
308.907994
 30
0.0
 11
421.404842
 21
308.907994
 31
0.0
  0
LINE
  5
EC
330
1F
100
AcDbEntity
  8
80
100
AcDbLine
 10
274.404842
 20
287.90842
 30
0.0
 11
274.404842
 21
289.907567
 31
0.0
  0
LINE
  5
ED
330
1F
100
AcDbEntity
  8
SK1
100
AcDbLine
 10
206.404842
 20
268.907994
 30
0.0
 11
274.404842
 21
268.907994
 31
0.0
  0
LINE
  5
EE
330
1F
100
AcDbEntity
  8
81
100
AcDbLine
 10
419.4048419999999
 20
310.907994
 30
0.0
 11
419.4048419999999
 21
306.907994
 31
0.0
  0
LINE
  5
EF
330
1F
100
AcDbEntity
  8
1
100
AcDbLine
 10
274.904842
 20
263.907994
 30
0.0
 11
279.404842
 21
263.907994
 31
0.0
  0
LINE
  5
121
330
1F
100
AcDbEntity
  8
NOCUT
100
AcDbLine
 10
418.584842
 20
288.907994
 30
0.0
 11
204.404842
 21
288.907994
 31
0.0
  0
LINE
  5
122
330
1F
100
AcDbEntity
  8
NOCUT
100
AcDbLine
 10
279.404842
 20
313.907994
 30
0.0
 11
280.21855
 21
313.094285
 31
0.0
  0
LINE
  5
123
330
1F
100
AcDbEntity
  8
NOCUT
100
AcDbLine
 10
291.532259
 20
308.407994
 30
0.0
 11
418.1646999999999
 21
308.407994
 31
0.0
  0
LINE
  5
124
330
1F
100
AcDbEntity
  8
NOCUT
100
AcDbLine
 10
204.404842
 20
306.907994
 30
0.0
 11
204.404842
 21
288.907994
 31
0.0
  0
LINE
  5
125
330
1F
100
AcDbEntity
  8
NOCUT
100
AcDbLine
 10
204.404842
 20
306.907994
 30
0.0
 11
206.404842
 21
308.907994
 31
0.0
  0
LINE
  5
126
330
1F
100
AcDbEntity
  8
NOCUT
100
AcDbLine
 10
274.404842
 20
308.907994
 30
0.0
 11
206.404842
 21
308.907994
 31
0.0
  0
LINE
  5
127
330
1F
100
AcDbEntity
  8
NOCUT
100
AcDbLine
 10
274.404842
 20
308.907994
 30
0.0
 11
274.404842
 21
313.407994
 31
0.0
  0
LINE
  5
128
330
1F
100
AcDbEntity
  8
NOCUT
100
AcDbLine
 10
274.404842
 20
313.407994
 30
0.0
 11
274.904842
 21
313.907994
 31
0.0
  0
LINE
  5
129
330
1F
100
AcDbEntity
  8
NOCUT
100
AcDbLine
 10
418.1646999999999
 20
308.407994
 30
0.0
 11
418.584842
 21
296.480006
 31
0.0
  0
LINE
  5
12A
330
1F
100
AcDbEntity
  8
NOCUT
100
AcDbLine
 10
418.584842
 20
296.480006
 30
0.0
 11
418.584842
 21
288.907994
 31
0.0
  0
LINE
  5
12B
330
1F
100
AcDbEntity
  8
NOCUT
100
AcDbLine
 10
279.404842
 20
313.907994
 30
0.0
 11
274.904842
 21
313.907994
 31
0.0
  0
ARC
  5
134
330
1F
100
AcDbEntity
  8
1
100
AcDbCircle
 10
291.532259
 20
253.407994
 30
0.0
 40
16.0
100
AcDbArc
 50
90.0
 51
135.0
  0
ARC
  5
135
330
1F
100
AcDbEntity
  8
1
100
AcDbCircle
 10
412.813137
 20
283.804045
 30
0.0
 40
1.75
100
AcDbArc
 50
75.0
 51
345.0
  0
CIRCLE
  5
136
330
1F
100
AcDbEntity
  8
1
100
AcDbCircle
 10
412.813137
 20
283.804045
 30
0.0
 40
1.35
  0
ARC
  5
137
330
1F
100
AcDbEntity
  8
1
100
AcDbCircle
 10
291.532259
 20
324.407994
 30
0.0
 40
16.0
100
AcDbArc
 50
225.0
 51
270.0
  0
ARC
  5
146
330
1F
100
AcDbEntity
  8
NOCUT
100
AcDbCircle
 10
291.532259
 20
324.407994
 30
0.0
 40
16.0
100
AcDbArc
 50
225.0
 51
270.0
  0
ELLIPSE
  5
147
330
1F
100
AcDbEntity
  8
1
100
AcDbEllipse
 10
412.3102339999999
 20
302.137924
 30
0.0
 11
-3.395004864809725
 21
1.197473159581585
 31
0.0
210
0.0
220
0.0
230
0.9999999999999998
 40
0.9986239999999998
 41
3.141585274248861
 42
5.872218228534566
  0
ELLIPSE
  5
148
330
1F
100
AcDbEntity
  8
1
100
AcDbEllipse
 10
412.3102339999999
 20
302.137924
 30
0.0
 11
-3.395004864809725
 21
1.197473159581585
 31
0.0
210
0.0
220
0.0
230
0.9999999999999998
 40
0.9986239999999998
 41
5.87221822853457
 42
6.283185307179585
  0
ELLIPSE
  5
149
330
1F
100
AcDbEntity
  8
1
100
AcDbEllipse
 10
410.905622
 20
302.687791
 30
0.0
 11
-0.0898897536456661
 21
0.0317055708602406
 31
0.0
210
0.0
220
0.0
230
0.9999999999999998
 40
0.998624
 41
3.886489476374866
 42
4.563221393255744
  0
ELLIPSE
  5
14A
330
1F
100
AcDbEntity
  8
1
100
AcDbEllipse
 10
410.99496
 20
302.855906
 30
0.0
 11
-0.0898897536456659
 21
0.0317055708602405
 31
0.0
210
0.0
220
0.0
230
1.0
 40
0.998624
 41
0.2212980471867383
 42
1.421628739665658
  0
ELLIPSE
  5
14B
330
1F
100
AcDbEntity
  8
1
100
AcDbEllipse
 10
411.4969829999999
 20
302.7963450000001
 30
0.0
 11
-0.5666776289729544
 21
0.1998763706833383
 31
0.0
210
0.0
220
0.0
230
0.9999999999999998
 40
0.9986239999999998
 41
5.239953310136255
 42
6.504483354366402
  0
ELLIPSE
  5
14C
330
1F
100
AcDbEntity
  8
1
100
AcDbEllipse
 10
411.4020589999999
 20
303.292402
 30
0.0
 11
-0.089889753645668
 21
0.0317055708602412
 31
0.0
210
0.0
220
0.0
230
0.9999999999999998
 40
0.9986239999999998
 41
4.039622617657328
 42
5.239953310136356
  0
ELLIPSE
  5
14D
330
1F
100
AcDbEntity
  8
1
100
AcDbEllipse
 10
411.5636149999999
 20
303.3933
 30
0.0
 11
-0.089889753645668
 21
0.0317055708602412
 31
0.0
210
0.0
220
0.0
230
0.9999999999999998
 40
0.9986239999999998
 41
0.8980299640672074
 42
1.574761880947441
  0
ELLIPSE
  5
14E
330
1F
100
AcDbEntity
  8
1
100
AcDbEllipse
 10
411.729662
 20
303.870095
 30
0.0
 11
-0.5666776289729542
 21
0.1998763706833382
 31
0.0
210
0.0
220
0.0
230
1.0
 40
0.9986239999999998
 41
1.57476188094806
 42
2.839291925178276
  0
ELLIPSE
  5
14F
330
1F
100
AcDbEntity
  8
1
100
AcDbEllipse
 10
412.134831
 20
303.567797
 30
0.0
 11
-0.0898897536456661
 21
0.0317055708602406
 31
0.0
210
0.0
220
0.0
230
0.9999999999999998
 40
0.998624
 41
2.839291925178518
 42
3.516023842059044
  0
ELLIPSE
  5
150
330
1F
100
AcDbEntity
  8
1
100
AcDbEllipse
 10
412.325315
 20
303.574442
 30
0.0
 11
-0.0898897536456659
 21
0.0317055708602405
 31
0.0
210
0.0
220
0.0
230
1.0
 40
0.998624
 41
5.457285803169636
 42
6.657616495648768
  0
ELLIPSE
  5
151
330
1F
100
AcDbEntity
  8
1
100
AcDbEllipse
 10
412.525066
 20
303.110408
 30
0.0
 11
-0.5666776289729544
 21
0.1998763706833383
 31
0.0
210
0.0
220
0.0
230
0.9999999999999998
 40
0.9986239999999998
 41
4.192755758939631
 42
5.457285803169846
  0
ELLIPSE
  5
152
330
1F
100
AcDbEntity
  8
1
100
AcDbEllipse
 10
412.907592
 20
303.440184
 30
0.0
 11
-0.089889753645668
 21
0.0317055708602412
 31
0.0
210
0.0
220
0.0
230
0.9999999999999998
 40
0.9986239999999998
 41
2.992425066460873
 42
4.192755758939593
  0
ELLIPSE
  5
153
330
1F
100
AcDbEntity
  8
1
100
AcDbEllipse
 10
413.0759639999999
 20
303.350796
 30
0.0
 11
-0.089889753645668
 21
0.0317055708602412
 31
0.0
210
0.0
220
0.0
230
0.9999999999999998
 40
0.9986239999999998
 41
6.134017720050519
 42
6.810749636931205
  0
ELLIPSE
  5
154
330
1F
100
AcDbEntity
  8
1
100
AcDbEllipse
 10
413.5724719999999
 20
303.445189
 30
0.0
 11
-0.5666776289729542
 21
0.1998763706833382
 31
0.0
210
0.0
220
0.0
230
1.0
 40
0.9986239999999998
 41
0.5275643297515229
 42
1.792094373981718
  0
ELLIPSE
  5
155
330
1F
100
AcDbEntity
  8
1
100
AcDbEllipse
 10
413.5132809999999
 20
302.943756
 30
0.0
 11
-0.0898897536456661
 21
0.0317055708602406
 31
0.0
210
0.0
220
0.0
230
0.9999999999999998
 40
0.998624
 41
1.792094373981738
 42
2.468826290862563
  0
ELLIPSE
  5
156
330
1F
100
AcDbEntity
  8
1
100
AcDbEllipse
 10
413.614426
 20
302.782286
 30
0.0
 11
-0.0898897536456659
 21
0.0317055708602405
 31
0.0
210
0.0
220
0.0
230
1.0
 40
0.998624
 41
4.410088251973441
 42
5.610418944452391
  0
ELLIPSE
  5
157
330
1F
100
AcDbEntity
  8
1
100
AcDbEllipse
 10
413.312154
 20
302.377812
 30
0.0
 11
-0.5666776289729544
 21
0.1998763706833383
 31
0.0
210
0.0
220
0.0
230
0.9999999999999998
 40
0.9986239999999998
 41
3.145558207743035
 42
4.410088251973179
  0
ELLIPSE
  5
158
330
1F
100
AcDbEntity
  8
1
100
AcDbEllipse
 10
413.789604
 20
302.211531
 30
0.0
 11
-0.089889753645668
 21
0.0317055708602412
 31
0.0
210
0.0
220
0.0
230
0.9999999999999998
 40
0.9986239999999998
 41
1.945227515263971
 42
3.145558207742899
  0
ELLIPSE
  5
159
330
1F
100
AcDbEntity
  8
1
100
AcDbEllipse
 10
413.7964209999999
 20
302.021245
 30
0.0
 11
-0.089889753645668
 21
0.0317055708602412
 31
0.0
210
0.0
220
0.0
230
0.9999999999999998
 40
0.9986239999999998
 41
5.086820168853793
 42
5.763552085734615
  0
ELLIPSE
  5
15A
330
1F
100
AcDbEntity
  8
1
100
AcDbEllipse
 10
414.126881
 20
301.638844
 30
0.0
 11
-0.5666776289729542
 21
0.1998763706833382
 31
0.0
210
0.0
220
0.0
230
1.0
 40
0.9986239999999998
 41
5.763552085734517
 42
7.028082129964675
  0
ELLIPSE
  5
15B
330
1F
100
AcDbEntity
  8
1
100
AcDbEllipse
 10
413.662521
 20
301.439708
 30
0.0
 11
-0.0898897536456661
 21
0.0317055708602406
 31
0.0
210
0.0
220
0.0
230
0.9999999999999998
 40
0.998624
 41
0.7448968227851651
 42
1.421628739665951
  0
ELLIPSE
  5
15C
330
1F
100
AcDbEntity
  8
1
100
AcDbEllipse
 10
413.573183
 20
301.271593
 30
0.0
 11
-0.0898897536456659
 21
0.0317055708602405
 31
0.0
210
0.0
220
0.0
230
1.0
 40
0.998624
 41
3.362890700776596
 42
4.563221393255733
  0
ELLIPSE
  5
15D
330
1F
100
AcDbEntity
  8
1
100
AcDbEllipse
 10
413.07116
 20
301.331154
 30
0.0
 11
-0.5666776289729544
 21
0.1998763706833383
 31
0.0
210
0.0
220
0.0
230
0.9999999999999998
 40
0.9986239999999998
 41
2.09836065654641
 42
3.362890700776606
  0
ELLIPSE
  5
15E
330
1F
100
AcDbEntity
  8
1
100
AcDbEllipse
 10
413.166084
 20
300.835096
 30
0.0
 11
-0.089889753645668
 21
0.0317055708602412
 31
0.0
210
0.0
220
0.0
230
0.9999999999999998
 40
0.9986239999999998
 41
0.8980299640675344
 42
2.098360656546524
  0
ELLIPSE
  5
15F
330
1F
100
AcDbEntity
  8
1
100
AcDbEllipse
 10
413.004528
 20
300.734199
 30
0.0
 11
-0.089889753645668
 21
0.0317055708602412
 31
0.0
210
0.0
220
0.0
230
0.9999999999999998
 40
0.9986239999999998
 41
4.03962261765735
 42
4.716354534537681
  0
ELLIPSE
  5
160
330
1F
100
AcDbEntity
  8
1
100
AcDbEllipse
 10
412.838481
 20
300.257404
 30
0.0
 11
-0.5666776289729542
 21
0.1998763706833382
 31
0.0
210
0.0
220
0.0
230
1.0
 40
0.9986239999999998
 41
4.7163545345379
 42
5.980884578768097
  0
ELLIPSE
  5
161
330
1F
100
AcDbEntity
  8
1
100
AcDbEllipse
 10
412.433312
 20
300.559701
 30
0.0
 11
-0.0898897536456661
 21
0.0317055708602406
 31
0.0
210
0.0
220
0.0
230
0.9999999999999998
 40
0.998624
 41
5.980884578768167
 42
6.657616495648838
  0
ELLIPSE
  5
162
330
1F
100
AcDbEntity
  8
1
100
AcDbEllipse
 10
412.2428279999999
 20
300.553056
 30
0.0
 11
-0.0898897536456659
 21
0.0317055708602405
 31
0.0
210
0.0
220
0.0
230
1.0
 40
0.998624
 41
2.315693149579953
 42
3.516023842058973
  0
ELLIPSE
  5
163
330
1F
100
AcDbEntity
  8
1
100
AcDbEllipse
 10
412.0430769999999
 20
301.017091
 30
0.0
 11
-0.5666776289729544
 21
0.1998763706833383
 31
0.0
210
0.0
220
0.0
230
0.9999999999999998
 40
0.9986239999999998
 41
1.051163105349795
 42
2.31569314958001
  0
ELLIPSE
  5
164
330
1F
100
AcDbEntity
  8
1
100
AcDbEllipse
 10
411.660551
 20
300.687315
 30
0.0
 11
-0.089889753645668
 21
0.0317055708602412
 31
0.0
210
0.0
220
0.0
230
0.9999999999999998
 40
0.9986239999999998
 41
6.134017720050592
 42
7.334348412529053
  0
ELLIPSE
  5
165
330
1F
100
AcDbEntity
  8
1
100
AcDbEllipse
 10
411.492179
 20
300.776703
 30
0.0
 11
-0.089889753645668
 21
0.0317055708602412
 31
0.0
210
0.0
220
0.0
230
0.9999999999999998
 40
0.9986239999999998
 41
2.992425066460748
 42
3.669156983341143
  0
ELLIPSE
  5
166
330
1F
100
AcDbEntity
  8
1
100
AcDbEllipse
 10
410.995671
 20
300.682309
 30
0.0
 11
-0.5666776289729542
 21
0.1998763706833382
 31
0.0
210
0.0
220
0.0
230
1.0
 40
0.9986239999999998
 41
3.669156983341319
 42
4.933687027571512
  0
ELLIPSE
  5
167
330
1F
100
AcDbEntity
  8
1
100
AcDbEllipse
 10
411.054862
 20
301.183743
 30
0.0
 11
-0.0898897536456661
 21
0.0317055708602406
 31
0.0
210
0.0
220
0.0
230
0.9999999999999998
 40
0.998624
 41
4.933687027571693
 42
5.610418944452566
  0
ELLIPSE
  5
168
330
1F
100
AcDbEntity
  8
1
100
AcDbEllipse
 10
410.953717
 20
301.345213
 30
0.0
 11
-0.0898897536456659
 21
0.0317055708602405
 31
0.0
210
0.0
220
0.0
230
1.0
 40
0.998624
 41
1.268495598383222
 42
2.468826290861958
  0
ELLIPSE
  5
169
330
1F
100
AcDbEntity
  8
1
100
AcDbEllipse
 10
411.2559889999999
 20
301.749687
 30
0.0
 11
-0.5666776289729544
 21
0.1998763706833383
 31
0.0
210
0.0
220
0.0
230
0.9999999999999998
 40
0.9986239999999998
 41
0.0039655541532317
 42
1.268495598383385
  0
ELLIPSE
  5
16A
330
1F
100
AcDbEntity
  8
1
100
AcDbEllipse
 10
410.778539
 20
301.915968
 30
0.0
 11
-0.089889753645668
 21
0.0317055708602412
 31
0.0
210
0.0
220
0.0
230
0.9999999999999998
 40
0.9986239999999998
 41
5.086820168853793
 42
6.287150861332918
  0
ELLIPSE
  5
16B
330
1F
100
AcDbEntity
  8
1
100
AcDbEllipse
 10
410.771722
 20
302.106254
 30
0.0
 11
-0.089889753645668
 21
0.0317055708602412
 31
0.0
210
0.0
220
0.0
230
0.9999999999999998
 40
0.9986239999999998
 41
1.945227515264111
 42
2.62195943214483
  0
ELLIPSE
  5
16C
330
1F
100
AcDbEntity
  8
1
100
AcDbEllipse
 10
410.4412619999999
 20
302.488655
 30
0.0
 11
-0.5666776289729542
 21
0.1998763706833382
 31
0.0
210
0.0
220
0.0
230
1.0
 40
0.9986239999999998
 41
2.621959432144701
 42
3.886489476374896
  0
ELLIPSE
  5
16D
330
1F
100
AcDbEntity
  8
1
100
AcDbEllipse
 10
412.284071
 20
302.063749
 30
0.0
 11
1.98041950447234
 21
-0.6985260097559253
 31
0.0
210
0.0
220
0.0
230
1.0
 40
0.9986239999999998
 41
0.0
 42
6.283185307179585
  0
ELLIPSE
  5
16E
330
1F
100
AcDbEntity
  8
1
100
AcDbEllipse
 10
412.2941039999999
 20
302.092194
 30
0.0
 11
3.395004864809725
 21
-1.197473159581585
 31
0.0
210
0.0
220
0.0
230
0.9999999999999998
 40
0.9986239999999998
 41
0.0
 42
6.283185307179585
  0
ELLIPSE
  5
16F
330
1F
100
AcDbEntity
  8
1
100
AcDbEllipse
 10
412.479414
 20
302.328829
 30
0.0
 11
3.531988007444661
 21
-1.24578933088394
 31
0.0
210
0.0
220
0.0
230
1.0
 40
0.9986239999999998
 41
1.945227552038383
 42
3.356097206659882
  0
ELLIPSE
  5
170
330
1F
100
AcDbEntity
  8
1
100
AcDbEllipse
 10
412.479414
 20
302.328829
 30
0.0
 11
3.531988007444661
 21
-1.24578933088394
 31
0.0
210
0.0
220
0.0
230
1.0
 40
0.9986239999999998
 41
5.419043491545753
 42
6.283185307179585
  0
ELLIPSE
  5
171
330
1F
100
AcDbEntity
  8
1
100
AcDbEllipse
 10
412.479414
 20
302.328829
 30
0.0
 11
3.531988007444661
 21
-1.24578933088394
 31
0.0
210
0.0
220
0.0
230
1.0
 40
0.9986239999999998
 41
0.0
 42
1.508938775396913
  0
ELLIPSE
  5
172
330
1F
100
AcDbEntity
  8
1
100
AcDbEllipse
 10
412.479414
 20
302.328829
 30
0.0
 11
3.531988007444661
 21
-1.24578933088394
 31
0.0
210
0.0
220
0.0
230
1.0
 40
0.9986239999999998
 41
1.632540859458624
 42
1.945227552038381
  0
ELLIPSE
  5
173
330
1F
100
AcDbEntity
  8
1
100
AcDbEllipse
 10
407.706923
 20
297.163641
 30
0.0
 11
0.481743459265453
 21
0.5170545786524561
 31
0.0
210
0.0
220
0.0
230
0.9999999999999998
 40
0.01483
 41
0.5198738242258063
 42
1.536779664714149
  0
ELLIPSE
  5
174
330
1F
100
AcDbEntity
  8
1
100
AcDbEllipse
 10
412.459618
 20
302.272704
 30
0.0
 11
3.588083700633126
 21
-1.265575189707762
 31
0.0
210
0.0
220
0.0
230
0.9999999999999998
 40
0.9986239999999998
 41
1.945227451328569
 42
3.745261875445962
  0
ELLIPSE
  5
175
330
1F
100
AcDbEntity
  8
1
100
AcDbEllipse
 10
412.459618
 20
302.272704
 30
0.0
 11
3.588083700633126
 21
-1.265575189707762
 31
0.0
210
0.0
220
0.0
230
0.9999999999999998
 40
0.9986239999999998
 41
4.874566385899282
 42
6.283185307179585
  0
ELLIPSE
  5
176
330
1F
100
AcDbEntity
  8
1
100
AcDbEllipse
 10
412.459618
 20
302.272704
 30
0.0
 11
3.588083700633126
 21
-1.265575189707762
 31
0.0
210
0.0
220
0.0
230
0.9999999999999998
 40
0.9986239999999998
 41
0.0
 42
1.945227440221053
  0
ELLIPSE
  5
177
330
1F
100
AcDbEntity
  8
1
100
AcDbEllipse
 10
407.354697
 20
306.996081
 30
0.0
 11
0.5172967687559234
 21
-0.4819691095198062
 31
0.0
210
0.0
220
0.0
230
1.0
 40
0.033998
 41
0.5687050474030997
 42
1.585610887742609
  0
ELLIPSE
  5
178
330
1F
100
AcDbEntity
  8
1
100
AcDbEllipse
 10
417.1973829999999
 20
307.339437
 30
0.0
 11
0.4817434594508738
 21
0.5170545788504369
 31
0.0
210
0.0
220
0.0
230
1.0
 40
0.01483
 41
1.536779664806647
 42
2.553685504969735
  0
ELLIPSE
  5
179
330
1F
100
AcDbEntity
  8
1
100
AcDbEllipse
 10
417.549608
 20
297.506997
 30
0.0
 11
0.5172967687490934
 21
-0.4819691095138732
 31
0.0
210
0.0
220
0.0
230
1.0
 40
0.033998
 41
1.585610887759536
 42
2.602516728107989
  0
ELLIPSE
  5
17A
330
1F
100
AcDbEntity
  8
1
100
AcDbEllipse
 10
412.45674
 20
302.264544
 30
0.0
 11
-3.677921936877199
 21
1.297262589546718
 31
0.0
210
0.0
220
0.0
230
1.0
 40
0.9986239999999998
 41
0.0
 42
6.283185307179585
  0
ELLIPSE
  5
17B
330
1F
100
AcDbEntity
  8
1
100
AcDbEllipse
 10
211.433464
 20
288.907994
 30
0.0
 11
110.5798816990693
 21
-16.84906638340117
 31
0.0
210
0.0
220
0.0
230
1.0
 40
0.088771
 41
5.576676314824061
 42
5.628629311792811
  0
ELLIPSE
  5
17C
330
1F
100
AcDbEntity
  8
1
100
AcDbEllipse
 10
301.194741
 20
269.786225
 30
0.0
 11
-24.93713315058544
 21
5.129791339877188
 31
0.0
210
0.0
220
0.0
230
1.0
 40
0.5072130000000001
 41
4.965043552470771
 42
6.075194870606996
  0
ELLIPSE
  5
17D
330
1F
100
AcDbEntity
  8
1
100
AcDbEllipse
 10
407.0587409999999
 20
292.670077
 30
0.0
 11
-3.787173852024267
 21
-0.14863741467289
 31
0.0
210
0.0
220
0.0
230
0.9999999999999998
 40
0.22151
 41
1.650434991966043
 42
4.630523355824462
  0
ELLIPSE
  5
17E
330
1F
100
AcDbEntity
  8
1
100
AcDbEllipse
 10
408.413641
 20
311.823205
 30
0.0
 11
7.100722331278477
 21
15.80369244788517
 31
0.0
210
0.0
220
0.0
230
1.0
 40
0.7249830000000001
 41
3.072024216430012
 42
3.078231844849152
  0
ELLIPSE
  5
17F
330
1F
100
AcDbEntity
  8
1
100
AcDbEllipse
 10
413.943474
 20
288.907994
 30
0.0
 11
33.44445577970331
 21
-19.23804763107445
 31
0.0
210
0.0
220
0.0
230
1.0
 40
0.095248
 41
4.132523967038832
 42
4.361718051005555
  0
ELLIPSE
  5
180
330
1F
100
AcDbEntity
  8
1
100
AcDbEllipse
 10
406.844782
 20
288.907994
 30
0.0
 11
0.652129517406279
 21
-19.49999578497419
 31
0.0
210
0.0
220
0.0
230
1.0
 40
0.0191
 41
3.026908477987918
 42
3.115630924404515
  0
ELLIPSE
  5
181
330
1F
100
AcDbEntity
  8
1
100
AcDbEllipse
 10
407.9546159999999
 20
297.44152
 30
0.0
 11
2.357642267228975
 21
-0.831578583042768
 31
0.0
210
0.0
220
0.0
230
1.0
 40
0.9986239999999998
 41
5.637542175042116
 42
5.809792633311543
  0
ELLIPSE
  5
182
330
1F
100
AcDbEntity
  8
1
100
AcDbEllipse
 10
406.668887
 20
288.907994
 30
0.0
 11
0.5467685267800306
 21
-19.49984859173505
 31
0.0
210
0.0
220
0.0
230
1.0
 40
0.140543
 41
3.112328928190444
 42
3.216101807587691
  0
ELLIPSE
  5
183
330
1F
100
AcDbEntity
  8
1
100
AcDbEllipse
 10
248.016621
 20
288.907992
 30
0.0
 11
509.522408454997
 21
19.01623615315289
 31
0.0
210
0.0
220
0.0
230
0.9999999999999998
 40
0.008472
 41
5.030284747435614
 42
5.047757888387143
  0
ELLIPSE
  5
184
330
1F
100
AcDbEntity
  8
1
100
AcDbEllipse
 10
407.959848
 20
297.456355
 30
0.0
 11
-2.357642267228975
 21
0.831578583042768
 31
0.0
210
0.0
220
0.0
230
1.0
 40
0.9986239999999998
 41
2.66819997972176
 42
2.776747666076905
  0
ELLIPSE
  5
185
330
1F
100
AcDbEntity
  8
1
100
AcDbEllipse
 10
418.0831109999999
 20
288.965221
 30
0.0
 11
0.0001758288822688
 21
-0.5000776676664203
 31
0.0
210
0.0
220
0.0
230
0.9999999999999998
 40
0.140519
 41
3.139090475969517
 42
4.709886802763091
  0
ELLIPSE
  5
186
330
1F
100
AcDbEntity
  8
1
100
AcDbEllipse
 10
418.315425
 20
295.649408
 30
0.0
 11
0.000301603763697
 21
0.5003084758530899
 31
0.0
210
0.0
220
0.0
230
0.9999999999999996
 40
0.140101
 41
3.195395734393349
 42
4.766192061199113
  0
ELLIPSE
  5
187
330
1F
100
AcDbEntity
  8
1
100
AcDbEllipse
 10
417.597656
 20
277.984144
 30
0.0
 11
0.0538770024347334
 21
0.499161142506495
 31
0.0
210
0.0
220
0.0
230
1.0
 40
0.139171
 41
1.58356817924277
 42
3.154364506043568
  0
ELLIPSE
  5
188
330
1F
100
AcDbEntity
  8
1
100
AcDbEllipse
 10
419.2588129999999
 20
288.907994
 30
0.0
 11
2.110656003694669
 21
19.49779465160933
 31
0.0
210
0.0
220
0.0
230
1.0
 40
0.138944
 41
1.917525697829024
 42
3.156632395651091
  0
ELLIPSE
  5
189
330
1F
100
AcDbEntity
  8
1
100
AcDbEllipse
 10
418.584842
 20
288.907994
 30
0.0
 11
0.0
 21
19.49999999998128
 31
0.0
210
0.0
220
0.0
230
1.0
 40
0.140541
 41
1.458640619187507
 42
1.902485955768355
  0
ELLIPSE
  5
18A
330
1F
100
AcDbEntity
  8
1
100
AcDbEllipse
 10
408.0411269999999
 20
297.686792
 30
0.0
 11
-2.357642267228974
 21
0.8315785830427676
 31
0.0
210
0.0
220
0.0
230
1.0
 40
0.998624
 41
0.0520252572636118
 42
1.945227431237595
  0
ELLIPSE
  5
18B
330
1F
100
AcDbEntity
  8
1
100
AcDbEllipse
 10
408.0411269999999
 20
297.686792
 30
0.0
 11
-2.357642267228974
 21
0.8315785830427676
 31
0.0
210
0.0
220
0.0
230
1.0
 40
0.998624
 41
1.945227431237593
 42
2.645311779347055
  0
ELLIPSE
  5
18C
330
1F
100
AcDbEntity
  8
1
100
AcDbEllipse
 10
407.959848
 20
297.456355
 30
0.0
 11
-2.357642267228975
 21
0.831578583042768
 31
0.0
210
0.0
220
0.0
230
1.0
 40
0.9986239999999998
 41
5.822888314034117
 42
5.942244189143295
  0
ELLIPSE
  5
18D
330
1F
100
AcDbEntity
  8
1
100
AcDbEllipse
 10
407.9546159999999
 20
297.44152
 30
0.0
 11
2.357642267228975
 21
-0.831578583042768
 31
0.0
210
0.0
220
0.0
230
1.0
 40
0.9986239999999998
 41
2.800651535553508
 42
4.52580303452378
  0
ELLIPSE
  5
18E
330
1F
100
AcDbEntity
  8
1
100
AcDbEllipse
 10
406.3742899999999
 20
288.908481
 30
0.0
 11
0.652112438795132
 21
-19.49950880008584
 31
0.0
210
0.0
220
0.0
230
1.0
 40
0.0191
 41
3.219203976191046
 42
3.234597166718728
  0
ELLIPSE
  5
18F
330
1F
100
AcDbEntity
  8
1
100
AcDbEllipse
 10
356.283243
 20
288.885822
 30
0.0
 11
1118.472978168863
 21
-0.9643124458034064
 31
0.0
210
0.0
220
0.0
230
0.9999999999999998
 40
0.017433
 41
1.526623211858377
 42
1.529441194809955
  0
ELLIPSE
  5
190
330
1F
100
AcDbEntity
  8
1
100
AcDbEllipse
 10
324.859101
 20
288.907994
 30
0.0
 11
110.5798805049993
 21
-16.84906613281661
 31
0.0
210
0.0
220
0.0
230
1.0
 40
0.088771
 41
4.41980082193148
 42
4.526067145022835
  0
ELLIPSE
  5
191
330
1F
100
AcDbEntity
  8
1
100
AcDbEllipse
 10
406.8330239999999
 20
307.3417790000001
 30
0.0
 11
-11.88251702683404
 21
4.191156058535555
 31
0.0
210
0.0
220
0.0
230
1.0
 40
0.9986239999999998
 41
1.386722154625875
 42
1.945227515264106
  0
ELLIPSE
  5
192
330
1F
100
AcDbEntity
  8
1
100
AcDbEllipse
 10
302.904842
 20
277.459344
 30
0.0
 11
-2.978256638435841
 21
-9.546202773648436
 31
0.0
210
0.0
220
0.0
230
0.9999999999999998
 40
0.176153
 41
4.224462826421837
 42
5.746470522824758
  0
SPLINE
  5
198
330
1F
100
AcDbEntity
  8
1
100
AcDbSpline
210
0.0
220
0.0
230
1.0
 70
     8
 71
     3
 72
     8
 73
     4
 74
     0
 42
0.000000001
 43
0.0000000001
 40
0.0
 40
0.0
 40
0.0
 40
0.0
 40
1.0
 40
1.0
 40
1.0
 40
1.0
 10
279.4048419452957
 20
268.4562508916197
 30
0.0
 10
279.6707235692487
 20
268.4835880275364
 30
0.0
 10
279.9423478384323
 20
268.5299798752871
 30
0.0
 10
280.2185504442805
 20
268.5920277764269
 30
0.0
  0
SPLINE
  5
199
330
1F
100
AcDbEntity
  8
1
100
AcDbSpline
210
0.0
220
0.0
230
1.0
 70
     8
 71
     3
 72
     8
 73
     4
 74
     0
 42
0.000000001
 43
0.0000000001
 40
0.0
 40
0.0
 40
0.0
 40
0.0
 40
1.0
 40
1.0
 40
1.0
 40
1.0
 10
290.499143932372
 20
284.5369333012328
 30
0.0
 10
290.8427592522263
 20
284.4868628774285
 30
0.0
 10
291.1871315026804
 20
284.4307862802633
 30
0.0
 10
291.5322589432652
 20
284.368717320197
 30
0.0
  0
SPLINE
  5
19A
330
1F
100
AcDbEntity
  8
1
100
AcDbSpline
210
0.0
220
0.0
230
1.0
 70
     8
 71
     3
 72
     8
 73
     4
 74
     0
 42
0.000000001
 43
0.0000000001
 40
0.0
 40
0.0
 40
0.0
 40
0.0
 40
1.0
 40
1.0
 40
1.0
 40
1.0
 10
280.2185504442805
 20
280.6526838863064
 30
0.0
 10
279.941190311013
 20
280.3549912669083
 30
0.0
 10
279.6697934457264
 20
280.0443080356421
 30
0.0
 10
279.4048419452957
 20
279.7188208414834
 30
0.0
  0
SPLINE
  5
19B
330
1F
100
AcDbEntity
  8
1
100
AcDbSpline
210
0.0
220
0.0
230
1.0
 70
     8
 71
     3
 72
    10
 73
     6
 74
     0
 42
0.000000001
 43
0.0000000001
 40
0.0
 40
0.0
 40
0.0
 40
0.0
 40
0.7126968672813466
 40
0.7126968672813466
 40
1.0
 40
1.0
 40
1.0
 40
1.0
 10
410.9339364338781
 20
302.9624619903517
 30
0.0
 10
410.9375703189023
 20
302.9936971992904
 30
0.0
 10
410.9436609760244
 20
303.0243927616151
 30
0.0
 10
410.9555997223242
 20
303.0667091356593
 30
0.0
 10
410.9594245159557
 20
303.0787791459596
 30
0.0
 10
410.9636504600556
 20
303.0907598173514
 30
0.0
  0
SPLINE
  5
19C
330
1F
100
AcDbEntity
  8
1
100
AcDbSpline
210
0.0
220
0.0
230
1.0
 70
     8
 71
     3
 72
    10
 73
     6
 74
     0
 42
0.000000001
 43
0.0000000001
 40
0.0
 40
0.0
 40
0.0
 40
0.0
 40
0.6730942228788094
 40
0.6730942228788094
 40
1.0
 40
1.0
 40
1.0
 40
1.0
 10
412.2621174266877
 20
303.6440023950173
 30
0.0
 10
412.2615891009556
 20
303.6416658416754
 30
0.0
 10
412.2609669563466
 20
303.6393412179339
 30
0.0
 10
412.2599029198008
 20
303.6359068655519
 30
0.0
 10
412.2595348165544
 20
303.6347929072572
 30
0.0
 10
412.2591463105543
 20
303.6336877503441
 30
0.0
  0
SPLINE
  5
19D
330
1F
100
AcDbEntity
  8
1
100
AcDbSpline
210
0.0
220
0.0
230
1.0
 70
     8
 71
     3
 72
    27
 73
    23
 74
     0
 42
0.000000001
 43
0.0000000001
 40
0.0
 40
0.0
 40
0.0
 40
0.0
 40
0.1249999999998281
 40
0.1249999999998281
 40
0.1874999999997941
 40
0.1874999999997941
 40
0.24999999999976
 40
0.24999999999976
 40
0.3749999999998003
 40
0.3749999999998003
 40
0.4374999999998201
 40
0.4374999999998201
 40
0.4999999999998401
 40
0.4999999999998401
 40
0.6249999999998798
 40
0.6249999999998798
 40
0.6874999999999011
 40
0.6874999999999011
 40
0.7499999999999223
 40
0.7499999999999223
 40
0.874999999999961
 40
1.0
 40
1.0
 40
1.0
 40
1.0
 10
412.314110569522
 20
300.5608985382946
 30
0.0
 10
412.2848945938051
 20
300.5481770905374
 30
0.0
 10
412.254956646723
 20
300.5378850079897
 30
0.0
 10
412.2089877943785
 20
300.5260348488686
 30
0.0
 10
412.1934870273241
 20
300.5226855324403
 30
0.0
 10
412.1621232504266
 20
300.5172127030495
 30
0.0
 10
412.1462141766188
 20
300.5150892999729
 30
0.0
 10
412.098698551414
 20
300.5106762895449
 30
0.0
 10
412.0670871698435
 20
300.5102796371033
 30
0.0
 10
412.0197677274481
 20
300.513441848352
 30
0.0
 10
412.0040109225266
 20
300.5151250363012
 30
0.0
 10
411.9725307195761
 20
300.5197752966596
 30
0.0
 10
411.9567354680091
 20
300.5227614540587
 30
0.0
 10
411.9101064039601
 20
300.5335450410309
 30
0.0
 10
411.8799537904035
 20
300.5431380367073
 30
0.0
 10
411.8360829916007
 20
300.5610245822234
 30
0.0
 10
411.8216868434216
 20
300.5675724207646
 30
0.0
 10
411.7933554539428
 20
300.5818546058532
 30
0.0
 10
411.7793699566838
 20
300.5896201711256
 30
0.0
 10
411.738485895509
 20
300.6145318175554
 30
0.0
 10
411.6873579748978
 20
300.6516558397388
 30
0.0
 10
411.6427092846321
 20
300.6962499939423
 30
0.0
 10
411.6220558734863
 20
300.7204690079981
 30
0.0
  0
SPLINE
  5
19E
330
1F
100
AcDbEntity
  8
1
100
AcDbSpline
210
0.0
220
0.0
230
1.0
 70
     8
 71
     3
 72
    16
 73
    12
 74
     0
 42
0.000000001
 43
0.0000000001
 40
0.0
 40
0.0
 40
0.0
 40
0.0
 40
0.3593083127177972
 40
0.3593083127177972
 40
0.5389624690767247
 40
0.5389624690767247
 40
0.7186166254356519
 40
0.7186166254356519
 40
0.898270781794579
 40
0.898270781794579
 40
1.0
 40
1.0
 40
1.0
 40
1.0
 10
411.6220558734864
 20
300.7204690079981
 30
0.0
 10
411.6155890203861
 20
300.7280522979942
 30
0.0
 10
411.610402796414
 20
300.7365884106217
 30
0.0
 10
411.6047887387997
 20
300.749998041633
 30
0.0
 10
411.6032596240718
 20
300.7545943713814
 30
0.0
 10
411.6008909982895
 20
300.7640411503602
 30
0.0
 10
411.6000687264576
 20
300.7688457957913
 30
0.0
 10
411.5991481223667
 20
300.7783894410166
 30
0.0
 10
411.5990410706023
 20
300.7831620781689
 30
0.0
 10
411.5994184208068
 20
300.7906379441733
 30
0.0
 10
411.599669620099
 20
300.79335258919
 30
0.0
 10
411.6000313871993
 20
300.7960490938671
 30
0.0
  0
SPLINE
  5
19F
330
1F
100
AcDbEntity
  8
1
100
AcDbSpline
210
0.0
220
0.0
230
1.0
 70
     8
 71
     3
 72
    10
 73
     6
 74
     0
 42
0.000000001
 43
0.0000000001
 40
0.0
 40
0.0
 40
0.0
 40
0.0
 40
0.1264374877391643
 40
0.1264374877391643
 40
1.0
 40
1.0
 40
1.0
 40
1.0
 10
412.3420115542472
 20
300.5794491306185
 30
0.0
 10
412.3409866837646
 20
300.5784712874929
 30
0.0
 10
412.339938809353
 20
300.5775144105375
 30
0.0
 10
412.3314806783684
 20
300.5701291714767
 30
0.0
 10
412.3232451881125
 20
300.5648760050856
 30
0.0
 10
412.314110569522
 20
300.5608985382946
 30
0.0
  0
SPLINE
  5
1A0
330
1F
100
AcDbEntity
  8
1
100
AcDbSpline
210
0.0
220
0.0
230
1.0
 70
     8
 71
     3
 72
    10
 73
     6
 74
     0
 42
0.000000001
 43
0.0000000001
 40
0.0
 40
0.0
 40
0.0
 40
0.0
 40
0.6429392429762546
 40
0.6429392429762546
 40
1.0
 40
1.0
 40
1.0
 40
1.0
 10
411.6203590390508
 20
300.8925182898884
 30
0.0
 10
411.6223744506468
 20
300.8815514997895
 30
0.0
 10
411.6224766281208
 20
300.8705681200348
 30
0.0
 10
411.6198345175409
 20
300.8537040989185
 30
0.0
 10
411.6183622382551
 20
300.847864389405
 30
0.0
 10
411.6163648905541
 20
300.8422047952666
 30
0.0
  0
SPLINE
  5
1A1
330
1F
100
AcDbEntity
  8
1
100
AcDbSpline
210
0.0
220
0.0
230
1.0
 70
     8
 71
     3
 72
     8
 73
     4
 74
     0
 42
0.000000001
 43
0.0000000001
 40
0.0
 40
0.0
 40
0.0
 40
0.0
 40
1.0
 40
1.0
 40
1.0
 40
1.0
 10
412.3778283187181
 20
300.6889588975552
 30
0.0
 10
412.3810569508346
 20
300.6981421972084
 30
0.0
 10
412.3855896020088
 20
300.7067363865058
 30
0.0
 10
412.3914971855297
 20
300.7147131583796
 30
0.0
  0
SPLINE
  5
1A2
330
1F
100
AcDbEntity
  8
1
100
AcDbSpline
210
0.0
220
0.0
230
1.0
 70
     8
 71
     3
 72
    20
 73
    16
 74
     0
 42
0.000000001
 43
0.0000000001
 40
0.0
 40
0.0
 40
0.0
 40
0.0
 40
0.1249999999999983
 40
0.1249999999999983
 40
0.2499999999999968
 40
0.2499999999999968
 40
0.3749999999999951
 40
0.3749999999999951
 40
0.4999999999999935
 40
0.4999999999999935
 40
0.6249999999999919
 40
0.6249999999999919
 40
0.7499999999999903
 40
0.7499999999999903
 40
1.0
 40
1.0
 40
1.0
 40
1.0
 10
411.0384840897126
 20
301.3614251817776
 30
0.0
 10
411.0344685166706
 20
301.3588513056899
 30
0.0
 10
411.0302954718023
 20
301.3565874674747
 30
0.0
 10
411.0216366305248
 20
301.3526758727069
 30
0.0
 10
411.0171431616349
 20
301.3510309979848
 30
0.0
 10
411.0080533974275
 20
301.3484390674192
 30
0.0
 10
411.0034316892717
 20
301.3474787513212
 30
0.0
 10
410.994032695921
 20
301.3462406491608
 30
0.0
 10
410.9892172754308
 20
301.3459653915721
 30
0.0
 10
410.9796580899957
 20
301.3461431882052
 30
0.0
 10
410.9749098438562
 20
301.3465887283377
 30
0.0
 10
410.9654774792276
 20
301.3482000482022
 30
0.0
 10
410.9607626329173
 20
301.3493763438255
 30
0.0
 10
410.9469402721751
 20
301.3539966897273
 30
0.0
 10
410.9383257435638
 20
301.3584242296017
 30
0.0
 10
410.9303521047442
 20
301.3642838149599
 30
0.0
  0
SPLINE
  5
1A3
330
1F
100
AcDbEntity
  8
1
100
AcDbSpline
210
0.0
220
0.0
230
1.0
 70
     8
 71
     3
 72
    10
 73
     6
 74
     0
 42
0.000000001
 43
0.0000000001
 40
0.0
 40
0.0
 40
0.0
 40
0.0
 40
0.5
 40
0.5
 40
1.0
 40
1.0
 40
1.0
 40
1.0
 10
411.0384840897126
 20
301.3614251817776
 30
0.0
 10
411.0476627884491
 20
301.3673084848442
 30
0.0
 10
411.0575881694544
 20
301.3715611403156
 30
0.0
 10
411.078801741292
 20
301.3766823294474
 30
0.0
 10
411.0895958856185
 20
301.3774437903395
 30
0.0
 10
411.1005940745156
 20
301.3762981902296
 30
0.0
  0
SPLINE
  5
1A4
330
1F
100
AcDbEntity
  8
1
100
AcDbSpline
210
0.0
220
0.0
230
1.0
 70
     8
 71
     3
 72
    24
 73
    20
 74
     0
 42
0.000000001
 43
0.0000000001
 40
0.0
 40
0.0
 40
0.0
 40
0.0
 40
0.1250000000001329
 40
0.1250000000001329
 40
0.2500000000002659
 40
0.2500000000002659
 40
0.3125000000002828
 40
0.3125000000002828
 40
0.3750000000002996
 40
0.3750000000002996
 40
0.5000000000002398
 40
0.5000000000002398
 40
0.6250000000001798
 40
0.6250000000001798
 40
0.7500000000001199
 40
0.7500000000001199
 40
0.87500000000006
 40
0.87500000000006
 40
1.0
 40
1.0
 40
1.0
 40
1.0
 10
411.1005940745156
 20
301.3762981902296
 30
0.0
 10
411.131742447879
 20
301.3730536942238
 30
0.0
 10
411.1623741572786
 20
301.3674006454859
 30
0.0
 10
411.2226518987915
 20
301.3512775669923
 30
0.0
 10
411.252298356049
 20
301.3408098931422
 30
0.0
 10
411.2960055765715
 20
301.3211955409718
 30
0.0
 10
411.3103534472235
 20
301.3140375293955
 30
0.0
 10
411.3382619791365
 20
301.2986606111076
 30
0.0
 10
411.351876767228
 20
301.2904179376552
 30
0.0
 10
411.3917052267201
 20
301.2640261424376
 30
0.0
 10
411.4169473812684
 20
301.2441900940384
 30
0.0
 10
411.4644324951045
 20
301.1999798408135
 30
0.0
 10
411.4859847596347
 20
301.1762602378142
 30
0.0
 10
411.5249600243793
 20
301.1257728835731
 30
0.0
 10
411.5423877792694
 20
301.0989942747885
 30
0.0
 10
411.5730178404686
 20
301.0423633058239
 30
0.0
 10
411.5857773997809
 20
301.013339350913
 30
0.0
 10
411.6065952128417
 20
300.9539473550469
 30
0.0
 10
411.6146509511429
 20
300.9235786460343
 30
0.0
 10
411.6203590390509
 20
300.8925182898884
 30
0.0
  0
SPLINE
  5
1A5
330
1F
100
AcDbEntity
  8
1
100
AcDbSpline
210
0.0
220
0.0
230
1.0
 70
     8
 71
     3
 72
    18
 73
    14
 74
     0
 42
0.000000001
 43
0.0000000001
 40
0.0
 40
0.0
 40
0.0
 40
0.0
 40
0.2499999999999971
 40
0.2499999999999971
 40
0.3749999999999929
 40
0.3749999999999929
 40
0.4999999999999887
 40
0.4999999999999887
 40
0.6249999999999845
 40
0.6249999999999845
 40
0.7499999999999803
 40
0.7499999999999803
 40
1.0
 40
1.0
 40
1.0
 40
1.0
 10
413.2176032979315
 20
300.8369010093562
 30
0.0
 10
413.2078747522564
 20
300.8351177065755
 30
0.0
 10
413.1979837137022
 20
300.8349238629041
 30
0.0
 10
413.1837299412798
 20
300.8368144628695
 30
0.0
 10
413.1790446063134
 20
300.8378049262845
 30
0.0
 10
413.169807523925
 20
300.8405114669928
 30
0.0
 10
413.1653034779553
 20
300.8422194105488
 30
0.0
 10
413.1567185619484
 20
300.8462296038931
 30
0.0
 10
413.1526046537754
 20
300.8485412438679
 30
0.0
 10
413.1447293313279
 20
300.8537681413486
 30
0.0
 10
413.1409418671856
 20
300.8567104765227
 30
0.0
 10
413.130416825397
 20
300.8662140576137
 30
0.0
 10
413.1244362590596
 20
300.8734508475738
 30
0.0
 10
413.1195007076491
 20
300.8815949008954
 30
0.0
  0
SPLINE
  5
1A6
330
1F
100
AcDbEntity
  8
1
100
AcDbSpline
210
0.0
220
0.0
230
1.0
 70
     8
 71
     3
 72
    10
 73
     6
 74
     0
 42
0.000000001
 43
0.0000000001
 40
0.0
 40
0.0
 40
0.0
 40
0.0
 40
0.5
 40
0.5
 40
1.0
 40
1.0
 40
1.0
 40
1.0
 10
413.070406116145
 20
300.922108897807
 30
0.0
 10
413.0807608970671
 20
300.9183310244034
 30
0.0
 10
413.0901563700398
 20
300.9128863253565
 30
0.0
 10
413.106877451379
 20
300.89901740188
 30
0.0
 10
413.1138654183815
 20
300.890893577469
 30
0.0
 10
413.1195007076491
 20
300.8815949008954
 30
0.0
  0
SPLINE
  5
1A7
330
1F
100
AcDbEntity
  8
1
100
AcDbSpline
210
0.0
220
0.0
230
1.0
 70
     8
 71
     3
 72
    24
 73
    20
 74
     0
 42
0.000000001
 43
0.0000000001
 40
0.0
 40
0.0
 40
0.0
 40
0.0
 40
0.1249999999999971
 40
0.1249999999999971
 40
0.2499999999999942
 40
0.2499999999999942
 40
0.3124999999999947
 40
0.3124999999999947
 40
0.3749999999999951
 40
0.3749999999999951
 40
0.4999999999999961
 40
0.4999999999999961
 40
0.6249999999999972
 40
0.6249999999999972
 40
0.7499999999999979
 40
0.7499999999999979
 40
0.8749999999999989
 40
0.8749999999999989
 40
1.0
 40
1.0
 40
1.0
 40
1.0
 10
412.3914971855297
 20
300.7147131583796
 30
0.0
 10
412.410312844237
 20
300.74011918381
 30
0.0
 10
412.4309189472567
 20
300.763864699062
 30
0.0
 10
412.4757250003431
 20
300.808074037235
 30
0.0
 10
412.4999231775161
 20
300.8285394179062
 30
0.0
 10
412.5391502019526
 20
300.8566032406893
 30
0.0
 10
412.5526378802113
 20
300.8654531401028
 30
0.0
 10
412.5801068330191
 20
300.8819346839344
 30
0.0
 10
412.5941361321981
 20
300.8896012644433
 30
0.0
 10
412.6371092624713
 20
300.9108797545007
 30
0.0
 10
412.6669812020971
 20
300.9227973965992
 30
0.0
 10
412.7290155831151
 20
300.9417380918097
 30
0.0
 10
412.7602669423121
 20
300.9484918641312
 30
0.0
 10
412.8232183499257
 20
300.9568762232208
 30
0.0
 10
412.8549306450243
 20
300.9585054545083
 30
0.0
 10
412.9187830923223
 20
300.9565459771978
 30
0.0
 10
412.9499932339755
 20
300.9529906326962
 30
0.0
 10
413.011142058882
 20
300.9411230722132
 30
0.0
 10
413.0410800046268
 20
300.932808335832
 30
0.0
 10
413.0704061161451
 20
300.922108897807
 30
0.0
  0
SPLINE
  5
1A8
330
1F
100
AcDbEntity
  8
1
100
AcDbSpline
210
0.0
220
0.0
230
1.0
 70
     8
 71
     3
 72
    27
 73
    23
 74
     0
 42
0.000000001
 43
0.0000000001
 40
0.0
 40
0.0
 40
0.0
 40
0.0
 40
0.1378026508799307
 40
0.1378026508799307
 40
0.2067039763198987
 40
0.2067039763198987
 40
0.2756053017598666
 40
0.2756053017598666
 40
0.4134079526398656
 40
0.4134079526398656
 40
0.4823092780798652
 40
0.4823092780798652
 40
0.5512106035198649
 40
0.5512106035198649
 40
0.6890132543998361
 40
0.6890132543998361
 40
0.7579145798398215
 40
0.7579145798398215
 40
0.8268159052798072
 40
0.8268159052798072
 40
0.9646185561597807
 40
1.0
 40
1.0
 40
1.0
 40
1.0
 10
410.9303521047442
 20
301.3642838149599
 30
0.0
 10
410.9048499186546
 20
301.3830245981322
 30
0.0
 10
410.8810724200508
 20
301.4036261354732
 30
0.0
 10
410.8479572356231
 20
301.437270823808
 30
0.0
 10
410.8373459538291
 20
301.4489449009334
 30
0.0
 10
410.8169954354774
 20
301.4732292269268
 30
0.0
 10
410.8072332571165
 20
301.4858793484127
 30
0.0
 10
410.7797334769573
 20
301.5246425062155
 30
0.0
 10
410.763619614438
 20
301.5517222224279
 30
0.0
 10
410.7427257892861
 20
301.5941671672333
 30
0.0
 10
410.7363098802413
 20
301.6086211399144
 30
0.0
 10
410.724597915942
 20
301.6381527349204
 30
0.0
 10
410.7192823969332
 20
301.6533020840132
 30
0.0
 10
410.7052815709574
 20
301.6990249897245
 30
0.0
 10
410.698479133305
 20
301.7299229825175
 30
0.0
 10
410.6919578338092
 20
301.7768752916264
 30
0.0
 10
410.6904007549006
 20
301.7926274368384
 30
0.0
 10
410.6885359077979
 20
301.8243371425647
 30
0.0
 10
410.6882298829471
 20
301.840353870383
 30
0.0
 10
410.6892340911187
 20
301.8883005003865
 30
0.0
 10
410.6932461115851
 20
301.9278857141507
 30
0.0
 10
410.7010669342872
 20
301.966764572853
 30
0.0
 10
410.7028249008378
 20
301.9746777712108
 30
0.0
  0
SPLINE
  5
1A9
330
1F
100
AcDbEntity
  8
1
100
AcDbSpline
210
0.0
220
0.0
230
1.0
 70
     8
 71
     3
 72
    25
 73
    21
 74
     0
 42
0.000000001
 43
0.0000000001
 40
0.0
 40
0.0
 40
0.0
 40
0.0
 40
0.014684559252984
 40
0.014684559252984
 40
0.0904780546950357
 40
0.0904780546950357
 40
0.2420650455791945
 40
0.2420650455791945
 40
0.3178585410212775
 40
0.3178585410212775
 40
0.3936520364633604
 40
0.3936520364633604
 40
0.545239027347526
 40
0.545239027347526
 40
0.6210325227896064
 40
0.6210325227896064
 40
0.6968260182316866
 40
0.6968260182316866
 40
0.8484130091158432
 40
1.0
 40
1.0
 40
1.0
 40
1.0
 10
413.6711824540785
 20
301.2258147678954
 30
0.0
 10
413.6701567389919
 20
301.2229068452679
 30
0.0
 10
413.6691080371289
 20
301.2200045872659
 30
0.0
 10
413.6625043423039
 20
301.2021575408125
 30
0.0
 10
413.656334378694
 20
301.1873185614049
 30
0.0
 10
413.6362572292425
 20
301.143968957372
 30
0.0
 10
413.6207293195853
 20
301.1164065726525
 30
0.0
 10
413.5942732761046
 20
301.0770373283021
 30
0.0
 10
413.5849247793658
 20
301.064244833744
 30
0.0
 10
413.5651465050897
 20
301.0393345134225
 30
0.0
 10
413.5546643138317
 20
301.0271640446569
 30
0.0
 10
413.5220357534348
 20
300.9922247830864
 30
0.0
 10
413.4986957753716
 20
300.9709490726648
 30
0.0
 10
413.4613768880567
 20
300.9419700330187
 30
0.0
 10
413.4485505900632
 20
300.9328018084328
 30
0.0
 10
413.422114852245
 20
300.9154611203424
 30
0.0
 10
413.4084536633269
 20
300.9072609451601
 30
0.0
 10
413.3666263123793
 20
300.8844001888527
 30
0.0
 10
413.3092143139413
 20
300.8588148132402
 30
0.0
 10
413.2486743330783
 20
300.8425965228715
 30
0.0
 10
413.2176032979315
 20
300.8369010093562
 30
0.0
  0
SPLINE
  5
1AA
330
1F
100
AcDbEntity
  8
1
100
AcDbSpline
210
0.0
220
0.0
230
1.0
 70
     8
 71
     3
 72
    18
 73
    14
 74
     0
 42
0.000000001
 43
0.0000000001
 40
0.0
 40
0.0
 40
0.0
 40
0.0
 40
0.2126812293043552
 40
0.2126812293043552
 40
0.4253624586087102
 40
0.4253624586087102
 40
0.5317030732608791
 40
0.5317030732608791
 40
0.638043687913048
 40
0.638043687913048
 40
0.8507249172173743
 40
0.8507249172173743
 40
1.0
 40
1.0
 40
1.0
 40
1.0
 10
411.0277411568274
 20
302.8233533407314
 30
0.0
 10
411.0402268371248
 20
302.7951357950014
 30
0.0
 10
411.0503919693459
 20
302.766132038736
 30
0.0
 10
411.0661121686552
 20
302.7065026834677
 30
0.0
 10
411.0716694537643
 20
302.6758779369108
 30
0.0
 10
411.0762854087766
 20
302.6285837130725
 30
0.0
 10
411.0771855510772
 20
302.6126900466211
 30
0.0
 10
411.077694078402
 20
302.5810277848013
 30
0.0
 10
411.077308603451
 20
302.5652010881833
 30
0.0
 10
411.0742341979528
 20
302.5177303967824
 30
0.0
 10
411.0696291610072
 20
302.4860451691856
 30
0.0
 10
411.0572481181046
 20
302.4323081624767
 30
0.0
 10
411.0509357486003
 20
302.4106551743623
 30
0.0
 10
411.0434645879092
 20
302.3894905695354
 30
0.0
  0
SPLINE
  5
1AB
330
1F
100
AcDbEntity
  8
1
100
AcDbSpline
210
0.0
220
0.0
230
1.0
 70
     8
 71
     3
 72
    10
 73
     6
 74
     0
 42
0.000000001
 43
0.0000000001
 40
0.0
 40
0.0
 40
0.0
 40
0.0
 40
0.5
 40
0.5
 40
1.0
 40
1.0
 40
1.0
 40
1.0
 10
410.9844858276197
 20
302.8687955711279
 30
0.0
 10
410.9940488240392
 20
302.8639483294743
 30
0.0
 10
411.0025757466059
 20
302.85763696191
 30
0.0
 10
411.0173838413951
 20
302.8421384377368
 30
0.0
 10
411.0233324355219
 20
302.8333170184879
 30
0.0
 10
411.0277411568274
 20
302.8233533407314
 30
0.0
  0
SPLINE
  5
1AC
330
1F
100
AcDbEntity
  8
1
100
AcDbSpline
210
0.0
220
0.0
230
1.0
 70
     8
 71
     3
 72
    20
 73
    16
 74
     0
 42
0.000000001
 43
0.0000000001
 40
0.0
 40
0.0
 40
0.0
 40
0.0
 40
0.1249999999999999
 40
0.1249999999999999
 40
0.2499999999999998
 40
0.2499999999999998
 40
0.3749999999999998
 40
0.3749999999999998
 40
0.4999999999999998
 40
0.4999999999999998
 40
0.6249999999999997
 40
0.6249999999999997
 40
0.7499999999999997
 40
0.7499999999999997
 40
1.0
 40
1.0
 40
1.0
 40
1.0
 10
410.9844858276197
 20
302.8687955711279
 30
0.0
 10
410.9803020717596
 20
302.8709162114362
 30
0.0
 10
410.9763079431997
 20
302.8733282783035
 30
0.0
 10
410.9686965548998
 20
302.8787312897248
 30
0.0
 10
410.965077579743
 20
302.8817305824849
 30
0.0
 10
410.9583899624549
 20
302.8881704023744
 30
0.0
 10
410.9552974598448
 20
302.8916258343406
 30
0.0
 10
410.9496237595818
 20
302.8990148821804
 30
0.0
 10
410.9470259846147
 20
302.9029823214432
 30
0.0
 10
410.9424919695645
 20
302.9112259062457
 30
0.0
 10
410.9405474415122
 20
302.9155014535579
 30
0.0
 10
410.9373100044953
 20
302.9243621563937
 30
0.0
 10
410.9360111403768
 20
302.9289784493371
 30
0.0
 10
410.9332116998691
 20
302.9431078749363
 30
0.0
 10
410.9328003293795
 20
302.9526965571703
 30
0.0
 10
410.9339364338781
 20
302.9624619903517
 30
0.0
  0
SPLINE
  5
1AD
330
1F
100
AcDbEntity
  8
1
100
AcDbSpline
210
0.0
220
0.0
230
1.0
 70
     8
 71
     3
 72
    14
 73
    10
 74
     0
 42
0.000000001
 43
0.0000000001
 40
0.0
 40
0.0
 40
0.0
 40
0.0
 40
0.0903910901839178
 40
0.0903910901839178
 40
0.3935940601226121
 40
0.3935940601226121
 40
0.6967970300613061
 40
0.6967970300613061
 40
1.0
 40
1.0
 40
1.0
 40
1.0
 10
413.5957885000748
 20
301.9396158298627
 30
0.0
 10
413.5989420354433
 20
301.9485492147471
 30
0.0
 10
413.6023005432621
 20
301.9573828972992
 30
0.0
 10
413.6178017758677
 20
301.9954217623038
 30
0.0
 10
413.6320169241652
 20
302.0236340584968
 30
0.0
 10
413.6650585805234
 20
302.0777916166399
 30
0.0
 10
413.6834002385922
 20
302.1029511111686
 30
0.0
 10
413.7234830305439
 20
302.1497715664108
 30
0.0
 10
413.7452259192556
 20
302.1714306163783
 30
0.0
 10
413.7686913449359
 20
302.1913589168002
 30
0.0
  0
SPLINE
  5
1AE
330
1F
100
AcDbEntity
  8
1
100
AcDbSpline
210
0.0
220
0.0
230
1.0
 70
     8
 71
     3
 72
    10
 73
     6
 74
     0
 42
0.000000001
 43
0.0000000001
 40
0.0
 40
0.0
 40
0.0
 40
0.0
 40
0.5
 40
0.5
 40
1.0
 40
1.0
 40
1.0
 40
1.0
 10
413.7686913449359
 20
302.1913589168002
 30
0.0
 10
413.7769771520716
 20
302.198395740086
 30
0.0
 10
413.7862083017243
 20
302.2037631911762
 30
0.0
 10
413.8062002307525
 20
302.2112136892623
 30
0.0
 10
413.8165354317441
 20
302.2131540109792
 30
0.0
 10
413.8272073934185
 20
302.2133352179378
 30
0.0
  0
SPLINE
  5
1AF
330
1F
100
AcDbEntity
  8
1
100
AcDbSpline
210
0.0
220
0.0
230
1.0
 70
     8
 71
     3
 72
    16
 73
    12
 74
     0
 42
0.000000001
 43
0.0000000001
 40
0.0
 40
0.0
 40
0.0
 40
0.0
 40
0.052963640230035
 40
0.052963640230035
 40
0.2423709121842156
 40
0.2423709121842156
 40
0.4317781841383961
 40
0.4317781841383961
 40
0.6211854560925766
 40
0.6211854560925766
 40
1.0
 40
1.0
 40
1.0
 40
1.0
 10
413.8930037412449
 20
302.2422040444888
 30
0.0
 10
413.8920930883505
 20
302.2412423441319
 30
0.0
 10
413.8911608786803
 20
302.2402994050499
 30
0.0
 10
413.8867961203116
 20
302.2360704021743
 30
0.0
 10
413.8831378829989
 20
302.2330419062752
 30
0.0
 10
413.8755234365013
 20
302.2276506956453
 30
0.0
 10
413.8715426799157
 20
302.2252637637923
 30
0.0
 10
413.8632401585176
 20
302.2210983318061
 30
0.0
 10
413.8588824115879
 20
302.2193108491542
 30
0.0
 10
413.8456409020686
 20
302.2150114157672
 30
0.0
 10
413.8365540272474
 20
302.2134939211959
 30
0.0
 10
413.8272073934185
 20
302.2133352179378
 30
0.0
  0
SPLINE
  5
1B0
330
1F
100
AcDbEntity
  8
1
100
AcDbSpline
210
0.0
220
0.0
230
1.0
 70
     8
 71
     3
 72
    36
 73
    32
 74
     0
 42
0.000000001
 43
0.0000000001
 40
0.0
 40
0.0
 40
0.0
 40
0.0
 40
0.1249999999999447
 40
0.1249999999999447
 40
0.1874999999999129
 40
0.1874999999999129
 40
0.218749999999897
 40
0.218749999999897
 40
0.2499999999998811
 40
0.2499999999998811
 40
0.3749999999997834
 40
0.3749999999997834
 40
0.4062499999997773
 40
0.4062499999997773
 40
0.4374999999997712
 40
0.4374999999997712
 40
0.499999999999714
 40
0.499999999999714
 40
0.6249999999995937
 40
0.6249999999995937
 40
0.6562499999995925
 40
0.6562499999995925
 40
0.6874999999995914
 40
0.7499999999995928
 40
0.8124999999995941
 40
0.8124999999995941
 40
0.8437499999996276
 40
0.8437499999996276
 40
0.8749999999996614
 40
0.8749999999996614
 40
1.0
 40
1.0
 40
1.0
 40
1.0
 10
418.6065532926149
 20
308.0608973287313
 30
0.0
 10
418.6047220960321
 20
308.1120154832642
 30
0.0
 10
418.5977612719321
 20
308.1620744495193
 30
0.0
 10
418.5800655543896
 20
308.2356649613568
 30
0.0
 10
418.5729480997577
 20
308.2599434517748
 30
0.0
 10
418.5604138379034
 20
308.2959775228084
 30
0.0
 10
418.555912902697
 20
308.3079551335313
 30
0.0
 10
418.546342706956
 20
308.3316235849626
 30
0.0
 10
418.5412834239738
 20
308.3432949179353
 30
0.0
 10
418.5146463691092
 20
308.4008551116897
 30
0.0
 10
418.4890860641431
 20
308.4443779587414
 30
0.0
 10
418.4518946422371
 20
308.4956678273513
 30
0.0
 10
418.4441918658026
 20
308.5057686669537
 30
0.0
 10
418.4282492103413
 20
308.5256512547458
 30
0.0
 10
418.4199892651055
 20
308.5354540010512
 30
0.0
 10
418.3946430561661
 20
308.5640912237341
 30
0.0
 10
418.3769394723581
 20
308.5822310492272
 30
0.0
 10
418.32147915539
 20
308.6338767410349
 30
0.0
 10
418.2813959964199
 20
308.6646361403393
 30
0.0
 10
418.2272807176985
 20
308.6983498051728
 30
0.0
 10
418.2162347265678
 20
308.7048632639542
 30
0.0
 10
418.1939691825585
 20
308.7172709478884
 30
0.0
 10
418.1602353051243
 20
308.7350031161769
 30
0.0
 10
418.1023645234127
 20
308.7602389633483
 30
0.0
 10
418.0543251900306
 20
308.7758607765216
 30
0.0
 10
418.0176279282768
 20
308.7858272291874
 30
0.0
 10
418.0052840084794
 20
308.7888571901046
 30
0.0
 10
417.9803681433066
 20
308.7943195580611
 30
0.0
 10
417.9677778577421
 20
308.7967536626524
 30
0.0
 10
417.9048293019798
 20
308.8072994027704
 30
0.0
 10
417.8540716955831
 20
308.8106914177268
 30
0.0
 10
417.8029048644206
 20
308.8089064925445
 30
0.0
  0
SPLINE
  5
1B1
330
1F
100
AcDbEntity
  8
1
100
AcDbSpline
210
0.0
220
0.0
230
1.0
 70
     8
 71
     3
 72
    36
 73
    32
 74
     0
 42
0.000000001
 43
0.0000000001
 40
0.0
 40
0.0
 40
0.0
 40
0.0
 40
0.1249999999999645
 40
0.1249999999999645
 40
0.1874999999999791
 40
0.1874999999999791
 40
0.2187499999999865
 40
0.2187499999999865
 40
0.2499999999999938
 40
0.2499999999999938
 40
0.3750000000000158
 40
0.3750000000000158
 40
0.406250000000039
 40
0.406250000000039
 40
0.4375000000000622
 40
0.4375000000000622
 40
0.5000000000000519
 40
0.5000000000000519
 40
0.6249999999999845
 40
0.6249999999999845
 40
0.6562499999999695
 40
0.6562499999999695
 40
0.6874999999999544
 40
0.7499999999999547
 40
0.8124999999999548
 40
0.8124999999999548
 40
0.8437499999999591
 40
0.8437499999999591
 40
0.8749999999999634
 40
0.8749999999999634
 40
1.0
 40
1.0
 40
1.0
 40
1.0
 10
406.6647256653423
 20
308.4203575813455
 30
0.0
 10
406.6135542444815
 20
308.4185724960543
 30
0.0
 10
406.563447578748
 20
308.411662362622
 30
0.0
 10
406.4897933905079
 20
308.3940491573796
 30
0.0
 10
406.4654949973956
 20
308.3869602949812
 30
0.0
 10
406.4294330887731
 20
308.3744705802426
 30
0.0
 10
406.4174465139013
 20
308.3699848107206
 30
0.0
 10
406.3937609327193
 20
308.3604453073847
 30
0.0
 10
406.3820814464588
 20
308.3554015235882
 30
0.0
 10
406.3244824987388
 20
308.3288427126687
 30
0.0
 10
406.2809350293074
 20
308.3033473745371
 30
0.0
 10
406.2296222502034
 20
308.2662400854402
 30
0.0
 10
406.2195172255391
 20
308.2585542831422
 30
0.0
 10
406.1996270738836
 20
308.2426458756331
 30
0.0
 10
406.1898209435774
 20
308.234403243841
 30
0.0
 10
406.1611748853321
 20
308.2091089159427
 30
0.0
 10
406.1430308867819
 20
308.1914399609642
 30
0.0
 10
406.0913776812557
 20
308.1360836513554
 30
0.0
 10
406.0606198974458
 20
308.0960699905947
 30
0.0
 10
406.0269167976119
 20
308.0420417909923
 30
0.0
 10
406.020405890379
 20
308.0310132564438
 30
0.0
 10
406.0080041238596
 20
308.0087822766728
 30
0.0
 10
405.9902820650306
 20
307.9750998455182
 30
0.0
 10
405.9650690464667
 20
307.917312872294
 30
0.0
 10
405.9494720388356
 20
307.8693384554999
 30
0.0
 10
405.9395265873861
 20
307.8326891068841
 30
0.0
 10
405.9365040366836
 20
307.820361025196
 30
0.0
 10
405.931057327252
 20
307.7954765643747
 30
0.0
 10
405.9286314849898
 20
307.7829018661622
 30
0.0
 10
405.9181287973687
 20
307.7200298407839
 30
0.0
 10
405.9147769814601
 20
307.6693295288729
 30
0.0
 10
405.9166080137982
 20
307.6182159592606
 30
0.0
  0
SPLINE
  5
1B2
330
1F
100
AcDbEntity
  8
1
100
AcDbSpline
210
0.0
220
0.0
230
1.0
 70
     8
 71
     3
 72
    36
 73
    32
 74
     0
 42
0.000000001
 43
0.0000000001
 40
0.0
 40
0.0
 40
0.0
 40
0.0
 40
0.1250000000001361
 40
0.1250000000001361
 40
0.1875000000002031
 40
0.1875000000002031
 40
0.2187500000002367
 40
0.2187500000002367
 40
0.2500000000002702
 40
0.2500000000002702
 40
0.3750000000003488
 40
0.3750000000003488
 40
0.4062500000003488
 40
0.4062500000003488
 40
0.4375000000003488
 40
0.4375000000003488
 40
0.5000000000003038
 40
0.5000000000003038
 40
0.6250000000002123
 40
0.6250000000002123
 40
0.6562500000001612
 40
0.6562500000001612
 40
0.6875000000001101
 40
0.7500000000000077
 40
0.8124999999999054
 40
0.8124999999999054
 40
0.8437499999998875
 40
0.8437499999998875
 40
0.8749999999998697
 40
0.8749999999998697
 40
1.0
 40
1.0
 40
1.0
 40
1.0
 10
406.3151936959266
 20
296.4916309253652
 30
0.0
 10
406.3170248925096
 20
296.4405127708322
 30
0.0
 10
406.3239857166094
 20
296.3904538045771
 30
0.0
 10
406.341681434152
 20
296.3168632927397
 30
0.0
 10
406.348798888784
 20
296.2925848023216
 30
0.0
 10
406.3613331506381
 20
296.2565507312881
 30
0.0
 10
406.3658340858446
 20
296.2445731205652
 30
0.0
 10
406.3754042815856
 20
296.2209046691338
 30
0.0
 10
406.3804635645677
 20
296.2092333361612
 30
0.0
 10
406.4071006194325
 20
296.1516731424068
 30
0.0
 10
406.4326609243986
 20
296.108150295355
 30
0.0
 10
406.4698523463043
 20
296.0568604267451
 30
0.0
 10
406.4775551227389
 20
296.0467595871429
 30
0.0
 10
406.4934977782002
 20
296.0268769993507
 30
0.0
 10
406.5017577234362
 20
296.0170742530453
 30
0.0
 10
406.5271039323753
 20
295.9884370303624
 30
0.0
 10
406.5448075161834
 20
295.9702972048693
 30
0.0
 10
406.6002678331517
 20
295.9186515130617
 30
0.0
 10
406.6403509921216
 20
295.8878921137572
 30
0.0
 10
406.6944662708429
 20
295.8541784489236
 30
0.0
 10
406.7055122619739
 20
295.8476649901423
 30
0.0
 10
406.7277778059831
 20
295.8352573062081
 30
0.0
 10
406.7615116834171
 20
295.8175251379196
 30
0.0
 10
406.819382465129
 20
295.7922892907482
 30
0.0
 10
406.8674217985109
 20
295.7766674775749
 30
0.0
 10
406.9041190602646
 20
295.7667010249092
 30
0.0
 10
406.9164629800622
 20
295.7636710639919
 30
0.0
 10
406.9413788452349
 20
295.7582086960353
 30
0.0
 10
406.9539691307994
 20
295.755774591444
 30
0.0
 10
407.0169176865618
 20
295.7452288513262
 30
0.0
 10
407.0676752929584
 20
295.7418368363697
 30
0.0
 10
407.118842124121
 20
295.743621761552
 30
0.0
  0
SPLINE
  5
1B3
330
1F
100
AcDbEntity
  8
1
100
AcDbSpline
210
0.0
220
0.0
230
1.0
 70
     8
 71
     3
 72
    36
 73
    32
 74
     0
 42
0.000000001
 43
0.0000000001
 40
0.0
 40
0.0
 40
0.0
 40
0.0
 40
0.1249999999999613
 40
0.1249999999999613
 40
0.1874999999999085
 40
0.1874999999999085
 40
0.2187499999998818
 40
0.2187499999998818
 40
0.2499999999998551
 40
0.2499999999998551
 40
0.3749999999997508
 40
0.3749999999997508
 40
0.4062499999997386
 40
0.4062499999997386
 40
0.4374999999997263
 40
0.4374999999997263
 40
0.4999999999997529
 40
0.4999999999997529
 40
0.6249999999998509
 40
0.6249999999998509
 40
0.656249999999875
 40
0.656249999999875
 40
0.6874999999998991
 40
0.7499999999999151
 40
0.8124999999999328
 40
0.8124999999999328
 40
0.8437499999999429
 40
0.8437499999999429
 40
0.8749999999999529
 40
0.8749999999999529
 40
1.0
 40
1.0
 40
1.0
 40
1.0
 10
418.2570213231993
 20
296.132170672751
 30
0.0
 10
418.3081927440602
 20
296.1339557580422
 30
0.0
 10
418.3582994097936
 20
296.1408658914744
 30
0.0
 10
418.4319535980336
 20
296.1584790967169
 30
0.0
 10
418.456251991146
 20
296.1655679591152
 30
0.0
 10
418.4923138997683
 20
296.1780576738539
 30
0.0
 10
418.5043004746403
 20
296.1825434433759
 30
0.0
 10
418.5279860558223
 20
296.1920829467118
 30
0.0
 10
418.5396655420828
 20
296.1971267305083
 30
0.0
 10
418.5972644898027
 20
296.2236855414278
 30
0.0
 10
418.6408119592343
 20
296.2491808795594
 30
0.0
 10
418.6921247383382
 20
296.2862881686562
 30
0.0
 10
418.7022297630025
 20
296.2939739709543
 30
0.0
 10
418.722119914658
 20
296.3098823784634
 30
0.0
 10
418.7319260449641
 20
296.3181250102555
 30
0.0
 10
418.7605721032095
 20
296.3434193381539
 30
0.0
 10
418.7787161017598
 20
296.3610882931324
 30
0.0
 10
418.8303693072859
 20
296.4164446027411
 30
0.0
 10
418.8611270910959
 20
296.4564582635018
 30
0.0
 10
418.8948301909297
 20
296.5104864631042
 30
0.0
 10
418.9013410981626
 20
296.5215149976527
 30
0.0
 10
418.9137428646821
 20
296.5437459774237
 30
0.0
 10
418.9314649235108
 20
296.5774284085783
 30
0.0
 10
418.9566778657258
 20
296.635215410931
 30
0.0
 10
418.9722749497062
 20
296.6831897985967
 30
0.0
 10
418.9822204011554
 20
296.7198391472124
 30
0.0
 10
418.9852429518579
 20
296.7321672289007
 30
0.0
 10
418.9906896612895
 20
296.7570516897218
 30
0.0
 10
418.9931155035518
 20
296.7696263879343
 30
0.0
 10
419.0036181911728
 20
296.8324984133125
 30
0.0
 10
419.0069700070814
 20
296.8831987252236
 30
0.0
 10
419.0051389747433
 20
296.9343122948359
 30
0.0
  0
SPLINE
  5
1B4
330
1F
100
AcDbEntity
  8
1
100
AcDbSpline
210
0.0
220
0.0
230
1.0
 70
     8
 71
     3
 72
    10
 73
     6
 74
     0
 42
0.000000001
 43
0.0000000001
 40
0.0
 40
0.0
 40
0.0
 40
0.0
 40
0.5
 40
0.5
 40
1.0
 40
1.0
 40
1.0
 40
1.0
 10
291.5322589432653
 20
269.8852787053678
 30
0.0
 10
292.037031624424
 20
269.8530997789613
 30
0.0
 10
292.5434437739967
 20
269.8238256562683
 30
0.0
 10
293.5576818076585
 20
269.7691119319492
 30
0.0
 10
294.0654923514113
 20
269.7436655874023
 30
0.0
 10
294.5731645012052
 20
269.7194979194611
 30
0.0
  0
SPLINE
  5
1B5
330
1F
100
AcDbEntity
  8
1
100
AcDbSpline
210
0.0
220
0.0
230
1.0
 70
     8
 71
     3
 72
    36
 73
    32
 74
     0
 42
0.000000001
 43
0.0000000001
 40
0.0
 40
0.0
 40
0.0
 40
0.0
 40
0.1250000000000019
 40
0.1250000000000019
 40
0.2500000000000039
 40
0.2500000000000039
 40
0.3750000000000058
 40
0.3750000000000058
 40
0.4062500000000063
 40
0.4062500000000063
 40
0.4218750000000062
 40
0.4218750000000062
 40
0.4375000000000059
 40
0.5000000000000049
 40
0.5625000000000039
 40
0.5625000000000039
 40
0.6250000000000028
 40
0.6250000000000028
 40
0.6875000000000018
 40
0.6875000000000018
 40
0.7187500000000017
 40
0.7187500000000017
 40
0.7500000000000015
 40
0.7500000000000015
 40
0.812500000000001
 40
0.812500000000001
 40
0.8750000000000007
 40
0.8750000000000007
 40
0.9375000000000003
 40
0.9375000000000003
 40
1.0
 40
1.0
 40
1.0
 40
1.0
 10
280.2185504442805
 20
280.6526838863064
 30
0.0
 10
280.5321111418672
 20
280.9892308309057
 30
0.0
 10
280.8604925253931
 20
281.3069203487173
 30
0.0
 10
281.5481185874906
 20
281.9058643672001
 30
0.0
 10
281.9073521009988
 20
282.1871208626269
 30
0.0
 10
282.6590126727704
 20
282.7127056248501
 30
0.0
 10
283.0514177694658
 20
282.9570530181455
 30
0.0
 10
283.5651218168711
 20
283.2378180397145
 30
0.0
 10
283.6690274836842
 20
283.2927315357339
 30
0.0
 10
283.8266963416667
 20
283.3731923801025
 30
0.0
 10
283.8795806512436
 20
283.3997065943167
 30
0.0
 10
283.9856414742126
 20
283.4519323679572
 30
0.0
 10
284.2516985876796
 20
283.5805795288337
 30
0.0
 10
284.7387858035613
 20
283.7948858709946
 30
0.0
 10
285.1837508606724
 20
283.9604048996002
 30
0.0
 10
285.6349601671203
 20
284.1130262569299
 30
0.0
 10
285.863686544716
 20
284.1828893338384
 30
0.0
 10
286.3277030247293
 20
284.3090867838618
 30
0.0
 10
286.562992571141
 20
284.3654229944169
 30
0.0
 10
286.9211561392246
 20
284.4391067863302
 30
0.0
 10
287.0414162849207
 20
284.461862367721
 30
0.0
 10
287.2837422721338
 20
284.5036190399916
 30
0.0
 10
287.4059898842735
 20
284.5226391193079
 30
0.0
 10
287.7727800990253
 20
284.5734725199264
 30
0.0
 10
288.0180902482316
 20
284.5992142983972
 30
0.0
 10
288.5102507349205
 20
284.6339742137264
 30
0.0
 10
288.7571012243315
 20
284.6429927896775
 30
0.0
 10
289.2523070890931
 20
284.6436309023362
 30
0.0
 10
289.5006626615611
 20
284.6352511983198
 30
0.0
 10
289.9988291603965
 20
284.6001530990638
 30
0.0
 10
290.2486403487025
 20
284.5734358081761
 30
0.0
 10
290.4991439323721
 20
284.5369333012328
 30
0.0
  0
SPLINE
  5
1B6
330
1F
100
AcDbEntity
  8
1
100
AcDbSpline
210
0.0
220
0.0
230
1.0
 70
     8
 71
     3
 72
    25
 73
    21
 74
     0
 42
0.000000001
 43
0.0000000001
 40
0.0
 40
0.0
 40
0.0
 40
0.0
 40
0.1250000000000021
 40
0.1250000000000021
 40
0.2500000000000042
 40
0.2500000000000042
 40
0.3750000000000062
 40
0.3750000000000062
 40
0.4375000000000073
 40
0.4687500000000075
 40
0.4687500000000075
 40
0.5000000000000077
 40
0.5000000000000077
 40
0.6250000000000058
 40
0.6250000000000058
 40
0.7500000000000038
 40
0.7500000000000038
 40
0.8750000000000019
 40
0.8750000000000019
 40
1.0
 40
1.0
 40
1.0
 40
1.0
 10
279.4048419452957
 20
279.7188208414834
 30
0.0
 10
279.2001068480626
 20
279.5501296358157
 30
0.0
 10
279.0039730574777
 20
279.3756875327737
 30
0.0
 10
278.6285421504118
 20
279.0159664488924
 30
0.0
 10
278.449245522748
 20
278.8306866045212
 30
0.0
 10
278.1074750706008
 20
278.4497121614754
 30
0.0
 10
277.9450004878993
 20
278.2540175072075
 30
0.0
 10
277.714159741718
 20
277.9528117214502
 30
0.0
 10
277.6019613935001
 20
277.8002902342566
 30
0.0
 10
277.4946850483763
 20
277.6448936698274
 30
0.0
 10
277.4242742574664
 20
277.5406555532822
 30
0.0
 10
277.3895896563456
 20
277.4881658921814
 30
0.0
 10
277.2193470627132
 20
277.2247002204109
 30
0.0
 10
277.0941626684319
 20
277.0120353934689
 30
0.0
 10
276.865265777696
 20
276.5834431735275
 30
0.0
 10
276.7615541308408
 20
276.3675150025572
 30
0.0
 10
276.5755165242372
 20
275.9327802242187
 30
0.0
 10
276.493189862459
 20
275.713973281343
 30
0.0
 10
276.3502903130821
 20
275.2737461902102
 30
0.0
 10
276.2897150125005
 20
275.0523261176475
 30
0.0
 10
276.2404506490206
 20
274.8296745441825
 30
0.0
  0
SPLINE
  5
1B7
330
1F
100
AcDbEntity
  8
1
100
AcDbSpline
210
0.0
220
0.0
230
1.0
 70
     8
 71
     3
 72
     8
 73
     4
 74
     0
 42
0.000000001
 43
0.0000000001
 40
0.0
 40
0.0
 40
0.0
 40
0.0
 40
1.0
 40
1.0
 40
1.0
 40
1.0
 10
407.3356200994833
 20
293.5183201904617
 30
0.0
 10
407.1256590626263
 20
293.513898860009
 30
0.0
 10
406.9153981628755
 20
293.5137248370515
 30
0.0
 10
406.7048419452957
 20
293.5178583340964
 30
0.0
  0
SPLINE
  5
1B8
330
1F
100
AcDbEntity
  8
1
100
AcDbSpline
210
0.0
220
0.0
230
1.0
 70
     8
 71
     3
 72
     8
 73
     4
 74
     0
 42
0.000000001
 43
0.0000000001
 40
0.0
 40
0.0
 40
0.0
 40
0.0
 40
1.0
 40
1.0
 40
1.0
 40
1.0
 10
406.7048419452957
 20
291.8287689713903
 30
0.0
 10
406.9345847995418
 20
291.8269833107767
 30
0.0
 10
407.1639227991076
 20
291.8326218738047
 30
0.0
 10
407.3928485148594
 20
291.8456626911329
 30
0.0
  0
SPLINE
  5
1B9
330
1F
100
AcDbEntity
  8
1
100
AcDbSpline
210
0.0
220
0.0
230
1.0
 70
     8
 71
     3
 72
    22
 73
    18
 74
     0
 42
0.000000001
 43
0.0000000001
 40
0.0
 40
0.0
 40
0.0
 40
0.0
 40
0.125
 40
0.125
 40
0.25
 40
0.25
 40
0.375
 40
0.375
 40
0.5
 40
0.5
 40
0.625
 40
0.625
 40
0.75
 40
0.75
 40
0.875
 40
0.875
 40
1.0
 40
1.0
 40
1.0
 40
1.0
 10
308.4582079283078
 20
269.4080621522855
 30
0.0
 10
309.4151784092937
 20
269.4808559093248
 30
0.0
 10
310.3697431491186
 20
269.5649183260099
 30
0.0
 10
312.2750815348043
 20
269.7569588036043
 30
0.0
 10
313.2258558148599
 20
269.8649465848454
 30
0.0
 10
315.1248625923614
 20
270.105138278751
 30
0.0
 10
316.0730969067615
 20
270.2373491425735
 30
0.0
 10
317.968466290748
 20
270.5249332456046
 30
0.0
 10
318.9156043118186
 20
270.6803100393642
 30
0.0
 10
320.810345121665
 20
271.0116579161706
 30
0.0
 10
321.757978263291
 20
271.1876332159616
 30
0.0
 10
323.6551832546027
 20
271.5560298529328
 30
0.0
 10
324.6039573773687
 20
271.7482833507166
 30
0.0
 10
326.5036201203865
 20
272.1433686960437
 30
0.0
 10
327.4545159379392
 20
272.346179484199
 30
0.0
 10
329.3600235391406
 20
272.7559125192342
 30
0.0
 10
330.3146452652408
 20
272.9627919145755
 30
0.0
 10
331.2717082134731
 20
273.1684943974082
 30
0.0
  0
SPLINE
  5
1BA
330
1F
100
AcDbEntity
  8
1
100
AcDbSpline
210
0.0
220
0.0
230
1.0
 70
    24
 71
     3
 72
    16
 73
    12
 74
     0
 42
0.000000001
 43
0.0000000001
 40
0.0
 40
0.0
 40
0.0
 40
0.0
 40
0.2159709119480611
 40
0.2159709119480611
 40
0.4319418238961222
 40
0.4319418238961222
 40
0.6479127358441832
 40
0.6479127358441832
 40
0.8638836477922442
 40
0.8638836477922442
 40
1.0
 40
1.0
 40
1.0
 40
1.0
 10
406.7048419452958
 20
293.5178583340963
 30
0.0
 10
406.7048419452958
 20
293.3296499587581
 30
0.0
 10
406.7048419452958
 20
293.1545020931762
 30
0.0
 10
406.7048419452958
 20
292.8320036762445
 30
0.0
 10
406.7048419452958
 20
292.6846536184287
 30
0.0
 10
406.7048419452958
 20
292.4191620532205
 30
0.0
 10
406.7048419452958
 20
292.3010209521218
 30
0.0
 10
406.7048419452958
 20
292.095078810722
 30
0.0
 10
406.7048419452958
 20
292.0072780855835
 30
0.0
 10
406.7048419452958
 20
291.889557144416
 30
0.0
 10
406.7048419452958
 20
291.850239357207
 30
0.0
 10
406.7048419452958
 20
291.8171823340983
 30
0.0
  0
SPLINE
  5
1BB
330
1F
100
AcDbEntity
  8
1
100
AcDbSpline
210
0.0
220
0.0
230
1.0
 70
     8
 71
     3
 72
    28
 73
    24
 74
     0
 42
0.000000001
 43
0.0000000001
 40
0.0
 40
0.0
 40
0.0
 40
0.0
 40
0.1249999999999994
 40
0.1249999999999994
 40
0.2499999999999987
 40
0.2499999999999987
 40
0.3749999999999981
 40
0.3749999999999981
 40
0.4999999999999973
 40
0.4999999999999973
 40
0.6249999999999966
 40
0.6249999999999966
 40
0.749999999999996
 40
0.749999999999996
 40
0.7812499999999937
 40
0.7812499999999937
 40
0.8124999999999914
 40
0.8124999999999914
 40
0.8749999999999943
 40
0.8749999999999943
 40
0.9374999999999971
 40
0.9374999999999971
 40
1.0
 40
1.0
 40
1.0
 40
1.0
 10
400.6023279007388
 20
296.3588980053087
 30
0.0
 10
400.8448982524948
 20
296.1747263468478
 30
0.0
 10
401.0887685485708
 20
295.9998582070639
 30
0.0
 10
401.5790902037286
 20
295.6673823990243
 30
0.0
 10
401.8255409575021
 20
295.5097785812115
 30
0.0
 10
402.3210245734933
 20
295.2108844945954
 30
0.0
 10
402.5700557199372
 20
295.0695964000468
 30
0.0
 10
403.0707531076844
 20
294.8026858161136
 30
0.0
 10
403.3224151428425
 20
294.6770638186734
 30
0.0
 10
403.8285615288719
 20
294.4410956146838
 30
0.0
 10
404.083036250904
 20
294.3307471331614
 30
0.0
 10
404.5953232531913
 20
294.1252152762451
 30
0.0
 10
404.853114654149
 20
294.0300236709823
 30
0.0
 10
405.1782362735687
 20
293.9207063540314
 30
0.0
 10
405.2434076172696
 20
293.8993279706732
 30
0.0
 10
405.374078665819
 20
293.8575533845992
 30
0.0
 10
405.4396013913162
 20
293.8371502355268
 30
0.0
 10
405.6365510301622
 20
293.7774902068773
 30
0.0
 10
405.768277937233
 20
293.7398013627884
 30
0.0
 10
406.0329986539173
 20
293.6687254727991
 30
0.0
 10
406.1659907865594
 20
293.6353371672323
 30
0.0
 10
406.4338265251914
 20
293.5730989988136
 30
0.0
 10
406.5686755851376
 20
293.5442492094033
 30
0.0
 10
406.7048419452958
 20
293.5178583340963
 30
0.0
  0
SPLINE
  5
1BC
330
1F
100
AcDbEntity
  8
1
100
AcDbSpline
210
0.0
220
0.0
230
1.0
 70
     8
 71
     3
 72
    19
 73
    15
 74
     0
 42
0.000000001
 43
0.0000000001
 40
0.0
 40
0.0
 40
0.0
 40
0.0
 40
0.2499999999999966
 40
0.2499999999999966
 40
0.4999999999999931
 40
0.4999999999999931
 40
0.6249999999999902
 40
0.6249999999999902
 40
0.6562499999999907
 40
0.6562499999999907
 40
0.6874999999999912
 40
0.7499999999999924
 40
0.7499999999999924
 40
1.0
 40
1.0
 40
1.0
 40
1.0
 10
299.4855226881082
 20
269.5236548880306
 30
0.0
 10
299.7463122085937
 20
269.5071236249172
 30
0.0
 10
300.0137236065265
 20
269.4942045974258
 30
0.0
 10
300.5621320527122
 20
269.4735286420881
 30
0.0
 10
300.8431257998225
 20
269.4657723334122
 30
0.0
 10
301.2754362428688
 20
269.4569026519358
 30
0.0
 10
301.4213472278303
 20
269.454411354387
 30
0.0
 10
301.606098389741
 20
269.451799141528
 30
0.0
 10
301.6431282264986
 20
269.4513024862893
 30
0.0
 10
301.7171480355367
 20
269.4503611361184
 30
0.0
 10
301.8282059724605
 20
269.449025847021
 30
0.0
 10
301.9393481972751
 20
269.4479103603462
 30
0.0
 10
302.310008291341
 20
269.4446428485515
 30
0.0
 10
302.6071299756065
 20
269.4434371119604
 30
0.0
 10
302.9048419452739
 20
269.4434371119603
 30
0.0
  0
SPLINE
  5
1BD
330
1F
100
AcDbEntity
  8
1
100
AcDbSpline
210
0.0
220
0.0
230
1.0
 70
     8
 71
     3
 72
     8
 73
     4
 74
     0
 42
0.000000001
 43
0.0000000001
 40
0.0
 40
0.0
 40
0.0
 40
0.0
 40
1.0
 40
1.0
 40
1.0
 40
1.0
 10
308.4582079283081
 20
269.4080621522844
 30
0.0
 10
306.6101070147238
 20
269.4069441922023
 30
0.0
 10
304.7591073105714
 20
269.4195261770685
 30
0.0
 10
302.9048419452957
 20
269.4434371119603
 30
0.0
  0
SPLINE
  5
1BE
330
1F
100
AcDbEntity
  8
1
100
AcDbSpline
210
0.0
220
0.0
230
1.0
 70
     8
 71
     3
 72
   125
 73
   121
 74
     0
 42
0.000000001
 43
0.0000000001
 40
0.0
 40
0.0
 40
0.0
 40
0.0
 40
0.015624999999999
 40
0.015624999999999
 40
0.0234374999999985
 40
0.0234374999999985
 40
0.0312499999999981
 40
0.0468749999999973
 40
0.0468749999999973
 40
0.0624999999999965
 40
0.0624999999999965
 40
0.0937499999999963
 40
0.0937499999999963
 40
0.1093749999999961
 40
0.1093749999999961
 40
0.1249999999999958
 40
0.1249999999999958
 40
0.1406249999999956
 40
0.1406249999999956
 40
0.1562499999999956
 40
0.1562499999999956
 40
0.1718749999999956
 40
0.1718749999999956
 40
0.1874999999999956
 40
0.2031249999999957
 40
0.2031249999999957
 40
0.2187499999999957
 40
0.2187499999999957
 40
0.2343749999999957
 40
0.2343749999999957
 40
0.2499999999999957
 40
0.2499999999999957
 40
0.281249999999996
 40
0.281249999999996
 40
0.289062499999996
 40
0.289062499999996
 40
0.296874999999996
 40
0.3124999999999954
 40
0.3124999999999954
 40
0.3437499999999946
 40
0.3437499999999946
 40
0.3593749999999937
 40
0.3593749999999937
 40
0.3671874999999934
 40
0.3671874999999934
 40
0.3749999999999931
 40
0.3906249999999926
 40
0.3906249999999926
 40
0.4062499999999921
 40
0.4062499999999921
 40
0.4374999999999905
 40
0.4374999999999905
 40
0.4531249999999895
 40
0.4531249999999895
 40
0.4687499999999884
 40
0.4843749999999873
 40
0.4843749999999873
 40
0.4921874999999873
 40
0.4921874999999873
 40
0.4999999999999873
 40
0.4999999999999873
 40
0.5312499999999849
 40
0.5312499999999849
 40
0.5390624999999844
 40
0.5390624999999844
 40
0.5468749999999841
 40
0.5624999999999842
 40
0.5624999999999842
 40
0.5781249999999846
 40
0.5781249999999846
 40
0.5937499999999849
 40
0.6093749999999851
 40
0.6093749999999851
 40
0.6249999999999855
 40
0.6249999999999855
 40
0.6406249999999857
 40
0.6406249999999857
 40
0.656249999999986
 40
0.656249999999986
 40
0.6874999999999871
 40
0.6874999999999871
 40
0.7031249999999876
 40
0.7031249999999876
 40
0.718749999999988
 40
0.718749999999988
 40
0.7265624999999884
 40
0.7265624999999884
 40
0.7343749999999886
 40
0.7343749999999886
 40
0.7499999999999884
 40
0.7656249999999883
 40
0.7656249999999883
 40
0.7734374999999885
 40
0.7734374999999885
 40
0.7812499999999888
 40
0.796874999999991
 40
0.796874999999991
 40
0.8046874999999921
 40
0.8046874999999921
 40
0.8124999999999928
 40
0.8124999999999928
 40
0.8437499999999944
 40
0.8437499999999944
 40
0.8515624999999946
 40
0.8515624999999946
 40
0.8593749999999948
 40
0.8749999999999953
 40
0.8749999999999953
 40
0.890624999999996
 40
0.890624999999996
 40
0.9062499999999964
 40
0.9218749999999969
 40
0.9218749999999969
 40
0.9374999999999975
 40
0.9374999999999975
 40
0.9531249999999978
 40
0.9531249999999978
 40
0.9687499999999985
 40
0.9687499999999985
 40
1.0
 40
1.0
 40
1.0
 40
1.0
 10
416.6268392848232
 20
282.5579935136934
 30
0.0
 10
416.6179660654726
 20
282.5113629340556
 30
0.0
 10
416.609211295466
 20
282.4637594241569
 30
0.0
 10
416.5962584455418
 20
282.390881366487
 30
0.0
 10
416.5919697589973
 20
282.3663363942213
 30
0.0
 10
416.5834843947991
 20
282.3169380553177
 30
0.0
 10
416.5708823601258
 20
282.2423107568298
 30
0.0
 10
416.5586563743676
 20
282.1661024374975
 30
0.0
 10
416.5426899908415
 20
282.0630831968489
 30
0.0
 10
416.5348601856535
 20
282.0107693606179
 30
0.0
 10
416.5120155642443
 20
281.8526306079176
 30
0.0
 10
416.4976302138376
 20
281.7455665272579
 30
0.0
 10
416.4773230472429
 20
281.5825047667602
 30
0.0
 10
416.4707924022158
 20
281.5279425324169
 30
0.0
 10
416.4582396848429
 20
281.4187063194749
 30
0.0
 10
416.4522116286067
 20
281.363984435408
 30
0.0
 10
416.4406527654395
 20
281.2543328427549
 30
0.0
 10
416.4351141628499
 20
281.199315416033
 30
0.0
 10
416.4246106299036
 20
281.0898158199574
 30
0.0
 10
416.4196380569958
 20
281.0352691241005
 30
0.0
 10
416.4102481708046
 20
280.9265796616116
 30
0.0
 10
416.4058302610767
 20
280.8724291287331
 30
0.0
 10
416.3975564067176
 20
280.7645664952531
 30
0.0
 10
416.3898880032676
 20
280.657711354271
 30
0.0
 10
416.3834157561386
 20
280.5528466612373
 30
0.0
 10
416.3775422072807
 20
280.4489782240651
 30
0.0
 10
416.374903647412
 20
280.3974962176879
 30
0.0
 10
416.3702628650257
 20
280.2962609325302
 30
0.0
 10
416.3682551122716
 20
280.2464196590124
 30
0.0
 10
416.3648615831151
 20
280.1482816539662
 30
0.0
 10
416.3634747335037
 20
280.0999355022545
 30
0.0
 10
416.360261708588
 20
279.9575603797216
 30
0.0
 10
416.3593893296093
 20
279.8667613824894
 30
0.0
 10
416.3598711919558
 20
279.7583621135121
 30
0.0
 10
416.3600469202896
 20
279.7369101365362
 30
0.0
 10
416.3605548311215
 20
279.694692403414
 30
0.0
 10
416.3615506801527
 20
279.6323897340236
 30
0.0
 10
416.3632372083236
 20
279.5731095404019
 30
0.0
 10
416.3675130389475
 20
279.4584997768819
 30
0.0
 10
416.3715635252059
 20
279.3873442834645
 30
0.0
 10
416.3794376072007
 20
279.2884808006087
 30
0.0
 10
416.3823629691739
 20
279.2568420571794
 30
0.0
 10
416.3872106242783
 20
279.2113952472714
 30
0.0
 10
416.3889056021696
 20
279.196562906678
 30
0.0
 10
416.3924362285648
 20
279.1676969209992
 30
0.0
 10
416.3979431355874
 20
279.1255872825847
 30
0.0
 10
416.4040782105368
 20
279.0870189742553
 30
0.0
 10
416.412815092261
 20
279.0387334501041
 30
0.0
 10
416.4174675185707
 20
279.0161367719044
 30
0.0
 10
416.4322308736807
 20
278.9532607449341
 30
0.0
 10
416.4430865207721
 20
278.9180938786477
 30
0.0
 10
416.4608830591079
 20
278.8754223600708
 30
0.0
 10
416.4670747772151
 20
278.8628817957934
 30
0.0
 10
416.4798644563805
 20
278.8413754780428
 30
0.0
 10
416.4930826053958
 20
278.8233812149977
 30
0.0
 10
416.5071518166895
 20
278.8123628856869
 30
0.0
 10
416.51802479792
 20
278.8067308877016
 30
0.0
 10
416.5217026799118
 20
278.8052925305986
 30
0.0
 10
416.5291664005279
 20
278.8033007085214
 30
0.0
 10
416.5329556415761
 20
278.8027477528559
 30
0.0
 10
416.5521016724652
 20
278.8022160020518
 30
0.0
 10
416.5680936159938
 20
278.8088842916341
 30
0.0
 10
416.5889297037328
 20
278.8261105109052
 30
0.0
 10
416.5931432044118
 20
278.830006294352
 30
0.0
 10
416.6016309566711
 20
278.8386717498562
 30
0.0
 10
416.6144562197294
 20
278.8529808970005
 30
0.0
 10
416.6275608772016
 20
278.8712018002314
 30
0.0
 10
416.6452824586166
 20
278.898978413418
 30
0.0
 10
416.6542788154244
 20
278.9146294558832
 30
0.0
 10
416.6724728984873
 20
278.949366046603
 30
0.0
 10
416.6908191475337
 20
278.98743511564
 30
0.0
 10
416.7094682017864
 20
279.0321357048355
 30
0.0
 10
416.7282698868474
 20
279.0801789521454
 30
0.0
 10
416.7377522579931
 20
279.1058929332732
 30
0.0
 10
416.7567324691035
 20
279.1603082055039
 30
0.0
 10
416.7662471363946
 20
279.1890501079262
 30
0.0
 10
416.7853256652486
 20
279.2496068679905
 30
0.0
 10
416.7948992199646
 20
279.2814556041433
 30
0.0
 10
416.8236309389799
 20
279.3814559258395
 30
0.0
 10
416.8426726087861
 20
279.4535857577267
 30
0.0
 10
416.8710654700022
 20
279.569995715632
 30
0.0
 10
416.8805056332933
 20
279.6101980217359
 30
0.0
 10
416.8991891726268
 20
279.6927691853906
 30
0.0
 10
416.9084500229609
 20
279.7352073167584
 30
0.0
 10
416.9222197985694
 20
279.8005950600355
 30
0.0
 10
416.9267894570674
 20
279.8226796370153
 30
0.0
 10
416.9358880173572
 20
279.867429296545
 30
0.0
 10
416.940421105379
 20
279.8901158989886
 30
0.0
 10
416.9539230776958
 20
279.9588716282608
 30
0.0
 10
416.9716605517753
 20
280.0523624621421
 30
0.0
 10
416.9888708996701
 20
280.1494645314511
 30
0.0
 10
417.0015795334676
 20
280.2236552632913
 30
0.0
 10
417.0057863194744
 20
280.248636323767
 30
0.0
 10
417.0141070251333
 20
280.2988998825742
 30
0.0
 10
417.0264526213292
 20
280.3747677979268
 30
0.0
 10
417.0383943336682
 20
280.4520447126028
 30
0.0
 10
417.0500667443693
 20
280.530261119707
 30
0.0
 10
417.0539126270345
 20
280.5564899675908
 30
0.0
 10
417.0615140864461
 20
280.6092627068434
 30
0.0
 10
417.0652723374818
 20
280.6358265000122
 30
0.0
 10
417.0837715035664
 20
280.7689698078972
 30
0.0
 10
417.0976822511685
 20
280.8767998967282
 30
0.0
 10
417.1139602888002
 20
281.0132313154224
 30
0.0
 10
417.1171612272881
 20
281.0406107181424
 30
0.0
 10
417.1234277678214
 20
281.0953314866479
 30
0.0
 10
417.132633380965
 20
281.1774287420757
 30
0.0
 10
417.1412602091104
 20
281.2595739897592
 30
0.0
 10
417.1522484811893
 20
281.36914362074
 30
0.0
 10
417.1574944650363
 20
281.4240519360646
 30
0.0
 10
417.167409870919
 20
281.533282174765
 30
0.0
 10
417.1767529185371
 20
281.641943173761
 30
0.0
 10
417.184959657313
 20
281.7494740552252
 30
0.0
 10
417.1925948498114
 20
281.8564365045477
 30
0.0
 10
417.1961129378027
 20
281.9094486614978
 30
0.0
 10
417.2025348747671
 20
282.0142207998301
 30
0.0
 10
417.2054424481646
 20
282.0660326364671
 30
0.0
 10
417.2106512018008
 20
282.1685085961006
 30
0.0
 10
417.2129549065692
 20
282.2192515401185
 30
0.0
 10
417.2189100993501
 20
282.3687698192172
 30
0.0
 10
417.221624829122
 20
282.4650700247534
 30
0.0
 10
417.2230848774951
 20
282.5579935136934
 30
0.0
  0
SPLINE
  5
1BF
330
1F
100
AcDbEntity
  8
1
100
AcDbSpline
210
0.0
220
0.0
230
1.0
 70
     8
 71
     3
 72
     8
 73
     4
 74
     0
 42
0.000000001
 43
0.0000000001
 40
0.0
 40
0.0
 40
0.0
 40
0.0
 40
1.0
 40
1.0
 40
1.0
 40
1.0
 10
298.247914112686
 20
269.5651119274131
 30
0.0
 10
298.6604410403329
 20
269.5502362123647
 30
0.0
 10
299.0728067638501
 20
269.5363526255182
 30
0.0
 10
299.4855226881081
 20
269.5236548880306
 30
0.0
  0
SPLINE
  5
1C0
330
1F
100
AcDbEntity
  8
1
100
AcDbSpline
210
0.0
220
0.0
230
1.0
 70
     8
 71
     3
 72
    57
 73
    53
 74
     0
 42
0.000000001
 43
0.0000000001
 40
0.0
 40
0.0
 40
0.0
 40
0.0
 40
0.0625
 40
0.0625
 40
0.0937500000000005
 40
0.0937500000000005
 40
0.125000000000001
 40
0.125000000000001
 40
0.1562500000000015
 40
0.1562500000000015
 40
0.187500000000002
 40
0.2187500000000025
 40
0.2187500000000025
 40
0.250000000000003
 40
0.250000000000003
 40
0.2812500000000035
 40
0.2812500000000035
 40
0.3125000000000039
 40
0.3125000000000039
 40
0.3750000000000049
 40
0.3750000000000049
 40
0.4062500000000043
 40
0.4062500000000043
 40
0.4375000000000037
 40
0.4375000000000037
 40
0.4687500000000029
 40
0.4687500000000029
 40
0.5000000000000023
 40
0.5312500000000016
 40
0.5312500000000016
 40
0.5625000000000009
 40
0.5625000000000009
 40
0.5937500000000001
 40
0.5937500000000001
 40
0.6249999999999995
 40
0.6249999999999995
 40
0.6875000000000004
 40
0.6875000000000004
 40
0.7187500000000004
 40
0.7187500000000004
 40
0.7500000000000002
 40
0.7500000000000002
 40
0.7812500000000002
 40
0.7812500000000002
 40
0.8125000000000001
 40
0.8437500000000001
 40
0.8437500000000001
 40
0.8750000000000001
 40
0.8750000000000001
 40
0.9375
 40
0.9375
 40
1.0
 40
1.0
 40
1.0
 40
1.0
 10
417.2230848774949
 20
282.5579935136934
 30
0.0
 10
417.2150999821661
 20
282.6479834403344
 30
0.0
 10
417.2063640311518
 20
282.7340935434202
 30
0.0
 10
417.1921356498589
 20
282.8574499595037
 30
0.0
 10
417.1872146111423
 20
282.8975066091904
 30
0.0
 10
417.1770571530593
 20
282.9751987205178
 30
0.0
 10
417.1718151374417
 20
283.0128832840957
 30
0.0
 10
417.1610046010771
 20
283.0859299109404
 30
0.0
 10
417.155426680946
 20
283.1213460099196
 30
0.0
 10
417.1439944850098
 20
283.1895143110157
 30
0.0
 10
417.1322894622882
 20
283.2550156291024
 30
0.0
 10
417.1200416991446
 20
283.3152114582841
 30
0.0
 10
417.1075207628964
 20
283.3727369190581
 30
0.0
 10
417.1011318495359
 20
283.4001206350662
 30
0.0
 10
417.0881606991276
 20
283.4518739951894
 30
0.0
 10
417.0815696390876
 20
283.4762850207293
 30
0.0
 10
417.0681762381009
 20
283.5221714383199
 30
0.0
 10
417.0613631382067
 20
283.5436768354158
 30
0.0
 10
417.0406874829315
 20
283.6034913195019
 30
0.0
 10
417.0266133292495
 20
283.6370753144644
 30
0.0
 10
417.0050645963113
 20
283.6779710554268
 30
0.0
 10
416.9978132896735
 20
283.6900024597042
 30
0.0
 10
416.9832585313641
 20
283.7107284606407
 30
0.0
 10
416.9759436759591
 20
283.7194459219049
 30
0.0
 10
416.9612388092486
 20
283.7335808349771
 30
0.0
 10
416.9538382409037
 20
283.7390029651416
 30
0.0
 10
416.9390122828373
 20
283.7464748106165
 30
0.0
 10
416.9241849272706
 20
283.7505733338734
 30
0.0
 10
416.9093547855404
 20
283.7479465439818
 30
0.0
 10
416.8945232381448
 20
283.7419267221072
 30
0.0
 10
416.8871074248299
 20
283.7372129214754
 30
0.0
 10
416.8723754272865
 20
283.7244391434202
 30
0.0
 10
416.865046536509
 20
283.7163758350019
 30
0.0
 10
416.8504631748422
 20
283.6968871678697
 30
0.0
 10
416.8432000904081
 20
283.6854458014234
 30
0.0
 10
416.8215831130448
 20
283.6461120736012
 30
0.0
 10
416.807472079969
 20
283.6133786068529
 30
0.0
 10
416.7867579231193
 20
283.5544693276935
 30
0.0
 10
416.7799259407706
 20
283.5331754711228
 30
0.0
 10
416.7665101897593
 20
283.4875892763888
 30
0.0
 10
416.7599142587438
 20
283.4632652125965
 30
0.0
 10
416.7469465548489
 20
283.4115514711539
 30
0.0
 10
416.7405695641098
 20
283.3841375458086
 30
0.0
 10
416.7280652782385
 20
283.3263067767843
 30
0.0
 10
416.7158553329983
 20
283.2656867846725
 30
0.0
 10
416.7042303637718
 20
283.1995234579697
 30
0.0
 10
416.6928996735296
 20
283.1305714923591
 30
0.0
 10
416.6873767667963
 20
283.0946602581033
 30
0.0
 10
416.6713685809317
 20
282.9834851090417
 30
0.0
 10
416.6614000171829
 20
282.9045515903906
 30
0.0
 10
416.6429016295357
 20
282.7371313539843
 30
0.0
 10
416.634466234774
 20
282.6495067829967
 30
0.0
 10
416.6268392848232
 20
282.5579935136933
 30
0.0
  0
SPLINE
  5
1C1
330
1F
100
AcDbEntity
  8
1
100
AcDbSpline
210
0.0
220
0.0
230
1.0
 70
     8
 71
     3
 72
     8
 73
     4
 74
     0
 42
0.000000001
 43
0.0000000001
 40
0.0
 40
0.0
 40
0.0
 40
0.0
 40
1.0
 40
1.0
 40
1.0
 40
1.0
 10
400.5089680730758
 20
296.429660912131
 30
0.0
 10
400.5401711346445
 20
296.4060502211851
 30
0.0
 10
400.5712913744031
 20
296.3824625031408
 30
0.0
 10
400.6023279007328
 20
296.3588980053132
 30
0.0
  0
SPLINE
  5
1C2
330
1F
100
AcDbEntity
  8
1
100
AcDbSpline
210
0.0
220
0.0
230
1.0
 70
     8
 71
     3
 72
     8
 73
     4
 74
     0
 42
0.000000001
 43
0.0000000001
 40
0.0
 40
0.0
 40
0.0
 40
0.0
 40
1.0
 40
1.0
 40
1.0
 40
1.0
 10
400.508968073077
 20
296.4296609121319
 30
0.0
 10
400.2087831167314
 20
296.614313355355
 30
0.0
 10
399.9048358754402
 20
296.8006415379533
 30
0.0
 10
399.5974475717965
 20
296.9885023858756
 30
0.0
  0
SPLINE
  5
1C3
330
1F
100
AcDbEntity
  8
1
100
AcDbSpline
210
0.0
220
0.0
230
1.0
 70
     8
 71
     3
 72
    41
 73
    37
 74
     0
 42
0.000000001
 43
0.0000000001
 40
0.0
 40
0.0
 40
0.0
 40
0.0
 40
0.1249999999999814
 40
0.1249999999999814
 40
0.2499999999999628
 40
0.2499999999999628
 40
0.3749999999999684
 40
0.3749999999999684
 40
0.4999999999999739
 40
0.4999999999999739
 40
0.562499999999986
 40
0.562499999999986
 40
0.6249999999999983
 40
0.6249999999999983
 40
0.6562499999999978
 40
0.6562499999999978
 40
0.6874999999999973
 40
0.6874999999999973
 40
0.7499999999999999
 40
0.7499999999999999
 40
0.7812500000000031
 40
0.7812500000000031
 40
0.8125000000000063
 40
0.8125000000000063
 40
0.8281250000000087
 40
0.8281250000000087
 40
0.843750000000011
 40
0.8750000000000088
 40
0.8750000000000088
 40
0.9062500000000067
 40
0.9062500000000067
 40
0.9375000000000046
 40
0.9375000000000046
 40
0.9687500000000024
 40
0.9687500000000024
 40
1.0
 40
1.0
 40
1.0
 40
1.0
 10
399.5974475717988
 20
296.9885023858745
 30
0.0
 10
399.5594243923532
 20
297.0117403121283
 30
0.0
 10
399.5224638629281
 20
297.0360697992877
 30
0.0
 10
399.4508381776989
 20
297.0871026067018
 30
0.0
 10
399.4161700477109
 20
297.1138028844202
 30
0.0
 10
399.3494713678197
 20
297.1699419813277
 30
0.0
 10
399.3174330175837
 20
297.199372870646
 30
0.0
 10
399.2566562705574
 20
297.2616627822372
 30
0.0
 10
399.2278929464622
 20
297.2944965375833
 30
0.0
 10
399.1882758338513
 20
297.3473997913858
 30
0.0
 10
399.1756191302676
 20
297.3657311809289
 30
0.0
 10
399.1521788857976
 20
297.4034563778062
 30
0.0
 10
399.1413722089525
 20
297.4228593777649
 30
0.0
 10
399.1269428935965
 20
297.4530118137531
 30
0.0
 10
399.1224227028537
 20
297.4632632138798
 30
0.0
 10
399.1141419309878
 20
297.4840339698042
 30
0.0
 10
399.1103801863476
 20
297.4945499015976
 30
0.0
 10
399.100409101453
 20
297.5265487682505
 30
0.0
 10
399.0954747134127
 20
297.5484697854528
 30
0.0
 10
399.0918482695436
 20
297.5826349265726
 30
0.0
 10
399.0912938563698
 20
297.5941675848149
 30
0.0
 10
399.0917413437766
 20
297.61721570729
 30
0.0
 10
399.0927362020843
 20
297.6287781821876
 30
0.0
 10
399.0956104301617
 20
297.6461886900636
 30
0.0
 10
399.0968069919293
 20
297.652030510135
 30
0.0
 10
399.0996729279667
 20
297.6635875856088
 30
0.0
 10
399.1046682560649
 20
297.6807107364261
 30
0.0
 10
399.1117996278372
 20
297.6971809713298
 30
0.0
 10
399.1233291816548
 20
297.7185211557983
 30
0.0
 10
399.1301962277503
 20
297.7289777716201
 30
0.0
 10
399.1454649809384
 20
297.7484599512919
 30
0.0
 10
399.1538794738117
 20
297.7575581574594
 30
0.0
 10
399.1721221406933
 20
297.7745885278455
 30
0.0
 10
399.1820028979652
 20
297.7825469582887
 30
0.0
 10
399.2025418777399
 20
297.7970512491787
 30
0.0
 10
399.2132470057164
 20
297.803650967987
 30
0.0
 10
399.2243215290825
 20
297.8096974544662
 30
0.0
  0
SPLINE
  5
1C4
330
1F
100
AcDbEntity
  8
1
100
AcDbSpline
210
0.0
220
0.0
230
1.0
 70
     8
 71
     3
 72
    14
 73
    10
 74
     0
 42
0.000000001
 43
0.0000000001
 40
0.0
 40
0.0
 40
0.0
 40
0.0
 40
0.2668089617066929
 40
0.2668089617066929
 40
0.5336179234133858
 40
0.5336179234133858
 40
0.8004268851200786
 40
0.8004268851200786
 40
1.0
 40
1.0
 40
1.0
 40
1.0
 10
331.2717082134731
 20
273.1684943974082
 30
0.0
 10
331.9856362301919
 20
273.3221819521805
 30
0.0
 10
332.7015315826968
 20
273.4713221755166
 30
0.0
 10
334.1369074537143
 20
273.7598442023267
 30
0.0
 10
334.8563820073999
 20
273.8992398206227
 30
0.0
 10
336.2981967179838
 20
274.1696780538805
 30
0.0
 10
337.0205315475209
 20
274.3007390918321
 30
0.0
 10
338.2848868867032
 20
274.5251184445387
 30
0.0
 10
338.8264732751355
 20
274.6196345098947
 30
0.0
 10
339.3684092131421
 20
274.7134721175349
 30
0.0
  0
SPLINE
  5
1C5
330
1F
100
AcDbEntity
  8
1
100
AcDbSpline
210
0.0
220
0.0
230
1.0
 70
    12
 71
     3
 72
     8
 73
     4
 74
     0
 42
0.000000001
 43
0.0000000001
 40
0.0
 40
0.0
 40
0.0
 40
0.0
 40
1.0
 40
1.0
 40
1.0
 40
1.0
 10
331.2717082134731
 20
273.1684943974082
 30
0.0
 41
1.001595858744522
 10
334.659537549707
 20
273.5028870664021
 30
0.0
 41
1.001603756875296
 10
338.0165051473658
 20
273.8572088993434
 30
0.0
 41
1.00156214086712
 10
341.391045961633
 20
274.3003187524247
 30
0.0
 41
1.001416677246215
  0
SPLINE
  5
1C6
330
1F
100
AcDbEntity
  8
1
100
AcDbSpline
210
0.0
220
0.0
230
1.0
 70
     8
 71
     3
 72
    24
 73
    20
 74
     0
 42
0.000000001
 43
0.0000000001
 40
0.0
 40
0.0
 40
0.0
 40
0.0
 40
0.1249999999999965
 40
0.1249999999999965
 40
0.249999999999993
 40
0.249999999999993
 40
0.3749999999999941
 40
0.3749999999999941
 40
0.4999999999999952
 40
0.4999999999999952
 40
0.6249999999999964
 40
0.6249999999999964
 40
0.6874999999999969
 40
0.6874999999999969
 40
0.7499999999999975
 40
0.7499999999999975
 40
0.8749999999999987
 40
0.8749999999999987
 40
1.0
 40
1.0
 40
1.0
 40
1.0
 10
400.7123773327482
 20
293.1424013307586
 30
0.0
 10
400.4421942152342
 20
293.2779050381073
 30
0.0
 10
400.1707543121055
 20
293.4165971228775
 30
0.0
 10
399.6258621400006
 20
293.6990865241776
 30
0.0
 10
399.3524072678964
 20
293.842890444661
 30
0.0
 10
398.803824702276
 20
294.1347421168419
 30
0.0
 10
398.5286955758007
 20
294.2827935038569
 30
0.0
 10
397.9770088669461
 20
294.582520170856
 30
0.0
 10
397.7004504441623
 20
294.7341975828879
 30
0.0
 10
397.1460865510141
 20
295.040716079661
 30
0.0
 10
396.8682805629974
 20
295.1955584776501
 30
0.0
 10
396.4507397408388
 20
295.4299323950173
 30
0.0
 10
396.3114205315651
 20
295.5084095031015
 30
0.0
 10
396.03251851915
 20
295.6660324385225
 30
0.0
 10
395.8928490157461
 20
295.7452277554381
 30
0.0
 10
395.4743896793901
 20
295.9832414428287
 30
0.0
 10
395.1959977247418
 20
296.1425700007229
 30
0.0
 10
394.6402555480003
 20
296.4623976544127
 30
0.0
 10
394.362905590378
 20
296.6228970473798
 30
0.0
 10
394.0860301175094
 20
296.7839295929161
 30
0.0
  0
SPLINE
  5
1C7
330
1F
100
AcDbEntity
  8
1
100
AcDbSpline
210
0.0
220
0.0
230
1.0
 70
     8
 71
     3
 72
    38
 73
    34
 74
     0
 42
0.000000001
 43
0.0000000001
 40
0.0
 40
0.0
 40
0.0
 40
0.0
 40
0.0327650820457263
 40
0.0327650820457263
 40
0.0932172644178692
 40
0.0932172644178692
 40
0.1536694467900122
 40
0.1536694467900122
 40
0.2141216291621549
 40
0.2141216291621549
 40
0.2745738115342978
 40
0.2745738115342978
 40
0.3047999027203688
 40
0.3047999027203688
 40
0.3350259939064401
 40
0.3350259939064401
 40
0.3954781762785821
 40
0.3954781762785821
 40
0.455930358650724
 40
0.455930358650724
 40
0.5163825410228659
 40
0.5163825410228659
 40
0.5768347233950079
 40
0.5768347233950079
 40
0.6372869057671498
 40
0.6372869057671498
 40
0.6977390881392919
 40
0.6977390881392919
 40
0.7581912705114337
 40
0.7581912705114337
 40
0.879095635255717
 40
0.879095635255717
 40
1.0
 40
1.0
 40
1.0
 40
1.0
 10
347.6635806456043
 20
273.0986958724499
 30
0.0
 10
347.2358795622866
 20
273.0207418945643
 30
0.0
 10
346.8080986768782
 20
272.9439832713293
 30
0.0
 10
345.590794989679
 20
272.7290475428126
 30
0.0
 10
344.8010506919641
 20
272.5937829655927
 30
0.0
 10
343.2207615832743
 20
272.3317090264583
 30
0.0
 10
342.4302031979298
 20
272.2049225754626
 30
0.0
 10
340.8481507129532
 20
271.9599078134331
 30
0.0
 10
340.056695861123
 20
271.8416080905149
 30
0.0
 10
338.4731961328556
 20
271.6129355466245
 30
0.0
 10
337.6811517080897
 20
271.5025631950688
 30
0.0
 10
336.4927816723509
 20
271.3427688465214
 30
0.0
 10
336.0965544077306
 20
271.2904599389552
 30
0.0
 10
335.3043696566667
 20
271.1878043766669
 30
0.0
 10
334.9083957853702
 20
271.13745526345
 30
0.0
 10
333.7208456076309
 20
270.9893435741837
 30
0.0
 10
332.9296435993825
 20
270.8945116838917
 30
0.0
 10
331.3482541973852
 20
270.7128000598073
 30
0.0
 10
330.5580668421498
 20
270.6259221793284
 30
0.0
 10
328.9786334368112
 20
270.4603920920788
 30
0.0
 10
328.1893872274204
 20
270.3817418829714
 30
0.0
 10
326.6116724798945
 20
270.2330190010089
 30
0.0
 10
325.8232036128373
 20
270.1629483102444
 30
0.0
 10
324.246797038546
 20
270.0317543499268
 30
0.0
 10
323.4588588723965
 20
269.9706328963725
 30
0.0
 10
321.883196291709
 20
269.8576677761114
 30
0.0
 10
321.0954713334082
 20
269.8058256359599
 30
0.0
 10
319.5198620827004
 20
269.7116594000422
 30
0.0
 10
318.7319772067199
 20
269.6693364560497
 30
0.0
 10
316.3674660587005
 20
269.5568092094515
 30
0.0
 10
314.7899834419418
 20
269.5011359920906
 30
0.0
 10
311.6292605923271
 20
269.4273819774714
 30
0.0
 10
310.046004760954
 20
269.4092985689701
 30
0.0
 10
308.458207928308
 20
269.4080621522844
 30
0.0
  0
SPLINE
  5
1C8
330
1F
100
AcDbEntity
  8
1
100
AcDbSpline
210
0.0
220
0.0
230
1.0
 70
     8
 71
     3
 72
    34
 73
    30
 74
     0
 42
0.000000001
 43
0.0000000001
 40
0.0
 40
0.0
 40
0.0
 40
0.0
 40
0.0625000000000296
 40
0.0625000000000296
 40
0.1250000000000593
 40
0.1250000000000593
 40
0.2500000000001185
 40
0.2500000000001185
 40
0.2812500000001243
 40
0.2812500000001243
 40
0.3125000000001301
 40
0.3125000000001301
 40
0.3750000000001416
 40
0.3750000000001416
 40
0.500000000000128
 40
0.500000000000128
 40
0.5625000000001025
 40
0.5625000000001025
 40
0.5937500000000897
 40
0.5937500000000897
 40
0.6250000000000769
 40
0.6250000000000769
 40
0.6875000000000512
 40
0.6875000000000512
 40
0.7500000000000254
 40
0.7500000000000254
 40
0.8750000000000127
 40
0.8750000000000127
 40
1.0
 40
1.0
 40
1.0
 40
1.0
 10
409.3380126728472
 20
295.3606572002824
 30
0.0
 10
409.2999622560783
 20
295.3354331106298
 30
0.0
 10
409.2614931747658
 20
295.3113667069563
 30
0.0
 10
409.1836865616241
 20
295.2654491693096
 30
0.0
 10
409.1443492909753
 20
295.2435984087175
 30
0.0
 10
409.0249876079722
 20
295.1812823051473
 30
0.0
 10
408.9436199277825
 20
295.1440383064865
 30
0.0
 10
408.8394437556932
 20
295.102811776309
 30
0.0
 10
408.8184846943016
 20
295.0948340949843
 30
0.0
 10
408.7763109756413
 20
295.0794176623077
 30
0.0
 10
408.7550711296761
 20
295.0719707146843
 30
0.0
 10
408.6911862639589
 20
295.050523082292
 30
0.0
 10
408.6483704115795
 20
295.0374084473784
 30
0.0
 10
408.5191604294985
 20
295.0015781659806
 30
0.0
 10
408.432007779018
 20
294.9823577738186
 30
0.0
 10
408.2993386433559
 20
294.9607094305224
 30
0.0
 10
408.2547909606355
 20
294.9546950703934
 30
0.0
 10
408.1874277081409
 20
294.947538965366
 30
0.0
 10
408.1648830434454
 20
294.9454647664948
 30
0.0
 10
408.1196052335811
 20
294.941952029814
 30
0.0
 10
408.0968394845829
 20
294.9405119743233
 30
0.0
 10
408.0284641977743
 20
294.9371777462143
 30
0.0
 10
407.983207956524
 20
294.9362860572211
 30
0.0
 10
407.8933107068904
 20
294.9370494456731
 30
0.0
 10
407.8486691556169
 20
294.9387041932478
 30
0.0
 10
407.7155606072088
 20
294.9473452975708
 30
0.0
 10
407.6279078669568
 20
294.9579907603471
 30
0.0
 10
407.454101268262
 20
294.9886601992687
 30
0.0
 10
407.3679439677784
 20
295.0086829958142
 30
0.0
 10
407.282236095411
 20
295.0334808117971
 30
0.0
  0
SPLINE
  5
1C9
330
1F
100
AcDbEntity
  8
1
100
AcDbSpline
210
0.0
220
0.0
230
1.0
 70
     8
 71
     3
 72
    27
 73
    23
 74
     0
 42
0.000000001
 43
0.0000000001
 40
0.0
 40
0.0
 40
0.0
 40
0.0
 40
0.1250000000000144
 40
0.2500000000000289
 40
0.3750000000000435
 40
0.4062500000000472
 40
0.4062500000000472
 40
0.4375000000000508
 40
0.4375000000000508
 40
0.5000000000000464
 40
0.5000000000000464
 40
0.6250000000000379
 40
0.6250000000000379
 40
0.687500000000028
 40
0.687500000000028
 40
0.718750000000023
 40
0.718750000000023
 40
0.7500000000000179
 40
0.7500000000000179
 40
0.875000000000009
 40
0.875000000000009
 40
1.0
 40
1.0
 40
1.0
 40
1.0
 10
407.2823956729573
 20
294.7615462983991
 30
0.0
 10
406.9907947639554
 20
294.751302744135
 30
0.0
 10
406.4092526476008
 20
294.7508895971838
 30
0.0
 10
405.5418320264611
 20
294.8094082818147
 30
0.0
 10
404.8949254900596
 20
294.8974818143259
 30
0.0
 10
404.5368183722563
 20
294.961912646754
 30
0.0
 10
404.393679106556
 20
294.988933500068
 30
0.0
 10
404.3221939064673
 20
295.0030622492517
 30
0.0
 10
404.1083894949306
 20
295.0472198909845
 30
0.0
 10
403.9665690587747
 20
295.0790479328936
 30
0.0
 10
403.5432421237206
 20
295.1816481405997
 30
0.0
 10
403.2638674014837
 20
295.2595282600456
 30
0.0
 10
402.8490649785013
 20
295.3905072271789
 30
0.0
 10
402.7115080974369
 20
295.4365287259443
 30
0.0
 10
402.5062439174463
 20
295.5091144248009
 30
0.0
 10
402.4379686580648
 20
295.5339144141035
 30
0.0
 10
402.3019971714978
 20
295.584619035811
 30
0.0
 10
402.2342904826351
 20
295.6105266439922
 30
0.0
 10
401.8971467416677
 20
295.7428265371695
 30
0.0
 10
401.6318736590615
 20
295.8574952752984
 30
0.0
 10
401.110151864744
 20
296.1042646894666
 30
0.0
 10
400.8537031273176
 20
296.2363658820937
 30
0.0
 10
400.6017023233115
 20
296.3771822224829
 30
0.0
  0
SPLINE
  5
1CA
330
1F
100
AcDbEntity
  8
1
100
AcDbSpline
210
0.0
220
0.0
230
1.0
 70
     8
 71
     3
 72
     8
 73
     4
 74
     0
 42
0.000000001
 43
0.0000000001
 40
0.0
 40
0.0
 40
0.0
 40
0.0
 40
1.0
 40
1.0
 40
1.0
 40
1.0
 10
407.2823956729573
 20
294.7615462983992
 30
0.0
 10
407.2859532405921
 20
294.761671271045
 30
0.0
 10
407.2895118462726
 20
294.7617958457973
 30
0.0
 10
407.2930714918051
 20
294.7619200219639
 30
0.0
  0
SPLINE
  5
1CB
330
1F
100
AcDbEntity
  8
1
100
AcDbSpline
210
0.0
220
0.0
230
1.0
 70
     8
 71
     3
 72
    28
 73
    24
 74
     0
 42
0.000000001
 43
0.0000000001
 40
0.0
 40
0.0
 40
0.0
 40
0.0
 40
0.125000000000005
 40
0.125000000000005
 40
0.25000000000001
 40
0.25000000000001
 40
0.2812500000000085
 40
0.2812500000000085
 40
0.312500000000007
 40
0.374999999999993
 40
0.374999999999993
 40
0.4999999999999761
 40
0.4999999999999761
 40
0.5312499999999775
 40
0.5312499999999775
 40
0.5624999999999789
 40
0.5624999999999789
 40
0.6249999999999821
 40
0.6249999999999821
 40
0.749999999999988
 40
0.8749999999999939
 40
0.8749999999999939
 40
1.0
 40
1.0
 40
1.0
 40
1.0
 10
400.7334961371353
 20
292.52514631325
 30
0.0
 10
400.9822808287403
 20
292.3702676542076
 30
0.0
 10
401.2362684264596
 20
292.2248760257552
 30
0.0
 10
401.754574696914
 20
291.9531468484279
 30
0.0
 10
402.018892956109
 20
291.8268083265843
 30
0.0
 10
402.3557907233332
 20
291.6809943292632
 30
0.0
 10
402.4235284815325
 20
291.6524242610253
 30
0.0
 10
402.559491688437
 20
291.5965715426883
 30
0.0
 10
402.7640883884528
 20
291.5147541311566
 30
0.0
 10
402.9706318032423
 20
291.4388041885492
 30
0.0
 10
403.3863001272528
 20
291.2947080529924
 30
0.0
 10
403.6668507655909
 20
291.2090388556622
 30
0.0
 10
404.0218428875804
 20
291.1150295380981
 30
0.0
 10
404.0930567828249
 20
291.0968823247132
 30
0.0
 10
404.2359167974439
 20
291.0619025147813
 30
0.0
 10
404.3076041170406
 20
291.045061305801
 30
0.0
 10
404.5227683168318
 20
290.9966391350863
 30
0.0
 10
404.6664787144857
 20
290.9671234256864
 30
0.0
 10
405.0984021701332
 20
290.8867759788138
 30
0.0
 10
405.6764104828182
 20
290.8014891841306
 30
0.0
 10
406.2585847184634
 20
290.7594082391657
 30
0.0
 10
406.8428519139131
 20
290.7390556781226
 30
0.0
 10
407.1360318922502
 20
290.7397425831444
 30
0.0
 10
407.4302826951918
 20
290.7515460350468
 30
0.0
  0
SPLINE
  5
1CC
330
1F
100
AcDbEntity
  8
1
100
AcDbSpline
210
0.0
220
0.0
230
1.0
 70
     8
 71
     3
 72
    30
 73
    26
 74
     0
 42
0.000000001
 43
0.0000000001
 40
0.0
 40
0.0
 40
0.0
 40
0.0
 40
0.1250000000000243
 40
0.1250000000000243
 40
0.2500000000000486
 40
0.2500000000000486
 40
0.3125000000000546
 40
0.3125000000000546
 40
0.3437500000000577
 40
0.3437500000000577
 40
0.3750000000000608
 40
0.3750000000000608
 40
0.5000000000000489
 40
0.5000000000000489
 40
0.6250000000000369
 40
0.6250000000000369
 40
0.6875000000000308
 40
0.6875000000000308
 40
0.7500000000000248
 40
0.7500000000000248
 40
0.8125000000000186
 40
0.8125000000000186
 40
0.8750000000000126
 40
0.8750000000000126
 40
1.0
 40
1.0
 40
1.0
 40
1.0
 10
406.704841945296
 20
291.8287689713904
 30
0.0
 10
406.4359717596813
 20
291.8268274560292
 30
0.0
 10
406.169841312248
 20
291.8312315177797
 30
0.0
 10
405.6417133789993
 20
291.8535865166506
 30
0.0
 10
405.3797187829837
 20
291.8715394797331
 30
0.0
 10
404.9891557480846
 20
291.909243946178
 30
0.0
 10
404.8593760861696
 20
291.9236074260485
 30
0.0
 10
404.6652596550711
 20
291.9479183104622
 30
0.0
 10
404.6006166656114
 20
291.9564872808696
 30
0.0
 10
404.4717244059822
 20
291.974527647664
 30
0.0
 10
404.4074612393319
 20
291.9840002976164
 30
0.0
 10
404.0870292397287
 20
292.0336363852733
 30
0.0
 10
403.833498527182
 20
292.0806174780182
 30
0.0
 10
403.3315109535958
 20
292.1893991500437
 30
0.0
 10
403.0830583698718
 20
292.2511974815396
 30
0.0
 10
402.7139718692979
 20
292.3552570525263
 30
0.0
 10
402.5914495560185
 20
292.3918695327922
 30
0.0
 10
402.3482982749824
 20
292.4687029944558
 30
0.0
 10
402.2276175218276
 20
292.5089351069104
 30
0.0
 10
401.9880108537456
 20
292.593035884662
 30
0.0
 10
401.8690774289901
 20
292.6369149126739
 30
0.0
 10
401.6329922539642
 20
292.7282534268037
 30
0.0
 10
401.5158378206893
 20
292.77571599526
 30
0.0
 10
401.1670082170439
 20
292.9235179126161
 30
0.0
 10
400.9379643184764
 20
293.0292637181014
 30
0.0
 10
400.7123773327482
 20
293.1424013307585
 30
0.0
  0
SPLINE
  5
1CD
330
1F
100
AcDbEntity
  8
1
100
AcDbSpline
210
0.0
220
0.0
230
1.0
 70
     9
 71
     3
 72
   133
 73
   129
 74
     0
 42
0.000000001
 43
0.0000000001
 40
0.0
 40
0.0
 40
0.0
 40
0.0
 40
0.0312499999999578
 40
0.0312499999999578
 40
0.0468749999999368
 40
0.0468749999999368
 40
0.0546874999999248
 40
0.0546874999999248
 40
0.0624999999999129
 40
0.0624999999999129
 40
0.093749999999872
 40
0.093749999999872
 40
0.1093749999998516
 40
0.1093749999998516
 40
0.1171874999998443
 40
0.1171874999998443
 40
0.124999999999837
 40
0.124999999999837
 40
0.1562499999998272
 40
0.1562499999998272
 40
0.1640624999998211
 40
0.1640624999998211
 40
0.171874999999815
 40
0.171874999999815
 40
0.1874999999998106
 40
0.2031249999998062
 40
0.2031249999998062
 40
0.2109374999997997
 40
0.2109374999997997
 40
0.2187499999997932
 40
0.2187499999997932
 40
0.2499999999997935
 40
0.2499999999997935
 40
0.2656249999997892
 40
0.2656249999997892
 40
0.2734374999997869
 40
0.2734374999997869
 40
0.2812499999997848
 40
0.2812499999997848
 40
0.3124999999997587
 40
0.3124999999997587
 40
0.3203124999997523
 40
0.3203124999997523
 40
0.3281249999997458
 40
0.3281249999997458
 40
0.3437499999997404
 40
0.359374999999735
 40
0.359374999999735
 40
0.3671874999997357
 40
0.3671874999997357
 40
0.3749999999997362
 40
0.3749999999997362
 40
0.4062499999997559
 40
0.4062499999997559
 40
0.4218749999997656
 40
0.4218749999997656
 40
0.4296874999997723
 40
0.4296874999997723
 40
0.4374999999997791
 40
0.4374999999997791
 40
0.4687499999998093
 40
0.4687499999998093
 40
0.4765624999998181
 40
0.4765624999998181
 40
0.4843749999998268
 40
0.4843749999998268
 40
0.4999999999998443
 40
0.4999999999998443
 40
0.5312499999998794
 40
0.5312499999998794
 40
0.5390624999998882
 40
0.5390624999998882
 40
0.5468749999998971
 40
0.5468749999998971
 40
0.5624999999999144
 40
0.5781249999999317
 40
0.5781249999999317
 40
0.5859374999999407
 40
0.5859374999999407
 40
0.5937499999999498
 40
0.5937499999999498
 40
0.6249999999999809
 40
0.6249999999999809
 40
0.6406249999999996
 40
0.6406249999999996
 40
0.6484375000000055
 40
0.6484375000000055
 40
0.6562500000000116
 40
0.6562500000000116
 40
0.6875000000000423
 40
0.6875000000000423
 40
0.7031250000000537
 40
0.7031250000000537
 40
0.718750000000065
 40
0.718750000000065
 40
0.7500000000000786
 40
0.7500000000000786
 40
0.7578125000000799
 40
0.7578125000000799
 40
0.765625000000081
 40
0.765625000000081
 40
0.7812500000000835
 40
0.796875000000086
 40
0.796875000000086
 40
0.8125000000000884
 40
0.8125000000000884
 40
0.8437500000000849
 40
0.8437500000000849
 40
0.8515625000000859
 40
0.8515625000000859
 40
0.8593750000000868
 40
0.8593750000000868
 40
0.875000000000082
 40
0.875000000000082
 40
0.9062500000000724
 40
0.9062500000000724
 40
0.914062500000066
 40
0.914062500000066
 40
0.92187500000006
 40
0.92187500000006
 40
0.9375000000000479
 40
0.9531250000000357
 40
0.9531250000000357
 40
0.96093750000003
 40
0.96093750000003
 40
0.9687500000000239
 40
0.9687500000000239
 40
1.0
 40
1.0
 40
1.0
 40
1.0
 10
411.363358210799
 20
283.8293513132517
 30
0.0
 10
411.3650014977649
 20
283.9234951604801
 30
0.0
 10
411.3757071085788
 20
284.0162002027668
 30
0.0
 10
411.4050124651718
 20
284.1531343057516
 30
0.0
 10
411.4170040549127
 20
284.1984223803626
 30
0.0
 10
411.4384231751404
 20
284.2657987851931
 30
0.0
 10
411.4461358318425
 20
284.2881647899785
 30
0.0
 10
411.4627361762331
 20
284.332705402396
 30
0.0
 10
411.4715744465191
 20
284.354743680182
 30
0.0
 10
411.5182755710621
 20
284.4634306348528
 30
0.0
 10
411.5637367232014
 20
284.54598060333
 30
0.0
 10
411.6440809958036
 20
284.6631435021333
 30
0.0
 10
411.6729013385646
 20
284.7010799711853
 30
0.0
 10
411.7193232037916
 20
284.7562259334805
 30
0.0
 10
411.735269897558
 20
284.774238523883
 30
0.0
 10
411.7678852980159
 20
284.8092921788447
 30
0.0
 10
411.7845855394111
 20
284.8263710447556
 30
0.0
 10
411.8700253523892
 20
284.9095495741871
 30
0.0
 10
411.9445248189303
 20
284.9690657454067
 30
0.0
 10
412.0455093964625
 20
285.0344217165866
 30
0.0
 10
412.0661028771309
 20
285.0470368828871
 30
0.0
 10
412.1081024125372
 20
285.0713315022759
 30
0.0
 10
412.1293752448327
 20
285.0829321753433
 30
0.0
 10
412.193770825134
 20
285.1159957051194
 30
0.0
 10
412.2813620597544
 20
285.1555662386914
 30
0.0
 10
412.3723489445711
 20
285.1862630020331
 30
0.0
 10
412.4418761510348
 20
285.2059173381733
 30
0.0
 10
412.4652667870535
 20
285.2119063941574
 30
0.0
 10
412.5124851002511
 20
285.2227401283612
 30
0.0
 10
412.5363670944528
 20
285.2275941284222
 30
0.0
 10
412.6562587440153
 20
285.2488210276097
 30
0.0
 10
412.7523502725288
 20
285.2559672080753
 30
0.0
 10
412.8967456539501
 20
285.2524332939869
 30
0.0
 10
412.9449207930386
 20
285.2488618049729
 30
0.0
 10
413.017250379019
 20
285.2398128060536
 30
0.0
 10
413.0414208139318
 20
285.2361684129366
 30
0.0
 10
413.0892550485443
 20
285.2277197601399
 30
0.0
 10
413.1129748968418
 20
285.2229110351109
 30
0.0
 10
413.2306059447976
 20
285.1960004892247
 30
0.0
 10
413.3216412578185
 20
285.1653817371845
 30
0.0
 10
413.4315925834449
 20
285.1157599316551
 30
0.0
 10
413.4533889154071
 20
285.1052629190978
 30
0.0
 10
413.4965861751003
 20
285.0831023993071
 30
0.0
 10
413.5178785621783
 20
285.0714921798935
 30
0.0
 10
413.5805210850809
 20
285.035283743842
 30
0.0
 10
413.6610443068414
 20
284.9831949648316
 30
0.0
 10
413.7357207625154
 20
284.9236993907861
 30
0.0
 10
413.789529164085
 20
284.8763001439197
 30
0.0
 10
413.807098155275
 20
284.8600366456777
 30
0.0
 10
413.8414927522313
 20
284.8265720580664
 30
0.0
 10
413.8583599567617
 20
284.8093254636133
 30
0.0
 10
413.9402696869399
 20
284.7212843443482
 30
0.0
 10
413.9976603021721
 20
284.6456792241216
 30
0.0
 10
414.0721187374482
 20
284.5249485516564
 30
0.0
 10
414.0949859910573
 20
284.4834752897002
 30
0.0
 10
414.1263052927328
 20
284.4193950177523
 30
0.0
 10
414.1362631188379
 20
284.3976794072286
 30
0.0
 10
414.1549806156075
 20
284.3540633929647
 30
0.0
 10
414.1637645787788
 20
284.3321184148362
 30
0.0
 10
414.2048713964873
 20
284.2217260538516
 30
0.0
 10
414.2288320251727
 20
284.1312957163493
 30
0.0
 10
414.2478000573114
 20
284.0156864856556
 30
0.0
 10
414.2510397685756
 20
283.9924348712027
 30
0.0
 10
414.2563964033171
 20
283.9456690934304
 30
0.0
 10
414.2585101964759
 20
283.9221460689263
 30
0.0
 10
414.2631063729706
 20
283.8519146771325
 30
0.0
 10
414.2638802458622
 20
283.8052994698928
 30
0.0
 10
414.2595412479185
 20
283.6660536879479
 30
0.0
 10
414.2478293093021
 20
283.5740187474435
 30
0.0
 10
414.2219184595513
 20
283.4599771436768
 30
0.0
 10
414.2161571091036
 20
283.4371919728866
 30
0.0
 10
414.2036107959639
 20
283.3921843993377
 30
0.0
 10
414.1968148225391
 20
283.3699063722203
 30
0.0
 10
414.17488329
 20
283.3037373796546
 30
0.0
 10
414.1415315942666
 20
283.2172827876662
 30
0.0
 10
414.1000444219927
 20
283.1343145413792
 30
0.0
 10
414.0658209989519
 20
283.0734113568292
 30
0.0
 10
414.0538942617681
 20
283.0533311719054
 30
0.0
 10
414.0289815805171
 20
283.0136199584878
 30
0.0
 10
414.0159578782331
 20
282.9939365071402
 30
0.0
 10
413.9486730090157
 20
282.8974503881225
 30
0.0
 10
413.8880493743808
 20
282.8263763342148
 30
0.0
 10
413.7870159700768
 20
282.728752997044
 30
0.0
 10
413.7516431797183
 20
282.6977205440222
 30
0.0
 10
413.6959386493516
 20
282.6535133521934
 30
0.0
 10
413.6769096688164
 20
282.6391549917818
 30
0.0
 10
413.6380200162653
 20
282.6113003008338
 30
0.0
 10
413.6182935044076
 20
282.5978986601122
 30
0.0
 10
413.5182720885758
 20
282.5334770004489
 30
0.0
 10
413.4338511766075
 20
282.4901401392486
 30
0.0
 10
413.3004945370371
 20
282.4375658667257
 30
0.0
 10
413.2548873011168
 20
282.422120126623
 30
0.0
 10
413.1613972680519
 20
282.3956507427731
 30
0.0
 10
413.1143444959866
 20
282.3848598656887
 30
0.0
 10
412.9722888438896
 20
282.3595996858638
 30
0.0
 10
412.8763972855879
 20
282.35217240965
 30
0.0
 10
412.7550015524953
 20
282.3550077035013
 30
0.0
 10
412.7305716978389
 20
282.356193589194
 30
0.0
 10
412.6820526694631
 20
282.3597778496022
 30
0.0
 10
412.657940082215
 20
282.3621725093329
 30
0.0
 10
412.5860336552078
 20
282.3711260840233
 30
0.0
 10
412.4913065476206
 20
282.3877742907916
 30
0.0
 10
412.3988282469873
 20
282.4136614503321
 30
0.0
 10
412.3074836792244
 20
282.4442167646621
 30
0.0
 10
412.2621990084962
 20
282.4619317484431
 30
0.0
 10
412.130926553277
 20
282.5209646139003
 30
0.0
 10
412.0486338834841
 20
282.5683105456123
 30
0.0
 10
411.9520450892583
 20
282.6371764527545
 30
0.0
 10
411.9330441531337
 20
282.6514384228791
 30
0.0
 10
411.8956814837117
 20
282.6809507439723
 30
0.0
 10
411.877303098771
 20
282.6962199874401
 30
0.0
 10
411.8236956901574
 20
282.7430287392975
 30
0.0
 10
411.7897959555056
 20
282.7757124394882
 30
0.0
 10
411.6933977696691
 20
282.878049693561
 30
0.0
 10
411.6361501778234
 20
282.9519489035036
 30
0.0
 10
411.5734486258683
 20
283.0515654118648
 30
0.0
 10
411.5614167025942
 20
283.0717595828136
 30
0.0
 10
411.5384502565371
 20
283.1125109439602
 30
0.0
 10
411.5274988542808
 20
283.1330948319272
 30
0.0
 10
411.4962125729729
 20
283.1954626320682
 30
0.0
 10
411.4586712949831
 20
283.2802599789299
 30
0.0
 10
411.4293704158304
 20
283.3683169808315
 30
0.0
 10
411.4105339310857
 20
283.4356078952566
 30
0.0
 10
411.4047792220395
 20
283.4582465765976
 30
0.0
 10
411.3943379106876
 20
283.5039494378154
 30
0.0
 10
411.3896690070559
 20
283.526944693718
 30
0.0
 10
411.3691794025045
 20
283.6420688786392
 30
0.0
 10
411.3617149238329
 20
283.7352074660231
 30
0.0
 10
411.363358210799
 20
283.8293513132516
 30
0.0
  0
SPLINE
  5
1CE
330
1F
100
AcDbEntity
  8
1
100
AcDbSpline
210
0.0
220
0.0
230
1.0
 70
     8
 71
     3
 72
    12
 73
     8
 74
     0
 42
0.000000001
 43
0.0000000001
 40
0.0
 40
0.0
 40
0.0
 40
0.0
 40
0.5000000000000599
 40
0.5000000000000599
 40
0.7500000000000299
 40
0.7500000000000299
 40
1.0
 40
1.0
 40
1.0
 40
1.0
 10
407.2822360954103
 20
295.0334808117973
 30
0.0
 10
407.1807343345893
 20
295.0628482656526
 30
0.0
 10
407.0817618230356
 20
295.0983221016111
 30
0.0
 10
406.9366395474028
 20
295.160483918156
 30
0.0
 10
406.8888241524455
 20
295.1827024894383
 30
0.0
 10
406.7942524540418
 20
295.2301752721432
 30
0.0
 10
406.7474966663949
 20
295.2554291408566
 30
0.0
 10
406.7012400822166
 20
295.2822483108462
 30
0.0
  0
SPLINE
  5
1CF
330
1F
100
AcDbEntity
  8
1
100
AcDbSpline
210
0.0
220
0.0
230
1.0
 70
    12
 71
     2
 72
     6
 73
     3
 74
     0
 42
0.000000001
 43
0.0000000001
 40
0.0
 40
0.0
 40
0.0
 40
1.0
 40
1.0
 40
1.0
 10
405.6952640786402
 20
308.3483254785816
 30
0.0
 41
0.4999994913197078
 10
405.8074462356186
 20
308.3481724413769
 30
0.0
 41
0.5000005086802922
 10
405.9196277447841
 20
308.3480190122615
 30
0.0
 41
0.4999994913197078
  0
SPLINE
  5
1D0
330
1F
100
AcDbEntity
  8
1
100
AcDbSpline
210
0.0
220
0.0
230
1.0
 70
     8
 71
     3
 72
    10
 73
     6
 74
     0
 42
0.000000001
 43
0.0000000001
 40
0.0
 40
0.0
 40
0.0
 40
0.0
 40
0.5
 40
0.5
 40
1.0
 40
1.0
 40
1.0
 40
1.0
 10
402.4098132911968
 20
301.9451762538884
 30
0.0
 10
402.438283398049
 20
303.0087663991234
 30
0.0
 10
402.4625859180901
 20
304.0724639342286
 30
0.0
 10
402.5057288811596
 20
306.1999726759763
 30
0.0
 10
402.5245438418108
 20
307.2637799139865
 30
0.0
 10
402.5414540183608
 20
308.3276236837281
 30
0.0
  0
SPLINE
  5
1D1
330
1F
100
AcDbEntity
  8
1
100
AcDbSpline
210
0.0
220
0.0
230
1.0
 70
    28
 71
     4
 72
    13
 73
     8
 74
     0
 42
0.000000001
 43
0.0000000001
 40
0.0
 40
0.0
 40
0.0
 40
0.0
 40
0.0
 40
0.3455576413530124
 40
0.3455576413530124
 40
0.3455576413530124
 40
1.0
 40
1.0
 40
1.0
 40
1.0
 40
1.0
 10
302.9048419452958
 20
282.3873661119459
 30
0.0
 41
0.9970247083964045
 10
302.9048419452958
 20
281.2780170205457
 30
0.0
 41
0.9972297682727631
 10
302.9048419452958
 20
280.0672798780313
 30
0.0
 41
0.9987829542521168
 10
302.9048419452957
 20
278.8236330326013
 30
0.0
 41
1.001498006703475
 10
302.9048419452957
 20
275.380604691566
 30
0.0
 41
1.001498006703475
 10
302.9048419452957
 20
272.8879568811265
 30
0.0
 41
0.9917597767757017
 10
302.9048419452957
 20
270.8268605250372
 30
0.0
 41
0.9986186866185292
 10
302.9048419452958
 20
269.4434371119603
 30
0.0
 41
1.000930450846263
  0
SPLINE
  5
1D2
330
1F
100
AcDbEntity
  8
1
100
AcDbSpline
210
0.0
220
0.0
230
1.0
 70
     8
 71
     3
 72
    37
 73
    33
 74
     0
 42
0.000000001
 43
0.0000000001
 40
0.0
 40
0.0
 40
0.0
 40
0.0
 40
0.1249999999999964
 40
0.1249999999999964
 40
0.2499999999999928
 40
0.2499999999999928
 40
0.3749999999999892
 40
0.3749999999999892
 40
0.4062499999999938
 40
0.4062499999999938
 40
0.4374999999999984
 40
0.4374999999999984
 40
0.4999999999999969
 40
0.4999999999999969
 40
0.6250000000000046
 40
0.6250000000000046
 40
0.6562500000000062
 40
0.6562500000000062
 40
0.6875000000000077
 40
0.6875000000000077
 40
0.7500000000000034
 40
0.7500000000000034
 40
0.8124999999999991
 40
0.8124999999999991
 40
0.8749999999999948
 40
0.8749999999999948
 40
0.9062499999999948
 40
0.9218749999999952
 40
0.9218749999999952
 40
0.9374999999999957
 40
0.9374999999999957
 40
1.0
 40
1.0
 40
1.0
 40
1.0
 10
399.2243215290841
 20
297.8096974544642
 30
0.0
 10
399.4227930555719
 20
297.9180592648775
 30
0.0
 10
399.6174573622828
 20
298.0323138512486
 30
0.0
 10
399.9979681946138
 20
298.2744710956708
 30
0.0
 10
400.1838222423705
 20
298.4023621110355
 30
0.0
 10
400.5450780907818
 20
298.6743220232739
 30
0.0
 10
400.7204951819021
 20
298.818367253721
 30
0.0
 10
400.9317372804251
 20
299.0108514068764
 30
0.0
 10
400.9735816121697
 20
299.0499736807329
 30
0.0
 10
401.0564120282849
 20
299.1295466149811
 30
0.0
 10
401.0974571567401
 20
299.1700591074222
 30
0.0
 10
401.2185580459792
 20
299.2930366361595
 30
0.0
 10
401.2967042067531
 20
299.3770430683491
 30
0.0
 10
401.5227364286243
 20
299.6356288506261
 30
0.0
 10
401.6622947812896
 20
299.8167133261162
 30
0.0
 10
401.8197773250926
 20
300.0563213099065
 30
0.0
 10
401.8504193959822
 20
300.1049103442369
 30
0.0
 10
401.9098894598011
 20
300.2035054659465
 30
0.0
 10
401.9387676338712
 20
300.2536101023768
 30
0.0
 10
402.0218295494741
 20
300.4049271409704
 30
0.0
 10
402.0726278625454
 20
300.5074094617943
 30
0.0
 10
402.1645229596424
 20
300.715775131465
 30
0.0
 10
402.2056211591068
 20
300.8216579841069
 30
0.0
 10
402.2773975514118
 20
301.0370765913565
 30
0.0
 10
402.3080777455296
 20
301.1466116443842
 30
0.0
 10
402.345577699877
 20
301.3139011658999
 30
0.0
 10
402.3621947144697
 20
301.3982936712118
 30
0.0
 10
402.3754495339413
 20
301.4838648484392
 30
0.0
 10
402.3835184264133
 20
301.541181413403
 30
0.0
 10
402.3871645239303
 20
301.5699493125886
 30
0.0
 10
402.4033600621178
 20
301.7137617120999
 30
0.0
 10
402.4098863143203
 20
301.8292460578066
 30
0.0
 10
402.4098132911968
 20
301.9451762538884
 30
0.0
  0
SPLINE
  5
1D3
330
1F
100
AcDbEntity
  8
1
100
AcDbSpline
210
0.0
220
0.0
230
1.0
 70
    12
 71
     3
 72
     9
 73
     5
 74
     0
 42
0.000000001
 43
0.0000000001
 40
0.0
 40
0.0
 40
0.0
 40
0.0
 40
0.2531402780304473
 40
1.0
 40
1.0
 40
1.0
 40
1.0
 10
373.9344335042836
 20
301.4847464306348
 30
0.0
 41
1.001224547820415
 10
376.3677620552406
 20
301.4461949875798
 30
0.0
 41
1.00058138021705
 10
385.9902778995206
 20
301.202399007001
 30
0.0
 41
0.998790112584092
 10
395.3737330768372
 20
300.9194082940134
 30
0.0
 41
1.004162125939866
 10
402.4098132911968
 20
301.9451762538884
 30
0.0
 41
1.00295070810395
  0
SPLINE
  5
1D4
330
1F
100
AcDbEntity
  8
1
100
AcDbSpline
210
0.0
220
0.0
230
1.0
 70
     8
 71
     3
 72
    32
 73
    28
 74
     0
 42
0.000000001
 43
0.0000000001
 40
0.0
 40
0.0
 40
0.0
 40
0.0
 40
0.1249999999999984
 40
0.1249999999999984
 40
0.2499999999999968
 40
0.2499999999999968
 40
0.3124999999999964
 40
0.3124999999999964
 40
0.374999999999996
 40
0.374999999999996
 40
0.4999999999999961
 40
0.4999999999999961
 40
0.562499999999996
 40
0.562499999999996
 40
0.593749999999996
 40
0.593749999999996
 40
0.6249999999999961
 40
0.6249999999999961
 40
0.7499999999999974
 40
0.7499999999999974
 40
0.8749999999999985
 40
0.8749999999999985
 40
0.9374999999999992
 40
0.9374999999999992
 40
0.9687499999999996
 40
0.9687499999999996
 40
1.0
 40
1.0
 40
1.0
 40
1.0
 10
276.2404506490206
 20
274.8296745441825
 30
0.0
 10
276.175457900614
 20
274.4897293956569
 30
0.0
 10
276.138426789295
 20
274.1561481347044
 30
0.0
 10
276.1173025597649
 20
273.5016032627514
 30
0.0
 10
276.1332230440914
 20
273.1806398418553
 30
0.0
 10
276.1965965969302
 20
272.7086535587079
 30
0.0
 10
276.2243273370093
 20
272.5528814840113
 30
0.0
 10
276.2931718957374
 20
272.2445832596227
 30
0.0
 10
276.3338992773289
 20
272.0937725706757
 30
0.0
 10
276.4742381008105
 20
271.6508388537258
 30
0.0
 10
276.5919378321438
 20
271.3681910135159
 30
0.0
 10
276.8030911076673
 20
270.9616266671575
 30
0.0
 10
276.8792608629543
 20
270.8290127518678
 30
0.0
 10
277.0021428555707
 20
270.6343078354011
 30
0.0
 10
277.0445423946693
 20
270.5701091559606
 30
0.0
 10
277.1322224045834
 20
270.4430968803809
 30
0.0
 10
277.1775264586237
 20
270.3802520141047
 30
0.0
 10
277.4110290010861
 20
270.0697713656661
 30
0.0
 10
277.6173465829476
 20
269.8369215457244
 30
0.0
 10
278.0665012544816
 20
269.3984593321955
 30
0.0
 10
278.3093519143025
 20
269.1928616207333
 30
0.0
 10
278.700407801136
 20
268.902895938882
 30
0.0
 10
278.835234788073
 20
268.8093200131158
 30
0.0
 10
279.0442109447382
 20
268.6733825732867
 30
0.0
 10
279.1150242899233
 20
268.6287910451545
 30
0.0
 10
279.258489032614
 20
268.5413053546578
 30
0.0
 10
279.3311856376507
 20
268.4983804912603
 30
0.0
 10
279.4048419452957
 20
268.4562508916197
 30
0.0
  0
SPLINE
  5
1D5
330
1F
100
AcDbEntity
  8
1
100
AcDbSpline
210
0.0
220
0.0
230
1.0
 70
     8
 71
     3
 72
    62
 73
    58
 74
     0
 42
0.000000001
 43
0.0000000001
 40
0.0
 40
0.0
 40
0.0
 40
0.0
 40
0.0625000000000005
 40
0.0625000000000005
 40
0.125000000000001
 40
0.125000000000001
 40
0.1875000000000014
 40
0.1875000000000014
 40
0.2187500000000018
 40
0.2187500000000018
 40
0.2343750000000019
 40
0.2343750000000019
 40
0.2500000000000022
 40
0.2500000000000022
 40
0.3125000000000027
 40
0.3125000000000027
 40
0.3750000000000032
 40
0.3750000000000032
 40
0.4062500000000032
 40
0.4062500000000032
 40
0.4218750000000029
 40
0.4218750000000029
 40
0.4375000000000028
 40
0.4375000000000028
 40
0.4531250000000025
 40
0.4531250000000025
 40
0.4687500000000023
 40
0.4687500000000023
 40
0.5000000000000023
 40
0.5000000000000023
 40
0.5312500000000023
 40
0.5312500000000023
 40
0.5625000000000023
 40
0.5625000000000023
 40
0.5937500000000025
 40
0.5937500000000025
 40
0.6250000000000025
 40
0.6250000000000025
 40
0.6562500000000025
 40
0.6562500000000025
 40
0.6718750000000023
 40
0.6718750000000023
 40
0.6875000000000022
 40
0.6875000000000022
 40
0.7500000000000016
 40
0.7500000000000016
 40
0.8125000000000012
 40
0.8125000000000012
 40
0.843750000000001
 40
0.843750000000001
 40
0.8750000000000007
 40
0.9062500000000005
 40
0.9375000000000003
 40
0.9375000000000003
 40
0.9687500000000001
 40
0.9687500000000001
 40
1.0
 40
1.0
 40
1.0
 40
1.0
 10
302.9048419452957
 20
282.38284667655
 30
0.0
 10
304.8629702690685
 20
281.9679576479169
 30
0.0
 10
306.8194132312876
 20
281.5531354644193
 30
0.0
 10
310.7287651565794
 20
280.7240772225084
 30
0.0
 10
312.6816714927779
 20
280.3098264948864
 30
0.0
 10
316.5836687103347
 20
279.4822408099124
 30
0.0
 10
318.5327548272194
 20
279.0688847461411
 30
0.0
 10
321.4533070723268
 20
278.4501117715174
 30
0.0
 10
322.4263120933287
 20
278.2440697989741
 30
0.0
 10
323.8850346461891
 20
277.9354779708938
 30
0.0
 10
324.3711623600964
 20
277.832689463108
 30
0.0
 10
325.3428678322468
 20
277.6273643477519
 30
0.0
 10
325.8284788111258
 20
277.5248206863211
 30
0.0
 10
328.2553105938676
 20
277.0127976987256
 30
0.0
 10
330.1928443984605
 20
276.605325920254
 30
0.0
 10
334.0599326317148
 20
275.7984430491234
 30
0.0
 10
335.9894790540042
 20
275.3990211355164
 30
0.0
 10
338.878157490666
 20
274.8104104710081
 30
0.0
 10
339.8401154801518
 20
274.6159791454654
 30
0.0
 10
341.2817498907982
 20
274.3277198775482
 30
0.0
 10
341.7620780192428
 20
274.2321992430888
 30
0.0
 10
342.7223228296873
 20
274.0424248430616
 30
0.0
 10
343.2022264463629
 20
273.9481419904379
 30
0.0
 10
344.1617784009236
 20
273.7612824440962
 30
0.0
 10
344.6414609014466
 20
273.6687110721732
 30
0.0
 10
345.6006475488471
 20
273.4858213828572
 30
0.0
 10
346.0800824105868
 20
273.3955161784231
 30
0.0
 10
347.5181954611579
 20
273.1286553475907
 30
0.0
 10
348.4766884916987
 20
272.9561884824787
 30
0.0
 10
350.3945482592668
 20
272.6246811693171
 30
0.0
 10
351.3539152118815
 20
272.4656355504487
 30
0.0
 10
353.2746890758779
 20
272.1624845051473
 30
0.0
 10
354.2360947888997
 20
272.0183717764713
 30
0.0
 10
356.1619177361937
 20
271.7457630170665
 30
0.0
 10
357.1263546826346
 20
271.617269931206
 30
0.0
 10
359.057838825713
 20
271.3741317485367
 30
0.0
 10
360.0248852114893
 20
271.2594891675878
 30
0.0
 10
361.9612810882637
 20
271.0427577577585
 30
0.0
 10
362.9306315886136
 20
270.940673325658
 30
0.0
 10
364.3862437133545
 20
270.7962521217278
 30
0.0
 10
364.8717129567464
 20
270.7495648930229
 30
0.0
 10
365.8431666352793
 20
270.6590002005206
 30
0.0
 10
366.3291405181283
 20
270.6151241754854
 30
0.0
 10
368.759250690455
 20
270.4026409823666
 30
0.0
 10
370.7049139055974
 20
270.2545830206672
 30
0.0
 10
374.599672748252
 20
269.9977461427121
 30
0.0
 10
376.5487702799359
 20
269.889004099912
 30
0.0
 10
379.4755829705904
 20
269.7526442514721
 30
0.0
 10
380.4517226589265
 20
269.7116564124708
 30
0.0
 10
382.4051994281086
 20
269.6381454614264
 30
0.0
 10
384.3598372273823
 20
269.5730555591775
 30
0.0
 10
387.2945583567101
 20
269.4987705157304
 30
0.0
 10
389.2523183067428
 20
269.4638574680251
 30
0.0
 10
391.2103949313202
 20
269.4359527292242
 30
0.0
 10
392.1895915217078
 20
269.4255040043685
 30
0.0
 10
394.1479401800559
 20
269.4115249323727
 30
0.0
 10
395.1270921665533
 20
269.4079935137005
 30
0.0
 10
396.1060234672489
 20
269.4079935137005
 30
0.0
  0
SPLINE
  5
1D6
330
1F
100
AcDbEntity
  8
1
100
AcDbSpline
210
0.0
220
0.0
230
1.0
 70
     8
 71
     3
 72
    71
 73
    67
 74
     0
 42
0.000000001
 43
0.0000000001
 40
0.0
 40
0.0
 40
0.0
 40
0.0
 40
0.0462240647842022
 40
0.0462240647842022
 40
0.0802874910419089
 40
0.0802874910419089
 40
0.0973192041707623
 40
0.0973192041707623
 40
0.1143509172996157
 40
0.1143509172996157
 40
0.1484143435573228
 40
0.1484143435573228
 40
0.1824777698150299
 40
0.1824777698150299
 40
0.216541196072737
 40
0.216541196072737
 40
0.2506046223304442
 40
0.2506046223304442
 40
0.2846680485881513
 40
0.2846680485881513
 40
0.3187314748458584
 40
0.3187314748458584
 40
0.3527949011035655
 40
0.3527949011035655
 40
0.3868583273612727
 40
0.3868583273612727
 40
0.4209217536189798
 40
0.4209217536189798
 40
0.454985179876687
 40
0.454985179876687
 40
0.4890486061343941
 40
0.4890486061343941
 40
0.5060803192632478
 40
0.5060803192632478
 40
0.5231120323921017
 40
0.5231120323921017
 40
0.5571754586498089
 40
0.5571754586498089
 40
0.591238884907516
 40
0.591238884907516
 40
0.6253023111652231
 40
0.6253023111652231
 40
0.6593657374229302
 40
0.6593657374229302
 40
0.6934291636806373
 40
0.6934291636806373
 40
0.7274925899383446
 40
0.7274925899383446
 40
0.7615560161960517
 40
0.7615560161960517
 40
0.7956194424537589
 40
0.7956194424537589
 40
0.8296828687114658
 40
0.8296828687114658
 40
0.8467145818403194
 40
0.8467145818403194
 40
0.8637462949691729
 40
0.8807780080980265
 40
0.8807780080980265
 40
0.8978097212268801
 40
0.8978097212268801
 40
0.9318731474845868
 40
0.9318731474845868
 40
0.9659365737422936
 40
0.9659365737422936
 40
1.0
 40
1.0
 40
1.0
 40
1.0
 10
310.5142007382175
 20
308.4079908223988
 30
0.0
 10
311.8132033469342
 20
308.4080370730655
 30
0.0
 10
313.1105928874841
 20
308.4011085510902
 30
0.0
 10
315.3615378816287
 20
308.3753285728104
 30
0.0
 10
316.3157607946541
 20
308.3600959557737
 30
0.0
 10
317.7460713245486
 20
308.330296565795
 30
0.0
 10
318.2226712104755
 20
308.3192055881763
 30
0.0
 10
319.1755592320004
 20
308.2946314738327
 30
0.0
 10
319.6518693624136
 20
308.2811475258459
 30
0.0
 10
321.0800805752565
 20
308.2370127344869
 30
0.0
 10
322.0313345846713
 20
308.2026729066688
 30
0.0
 10
323.9323619542518
 20
308.123722508168
 30
0.0
 10
324.8821355309239
 20
308.0791110265173
 30
0.0
 10
326.7805410634061
 20
307.9793356101534
 30
0.0
 10
327.7291733258962
 20
307.9241709957062
 30
0.0
 10
329.6256732183194
 20
307.8031896768778
 30
0.0
 10
330.5735412312341
 20
307.7373726003742
 30
0.0
 10
332.4689171658443
 20
307.5951848538465
 30
0.0
 10
333.4164255258476
 20
307.518814173927
 30
0.0
 10
335.3115018415236
 20
307.3558217693292
 30
0.0
 10
336.2591515459586
 20
307.2691918743491
 30
0.0
 10
338.1541944183928
 20
307.0862561677208
 30
0.0
 10
339.1016564470312
 20
306.9899461750909
 30
0.0
 10
340.9968837001766
 20
306.7883376423396
 30
0.0
 10
341.9446526758678
 20
306.6830453571293
 30
0.0
 10
343.8408857357566
 20
306.4642961752753
 30
0.0
 10
344.7893103971783
 20
306.3507943616103
 30
0.0
 10
346.6864043094617
 20
306.1150977147369
 30
0.0
 10
347.6350734379693
 20
305.9928992847587
 30
0.0
 10
349.5324377074942
 20
305.7394250008197
 30
0.0
 10
350.4811332434649
 20
305.6081466852175
 30
0.0
 10
351.9041449320699
 20
305.4042493136218
 30
0.0
 10
352.3785006217317
 20
305.335118233459
 30
0.0
 10
353.3270335868088
 20
305.194549258661
 30
0.0
 10
353.8012234396613
 20
305.123109681852
 30
0.0
 10
355.223578244653
 20
304.9053356855918
 30
0.0
 10
356.1715058410324
 20
304.7554944998673
 30
0.0
 10
358.0670765505573
 20
304.4471126572719
 30
0.0
 10
359.0147375877828
 20
304.2886107767263
 30
0.0
 10
360.910163424294
 20
303.9637746193778
 30
0.0
 10
361.8579275698939
 20
303.7974407002398
 30
0.0
 10
363.7538129669282
 20
303.4576055544298
 30
0.0
 10
364.7019337120859
 20
303.2841045974205
 30
0.0
 10
366.5987058433783
 20
302.9304665591515
 30
0.0
 10
367.5473569426109
 20
302.7503300016808
 30
0.0
 10
369.4452955911675
 20
302.3838073011764
 30
0.0
 10
370.3943402930394
 20
302.1974688420304
 30
0.0
 10
372.2924816897196
 20
301.8188947710484
 30
0.0
 10
373.2416027902393
 20
301.6266556712321
 30
0.0
 10
375.1399324677608
 20
301.2363018897958
 30
0.0
 10
376.0891411475586
 20
301.0381884683854
 30
0.0
 10
377.987565637879
 20
300.6358797754141
 30
0.0
 10
378.9367814024648
 20
300.4316853916874
 30
0.0
 10
380.3604986431167
 20
300.120474301959
 30
0.0
 10
380.8350533611914
 20
300.0159169079741
 30
0.0
 10
381.7840991268449
 20
299.8050635943936
 30
0.0
 10
382.7330715291631
 20
299.5924430227402
 30
0.0
 10
383.6817158983303
 20
299.3756795673633
 30
0.0
 10
384.6301281295295
 20
299.1565945579363
 30
0.0
 10
385.1042423610996
 20
299.0458851731312
 30
0.0
 10
386.5259229276155
 20
298.7100501793469
 30
0.0
 10
387.4728409962364
 20
298.4811676468377
 30
0.0
 10
389.3648599030547
 20
298.0128620727043
 30
0.0
 10
390.3099570558242
 20
297.7734221317758
 30
0.0
 10
392.198767866732
 20
297.2850308803826
 30
0.0
 10
393.1424775070998
 20
297.0360597551145
 30
0.0
 10
394.0860301174981
 20
296.7839295929191
 30
0.0
  0
SPLINE
  5
1D7
330
1F
100
AcDbEntity
  8
1
100
AcDbSpline
210
0.0
220
0.0
230
1.0
 70
     8
 71
     3
 72
    43
 73
    39
 74
     0
 42
0.000000001
 43
0.0000000001
 40
0.0
 40
0.0
 40
0.0
 40
0.0
 40
0.0311516777722311
 40
0.0311516777722311
 40
0.0623033555444621
 40
0.0934550333166924
 40
0.1246067110889227
 40
0.1246067110889227
 40
0.1869100666333833
 40
0.1869100666333833
 40
0.2492134221778438
 40
0.2492134221778438
 40
0.3115167777223045
 40
0.3115167777223045
 40
0.3270926166084198
 40
0.3270926166084198
 40
0.3426684554945352
 40
0.3738201332667651
 40
0.3738201332667651
 40
0.4361234888112257
 40
0.4361234888112257
 40
0.4984268443556862
 40
0.4984268443556862
 40
0.6230335554446084
 40
0.6230335554446084
 40
0.6853369109890694
 40
0.6853369109890694
 40
0.7476402665335304
 40
0.7476402665335304
 40
0.8099436220779914
 40
0.8099436220779914
 40
0.8722469776224523
 40
0.8722469776224523
 40
0.9345503331669133
 40
0.9345503331669133
 40
0.9968536887113742
 40
0.9968536887113742
 40
1.0
 40
1.0
 40
1.0
 40
1.0
 10
402.5414540183608
 20
308.3276236837281
 30
0.0
 10
402.046387938853
 20
308.34608932261
 30
0.0
 10
401.5499200342952
 20
308.3609812165186
 30
0.0
 10
400.5540195095459
 20
308.3844012856047
 30
0.0
 10
399.5551544118218
 20
308.4014595842095
 30
0.0
 10
398.0476943887475
 20
308.4103121786225
 30
0.0
 10
397.0365722991014
 20
308.4065733395485
 30
0.0
 10
395.515345256229
 20
308.3947924901581
 30
0.0
 10
394.4951073647916
 20
308.3787517016976
 30
0.0
 10
392.4435409412835
 20
308.3350592005787
 30
0.0
 10
391.4122184423013
 20
308.3074162487197
 30
0.0
 10
389.3403982893599
 20
308.2438233979004
 30
0.0
 10
388.2999074391212
 20
308.207875563476
 30
0.0
 10
386.9951495924389
 20
308.1587842596967
 30
0.0
 10
386.7340066620828
 20
308.1487546436869
 30
0.0
 10
386.2115571009185
 20
308.1282897087594
 30
0.0
 10
385.4275588396041
 20
308.0969792614015
 30
0.0
 10
384.6427219816415
 20
308.0638560817511
 30
0.0
 10
383.0723074274115
 20
307.995122038031
 30
0.0
 10
382.0243782211851
 20
307.9460235095981
 30
0.0
 10
379.9286662690416
 20
307.8397666317005
 30
0.0
 10
378.8808181628563
 20
307.7826235719439
 30
0.0
 10
375.7375231898062
 20
307.5988767238083
 30
0.0
 10
373.6423348112032
 20
307.460010900759
 30
0.0
 10
370.501012655151
 20
307.2248537481671
 30
0.0
 10
369.4541470808171
 20
307.141977294849
 30
0.0
 10
367.3610373528107
 20
306.9666930171231
 30
0.0
 10
366.3147279606779
 20
306.8742798921155
 30
0.0
 10
364.2236434068319
 20
306.6793189873033
 30
0.0
 10
363.1787851096918
 20
306.5767684255228
 30
0.0
 10
361.0906538627361
 20
306.3606628327987
 30
0.0
 10
360.0473789519207
 20
306.2471137059433
 30
0.0
 10
357.9627203533612
 20
306.0078159584679
 30
0.0
 10
356.9213344758417
 20
305.8820757757611
 30
0.0
 10
354.8409148124211
 20
305.616647929551
 30
0.0
 10
353.801942488229
 20
305.476817610778
 30
0.0
 10
352.711598102765
 20
305.3223443581132
 30
0.0
 10
352.6591854676699
 20
305.3149000946443
 30
0.0
 10
352.6067754455952
 20
305.3074374626427
 30
0.0
  0
SPLINE
  5
1D8
330
1F
100
AcDbEntity
  8
1
100
AcDbSpline
210
0.0
220
0.0
230
1.0
 70
     8
 71
     3
 72
    37
 73
    33
 74
     0
 42
0.000000001
 43
0.0000000001
 40
0.0
 40
0.0
 40
0.0
 40
0.0
 40
0.0625000000000003
 40
0.0625000000000003
 40
0.1250000000000005
 40
0.1250000000000005
 40
0.1875000000000004
 40
0.1875000000000004
 40
0.2500000000000004
 40
0.2500000000000004
 40
0.3125000000000003
 40
0.3125000000000003
 40
0.3281250000000003
 40
0.3281250000000003
 40
0.3437500000000002
 40
0.3750000000000002
 40
0.3750000000000002
 40
0.4375
 40
0.4375
 40
0.4999999999999998
 40
0.4999999999999998
 40
0.6249999999999995
 40
0.6249999999999995
 40
0.7499999999999992
 40
0.7499999999999992
 40
0.8124999999999989
 40
0.8124999999999989
 40
0.8437499999999989
 40
0.8437499999999989
 40
0.8749999999999989
 40
0.8749999999999989
 40
1.0
 40
1.0
 40
1.0
 40
1.0
 10
291.5322589432653
 20
269.8852787053678
 30
0.0
 10
291.2342801618849
 20
269.9042746566834
 30
0.0
 10
290.9409740833211
 20
269.9176074501936
 30
0.0
 10
290.3624850266723
 20
269.934412209763
 30
0.0
 10
290.0773064318338
 20
269.9378819269761
 30
0.0
 10
289.5142102866696
 20
269.9361864037629
 30
0.0
 10
289.2362954180487
 20
269.9310195474116
 30
0.0
 10
288.6871087143469
 20
269.9131002462344
 30
0.0
 10
288.4158385948698
 20
269.9003465739962
 30
0.0
 10
287.8795039238708
 20
269.8681683221538
 30
0.0
 10
287.6144405065133
 20
269.8487427613128
 30
0.0
 10
287.2868032379538
 20
269.820799384645
 30
0.0
 10
287.2214197945302
 20
269.8150236241249
 30
0.0
 10
287.0912528275393
 20
269.8031390876364
 30
0.0
 10
286.8969205382999
 20
269.7848152628198
 30
0.0
 10
286.7052839275057
 20
269.765068535072
 30
0.0
 10
286.3254693994837
 20
269.7238470104697
 30
0.0
 10
286.0768657470886
 20
269.6940650495023
 30
0.0
 10
285.588302759441
 20
269.6307111227126
 30
0.0
 10
285.3483449170575
 20
269.5971380625101
 30
0.0
 10
284.6408324901209
 20
269.4918160570964
 30
0.0
 10
284.1855934503512
 20
269.4154794349757
 30
0.0
 10
283.3061250206083
 20
269.2557263965191
 30
0.0
 10
282.8819119267174
 20
269.1722888455326
 30
0.0
 10
282.2684479260648
 20
269.0454780460303
 30
0.0
 10
282.0677777395712
 20
269.0029320041847
 30
0.0
 10
281.7725146811416
 20
268.9391805088164
 30
0.0
 10
281.6749951063645
 20
268.917929114249
 30
0.0
 10
281.4823048403952
 20
268.8756276209941
 30
0.0
 10
281.3871024186718
 20
268.85457089088
 30
0.0
 10
280.9167719407934
 20
268.7499697523791
 30
0.0
 10
280.5586572288457
 20
268.6684315166482
 30
0.0
 10
280.2185504442805
 20
268.5920277764269
 30
0.0
  0
LINE
  5
1F9
330
1F
100
AcDbEntity
  8
4
100
AcDbLine
 10
268.532259
 20
288.907994
 30
0.0
 11
423.334976
 21
288.907994
 31
0.0
  0
LINE
  5
1FA
330
1F
100
AcDbEntity
  8
SK4
100
AcDbLine
 10
200.904842
 20
288.907994
 30
0.0
 11
277.404842
 21
288.907994
 31
0.0
  0
MTEXT
  5
1FB
330
1F
100
AcDbEntity
  8
SK6
100
AcDbMText
 10
298.851423
 20
241.131885
 30
0.0
 40
3.5
 41
0.0
 71
     7
 72
     5
  1
\W0.7147;803D-40-120-S40
  7
cesky
 73
     2
 44
0.8433729999999998
  0
MTEXT
  5
311
330
1F
100
AcDbEntity
  8
2
100
AcDbMText
 10
343.827842
 20
327.385163
 30
0.0
 40
3.5
 41
0.0
 71
     7
 72
     5
  1
\W0.7809;145
  7
cesky
 73
     2
 44
0.8433729999999998
  0
LINE
  5
312
330
1F
100
AcDbEntity
  8
2
100
AcDbLine
 10
419.4048419999999
 20
308.907994
 30
0.0
 11
419.4048419999999
 21
328.5109970000001
 31
0.0
  0
LINE
  5
313
330
1F
100
AcDbEntity
  8
2
100
AcDbLine
 10
274.404842
 20
289.907567
 30
0.0
 11
274.404842
 21
328.5109970000001
 31
0.0
  0
LINE
  5
314
330
1F
100
AcDbEntity
  8
2
100
AcDbLine
 10
419.4048419999999
 20
327.510997
 30
0.0
 11
274.404842
 21
327.510997
 31
0.0
  0
SOLID
  5
315
330
1F
100
AcDbEntity
  8
2
100
AcDbTrace
 10
419.4048419999999
 20
327.510997
 30
0.0
 11
415.9048439999999
 21
326.893852
 31
0.0
 12
415.9048399999999
 22
328.128141
 32
0.0
 13
415.9048399999999
 23
328.128141
 33
0.0
  0
SOLID
  5
316
330
1F
100
AcDbEntity
  8
2
100
AcDbTrace
 10
274.404842
 20
327.510997
 30
0.0
 11
277.90484
 21
328.128141
 31
0.0
 12
277.904844
 22
326.893852
 32
0.0
 13
277.904844
 23
326.893852
 33
0.0
  0
MTEXT
  5
317
330
1F
100
AcDbEntity
  8
2
100
AcDbMText
 10
434.529104
 20
290.591399
 30
0.0
 40
3.5
 41
0.0
 71
     7
 72
     5
  1
\W0.7045;40
  7
cesky
 11
0.0000000000000001
 21
1.0
 31
0.0
 73
     2
 44
0.8433729999999998
  0
MTEXT
  5
318
330
1F
100
AcDbEntity
  8
2
100
AcDbMText
 10
434.529104
 20
283.853899
 30
0.0
 40
3.5
 41
0.0
 71
     7
 72
     5
  1
\W3.0115;\H2.63;%%c\H3.50;
  7
cesky
 11
0.0000000000000001
 21
1.0
 31
0.0
 73
     2
 44
0.8433729999999998
  0
LINE
  5
319
330
1F
100
AcDbEntity
  8
2
100
AcDbLine
 10
421.404842
 20
308.907994
 30
0.0
 11
435.7165209999999
 21
308.907994
 31
0.0
  0
LINE
  5
31A
330
1F
100
AcDbEntity
  8
2
100
AcDbLine
 10
434.716521
 20
308.907994
 30
0.0
 11
434.716521
 21
283.696399
 31
0.0
  0
SOLID
  5
31B
330
1F
100
AcDbEntity
  8
2
100
AcDbTrace
 10
434.716521
 20
308.907994
 30
0.0
 11
435.333666
 21
305.407996
 31
0.0
 12
434.0993769999999
 22
305.407991
 32
0.0
 13
434.0993769999999
 23
305.407991
 33
0.0
  0
MTEXT
  5
31C
330
1F
100
AcDbEntity
  8
2
100
AcDbMText
 10
308.827842
 20
340.562135
 30
0.0
 40
3.5
 41
0.0
 71
     7
 72
     5
  1
\W0.7809;215
  7
cesky
 73
     2
 44
0.8433729999999998
  0
LINE
  5
31D
330
1F
100
AcDbEntity
  8
2
100
AcDbLine
 10
419.4048419999999
 20
310.907994
 30
0.0
 11
419.4048419999999
 21
341.687968
 31
0.0
  0
LINE
  5
31E
330
1F
100
AcDbEntity
  8
2
100
AcDbLine
 10
204.404842
 20
306.907994
 30
0.0
 11
204.404842
 21
341.687968
 31
0.0
  0
LINE
  5
31F
330
1F
100
AcDbEntity
  8
2
100
AcDbLine
 10
419.4048419999999
 20
340.687968
 30
0.0
 11
204.404842
 21
340.687968
 31
0.0
  0
SOLID
  5
320
330
1F
100
AcDbEntity
  8
2
100
AcDbTrace
 10
419.4048419999999
 20
340.687968
 30
0.0
 11
415.9048439999999
 21
340.070823
 31
0.0
 12
415.9048399999999
 22
341.305112
 32
0.0
 13
415.9048399999999
 23
341.305112
 33
0.0
  0
SOLID
  5
321
330
1F
100
AcDbEntity
  8
2
100
AcDbTrace
 10
204.404842
 20
340.687968
 30
0.0
 11
207.90484
 21
341.305112
 31
0.0
 12
207.904844
 22
340.070823
 32
0.0
 13
207.904844
 23
340.070823
 33
0.0
  0
MTEXT
  5
322
330
1F
100
AcDbEntity
  8
2
100
AcDbMText
 10
237.590342
 20
327.385163
 30
0.0
 40
3.5
 41
0.0
 71
     7
 72
     5
  1
\W0.7045;70
  7
cesky
 73
     2
 44
0.8433729999999998
  0
LINE
  5
323
330
1F
100
AcDbEntity
  8
2
100
AcDbLine
 10
274.404842
 20
288.907994
 30
0.0
 11
274.404842
 21
328.5109970000001
 31
0.0
  0
LINE
  5
324
330
1F
100
AcDbEntity
  8
2
100
AcDbLine
 10
204.404842
 20
306.907994
 30
0.0
 11
204.404842
 21
328.5109970000001
 31
0.0
  0
LINE
  5
325
330
1F
100
AcDbEntity
  8
2
100
AcDbLine
 10
274.404842
 20
327.510997
 30
0.0
 11
204.404842
 21
327.510997
 31
0.0
  0
SOLID
  5
326
330
1F
100
AcDbEntity
  8
2
100
AcDbTrace
 10
274.404842
 20
327.510997
 30
0.0
 11
270.904844
 21
326.893852
 31
0.0
 12
270.90484
 22
328.128141
 32
0.0
 13
270.90484
 23
328.128141
 33
0.0
  0
SOLID
  5
327
330
1F
100
AcDbEntity
  8
2
100
AcDbTrace
 10
204.404842
 20
327.510997
 30
0.0
 11
207.90484
 21
328.128141
 31
0.0
 12
207.904844
 22
326.893852
 32
0.0
 13
207.904844
 23
326.893852
 33
0.0
  0
MTEXT
  5
328
330
1F
100
AcDbEntity
  8
2
100
AcDbMText
 10
351.345793
 20
316.722179
 30
0.0
 40
3.5
 41
0.0
 71
     7
 72
     5
  1
\W0.7809;130
  7
cesky
 73
     2
 44
0.8433729999999998
  0
LINE
  5
329
330
1F
100
AcDbEntity
  8
2
100
AcDbLine
 10
419.4048419999999
 20
310.907994
 30
0.0
 11
419.4048419999999
 21
317.848012
 31
0.0
  0
LINE
  5
32A
330
1F
100
AcDbEntity
  8
2
100
AcDbLine
 10
289.440743
 20
309.445216
 30
0.0
 11
289.440743
 21
317.848012
 31
0.0
  0
LINE
  5
32B
330
1F
100
AcDbEntity
  8
2
100
AcDbLine
 10
419.4048419999999
 20
316.848012
 30
0.0
 11
289.440743
 21
316.848012
 31
0.0
  0
SOLID
  5
32C
330
1F
100
AcDbEntity
  8
2
100
AcDbTrace
 10
419.4048419999999
 20
316.848012
 30
0.0
 11
415.9048439999999
 21
316.2308680000001
 31
0.0
 12
415.9048399999999
 22
317.465157
 32
0.0
 13
415.9048399999999
 23
317.465157
 33
0.0
  0
SOLID
  5
32D
330
1F
100
AcDbEntity
  8
2
100
AcDbTrace
 10
289.440743
 20
316.848012
 30
0.0
 11
292.940741
 21
317.465157
 31
0.0
 12
292.940745
 22
316.2308680000001
 32
0.0
 13
292.940745
 23
316.2308680000001
 33
0.0
  0
MTEXT
  5
32E
330
1F
100
AcDbEntity
  8
SK2
100
AcDbMText
 10
193.809415
 20
290.434244
 30
0.0
 40
3.5
 41
0.0
 71
     7
 72
     5
  1
\W0.7045;40
  7
cesky
 11
0.0000000000000001
 21
1.0
 31
0.0
 73
     2
 44
0.8433729999999998
  0
MTEXT
  5
32F
330
1F
100
AcDbEntity
  8
SK2
100
AcDbMText
 10
193.809415
 20
283.696744
 30
0.0
 40
3.5
 41
0.0
 71
     7
 72
     5
  1
\W3.0115;\H2.63;%%c\H3.50;
  7
cesky
 11
0.0000000000000001
 21
1.0
 31
0.0
 73
     2
 44
0.8433729999999998
  0
LINE
  5
330
330
1F
100
AcDbEntity
  8
SK2
100
AcDbLine
 10
206.404842
 20
308.907994
 30
0.0
 11
192.996832
 21
308.907994
 31
0.0
  0
LINE
  5
331
330
1F
100
AcDbEntity
  8
SK2
100
AcDbLine
 10
206.404842
 20
268.907994
 30
0.0
 11
192.996832
 21
268.907994
 31
0.0
  0
LINE
  5
332
330
1F
100
AcDbEntity
  8
SK2
100
AcDbLine
 10
193.996832
 20
308.907994
 30
0.0
 11
193.996832
 21
268.907994
 31
0.0
  0
SOLID
  5
333
330
1F
100
AcDbEntity
  8
SK2
100
AcDbTrace
 10
193.996832
 20
308.907994
 30
0.0
 11
194.613977
 21
305.407996
 31
0.0
 12
193.379688
 22
305.407991
 32
0.0
 13
193.379688
 23
305.407991
 33
0.0
  0
SOLID
  5
334
330
1F
100
AcDbEntity
  8
SK2
100
AcDbTrace
 10
193.996832
 20
268.907994
 30
0.0
 11
193.379688
 21
272.407991
 31
0.0
 12
194.613977
 22
272.407996
 32
0.0
 13
194.613977
 23
272.407996
 33
0.0
  0
MTEXT
  5
335
330
1F
100
AcDbEntity
  8
SK2
100
AcDbMText
 10
182.001083
 20
290.434244
 30
0.0
 40
3.5
 41
0.0
 71
     7
 72
     5
  1
\W0.7045;50
  7
cesky
 11
0.0000000000000001
 21
1.0
 31
0.0
 73
     2
 44
0.8433729999999998
  0
MTEXT
  5
336
330
1F
100
AcDbEntity
  8
SK2
100
AcDbMText
 10
182.001083
 20
283.696744
 30
0.0
 40
3.5
 41
0.0
 71
     7
 72
     5
  1
\W3.0115;\H2.63;%%c\H3.50;
  7
cesky
 11
0.0000000000000001
 21
1.0
 31
0.0
 73
     2
 44
0.8433729999999998
  0
LINE
  5
337
330
1F
100
AcDbEntity
  8
SK2
100
AcDbLine
 10
274.904842
 20
313.907994
 30
0.0
 11
181.188499
 21
313.907994
 31
0.0
  0
LINE
  5
338
330
1F
100
AcDbEntity
  8
SK2
100
AcDbLine
 10
274.904842
 20
263.907994
 30
0.0
 11
181.188499
 21
263.907994
 31
0.0
  0
LINE
  5
339
330
1F
100
AcDbEntity
  8
SK2
100
AcDbLine
 10
182.188499
 20
313.907994
 30
0.0
 11
182.188499
 21
263.907994
 31
0.0
  0
SOLID
  5
33A
330
1F
100
AcDbEntity
  8
SK2
100
AcDbTrace
 10
182.188499
 20
313.907994
 30
0.0
 11
182.805644
 21
310.407996
 31
0.0
 12
181.571355
 22
310.407991
 32
0.0
 13
181.571355
 23
310.407991
 33
0.0
  0
SOLID
  5
33B
330
1F
100
AcDbEntity
  8
SK2
100
AcDbTrace
 10
182.188499
 20
263.907994
 30
0.0
 11
181.571355
 21
267.4079910000001
 31
0.0
 12
182.805644
 22
267.407996
 32
0.0
 13
182.805644
 23
267.407996
 33
0.0
  0
LINE
  5
33C
330
1F
100
AcDbEntity
  8
CUT
100
AcDbLine
 10
418.9284136248276
 20
299.1856563758528
 30
0.0
 11
419.2532685852162
 21
298.6450339436931
 31
0.0
  0
LINE
  5
33E
330
1F
100
AcDbEntity
  8
CUT
100
AcDbLine
 10
418.6065532926149
 20
308.1584802389063
 30
0.0
 11
418.9284136248276
 21
299.1856563758529
 31
0.0
  0
LINE
  5
340
330
1F
100
AcDbEntity
  8
CUT
100
AcDbLine
 10
406.6647256653424
 20
308.4982370231553
 30
0.0
 11
417.8029048644206
 21
308.9050794055566
 31
0.0
  0
LINE
  5
341
330
1F
100
AcDbEntity
  8
CUT
100
AcDbLine
 10
419.2532685852162
 20
298.6450339436931
 30
0.0
 11
419.4048419452957
 21
289.9656265947038
 31
0.0
  0
LINE
  5
342
330
1F
100
AcDbEntity
  8
CUT
100
AcDbLine
 10
419.4048419999999
 20
288.907994
 30
0.0
 11
405.9166079999999
 21
288.907994
 31
0.0
  0
LINE
  5
343
330
1F
100
AcDbEntity
  8
CUT
100
AcDbLine
 10
405.9166079999999
 20
288.907994
 30
0.0
 11
405.9166079999999
 21
307.694592
 31
0.0
  0
LINE
  5
344
330
1F
100
AcDbEntity
  8
CUT
100
AcDbLine
 10
419.4048419999999
 20
289.965627
 30
0.0
 11
419.4048419999999
 21
288.907994
 31
0.0
  0
LINE
  5
345
330
1F
100
AcDbEntity
  8
CUT
100
AcDbLine
 10
405.9166080137982
 20
307.6945915302146
 30
0.0
 11
405.9166080137982
 21
307.6945915302146
 31
0.0
  0
ARC
  5
346
330
1F
100
AcDbEntity
  8
CUT
100
AcDbCircle
 10
406.6984505363279
 20
307.7168063721599
 30
0.0
 40
0.7821580589869655
100
AcDbArc
 50
92.47122942019016
 51
181.6275327703462
  0
LINE
  5
347
330
1F
100
AcDbEntity
  8
CUT
100
AcDbLine
 10
417.8029048644206
 20
308.9050794055566
 30
0.0
 11
417.8029048644206
 21
308.9050794055566
 31
0.0
  0
ARC
  5
348
330
1F
100
AcDbEntity
  8
CUT
100
AcDbCircle
 10
417.8265887295038
 20
308.1247449490405
 30
0.0
 40
0.7806937872762231
100
AcDbArc
 50
2.476632715389924
 51
91.73844568255232
  0
ENDSEC
  0
SECTION
  2
OBJECTS
  0
DICTIONARY
  5
C
330
0
100
AcDbDictionary
281
     1
  3
ACAD_CIP_PREVIOUS_PRODUCT_INFO
350
30E
  3
ACAD_COLOR
350
309
  3
ACAD_DETAILVIEWSTYLE
350
305
  3
ACAD_GROUP
350
D
  3
ACAD_LAYOUT
350
1A
  3
ACAD_MATERIAL
350
43
  3
ACAD_MLEADERSTYLE
350
6B
  3
ACAD_MLINESTYLE
350
17
  3
ACAD_PLOTSETTINGS
350
19
  3
ACAD_PLOTSTYLENAME
350
E
  3
ACAD_SCALELIST
350
47
  3
ACAD_SECTIONVIEWSTYLE
350
306
  3
ACAD_TABLESTYLE
350
69
  3
ACAD_VISUALSTYLE
350
2A
  3
ACDB_RECOMPOSE_DATA
350
374
  3
AcDbVariableDictionary
350
2C2
  0
DICTIONARY
  5
357
330
10
100
AcDbDictionary
280
     1
281
     1
  3
ADSK_XREC_LAYER_RECONCILED
360
358
  0
DICTIONARY
  5
359
330
349
100
AcDbDictionary
280
     1
281
     1
  3
ADSK_XREC_LAYER_RECONCILED
360
35A
  0
DICTIONARY
  5
35B
330
34A
100
AcDbDictionary
280
     1
281
     1
  3
ADSK_XREC_LAYER_RECONCILED
360
35C
  0
DICTIONARY
  5
35D
330
34B
100
AcDbDictionary
280
     1
281
     1
  3
ADSK_XREC_LAYER_RECONCILED
360
35E
  0
DICTIONARY
  5
35F
330
34D
100
AcDbDictionary
280
     1
281
     1
  3
ADSK_XREC_LAYER_RECONCILED
360
360
  0
DICTIONARY
  5
361
330
34E
100
AcDbDictionary
280
     1
281
     1
  3
ADSK_XREC_LAYER_RECONCILED
360
362
  0
DICTIONARY
  5
363
330
350
100
AcDbDictionary
280
     1
281
     1
  3
ADSK_XREC_LAYER_RECONCILED
360
364
  0
DICTIONARY
  5
365
330
351
100
AcDbDictionary
280
     1
281
     1
  3
ADSK_XREC_LAYER_RECONCILED
360
366
  0
DICTIONARY
  5
367
330
352
100
AcDbDictionary
280
     1
281
     1
  3
ADSK_XREC_LAYER_RECONCILED
360
368
  0
DICTIONARY
  5
369
330
353
100
AcDbDictionary
280
     1
281
     1
  3
ADSK_XREC_LAYER_RECONCILED
360
36A
  0
DICTIONARY
  5
36B
330
354
100
AcDbDictionary
280
     1
281
     1
  3
ADSK_XREC_LAYER_RECONCILED
360
36C
  0
DICTIONARY
  5
36D
330
355
100
AcDbDictionary
280
     1
281
     1
  3
ADSK_XREC_LAYER_RECONCILED
360
36E
  0
DICTIONARY
  5
30F
330
1F
100
AcDbDictionary
280
     1
281
     1
  3
ACAD_SORTENTS
360
310
  0
XRECORD
  5
30E
102
{ACAD_REACTORS
330
C
102
}
330
C
100
AcDbXrecord
280
     1
300
ACD
300
2019
300
87084ACD_2019_0F
  0
DICTIONARY
  5
309
102
{ACAD_REACTORS
330
C
102
}
330
C
100
AcDbDictionary
281
     1
  0
DICTIONARY
  5
305
102
{ACAD_REACTORS
330
C
102
}
330
C
100
AcDbDictionary
281
     1
  3
Metric50
350
30B
  0
DICTIONARY
  5
D
102
{ACAD_REACTORS
330
C
102
}
330
C
100
AcDbDictionary
281
     1
  3
NULOVY_BOD
350
356
  0
DICTIONARY
  5
1A
102
{ACAD_REACTORS
330
C
102
}
330
C
100
AcDbDictionary
281
     1
  3
Layout1
350
1E
  3
Layout2
350
26
  3
Model
350
22
  0
DICTIONARY
  5
43
102
{ACAD_REACTORS
330
C
102
}
330
C
100
AcDbDictionary
281
     1
  3
ByBlock
350
45
  3
ByLayer
350
44
  3
Global
350
46
  0
DICTIONARY
  5
6B
102
{ACAD_REACTORS
330
C
102
}
330
C
100
AcDbDictionary
281
     1
  3
Standard
350
6C
  0
DICTIONARY
  5
17
102
{ACAD_REACTORS
330
C
102
}
330
C
100
AcDbDictionary
281
     1
  3
Standard
350
18
  0
DICTIONARY
  5
19
102
{ACAD_REACTORS
330
C
102
}
330
C
100
AcDbDictionary
281
     1
  0
ACDBDICTIONARYWDFLT
  5
E
102
{ACAD_REACTORS
330
C
102
}
330
C
100
AcDbDictionary
281
     1
  3
Normal
350
F
100
AcDbDictionaryWithDefault
340
F
  0
DICTIONARY
  5
47
102
{ACAD_REACTORS
330
C
102
}
330
C
100
AcDbDictionary
281
     1
  3
A0
350
48
  3
A1
350
49
  3
A2
350
4A
  3
A3
350
4B
  3
A4
350
4C
  3
A5
350
4D
  3
A6
350
4E
  3
A7
350
4F
  3
A8
350
50
  3
A9
350
51
  3
B0
350
52
  3
B1
350
53
  3
B2
350
54
  3
B3
350
55
  3
B4
350
56
  3
B5
350
57
  3
B6
350
58
  3
B7
350
59
  3
B8
350
5A
  3
B9
350
5B
  3
C0
350
5C
  3
C1
350
5D
  3
C2
350
5E
  3
C3
350
5F
  3
C4
350
60
  3
C5
350
61
  3
C6
350
62
  3
C7
350
63
  3
C8
350
64
  3
C9
350
65
  3
D0
350
66
  3
D1
350
67
  3
D2
350
68
  0
DICTIONARY
  5
306
102
{ACAD_REACTORS
330
C
102
}
330
C
100
AcDbDictionary
281
     1
  3
Metric50
350
30A
  0
DICTIONARY
  5
69
102
{ACAD_REACTORS
330
C
102
}
330
C
100
AcDbDictionary
281
     1
  3
Standard
350
6A
  0
DICTIONARY
  5
2A
102
{ACAD_REACTORS
330
C
102
}
330
C
100
AcDbDictionary
281
     1
  3
2dWireframe
350
2F
  3
Basic
350
32
  3
Brighten
350
36
  3
ColorChange
350
3A
  3
Conceptual
350
34
  3
Dim
350
35
  3
EdgeColorOff
350
3D
  3
Facepattern
350
39
  3
Flat
350
2B
  3
FlatWithEdges
350
2C
  3
Gouraud
350
2D
  3
GouraudWithEdges
350
2E
  3
Hidden
350
31
  3
JitterOff
350
3B
  3
Linepattern
350
38
  3
OverhangOff
350
3C
  3
Realistic
350
33
  3
Shaded
350
42
  3
Shaded with edges
350
41
  3
Shades of Gray
350
3E
  3
Sketchy
350
3F
  3
Thicken
350
37
  3
Wireframe
350
30
  3
X-Ray
350
40
  0
XRECORD
  5
374
102
{ACAD_REACTORS
330
C
102
}
330
C
100
AcDbXrecord
280
     1
 90
        1
330
6A
  0
DICTIONARY
  5
2C2
102
{ACAD_REACTORS
330
C
102
}
330
C
100
AcDbDictionary
281
     1
  3
CANNOSCALE
350
2C3
  3
CMLEADERSTYLE
350
304
  3
CTABLESTYLE
350
303
  3
CVIEWDETAILSTYLE
350
36F
  3
CVIEWSECTIONSTYLE
350
370
  3
MSLTSCALE
350
2C4
  3
XCLIPFRAME
350
371
  0
XRECORD
  5
358
102
{ACAD_REACTORS
330
357
102
}
330
357
100
AcDbXrecord
280
     1
290
     1
  0
XRECORD
  5
35A
102
{ACAD_REACTORS
330
359
102
}
330
359
100
AcDbXrecord
280
     1
290
     1
  0
XRECORD
  5
35C
102
{ACAD_REACTORS
330
35B
102
}
330
35B
100
AcDbXrecord
280
     1
290
     1
  0
XRECORD
  5
35E
102
{ACAD_REACTORS
330
35D
102
}
330
35D
100
AcDbXrecord
280
     1
290
     1
  0
XRECORD
  5
360
102
{ACAD_REACTORS
330
35F
102
}
330
35F
100
AcDbXrecord
280
     1
290
     1
  0
XRECORD
  5
362
102
{ACAD_REACTORS
330
361
102
}
330
361
100
AcDbXrecord
280
     1
290
     1
  0
XRECORD
  5
364
102
{ACAD_REACTORS
330
363
102
}
330
363
100
AcDbXrecord
280
     1
290
     1
  0
XRECORD
  5
366
102
{ACAD_REACTORS
330
365
102
}
330
365
100
AcDbXrecord
280
     1
290
     1
  0
XRECORD
  5
368
102
{ACAD_REACTORS
330
367
102
}
330
367
100
AcDbXrecord
280
     1
290
     1
  0
XRECORD
  5
36A
102
{ACAD_REACTORS
330
369
102
}
330
369
100
AcDbXrecord
280
     1
290
     1
  0
XRECORD
  5
36C
102
{ACAD_REACTORS
330
36B
102
}
330
36B
100
AcDbXrecord
280
     1
290
     1
  0
XRECORD
  5
36E
102
{ACAD_REACTORS
330
36D
102
}
330
36D
100
AcDbXrecord
280
     1
290
     1
  0
SORTENTSTABLE
  5
310
102
{ACAD_REACTORS
330
30F
102
}
330
30F
100
AcDbSortentsTable
330
1F
331
311
  5
234
331
312
  5
24D
331
313
  5
311
331
314
  5
312
331
315
  5
313
331
316
  5
314
331
317
  5
315
331
318
  5
316
331
319
  5
317
331
31A
  5
318
331
31B
  5
319
331
31C
  5
32A
331
31D
  5
32B
331
31E
  5
32C
331
31F
  5
32D
331
320
  5
32E
331
321
  5
32F
331
322
  5
330
331
323
  5
331
331
324
  5
332
331
325
  5
333
331
326
  5
334
331
327
  5
335
331
328
  5
336
331
329
  5
337
331
32A
  5
338
331
32B
  5
339
331
32C
  5
33A
331
32D
  5
33B
331
32E
  5
31C
331
32F
  5
31D
331
330
  5
31E
331
331
  5
31F
331
332
  5
320
331
333
  5
321
331
334
  5
322
331
335
  5
323
331
336
  5
324
331
337
  5
325
331
338
  5
326
331
339
  5
327
331
33A
  5
328
331
33B
  5
329
331
33E
  5
341
331
340
  5
344
331
341
  5
345
331
342
  5
346
331
343
  5
347
331
344
  5
348
331
345
  5
33E
331
346
  5
340
331
347
  5
342
331
348
  5
343
  0
ACDBDETAILVIEWSTYLE
  5
30B
102
{ACAD_XDICTIONARY
360
3A8
102
}
102
{ACAD_REACTORS
330
305
102
}
330
305
100
AcDbModelDocViewStyle
 70
     0
  3
Metric50
290
     0
100
AcDbDetailViewStyle
 70
     0
 71
     0
 90
        3
 71
     1
340
11
 62
   256
 40
5.0
340
0
 62
   256
 40
5.0
300

 40
0.0
280
     1
 71
     2
340
16
 90
       25
 62
   256
 71
     3
340
11
 62
   256
 40
5.0
 90
        0
 40
15.0
 90
        1
300
%<\AcVar ViewDetailId>% (%<\AcVar ViewScale \f "%sn">%)
 71
     4
340
16
 90
       25
 62
   256
340
16
 90
       25
 62
   256
280
     0
  0
GROUP
  5
356
102
{ACAD_REACTORS
330
D
102
}
330
D
100
AcDbGroup
300

 70
     0
 71
     1
340
73
  0
LAYOUT
  5
1E
102
{ACAD_REACTORS
330
1A
102
}
330
1A
100
AcDbPlotSettings
  1

  2
none_device
  4

  6

 40
0.0
 41
0.0
 42
0.0
 43
0.0
 44
0.0
 45
0.0
 46
0.0
 47
0.0
 48
0.0
 49
0.0
140
0.0
141
0.0
142
1.0
143
1.0
 70
   688
 72
     0
 73
     0
 74
     5
  7

 75
    16
147
1.0
 76
     0
 77
     2
 78
   300
148
0.0
149
0.0
100
AcDbLayout
  1
Layout1
 70
     1
 71
     1
 10
-0.5
 20
-0.5
 11
5.0
 21
5.0
 12
0.0
 22
0.0
 32
0.0
 14
-0.5
 24
-0.5
 34
-0.5
 15
5.0
 25
5.0
 35
5.0
146
0.0
 13
0.0
 23
0.0
 33
0.0
 16
1.0
 26
0.0
 36
0.0
 17
0.0
 27
1.0
 37
0.0
 76
     0
330
1B
  0
LAYOUT
  5
26
102
{ACAD_REACTORS
330
1A
102
}
330
1A
100
AcDbPlotSettings
  1

  2
none_device
  4

  6

 40
0.0
 41
0.0
 42
0.0
 43
0.0
 44
0.0
 45
0.0
 46
0.0
 47
0.0
 48
0.0
 49
0.0
140
0.0
141
0.0
142
1.0
143
1.0
 70
   688
 72
     0
 73
     0
 74
     5
  7

 75
    16
147
1.0
 76
     0
 77
     2
 78
   300
148
0.0
149
0.0
100
AcDbLayout
  1
Layout2
 70
     1
 71
     2
 10
0.0
 20
0.0
 11
0.0
 21
0.0
 12
0.0
 22
0.0
 32
0.0
 14
0.0
 24
0.0
 34
0.0
 15
0.0
 25
0.0
 35
0.0
146
0.0
 13
0.0
 23
0.0
 33
0.0
 16
1.0
 26
0.0
 36
0.0
 17
0.0
 27
1.0
 37
0.0
 76
     0
330
23
  0
LAYOUT
  5
22
102
{ACAD_REACTORS
330
1A
102
}
330
1A
100
AcDbPlotSettings
  1

  2
none_device
  4
Letter_(8.50_x_11.00_Inches)
  6

 40
6.349999999999999
 41
6.349999999999999
 42
6.350005
 43
6.350005
 44
215.9
 45
279.4
 46
0.0
 47
0.0
 48
0.0
 49
0.0
140
0.0
141
0.0
142
1.0
143
1.0
 70
  1712
 72
     0
 73
     0
 74
     0
  7

 75
     0
147
1.0
 76
     0
 77
     2
 78
   300
148
0.0
149
0.0
100
AcDbLayout
  1
Model
 70
     1
 71
     0
 10
-0.5
 20
-0.5
 11
5.0
 21
5.0
 12
0.0
 22
0.0
 32
0.0
 14
-0.5
 24
-0.5
 34
-0.5
 15
5.0
 25
5.0
 35
5.0
146
0.0
 13
0.0
 23
0.0
 33
0.0
 16
1.0
 26
0.0
 36
0.0
 17
0.0
 27
1.0
 37
0.0
 76
     0
330
1F
331
29
  0
MATERIAL
  5
45
102
{ACAD_XDICTIONARY
360
2F8
102
}
102
{ACAD_REACTORS
330
43
102
}
330
43
100
AcDbMaterial
  1
ByBlock
  0
MATERIAL
  5
44
102
{ACAD_XDICTIONARY
360
2F6
102
}
102
{ACAD_REACTORS
330
43
102
}
330
43
100
AcDbMaterial
  1
ByLayer
  0
MATERIAL
  5
46
102
{ACAD_XDICTIONARY
360
2FA
102
}
102
{ACAD_REACTORS
330
43
102
}
330
43
100
AcDbMaterial
  1
Global
  0
MLEADERSTYLE
  5
6C
102
{ACAD_REACTORS
330
6B
102
}
330
6B
100
AcDbMLeaderStyle
170
     2
171
     1
172
     0
 90
        2
 40
0.0
 41
0.0
173
     1
 91
-1056964608
340
14
 92
       -2
290
     1
 42
0.09
291
     1
 43
0.36
  3
Standard
 44
0.18
300

342
11
174
     1
178
     6
175
     1
176
     0
 93
-1056964608
 45
0.18
292
     0
297
     0
 46
0.18
 94
-1056964608
 47
1.0
 49
1.0
140
1.0
293
     1
141
0.0
294
     1
177
     0
142
1.0
295
     0
296
     0
143
0.125
1001
ACAD_MLEADERVER
1070
     2
  0
MLINESTYLE
  5
18
102
{ACAD_REACTORS
330
17
102
}
330
17
100
AcDbMlineStyle
  2
STANDARD
 70
     0
  3

 62
   256
 51
90.0
 52
90.0
 71
     2
 49
0.5
 62
   256
  6
BYLAYER
 49
-0.5
 62
   256
  6
BYLAYER
  0
ACDBPLACEHOLDER
  5
F
102
{ACAD_REACTORS
330
E
102
}
330
E
  0
SCALE
  5
48
102
{ACAD_REACTORS
330
47
102
}
330
47
100
AcDbScale
 70
     0
300
1:1
140
1.0
141
1.0
290
     1
  0
SCALE
  5
49
102
{ACAD_REACTORS
330
47
102
}
330
47
100
AcDbScale
 70
     0
300
1:2
140
1.0
141
2.0
290
     0
  0
SCALE
  5
4A
102
{ACAD_REACTORS
330
47
102
}
330
47
100
AcDbScale
 70
     0
300
1:4
140
1.0
141
4.0
290
     0
  0
SCALE
  5
4B
102
{ACAD_REACTORS
330
47
102
}
330
47
100
AcDbScale
 70
     0
300
1:5
140
1.0
141
5.0
290
     0
  0
SCALE
  5
4C
102
{ACAD_REACTORS
330
47
102
}
330
47
100
AcDbScale
 70
     0
300
1:8
140
1.0
141
8.0
290
     0
  0
SCALE
  5
4D
102
{ACAD_REACTORS
330
47
102
}
330
47
100
AcDbScale
 70
     0
300
1:10
140
1.0
141
10.0
290
     0
  0
SCALE
  5
4E
102
{ACAD_REACTORS
330
47
102
}
330
47
100
AcDbScale
 70
     0
300
1:16
140
1.0
141
16.0
290
     0
  0
SCALE
  5
4F
102
{ACAD_REACTORS
330
47
102
}
330
47
100
AcDbScale
 70
     0
300
1:20
140
1.0
141
20.0
290
     0
  0
SCALE
  5
50
102
{ACAD_REACTORS
330
47
102
}
330
47
100
AcDbScale
 70
     0
300
1:30
140
1.0
141
30.0
290
     0
  0
SCALE
  5
51
102
{ACAD_REACTORS
330
47
102
}
330
47
100
AcDbScale
 70
     0
300
1:40
140
1.0
141
40.0
290
     0
  0
SCALE
  5
52
102
{ACAD_REACTORS
330
47
102
}
330
47
100
AcDbScale
 70
     0
300
1:50
140
1.0
141
50.0
290
     0
  0
SCALE
  5
53
102
{ACAD_REACTORS
330
47
102
}
330
47
100
AcDbScale
 70
     0
300
1:100
140
1.0
141
100.0
290
     0
  0
SCALE
  5
54
102
{ACAD_REACTORS
330
47
102
}
330
47
100
AcDbScale
 70
     0
300
2:1
140
2.0
141
1.0
290
     0
  0
SCALE
  5
55
102
{ACAD_REACTORS
330
47
102
}
330
47
100
AcDbScale
 70
     0
300
4:1
140
4.0
141
1.0
290
     0
  0
SCALE
  5
56
102
{ACAD_REACTORS
330
47
102
}
330
47
100
AcDbScale
 70
     0
300
8:1
140
8.0
141
1.0
290
     0
  0
SCALE
  5
57
102
{ACAD_REACTORS
330
47
102
}
330
47
100
AcDbScale
 70
     0
300
10:1
140
10.0
141
1.0
290
     0
  0
SCALE
  5
58
102
{ACAD_REACTORS
330
47
102
}
330
47
100
AcDbScale
 70
     0
300
100:1
140
100.0
141
1.0
290
     0
  0
SCALE
  5
59
102
{ACAD_REACTORS
330
47
102
}
330
47
100
AcDbScale
 70
     0
300
1/128" = 1'-0"
140
0.007812
141
12.0
290
     0
  0
SCALE
  5
5A
102
{ACAD_REACTORS
330
47
102
}
330
47
100
AcDbScale
 70
     0
300
1/64" = 1'-0"
140
0.015625
141
12.0
290
     0
  0
SCALE
  5
5B
102
{ACAD_REACTORS
330
47
102
}
330
47
100
AcDbScale
 70
     0
300
1/32" = 1'-0"
140
0.03125
141
12.0
290
     0
  0
SCALE
  5
5C
102
{ACAD_REACTORS
330
47
102
}
330
47
100
AcDbScale
 70
     0
300
1/16" = 1'-0"
140
0.0625
141
12.0
290
     0
  0
SCALE
  5
5D
102
{ACAD_REACTORS
330
47
102
}
330
47
100
AcDbScale
 70
     0
300
3/32" = 1'-0"
140
0.09375
141
12.0
290
     0
  0
SCALE
  5
5E
102
{ACAD_REACTORS
330
47
102
}
330
47
100
AcDbScale
 70
     0
300
1/8" = 1'-0"
140
0.125
141
12.0
290
     0
  0
SCALE
  5
5F
102
{ACAD_REACTORS
330
47
102
}
330
47
100
AcDbScale
 70
     0
300
3/16" = 1'-0"
140
0.1875
141
12.0
290
     0
  0
SCALE
  5
60
102
{ACAD_REACTORS
330
47
102
}
330
47
100
AcDbScale
 70
     0
300
1/4" = 1'-0"
140
0.25
141
12.0
290
     0
  0
SCALE
  5
61
102
{ACAD_REACTORS
330
47
102
}
330
47
100
AcDbScale
 70
     0
300
3/8" = 1'-0"
140
0.375
141
12.0
290
     0
  0
SCALE
  5
62
102
{ACAD_REACTORS
330
47
102
}
330
47
100
AcDbScale
 70
     0
300
1/2" = 1'-0"
140
0.5
141
12.0
290
     0
  0
SCALE
  5
63
102
{ACAD_REACTORS
330
47
102
}
330
47
100
AcDbScale
 70
     0
300
3/4" = 1'-0"
140
0.75
141
12.0
290
     0
  0
SCALE
  5
64
102
{ACAD_REACTORS
330
47
102
}
330
47
100
AcDbScale
 70
     0
300
1" = 1'-0"
140
1.0
141
12.0
290
     0
  0
SCALE
  5
65
102
{ACAD_REACTORS
330
47
102
}
330
47
100
AcDbScale
 70
     0
300
1-1/2" = 1'-0"
140
1.5
141
12.0
290
     0
  0
SCALE
  5
66
102
{ACAD_REACTORS
330
47
102
}
330
47
100
AcDbScale
 70
     0
300
3" = 1'-0"
140
3.0
141
12.0
290
     0
  0
SCALE
  5
67
102
{ACAD_REACTORS
330
47
102
}
330
47
100
AcDbScale
 70
     0
300
6" = 1'-0"
140
6.0
141
12.0
290
     0
  0
SCALE
  5
68
102
{ACAD_REACTORS
330
47
102
}
330
47
100
AcDbScale
 70
     0
300
1'-0" = 1'-0"
140
12.0
141
12.0
290
     0
  0
ACDBSECTIONVIEWSTYLE
  5
30A
102
{ACAD_XDICTIONARY
360
3A6
102
}
102
{ACAD_REACTORS
330
306
102
}
330
306
100
AcDbModelDocViewStyle
 70
     0
  3
Metric50
290
     0
100
AcDbSectionViewStyle
 70
     0
 71
     0
 90
      102
 71
     1
340
11
 62
   256
 40
5.0
340
0
340
0
 62
   256
 40
5.0
300
I, O, Q, S, X, Z
 40
10.0
 90
        0
 40
2.5
 90
        0
 71
     2
340
16
 90
       25
 62
   256
340
16
 90
       50
 62
   256
 40
5.0
 40
2.5
 40
5.0
 71
     3
340
11
 62
   256
 40
5.0
 90
        0
 40
15.0
 90
        1
300
%<\AcVar ViewSectionStartId>%-%<\AcVar ViewSectionEndId>% (%<\AcVar ViewScale \f "%sn">%)
 71
     4
 62
   256
 62
   257
300
ANSI31
 40
1.0
 90
        0
290
     0
290
     0
 90
        6
 40
0.0
 40
1.570796326794896
 40
0.2617993877991494
 40
1.308996938995747
 40
-0.2617993877991494
 40
1.832595714594046
  0
TABLESTYLE
  5
6A
102
{ACAD_XDICTIONARY
360
2FC
102
}
102
{ACAD_REACTORS
330
69
102
}
330
69
100
AcDbTableStyle
  3
Standard
 70
     0
 71
     0
 40
0.06
 41
0.06
280
     0
281
     0
  7
Standard
140
0.18
170
     2
 62
     0
 63
     7
283
     0
274
    -2
284
     1
 64
     0
275
    -2
285
     1
 65
     0
276
    -2
286
     1
 66
     0
277
    -2
287
     1
 67
     0
278
    -2
288
     1
 68
     0
279
    -2
289
     1
 69
     0
  7
Standard
140
0.25
170
     5
 62
     0
 63
     7
283
     0
274
    -2
284
     1
 64
     0
275
    -2
285
     1
 65
     0
276
    -2
286
     1
 66
     0
277
    -2
287
     1
 67
     0
278
    -2
288
     1
 68
     0
279
    -2
289
     1
 69
     0
  7
Standard
140
0.18
170
     5
 62
     0
 63
     7
283
     0
274
    -2
284
     1
 64
     0
275
    -2
285
     1
 65
     0
276
    -2
286
     1
 66
     0
277
    -2
287
     1
 67
     0
278
    -2
288
     1
 68
     0
279
    -2
289
     1
 69
     0
  0
VISUALSTYLE
  5
2F
102
{ACAD_XDICTIONARY
360
37D
102
}
102
{ACAD_REACTORS
330
2A
102
}
330
2A
100
AcDbVisualStyle
  2

 70
     4
 71
     0
 72
     2
 73
     0
 90
        0
 40
-0.6
 41
-30.0
 62
     5
 63
     7
421
 16777215
 74
     1
 91
        4
 64
     7
 65
   257
 75
     1
175
     1
 42
1.0
 92
        0
 66
   257
 43
1.0
 76
     1
 77
     6
 78
     2
 67
     7
 79
     5
170
     0
171
     0
290
     0
174
     0
 93
        1
 44
0.0
173
     0
291
     0
 45
0.0
1001
ACAD
1000
AcDbSavedByObjectVersion
1070
     0
  0
VISUALSTYLE
  5
32
102
{ACAD_XDICTIONARY
360
383
102
}
102
{ACAD_REACTORS
330
2A
102
}
330
2A
100
AcDbVisualStyle
  2

 70
     7
 71
     1
 72
     0
 73
     1
 90
        0
 40
-0.6
 41
-30.0
 62
     5
 63
     7
421
 16777215
 74
     0
 91
        4
 64
     7
 65
   257
 75
     1
175
     1
 42
1.0
 92
        8
 66
     7
 43
1.0
 76
     1
 77
     6
 78
     2
 67
     7
 79
     5
170
     0
171
     0
290
     0
174
     0
 93
        1
 44
0.0
173
     0
291
     1
 45
0.0
1001
ACAD
1000
AcDbSavedByObjectVersion
1070
     0
  0
VISUALSTYLE
  5
36
102
{ACAD_XDICTIONARY
360
38B
102
}
102
{ACAD_REACTORS
330
2A
102
}
330
2A
100
AcDbVisualStyle
  2

 70
    12
 71
     2
 72
     2
 73
     0
 90
        0
 40
-0.6
 41
-30.0
 62
     5
 63
     7
421
 16777215
 74
     1
 91
        4
 64
     7
 65
   257
 75
     1
175
     1
 42
1.0
 92
        8
 66
     7
 43
1.0
 76
     1
 77
     6
 78
     2
 67
     7
 79
     5
170
     0
171
     0
290
     0
174
     0
 93
        1
 44
50.0
173
     0
291
     1
 45
0.0
1001
ACAD
1000
AcDbSavedByObjectVersion
1070
     0
  0
VISUALSTYLE
  5
3A
102
{ACAD_XDICTIONARY
360
393
102
}
102
{ACAD_REACTORS
330
2A
102
}
330
2A
100
AcDbVisualStyle
  2

 70
    16
 71
     2
 72
     2
 73
     3
 90
        0
 40
-0.6
 41
-30.0
 62
     5
 63
     8
421
  8421504
 74
     1
 91
        4
 64
     7
 65
   257
 75
     1
175
     1
 42
1.0
 92
        8
 66
     8
424
  8421504
 43
1.0
 76
     1
 77
     6
 78
     2
 67
     7
 79
     5
170
     0
171
     0
290
     0
174
     0
 93
        1
 44
0.0
173
     0
291
     1
 45
0.0
1001
ACAD
1000
AcDbSavedByObjectVersion
1070
     0
  0
VISUALSTYLE
  5
34
102
{ACAD_XDICTIONARY
360
387
102
}
102
{ACAD_REACTORS
330
2A
102
}
330
2A
100
AcDbVisualStyle
  2

 70
     9
 71
     3
 72
     2
 73
     0
 90
        0
 40
-0.6
 41
-30.0
 62
     5
 63
     7
421
 16777215
 74
     2
 91
        2
 64
     7
 65
   257
 75
     1
175
     1
 42
179.0
 92
        8
 66
     7
 43
1.0
 76
     1
 77
     6
 78
     2
 67
     7
 79
     3
170
     0
171
     0
290
     0
174
     0
 93
        1
 44
0.0
173
     0
291
     0
 45
0.0
1001
ACAD
1000
AcDbSavedByObjectVersion
1070
     0
  0
VISUALSTYLE
  5
35
102
{ACAD_XDICTIONARY
360
389
102
}
102
{ACAD_REACTORS
330
2A
102
}
330
2A
100
AcDbVisualStyle
  2

 70
    11
 71
     2
 72
     2
 73
     0
 90
        0
 40
-0.6
 41
-30.0
 62
     5
 63
     7
421
 16777215
 74
     1
 91
        4
 64
     7
 65
   257
 75
     1
175
     1
 42
1.0
 92
        8
 66
     7
 43
1.0
 76
     1
 77
     6
 78
     2
 67
     7
 79
     5
170
     0
171
     0
290
     0
174
     0
 93
        1
 44
-50.0
173
     0
291
     1
 45
0.0
1001
ACAD
1000
AcDbSavedByObjectVersion
1070
     0
  0
VISUALSTYLE
  5
3D
102
{ACAD_XDICTIONARY
360
399
102
}
102
{ACAD_REACTORS
330
2A
102
}
330
2A
100
AcDbVisualStyle
  2

 70
    22
 71
     2
 72
     2
 73
     0
 90
        0
 40
-0.6
 41
-30.0
 62
     5
 63
     7
421
 16777215
 74
     1
 91
        4
 64
     7
 65
   257
 75
     1
175
     1
 42
1.0
 92
        8
 66
     7
 43
1.0
 76
     1
 77
     6
 78
     2
 67
     7
 79
     5
170
     0
171
     0
290
     0
174
     0
 93
        1
 44
0.0
173
     0
291
     1
 45
0.0
1001
ACAD
1000
AcDbSavedByObjectVersion
1070
     0
  0
VISUALSTYLE
  5
39
102
{ACAD_XDICTIONARY
360
391
102
}
102
{ACAD_REACTORS
330
2A
102
}
330
2A
100
AcDbVisualStyle
  2

 70
    15
 71
     2
 72
     2
 73
     0
 90
        0
 40
-0.6
 41
-30.0
 62
     5
 63
     7
421
 16777215
 74
     1
 91
        4
 64
     7
 65
   257
 75
     1
175
     1
 42
1.0
 92
        8
 66
     7
 43
1.0
 76
     1
 77
     6
 78
     2
 67
     7
 79
     5
170
     0
171
     0
290
     0
174
     0
 93
        1
 44
0.0
173
     0
291
     1
 45
0.0
1001
ACAD
1000
AcDbSavedByObjectVersion
1070
     0
  0
VISUALSTYLE
  5
2B
102
{ACAD_XDICTIONARY
360
375
102
}
102
{ACAD_REACTORS
330
2A
102
}
330
2A
100
AcDbVisualStyle
  2

 70
     0
 71
     2
 72
     1
 73
     1
 90
        2
 40
-0.6
 41
30.0
 62
     5
 63
     7
421
 16777215
 74
     0
 91
        0
 64
     7
 65
   257
 75
     1
175
     1
 42
1.0
 92
        8
 66
     7
 43
1.0
 76
     1
 77
     6
 78
     2
 67
     7
 79
     5
170
     0
171
     0
290
     0
174
     0
 93
       13
 44
0.0
173
     0
291
     1
 45
0.0
1001
ACAD
1000
AcDbSavedByObjectVersion
1070
     0
  0
VISUALSTYLE
  5
2C
102
{ACAD_XDICTIONARY
360
377
102
}
102
{ACAD_REACTORS
330
2A
102
}
330
2A
100
AcDbVisualStyle
  2

 70
     1
 71
     2
 72
     1
 73
     1
 90
        2
 40
-0.6
 41
30.0
 62
     5
 63
     7
421
 16777215
 74
     1
 91
        0
 64
     7
 65
   257
 75
     1
175
     1
 42
1.0
 92
        0
 66
   257
 43
1.0
 76
     1
 77
     6
 78
     2
 67
     7
 79
     5
170
     0
171
     0
290
     0
174
     0
 93
       13
 44
0.0
173
     0
291
     1
 45
0.0
1001
ACAD
1000
AcDbSavedByObjectVersion
1070
     0
  0
VISUALSTYLE
  5
2D
102
{ACAD_XDICTIONARY
360
379
102
}
102
{ACAD_REACTORS
330
2A
102
}
330
2A
100
AcDbVisualStyle
  2

 70
     2
 71
     2
 72
     2
 73
     1
 90
        2
 40
-0.6
 41
30.0
 62
     5
 63
     7
421
 16777215
 74
     0
 91
        0
 64
     7
 65
   257
 75
     1
175
     1
 42
1.0
 92
        0
 66
     7
 43
1.0
 76
     1
 77
     6
 78
     2
 67
     7
 79
     5
170
     0
171
     0
290
     0
174
     0
 93
       13
 44
0.0
173
     0
291
     1
 45
0.0
1001
ACAD
1000
AcDbSavedByObjectVersion
1070
     0
  0
VISUALSTYLE
  5
2E
102
{ACAD_XDICTIONARY
360
37B
102
}
102
{ACAD_REACTORS
330
2A
102
}
330
2A
100
AcDbVisualStyle
  2

 70
     3
 71
     2
 72
     2
 73
     1
 90
        2
 40
-0.6
 41
30.0
 62
     5
 63
     7
421
 16777215
 74
     1
 91
        0
 64
     7
 65
   257
 75
     1
175
     1
 42
1.0
 92
        0
 66
   257
 43
1.0
 76
     1
 77
     6
 78
     2
 67
     7
 79
     5
170
     0
171
     0
290
     0
174
     0
 93
       13
 44
0.0
173
     0
291
     1
 45
0.0
1001
ACAD
1000
AcDbSavedByObjectVersion
1070
     0
  0
VISUALSTYLE
  5
31
102
{ACAD_XDICTIONARY
360
381
102
}
102
{ACAD_REACTORS
330
2A
102
}
330
2A
100
AcDbVisualStyle
  2

 70
     6
 71
     1
 72
     2
 73
     2
 90
        0
 40
-0.6
 41
-30.0
 62
     5
 63
     7
421
 16777215
 74
     2
 91
        2
 64
     7
 65
   257
 75
     2
175
     1
 42
40.0
 92
        0
 66
   257
 43
1.0
 76
     1
 77
     6
 78
     2
 67
     7
 79
     3
170
     0
171
     0
290
     0
174
     0
 93
        1
 44
0.0
173
     0
291
     0
 45
0.0
1001
ACAD
1000
AcDbSavedByObjectVersion
1070
     0
  0
VISUALSTYLE
  5
3B
102
{ACAD_XDICTIONARY
360
395
102
}
102
{ACAD_REACTORS
330
2A
102
}
330
2A
100
AcDbVisualStyle
  2

 70
    20
 71
     2
 72
     2
 73
     0
 90
        0
 40
-0.6
 41
-30.0
 62
     5
 63
     7
421
 16777215
 74
     1
 91
        4
 64
     7
 65
   257
 75
     1
175
     1
 42
1.0
 92
       10
 66
     7
 43
1.0
 76
     1
 77
     6
 78
     2
 67
     7
 79
     5
170
     0
171
     0
290
     0
174
     0
 93
        1
 44
0.0
173
     0
291
     1
 45
0.0
1001
ACAD
1000
AcDbSavedByObjectVersion
1070
     0
  0
VISUALSTYLE
  5
38
102
{ACAD_XDICTIONARY
360
38F
102
}
102
{ACAD_REACTORS
330
2A
102
}
330
2A
100
AcDbVisualStyle
  2

 70
    14
 71
     2
 72
     2
 73
     0
 90
        0
 40
-0.6
 41
-30.0
 62
     5
 63
     7
421
 16777215
 74
     1
 91
        4
 64
     7
 65
   257
 75
     7
175
     7
 42
1.0
 92
        8
 66
     7
 43
1.0
 76
     1
 77
     6
 78
     2
 67
     7
 79
     5
170
     0
171
     0
290
     0
174
     0
 93
        1
 44
0.0
173
     0
291
     1
 45
0.0
1001
ACAD
1000
AcDbSavedByObjectVersion
1070
     0
  0
VISUALSTYLE
  5
3C
102
{ACAD_XDICTIONARY
360
397
102
}
102
{ACAD_REACTORS
330
2A
102
}
330
2A
100
AcDbVisualStyle
  2

 70
    21
 71
     2
 72
     2
 73
     0
 90
        0
 40
-0.6
 41
-30.0
 62
     5
 63
     7
421
 16777215
 74
     1
 91
        4
 64
     7
 65
   257
 75
     1
175
     1
 42
1.0
 92
        9
 66
     7
 43
1.0
 76
     1
 77
     6
 78
     2
 67
     7
 79
     5
170
     0
171
     0
290
     0
174
     0
 93
        1
 44
0.0
173
     0
291
     1
 45
0.0
1001
ACAD
1000
AcDbSavedByObjectVersion
1070
     0
  0
VISUALSTYLE
  5
33
102
{ACAD_XDICTIONARY
360
385
102
}
102
{ACAD_REACTORS
330
2A
102
}
330
2A
100
AcDbVisualStyle
  2

 70
     8
 71
     2
 72
     3
 73
     0
 90
        2
 40
-0.6
 41
30.0
 62
     5
 63
     7
421
 16777215
 74
     0
 91
        0
 64
     7
 65
   257
 75
     1
175
     1
 42
1.0
 92
        8
 66
   257
 43
1.0
 76
     1
 77
     6
 78
     2
 67
     7
 79
     3
170
     0
171
     0
290
     0
174
     0
 93
       13
 44
0.0
173
     0
291
     0
 45
0.0
1001
ACAD
1000
AcDbSavedByObjectVersion
1070
     0
  0
VISUALSTYLE
  5
42
102
{ACAD_XDICTIONARY
360
3A3
102
}
102
{ACAD_REACTORS
330
2A
102
}
330
2A
100
AcDbVisualStyle
  2

 70
    27
 71
     2
 72
     2
 73
     1
 90
        2
 40
-0.6
 41
30.0
 62
     5
 63
     7
421
 16777215
 74
     0
 91
        4
 64
     7
 65
   257
 75
     1
175
     1
 42
1.0
 92
        8
 66
   257
 43
1.0
 76
     1
 77
     6
 78
     2
 67
     8
425
  7895160
 79
     3
170
     0
171
     0
290
     0
174
     0
 93
        5
 44
0.0
173
     0
291
     0
 45
0.0
1001
ACAD
1000
AcDbSavedByObjectVersion
1070
     0
  0
VISUALSTYLE
  5
41
102
{ACAD_XDICTIONARY
360
3A1
102
}
102
{ACAD_REACTORS
330
2A
102
}
330
2A
100
AcDbVisualStyle
  2

 70
    26
 71
     2
 72
     2
 73
     1
 90
        2
 40
-0.6
 41
30.0
 62
     5
 63
     7
421
 16777215
 74
     1
 91
       10
 64
     7
 65
   257
 75
     2
175
     1
 42
1.0
 92
        8
 66
   257
 43
1.0
 76
     1
 77
     6
 78
     2
 67
     7
 79
     3
170
     0
171
     0
290
     0
174
     0
 93
        5
 44
0.0
173
     0
291
     0
 45
0.0
1001
ACAD
1000
AcDbSavedByObjectVersion
1070
     0
  0
VISUALSTYLE
  5
3E
102
{ACAD_XDICTIONARY
360
39B
102
}
102
{ACAD_REACTORS
330
2A
102
}
330
2A
100
AcDbVisualStyle
  2

 70
    23
 71
     2
 72
     2
 73
     3
 90
        0
 40
-0.6
 41
-30.0
 62
     5
 63
     7
421
 16777215
 74
     2
 91
        2
 64
     7
 65
     7
 75
     1
175
     1
 42
40.0
 92
        8
 66
     7
 43
1.0
 76
     1
 77
     6
 78
     2
 67
     7
 79
     3
170
     0
171
     0
290
     0
174
     0
 93
        1
 44
0.0
173
     0
291
     0
 45
0.0
1001
ACAD
1000
AcDbSavedByObjectVersion
1070
     0
  0
VISUALSTYLE
  5
3F
102
{ACAD_XDICTIONARY
360
39D
102
}
102
{ACAD_REACTORS
330
2A
102
}
330
2A
100
AcDbVisualStyle
  2

 70
    24
 71
     1
 72
     2
 73
     2
 90
        0
 40
-0.6
 41
-30.0
 62
     5
 63
     7
421
 16777215
 74
     2
 91
        2
 64
     7
 65
     7
 75
     1
175
     1
 42
40.0
 92
       11
 66
     7
 43
1.0
 76
     1
 77
     6
 78
     2
 67
     7
 79
     6
170
     0
171
     0
290
     0
174
     0
 93
        1
 44
0.0
173
     0
291
     0
 45
0.0
1001
ACAD
1000
AcDbSavedByObjectVersion
1070
     0
  0
VISUALSTYLE
  5
37
102
{ACAD_XDICTIONARY
360
38D
102
}
102
{ACAD_REACTORS
330
2A
102
}
330
2A
100
AcDbVisualStyle
  2

 70
    13
 71
     2
 72
     2
 73
     0
 90
        0
 40
-0.6
 41
-30.0
 62
     5
 63
     7
421
 16777215
 74
     1
 91
        4
 64
     7
 65
   257
 75
     1
175
     1
 42
1.0
 92
       12
 66
     7
 43
1.0
 76
     1
 77
     6
 78
     2
 67
     7
 79
     5
170
     0
171
     0
290
     0
174
     0
 93
        1
 44
0.0
173
     0
291
     1
 45
0.0
1001
ACAD
1000
AcDbSavedByObjectVersion
1070
     0
  0
VISUALSTYLE
  5
30
102
{ACAD_XDICTIONARY
360
37F
102
}
102
{ACAD_REACTORS
330
2A
102
}
330
2A
100
AcDbVisualStyle
  2

 70
     5
 71
     0
 72
     2
 73
     0
 90
        0
 40
-0.6
 41
-30.0
 62
     5
 63
     7
421
 16777215
 74
     1
 91
        4
 64
     7
 65
   257
 75
     1
175
     1
 42
1.0
 92
        0
 66
   257
 43
1.0
 76
     1
 77
     6
 78
     2
 67
     7
 79
     3
170
     0
171
     0
290
     0
174
     0
 93
        1
 44
0.0
173
     0
291
     0
 45
0.0
1001
ACAD
1000
AcDbSavedByObjectVersion
1070
     0
  0
VISUALSTYLE
  5
40
102
{ACAD_XDICTIONARY
360
39F
102
}
102
{ACAD_REACTORS
330
2A
102
}
330
2A
100
AcDbVisualStyle
  2

 70
    25
 71
     2
 72
     2
 73
     1
 90
        1
 40
0.5
 41
-30.0
 62
     5
 63
     7
421
 16777215
 74
     1
 91
        0
 64
     7
 65
   257
 75
     1
175
     1
 42
1.0
 92
        8
 66
     7
 43
1.0
 76
     1
 77
     6
 78
     2
 67
     7
 79
     3
170
     0
171
     0
290
     0
174
     0
 93
       13
 44
0.0
173
     0
291
     0
 45
0.0
1001
ACAD
1000
AcDbSavedByObjectVersion
1070
     0
  0
DICTIONARYVAR
  5
2C3
102
{ACAD_REACTORS
330
2C2
102
}
330
2C2
100
DictionaryVariables
280
     0
  1
1:1
  0
DICTIONARYVAR
  5
304
102
{ACAD_REACTORS
330
2C2
102
}
330
2C2
100
DictionaryVariables
280
     0
  1
STANDARD
  0
DICTIONARYVAR
  5
303
102
{ACAD_REACTORS
330
2C2
102
}
330
2C2
100
DictionaryVariables
280
     0
  1
STANDARD
  0
DICTIONARYVAR
  5
36F
102
{ACAD_REACTORS
330
2C2
102
}
330
2C2
100
DictionaryVariables
280
     0
  1
Metric50
  0
DICTIONARYVAR
  5
370
102
{ACAD_REACTORS
330
2C2
102
}
330
2C2
100
DictionaryVariables
280
     0
  1
Metric50
  0
DICTIONARYVAR
  5
2C4
102
{ACAD_REACTORS
330
2C2
102
}
330
2C2
100
DictionaryVariables
280
     0
  1
1
  0
DICTIONARYVAR
  5
371
102
{ACAD_REACTORS
330
2C2
102
}
330
2C2
100
DictionaryVariables
280
     0
  1
2
  0
DICTIONARY
  5
3A8
330
30B
100
AcDbDictionary
280
     1
281
     1
  3
ACAD_XREC_ROUNDTRIP
360
3A9
  0
DICTIONARY
  5
2F8
330
45
100
AcDbDictionary
280
     1
281
     1
  3
ACAD_XREC_ROUNDTRIP
360
2F9
  0
DICTIONARY
  5
2F6
330
44
100
AcDbDictionary
280
     1
281
     1
  3
ACAD_XREC_ROUNDTRIP
360
2F7
  0
DICTIONARY
  5
2FA
330
46
100
AcDbDictionary
280
     1
281
     1
  3
ACAD_XREC_ROUNDTRIP
360
2FB
  0
DICTIONARY
  5
3A6
330
30A
100
AcDbDictionary
280
     1
281
     1
  3
ACAD_XREC_ROUNDTRIP
360
3A7
  0
DICTIONARY
  5
2FC
330
6A
100
AcDbDictionary
280
     1
281
     1
  3
ACAD_ROUNDTRIP_2008_TABLESTYLE_CELLSTYLEMAP
360
373
  3
ACAD_XREC_ROUNDTRIP
360
3A5
  0
DICTIONARY
  5
37D
330
2F
100
AcDbDictionary
280
     1
281
     1
  3
ACAD_XREC_ROUNDTRIP
360
37E
  0
DICTIONARY
  5
383
330
32
100
AcDbDictionary
280
     1
281
     1
  3
ACAD_XREC_ROUNDTRIP
360
384
  0
DICTIONARY
  5
38B
330
36
100
AcDbDictionary
280
     1
281
     1
  3
ACAD_XREC_ROUNDTRIP
360
38C
  0
DICTIONARY
  5
393
330
3A
100
AcDbDictionary
280
     1
281
     1
  3
ACAD_XREC_ROUNDTRIP
360
394
  0
DICTIONARY
  5
387
330
34
100
AcDbDictionary
280
     1
281
     1
  3
ACAD_XREC_ROUNDTRIP
360
388
  0
DICTIONARY
  5
389
330
35
100
AcDbDictionary
280
     1
281
     1
  3
ACAD_XREC_ROUNDTRIP
360
38A
  0
DICTIONARY
  5
399
330
3D
100
AcDbDictionary
280
     1
281
     1
  3
ACAD_XREC_ROUNDTRIP
360
39A
  0
DICTIONARY
  5
391
330
39
100
AcDbDictionary
280
     1
281
     1
  3
ACAD_XREC_ROUNDTRIP
360
392
  0
DICTIONARY
  5
375
330
2B
100
AcDbDictionary
280
     1
281
     1
  3
ACAD_XREC_ROUNDTRIP
360
376
  0
DICTIONARY
  5
377
330
2C
100
AcDbDictionary
280
     1
281
     1
  3
ACAD_XREC_ROUNDTRIP
360
378
  0
DICTIONARY
  5
379
330
2D
100
AcDbDictionary
280
     1
281
     1
  3
ACAD_XREC_ROUNDTRIP
360
37A
  0
DICTIONARY
  5
37B
330
2E
100
AcDbDictionary
280
     1
281
     1
  3
ACAD_XREC_ROUNDTRIP
360
37C
  0
DICTIONARY
  5
381
330
31
100
AcDbDictionary
280
     1
281
     1
  3
ACAD_XREC_ROUNDTRIP
360
382
  0
DICTIONARY
  5
395
330
3B
100
AcDbDictionary
280
     1
281
     1
  3
ACAD_XREC_ROUNDTRIP
360
396
  0
DICTIONARY
  5
38F
330
38
100
AcDbDictionary
280
     1
281
     1
  3
ACAD_XREC_ROUNDTRIP
360
390
  0
DICTIONARY
  5
397
330
3C
100
AcDbDictionary
280
     1
281
     1
  3
ACAD_XREC_ROUNDTRIP
360
398
  0
DICTIONARY
  5
385
330
33
100
AcDbDictionary
280
     1
281
     1
  3
ACAD_XREC_ROUNDTRIP
360
386
  0
DICTIONARY
  5
3A3
330
42
100
AcDbDictionary
280
     1
281
     1
  3
ACAD_XREC_ROUNDTRIP
360
3A4
  0
DICTIONARY
  5
3A1
330
41
100
AcDbDictionary
280
     1
281
     1
  3
ACAD_XREC_ROUNDTRIP
360
3A2
  0
DICTIONARY
  5
39B
330
3E
100
AcDbDictionary
280
     1
281
     1
  3
ACAD_XREC_ROUNDTRIP
360
39C
  0
DICTIONARY
  5
39D
330
3F
100
AcDbDictionary
280
     1
281
     1
  3
ACAD_XREC_ROUNDTRIP
360
39E
  0
DICTIONARY
  5
38D
330
37
100
AcDbDictionary
280
     1
281
     1
  3
ACAD_XREC_ROUNDTRIP
360
38E
  0
DICTIONARY
  5
37F
330
30
100
AcDbDictionary
280
     1
281
     1
  3
ACAD_XREC_ROUNDTRIP
360
380
  0
DICTIONARY
  5
39F
330
40
100
AcDbDictionary
280
     1
281
     1
  3
ACAD_XREC_ROUNDTRIP
360
3A0
  0
XRECORD
  5
3A9
102
{ACAD_REACTORS
330
3A8
102
}
330
3A8
100
AcDbXrecord
280
     1
102
DISPLAYNAME
  1
Metric50
102
FLAGS
 90
        0
  0
XRECORD
  5
2F9
102
{ACAD_REACTORS
330
2F8
102
}
330
2F8
100
AcDbXrecord
280
     1
102
MATERIAL
148
0.0
149
0.0
149
0.0
 93
        0
 94
      127
282
     0
 72
     1
 77
     1
171
     1
175
     1
179
     1
273
     0
  0
XRECORD
  5
2F7
102
{ACAD_REACTORS
330
2F6
102
}
330
2F6
100
AcDbXrecord
280
     1
102
MATERIAL
148
0.0
149
0.0
149
0.0
 93
        0
 94
      127
282
     0
 72
     1
 77
     1
171
     1
175
     1
179
     1
273
     0
  0
XRECORD
  5
2FB
102
{ACAD_REACTORS
330
2FA
102
}
330
2FA
100
AcDbXrecord
280
     1
102
MATERIAL
148
0.0
149
0.0
149
0.0
 93
        0
 94
      127
282
     0
 72
     1
 77
     1
171
     1
175
     1
179
     1
273
     0
  0
XRECORD
  5
3A7
102
{ACAD_REACTORS
330
3A6
102
}
330
3A6
100
AcDbXrecord
280
     1
102
DISPLAYNAME
  1
Metric50
102
FLAGS
 90
        0
  0
CELLSTYLEMAP
  5
373
102
{ACAD_REACTORS
330
2FC
102
}
330
2FC
100
AcDbCellStyleMap
 90
        3
300
CELLSTYLE
  1
TABLEFORMAT_BEGIN
 90
        5
170
     1
 91
        0
 92
    32768
 62
   257
 93
        1
300
CONTENTFORMAT
  1
CONTENTFORMAT_BEGIN
 90
        0
 91
        0
 92
        4
 93
        0
300

 40
0.0
140
1.0
 94
        5
 62
     0
340
11
144
0.25
309
CONTENTFORMAT_END
171
     1
301
MARGIN
  1
CELLMARGIN_BEGIN
 40
0.06
 40
0.06
 40
0.06
 40
0.06
 40
0.18
 40
0.18
309
CELLMARGIN_END
 94
        6
 95
        1
302
GRIDFORMAT
  1
GRIDFORMAT_BEGIN
 90
        0
 91
        1
 62
     0
 92
       -2
340
14
 93
        0
 40
0.045
309
GRIDFORMAT_END
 95
        2
302
GRIDFORMAT
  1
GRIDFORMAT_BEGIN
 90
        0
 91
        1
 62
     0
 92
       -2
340
14
 93
        0
 40
0.045
309
GRIDFORMAT_END
 95
        4
302
GRIDFORMAT
  1
GRIDFORMAT_BEGIN
 90
        0
 91
        1
 62
     0
 92
       -2
340
14
 93
        0
 40
0.045
309
GRIDFORMAT_END
 95
        8
302
GRIDFORMAT
  1
GRIDFORMAT_BEGIN
 90
        0
 91
        1
 62
     0
 92
       -2
340
14
 93
        0
 40
0.045
309
GRIDFORMAT_END
 95
       16
302
GRIDFORMAT
  1
GRIDFORMAT_BEGIN
 90
        0
 91
        1
 62
     0
 92
       -2
340
14
 93
        0
 40
0.045
309
GRIDFORMAT_END
 95
       32
302
GRIDFORMAT
  1
GRIDFORMAT_BEGIN
 90
        0
 91
        1
 62
     0
 92
       -2
340
14
 93
        0
 40
0.045
309
GRIDFORMAT_END
309
TABLEFORMAT_END
  1
CELLSTYLE_BEGIN
 90
        1
 91
        1
300
_TITLE
309
CELLSTYLE_END
300
CELLSTYLE
  1
TABLEFORMAT_BEGIN
 90
        5
170
     1
 91
        0
 92
        0
 62
   257
 93
        1
300
CONTENTFORMAT
  1
CONTENTFORMAT_BEGIN
 90
        0
 91
        0
 92
        4
 93
        0
300

 40
0.0
140
1.0
 94
        5
 62
     0
340
11
144
0.18
309
CONTENTFORMAT_END
171
     1
301
MARGIN
  1
CELLMARGIN_BEGIN
 40
0.06
 40
0.06
 40
0.06
 40
0.06
 40
0.18
 40
0.18
309
CELLMARGIN_END
 94
        6
 95
        1
302
GRIDFORMAT
  1
GRIDFORMAT_BEGIN
 90
        0
 91
        1
 62
     0
 92
       -2
340
14
 93
        0
 40
0.045
309
GRIDFORMAT_END
 95
        2
302
GRIDFORMAT
  1
GRIDFORMAT_BEGIN
 90
        0
 91
        1
 62
     0
 92
       -2
340
14
 93
        0
 40
0.045
309
GRIDFORMAT_END
 95
        4
302
GRIDFORMAT
  1
GRIDFORMAT_BEGIN
 90
        0
 91
        1
 62
     0
 92
       -2
340
14
 93
        0
 40
0.045
309
GRIDFORMAT_END
 95
        8
302
GRIDFORMAT
  1
GRIDFORMAT_BEGIN
 90
        0
 91
        1
 62
     0
 92
       -2
340
14
 93
        0
 40
0.045
309
GRIDFORMAT_END
 95
       16
302
GRIDFORMAT
  1
GRIDFORMAT_BEGIN
 90
        0
 91
        1
 62
     0
 92
       -2
340
14
 93
        0
 40
0.045
309
GRIDFORMAT_END
 95
       32
302
GRIDFORMAT
  1
GRIDFORMAT_BEGIN
 90
        0
 91
        1
 62
     0
 92
       -2
340
14
 93
        0
 40
0.045
309
GRIDFORMAT_END
309
TABLEFORMAT_END
  1
CELLSTYLE_BEGIN
 90
        2
 91
        1
300
_HEADER
309
CELLSTYLE_END
300
CELLSTYLE
  1
TABLEFORMAT_BEGIN
 90
        5
170
     1
 91
        0
 92
        0
 62
   257
 93
        1
300
CONTENTFORMAT
  1
CONTENTFORMAT_BEGIN
 90
        0
 91
        0
 92
        4
 93
        0
300

 40
0.0
140
1.0
 94
        2
 62
     0
340
11
144
0.18
309
CONTENTFORMAT_END
171
     1
301
MARGIN
  1
CELLMARGIN_BEGIN
 40
0.06
 40
0.06
 40
0.06
 40
0.06
 40
0.18
 40
0.18
309
CELLMARGIN_END
 94
        6
 95
        1
302
GRIDFORMAT
  1
GRIDFORMAT_BEGIN
 90
        0
 91
        1
 62
     0
 92
       -2
340
14
 93
        0
 40
0.045
309
GRIDFORMAT_END
 95
        2
302
GRIDFORMAT
  1
GRIDFORMAT_BEGIN
 90
        0
 91
        1
 62
     0
 92
       -2
340
14
 93
        0
 40
0.045
309
GRIDFORMAT_END
 95
        4
302
GRIDFORMAT
  1
GRIDFORMAT_BEGIN
 90
        0
 91
        1
 62
     0
 92
       -2
340
14
 93
        0
 40
0.045
309
GRIDFORMAT_END
 95
        8
302
GRIDFORMAT
  1
GRIDFORMAT_BEGIN
 90
        0
 91
        1
 62
     0
 92
       -2
340
14
 93
        0
 40
0.045
309
GRIDFORMAT_END
 95
       16
302
GRIDFORMAT
  1
GRIDFORMAT_BEGIN
 90
        0
 91
        1
 62
     0
 92
       -2
340
14
 93
        0
 40
0.045
309
GRIDFORMAT_END
 95
       32
302
GRIDFORMAT
  1
GRIDFORMAT_BEGIN
 90
        0
 91
        1
 62
     0
 92
       -2
340
14
 93
        0
 40
0.045
309
GRIDFORMAT_END
309
TABLEFORMAT_END
  1
CELLSTYLE_BEGIN
 90
        3
 91
        2
300
_DATA
309
CELLSTYLE_END
  0
XRECORD
  5
3A5
102
{ACAD_REACTORS
330
2FC
102
}
330
2FC
100
AcDbXrecord
280
     1
102
ACAD_ROUNDTRIP_PRE2007_TABLESTYLE
 90
        4
 91
        0
  1

 92
        4
 93
        0
  2

 94
        4
 95
        0
  3

  0
XRECORD
  5
37E
102
{ACAD_REACTORS
330
37D
102
}
330
37D
100
AcDbXrecord
280
     1
102
RTVSPost2010Prop28
280
     1
102
RTVSPost2010PropOp28
 70
     1
102
RTVSPost2010Prop29
280
     1
102
RTVSPost2010PropOp29
 70
     1
102
RTVSPost2010Prop30
280
     0
102
RTVSPost2010PropOp30
 70
     1
102
RTVSPost2010Prop31
280
     0
102
RTVSPost2010PropOp31
 70
     1
102
RTVSPost2010Prop32
280
     0
102
RTVSPost2010PropOp32
 70
     1
102
RTVSPost2010Prop33
280
     0
102
RTVSPost2010PropOp33
 70
     1
102
RTVSPost2010Prop34
280
     0
102
RTVSPost2010PropOp34
 70
     1
102
RTVSPost2010Prop35
280
     0
102
RTVSPost2010PropOp35
 70
     1
102
RTVSPost2010Prop36
280
     0
102
RTVSPost2010PropOp36
 70
     1
102
RTVSPost2010Prop37
 90
       50
102
RTVSPost2010PropOp37
 70
     1
102
RTVSPost2010Prop38
140
0.0
102
RTVSPost2010PropOp38
 70
     1
102
RTVSPost2010Prop39
140
1.0
102
RTVSPost2010PropOp39
 70
     1
102
RTVSPost2010Prop40
 90
        0
102
RTVSPost2010PropOp40
 70
     1
102
RTVSPost2010Prop41ColorIndex
 90
       18
102
RTVSPost2010Prop41ColorRGB
 90
        0
102
RTVSPost2010PropOp41
 70
     1
102
RTVSPost2010Prop42
 90
       50
102
RTVSPost2010PropOp42
 70
     1
102
RTVSPost2010Prop43
 90
        3
102
RTVSPost2010PropOp43
 70
     1
102
RTVSPost2010Prop44ColorIndex
 90
        5
102
RTVSPost2010Prop44ColorRGB
 90
      255
102
RTVSPost2010PropOp44
 70
     1
102
RTVSPost2010Prop45
280
     0
102
RTVSPost2010PropOp45
 70
     1
102
RTVSPost2010Prop46
 90
       50
102
RTVSPost2010PropOp46
 70
     1
102
RTVSPost2010Prop47
 90
       50
102
RTVSPost2010PropOp47
 70
     1
102
RTVSPost2010Prop48
 90
       50
102
RTVSPost2010PropOp48
 70
     1
102
RTVSPost2010Prop49
280
     0
102
RTVSPost2010PropOp49
 70
     1
102
RTVSPost2010Prop50
 90
       50
102
RTVSPost2010PropOp50
 70
     1
102
RTVSPost2010Prop51ColorIndex
 90
      256
102
RTVSPost2010Prop51ColorRGB
 90
-16777216
102
RTVSPost2010PropOp51
 70
     0
102
RTVSPost2010Prop52
140
1.0
102
RTVSPost2010PropOp52
 70
     0
102
RTVSPost2010Prop53
 90
        2
102
RTVSPost2010PropOp53
 70
     1
102
RTVSPost2010Prop54
  1
strokes_ogs.tif
102
RTVSPost2010PropOp54
 70
     1
102
RTVSPost2010Prop55
280
     0
102
RTVSPost2010PropOp55
 70
     1
102
RTVSPost2010Prop56
140
1.0
102
RTVSPost2010PropOp56
 70
     1
102
RTVSPost2010Prop57
140
1.0
102
RTVSPost2010PropOp57
 70
     1
102
RTVSPropertyOp0
 70
     1
102
RTVSPropertyOp1
 70
     1
102
RTVSPropertyOp2
 70
     1
102
RTVSPropertyOp3
 70
     1
102
RTVSPropertyOp4
 70
     1
102
RTVSPropertyOp5
 70
     1
102
RTVSPropertyOp6
 70
     1
102
RTVSPropertyOp7
 70
     1
102
RTVSPropertyOp8
 70
     1
102
RTVSPropertyOp9
 70
     1
102
RTVSPropertyOp10
 70
     1
102
RTVSPropertyOp11
 70
     1
102
RTVSPropertyOp12
 70
     1
102
RTVSPropertyOp13
 70
     1
102
RTVSPropertyOp14
 70
     1
102
RTVSPropertyOp15
 70
     1
102
RTVSPropertyOp16
 70
     1
102
RTVSPropertyOp17
 70
     1
102
RTVSPropertyOp18
 70
     1
102
RTVSPropertyOp19
 70
     1
102
RTVSPropertyOp20
 70
     1
102
RTVSPropertyOp21
 70
     1
102
RTVSPropertyOp22
 70
     1
102
RTVSPropertyOp23
 70
     1
102
RTVSPropertyOp24
 70
     1
102
RTVSPropertyOp25
 70
     1
102
RTVSPropertyOp26
 70
     1
102
RTVSPropertyOp27
 70
     1
102
RTVSPropertyOp28
 70
     1
102
RTVSPropertyOp29
 70
     1
102
RTVSPropertyOp30
 70
     1
102
RTVSPropertyOp31
 70
     1
102
RTVSPropertyOp32
 70
     1
102
RTVSPropertyOp33
 70
     1
102
RTVSPropertyOp34
 70
     1
102
RTVSPropertyOp35
 70
     1
102
RTVSPropertyOp36
 70
     1
102
RTVSPropertyOp37
 70
     1
102
RTVSPropertyOp38
 70
     1
102
RTVSPropertyOp39
 70
     1
102
RTVSPropertyOp40
 70
     1
102
RTVSPropertyOp41
 70
     1
102
RTVSPropertyOp42
 70
     1
102
RTVSPropertyOp43
 70
     1
102
RTVSPropertyOp44
 70
     1
102
RTVSPropertyOp45
 70
     1
102
RTVSPropertyOp46
 70
     1
102
RTVSPropertyOp47
 70
     1
102
RTVSPropertyOp48
 70
     1
102
RTVSPropertyOp49
 70
     1
102
RTVSPropertyOp50
 70
     1
102
RTVSPropertyOp51
 70
     0
102
RTVSPropertyOp52
 70
     0
102
RTVSPropertyOp53
 70
     1
102
RTVSPropertyOp54
 70
     1
102
RTVSPropertyOp55
 70
     1
102
RTVSPropertyOp56
 70
     1
102
RTVSPropertyOp57
 70
     1
102
RTVSPropertyOp58
 70
     1
102
RTVSPropertyOp59
 70
     1
102
RTVSPropertyOp60
 70
     1
102
RTVSPropertyOp61
 70
     1
102
RTVSPropertyOp62
 70
     1
  0
XRECORD
  5
384
102
{ACAD_REACTORS
330
383
102
}
330
383
100
AcDbXrecord
280
     1
102
RTVSPost2010Prop28
280
     0
102
RTVSPost2010PropOp28
 70
     1
102
RTVSPost2010Prop29
280
     1
102
RTVSPost2010PropOp29
 70
     1
102
RTVSPost2010Prop30
280
     1
102
RTVSPost2010PropOp30
 70
     1
102
RTVSPost2010Prop31
280
     0
102
RTVSPost2010PropOp31
 70
     1
102
RTVSPost2010Prop32
280
     0
102
RTVSPost2010PropOp32
 70
     1
102
RTVSPost2010Prop33
280
     0
102
RTVSPost2010PropOp33
 70
     1
102
RTVSPost2010Prop34
280
     0
102
RTVSPost2010PropOp34
 70
     1
102
RTVSPost2010Prop35
280
     0
102
RTVSPost2010PropOp35
 70
     1
102
RTVSPost2010Prop36
280
     0
102
RTVSPost2010PropOp36
 70
     1
102
RTVSPost2010Prop37
 90
       50
102
RTVSPost2010PropOp37
 70
     1
102
RTVSPost2010Prop38
140
0.0
102
RTVSPost2010PropOp38
 70
     1
102
RTVSPost2010Prop39
140
1.0
102
RTVSPost2010PropOp39
 70
     1
102
RTVSPost2010Prop40
 90
        0
102
RTVSPost2010PropOp40
 70
     1
102
RTVSPost2010Prop41ColorIndex
 90
       18
102
RTVSPost2010Prop41ColorRGB
 90
        0
102
RTVSPost2010PropOp41
 70
     1
102
RTVSPost2010Prop42
 90
       50
102
RTVSPost2010PropOp42
 70
     1
102
RTVSPost2010Prop43
 90
        3
102
RTVSPost2010PropOp43
 70
     1
102
RTVSPost2010Prop44ColorIndex
 90
        5
102
RTVSPost2010Prop44ColorRGB
 90
      255
102
RTVSPost2010PropOp44
 70
     1
102
RTVSPost2010Prop45
280
     0
102
RTVSPost2010PropOp45
 70
     1
102
RTVSPost2010Prop46
 90
       50
102
RTVSPost2010PropOp46
 70
     1
102
RTVSPost2010Prop47
 90
       50
102
RTVSPost2010PropOp47
 70
     1
102
RTVSPost2010Prop48
 90
       50
102
RTVSPost2010PropOp48
 70
     1
102
RTVSPost2010Prop49
280
     0
102
RTVSPost2010PropOp49
 70
     1
102
RTVSPost2010Prop50
 90
       50
102
RTVSPost2010PropOp50
 70
     1
102
RTVSPost2010Prop51ColorIndex
 90
      256
102
RTVSPost2010Prop51ColorRGB
 90
-16777216
102
RTVSPost2010PropOp51
 70
     0
102
RTVSPost2010Prop52
140
1.0
102
RTVSPost2010PropOp52
 70
     0
102
RTVSPost2010Prop53
 90
        2
102
RTVSPost2010PropOp53
 70
     1
102
RTVSPost2010Prop54
  1
strokes_ogs.tif
102
RTVSPost2010PropOp54
 70
     1
102
RTVSPost2010Prop55
280
     0
102
RTVSPost2010PropOp55
 70
     1
102
RTVSPost2010Prop56
140
1.0
102
RTVSPost2010PropOp56
 70
     1
102
RTVSPost2010Prop57
140
1.0
102
RTVSPost2010PropOp57
 70
     1
102
RTVSPropertyOp0
 70
     1
102
RTVSPropertyOp1
 70
     1
102
RTVSPropertyOp2
 70
     1
102
RTVSPropertyOp3
 70
     1
102
RTVSPropertyOp4
 70
     1
102
RTVSPropertyOp5
 70
     1
102
RTVSPropertyOp6
 70
     1
102
RTVSPropertyOp7
 70
     1
102
RTVSPropertyOp8
 70
     1
102
RTVSPropertyOp9
 70
     1
102
RTVSPropertyOp10
 70
     1
102
RTVSPropertyOp11
 70
     1
102
RTVSPropertyOp12
 70
     1
102
RTVSPropertyOp13
 70
     1
102
RTVSPropertyOp14
 70
     1
102
RTVSPropertyOp15
 70
     1
102
RTVSPropertyOp16
 70
     1
102
RTVSPropertyOp17
 70
     1
102
RTVSPropertyOp18
 70
     1
102
RTVSPropertyOp19
 70
     1
102
RTVSPropertyOp20
 70
     1
102
RTVSPropertyOp21
 70
     1
102
RTVSPropertyOp22
 70
     1
102
RTVSPropertyOp23
 70
     1
102
RTVSPropertyOp24
 70
     1
102
RTVSPropertyOp25
 70
     1
102
RTVSPropertyOp26
 70
     1
102
RTVSPropertyOp27
 70
     1
102
RTVSPropertyOp28
 70
     1
102
RTVSPropertyOp29
 70
     1
102
RTVSPropertyOp30
 70
     1
102
RTVSPropertyOp31
 70
     1
102
RTVSPropertyOp32
 70
     1
102
RTVSPropertyOp33
 70
     1
102
RTVSPropertyOp34
 70
     1
102
RTVSPropertyOp35
 70
     1
102
RTVSPropertyOp36
 70
     1
102
RTVSPropertyOp37
 70
     1
102
RTVSPropertyOp38
 70
     1
102
RTVSPropertyOp39
 70
     1
102
RTVSPropertyOp40
 70
     1
102
RTVSPropertyOp41
 70
     1
102
RTVSPropertyOp42
 70
     1
102
RTVSPropertyOp43
 70
     1
102
RTVSPropertyOp44
 70
     1
102
RTVSPropertyOp45
 70
     1
102
RTVSPropertyOp46
 70
     1
102
RTVSPropertyOp47
 70
     1
102
RTVSPropertyOp48
 70
     1
102
RTVSPropertyOp49
 70
     1
102
RTVSPropertyOp50
 70
     1
102
RTVSPropertyOp51
 70
     0
102
RTVSPropertyOp52
 70
     0
102
RTVSPropertyOp53
 70
     1
102
RTVSPropertyOp54
 70
     1
102
RTVSPropertyOp55
 70
     1
102
RTVSPropertyOp56
 70
     1
102
RTVSPropertyOp57
 70
     1
102
RTVSPropertyOp58
 70
     1
102
RTVSPropertyOp59
 70
     1
102
RTVSPropertyOp60
 70
     1
102
RTVSPropertyOp61
 70
     1
102
RTVSPropertyOp62
 70
     1
  0
XRECORD
  5
38C
102
{ACAD_REACTORS
330
38B
102
}
330
38B
100
AcDbXrecord
280
     1
102
RTVSPost2010Prop28
280
     0
102
RTVSPost2010PropOp28
 70
     1
102
RTVSPost2010Prop29
280
     1
102
RTVSPost2010PropOp29
 70
     1
102
RTVSPost2010Prop30
280
     1
102
RTVSPost2010PropOp30
 70
     1
102
RTVSPost2010Prop31
280
     0
102
RTVSPost2010PropOp31
 70
     1
102
RTVSPost2010Prop32
280
     0
102
RTVSPost2010PropOp32
 70
     1
102
RTVSPost2010Prop33
280
     0
102
RTVSPost2010PropOp33
 70
     1
102
RTVSPost2010Prop34
280
     0
102
RTVSPost2010PropOp34
 70
     1
102
RTVSPost2010Prop35
280
     0
102
RTVSPost2010PropOp35
 70
     1
102
RTVSPost2010Prop36
280
     0
102
RTVSPost2010PropOp36
 70
     1
102
RTVSPost2010Prop37
 90
       50
102
RTVSPost2010PropOp37
 70
     1
102
RTVSPost2010Prop38
140
0.0
102
RTVSPost2010PropOp38
 70
     1
102
RTVSPost2010Prop39
140
1.0
102
RTVSPost2010PropOp39
 70
     1
102
RTVSPost2010Prop40
 90
        0
102
RTVSPost2010PropOp40
 70
     1
102
RTVSPost2010Prop41ColorIndex
 90
       18
102
RTVSPost2010Prop41ColorRGB
 90
        0
102
RTVSPost2010PropOp41
 70
     1
102
RTVSPost2010Prop42
 90
       50
102
RTVSPost2010PropOp42
 70
     1
102
RTVSPost2010Prop43
 90
        3
102
RTVSPost2010PropOp43
 70
     1
102
RTVSPost2010Prop44ColorIndex
 90
        5
102
RTVSPost2010Prop44ColorRGB
 90
      255
102
RTVSPost2010PropOp44
 70
     1
102
RTVSPost2010Prop45
280
     0
102
RTVSPost2010PropOp45
 70
     1
102
RTVSPost2010Prop46
 90
       50
102
RTVSPost2010PropOp46
 70
     1
102
RTVSPost2010Prop47
 90
       50
102
RTVSPost2010PropOp47
 70
     1
102
RTVSPost2010Prop48
 90
       50
102
RTVSPost2010PropOp48
 70
     1
102
RTVSPost2010Prop49
280
     0
102
RTVSPost2010PropOp49
 70
     1
102
RTVSPost2010Prop50
 90
       50
102
RTVSPost2010PropOp50
 70
     1
102
RTVSPost2010Prop51ColorIndex
 90
      256
102
RTVSPost2010Prop51ColorRGB
 90
-16777216
102
RTVSPost2010PropOp51
 70
     0
102
RTVSPost2010Prop52
140
1.0
102
RTVSPost2010PropOp52
 70
     0
102
RTVSPost2010Prop53
 90
        2
102
RTVSPost2010PropOp53
 70
     1
102
RTVSPost2010Prop54
  1
strokes_ogs.tif
102
RTVSPost2010PropOp54
 70
     1
102
RTVSPost2010Prop55
280
     0
102
RTVSPost2010PropOp55
 70
     1
102
RTVSPost2010Prop56
140
1.0
102
RTVSPost2010PropOp56
 70
     1
102
RTVSPost2010Prop57
140
1.0
102
RTVSPost2010PropOp57
 70
     1
102
RTVSPropertyOp0
 70
     1
102
RTVSPropertyOp1
 70
     1
102
RTVSPropertyOp2
 70
     1
102
RTVSPropertyOp3
 70
     1
102
RTVSPropertyOp4
 70
     1
102
RTVSPropertyOp5
 70
     1
102
RTVSPropertyOp6
 70
     1
102
RTVSPropertyOp7
 70
     1
102
RTVSPropertyOp8
 70
     1
102
RTVSPropertyOp9
 70
     1
102
RTVSPropertyOp10
 70
     1
102
RTVSPropertyOp11
 70
     1
102
RTVSPropertyOp12
 70
     1
102
RTVSPropertyOp13
 70
     1
102
RTVSPropertyOp14
 70
     1
102
RTVSPropertyOp15
 70
     1
102
RTVSPropertyOp16
 70
     1
102
RTVSPropertyOp17
 70
     1
102
RTVSPropertyOp18
 70
     1
102
RTVSPropertyOp19
 70
     1
102
RTVSPropertyOp20
 70
     1
102
RTVSPropertyOp21
 70
     1
102
RTVSPropertyOp22
 70
     1
102
RTVSPropertyOp23
 70
     1
102
RTVSPropertyOp24
 70
     1
102
RTVSPropertyOp25
 70
     1
102
RTVSPropertyOp26
 70
     1
102
RTVSPropertyOp27
 70
     1
102
RTVSPropertyOp28
 70
     1
102
RTVSPropertyOp29
 70
     1
102
RTVSPropertyOp30
 70
     1
102
RTVSPropertyOp31
 70
     1
102
RTVSPropertyOp32
 70
     1
102
RTVSPropertyOp33
 70
     1
102
RTVSPropertyOp34
 70
     1
102
RTVSPropertyOp35
 70
     1
102
RTVSPropertyOp36
 70
     1
102
RTVSPropertyOp37
 70
     1
102
RTVSPropertyOp38
 70
     1
102
RTVSPropertyOp39
 70
     1
102
RTVSPropertyOp40
 70
     1
102
RTVSPropertyOp41
 70
     1
102
RTVSPropertyOp42
 70
     1
102
RTVSPropertyOp43
 70
     1
102
RTVSPropertyOp44
 70
     1
102
RTVSPropertyOp45
 70
     1
102
RTVSPropertyOp46
 70
     1
102
RTVSPropertyOp47
 70
     1
102
RTVSPropertyOp48
 70
     1
102
RTVSPropertyOp49
 70
     1
102
RTVSPropertyOp50
 70
     1
102
RTVSPropertyOp51
 70
     0
102
RTVSPropertyOp52
 70
     0
102
RTVSPropertyOp53
 70
     1
102
RTVSPropertyOp54
 70
     1
102
RTVSPropertyOp55
 70
     1
102
RTVSPropertyOp56
 70
     1
102
RTVSPropertyOp57
 70
     1
102
RTVSPropertyOp58
 70
     1
102
RTVSPropertyOp59
 70
     1
102
RTVSPropertyOp60
 70
     1
102
RTVSPropertyOp61
 70
     1
102
RTVSPropertyOp62
 70
     1
  0
XRECORD
  5
394
102
{ACAD_REACTORS
330
393
102
}
330
393
100
AcDbXrecord
280
     1
102
RTVSPost2010Prop28
280
     0
102
RTVSPost2010PropOp28
 70
     1
102
RTVSPost2010Prop29
280
     1
102
RTVSPost2010PropOp29
 70
     1
102
RTVSPost2010Prop30
280
     1
102
RTVSPost2010PropOp30
 70
     1
102
RTVSPost2010Prop31
280
     0
102
RTVSPost2010PropOp31
 70
     1
102
RTVSPost2010Prop32
280
     0
102
RTVSPost2010PropOp32
 70
     1
102
RTVSPost2010Prop33
280
     0
102
RTVSPost2010PropOp33
 70
     1
102
RTVSPost2010Prop34
280
     0
102
RTVSPost2010PropOp34
 70
     1
102
RTVSPost2010Prop35
280
     0
102
RTVSPost2010PropOp35
 70
     1
102
RTVSPost2010Prop36
280
     0
102
RTVSPost2010PropOp36
 70
     1
102
RTVSPost2010Prop37
 90
       50
102
RTVSPost2010PropOp37
 70
     1
102
RTVSPost2010Prop38
140
0.0
102
RTVSPost2010PropOp38
 70
     1
102
RTVSPost2010Prop39
140
1.0
102
RTVSPost2010PropOp39
 70
     1
102
RTVSPost2010Prop40
 90
        0
102
RTVSPost2010PropOp40
 70
     1
102
RTVSPost2010Prop41ColorIndex
 90
       18
102
RTVSPost2010Prop41ColorRGB
 90
        0
102
RTVSPost2010PropOp41
 70
     1
102
RTVSPost2010Prop42
 90
       50
102
RTVSPost2010PropOp42
 70
     1
102
RTVSPost2010Prop43
 90
        3
102
RTVSPost2010PropOp43
 70
     1
102
RTVSPost2010Prop44ColorIndex
 90
        5
102
RTVSPost2010Prop44ColorRGB
 90
      255
102
RTVSPost2010PropOp44
 70
     1
102
RTVSPost2010Prop45
280
     0
102
RTVSPost2010PropOp45
 70
     1
102
RTVSPost2010Prop46
 90
       50
102
RTVSPost2010PropOp46
 70
     1
102
RTVSPost2010Prop47
 90
       50
102
RTVSPost2010PropOp47
 70
     1
102
RTVSPost2010Prop48
 90
       50
102
RTVSPost2010PropOp48
 70
     1
102
RTVSPost2010Prop49
280
     0
102
RTVSPost2010PropOp49
 70
     1
102
RTVSPost2010Prop50
 90
       50
102
RTVSPost2010PropOp50
 70
     1
102
RTVSPost2010Prop51ColorIndex
 90
      256
102
RTVSPost2010Prop51ColorRGB
 90
-16777216
102
RTVSPost2010PropOp51
 70
     0
102
RTVSPost2010Prop52
140
1.0
102
RTVSPost2010PropOp52
 70
     0
102
RTVSPost2010Prop53
 90
        2
102
RTVSPost2010PropOp53
 70
     1
102
RTVSPost2010Prop54
  1
strokes_ogs.tif
102
RTVSPost2010PropOp54
 70
     1
102
RTVSPost2010Prop55
280
     0
102
RTVSPost2010PropOp55
 70
     1
102
RTVSPost2010Prop56
140
1.0
102
RTVSPost2010PropOp56
 70
     1
102
RTVSPost2010Prop57
140
1.0
102
RTVSPost2010PropOp57
 70
     1
102
RTVSPropertyOp0
 70
     1
102
RTVSPropertyOp1
 70
     1
102
RTVSPropertyOp2
 70
     1
102
RTVSPropertyOp3
 70
     1
102
RTVSPropertyOp4
 70
     1
102
RTVSPropertyOp5
 70
     1
102
RTVSPropertyOp6
 70
     1
102
RTVSPropertyOp7
 70
     1
102
RTVSPropertyOp8
 70
     1
102
RTVSPropertyOp9
 70
     1
102
RTVSPropertyOp10
 70
     1
102
RTVSPropertyOp11
 70
     1
102
RTVSPropertyOp12
 70
     1
102
RTVSPropertyOp13
 70
     1
102
RTVSPropertyOp14
 70
     1
102
RTVSPropertyOp15
 70
     1
102
RTVSPropertyOp16
 70
     1
102
RTVSPropertyOp17
 70
     1
102
RTVSPropertyOp18
 70
     1
102
RTVSPropertyOp19
 70
     1
102
RTVSPropertyOp20
 70
     1
102
RTVSPropertyOp21
 70
     1
102
RTVSPropertyOp22
 70
     1
102
RTVSPropertyOp23
 70
     1
102
RTVSPropertyOp24
 70
     1
102
RTVSPropertyOp25
 70
     1
102
RTVSPropertyOp26
 70
     1
102
RTVSPropertyOp27
 70
     1
102
RTVSPropertyOp28
 70
     1
102
RTVSPropertyOp29
 70
     1
102
RTVSPropertyOp30
 70
     1
102
RTVSPropertyOp31
 70
     1
102
RTVSPropertyOp32
 70
     1
102
RTVSPropertyOp33
 70
     1
102
RTVSPropertyOp34
 70
     1
102
RTVSPropertyOp35
 70
     1
102
RTVSPropertyOp36
 70
     1
102
RTVSPropertyOp37
 70
     1
102
RTVSPropertyOp38
 70
     1
102
RTVSPropertyOp39
 70
     1
102
RTVSPropertyOp40
 70
     1
102
RTVSPropertyOp41
 70
     1
102
RTVSPropertyOp42
 70
     1
102
RTVSPropertyOp43
 70
     1
102
RTVSPropertyOp44
 70
     1
102
RTVSPropertyOp45
 70
     1
102
RTVSPropertyOp46
 70
     1
102
RTVSPropertyOp47
 70
     1
102
RTVSPropertyOp48
 70
     1
102
RTVSPropertyOp49
 70
     1
102
RTVSPropertyOp50
 70
     1
102
RTVSPropertyOp51
 70
     0
102
RTVSPropertyOp52
 70
     0
102
RTVSPropertyOp53
 70
     1
102
RTVSPropertyOp54
 70
     1
102
RTVSPropertyOp55
 70
     1
102
RTVSPropertyOp56
 70
     1
102
RTVSPropertyOp57
 70
     1
102
RTVSPropertyOp58
 70
     1
102
RTVSPropertyOp59
 70
     1
102
RTVSPropertyOp60
 70
     1
102
RTVSPropertyOp61
 70
     1
102
RTVSPropertyOp62
 70
     1
  0
XRECORD
  5
388
102
{ACAD_REACTORS
330
387
102
}
330
387
100
AcDbXrecord
280
     1
102
RTVSPost2010Prop28
280
     0
102
RTVSPost2010PropOp28
 70
     1
102
RTVSPost2010Prop29
280
     1
102
RTVSPost2010PropOp29
 70
     1
102
RTVSPost2010Prop30
280
     1
102
RTVSPost2010PropOp30
 70
     1
102
RTVSPost2010Prop31
280
     0
102
RTVSPost2010PropOp31
 70
     1
102
RTVSPost2010Prop32
280
     0
102
RTVSPost2010PropOp32
 70
     1
102
RTVSPost2010Prop33
280
     0
102
RTVSPost2010PropOp33
 70
     1
102
RTVSPost2010Prop34
280
     0
102
RTVSPost2010PropOp34
 70
     1
102
RTVSPost2010Prop35
280
     0
102
RTVSPost2010PropOp35
 70
     1
102
RTVSPost2010Prop36
280
     0
102
RTVSPost2010PropOp36
 70
     1
102
RTVSPost2010Prop37
 90
       50
102
RTVSPost2010PropOp37
 70
     1
102
RTVSPost2010Prop38
140
0.0
102
RTVSPost2010PropOp38
 70
     1
102
RTVSPost2010Prop39
140
1.0
102
RTVSPost2010PropOp39
 70
     1
102
RTVSPost2010Prop40
 90
        0
102
RTVSPost2010PropOp40
 70
     1
102
RTVSPost2010Prop41ColorIndex
 90
       18
102
RTVSPost2010Prop41ColorRGB
 90
        0
102
RTVSPost2010PropOp41
 70
     1
102
RTVSPost2010Prop42
 90
       50
102
RTVSPost2010PropOp42
 70
     1
102
RTVSPost2010Prop43
 90
        3
102
RTVSPost2010PropOp43
 70
     1
102
RTVSPost2010Prop44ColorIndex
 90
        5
102
RTVSPost2010Prop44ColorRGB
 90
      255
102
RTVSPost2010PropOp44
 70
     1
102
RTVSPost2010Prop45
280
     0
102
RTVSPost2010PropOp45
 70
     1
102
RTVSPost2010Prop46
 90
       50
102
RTVSPost2010PropOp46
 70
     1
102
RTVSPost2010Prop47
 90
       50
102
RTVSPost2010PropOp47
 70
     1
102
RTVSPost2010Prop48
 90
       50
102
RTVSPost2010PropOp48
 70
     1
102
RTVSPost2010Prop49
280
     0
102
RTVSPost2010PropOp49
 70
     1
102
RTVSPost2010Prop50
 90
       50
102
RTVSPost2010PropOp50
 70
     1
102
RTVSPost2010Prop51ColorIndex
 90
      256
102
RTVSPost2010Prop51ColorRGB
 90
-16777216
102
RTVSPost2010PropOp51
 70
     0
102
RTVSPost2010Prop52
140
1.0
102
RTVSPost2010PropOp52
 70
     0
102
RTVSPost2010Prop53
 90
        2
102
RTVSPost2010PropOp53
 70
     1
102
RTVSPost2010Prop54
  1
strokes_ogs.tif
102
RTVSPost2010PropOp54
 70
     1
102
RTVSPost2010Prop55
280
     0
102
RTVSPost2010PropOp55
 70
     1
102
RTVSPost2010Prop56
140
1.0
102
RTVSPost2010PropOp56
 70
     1
102
RTVSPost2010Prop57
140
1.0
102
RTVSPost2010PropOp57
 70
     1
102
RTVSPropertyOp0
 70
     1
102
RTVSPropertyOp1
 70
     1
102
RTVSPropertyOp2
 70
     1
102
RTVSPropertyOp3
 70
     1
102
RTVSPropertyOp4
 70
     1
102
RTVSPropertyOp5
 70
     1
102
RTVSPropertyOp6
 70
     1
102
RTVSPropertyOp7
 70
     1
102
RTVSPropertyOp8
 70
     1
102
RTVSPropertyOp9
 70
     1
102
RTVSPropertyOp10
 70
     1
102
RTVSPropertyOp11
 70
     1
102
RTVSPropertyOp12
 70
     1
102
RTVSPropertyOp13
 70
     1
102
RTVSPropertyOp14
 70
     1
102
RTVSPropertyOp15
 70
     1
102
RTVSPropertyOp16
 70
     1
102
RTVSPropertyOp17
 70
     1
102
RTVSPropertyOp18
 70
     1
102
RTVSPropertyOp19
 70
     1
102
RTVSPropertyOp20
 70
     1
102
RTVSPropertyOp21
 70
     1
102
RTVSPropertyOp22
 70
     1
102
RTVSPropertyOp23
 70
     1
102
RTVSPropertyOp24
 70
     1
102
RTVSPropertyOp25
 70
     1
102
RTVSPropertyOp26
 70
     1
102
RTVSPropertyOp27
 70
     1
102
RTVSPropertyOp28
 70
     1
102
RTVSPropertyOp29
 70
     1
102
RTVSPropertyOp30
 70
     1
102
RTVSPropertyOp31
 70
     1
102
RTVSPropertyOp32
 70
     1
102
RTVSPropertyOp33
 70
     1
102
RTVSPropertyOp34
 70
     1
102
RTVSPropertyOp35
 70
     1
102
RTVSPropertyOp36
 70
     1
102
RTVSPropertyOp37
 70
     1
102
RTVSPropertyOp38
 70
     1
102
RTVSPropertyOp39
 70
     1
102
RTVSPropertyOp40
 70
     1
102
RTVSPropertyOp41
 70
     1
102
RTVSPropertyOp42
 70
     1
102
RTVSPropertyOp43
 70
     1
102
RTVSPropertyOp44
 70
     1
102
RTVSPropertyOp45
 70
     1
102
RTVSPropertyOp46
 70
     1
102
RTVSPropertyOp47
 70
     1
102
RTVSPropertyOp48
 70
     1
102
RTVSPropertyOp49
 70
     1
102
RTVSPropertyOp50
 70
     1
102
RTVSPropertyOp51
 70
     0
102
RTVSPropertyOp52
 70
     0
102
RTVSPropertyOp53
 70
     1
102
RTVSPropertyOp54
 70
     1
102
RTVSPropertyOp55
 70
     1
102
RTVSPropertyOp56
 70
     1
102
RTVSPropertyOp57
 70
     1
102
RTVSPropertyOp58
 70
     1
102
RTVSPropertyOp59
 70
     1
102
RTVSPropertyOp60
 70
     1
102
RTVSPropertyOp61
 70
     1
102
RTVSPropertyOp62
 70
     1
  0
XRECORD
  5
38A
102
{ACAD_REACTORS
330
389
102
}
330
389
100
AcDbXrecord
280
     1
102
RTVSPost2010Prop28
280
     0
102
RTVSPost2010PropOp28
 70
     1
102
RTVSPost2010Prop29
280
     1
102
RTVSPost2010PropOp29
 70
     1
102
RTVSPost2010Prop30
280
     1
102
RTVSPost2010PropOp30
 70
     1
102
RTVSPost2010Prop31
280
     0
102
RTVSPost2010PropOp31
 70
     1
102
RTVSPost2010Prop32
280
     0
102
RTVSPost2010PropOp32
 70
     1
102
RTVSPost2010Prop33
280
     0
102
RTVSPost2010PropOp33
 70
     1
102
RTVSPost2010Prop34
280
     0
102
RTVSPost2010PropOp34
 70
     1
102
RTVSPost2010Prop35
280
     0
102
RTVSPost2010PropOp35
 70
     1
102
RTVSPost2010Prop36
280
     0
102
RTVSPost2010PropOp36
 70
     1
102
RTVSPost2010Prop37
 90
       50
102
RTVSPost2010PropOp37
 70
     1
102
RTVSPost2010Prop38
140
0.0
102
RTVSPost2010PropOp38
 70
     1
102
RTVSPost2010Prop39
140
1.0
102
RTVSPost2010PropOp39
 70
     1
102
RTVSPost2010Prop40
 90
        0
102
RTVSPost2010PropOp40
 70
     1
102
RTVSPost2010Prop41ColorIndex
 90
       18
102
RTVSPost2010Prop41ColorRGB
 90
        0
102
RTVSPost2010PropOp41
 70
     1
102
RTVSPost2010Prop42
 90
       50
102
RTVSPost2010PropOp42
 70
     1
102
RTVSPost2010Prop43
 90
        3
102
RTVSPost2010PropOp43
 70
     1
102
RTVSPost2010Prop44ColorIndex
 90
        5
102
RTVSPost2010Prop44ColorRGB
 90
      255
102
RTVSPost2010PropOp44
 70
     1
102
RTVSPost2010Prop45
280
     0
102
RTVSPost2010PropOp45
 70
     1
102
RTVSPost2010Prop46
 90
       50
102
RTVSPost2010PropOp46
 70
     1
102
RTVSPost2010Prop47
 90
       50
102
RTVSPost2010PropOp47
 70
     1
102
RTVSPost2010Prop48
 90
       50
102
RTVSPost2010PropOp48
 70
     1
102
RTVSPost2010Prop49
280
     0
102
RTVSPost2010PropOp49
 70
     1
102
RTVSPost2010Prop50
 90
       50
102
RTVSPost2010PropOp50
 70
     1
102
RTVSPost2010Prop51ColorIndex
 90
      256
102
RTVSPost2010Prop51ColorRGB
 90
-16777216
102
RTVSPost2010PropOp51
 70
     0
102
RTVSPost2010Prop52
140
1.0
102
RTVSPost2010PropOp52
 70
     0
102
RTVSPost2010Prop53
 90
        2
102
RTVSPost2010PropOp53
 70
     1
102
RTVSPost2010Prop54
  1
strokes_ogs.tif
102
RTVSPost2010PropOp54
 70
     1
102
RTVSPost2010Prop55
280
     0
102
RTVSPost2010PropOp55
 70
     1
102
RTVSPost2010Prop56
140
1.0
102
RTVSPost2010PropOp56
 70
     1
102
RTVSPost2010Prop57
140
1.0
102
RTVSPost2010PropOp57
 70
     1
102
RTVSPropertyOp0
 70
     1
102
RTVSPropertyOp1
 70
     1
102
RTVSPropertyOp2
 70
     1
102
RTVSPropertyOp3
 70
     1
102
RTVSPropertyOp4
 70
     1
102
RTVSPropertyOp5
 70
     1
102
RTVSPropertyOp6
 70
     1
102
RTVSPropertyOp7
 70
     1
102
RTVSPropertyOp8
 70
     1
102
RTVSPropertyOp9
 70
     1
102
RTVSPropertyOp10
 70
     1
102
RTVSPropertyOp11
 70
     1
102
RTVSPropertyOp12
 70
     1
102
RTVSPropertyOp13
 70
     1
102
RTVSPropertyOp14
 70
     1
102
RTVSPropertyOp15
 70
     1
102
RTVSPropertyOp16
 70
     1
102
RTVSPropertyOp17
 70
     1
102
RTVSPropertyOp18
 70
     1
102
RTVSPropertyOp19
 70
     1
102
RTVSPropertyOp20
 70
     1
102
RTVSPropertyOp21
 70
     1
102
RTVSPropertyOp22
 70
     1
102
RTVSPropertyOp23
 70
     1
102
RTVSPropertyOp24
 70
     1
102
RTVSPropertyOp25
 70
     1
102
RTVSPropertyOp26
 70
     1
102
RTVSPropertyOp27
 70
     1
102
RTVSPropertyOp28
 70
     1
102
RTVSPropertyOp29
 70
     1
102
RTVSPropertyOp30
 70
     1
102
RTVSPropertyOp31
 70
     1
102
RTVSPropertyOp32
 70
     1
102
RTVSPropertyOp33
 70
     1
102
RTVSPropertyOp34
 70
     1
102
RTVSPropertyOp35
 70
     1
102
RTVSPropertyOp36
 70
     1
102
RTVSPropertyOp37
 70
     1
102
RTVSPropertyOp38
 70
     1
102
RTVSPropertyOp39
 70
     1
102
RTVSPropertyOp40
 70
     1
102
RTVSPropertyOp41
 70
     1
102
RTVSPropertyOp42
 70
     1
102
RTVSPropertyOp43
 70
     1
102
RTVSPropertyOp44
 70
     1
102
RTVSPropertyOp45
 70
     1
102
RTVSPropertyOp46
 70
     1
102
RTVSPropertyOp47
 70
     1
102
RTVSPropertyOp48
 70
     1
102
RTVSPropertyOp49
 70
     1
102
RTVSPropertyOp50
 70
     1
102
RTVSPropertyOp51
 70
     0
102
RTVSPropertyOp52
 70
     0
102
RTVSPropertyOp53
 70
     1
102
RTVSPropertyOp54
 70
     1
102
RTVSPropertyOp55
 70
     1
102
RTVSPropertyOp56
 70
     1
102
RTVSPropertyOp57
 70
     1
102
RTVSPropertyOp58
 70
     1
102
RTVSPropertyOp59
 70
     1
102
RTVSPropertyOp60
 70
     1
102
RTVSPropertyOp61
 70
     1
102
RTVSPropertyOp62
 70
     1
  0
XRECORD
  5
39A
102
{ACAD_REACTORS
330
399
102
}
330
399
100
AcDbXrecord
280
     1
102
RTVSPost2010Prop28
280
     0
102
RTVSPost2010PropOp28
 70
     0
102
RTVSPost2010Prop29
280
     1
102
RTVSPost2010PropOp29
 70
     0
102
RTVSPost2010Prop30
280
     1
102
RTVSPost2010PropOp30
 70
     0
102
RTVSPost2010Prop31
280
     0
102
RTVSPost2010PropOp31
 70
     0
102
RTVSPost2010Prop32
280
     0
102
RTVSPost2010PropOp32
 70
     0
102
RTVSPost2010Prop33
280
     0
102
RTVSPost2010PropOp33
 70
     0
102
RTVSPost2010Prop34
280
     0
102
RTVSPost2010PropOp34
 70
     0
102
RTVSPost2010Prop35
280
     0
102
RTVSPost2010PropOp35
 70
     0
102
RTVSPost2010Prop36
280
     0
102
RTVSPost2010PropOp36
 70
     0
102
RTVSPost2010Prop37
 90
       50
102
RTVSPost2010PropOp37
 70
     0
102
RTVSPost2010Prop38
140
0.0
102
RTVSPost2010PropOp38
 70
     0
102
RTVSPost2010Prop39
140
1.0
102
RTVSPost2010PropOp39
 70
     0
102
RTVSPost2010Prop40
 90
        0
102
RTVSPost2010PropOp40
 70
     0
102
RTVSPost2010Prop41ColorIndex
 90
       18
102
RTVSPost2010Prop41ColorRGB
 90
        0
102
RTVSPost2010PropOp41
 70
     0
102
RTVSPost2010Prop42
 90
       50
102
RTVSPost2010PropOp42
 70
     0
102
RTVSPost2010Prop43
 90
        3
102
RTVSPost2010PropOp43
 70
     0
102
RTVSPost2010Prop44ColorIndex
 90
        5
102
RTVSPost2010Prop44ColorRGB
 90
      255
102
RTVSPost2010PropOp44
 70
     0
102
RTVSPost2010Prop45
280
     0
102
RTVSPost2010PropOp45
 70
     0
102
RTVSPost2010Prop46
 90
       50
102
RTVSPost2010PropOp46
 70
     0
102
RTVSPost2010Prop47
 90
       50
102
RTVSPost2010PropOp47
 70
     0
102
RTVSPost2010Prop48
 90
       50
102
RTVSPost2010PropOp48
 70
     0
102
RTVSPost2010Prop49
280
     0
102
RTVSPost2010PropOp49
 70
     0
102
RTVSPost2010Prop50
 90
       50
102
RTVSPost2010PropOp50
 70
     0
102
RTVSPost2010Prop51ColorIndex
 90
      256
102
RTVSPost2010Prop51ColorRGB
 90
-16777216
102
RTVSPost2010PropOp51
 70
     0
102
RTVSPost2010Prop52
140
1.0
102
RTVSPost2010PropOp52
 70
     0
102
RTVSPost2010Prop53
 90
        2
102
RTVSPost2010PropOp53
 70
     0
102
RTVSPost2010Prop54
  1
strokes_ogs.tif
102
RTVSPost2010PropOp54
 70
     0
102
RTVSPost2010Prop55
280
     0
102
RTVSPost2010PropOp55
 70
     0
102
RTVSPost2010Prop56
140
1.0
102
RTVSPost2010PropOp56
 70
     0
102
RTVSPost2010Prop57
140
1.0
102
RTVSPost2010PropOp57
 70
     0
102
RTVSPropertyOp0
 70
     0
102
RTVSPropertyOp1
 70
     0
102
RTVSPropertyOp2
 70
     0
102
RTVSPropertyOp3
 70
     0
102
RTVSPropertyOp4
 70
     0
102
RTVSPropertyOp5
 70
     0
102
RTVSPropertyOp6
 70
     0
102
RTVSPropertyOp7
 70
     0
102
RTVSPropertyOp8
 70
     0
102
RTVSPropertyOp9
 70
     0
102
RTVSPropertyOp10
 70
     0
102
RTVSPropertyOp11
 70
     0
102
RTVSPropertyOp12
 70
     0
102
RTVSPropertyOp13
 70
     0
102
RTVSPropertyOp14
 70
     2
102
RTVSPropertyOp15
 70
     0
102
RTVSPropertyOp16
 70
     0
102
RTVSPropertyOp17
 70
     0
102
RTVSPropertyOp18
 70
     0
102
RTVSPropertyOp19
 70
     0
102
RTVSPropertyOp20
 70
     0
102
RTVSPropertyOp21
 70
     0
102
RTVSPropertyOp22
 70
     0
102
RTVSPropertyOp23
 70
     0
102
RTVSPropertyOp24
 70
     0
102
RTVSPropertyOp25
 70
     0
102
RTVSPropertyOp26
 70
     0
102
RTVSPropertyOp27
 70
     0
102
RTVSPropertyOp28
 70
     0
102
RTVSPropertyOp29
 70
     0
102
RTVSPropertyOp30
 70
     0
102
RTVSPropertyOp31
 70
     0
102
RTVSPropertyOp32
 70
     0
102
RTVSPropertyOp33
 70
     0
102
RTVSPropertyOp34
 70
     0
102
RTVSPropertyOp35
 70
     0
102
RTVSPropertyOp36
 70
     0
102
RTVSPropertyOp37
 70
     0
102
RTVSPropertyOp38
 70
     0
102
RTVSPropertyOp39
 70
     0
102
RTVSPropertyOp40
 70
     0
102
RTVSPropertyOp41
 70
     0
102
RTVSPropertyOp42
 70
     0
102
RTVSPropertyOp43
 70
     0
102
RTVSPropertyOp44
 70
     0
102
RTVSPropertyOp45
 70
     0
102
RTVSPropertyOp46
 70
     0
102
RTVSPropertyOp47
 70
     0
102
RTVSPropertyOp48
 70
     0
102
RTVSPropertyOp49
 70
     0
102
RTVSPropertyOp50
 70
     0
102
RTVSPropertyOp51
 70
     0
102
RTVSPropertyOp52
 70
     0
102
RTVSPropertyOp53
 70
     0
102
RTVSPropertyOp54
 70
     0
102
RTVSPropertyOp55
 70
     0
102
RTVSPropertyOp56
 70
     0
102
RTVSPropertyOp57
 70
     0
102
RTVSPropertyOp58
 70
     1
102
RTVSPropertyOp59
 70
     1
102
RTVSPropertyOp60
 70
     1
102
RTVSPropertyOp61
 70
     1
102
RTVSPropertyOp62
 70
     1
  0
XRECORD
  5
392
102
{ACAD_REACTORS
330
391
102
}
330
391
100
AcDbXrecord
280
     1
102
RTVSPost2010Prop28
280
     0
102
RTVSPost2010PropOp28
 70
     1
102
RTVSPost2010Prop29
280
     1
102
RTVSPost2010PropOp29
 70
     1
102
RTVSPost2010Prop30
280
     1
102
RTVSPost2010PropOp30
 70
     1
102
RTVSPost2010Prop31
280
     0
102
RTVSPost2010PropOp31
 70
     1
102
RTVSPost2010Prop32
280
     0
102
RTVSPost2010PropOp32
 70
     1
102
RTVSPost2010Prop33
280
     0
102
RTVSPost2010PropOp33
 70
     1
102
RTVSPost2010Prop34
280
     0
102
RTVSPost2010PropOp34
 70
     1
102
RTVSPost2010Prop35
280
     0
102
RTVSPost2010PropOp35
 70
     1
102
RTVSPost2010Prop36
280
     0
102
RTVSPost2010PropOp36
 70
     1
102
RTVSPost2010Prop37
 90
       50
102
RTVSPost2010PropOp37
 70
     1
102
RTVSPost2010Prop38
140
0.0
102
RTVSPost2010PropOp38
 70
     1
102
RTVSPost2010Prop39
140
1.0
102
RTVSPost2010PropOp39
 70
     1
102
RTVSPost2010Prop40
 90
        0
102
RTVSPost2010PropOp40
 70
     1
102
RTVSPost2010Prop41ColorIndex
 90
       18
102
RTVSPost2010Prop41ColorRGB
 90
        0
102
RTVSPost2010PropOp41
 70
     1
102
RTVSPost2010Prop42
 90
       50
102
RTVSPost2010PropOp42
 70
     1
102
RTVSPost2010Prop43
 90
        3
102
RTVSPost2010PropOp43
 70
     1
102
RTVSPost2010Prop44ColorIndex
 90
        5
102
RTVSPost2010Prop44ColorRGB
 90
      255
102
RTVSPost2010PropOp44
 70
     1
102
RTVSPost2010Prop45
280
     0
102
RTVSPost2010PropOp45
 70
     1
102
RTVSPost2010Prop46
 90
       50
102
RTVSPost2010PropOp46
 70
     1
102
RTVSPost2010Prop47
 90
       50
102
RTVSPost2010PropOp47
 70
     1
102
RTVSPost2010Prop48
 90
       50
102
RTVSPost2010PropOp48
 70
     1
102
RTVSPost2010Prop49
280
     0
102
RTVSPost2010PropOp49
 70
     1
102
RTVSPost2010Prop50
 90
       50
102
RTVSPost2010PropOp50
 70
     1
102
RTVSPost2010Prop51ColorIndex
 90
      256
102
RTVSPost2010Prop51ColorRGB
 90
-16777216
102
RTVSPost2010PropOp51
 70
     0
102
RTVSPost2010Prop52
140
1.0
102
RTVSPost2010PropOp52
 70
     0
102
RTVSPost2010Prop53
 90
        2
102
RTVSPost2010PropOp53
 70
     1
102
RTVSPost2010Prop54
  1
strokes_ogs.tif
102
RTVSPost2010PropOp54
 70
     1
102
RTVSPost2010Prop55
280
     0
102
RTVSPost2010PropOp55
 70
     1
102
RTVSPost2010Prop56
140
1.0
102
RTVSPost2010PropOp56
 70
     1
102
RTVSPost2010Prop57
140
1.0
102
RTVSPost2010PropOp57
 70
     1
102
RTVSPropertyOp0
 70
     1
102
RTVSPropertyOp1
 70
     1
102
RTVSPropertyOp2
 70
     1
102
RTVSPropertyOp3
 70
     1
102
RTVSPropertyOp4
 70
     1
102
RTVSPropertyOp5
 70
     1
102
RTVSPropertyOp6
 70
     1
102
RTVSPropertyOp7
 70
     1
102
RTVSPropertyOp8
 70
     1
102
RTVSPropertyOp9
 70
     1
102
RTVSPropertyOp10
 70
     1
102
RTVSPropertyOp11
 70
     1
102
RTVSPropertyOp12
 70
     1
102
RTVSPropertyOp13
 70
     1
102
RTVSPropertyOp14
 70
     1
102
RTVSPropertyOp15
 70
     1
102
RTVSPropertyOp16
 70
     1
102
RTVSPropertyOp17
 70
     1
102
RTVSPropertyOp18
 70
     1
102
RTVSPropertyOp19
 70
     1
102
RTVSPropertyOp20
 70
     1
102
RTVSPropertyOp21
 70
     1
102
RTVSPropertyOp22
 70
     1
102
RTVSPropertyOp23
 70
     1
102
RTVSPropertyOp24
 70
     1
102
RTVSPropertyOp25
 70
     1
102
RTVSPropertyOp26
 70
     1
102
RTVSPropertyOp27
 70
     1
102
RTVSPropertyOp28
 70
     1
102
RTVSPropertyOp29
 70
     1
102
RTVSPropertyOp30
 70
     1
102
RTVSPropertyOp31
 70
     1
102
RTVSPropertyOp32
 70
     1
102
RTVSPropertyOp33
 70
     1
102
RTVSPropertyOp34
 70
     1
102
RTVSPropertyOp35
 70
     1
102
RTVSPropertyOp36
 70
     1
102
RTVSPropertyOp37
 70
     1
102
RTVSPropertyOp38
 70
     1
102
RTVSPropertyOp39
 70
     1
102
RTVSPropertyOp40
 70
     1
102
RTVSPropertyOp41
 70
     1
102
RTVSPropertyOp42
 70
     1
102
RTVSPropertyOp43
 70
     1
102
RTVSPropertyOp44
 70
     1
102
RTVSPropertyOp45
 70
     1
102
RTVSPropertyOp46
 70
     1
102
RTVSPropertyOp47
 70
     1
102
RTVSPropertyOp48
 70
     1
102
RTVSPropertyOp49
 70
     1
102
RTVSPropertyOp50
 70
     1
102
RTVSPropertyOp51
 70
     0
102
RTVSPropertyOp52
 70
     0
102
RTVSPropertyOp53
 70
     1
102
RTVSPropertyOp54
 70
     1
102
RTVSPropertyOp55
 70
     1
102
RTVSPropertyOp56
 70
     1
102
RTVSPropertyOp57
 70
     1
102
RTVSPropertyOp58
 70
     1
102
RTVSPropertyOp59
 70
     1
102
RTVSPropertyOp60
 70
     1
102
RTVSPropertyOp61
 70
     1
102
RTVSPropertyOp62
 70
     1
  0
XRECORD
  5
376
102
{ACAD_REACTORS
330
375
102
}
330
375
100
AcDbXrecord
280
     1
102
RTVSPost2010Prop28
280
     0
102
RTVSPost2010PropOp28
 70
     1
102
RTVSPost2010Prop29
280
     1
102
RTVSPost2010PropOp29
 70
     1
102
RTVSPost2010Prop30
280
     1
102
RTVSPost2010PropOp30
 70
     1
102
RTVSPost2010Prop31
280
     0
102
RTVSPost2010PropOp31
 70
     1
102
RTVSPost2010Prop32
280
     0
102
RTVSPost2010PropOp32
 70
     1
102
RTVSPost2010Prop33
280
     0
102
RTVSPost2010PropOp33
 70
     1
102
RTVSPost2010Prop34
280
     0
102
RTVSPost2010PropOp34
 70
     1
102
RTVSPost2010Prop35
280
     0
102
RTVSPost2010PropOp35
 70
     1
102
RTVSPost2010Prop36
280
     0
102
RTVSPost2010PropOp36
 70
     1
102
RTVSPost2010Prop37
 90
       50
102
RTVSPost2010PropOp37
 70
     1
102
RTVSPost2010Prop38
140
0.0
102
RTVSPost2010PropOp38
 70
     1
102
RTVSPost2010Prop39
140
1.0
102
RTVSPost2010PropOp39
 70
     1
102
RTVSPost2010Prop40
 90
        0
102
RTVSPost2010PropOp40
 70
     1
102
RTVSPost2010Prop41ColorIndex
 90
       18
102
RTVSPost2010Prop41ColorRGB
 90
        0
102
RTVSPost2010PropOp41
 70
     1
102
RTVSPost2010Prop42
 90
       50
102
RTVSPost2010PropOp42
 70
     1
102
RTVSPost2010Prop43
 90
        3
102
RTVSPost2010PropOp43
 70
     1
102
RTVSPost2010Prop44ColorIndex
 90
        5
102
RTVSPost2010Prop44ColorRGB
 90
      255
102
RTVSPost2010PropOp44
 70
     1
102
RTVSPost2010Prop45
280
     0
102
RTVSPost2010PropOp45
 70
     1
102
RTVSPost2010Prop46
 90
       50
102
RTVSPost2010PropOp46
 70
     1
102
RTVSPost2010Prop47
 90
       50
102
RTVSPost2010PropOp47
 70
     1
102
RTVSPost2010Prop48
 90
       50
102
RTVSPost2010PropOp48
 70
     1
102
RTVSPost2010Prop49
280
     0
102
RTVSPost2010PropOp49
 70
     1
102
RTVSPost2010Prop50
 90
       50
102
RTVSPost2010PropOp50
 70
     1
102
RTVSPost2010Prop51ColorIndex
 90
      256
102
RTVSPost2010Prop51ColorRGB
 90
-16777216
102
RTVSPost2010PropOp51
 70
     0
102
RTVSPost2010Prop52
140
1.0
102
RTVSPost2010PropOp52
 70
     0
102
RTVSPost2010Prop53
 90
        2
102
RTVSPost2010PropOp53
 70
     1
102
RTVSPost2010Prop54
  1
strokes_ogs.tif
102
RTVSPost2010PropOp54
 70
     1
102
RTVSPost2010Prop55
280
     0
102
RTVSPost2010PropOp55
 70
     1
102
RTVSPost2010Prop56
140
1.0
102
RTVSPost2010PropOp56
 70
     1
102
RTVSPost2010Prop57
140
1.0
102
RTVSPost2010PropOp57
 70
     1
102
RTVSPropertyOp0
 70
     1
102
RTVSPropertyOp1
 70
     1
102
RTVSPropertyOp2
 70
     1
102
RTVSPropertyOp3
 70
     1
102
RTVSPropertyOp4
 70
     1
102
RTVSPropertyOp5
 70
     1
102
RTVSPropertyOp6
 70
     1
102
RTVSPropertyOp7
 70
     1
102
RTVSPropertyOp8
 70
     1
102
RTVSPropertyOp9
 70
     1
102
RTVSPropertyOp10
 70
     1
102
RTVSPropertyOp11
 70
     1
102
RTVSPropertyOp12
 70
     1
102
RTVSPropertyOp13
 70
     1
102
RTVSPropertyOp14
 70
     1
102
RTVSPropertyOp15
 70
     1
102
RTVSPropertyOp16
 70
     1
102
RTVSPropertyOp17
 70
     1
102
RTVSPropertyOp18
 70
     1
102
RTVSPropertyOp19
 70
     1
102
RTVSPropertyOp20
 70
     1
102
RTVSPropertyOp21
 70
     1
102
RTVSPropertyOp22
 70
     1
102
RTVSPropertyOp23
 70
     1
102
RTVSPropertyOp24
 70
     1
102
RTVSPropertyOp25
 70
     1
102
RTVSPropertyOp26
 70
     1
102
RTVSPropertyOp27
 70
     1
102
RTVSPropertyOp28
 70
     1
102
RTVSPropertyOp29
 70
     1
102
RTVSPropertyOp30
 70
     1
102
RTVSPropertyOp31
 70
     1
102
RTVSPropertyOp32
 70
     1
102
RTVSPropertyOp33
 70
     1
102
RTVSPropertyOp34
 70
     1
102
RTVSPropertyOp35
 70
     1
102
RTVSPropertyOp36
 70
     1
102
RTVSPropertyOp37
 70
     1
102
RTVSPropertyOp38
 70
     1
102
RTVSPropertyOp39
 70
     1
102
RTVSPropertyOp40
 70
     1
102
RTVSPropertyOp41
 70
     1
102
RTVSPropertyOp42
 70
     1
102
RTVSPropertyOp43
 70
     1
102
RTVSPropertyOp44
 70
     1
102
RTVSPropertyOp45
 70
     1
102
RTVSPropertyOp46
 70
     1
102
RTVSPropertyOp47
 70
     1
102
RTVSPropertyOp48
 70
     1
102
RTVSPropertyOp49
 70
     1
102
RTVSPropertyOp50
 70
     1
102
RTVSPropertyOp51
 70
     0
102
RTVSPropertyOp52
 70
     0
102
RTVSPropertyOp53
 70
     1
102
RTVSPropertyOp54
 70
     1
102
RTVSPropertyOp55
 70
     1
102
RTVSPropertyOp56
 70
     1
102
RTVSPropertyOp57
 70
     1
102
RTVSPropertyOp58
 70
     1
102
RTVSPropertyOp59
 70
     1
102
RTVSPropertyOp60
 70
     1
102
RTVSPropertyOp61
 70
     1
102
RTVSPropertyOp62
 70
     1
  0
XRECORD
  5
378
102
{ACAD_REACTORS
330
377
102
}
330
377
100
AcDbXrecord
280
     1
102
RTVSPost2010Prop28
280
     0
102
RTVSPost2010PropOp28
 70
     1
102
RTVSPost2010Prop29
280
     1
102
RTVSPost2010PropOp29
 70
     1
102
RTVSPost2010Prop30
280
     1
102
RTVSPost2010PropOp30
 70
     1
102
RTVSPost2010Prop31
280
     0
102
RTVSPost2010PropOp31
 70
     1
102
RTVSPost2010Prop32
280
     0
102
RTVSPost2010PropOp32
 70
     1
102
RTVSPost2010Prop33
280
     0
102
RTVSPost2010PropOp33
 70
     1
102
RTVSPost2010Prop34
280
     0
102
RTVSPost2010PropOp34
 70
     1
102
RTVSPost2010Prop35
280
     0
102
RTVSPost2010PropOp35
 70
     1
102
RTVSPost2010Prop36
280
     0
102
RTVSPost2010PropOp36
 70
     1
102
RTVSPost2010Prop37
 90
       50
102
RTVSPost2010PropOp37
 70
     1
102
RTVSPost2010Prop38
140
0.0
102
RTVSPost2010PropOp38
 70
     1
102
RTVSPost2010Prop39
140
1.0
102
RTVSPost2010PropOp39
 70
     1
102
RTVSPost2010Prop40
 90
        0
102
RTVSPost2010PropOp40
 70
     1
102
RTVSPost2010Prop41ColorIndex
 90
       18
102
RTVSPost2010Prop41ColorRGB
 90
        0
102
RTVSPost2010PropOp41
 70
     1
102
RTVSPost2010Prop42
 90
       50
102
RTVSPost2010PropOp42
 70
     1
102
RTVSPost2010Prop43
 90
        3
102
RTVSPost2010PropOp43
 70
     1
102
RTVSPost2010Prop44ColorIndex
 90
        5
102
RTVSPost2010Prop44ColorRGB
 90
      255
102
RTVSPost2010PropOp44
 70
     1
102
RTVSPost2010Prop45
280
     0
102
RTVSPost2010PropOp45
 70
     1
102
RTVSPost2010Prop46
 90
       50
102
RTVSPost2010PropOp46
 70
     1
102
RTVSPost2010Prop47
 90
       50
102
RTVSPost2010PropOp47
 70
     1
102
RTVSPost2010Prop48
 90
       50
102
RTVSPost2010PropOp48
 70
     1
102
RTVSPost2010Prop49
280
     0
102
RTVSPost2010PropOp49
 70
     1
102
RTVSPost2010Prop50
 90
       50
102
RTVSPost2010PropOp50
 70
     1
102
RTVSPost2010Prop51ColorIndex
 90
      256
102
RTVSPost2010Prop51ColorRGB
 90
-16777216
102
RTVSPost2010PropOp51
 70
     0
102
RTVSPost2010Prop52
140
1.0
102
RTVSPost2010PropOp52
 70
     0
102
RTVSPost2010Prop53
 90
        2
102
RTVSPost2010PropOp53
 70
     1
102
RTVSPost2010Prop54
  1
strokes_ogs.tif
102
RTVSPost2010PropOp54
 70
     1
102
RTVSPost2010Prop55
280
     0
102
RTVSPost2010PropOp55
 70
     1
102
RTVSPost2010Prop56
140
1.0
102
RTVSPost2010PropOp56
 70
     1
102
RTVSPost2010Prop57
140
1.0
102
RTVSPost2010PropOp57
 70
     1
102
RTVSPropertyOp0
 70
     1
102
RTVSPropertyOp1
 70
     1
102
RTVSPropertyOp2
 70
     1
102
RTVSPropertyOp3
 70
     1
102
RTVSPropertyOp4
 70
     1
102
RTVSPropertyOp5
 70
     1
102
RTVSPropertyOp6
 70
     1
102
RTVSPropertyOp7
 70
     1
102
RTVSPropertyOp8
 70
     1
102
RTVSPropertyOp9
 70
     1
102
RTVSPropertyOp10
 70
     1
102
RTVSPropertyOp11
 70
     1
102
RTVSPropertyOp12
 70
     1
102
RTVSPropertyOp13
 70
     1
102
RTVSPropertyOp14
 70
     1
102
RTVSPropertyOp15
 70
     1
102
RTVSPropertyOp16
 70
     1
102
RTVSPropertyOp17
 70
     1
102
RTVSPropertyOp18
 70
     1
102
RTVSPropertyOp19
 70
     1
102
RTVSPropertyOp20
 70
     1
102
RTVSPropertyOp21
 70
     1
102
RTVSPropertyOp22
 70
     1
102
RTVSPropertyOp23
 70
     1
102
RTVSPropertyOp24
 70
     1
102
RTVSPropertyOp25
 70
     1
102
RTVSPropertyOp26
 70
     1
102
RTVSPropertyOp27
 70
     1
102
RTVSPropertyOp28
 70
     1
102
RTVSPropertyOp29
 70
     1
102
RTVSPropertyOp30
 70
     1
102
RTVSPropertyOp31
 70
     1
102
RTVSPropertyOp32
 70
     1
102
RTVSPropertyOp33
 70
     1
102
RTVSPropertyOp34
 70
     1
102
RTVSPropertyOp35
 70
     1
102
RTVSPropertyOp36
 70
     1
102
RTVSPropertyOp37
 70
     1
102
RTVSPropertyOp38
 70
     1
102
RTVSPropertyOp39
 70
     1
102
RTVSPropertyOp40
 70
     1
102
RTVSPropertyOp41
 70
     1
102
RTVSPropertyOp42
 70
     1
102
RTVSPropertyOp43
 70
     1
102
RTVSPropertyOp44
 70
     1
102
RTVSPropertyOp45
 70
     1
102
RTVSPropertyOp46
 70
     1
102
RTVSPropertyOp47
 70
     1
102
RTVSPropertyOp48
 70
     1
102
RTVSPropertyOp49
 70
     1
102
RTVSPropertyOp50
 70
     1
102
RTVSPropertyOp51
 70
     0
102
RTVSPropertyOp52
 70
     0
102
RTVSPropertyOp53
 70
     1
102
RTVSPropertyOp54
 70
     1
102
RTVSPropertyOp55
 70
     1
102
RTVSPropertyOp56
 70
     1
102
RTVSPropertyOp57
 70
     1
102
RTVSPropertyOp58
 70
     1
102
RTVSPropertyOp59
 70
     1
102
RTVSPropertyOp60
 70
     1
102
RTVSPropertyOp61
 70
     1
102
RTVSPropertyOp62
 70
     1
  0
XRECORD
  5
37A
102
{ACAD_REACTORS
330
379
102
}
330
379
100
AcDbXrecord
280
     1
102
RTVSPost2010Prop28
280
     0
102
RTVSPost2010PropOp28
 70
     1
102
RTVSPost2010Prop29
280
     1
102
RTVSPost2010PropOp29
 70
     1
102
RTVSPost2010Prop30
280
     1
102
RTVSPost2010PropOp30
 70
     1
102
RTVSPost2010Prop31
280
     0
102
RTVSPost2010PropOp31
 70
     1
102
RTVSPost2010Prop32
280
     0
102
RTVSPost2010PropOp32
 70
     1
102
RTVSPost2010Prop33
280
     0
102
RTVSPost2010PropOp33
 70
     1
102
RTVSPost2010Prop34
280
     0
102
RTVSPost2010PropOp34
 70
     1
102
RTVSPost2010Prop35
280
     0
102
RTVSPost2010PropOp35
 70
     1
102
RTVSPost2010Prop36
280
     0
102
RTVSPost2010PropOp36
 70
     1
102
RTVSPost2010Prop37
 90
       50
102
RTVSPost2010PropOp37
 70
     1
102
RTVSPost2010Prop38
140
0.0
102
RTVSPost2010PropOp38
 70
     1
102
RTVSPost2010Prop39
140
1.0
102
RTVSPost2010PropOp39
 70
     1
102
RTVSPost2010Prop40
 90
        0
102
RTVSPost2010PropOp40
 70
     1
102
RTVSPost2010Prop41ColorIndex
 90
       18
102
RTVSPost2010Prop41ColorRGB
 90
        0
102
RTVSPost2010PropOp41
 70
     1
102
RTVSPost2010Prop42
 90
       50
102
RTVSPost2010PropOp42
 70
     1
102
RTVSPost2010Prop43
 90
        3
102
RTVSPost2010PropOp43
 70
     1
102
RTVSPost2010Prop44ColorIndex
 90
        5
102
RTVSPost2010Prop44ColorRGB
 90
      255
102
RTVSPost2010PropOp44
 70
     1
102
RTVSPost2010Prop45
280
     0
102
RTVSPost2010PropOp45
 70
     1
102
RTVSPost2010Prop46
 90
       50
102
RTVSPost2010PropOp46
 70
     1
102
RTVSPost2010Prop47
 90
       50
102
RTVSPost2010PropOp47
 70
     1
102
RTVSPost2010Prop48
 90
       50
102
RTVSPost2010PropOp48
 70
     1
102
RTVSPost2010Prop49
280
     0
102
RTVSPost2010PropOp49
 70
     1
102
RTVSPost2010Prop50
 90
       50
102
RTVSPost2010PropOp50
 70
     1
102
RTVSPost2010Prop51ColorIndex
 90
      256
102
RTVSPost2010Prop51ColorRGB
 90
-16777216
102
RTVSPost2010PropOp51
 70
     0
102
RTVSPost2010Prop52
140
1.0
102
RTVSPost2010PropOp52
 70
     0
102
RTVSPost2010Prop53
 90
        2
102
RTVSPost2010PropOp53
 70
     1
102
RTVSPost2010Prop54
  1
strokes_ogs.tif
102
RTVSPost2010PropOp54
 70
     1
102
RTVSPost2010Prop55
280
     0
102
RTVSPost2010PropOp55
 70
     1
102
RTVSPost2010Prop56
140
1.0
102
RTVSPost2010PropOp56
 70
     1
102
RTVSPost2010Prop57
140
1.0
102
RTVSPost2010PropOp57
 70
     1
102
RTVSPropertyOp0
 70
     1
102
RTVSPropertyOp1
 70
     1
102
RTVSPropertyOp2
 70
     1
102
RTVSPropertyOp3
 70
     1
102
RTVSPropertyOp4
 70
     1
102
RTVSPropertyOp5
 70
     1
102
RTVSPropertyOp6
 70
     1
102
RTVSPropertyOp7
 70
     1
102
RTVSPropertyOp8
 70
     1
102
RTVSPropertyOp9
 70
     1
102
RTVSPropertyOp10
 70
     1
102
RTVSPropertyOp11
 70
     1
102
RTVSPropertyOp12
 70
     1
102
RTVSPropertyOp13
 70
     1
102
RTVSPropertyOp14
 70
     1
102
RTVSPropertyOp15
 70
     1
102
RTVSPropertyOp16
 70
     1
102
RTVSPropertyOp17
 70
     1
102
RTVSPropertyOp18
 70
     1
102
RTVSPropertyOp19
 70
     1
102
RTVSPropertyOp20
 70
     1
102
RTVSPropertyOp21
 70
     1
102
RTVSPropertyOp22
 70
     1
102
RTVSPropertyOp23
 70
     1
102
RTVSPropertyOp24
 70
     1
102
RTVSPropertyOp25
 70
     1
102
RTVSPropertyOp26
 70
     1
102
RTVSPropertyOp27
 70
     1
102
RTVSPropertyOp28
 70
     1
102
RTVSPropertyOp29
 70
     1
102
RTVSPropertyOp30
 70
     1
102
RTVSPropertyOp31
 70
     1
102
RTVSPropertyOp32
 70
     1
102
RTVSPropertyOp33
 70
     1
102
RTVSPropertyOp34
 70
     1
102
RTVSPropertyOp35
 70
     1
102
RTVSPropertyOp36
 70
     1
102
RTVSPropertyOp37
 70
     1
102
RTVSPropertyOp38
 70
     1
102
RTVSPropertyOp39
 70
     1
102
RTVSPropertyOp40
 70
     1
102
RTVSPropertyOp41
 70
     1
102
RTVSPropertyOp42
 70
     1
102
RTVSPropertyOp43
 70
     1
102
RTVSPropertyOp44
 70
     1
102
RTVSPropertyOp45
 70
     1
102
RTVSPropertyOp46
 70
     1
102
RTVSPropertyOp47
 70
     1
102
RTVSPropertyOp48
 70
     1
102
RTVSPropertyOp49
 70
     1
102
RTVSPropertyOp50
 70
     1
102
RTVSPropertyOp51
 70
     0
102
RTVSPropertyOp52
 70
     0
102
RTVSPropertyOp53
 70
     1
102
RTVSPropertyOp54
 70
     1
102
RTVSPropertyOp55
 70
     1
102
RTVSPropertyOp56
 70
     1
102
RTVSPropertyOp57
 70
     1
102
RTVSPropertyOp58
 70
     1
102
RTVSPropertyOp59
 70
     1
102
RTVSPropertyOp60
 70
     1
102
RTVSPropertyOp61
 70
     1
102
RTVSPropertyOp62
 70
     1
  0
XRECORD
  5
37C
102
{ACAD_REACTORS
330
37B
102
}
330
37B
100
AcDbXrecord
280
     1
102
RTVSPost2010Prop28
280
     0
102
RTVSPost2010PropOp28
 70
     1
102
RTVSPost2010Prop29
280
     1
102
RTVSPost2010PropOp29
 70
     1
102
RTVSPost2010Prop30
280
     1
102
RTVSPost2010PropOp30
 70
     1
102
RTVSPost2010Prop31
280
     0
102
RTVSPost2010PropOp31
 70
     1
102
RTVSPost2010Prop32
280
     0
102
RTVSPost2010PropOp32
 70
     1
102
RTVSPost2010Prop33
280
     0
102
RTVSPost2010PropOp33
 70
     1
102
RTVSPost2010Prop34
280
     0
102
RTVSPost2010PropOp34
 70
     1
102
RTVSPost2010Prop35
280
     0
102
RTVSPost2010PropOp35
 70
     1
102
RTVSPost2010Prop36
280
     0
102
RTVSPost2010PropOp36
 70
     1
102
RTVSPost2010Prop37
 90
       50
102
RTVSPost2010PropOp37
 70
     1
102
RTVSPost2010Prop38
140
0.0
102
RTVSPost2010PropOp38
 70
     1
102
RTVSPost2010Prop39
140
1.0
102
RTVSPost2010PropOp39
 70
     1
102
RTVSPost2010Prop40
 90
        0
102
RTVSPost2010PropOp40
 70
     1
102
RTVSPost2010Prop41ColorIndex
 90
       18
102
RTVSPost2010Prop41ColorRGB
 90
        0
102
RTVSPost2010PropOp41
 70
     1
102
RTVSPost2010Prop42
 90
       50
102
RTVSPost2010PropOp42
 70
     1
102
RTVSPost2010Prop43
 90
        3
102
RTVSPost2010PropOp43
 70
     1
102
RTVSPost2010Prop44ColorIndex
 90
        5
102
RTVSPost2010Prop44ColorRGB
 90
      255
102
RTVSPost2010PropOp44
 70
     1
102
RTVSPost2010Prop45
280
     0
102
RTVSPost2010PropOp45
 70
     1
102
RTVSPost2010Prop46
 90
       50
102
RTVSPost2010PropOp46
 70
     1
102
RTVSPost2010Prop47
 90
       50
102
RTVSPost2010PropOp47
 70
     1
102
RTVSPost2010Prop48
 90
       50
102
RTVSPost2010PropOp48
 70
     1
102
RTVSPost2010Prop49
280
     0
102
RTVSPost2010PropOp49
 70
     1
102
RTVSPost2010Prop50
 90
       50
102
RTVSPost2010PropOp50
 70
     1
102
RTVSPost2010Prop51ColorIndex
 90
      256
102
RTVSPost2010Prop51ColorRGB
 90
-16777216
102
RTVSPost2010PropOp51
 70
     0
102
RTVSPost2010Prop52
140
1.0
102
RTVSPost2010PropOp52
 70
     0
102
RTVSPost2010Prop53
 90
        2
102
RTVSPost2010PropOp53
 70
     1
102
RTVSPost2010Prop54
  1
strokes_ogs.tif
102
RTVSPost2010PropOp54
 70
     1
102
RTVSPost2010Prop55
280
     0
102
RTVSPost2010PropOp55
 70
     1
102
RTVSPost2010Prop56
140
1.0
102
RTVSPost2010PropOp56
 70
     1
102
RTVSPost2010Prop57
140
1.0
102
RTVSPost2010PropOp57
 70
     1
102
RTVSPropertyOp0
 70
     1
102
RTVSPropertyOp1
 70
     1
102
RTVSPropertyOp2
 70
     1
102
RTVSPropertyOp3
 70
     1
102
RTVSPropertyOp4
 70
     1
102
RTVSPropertyOp5
 70
     1
102
RTVSPropertyOp6
 70
     1
102
RTVSPropertyOp7
 70
     1
102
RTVSPropertyOp8
 70
     1
102
RTVSPropertyOp9
 70
     1
102
RTVSPropertyOp10
 70
     1
102
RTVSPropertyOp11
 70
     1
102
RTVSPropertyOp12
 70
     1
102
RTVSPropertyOp13
 70
     1
102
RTVSPropertyOp14
 70
     1
102
RTVSPropertyOp15
 70
     1
102
RTVSPropertyOp16
 70
     1
102
RTVSPropertyOp17
 70
     1
102
RTVSPropertyOp18
 70
     1
102
RTVSPropertyOp19
 70
     1
102
RTVSPropertyOp20
 70
     1
102
RTVSPropertyOp21
 70
     1
102
RTVSPropertyOp22
 70
     1
102
RTVSPropertyOp23
 70
     1
102
RTVSPropertyOp24
 70
     1
102
RTVSPropertyOp25
 70
     1
102
RTVSPropertyOp26
 70
     1
102
RTVSPropertyOp27
 70
     1
102
RTVSPropertyOp28
 70
     1
102
RTVSPropertyOp29
 70
     1
102
RTVSPropertyOp30
 70
     1
102
RTVSPropertyOp31
 70
     1
102
RTVSPropertyOp32
 70
     1
102
RTVSPropertyOp33
 70
     1
102
RTVSPropertyOp34
 70
     1
102
RTVSPropertyOp35
 70
     1
102
RTVSPropertyOp36
 70
     1
102
RTVSPropertyOp37
 70
     1
102
RTVSPropertyOp38
 70
     1
102
RTVSPropertyOp39
 70
     1
102
RTVSPropertyOp40
 70
     1
102
RTVSPropertyOp41
 70
     1
102
RTVSPropertyOp42
 70
     1
102
RTVSPropertyOp43
 70
     1
102
RTVSPropertyOp44
 70
     1
102
RTVSPropertyOp45
 70
     1
102
RTVSPropertyOp46
 70
     1
102
RTVSPropertyOp47
 70
     1
102
RTVSPropertyOp48
 70
     1
102
RTVSPropertyOp49
 70
     1
102
RTVSPropertyOp50
 70
     1
102
RTVSPropertyOp51
 70
     0
102
RTVSPropertyOp52
 70
     0
102
RTVSPropertyOp53
 70
     1
102
RTVSPropertyOp54
 70
     1
102
RTVSPropertyOp55
 70
     1
102
RTVSPropertyOp56
 70
     1
102
RTVSPropertyOp57
 70
     1
102
RTVSPropertyOp58
 70
     1
102
RTVSPropertyOp59
 70
     1
102
RTVSPropertyOp60
 70
     1
102
RTVSPropertyOp61
 70
     1
102
RTVSPropertyOp62
 70
     1
  0
XRECORD
  5
382
102
{ACAD_REACTORS
330
381
102
}
330
381
100
AcDbXrecord
280
     1
102
RTVSPost2010Prop28
280
     0
102
RTVSPost2010PropOp28
 70
     1
102
RTVSPost2010Prop29
280
     1
102
RTVSPost2010PropOp29
 70
     1
102
RTVSPost2010Prop30
280
     1
102
RTVSPost2010PropOp30
 70
     1
102
RTVSPost2010Prop31
280
     0
102
RTVSPost2010PropOp31
 70
     1
102
RTVSPost2010Prop32
280
     0
102
RTVSPost2010PropOp32
 70
     1
102
RTVSPost2010Prop33
280
     0
102
RTVSPost2010PropOp33
 70
     1
102
RTVSPost2010Prop34
280
     0
102
RTVSPost2010PropOp34
 70
     1
102
RTVSPost2010Prop35
280
     0
102
RTVSPost2010PropOp35
 70
     1
102
RTVSPost2010Prop36
280
     0
102
RTVSPost2010PropOp36
 70
     1
102
RTVSPost2010Prop37
 90
       50
102
RTVSPost2010PropOp37
 70
     1
102
RTVSPost2010Prop38
140
0.0
102
RTVSPost2010PropOp38
 70
     1
102
RTVSPost2010Prop39
140
1.0
102
RTVSPost2010PropOp39
 70
     1
102
RTVSPost2010Prop40
 90
        0
102
RTVSPost2010PropOp40
 70
     1
102
RTVSPost2010Prop41ColorIndex
 90
       18
102
RTVSPost2010Prop41ColorRGB
 90
        0
102
RTVSPost2010PropOp41
 70
     1
102
RTVSPost2010Prop42
 90
       50
102
RTVSPost2010PropOp42
 70
     1
102
RTVSPost2010Prop43
 90
        3
102
RTVSPost2010PropOp43
 70
     1
102
RTVSPost2010Prop44ColorIndex
 90
        5
102
RTVSPost2010Prop44ColorRGB
 90
      255
102
RTVSPost2010PropOp44
 70
     1
102
RTVSPost2010Prop45
280
     0
102
RTVSPost2010PropOp45
 70
     1
102
RTVSPost2010Prop46
 90
       50
102
RTVSPost2010PropOp46
 70
     1
102
RTVSPost2010Prop47
 90
       50
102
RTVSPost2010PropOp47
 70
     1
102
RTVSPost2010Prop48
 90
       50
102
RTVSPost2010PropOp48
 70
     1
102
RTVSPost2010Prop49
280
     0
102
RTVSPost2010PropOp49
 70
     1
102
RTVSPost2010Prop50
 90
       50
102
RTVSPost2010PropOp50
 70
     1
102
RTVSPost2010Prop51ColorIndex
 90
      256
102
RTVSPost2010Prop51ColorRGB
 90
-16777216
102
RTVSPost2010PropOp51
 70
     0
102
RTVSPost2010Prop52
140
1.0
102
RTVSPost2010PropOp52
 70
     0
102
RTVSPost2010Prop53
 90
        2
102
RTVSPost2010PropOp53
 70
     1
102
RTVSPost2010Prop54
  1
strokes_ogs.tif
102
RTVSPost2010PropOp54
 70
     1
102
RTVSPost2010Prop55
280
     0
102
RTVSPost2010PropOp55
 70
     1
102
RTVSPost2010Prop56
140
1.0
102
RTVSPost2010PropOp56
 70
     1
102
RTVSPost2010Prop57
140
1.0
102
RTVSPost2010PropOp57
 70
     1
102
RTVSPropertyOp0
 70
     1
102
RTVSPropertyOp1
 70
     1
102
RTVSPropertyOp2
 70
     1
102
RTVSPropertyOp3
 70
     1
102
RTVSPropertyOp4
 70
     1
102
RTVSPropertyOp5
 70
     1
102
RTVSPropertyOp6
 70
     1
102
RTVSPropertyOp7
 70
     1
102
RTVSPropertyOp8
 70
     1
102
RTVSPropertyOp9
 70
     1
102
RTVSPropertyOp10
 70
     1
102
RTVSPropertyOp11
 70
     1
102
RTVSPropertyOp12
 70
     1
102
RTVSPropertyOp13
 70
     1
102
RTVSPropertyOp14
 70
     1
102
RTVSPropertyOp15
 70
     1
102
RTVSPropertyOp16
 70
     1
102
RTVSPropertyOp17
 70
     1
102
RTVSPropertyOp18
 70
     1
102
RTVSPropertyOp19
 70
     1
102
RTVSPropertyOp20
 70
     1
102
RTVSPropertyOp21
 70
     1
102
RTVSPropertyOp22
 70
     1
102
RTVSPropertyOp23
 70
     1
102
RTVSPropertyOp24
 70
     1
102
RTVSPropertyOp25
 70
     1
102
RTVSPropertyOp26
 70
     1
102
RTVSPropertyOp27
 70
     1
102
RTVSPropertyOp28
 70
     1
102
RTVSPropertyOp29
 70
     1
102
RTVSPropertyOp30
 70
     1
102
RTVSPropertyOp31
 70
     1
102
RTVSPropertyOp32
 70
     1
102
RTVSPropertyOp33
 70
     1
102
RTVSPropertyOp34
 70
     1
102
RTVSPropertyOp35
 70
     1
102
RTVSPropertyOp36
 70
     1
102
RTVSPropertyOp37
 70
     1
102
RTVSPropertyOp38
 70
     1
102
RTVSPropertyOp39
 70
     1
102
RTVSPropertyOp40
 70
     1
102
RTVSPropertyOp41
 70
     1
102
RTVSPropertyOp42
 70
     1
102
RTVSPropertyOp43
 70
     1
102
RTVSPropertyOp44
 70
     1
102
RTVSPropertyOp45
 70
     1
102
RTVSPropertyOp46
 70
     1
102
RTVSPropertyOp47
 70
     1
102
RTVSPropertyOp48
 70
     1
102
RTVSPropertyOp49
 70
     1
102
RTVSPropertyOp50
 70
     1
102
RTVSPropertyOp51
 70
     0
102
RTVSPropertyOp52
 70
     0
102
RTVSPropertyOp53
 70
     1
102
RTVSPropertyOp54
 70
     1
102
RTVSPropertyOp55
 70
     1
102
RTVSPropertyOp56
 70
     1
102
RTVSPropertyOp57
 70
     1
102
RTVSPropertyOp58
 70
     1
102
RTVSPropertyOp59
 70
     1
102
RTVSPropertyOp60
 70
     1
102
RTVSPropertyOp61
 70
     1
102
RTVSPropertyOp62
 70
     1
  0
XRECORD
  5
396
102
{ACAD_REACTORS
330
395
102
}
330
395
100
AcDbXrecord
280
     1
102
RTVSPost2010Prop28
280
     0
102
RTVSPost2010PropOp28
 70
     0
102
RTVSPost2010Prop29
280
     1
102
RTVSPost2010PropOp29
 70
     0
102
RTVSPost2010Prop30
280
     1
102
RTVSPost2010PropOp30
 70
     0
102
RTVSPost2010Prop31
280
     0
102
RTVSPost2010PropOp31
 70
     0
102
RTVSPost2010Prop32
280
     0
102
RTVSPost2010PropOp32
 70
     0
102
RTVSPost2010Prop33
280
     0
102
RTVSPost2010PropOp33
 70
     0
102
RTVSPost2010Prop34
280
     0
102
RTVSPost2010PropOp34
 70
     0
102
RTVSPost2010Prop35
280
     0
102
RTVSPost2010PropOp35
 70
     0
102
RTVSPost2010Prop36
280
     0
102
RTVSPost2010PropOp36
 70
     0
102
RTVSPost2010Prop37
 90
       50
102
RTVSPost2010PropOp37
 70
     0
102
RTVSPost2010Prop38
140
0.0
102
RTVSPost2010PropOp38
 70
     0
102
RTVSPost2010Prop39
140
1.0
102
RTVSPost2010PropOp39
 70
     0
102
RTVSPost2010Prop40
 90
        0
102
RTVSPost2010PropOp40
 70
     0
102
RTVSPost2010Prop41ColorIndex
 90
       18
102
RTVSPost2010Prop41ColorRGB
 90
        0
102
RTVSPost2010PropOp41
 70
     0
102
RTVSPost2010Prop42
 90
       50
102
RTVSPost2010PropOp42
 70
     0
102
RTVSPost2010Prop43
 90
        3
102
RTVSPost2010PropOp43
 70
     0
102
RTVSPost2010Prop44ColorIndex
 90
        5
102
RTVSPost2010Prop44ColorRGB
 90
      255
102
RTVSPost2010PropOp44
 70
     0
102
RTVSPost2010Prop45
280
     0
102
RTVSPost2010PropOp45
 70
     0
102
RTVSPost2010Prop46
 90
       50
102
RTVSPost2010PropOp46
 70
     0
102
RTVSPost2010Prop47
 90
       50
102
RTVSPost2010PropOp47
 70
     0
102
RTVSPost2010Prop48
 90
       50
102
RTVSPost2010PropOp48
 70
     0
102
RTVSPost2010Prop49
280
     0
102
RTVSPost2010PropOp49
 70
     0
102
RTVSPost2010Prop50
 90
       50
102
RTVSPost2010PropOp50
 70
     0
102
RTVSPost2010Prop51ColorIndex
 90
      256
102
RTVSPost2010Prop51ColorRGB
 90
-16777216
102
RTVSPost2010PropOp51
 70
     0
102
RTVSPost2010Prop52
140
1.0
102
RTVSPost2010PropOp52
 70
     0
102
RTVSPost2010Prop53
 90
        2
102
RTVSPost2010PropOp53
 70
     0
102
RTVSPost2010Prop54
  1
strokes_ogs.tif
102
RTVSPost2010PropOp54
 70
     0
102
RTVSPost2010Prop55
280
     0
102
RTVSPost2010PropOp55
 70
     0
102
RTVSPost2010Prop56
140
1.0
102
RTVSPost2010PropOp56
 70
     0
102
RTVSPost2010Prop57
140
1.0
102
RTVSPost2010PropOp57
 70
     0
102
RTVSPropertyOp0
 70
     0
102
RTVSPropertyOp1
 70
     0
102
RTVSPropertyOp2
 70
     0
102
RTVSPropertyOp3
 70
     0
102
RTVSPropertyOp4
 70
     0
102
RTVSPropertyOp5
 70
     0
102
RTVSPropertyOp6
 70
     0
102
RTVSPropertyOp7
 70
     0
102
RTVSPropertyOp8
 70
     0
102
RTVSPropertyOp9
 70
     0
102
RTVSPropertyOp10
 70
     0
102
RTVSPropertyOp11
 70
     0
102
RTVSPropertyOp12
 70
     0
102
RTVSPropertyOp13
 70
     0
102
RTVSPropertyOp14
 70
     2
102
RTVSPropertyOp15
 70
     0
102
RTVSPropertyOp16
 70
     0
102
RTVSPropertyOp17
 70
     0
102
RTVSPropertyOp18
 70
     0
102
RTVSPropertyOp19
 70
     0
102
RTVSPropertyOp20
 70
     0
102
RTVSPropertyOp21
 70
     0
102
RTVSPropertyOp22
 70
     0
102
RTVSPropertyOp23
 70
     0
102
RTVSPropertyOp24
 70
     0
102
RTVSPropertyOp25
 70
     0
102
RTVSPropertyOp26
 70
     0
102
RTVSPropertyOp27
 70
     0
102
RTVSPropertyOp28
 70
     0
102
RTVSPropertyOp29
 70
     0
102
RTVSPropertyOp30
 70
     0
102
RTVSPropertyOp31
 70
     0
102
RTVSPropertyOp32
 70
     0
102
RTVSPropertyOp33
 70
     0
102
RTVSPropertyOp34
 70
     0
102
RTVSPropertyOp35
 70
     0
102
RTVSPropertyOp36
 70
     0
102
RTVSPropertyOp37
 70
     0
102
RTVSPropertyOp38
 70
     0
102
RTVSPropertyOp39
 70
     0
102
RTVSPropertyOp40
 70
     0
102
RTVSPropertyOp41
 70
     0
102
RTVSPropertyOp42
 70
     0
102
RTVSPropertyOp43
 70
     0
102
RTVSPropertyOp44
 70
     0
102
RTVSPropertyOp45
 70
     0
102
RTVSPropertyOp46
 70
     0
102
RTVSPropertyOp47
 70
     0
102
RTVSPropertyOp48
 70
     0
102
RTVSPropertyOp49
 70
     0
102
RTVSPropertyOp50
 70
     0
102
RTVSPropertyOp51
 70
     0
102
RTVSPropertyOp52
 70
     0
102
RTVSPropertyOp53
 70
     0
102
RTVSPropertyOp54
 70
     0
102
RTVSPropertyOp55
 70
     0
102
RTVSPropertyOp56
 70
     0
102
RTVSPropertyOp57
 70
     0
102
RTVSPropertyOp58
 70
     1
102
RTVSPropertyOp59
 70
     1
102
RTVSPropertyOp60
 70
     1
102
RTVSPropertyOp61
 70
     1
102
RTVSPropertyOp62
 70
     1
  0
XRECORD
  5
390
102
{ACAD_REACTORS
330
38F
102
}
330
38F
100
AcDbXrecord
280
     1
102
RTVSPost2010Prop28
280
     0
102
RTVSPost2010PropOp28
 70
     1
102
RTVSPost2010Prop29
280
     1
102
RTVSPost2010PropOp29
 70
     1
102
RTVSPost2010Prop30
280
     1
102
RTVSPost2010PropOp30
 70
     1
102
RTVSPost2010Prop31
280
     0
102
RTVSPost2010PropOp31
 70
     1
102
RTVSPost2010Prop32
280
     0
102
RTVSPost2010PropOp32
 70
     1
102
RTVSPost2010Prop33
280
     0
102
RTVSPost2010PropOp33
 70
     1
102
RTVSPost2010Prop34
280
     0
102
RTVSPost2010PropOp34
 70
     1
102
RTVSPost2010Prop35
280
     0
102
RTVSPost2010PropOp35
 70
     1
102
RTVSPost2010Prop36
280
     0
102
RTVSPost2010PropOp36
 70
     1
102
RTVSPost2010Prop37
 90
       50
102
RTVSPost2010PropOp37
 70
     1
102
RTVSPost2010Prop38
140
0.0
102
RTVSPost2010PropOp38
 70
     1
102
RTVSPost2010Prop39
140
1.0
102
RTVSPost2010PropOp39
 70
     1
102
RTVSPost2010Prop40
 90
        0
102
RTVSPost2010PropOp40
 70
     1
102
RTVSPost2010Prop41ColorIndex
 90
       18
102
RTVSPost2010Prop41ColorRGB
 90
        0
102
RTVSPost2010PropOp41
 70
     1
102
RTVSPost2010Prop42
 90
       50
102
RTVSPost2010PropOp42
 70
     1
102
RTVSPost2010Prop43
 90
        3
102
RTVSPost2010PropOp43
 70
     1
102
RTVSPost2010Prop44ColorIndex
 90
        5
102
RTVSPost2010Prop44ColorRGB
 90
      255
102
RTVSPost2010PropOp44
 70
     1
102
RTVSPost2010Prop45
280
     0
102
RTVSPost2010PropOp45
 70
     1
102
RTVSPost2010Prop46
 90
       50
102
RTVSPost2010PropOp46
 70
     1
102
RTVSPost2010Prop47
 90
       50
102
RTVSPost2010PropOp47
 70
     1
102
RTVSPost2010Prop48
 90
       50
102
RTVSPost2010PropOp48
 70
     1
102
RTVSPost2010Prop49
280
     0
102
RTVSPost2010PropOp49
 70
     1
102
RTVSPost2010Prop50
 90
       50
102
RTVSPost2010PropOp50
 70
     1
102
RTVSPost2010Prop51ColorIndex
 90
      256
102
RTVSPost2010Prop51ColorRGB
 90
-16777216
102
RTVSPost2010PropOp51
 70
     0
102
RTVSPost2010Prop52
140
1.0
102
RTVSPost2010PropOp52
 70
     0
102
RTVSPost2010Prop53
 90
        2
102
RTVSPost2010PropOp53
 70
     1
102
RTVSPost2010Prop54
  1
strokes_ogs.tif
102
RTVSPost2010PropOp54
 70
     1
102
RTVSPost2010Prop55
280
     0
102
RTVSPost2010PropOp55
 70
     1
102
RTVSPost2010Prop56
140
1.0
102
RTVSPost2010PropOp56
 70
     1
102
RTVSPost2010Prop57
140
1.0
102
RTVSPost2010PropOp57
 70
     1
102
RTVSPropertyOp0
 70
     1
102
RTVSPropertyOp1
 70
     1
102
RTVSPropertyOp2
 70
     1
102
RTVSPropertyOp3
 70
     1
102
RTVSPropertyOp4
 70
     1
102
RTVSPropertyOp5
 70
     1
102
RTVSPropertyOp6
 70
     1
102
RTVSPropertyOp7
 70
     1
102
RTVSPropertyOp8
 70
     1
102
RTVSPropertyOp9
 70
     1
102
RTVSPropertyOp10
 70
     1
102
RTVSPropertyOp11
 70
     1
102
RTVSPropertyOp12
 70
     1
102
RTVSPropertyOp13
 70
     1
102
RTVSPropertyOp14
 70
     1
102
RTVSPropertyOp15
 70
     1
102
RTVSPropertyOp16
 70
     1
102
RTVSPropertyOp17
 70
     1
102
RTVSPropertyOp18
 70
     1
102
RTVSPropertyOp19
 70
     1
102
RTVSPropertyOp20
 70
     1
102
RTVSPropertyOp21
 70
     1
102
RTVSPropertyOp22
 70
     1
102
RTVSPropertyOp23
 70
     1
102
RTVSPropertyOp24
 70
     1
102
RTVSPropertyOp25
 70
     1
102
RTVSPropertyOp26
 70
     1
102
RTVSPropertyOp27
 70
     1
102
RTVSPropertyOp28
 70
     1
102
RTVSPropertyOp29
 70
     1
102
RTVSPropertyOp30
 70
     1
102
RTVSPropertyOp31
 70
     1
102
RTVSPropertyOp32
 70
     1
102
RTVSPropertyOp33
 70
     1
102
RTVSPropertyOp34
 70
     1
102
RTVSPropertyOp35
 70
     1
102
RTVSPropertyOp36
 70
     1
102
RTVSPropertyOp37
 70
     1
102
RTVSPropertyOp38
 70
     1
102
RTVSPropertyOp39
 70
     1
102
RTVSPropertyOp40
 70
     1
102
RTVSPropertyOp41
 70
     1
102
RTVSPropertyOp42
 70
     1
102
RTVSPropertyOp43
 70
     1
102
RTVSPropertyOp44
 70
     1
102
RTVSPropertyOp45
 70
     1
102
RTVSPropertyOp46
 70
     1
102
RTVSPropertyOp47
 70
     1
102
RTVSPropertyOp48
 70
     1
102
RTVSPropertyOp49
 70
     1
102
RTVSPropertyOp50
 70
     1
102
RTVSPropertyOp51
 70
     0
102
RTVSPropertyOp52
 70
     0
102
RTVSPropertyOp53
 70
     1
102
RTVSPropertyOp54
 70
     1
102
RTVSPropertyOp55
 70
     1
102
RTVSPropertyOp56
 70
     1
102
RTVSPropertyOp57
 70
     1
102
RTVSPropertyOp58
 70
     1
102
RTVSPropertyOp59
 70
     1
102
RTVSPropertyOp60
 70
     1
102
RTVSPropertyOp61
 70
     1
102
RTVSPropertyOp62
 70
     1
  0
XRECORD
  5
398
102
{ACAD_REACTORS
330
397
102
}
330
397
100
AcDbXrecord
280
     1
102
RTVSPost2010Prop28
280
     0
102
RTVSPost2010PropOp28
 70
     0
102
RTVSPost2010Prop29
280
     1
102
RTVSPost2010PropOp29
 70
     0
102
RTVSPost2010Prop30
280
     1
102
RTVSPost2010PropOp30
 70
     0
102
RTVSPost2010Prop31
280
     0
102
RTVSPost2010PropOp31
 70
     0
102
RTVSPost2010Prop32
280
     0
102
RTVSPost2010PropOp32
 70
     0
102
RTVSPost2010Prop33
280
     0
102
RTVSPost2010PropOp33
 70
     0
102
RTVSPost2010Prop34
280
     0
102
RTVSPost2010PropOp34
 70
     0
102
RTVSPost2010Prop35
280
     0
102
RTVSPost2010PropOp35
 70
     0
102
RTVSPost2010Prop36
280
     0
102
RTVSPost2010PropOp36
 70
     0
102
RTVSPost2010Prop37
 90
       50
102
RTVSPost2010PropOp37
 70
     0
102
RTVSPost2010Prop38
140
0.0
102
RTVSPost2010PropOp38
 70
     0
102
RTVSPost2010Prop39
140
1.0
102
RTVSPost2010PropOp39
 70
     0
102
RTVSPost2010Prop40
 90
        0
102
RTVSPost2010PropOp40
 70
     0
102
RTVSPost2010Prop41ColorIndex
 90
       18
102
RTVSPost2010Prop41ColorRGB
 90
        0
102
RTVSPost2010PropOp41
 70
     0
102
RTVSPost2010Prop42
 90
       50
102
RTVSPost2010PropOp42
 70
     0
102
RTVSPost2010Prop43
 90
        3
102
RTVSPost2010PropOp43
 70
     0
102
RTVSPost2010Prop44ColorIndex
 90
        5
102
RTVSPost2010Prop44ColorRGB
 90
      255
102
RTVSPost2010PropOp44
 70
     0
102
RTVSPost2010Prop45
280
     0
102
RTVSPost2010PropOp45
 70
     0
102
RTVSPost2010Prop46
 90
       50
102
RTVSPost2010PropOp46
 70
     0
102
RTVSPost2010Prop47
 90
       50
102
RTVSPost2010PropOp47
 70
     0
102
RTVSPost2010Prop48
 90
       50
102
RTVSPost2010PropOp48
 70
     0
102
RTVSPost2010Prop49
280
     0
102
RTVSPost2010PropOp49
 70
     0
102
RTVSPost2010Prop50
 90
       50
102
RTVSPost2010PropOp50
 70
     0
102
RTVSPost2010Prop51ColorIndex
 90
      256
102
RTVSPost2010Prop51ColorRGB
 90
-16777216
102
RTVSPost2010PropOp51
 70
     0
102
RTVSPost2010Prop52
140
1.0
102
RTVSPost2010PropOp52
 70
     0
102
RTVSPost2010Prop53
 90
        2
102
RTVSPost2010PropOp53
 70
     0
102
RTVSPost2010Prop54
  1
strokes_ogs.tif
102
RTVSPost2010PropOp54
 70
     0
102
RTVSPost2010Prop55
280
     0
102
RTVSPost2010PropOp55
 70
     0
102
RTVSPost2010Prop56
140
1.0
102
RTVSPost2010PropOp56
 70
     0
102
RTVSPost2010Prop57
140
1.0
102
RTVSPost2010PropOp57
 70
     0
102
RTVSPropertyOp0
 70
     0
102
RTVSPropertyOp1
 70
     0
102
RTVSPropertyOp2
 70
     0
102
RTVSPropertyOp3
 70
     0
102
RTVSPropertyOp4
 70
     0
102
RTVSPropertyOp5
 70
     0
102
RTVSPropertyOp6
 70
     0
102
RTVSPropertyOp7
 70
     0
102
RTVSPropertyOp8
 70
     0
102
RTVSPropertyOp9
 70
     0
102
RTVSPropertyOp10
 70
     0
102
RTVSPropertyOp11
 70
     0
102
RTVSPropertyOp12
 70
     0
102
RTVSPropertyOp13
 70
     0
102
RTVSPropertyOp14
 70
     2
102
RTVSPropertyOp15
 70
     0
102
RTVSPropertyOp16
 70
     0
102
RTVSPropertyOp17
 70
     0
102
RTVSPropertyOp18
 70
     0
102
RTVSPropertyOp19
 70
     0
102
RTVSPropertyOp20
 70
     0
102
RTVSPropertyOp21
 70
     0
102
RTVSPropertyOp22
 70
     0
102
RTVSPropertyOp23
 70
     0
102
RTVSPropertyOp24
 70
     0
102
RTVSPropertyOp25
 70
     0
102
RTVSPropertyOp26
 70
     0
102
RTVSPropertyOp27
 70
     0
102
RTVSPropertyOp28
 70
     0
102
RTVSPropertyOp29
 70
     0
102
RTVSPropertyOp30
 70
     0
102
RTVSPropertyOp31
 70
     0
102
RTVSPropertyOp32
 70
     0
102
RTVSPropertyOp33
 70
     0
102
RTVSPropertyOp34
 70
     0
102
RTVSPropertyOp35
 70
     0
102
RTVSPropertyOp36
 70
     0
102
RTVSPropertyOp37
 70
     0
102
RTVSPropertyOp38
 70
     0
102
RTVSPropertyOp39
 70
     0
102
RTVSPropertyOp40
 70
     0
102
RTVSPropertyOp41
 70
     0
102
RTVSPropertyOp42
 70
     0
102
RTVSPropertyOp43
 70
     0
102
RTVSPropertyOp44
 70
     0
102
RTVSPropertyOp45
 70
     0
102
RTVSPropertyOp46
 70
     0
102
RTVSPropertyOp47
 70
     0
102
RTVSPropertyOp48
 70
     0
102
RTVSPropertyOp49
 70
     0
102
RTVSPropertyOp50
 70
     0
102
RTVSPropertyOp51
 70
     0
102
RTVSPropertyOp52
 70
     0
102
RTVSPropertyOp53
 70
     0
102
RTVSPropertyOp54
 70
     0
102
RTVSPropertyOp55
 70
     0
102
RTVSPropertyOp56
 70
     0
102
RTVSPropertyOp57
 70
     0
102
RTVSPropertyOp58
 70
     1
102
RTVSPropertyOp59
 70
     1
102
RTVSPropertyOp60
 70
     1
102
RTVSPropertyOp61
 70
     1
102
RTVSPropertyOp62
 70
     1
  0
XRECORD
  5
386
102
{ACAD_REACTORS
330
385
102
}
330
385
100
AcDbXrecord
280
     1
102
RTVSPost2010Prop28
280
     0
102
RTVSPost2010PropOp28
 70
     1
102
RTVSPost2010Prop29
280
     1
102
RTVSPost2010PropOp29
 70
     1
102
RTVSPost2010Prop30
280
     1
102
RTVSPost2010PropOp30
 70
     1
102
RTVSPost2010Prop31
280
     0
102
RTVSPost2010PropOp31
 70
     1
102
RTVSPost2010Prop32
280
     0
102
RTVSPost2010PropOp32
 70
     1
102
RTVSPost2010Prop33
280
     0
102
RTVSPost2010PropOp33
 70
     1
102
RTVSPost2010Prop34
280
     0
102
RTVSPost2010PropOp34
 70
     1
102
RTVSPost2010Prop35
280
     0
102
RTVSPost2010PropOp35
 70
     1
102
RTVSPost2010Prop36
280
     0
102
RTVSPost2010PropOp36
 70
     1
102
RTVSPost2010Prop37
 90
       50
102
RTVSPost2010PropOp37
 70
     1
102
RTVSPost2010Prop38
140
0.0
102
RTVSPost2010PropOp38
 70
     1
102
RTVSPost2010Prop39
140
1.0
102
RTVSPost2010PropOp39
 70
     1
102
RTVSPost2010Prop40
 90
        0
102
RTVSPost2010PropOp40
 70
     1
102
RTVSPost2010Prop41ColorIndex
 90
       18
102
RTVSPost2010Prop41ColorRGB
 90
        0
102
RTVSPost2010PropOp41
 70
     1
102
RTVSPost2010Prop42
 90
       50
102
RTVSPost2010PropOp42
 70
     1
102
RTVSPost2010Prop43
 90
        3
102
RTVSPost2010PropOp43
 70
     1
102
RTVSPost2010Prop44ColorIndex
 90
        5
102
RTVSPost2010Prop44ColorRGB
 90
      255
102
RTVSPost2010PropOp44
 70
     1
102
RTVSPost2010Prop45
280
     0
102
RTVSPost2010PropOp45
 70
     1
102
RTVSPost2010Prop46
 90
       50
102
RTVSPost2010PropOp46
 70
     1
102
RTVSPost2010Prop47
 90
       50
102
RTVSPost2010PropOp47
 70
     1
102
RTVSPost2010Prop48
 90
       50
102
RTVSPost2010PropOp48
 70
     1
102
RTVSPost2010Prop49
280
     0
102
RTVSPost2010PropOp49
 70
     1
102
RTVSPost2010Prop50
 90
       50
102
RTVSPost2010PropOp50
 70
     1
102
RTVSPost2010Prop51ColorIndex
 90
      256
102
RTVSPost2010Prop51ColorRGB
 90
-16777216
102
RTVSPost2010PropOp51
 70
     0
102
RTVSPost2010Prop52
140
1.0
102
RTVSPost2010PropOp52
 70
     0
102
RTVSPost2010Prop53
 90
        2
102
RTVSPost2010PropOp53
 70
     1
102
RTVSPost2010Prop54
  1
strokes_ogs.tif
102
RTVSPost2010PropOp54
 70
     1
102
RTVSPost2010Prop55
280
     0
102
RTVSPost2010PropOp55
 70
     1
102
RTVSPost2010Prop56
140
1.0
102
RTVSPost2010PropOp56
 70
     1
102
RTVSPost2010Prop57
140
1.0
102
RTVSPost2010PropOp57
 70
     1
102
RTVSPropertyOp0
 70
     1
102
RTVSPropertyOp1
 70
     1
102
RTVSPropertyOp2
 70
     1
102
RTVSPropertyOp3
 70
     1
102
RTVSPropertyOp4
 70
     1
102
RTVSPropertyOp5
 70
     1
102
RTVSPropertyOp6
 70
     1
102
RTVSPropertyOp7
 70
     1
102
RTVSPropertyOp8
 70
     1
102
RTVSPropertyOp9
 70
     1
102
RTVSPropertyOp10
 70
     1
102
RTVSPropertyOp11
 70
     1
102
RTVSPropertyOp12
 70
     1
102
RTVSPropertyOp13
 70
     1
102
RTVSPropertyOp14
 70
     1
102
RTVSPropertyOp15
 70
     1
102
RTVSPropertyOp16
 70
     1
102
RTVSPropertyOp17
 70
     1
102
RTVSPropertyOp18
 70
     1
102
RTVSPropertyOp19
 70
     1
102
RTVSPropertyOp20
 70
     1
102
RTVSPropertyOp21
 70
     1
102
RTVSPropertyOp22
 70
     1
102
RTVSPropertyOp23
 70
     1
102
RTVSPropertyOp24
 70
     1
102
RTVSPropertyOp25
 70
     1
102
RTVSPropertyOp26
 70
     1
102
RTVSPropertyOp27
 70
     1
102
RTVSPropertyOp28
 70
     1
102
RTVSPropertyOp29
 70
     1
102
RTVSPropertyOp30
 70
     1
102
RTVSPropertyOp31
 70
     1
102
RTVSPropertyOp32
 70
     1
102
RTVSPropertyOp33
 70
     1
102
RTVSPropertyOp34
 70
     1
102
RTVSPropertyOp35
 70
     1
102
RTVSPropertyOp36
 70
     1
102
RTVSPropertyOp37
 70
     1
102
RTVSPropertyOp38
 70
     1
102
RTVSPropertyOp39
 70
     1
102
RTVSPropertyOp40
 70
     1
102
RTVSPropertyOp41
 70
     1
102
RTVSPropertyOp42
 70
     1
102
RTVSPropertyOp43
 70
     1
102
RTVSPropertyOp44
 70
     1
102
RTVSPropertyOp45
 70
     1
102
RTVSPropertyOp46
 70
     1
102
RTVSPropertyOp47
 70
     1
102
RTVSPropertyOp48
 70
     1
102
RTVSPropertyOp49
 70
     1
102
RTVSPropertyOp50
 70
     1
102
RTVSPropertyOp51
 70
     0
102
RTVSPropertyOp52
 70
     0
102
RTVSPropertyOp53
 70
     1
102
RTVSPropertyOp54
 70
     1
102
RTVSPropertyOp55
 70
     1
102
RTVSPropertyOp56
 70
     1
102
RTVSPropertyOp57
 70
     1
102
RTVSPropertyOp58
 70
     1
102
RTVSPropertyOp59
 70
     1
102
RTVSPropertyOp60
 70
     1
102
RTVSPropertyOp61
 70
     1
102
RTVSPropertyOp62
 70
     1
  0
XRECORD
  5
3A4
102
{ACAD_REACTORS
330
3A3
102
}
330
3A3
100
AcDbXrecord
280
     1
102
RTVSPost2010Prop28
280
     0
102
RTVSPost2010PropOp28
 70
     1
102
RTVSPost2010Prop29
280
     1
102
RTVSPost2010PropOp29
 70
     1
102
RTVSPost2010Prop30
280
     1
102
RTVSPost2010PropOp30
 70
     1
102
RTVSPost2010Prop31
280
     0
102
RTVSPost2010PropOp31
 70
     1
102
RTVSPost2010Prop32
280
     0
102
RTVSPost2010PropOp32
 70
     1
102
RTVSPost2010Prop33
280
     0
102
RTVSPost2010PropOp33
 70
     1
102
RTVSPost2010Prop34
280
     0
102
RTVSPost2010PropOp34
 70
     1
102
RTVSPost2010Prop35
280
     0
102
RTVSPost2010PropOp35
 70
     1
102
RTVSPost2010Prop36
280
     0
102
RTVSPost2010PropOp36
 70
     1
102
RTVSPost2010Prop37
 90
       50
102
RTVSPost2010PropOp37
 70
     1
102
RTVSPost2010Prop38
140
0.0
102
RTVSPost2010PropOp38
 70
     1
102
RTVSPost2010Prop39
140
1.0
102
RTVSPost2010PropOp39
 70
     1
102
RTVSPost2010Prop40
 90
        0
102
RTVSPost2010PropOp40
 70
     1
102
RTVSPost2010Prop41ColorIndex
 90
       18
102
RTVSPost2010Prop41ColorRGB
 90
        0
102
RTVSPost2010PropOp41
 70
     1
102
RTVSPost2010Prop42
 90
       50
102
RTVSPost2010PropOp42
 70
     1
102
RTVSPost2010Prop43
 90
        3
102
RTVSPost2010PropOp43
 70
     1
102
RTVSPost2010Prop44ColorIndex
 90
        5
102
RTVSPost2010Prop44ColorRGB
 90
      255
102
RTVSPost2010PropOp44
 70
     1
102
RTVSPost2010Prop45
280
     0
102
RTVSPost2010PropOp45
 70
     1
102
RTVSPost2010Prop46
 90
       50
102
RTVSPost2010PropOp46
 70
     1
102
RTVSPost2010Prop47
 90
       50
102
RTVSPost2010PropOp47
 70
     1
102
RTVSPost2010Prop48
 90
       50
102
RTVSPost2010PropOp48
 70
     1
102
RTVSPost2010Prop49
280
     0
102
RTVSPost2010PropOp49
 70
     1
102
RTVSPost2010Prop50
 90
       50
102
RTVSPost2010PropOp50
 70
     1
102
RTVSPost2010Prop51ColorIndex
 90
      256
102
RTVSPost2010Prop51ColorRGB
 90
-16777216
102
RTVSPost2010PropOp51
 70
     0
102
RTVSPost2010Prop52
140
1.0
102
RTVSPost2010PropOp52
 70
     0
102
RTVSPost2010Prop53
 90
        2
102
RTVSPost2010PropOp53
 70
     1
102
RTVSPost2010Prop54
  1
strokes_ogs.tif
102
RTVSPost2010PropOp54
 70
     1
102
RTVSPost2010Prop55
280
     0
102
RTVSPost2010PropOp55
 70
     1
102
RTVSPost2010Prop56
140
1.0
102
RTVSPost2010PropOp56
 70
     1
102
RTVSPost2010Prop57
140
1.0
102
RTVSPost2010PropOp57
 70
     1
102
RTVSPropertyOp0
 70
     1
102
RTVSPropertyOp1
 70
     1
102
RTVSPropertyOp2
 70
     1
102
RTVSPropertyOp3
 70
     1
102
RTVSPropertyOp4
 70
     1
102
RTVSPropertyOp5
 70
     1
102
RTVSPropertyOp6
 70
     1
102
RTVSPropertyOp7
 70
     1
102
RTVSPropertyOp8
 70
     1
102
RTVSPropertyOp9
 70
     1
102
RTVSPropertyOp10
 70
     1
102
RTVSPropertyOp11
 70
     1
102
RTVSPropertyOp12
 70
     1
102
RTVSPropertyOp13
 70
     1
102
RTVSPropertyOp14
 70
     1
102
RTVSPropertyOp15
 70
     1
102
RTVSPropertyOp16
 70
     1
102
RTVSPropertyOp17
 70
     1
102
RTVSPropertyOp18
 70
     1
102
RTVSPropertyOp19
 70
     1
102
RTVSPropertyOp20
 70
     1
102
RTVSPropertyOp21
 70
     1
102
RTVSPropertyOp22
 70
     1
102
RTVSPropertyOp23
 70
     1
102
RTVSPropertyOp24
 70
     1
102
RTVSPropertyOp25
 70
     1
102
RTVSPropertyOp26
 70
     1
102
RTVSPropertyOp27
 70
     1
102
RTVSPropertyOp28
 70
     1
102
RTVSPropertyOp29
 70
     1
102
RTVSPropertyOp30
 70
     1
102
RTVSPropertyOp31
 70
     1
102
RTVSPropertyOp32
 70
     1
102
RTVSPropertyOp33
 70
     1
102
RTVSPropertyOp34
 70
     1
102
RTVSPropertyOp35
 70
     1
102
RTVSPropertyOp36
 70
     1
102
RTVSPropertyOp37
 70
     1
102
RTVSPropertyOp38
 70
     1
102
RTVSPropertyOp39
 70
     1
102
RTVSPropertyOp40
 70
     1
102
RTVSPropertyOp41
 70
     1
102
RTVSPropertyOp42
 70
     1
102
RTVSPropertyOp43
 70
     1
102
RTVSPropertyOp44
 70
     1
102
RTVSPropertyOp45
 70
     1
102
RTVSPropertyOp46
 70
     1
102
RTVSPropertyOp47
 70
     1
102
RTVSPropertyOp48
 70
     1
102
RTVSPropertyOp49
 70
     1
102
RTVSPropertyOp50
 70
     1
102
RTVSPropertyOp51
 70
     0
102
RTVSPropertyOp52
 70
     0
102
RTVSPropertyOp53
 70
     1
102
RTVSPropertyOp54
 70
     1
102
RTVSPropertyOp55
 70
     1
102
RTVSPropertyOp56
 70
     1
102
RTVSPropertyOp57
 70
     1
102
RTVSPropertyOp58
 70
     1
102
RTVSPropertyOp59
 70
     1
102
RTVSPropertyOp60
 70
     1
102
RTVSPropertyOp61
 70
     1
102
RTVSPropertyOp62
 70
     1
  0
XRECORD
  5
3A2
102
{ACAD_REACTORS
330
3A1
102
}
330
3A1
100
AcDbXrecord
280
     1
102
RTVSPost2010Prop28
280
     0
102
RTVSPost2010PropOp28
 70
     1
102
RTVSPost2010Prop29
280
     1
102
RTVSPost2010PropOp29
 70
     1
102
RTVSPost2010Prop30
280
     1
102
RTVSPost2010PropOp30
 70
     1
102
RTVSPost2010Prop31
280
     0
102
RTVSPost2010PropOp31
 70
     1
102
RTVSPost2010Prop32
280
     0
102
RTVSPost2010PropOp32
 70
     1
102
RTVSPost2010Prop33
280
     0
102
RTVSPost2010PropOp33
 70
     1
102
RTVSPost2010Prop34
280
     0
102
RTVSPost2010PropOp34
 70
     1
102
RTVSPost2010Prop35
280
     0
102
RTVSPost2010PropOp35
 70
     1
102
RTVSPost2010Prop36
280
     0
102
RTVSPost2010PropOp36
 70
     1
102
RTVSPost2010Prop37
 90
       50
102
RTVSPost2010PropOp37
 70
     1
102
RTVSPost2010Prop38
140
0.0
102
RTVSPost2010PropOp38
 70
     1
102
RTVSPost2010Prop39
140
1.0
102
RTVSPost2010PropOp39
 70
     1
102
RTVSPost2010Prop40
 90
        0
102
RTVSPost2010PropOp40
 70
     1
102
RTVSPost2010Prop41ColorIndex
 90
       18
102
RTVSPost2010Prop41ColorRGB
 90
        0
102
RTVSPost2010PropOp41
 70
     1
102
RTVSPost2010Prop42
 90
       50
102
RTVSPost2010PropOp42
 70
     1
102
RTVSPost2010Prop43
 90
        3
102
RTVSPost2010PropOp43
 70
     1
102
RTVSPost2010Prop44ColorIndex
 90
        5
102
RTVSPost2010Prop44ColorRGB
 90
      255
102
RTVSPost2010PropOp44
 70
     1
102
RTVSPost2010Prop45
280
     0
102
RTVSPost2010PropOp45
 70
     1
102
RTVSPost2010Prop46
 90
       50
102
RTVSPost2010PropOp46
 70
     1
102
RTVSPost2010Prop47
 90
       50
102
RTVSPost2010PropOp47
 70
     1
102
RTVSPost2010Prop48
 90
       50
102
RTVSPost2010PropOp48
 70
     1
102
RTVSPost2010Prop49
280
     0
102
RTVSPost2010PropOp49
 70
     1
102
RTVSPost2010Prop50
 90
       50
102
RTVSPost2010PropOp50
 70
     1
102
RTVSPost2010Prop51ColorIndex
 90
      256
102
RTVSPost2010Prop51ColorRGB
 90
-16777216
102
RTVSPost2010PropOp51
 70
     0
102
RTVSPost2010Prop52
140
1.0
102
RTVSPost2010PropOp52
 70
     0
102
RTVSPost2010Prop53
 90
        2
102
RTVSPost2010PropOp53
 70
     1
102
RTVSPost2010Prop54
  1
strokes_ogs.tif
102
RTVSPost2010PropOp54
 70
     1
102
RTVSPost2010Prop55
280
     0
102
RTVSPost2010PropOp55
 70
     1
102
RTVSPost2010Prop56
140
1.0
102
RTVSPost2010PropOp56
 70
     1
102
RTVSPost2010Prop57
140
1.0
102
RTVSPost2010PropOp57
 70
     1
102
RTVSPropertyOp0
 70
     1
102
RTVSPropertyOp1
 70
     1
102
RTVSPropertyOp2
 70
     1
102
RTVSPropertyOp3
 70
     1
102
RTVSPropertyOp4
 70
     1
102
RTVSPropertyOp5
 70
     1
102
RTVSPropertyOp6
 70
     1
102
RTVSPropertyOp7
 70
     1
102
RTVSPropertyOp8
 70
     1
102
RTVSPropertyOp9
 70
     1
102
RTVSPropertyOp10
 70
     1
102
RTVSPropertyOp11
 70
     1
102
RTVSPropertyOp12
 70
     1
102
RTVSPropertyOp13
 70
     1
102
RTVSPropertyOp14
 70
     1
102
RTVSPropertyOp15
 70
     1
102
RTVSPropertyOp16
 70
     1
102
RTVSPropertyOp17
 70
     1
102
RTVSPropertyOp18
 70
     1
102
RTVSPropertyOp19
 70
     1
102
RTVSPropertyOp20
 70
     1
102
RTVSPropertyOp21
 70
     1
102
RTVSPropertyOp22
 70
     1
102
RTVSPropertyOp23
 70
     1
102
RTVSPropertyOp24
 70
     1
102
RTVSPropertyOp25
 70
     1
102
RTVSPropertyOp26
 70
     1
102
RTVSPropertyOp27
 70
     1
102
RTVSPropertyOp28
 70
     1
102
RTVSPropertyOp29
 70
     1
102
RTVSPropertyOp30
 70
     1
102
RTVSPropertyOp31
 70
     1
102
RTVSPropertyOp32
 70
     1
102
RTVSPropertyOp33
 70
     1
102
RTVSPropertyOp34
 70
     1
102
RTVSPropertyOp35
 70
     1
102
RTVSPropertyOp36
 70
     1
102
RTVSPropertyOp37
 70
     1
102
RTVSPropertyOp38
 70
     1
102
RTVSPropertyOp39
 70
     1
102
RTVSPropertyOp40
 70
     1
102
RTVSPropertyOp41
 70
     1
102
RTVSPropertyOp42
 70
     1
102
RTVSPropertyOp43
 70
     1
102
RTVSPropertyOp44
 70
     1
102
RTVSPropertyOp45
 70
     1
102
RTVSPropertyOp46
 70
     1
102
RTVSPropertyOp47
 70
     1
102
RTVSPropertyOp48
 70
     1
102
RTVSPropertyOp49
 70
     1
102
RTVSPropertyOp50
 70
     1
102
RTVSPropertyOp51
 70
     0
102
RTVSPropertyOp52
 70
     0
102
RTVSPropertyOp53
 70
     1
102
RTVSPropertyOp54
 70
     1
102
RTVSPropertyOp55
 70
     1
102
RTVSPropertyOp56
 70
     1
102
RTVSPropertyOp57
 70
     1
102
RTVSPropertyOp58
 70
     1
102
RTVSPropertyOp59
 70
     1
102
RTVSPropertyOp60
 70
     1
102
RTVSPropertyOp61
 70
     1
102
RTVSPropertyOp62
 70
     1
  0
XRECORD
  5
39C
102
{ACAD_REACTORS
330
39B
102
}
330
39B
100
AcDbXrecord
280
     1
102
RTVSPost2010Prop28
280
     0
102
RTVSPost2010PropOp28
 70
     1
102
RTVSPost2010Prop29
280
     1
102
RTVSPost2010PropOp29
 70
     1
102
RTVSPost2010Prop30
280
     1
102
RTVSPost2010PropOp30
 70
     1
102
RTVSPost2010Prop31
280
     0
102
RTVSPost2010PropOp31
 70
     1
102
RTVSPost2010Prop32
280
     0
102
RTVSPost2010PropOp32
 70
     1
102
RTVSPost2010Prop33
280
     0
102
RTVSPost2010PropOp33
 70
     1
102
RTVSPost2010Prop34
280
     0
102
RTVSPost2010PropOp34
 70
     1
102
RTVSPost2010Prop35
280
     0
102
RTVSPost2010PropOp35
 70
     1
102
RTVSPost2010Prop36
280
     0
102
RTVSPost2010PropOp36
 70
     1
102
RTVSPost2010Prop37
 90
       50
102
RTVSPost2010PropOp37
 70
     1
102
RTVSPost2010Prop38
140
0.0
102
RTVSPost2010PropOp38
 70
     1
102
RTVSPost2010Prop39
140
1.0
102
RTVSPost2010PropOp39
 70
     1
102
RTVSPost2010Prop40
 90
        0
102
RTVSPost2010PropOp40
 70
     1
102
RTVSPost2010Prop41ColorIndex
 90
       18
102
RTVSPost2010Prop41ColorRGB
 90
        0
102
RTVSPost2010PropOp41
 70
     1
102
RTVSPost2010Prop42
 90
       50
102
RTVSPost2010PropOp42
 70
     1
102
RTVSPost2010Prop43
 90
        3
102
RTVSPost2010PropOp43
 70
     1
102
RTVSPost2010Prop44ColorIndex
 90
        5
102
RTVSPost2010Prop44ColorRGB
 90
      255
102
RTVSPost2010PropOp44
 70
     1
102
RTVSPost2010Prop45
280
     0
102
RTVSPost2010PropOp45
 70
     1
102
RTVSPost2010Prop46
 90
       50
102
RTVSPost2010PropOp46
 70
     1
102
RTVSPost2010Prop47
 90
       50
102
RTVSPost2010PropOp47
 70
     1
102
RTVSPost2010Prop48
 90
       50
102
RTVSPost2010PropOp48
 70
     1
102
RTVSPost2010Prop49
280
     0
102
RTVSPost2010PropOp49
 70
     1
102
RTVSPost2010Prop50
 90
       50
102
RTVSPost2010PropOp50
 70
     1
102
RTVSPost2010Prop51ColorIndex
 90
      256
102
RTVSPost2010Prop51ColorRGB
 90
-16777216
102
RTVSPost2010PropOp51
 70
     0
102
RTVSPost2010Prop52
140
1.0
102
RTVSPost2010PropOp52
 70
     0
102
RTVSPost2010Prop53
 90
        2
102
RTVSPost2010PropOp53
 70
     1
102
RTVSPost2010Prop54
  1
strokes_ogs.tif
102
RTVSPost2010PropOp54
 70
     1
102
RTVSPost2010Prop55
280
     0
102
RTVSPost2010PropOp55
 70
     1
102
RTVSPost2010Prop56
140
1.0
102
RTVSPost2010PropOp56
 70
     1
102
RTVSPost2010Prop57
140
1.0
102
RTVSPost2010PropOp57
 70
     1
102
RTVSPropertyOp0
 70
     1
102
RTVSPropertyOp1
 70
     1
102
RTVSPropertyOp2
 70
     1
102
RTVSPropertyOp3
 70
     1
102
RTVSPropertyOp4
 70
     1
102
RTVSPropertyOp5
 70
     1
102
RTVSPropertyOp6
 70
     1
102
RTVSPropertyOp7
 70
     1
102
RTVSPropertyOp8
 70
     1
102
RTVSPropertyOp9
 70
     1
102
RTVSPropertyOp10
 70
     1
102
RTVSPropertyOp11
 70
     1
102
RTVSPropertyOp12
 70
     1
102
RTVSPropertyOp13
 70
     1
102
RTVSPropertyOp14
 70
     1
102
RTVSPropertyOp15
 70
     1
102
RTVSPropertyOp16
 70
     1
102
RTVSPropertyOp17
 70
     1
102
RTVSPropertyOp18
 70
     1
102
RTVSPropertyOp19
 70
     1
102
RTVSPropertyOp20
 70
     1
102
RTVSPropertyOp21
 70
     1
102
RTVSPropertyOp22
 70
     1
102
RTVSPropertyOp23
 70
     1
102
RTVSPropertyOp24
 70
     1
102
RTVSPropertyOp25
 70
     1
102
RTVSPropertyOp26
 70
     1
102
RTVSPropertyOp27
 70
     1
102
RTVSPropertyOp28
 70
     1
102
RTVSPropertyOp29
 70
     1
102
RTVSPropertyOp30
 70
     1
102
RTVSPropertyOp31
 70
     1
102
RTVSPropertyOp32
 70
     1
102
RTVSPropertyOp33
 70
     1
102
RTVSPropertyOp34
 70
     1
102
RTVSPropertyOp35
 70
     1
102
RTVSPropertyOp36
 70
     1
102
RTVSPropertyOp37
 70
     1
102
RTVSPropertyOp38
 70
     1
102
RTVSPropertyOp39
 70
     1
102
RTVSPropertyOp40
 70
     1
102
RTVSPropertyOp41
 70
     1
102
RTVSPropertyOp42
 70
     1
102
RTVSPropertyOp43
 70
     1
102
RTVSPropertyOp44
 70
     1
102
RTVSPropertyOp45
 70
     1
102
RTVSPropertyOp46
 70
     1
102
RTVSPropertyOp47
 70
     1
102
RTVSPropertyOp48
 70
     1
102
RTVSPropertyOp49
 70
     1
102
RTVSPropertyOp50
 70
     1
102
RTVSPropertyOp51
 70
     0
102
RTVSPropertyOp52
 70
     0
102
RTVSPropertyOp53
 70
     1
102
RTVSPropertyOp54
 70
     1
102
RTVSPropertyOp55
 70
     1
102
RTVSPropertyOp56
 70
     1
102
RTVSPropertyOp57
 70
     1
102
RTVSPropertyOp58
 70
     1
102
RTVSPropertyOp59
 70
     1
102
RTVSPropertyOp60
 70
     1
102
RTVSPropertyOp61
 70
     1
102
RTVSPropertyOp62
 70
     1
  0
XRECORD
  5
39E
102
{ACAD_REACTORS
330
39D
102
}
330
39D
100
AcDbXrecord
280
     1
102
RTVSPost2010Prop28
280
     0
102
RTVSPost2010PropOp28
 70
     1
102
RTVSPost2010Prop29
280
     1
102
RTVSPost2010PropOp29
 70
     1
102
RTVSPost2010Prop30
280
     1
102
RTVSPost2010PropOp30
 70
     1
102
RTVSPost2010Prop31
280
     0
102
RTVSPost2010PropOp31
 70
     1
102
RTVSPost2010Prop32
280
     0
102
RTVSPost2010PropOp32
 70
     1
102
RTVSPost2010Prop33
280
     0
102
RTVSPost2010PropOp33
 70
     1
102
RTVSPost2010Prop34
280
     0
102
RTVSPost2010PropOp34
 70
     1
102
RTVSPost2010Prop35
280
     0
102
RTVSPost2010PropOp35
 70
     1
102
RTVSPost2010Prop36
280
     0
102
RTVSPost2010PropOp36
 70
     1
102
RTVSPost2010Prop37
 90
       50
102
RTVSPost2010PropOp37
 70
     1
102
RTVSPost2010Prop38
140
0.0
102
RTVSPost2010PropOp38
 70
     1
102
RTVSPost2010Prop39
140
1.0
102
RTVSPost2010PropOp39
 70
     1
102
RTVSPost2010Prop40
 90
        0
102
RTVSPost2010PropOp40
 70
     1
102
RTVSPost2010Prop41ColorIndex
 90
       18
102
RTVSPost2010Prop41ColorRGB
 90
        0
102
RTVSPost2010PropOp41
 70
     1
102
RTVSPost2010Prop42
 90
       50
102
RTVSPost2010PropOp42
 70
     1
102
RTVSPost2010Prop43
 90
        3
102
RTVSPost2010PropOp43
 70
     1
102
RTVSPost2010Prop44ColorIndex
 90
        5
102
RTVSPost2010Prop44ColorRGB
 90
      255
102
RTVSPost2010PropOp44
 70
     1
102
RTVSPost2010Prop45
280
     0
102
RTVSPost2010PropOp45
 70
     1
102
RTVSPost2010Prop46
 90
       50
102
RTVSPost2010PropOp46
 70
     1
102
RTVSPost2010Prop47
 90
       50
102
RTVSPost2010PropOp47
 70
     1
102
RTVSPost2010Prop48
 90
       50
102
RTVSPost2010PropOp48
 70
     1
102
RTVSPost2010Prop49
280
     0
102
RTVSPost2010PropOp49
 70
     1
102
RTVSPost2010Prop50
 90
       50
102
RTVSPost2010PropOp50
 70
     1
102
RTVSPost2010Prop51ColorIndex
 90
      256
102
RTVSPost2010Prop51ColorRGB
 90
-16777216
102
RTVSPost2010PropOp51
 70
     0
102
RTVSPost2010Prop52
140
1.0
102
RTVSPost2010PropOp52
 70
     0
102
RTVSPost2010Prop53
 90
        2
102
RTVSPost2010PropOp53
 70
     1
102
RTVSPost2010Prop54
  1
strokes_ogs.tif
102
RTVSPost2010PropOp54
 70
     1
102
RTVSPost2010Prop55
280
     0
102
RTVSPost2010PropOp55
 70
     1
102
RTVSPost2010Prop56
140
1.0
102
RTVSPost2010PropOp56
 70
     1
102
RTVSPost2010Prop57
140
1.0
102
RTVSPost2010PropOp57
 70
     1
102
RTVSPropertyOp0
 70
     1
102
RTVSPropertyOp1
 70
     1
102
RTVSPropertyOp2
 70
     1
102
RTVSPropertyOp3
 70
     1
102
RTVSPropertyOp4
 70
     1
102
RTVSPropertyOp5
 70
     1
102
RTVSPropertyOp6
 70
     1
102
RTVSPropertyOp7
 70
     1
102
RTVSPropertyOp8
 70
     1
102
RTVSPropertyOp9
 70
     1
102
RTVSPropertyOp10
 70
     1
102
RTVSPropertyOp11
 70
     1
102
RTVSPropertyOp12
 70
     1
102
RTVSPropertyOp13
 70
     1
102
RTVSPropertyOp14
 70
     1
102
RTVSPropertyOp15
 70
     1
102
RTVSPropertyOp16
 70
     1
102
RTVSPropertyOp17
 70
     1
102
RTVSPropertyOp18
 70
     1
102
RTVSPropertyOp19
 70
     1
102
RTVSPropertyOp20
 70
     1
102
RTVSPropertyOp21
 70
     1
102
RTVSPropertyOp22
 70
     1
102
RTVSPropertyOp23
 70
     1
102
RTVSPropertyOp24
 70
     1
102
RTVSPropertyOp25
 70
     1
102
RTVSPropertyOp26
 70
     1
102
RTVSPropertyOp27
 70
     1
102
RTVSPropertyOp28
 70
     1
102
RTVSPropertyOp29
 70
     1
102
RTVSPropertyOp30
 70
     1
102
RTVSPropertyOp31
 70
     1
102
RTVSPropertyOp32
 70
     1
102
RTVSPropertyOp33
 70
     1
102
RTVSPropertyOp34
 70
     1
102
RTVSPropertyOp35
 70
     1
102
RTVSPropertyOp36
 70
     1
102
RTVSPropertyOp37
 70
     1
102
RTVSPropertyOp38
 70
     1
102
RTVSPropertyOp39
 70
     1
102
RTVSPropertyOp40
 70
     1
102
RTVSPropertyOp41
 70
     1
102
RTVSPropertyOp42
 70
     1
102
RTVSPropertyOp43
 70
     1
102
RTVSPropertyOp44
 70
     1
102
RTVSPropertyOp45
 70
     1
102
RTVSPropertyOp46
 70
     1
102
RTVSPropertyOp47
 70
     1
102
RTVSPropertyOp48
 70
     1
102
RTVSPropertyOp49
 70
     1
102
RTVSPropertyOp50
 70
     1
102
RTVSPropertyOp51
 70
     0
102
RTVSPropertyOp52
 70
     0
102
RTVSPropertyOp53
 70
     1
102
RTVSPropertyOp54
 70
     1
102
RTVSPropertyOp55
 70
     1
102
RTVSPropertyOp56
 70
     1
102
RTVSPropertyOp57
 70
     1
102
RTVSPropertyOp58
 70
     1
102
RTVSPropertyOp59
 70
     1
102
RTVSPropertyOp60
 70
     1
102
RTVSPropertyOp61
 70
     1
102
RTVSPropertyOp62
 70
     1
  0
XRECORD
  5
38E
102
{ACAD_REACTORS
330
38D
102
}
330
38D
100
AcDbXrecord
280
     1
102
RTVSPost2010Prop28
280
     0
102
RTVSPost2010PropOp28
 70
     1
102
RTVSPost2010Prop29
280
     1
102
RTVSPost2010PropOp29
 70
     1
102
RTVSPost2010Prop30
280
     1
102
RTVSPost2010PropOp30
 70
     1
102
RTVSPost2010Prop31
280
     0
102
RTVSPost2010PropOp31
 70
     1
102
RTVSPost2010Prop32
280
     0
102
RTVSPost2010PropOp32
 70
     1
102
RTVSPost2010Prop33
280
     0
102
RTVSPost2010PropOp33
 70
     1
102
RTVSPost2010Prop34
280
     0
102
RTVSPost2010PropOp34
 70
     1
102
RTVSPost2010Prop35
280
     0
102
RTVSPost2010PropOp35
 70
     1
102
RTVSPost2010Prop36
280
     0
102
RTVSPost2010PropOp36
 70
     1
102
RTVSPost2010Prop37
 90
       50
102
RTVSPost2010PropOp37
 70
     1
102
RTVSPost2010Prop38
140
0.0
102
RTVSPost2010PropOp38
 70
     1
102
RTVSPost2010Prop39
140
1.0
102
RTVSPost2010PropOp39
 70
     1
102
RTVSPost2010Prop40
 90
        0
102
RTVSPost2010PropOp40
 70
     1
102
RTVSPost2010Prop41ColorIndex
 90
       18
102
RTVSPost2010Prop41ColorRGB
 90
        0
102
RTVSPost2010PropOp41
 70
     1
102
RTVSPost2010Prop42
 90
       50
102
RTVSPost2010PropOp42
 70
     1
102
RTVSPost2010Prop43
 90
        3
102
RTVSPost2010PropOp43
 70
     1
102
RTVSPost2010Prop44ColorIndex
 90
        5
102
RTVSPost2010Prop44ColorRGB
 90
      255
102
RTVSPost2010PropOp44
 70
     1
102
RTVSPost2010Prop45
280
     0
102
RTVSPost2010PropOp45
 70
     1
102
RTVSPost2010Prop46
 90
       50
102
RTVSPost2010PropOp46
 70
     1
102
RTVSPost2010Prop47
 90
       50
102
RTVSPost2010PropOp47
 70
     1
102
RTVSPost2010Prop48
 90
       50
102
RTVSPost2010PropOp48
 70
     1
102
RTVSPost2010Prop49
280
     0
102
RTVSPost2010PropOp49
 70
     1
102
RTVSPost2010Prop50
 90
       50
102
RTVSPost2010PropOp50
 70
     1
102
RTVSPost2010Prop51ColorIndex
 90
      256
102
RTVSPost2010Prop51ColorRGB
 90
-16777216
102
RTVSPost2010PropOp51
 70
     0
102
RTVSPost2010Prop52
140
1.0
102
RTVSPost2010PropOp52
 70
     0
102
RTVSPost2010Prop53
 90
        2
102
RTVSPost2010PropOp53
 70
     1
102
RTVSPost2010Prop54
  1
strokes_ogs.tif
102
RTVSPost2010PropOp54
 70
     1
102
RTVSPost2010Prop55
280
     0
102
RTVSPost2010PropOp55
 70
     1
102
RTVSPost2010Prop56
140
1.0
102
RTVSPost2010PropOp56
 70
     1
102
RTVSPost2010Prop57
140
1.0
102
RTVSPost2010PropOp57
 70
     1
102
RTVSPropertyOp0
 70
     1
102
RTVSPropertyOp1
 70
     1
102
RTVSPropertyOp2
 70
     1
102
RTVSPropertyOp3
 70
     1
102
RTVSPropertyOp4
 70
     1
102
RTVSPropertyOp5
 70
     1
102
RTVSPropertyOp6
 70
     1
102
RTVSPropertyOp7
 70
     1
102
RTVSPropertyOp8
 70
     1
102
RTVSPropertyOp9
 70
     1
102
RTVSPropertyOp10
 70
     1
102
RTVSPropertyOp11
 70
     1
102
RTVSPropertyOp12
 70
     1
102
RTVSPropertyOp13
 70
     1
102
RTVSPropertyOp14
 70
     1
102
RTVSPropertyOp15
 70
     1
102
RTVSPropertyOp16
 70
     1
102
RTVSPropertyOp17
 70
     1
102
RTVSPropertyOp18
 70
     1
102
RTVSPropertyOp19
 70
     1
102
RTVSPropertyOp20
 70
     1
102
RTVSPropertyOp21
 70
     1
102
RTVSPropertyOp22
 70
     1
102
RTVSPropertyOp23
 70
     1
102
RTVSPropertyOp24
 70
     1
102
RTVSPropertyOp25
 70
     1
102
RTVSPropertyOp26
 70
     1
102
RTVSPropertyOp27
 70
     1
102
RTVSPropertyOp28
 70
     1
102
RTVSPropertyOp29
 70
     1
102
RTVSPropertyOp30
 70
     1
102
RTVSPropertyOp31
 70
     1
102
RTVSPropertyOp32
 70
     1
102
RTVSPropertyOp33
 70
     1
102
RTVSPropertyOp34
 70
     1
102
RTVSPropertyOp35
 70
     1
102
RTVSPropertyOp36
 70
     1
102
RTVSPropertyOp37
 70
     1
102
RTVSPropertyOp38
 70
     1
102
RTVSPropertyOp39
 70
     1
102
RTVSPropertyOp40
 70
     1
102
RTVSPropertyOp41
 70
     1
102
RTVSPropertyOp42
 70
     1
102
RTVSPropertyOp43
 70
     1
102
RTVSPropertyOp44
 70
     1
102
RTVSPropertyOp45
 70
     1
102
RTVSPropertyOp46
 70
     1
102
RTVSPropertyOp47
 70
     1
102
RTVSPropertyOp48
 70
     1
102
RTVSPropertyOp49
 70
     1
102
RTVSPropertyOp50
 70
     1
102
RTVSPropertyOp51
 70
     0
102
RTVSPropertyOp52
 70
     0
102
RTVSPropertyOp53
 70
     1
102
RTVSPropertyOp54
 70
     1
102
RTVSPropertyOp55
 70
     1
102
RTVSPropertyOp56
 70
     1
102
RTVSPropertyOp57
 70
     1
102
RTVSPropertyOp58
 70
     1
102
RTVSPropertyOp59
 70
     1
102
RTVSPropertyOp60
 70
     1
102
RTVSPropertyOp61
 70
     1
102
RTVSPropertyOp62
 70
     1
  0
XRECORD
  5
380
102
{ACAD_REACTORS
330
37F
102
}
330
37F
100
AcDbXrecord
280
     1
102
RTVSPost2010Prop28
280
     0
102
RTVSPost2010PropOp28
 70
     1
102
RTVSPost2010Prop29
280
     1
102
RTVSPost2010PropOp29
 70
     1
102
RTVSPost2010Prop30
280
     1
102
RTVSPost2010PropOp30
 70
     1
102
RTVSPost2010Prop31
280
     0
102
RTVSPost2010PropOp31
 70
     1
102
RTVSPost2010Prop32
280
     0
102
RTVSPost2010PropOp32
 70
     1
102
RTVSPost2010Prop33
280
     0
102
RTVSPost2010PropOp33
 70
     1
102
RTVSPost2010Prop34
280
     0
102
RTVSPost2010PropOp34
 70
     1
102
RTVSPost2010Prop35
280
     0
102
RTVSPost2010PropOp35
 70
     1
102
RTVSPost2010Prop36
280
     0
102
RTVSPost2010PropOp36
 70
     1
102
RTVSPost2010Prop37
 90
       50
102
RTVSPost2010PropOp37
 70
     1
102
RTVSPost2010Prop38
140
0.0
102
RTVSPost2010PropOp38
 70
     1
102
RTVSPost2010Prop39
140
1.0
102
RTVSPost2010PropOp39
 70
     1
102
RTVSPost2010Prop40
 90
        0
102
RTVSPost2010PropOp40
 70
     1
102
RTVSPost2010Prop41ColorIndex
 90
       18
102
RTVSPost2010Prop41ColorRGB
 90
        0
102
RTVSPost2010PropOp41
 70
     1
102
RTVSPost2010Prop42
 90
       50
102
RTVSPost2010PropOp42
 70
     1
102
RTVSPost2010Prop43
 90
        3
102
RTVSPost2010PropOp43
 70
     1
102
RTVSPost2010Prop44ColorIndex
 90
        5
102
RTVSPost2010Prop44ColorRGB
 90
      255
102
RTVSPost2010PropOp44
 70
     1
102
RTVSPost2010Prop45
280
     0
102
RTVSPost2010PropOp45
 70
     1
102
RTVSPost2010Prop46
 90
       50
102
RTVSPost2010PropOp46
 70
     1
102
RTVSPost2010Prop47
 90
       50
102
RTVSPost2010PropOp47
 70
     1
102
RTVSPost2010Prop48
 90
       50
102
RTVSPost2010PropOp48
 70
     1
102
RTVSPost2010Prop49
280
     0
102
RTVSPost2010PropOp49
 70
     1
102
RTVSPost2010Prop50
 90
       50
102
RTVSPost2010PropOp50
 70
     1
102
RTVSPost2010Prop51ColorIndex
 90
      256
102
RTVSPost2010Prop51ColorRGB
 90
-16777216
102
RTVSPost2010PropOp51
 70
     0
102
RTVSPost2010Prop52
140
1.0
102
RTVSPost2010PropOp52
 70
     0
102
RTVSPost2010Prop53
 90
        2
102
RTVSPost2010PropOp53
 70
     1
102
RTVSPost2010Prop54
  1
strokes_ogs.tif
102
RTVSPost2010PropOp54
 70
     1
102
RTVSPost2010Prop55
280
     0
102
RTVSPost2010PropOp55
 70
     1
102
RTVSPost2010Prop56
140
1.0
102
RTVSPost2010PropOp56
 70
     1
102
RTVSPost2010Prop57
140
1.0
102
RTVSPost2010PropOp57
 70
     1
102
RTVSPropertyOp0
 70
     1
102
RTVSPropertyOp1
 70
     1
102
RTVSPropertyOp2
 70
     1
102
RTVSPropertyOp3
 70
     1
102
RTVSPropertyOp4
 70
     1
102
RTVSPropertyOp5
 70
     1
102
RTVSPropertyOp6
 70
     1
102
RTVSPropertyOp7
 70
     1
102
RTVSPropertyOp8
 70
     1
102
RTVSPropertyOp9
 70
     1
102
RTVSPropertyOp10
 70
     1
102
RTVSPropertyOp11
 70
     1
102
RTVSPropertyOp12
 70
     1
102
RTVSPropertyOp13
 70
     1
102
RTVSPropertyOp14
 70
     1
102
RTVSPropertyOp15
 70
     1
102
RTVSPropertyOp16
 70
     1
102
RTVSPropertyOp17
 70
     1
102
RTVSPropertyOp18
 70
     1
102
RTVSPropertyOp19
 70
     1
102
RTVSPropertyOp20
 70
     1
102
RTVSPropertyOp21
 70
     1
102
RTVSPropertyOp22
 70
     1
102
RTVSPropertyOp23
 70
     1
102
RTVSPropertyOp24
 70
     1
102
RTVSPropertyOp25
 70
     1
102
RTVSPropertyOp26
 70
     1
102
RTVSPropertyOp27
 70
     1
102
RTVSPropertyOp28
 70
     1
102
RTVSPropertyOp29
 70
     1
102
RTVSPropertyOp30
 70
     1
102
RTVSPropertyOp31
 70
     1
102
RTVSPropertyOp32
 70
     1
102
RTVSPropertyOp33
 70
     1
102
RTVSPropertyOp34
 70
     1
102
RTVSPropertyOp35
 70
     1
102
RTVSPropertyOp36
 70
     1
102
RTVSPropertyOp37
 70
     1
102
RTVSPropertyOp38
 70
     1
102
RTVSPropertyOp39
 70
     1
102
RTVSPropertyOp40
 70
     1
102
RTVSPropertyOp41
 70
     1
102
RTVSPropertyOp42
 70
     1
102
RTVSPropertyOp43
 70
     1
102
RTVSPropertyOp44
 70
     1
102
RTVSPropertyOp45
 70
     1
102
RTVSPropertyOp46
 70
     1
102
RTVSPropertyOp47
 70
     1
102
RTVSPropertyOp48
 70
     1
102
RTVSPropertyOp49
 70
     1
102
RTVSPropertyOp50
 70
     1
102
RTVSPropertyOp51
 70
     0
102
RTVSPropertyOp52
 70
     0
102
RTVSPropertyOp53
 70
     1
102
RTVSPropertyOp54
 70
     1
102
RTVSPropertyOp55
 70
     1
102
RTVSPropertyOp56
 70
     1
102
RTVSPropertyOp57
 70
     1
102
RTVSPropertyOp58
 70
     1
102
RTVSPropertyOp59
 70
     1
102
RTVSPropertyOp60
 70
     1
102
RTVSPropertyOp61
 70
     1
102
RTVSPropertyOp62
 70
     1
  0
XRECORD
  5
3A0
102
{ACAD_REACTORS
330
39F
102
}
330
39F
100
AcDbXrecord
280
     1
102
RTVSPost2010Prop28
280
     0
102
RTVSPost2010PropOp28
 70
     1
102
RTVSPost2010Prop29
280
     1
102
RTVSPost2010PropOp29
 70
     1
102
RTVSPost2010Prop30
280
     1
102
RTVSPost2010PropOp30
 70
     1
102
RTVSPost2010Prop31
280
     0
102
RTVSPost2010PropOp31
 70
     1
102
RTVSPost2010Prop32
280
     0
102
RTVSPost2010PropOp32
 70
     1
102
RTVSPost2010Prop33
280
     0
102
RTVSPost2010PropOp33
 70
     1
102
RTVSPost2010Prop34
280
     0
102
RTVSPost2010PropOp34
 70
     1
102
RTVSPost2010Prop35
280
     0
102
RTVSPost2010PropOp35
 70
     1
102
RTVSPost2010Prop36
280
     0
102
RTVSPost2010PropOp36
 70
     1
102
RTVSPost2010Prop37
 90
       50
102
RTVSPost2010PropOp37
 70
     1
102
RTVSPost2010Prop38
140
0.0
102
RTVSPost2010PropOp38
 70
     1
102
RTVSPost2010Prop39
140
1.0
102
RTVSPost2010PropOp39
 70
     1
102
RTVSPost2010Prop40
 90
        0
102
RTVSPost2010PropOp40
 70
     1
102
RTVSPost2010Prop41ColorIndex
 90
       18
102
RTVSPost2010Prop41ColorRGB
 90
        0
102
RTVSPost2010PropOp41
 70
     1
102
RTVSPost2010Prop42
 90
       50
102
RTVSPost2010PropOp42
 70
     1
102
RTVSPost2010Prop43
 90
        3
102
RTVSPost2010PropOp43
 70
     1
102
RTVSPost2010Prop44ColorIndex
 90
        5
102
RTVSPost2010Prop44ColorRGB
 90
      255
102
RTVSPost2010PropOp44
 70
     1
102
RTVSPost2010Prop45
280
     0
102
RTVSPost2010PropOp45
 70
     1
102
RTVSPost2010Prop46
 90
       50
102
RTVSPost2010PropOp46
 70
     1
102
RTVSPost2010Prop47
 90
       50
102
RTVSPost2010PropOp47
 70
     1
102
RTVSPost2010Prop48
 90
       50
102
RTVSPost2010PropOp48
 70
     1
102
RTVSPost2010Prop49
280
     0
102
RTVSPost2010PropOp49
 70
     1
102
RTVSPost2010Prop50
 90
       50
102
RTVSPost2010PropOp50
 70
     1
102
RTVSPost2010Prop51ColorIndex
 90
      256
102
RTVSPost2010Prop51ColorRGB
 90
-16777216
102
RTVSPost2010PropOp51
 70
     0
102
RTVSPost2010Prop52
140
1.0
102
RTVSPost2010PropOp52
 70
     0
102
RTVSPost2010Prop53
 90
        2
102
RTVSPost2010PropOp53
 70
     1
102
RTVSPost2010Prop54
  1
strokes_ogs.tif
102
RTVSPost2010PropOp54
 70
     1
102
RTVSPost2010Prop55
280
     0
102
RTVSPost2010PropOp55
 70
     1
102
RTVSPost2010Prop56
140
1.0
102
RTVSPost2010PropOp56
 70
     1
102
RTVSPost2010Prop57
140
1.0
102
RTVSPost2010PropOp57
 70
     1
102
RTVSPropertyOp0
 70
     1
102
RTVSPropertyOp1
 70
     1
102
RTVSPropertyOp2
 70
     1
102
RTVSPropertyOp3
 70
     1
102
RTVSPropertyOp4
 70
     1
102
RTVSPropertyOp5
 70
     1
102
RTVSPropertyOp6
 70
     1
102
RTVSPropertyOp7
 70
     1
102
RTVSPropertyOp8
 70
     1
102
RTVSPropertyOp9
 70
     1
102
RTVSPropertyOp10
 70
     1
102
RTVSPropertyOp11
 70
     1
102
RTVSPropertyOp12
 70
     1
102
RTVSPropertyOp13
 70
     1
102
RTVSPropertyOp14
 70
     1
102
RTVSPropertyOp15
 70
     1
102
RTVSPropertyOp16
 70
     1
102
RTVSPropertyOp17
 70
     1
102
RTVSPropertyOp18
 70
     1
102
RTVSPropertyOp19
 70
     1
102
RTVSPropertyOp20
 70
     1
102
RTVSPropertyOp21
 70
     1
102
RTVSPropertyOp22
 70
     1
102
RTVSPropertyOp23
 70
     1
102
RTVSPropertyOp24
 70
     1
102
RTVSPropertyOp25
 70
     1
102
RTVSPropertyOp26
 70
     1
102
RTVSPropertyOp27
 70
     1
102
RTVSPropertyOp28
 70
     1
102
RTVSPropertyOp29
 70
     1
102
RTVSPropertyOp30
 70
     1
102
RTVSPropertyOp31
 70
     1
102
RTVSPropertyOp32
 70
     1
102
RTVSPropertyOp33
 70
     1
102
RTVSPropertyOp34
 70
     1
102
RTVSPropertyOp35
 70
     1
102
RTVSPropertyOp36
 70
     1
102
RTVSPropertyOp37
 70
     1
102
RTVSPropertyOp38
 70
     1
102
RTVSPropertyOp39
 70
     1
102
RTVSPropertyOp40
 70
     1
102
RTVSPropertyOp41
 70
     1
102
RTVSPropertyOp42
 70
     1
102
RTVSPropertyOp43
 70
     1
102
RTVSPropertyOp44
 70
     1
102
RTVSPropertyOp45
 70
     1
102
RTVSPropertyOp46
 70
     1
102
RTVSPropertyOp47
 70
     1
102
RTVSPropertyOp48
 70
     1
102
RTVSPropertyOp49
 70
     1
102
RTVSPropertyOp50
 70
     1
102
RTVSPropertyOp51
 70
     0
102
RTVSPropertyOp52
 70
     0
102
RTVSPropertyOp53
 70
     1
102
RTVSPropertyOp54
 70
     1
102
RTVSPropertyOp55
 70
     1
102
RTVSPropertyOp56
 70
     1
102
RTVSPropertyOp57
 70
     1
102
RTVSPropertyOp58
 70
     1
102
RTVSPropertyOp59
 70
     1
102
RTVSPropertyOp60
 70
     1
102
RTVSPropertyOp61
 70
     1
102
RTVSPropertyOp62
 70
     1
  0
ENDSEC
  0
EOF
