  0
SECTION
  2
HEADER
  9
$ACADVER
  1
AC1018
  9
$ACADMAINTVER
 70
   104
  9
$DWGCODEPAGE
  3
ANSI_1250
  9
$LASTSAVEDBY
  1
wq7085
  9
$INSBASE
 10
0.0
 20
0.0
 30
0.0
  9
$EXTMIN
 10
175.1653983333333
 20
114.534924
 30
0.0
  9
$EXTMAX
 10
435.825734
 20
345.2288016666668
 30
0.0
  9
$LIMMIN
 10
-0.5
 20
-0.5
  9
$LIMMAX
 10
5.0
 20
5.0
  9
$ORTHOMODE
 70
     0
  9
$REGENMODE
 70
     1
  9
$FILLMODE
 70
     1
  9
$QTEXTMODE
 70
     0
  9
$MIRRTEXT
 70
     1
  9
$LTSCALE
 40
1.0
  9
$ATTMODE
 70
     1
  9
$TEXTSIZE
 40
0.2
  9
$TRACEWID
 40
0.05
  9
$TEXTSTYLE
  7
Standard
  9
$CLAYER
  8
0
  9
$CELTYPE
  6
ByLayer
  9
$CECOLOR
 62
   256
  9
$CELTSCALE
 40
1.0
  9
$DISPSILH
 70
     0
  9
$DIMSCALE
 40
1.0
  9
$DIMASZ
 40
0.18
  9
$DIMEXO
 40
0.0625
  9
$DIMDLI
 40
0.38
  9
$DIMRND
 40
0.0
  9
$DIMDLE
 40
0.0
  9
$DIMEXE
 40
0.18
  9
$DIMTP
 40
0.0
  9
$DIMTM
 40
0.0
  9
$DIMTXT
 40
0.18
  9
$DIMCEN
 40
0.09
  9
$DIMTSZ
 40
0.0
  9
$DIMTOL
 70
     0
  9
$DIMLIM
 70
     0
  9
$DIMTIH
 70
     1
  9
$DIMTOH
 70
     1
  9
$DIMSE1
 70
     0
  9
$DIMSE2
 70
     0
  9
$DIMTAD
 70
     0
  9
$DIMZIN
 70
     0
  9
$DIMBLK
  1

  9
$DIMASO
 70
     1
  9
$DIMSHO
 70
     1
  9
$DIMPOST
  1

  9
$DIMAPOST
  1

  9
$DIMALT
 70
     0
  9
$DIMALTD
 70
     2
  9
$DIMALTF
 40
25.4
  9
$DIMLFAC
 40
1.0
  9
$DIMTOFL
 70
     0
  9
$DIMTVP
 40
0.0
  9
$DIMTIX
 70
     0
  9
$DIMSOXD
 70
     0
  9
$DIMSAH
 70
     0
  9
$DIMBLK1
  1

  9
$DIMBLK2
  1

  9
$DIMSTYLE
  2
Standard
  9
$DIMCLRD
 70
     0
  9
$DIMCLRE
 70
     0
  9
$DIMCLRT
 70
     0
  9
$DIMTFAC
 40
1.0
  9
$DIMGAP
 40
0.09
  9
$DIMJUST
 70
     0
  9
$DIMSD1
 70
     0
  9
$DIMSD2
 70
     0
  9
$DIMTOLJ
 70
     1
  9
$DIMTZIN
 70
     0
  9
$DIMALTZ
 70
     0
  9
$DIMALTTZ
 70
     0
  9
$DIMUPT
 70
     0
  9
$DIMDEC
 70
     4
  9
$DIMTDEC
 70
     4
  9
$DIMALTU
 70
     2
  9
$DIMALTTD
 70
     2
  9
$DIMTXSTY
  7
Standard
  9
$DIMAUNIT
 70
     0
  9
$DIMADEC
 70
     0
  9
$DIMALTRND
 40
0.0
  9
$DIMAZIN
 70
     0
  9
$DIMDSEP
 70
    46
  9
$DIMATFIT
 70
     3
  9
$DIMFRAC
 70
     0
  9
$DIMLDRBLK
  1

  9
$DIMLUNIT
 70
     2
  9
$DIMLWD
 70
    -2
  9
$DIMLWE
 70
    -2
  9
$DIMTMOVE
 70
     0
  9
$LUNITS
 70
     2
  9
$LUPREC
 70
     4
  9
$SKETCHINC
 40
0.1
  9
$FILLETRAD
 40
0.5
  9
$AUNITS
 70
     0
  9
$AUPREC
 70
     0
  9
$MENU
  1
.
  9
$ELEVATION
 40
0.0
  9
$PELEVATION
 40
0.0
  9
$THICKNESS
 40
0.0
  9
$LIMCHECK
 70
     0
  9
$CHAMFERA
 40
0.0
  9
$CHAMFERB
 40
0.0
  9
$CHAMFERC
 40
0.0
  9
$CHAMFERD
 40
0.0
  9
$SKPOLY
 70
     0
  9
$TDCREATE
 40
2459066.439432870
  9
$TDUCREATE
 40
2459066.356108599
  9
$TDUPDATE
 40
2459066.441956019
  9
$TDUUPDATE
 40
2459066.358622685
  9
$TDINDWG
 40
0.0023495486
  9
$TDUSRTIMER
 40
0.0023495486
  9
$USRTIMER
 70
     1
  9
$ANGBASE
 50
0.0
  9
$ANGDIR
 70
     0
  9
$PDMODE
 70
     0
  9
$PDSIZE
 40
0.0
  9
$PLINEWID
 40
0.0
  9
$SPLFRAME
 70
     0
  9
$SPLINETYPE
 70
     6
  9
$SPLINESEGS
 70
     8
  9
$HANDSEED
  5
3A8
  9
$SURFTAB1
 70
     6
  9
$SURFTAB2
 70
     6
  9
$SURFTYPE
 70
     6
  9
$SURFU
 70
     6
  9
$SURFV
 70
     6
  9
$UCSBASE
  2

  9
$UCSNAME
  2

  9
$UCSORG
 10
274.404842
 20
288.907994
 30
0.0
  9
$UCSXDIR
 10
1.0
 20
0.0
 30
0.0
  9
$UCSYDIR
 10
0.0
 20
1.0
 30
0.0
  9
$UCSORTHOREF
  2

  9
$UCSORTHOVIEW
 70
     0
  9
$UCSORGTOP
 10
0.0
 20
0.0
 30
0.0
  9
$UCSORGBOTTOM
 10
0.0
 20
0.0
 30
0.0
  9
$UCSORGLEFT
 10
0.0
 20
0.0
 30
0.0
  9
$UCSORGRIGHT
 10
0.0
 20
0.0
 30
0.0
  9
$UCSORGFRONT
 10
0.0
 20
0.0
 30
0.0
  9
$UCSORGBACK
 10
0.0
 20
0.0
 30
0.0
  9
$PUCSBASE
  2

  9
$PUCSNAME
  2

  9
$PUCSORG
 10
0.0
 20
0.0
 30
0.0
  9
$PUCSXDIR
 10
1.0
 20
0.0
 30
0.0
  9
$PUCSYDIR
 10
0.0
 20
1.0
 30
0.0
  9
$PUCSORTHOREF
  2

  9
$PUCSORTHOVIEW
 70
     0
  9
$PUCSORGTOP
 10
0.0
 20
0.0
 30
0.0
  9
$PUCSORGBOTTOM
 10
0.0
 20
0.0
 30
0.0
  9
$PUCSORGLEFT
 10
0.0
 20
0.0
 30
0.0
  9
$PUCSORGRIGHT
 10
0.0
 20
0.0
 30
0.0
  9
$PUCSORGFRONT
 10
0.0
 20
0.0
 30
0.0
  9
$PUCSORGBACK
 10
0.0
 20
0.0
 30
0.0
  9
$USERI1
 70
     0
  9
$USERI2
 70
     0
  9
$USERI3
 70
     0
  9
$USERI4
 70
     0
  9
$USERI5
 70
     0
  9
$USERR1
 40
0.0
  9
$USERR2
 40
0.0
  9
$USERR3
 40
0.0
  9
$USERR4
 40
0.0
  9
$USERR5
 40
0.0
  9
$WORLDVIEW
 70
     1
  9
$SHADEDGE
 70
     3
  9
$SHADEDIF
 70
    70
  9
$TILEMODE
 70
     1
  9
$MAXACTVP
 70
    64
  9
$PINSBASE
 10
0.0
 20
0.0
 30
0.0
  9
$PLIMCHECK
 70
     0
  9
$PEXTMIN
 10
-0.5
 20
-0.5
 30
-0.5
  9
$PEXTMAX
 10
5.0
 20
5.0
 30
5.0
  9
$PLIMMIN
 10
-0.5
 20
-0.5
  9
$PLIMMAX
 10
5.0
 20
5.0
  9
$UNITMODE
 70
     0
  9
$VISRETAIN
 70
     1
  9
$PLINEGEN
 70
     0
  9
$PSLTSCALE
 70
     1
  9
$TREEDEPTH
 70
  3020
  9
$CMLSTYLE
  2
Standard
  9
$CMLJUST
 70
     0
  9
$CMLSCALE
 40
1.0
  9
$PROXYGRAPHICS
 70
     1
  9
$MEASUREMENT
 70
     1
  9
$CELWEIGHT
370
    13
  9
$ENDCAPS
280
     0
  9
$JOINSTYLE
280
     0
  9
$LWDISPLAY
290
     0
  9
$INSUNITS
 70
     4
  9
$HYPERLINKBASE
  1

  9
$STYLESHEET
  1

  9
$XEDIT
290
     1
  9
$CEPSNTYPE
380
     0
  9
$PSTYLEMODE
290
     1
  9
$FINGERPRINTGUID
  2
{D37922DD-C1BF-4372-889F-0E7C53A3D595}
  9
$VERSIONGUID
  2
{3BB3ADF4-30A9-DD41-B193-651F70B427ED}
  9
$EXTNAMES
290
     1
  9
$PSVPSCALE
 40
0.0
  9
$OLESTARTUP
290
     0
  9
$SORTENTS
280
   127
  9
$INDEXCTL
280
     0
  9
$HIDETEXT
280
     1
  9
$XCLIPFRAME
290
     0
  9
$HALOGAP
280
     0
  9
$OBSCOLOR
 70
   257
  9
$OBSLTYPE
280
     0
  9
$INTERSECTIONDISPLAY
280
     0
  9
$INTERSECTIONCOLOR
 70
   257
  9
$DIMASSOC
280
     2
  9
$PROJECTNAME
  1

  0
ENDSEC
  0
SECTION
  2
CLASSES
  0
CLASS
  1
ACDBDICTIONARYWDFLT
  2
AcDbDictionaryWithDefault
  3
ObjectDBX Classes
 90
        0
 91
        1
280
     0
281
     0
  0
CLASS
  1
VISUALSTYLE
  2
AcDbVisualStyle
  3
ObjectDBX Classes
 90
     4095
 91
       24
280
     0
281
     0
  0
CLASS
  1
MATERIAL
  2
AcDbMaterial
  3
ObjectDBX Classes
 90
     1153
 91
        3
280
     0
281
     0
  0
CLASS
  1
SCALE
  2
AcDbScale
  3
ObjectDBX Classes
 90
     1153
 91
       33
280
     0
281
     0
  0
CLASS
  1
TABLESTYLE
  2
AcDbTableStyle
  3
ObjectDBX Classes
 90
     4095
 91
        1
280
     0
281
     0
  0
CLASS
  1
MLEADERSTYLE
  2
AcDbMLeaderStyle
  3
ACDB_MLEADERSTYLE_CLASS
 90
     4095
 91
        1
280
     0
281
     0
  0
CLASS
  1
SUN
  2
AcDbSun
  3
SCENEOE
 90
     1153
 91
        0
280
     0
281
     0
  0
CLASS
  1
DIMASSOC
  2
AcDbDimAssoc
  3
"AcDbDimAssoc|Product Desc:     AcDim ARX App For Dimension|Company:          Autodesk, Inc.|WEB Address:      www.autodesk.com"
 90
        0
 91
        7
280
     0
281
     0
  0
CLASS
  1
DICTIONARYVAR
  2
AcDbDictionaryVar
  3
ObjectDBX Classes
 90
        0
 91
        8
280
     0
281
     0
  0
CLASS
  1
CELLSTYLEMAP
  2
AcDbCellStyleMap
  3
ObjectDBX Classes
 90
     1152
 91
        2
280
     0
281
     0
  0
CLASS
  1
ACDBSECTIONVIEWSTYLE
  2
AcDbSectionViewStyle
  3
ObjectDBX Classes
 90
     1025
 91
        1
280
     0
281
     0
  0
CLASS
  1
ACDBDETAILVIEWSTYLE
  2
AcDbDetailViewStyle
  3
ObjectDBX Classes
 90
     1025
 91
        1
280
     0
281
     0
  0
CLASS
  1
SORTENTSTABLE
  2
AcDbSortentsTable
  3
ObjectDBX Classes
 90
        0
 91
        1
280
     0
281
     0
  0
ENDSEC
  0
SECTION
  2
TABLES
  0
TABLE
  2
VPORT
  5
8
330
0
100
AcDbSymbolTable
 70
    16
  0
VPORT
  5
29
330
8
100
AcDbSymbolTableRecord
100
AcDbViewportTableRecord
  2
*Active
 70
     0
 10
0.0
 20
0.0
 11
1.0
 21
1.0
 12
347.2065712789824
 22
319.148329620563
 13
0.0
 23
0.0
 14
0.5
 24
0.5
 15
0.5
 25
0.5
 16
0.0
 26
0.0
 36
1.0
 17
0.0
 27
0.0
 37
0.0
 40
214.7250529536048
 41
2.292712066905615
 42
50.0
 43
467.3658139999999
 44
-467.3658139999999
 50
0.0
 51
0.0
 71
     0
 72
   100
 73
     1
 74
     3
 75
     0
 76
     0
 77
     0
 78
     0
281
     0
 65
     1
110
274.404842
120
288.907994
130
0.0
111
1.0
121
0.0
131
0.0
112
0.0
122
1.0
132
0.0
 79
     0
146
0.0
1001
ACAD_NAV_VCDISPLAY
1070
     3
  0
VPORT
  5
2AC
330
8
100
AcDbSymbolTableRecord
100
AcDbViewportTableRecord
  2
L1
 70
     0
 10
0.0
 20
0.0
 11
1.0
 21
1.0
 12
304.991364
 22
229.826057
 13
0.0
 23
0.0
 14
0.5
 24
0.5
 15
0.5
 25
0.5
 16
0.0
 26
0.0
 36
1.0
 17
0.0
 27
0.0
 37
0.0
 40
207.433333
 41
0.085602
 42
50.0
 43
467.3658139999999
 44
-467.3658139999999
 50
0.0
 51
0.0
 71
     0
 72
   100
 73
     1
 74
     3
 75
     0
 76
     0
 77
     0
 78
     0
281
     0
 65
     1
110
0.0
120
0.0
130
0.0
111
1.0
121
0.0
131
0.0
112
0.0
122
1.0
132
0.0
 79
     0
146
0.0
  0
VPORT
  5
2AD
330
8
100
AcDbSymbolTableRecord
100
AcDbViewportTableRecord
  2
L2
 70
     0
 10
0.0
 20
0.0
 11
0.5
 21
1.0
 12
0.0
 22
0.0
 13
0.0
 23
0.0
 14
0.5
 24
0.5
 15
0.5
 25
0.5
 16
0.0
 26
-1.0
 36
0.0
 17
0.0
 27
0.0
 37
0.0
 40
1319.143726
 41
0.013461
 42
50.0
 43
679.601336
 44
-679.601336
 50
0.0
 51
0.0
 71
     0
 72
   100
 73
     1
 74
     3
 75
     0
 76
     0
 77
     0
 78
     0
281
     0
 65
     1
110
0.0
120
0.0
130
0.0
111
1.0
121
0.0
131
0.0
112
0.0
122
1.0
132
0.0
 79
     0
146
0.0
  0
VPORT
  5
2AE
330
8
100
AcDbSymbolTableRecord
100
AcDbViewportTableRecord
  2
L2
 70
     0
 10
0.5
 20
0.0
 11
1.0
 21
1.0
 12
0.0
 22
0.0
 13
0.0
 23
0.0
 14
0.5
 24
0.5
 15
0.5
 25
0.5
 16
1.0
 26
0.0
 36
0.0
 17
0.0
 27
0.0
 37
0.0
 40
1319.143726
 41
0.013461
 42
50.0
 43
667.6767099999999
 44
-667.6767099999999
 50
0.0
 51
0.0
 71
     0
 72
   100
 73
     1
 74
     3
 75
     0
 76
     0
 77
     0
 78
     0
281
     0
 65
     1
110
0.0
120
0.0
130
0.0
111
1.0
121
0.0
131
0.0
112
0.0
122
1.0
132
0.0
 79
     0
146
0.0
  0
VPORT
  5
2AF
330
8
100
AcDbSymbolTableRecord
100
AcDbViewportTableRecord
  2
L3
 70
     0
 10
0.0
 20
0.5
 11
1.0
 21
1.0
 12
304.991364
 22
229.826057
 13
0.0
 23
0.0
 14
0.5
 24
0.5
 15
0.5
 25
0.5
 16
0.0
 26
0.0
 36
1.0
 17
0.0
 27
0.0
 37
0.0
 40
207.433333
 41
0.085602
 42
50.0
 43
467.3658139999999
 44
-467.3658139999999
 50
0.0
 51
0.0
 71
     0
 72
   100
 73
     1
 74
     3
 75
     0
 76
     0
 77
     0
 78
     0
281
     0
 65
     1
110
0.0
120
0.0
130
0.0
111
1.0
121
0.0
131
0.0
112
0.0
122
1.0
132
0.0
 79
     0
146
0.0
  0
VPORT
  5
2B0
330
8
100
AcDbSymbolTableRecord
100
AcDbViewportTableRecord
  2
L3
 70
     0
 10
0.0
 20
0.0
 11
1.0
 21
0.5
 12
0.0
 22
0.0
 13
0.0
 23
0.0
 14
0.5
 24
0.5
 15
0.5
 25
0.5
 16
0.0
 26
-1.0
 36
0.0
 17
0.0
 27
0.0
 37
0.0
 40
1319.143726
 41
0.013461
 42
50.0
 43
679.601336
 44
-679.601336
 50
0.0
 51
0.0
 71
     0
 72
   100
 73
     1
 74
     3
 75
     0
 76
     0
 77
     0
 78
     0
281
     0
 65
     1
110
0.0
120
0.0
130
0.0
111
1.0
121
0.0
131
0.0
112
0.0
122
1.0
132
0.0
 79
     0
146
0.0
  0
VPORT
  5
2B1
330
8
100
AcDbSymbolTableRecord
100
AcDbViewportTableRecord
  2
L4
 70
     0
 10
0.0
 20
0.5
 11
0.5
 21
1.0
 12
304.991364
 22
229.826057
 13
0.0
 23
0.0
 14
0.5
 24
0.5
 15
0.5
 25
0.5
 16
0.0
 26
0.0
 36
1.0
 17
0.0
 27
0.0
 37
0.0
 40
207.433333
 41
0.085602
 42
50.0
 43
467.3658139999999
 44
-467.3658139999999
 50
0.0
 51
0.0
 71
     0
 72
   100
 73
     1
 74
     3
 75
     0
 76
     0
 77
     0
 78
     0
281
     0
 65
     1
110
0.0
120
0.0
130
0.0
111
1.0
121
0.0
131
0.0
112
0.0
122
1.0
132
0.0
 79
     0
146
0.0
  0
VPORT
  5
2B2
330
8
100
AcDbSymbolTableRecord
100
AcDbViewportTableRecord
  2
L4
 70
     0
 10
0.0
 20
0.0
 11
0.5
 21
0.5
 12
0.0
 22
0.0
 13
0.0
 23
0.0
 14
0.5
 24
0.5
 15
0.5
 25
0.5
 16
0.0
 26
-1.0
 36
0.0
 17
0.0
 27
0.0
 37
0.0
 40
1319.143726
 41
0.013461
 42
50.0
 43
679.601336
 44
-679.601336
 50
0.0
 51
0.0
 71
     0
 72
   100
 73
     1
 74
     3
 75
     0
 76
     0
 77
     0
 78
     0
281
     0
 65
     1
110
0.0
120
0.0
130
0.0
111
1.0
121
0.0
131
0.0
112
0.0
122
1.0
132
0.0
 79
     0
146
0.0
  0
VPORT
  5
2B3
330
8
100
AcDbSymbolTableRecord
100
AcDbViewportTableRecord
  2
L4
 70
     0
 10
0.5
 20
0.0
 11
1.0
 21
0.5
 12
0.0
 22
0.0
 13
0.0
 23
0.0
 14
0.5
 24
0.5
 15
0.5
 25
0.5
 16
1.0
 26
0.0
 36
0.0
 17
0.0
 27
0.0
 37
0.0
 40
1319.143726
 41
0.013461
 42
50.0
 43
667.6767099999999
 44
-667.6767099999999
 50
0.0
 51
0.0
 71
     0
 72
   100
 73
     1
 74
     3
 75
     0
 76
     0
 77
     0
 78
     0
281
     0
 65
     1
110
0.0
120
0.0
130
0.0
111
1.0
121
0.0
131
0.0
112
0.0
122
1.0
132
0.0
 79
     0
146
0.0
  0
VPORT
  5
2B4
330
8
100
AcDbSymbolTableRecord
100
AcDbViewportTableRecord
  2
L4
 70
     0
 10
0.5
 20
0.5
 11
1.0
 21
1.0
 12
0.0
 22
0.0
 13
0.0
 23
0.0
 14
0.5
 24
0.5
 15
0.5
 25
0.5
 16
0.5773502691896259
 26
-0.5773502691896259
 36
0.5773502691896259
 17
0.0
 27
0.0
 37
0.0
 40
1295.484074
 41
0.013707
 42
50.0
 43
674.79345
 44
-674.79345
 50
0.0
 51
0.0
 71
     0
 72
   100
 73
     1
 74
     3
 75
     0
 76
     0
 77
     0
 78
     0
281
     0
 65
     1
110
0.0
120
0.0
130
0.0
111
1.0
121
0.0
131
0.0
112
0.0
122
1.0
132
0.0
 79
     0
146
0.0
  0
VPORT
  5
2B5
330
8
100
AcDbSymbolTableRecord
100
AcDbViewportTableRecord
  2
L6
 70
     0
 10
0.0
 20
0.5
 11
0.333333
 21
1.0
 12
0.0
 22
0.0
 13
0.0
 23
0.0
 14
0.5
 24
0.5
 15
0.5
 25
0.5
 16
0.7188730927569434
 26
-0.5850486126764433
 36
0.3754192287502549
 17
0.0
 27
0.0
 37
0.0
 40
1367.187154
 41
0.012988
 42
50.0
 43
707.8776949999999
 44
-707.8776949999999
 50
0.0
 51
0.0
 71
     0
 72
   100
 73
     1
 74
     3
 75
     0
 76
     0
 77
     0
 78
     0
281
     0
 65
     1
110
0.0
120
0.0
130
0.0
111
1.0
121
0.0
131
0.0
112
0.0
122
1.0
132
0.0
 79
     0
146
0.0
  0
VPORT
  5
2B6
330
8
100
AcDbSymbolTableRecord
100
AcDbViewportTableRecord
  2
L6
 70
     0
 10
0.0
 20
0.0
 11
0.333333
 21
0.5
 12
0.0
 22
0.0
 13
0.0
 23
0.0
 14
0.5
 24
0.5
 15
0.5
 25
0.5
 16
-1.0
 26
0.0
 36
0.0
 17
0.0
 27
0.0
 37
0.0
 40
1319.143726
 41
0.013461
 42
50.0
 43
667.6767099999999
 44
-667.6767099999999
 50
0.0
 51
0.0
 71
     0
 72
   100
 73
     1
 74
     3
 75
     0
 76
     0
 77
     0
 78
     0
281
     0
 65
     1
110
0.0
120
0.0
130
0.0
111
1.0
121
0.0
131
0.0
112
0.0
122
1.0
132
0.0
 79
     0
146
0.0
  0
VPORT
  5
2B7
330
8
100
AcDbSymbolTableRecord
100
AcDbViewportTableRecord
  2
L6
 70
     0
 10
0.333333
 20
0.5
 11
0.666667
 21
1.0
 12
304.991364
 22
229.826057
 13
0.0
 23
0.0
 14
0.5
 24
0.5
 15
0.5
 25
0.5
 16
0.0
 26
0.0
 36
1.0
 17
0.0
 27
0.0
 37
0.0
 40
207.433333
 41
0.085602
 42
50.0
 43
467.3658139999999
 44
-467.3658139999999
 50
0.0
 51
0.0
 71
     0
 72
   100
 73
     1
 74
     3
 75
     0
 76
     0
 77
     0
 78
     0
281
     0
 65
     1
110
0.0
120
0.0
130
0.0
111
1.0
121
0.0
131
0.0
112
0.0
122
1.0
132
0.0
 79
     0
146
0.0
  0
VPORT
  5
2B8
330
8
100
AcDbSymbolTableRecord
100
AcDbViewportTableRecord
  2
L6
 70
     0
 10
0.333333
 20
0.0
 11
0.666667
 21
0.5
 12
0.0
 22
0.0
 13
0.0
 23
0.0
 14
0.5
 24
0.5
 15
0.5
 25
0.5
 16
0.0
 26
-1.0
 36
0.0
 17
0.0
 27
0.0
 37
0.0
 40
1319.143726
 41
0.013461
 42
50.0
 43
679.601336
 44
-679.601336
 50
0.0
 51
0.0
 71
     0
 72
   100
 73
     1
 74
     3
 75
     0
 76
     0
 77
     0
 78
     0
281
     0
 65
     1
110
0.0
120
0.0
130
0.0
111
1.0
121
0.0
131
0.0
112
0.0
122
1.0
132
0.0
 79
     0
146
0.0
  0
VPORT
  5
2B9
330
8
100
AcDbSymbolTableRecord
100
AcDbViewportTableRecord
  2
L6
 70
     0
 10
0.666667
 20
0.5
 11
1.0
 21
1.0
 12
0.0
 22
0.0
 13
0.0
 23
0.0
 14
0.5
 24
0.5
 15
0.5
 25
0.5
 16
0.5773502691896259
 26
-0.5773502691896259
 36
0.5773502691896259
 17
0.0
 27
0.0
 37
0.0
 40
1295.484074
 41
0.013707
 42
50.0
 43
674.79345
 44
-674.79345
 50
0.0
 51
0.0
 71
     0
 72
   100
 73
     1
 74
     3
 75
     0
 76
     0
 77
     0
 78
     0
281
     0
 65
     1
110
0.0
120
0.0
130
0.0
111
1.0
121
0.0
131
0.0
112
0.0
122
1.0
132
0.0
 79
     0
146
0.0
  0
VPORT
  5
2BA
330
8
100
AcDbSymbolTableRecord
100
AcDbViewportTableRecord
  2
L6
 70
     0
 10
0.666667
 20
0.0
 11
1.0
 21
0.5
 12
0.0
 22
0.0
 13
0.0
 23
0.0
 14
0.5
 24
0.5
 15
0.5
 25
0.5
 16
1.0
 26
0.0
 36
0.0
 17
0.0
 27
0.0
 37
0.0
 40
1319.143726
 41
0.013461
 42
50.0
 43
667.6767099999999
 44
-667.6767099999999
 50
0.0
 51
0.0
 71
     0
 72
   100
 73
     1
 74
     3
 75
     0
 76
     0
 77
     0
 78
     0
281
     0
 65
     1
110
0.0
120
0.0
130
0.0
111
1.0
121
0.0
131
0.0
112
0.0
122
1.0
132
0.0
 79
     0
146
0.0
  0
ENDTAB
  0
TABLE
  2
LTYPE
  5
5
330
0
100
AcDbSymbolTable
 70
     7
  0
LTYPE
  5
14
330
5
100
AcDbSymbolTableRecord
100
AcDbLinetypeTableRecord
  2
ByBlock
 70
     0
  3

 72
    65
 73
     0
 40
0.0
  0
LTYPE
  5
15
330
5
100
AcDbSymbolTableRecord
100
AcDbLinetypeTableRecord
  2
ByLayer
 70
     0
  3

 72
    65
 73
     0
 40
0.0
  0
LTYPE
  5
16
330
5
100
AcDbSymbolTableRecord
100
AcDbLinetypeTableRecord
  2
Continuous
 70
     0
  3
Solid line
 72
    65
 73
     0
 40
0.0
  0
LTYPE
  5
6E
330
5
100
AcDbSymbolTableRecord
100
AcDbLinetypeTableRecord
  2
CENTER
 70
     0
  3
____ _ ____ _ ____ _ ____
 72
    65
 73
     4
 40
47.4
 49
22.0
 74
     4
 75
     0
340
0
 46
0.0
 50
0.0
 44
0.0
 45
0.0
 49
-8.5
 74
     4
 75
     0
340
0
 46
0.0
 50
0.0
 44
0.0
 45
0.0
 49
8.5
 74
     4
 75
     0
340
0
 46
0.0
 50
0.0
 44
0.0
 45
0.0
 49
-8.5
 74
     4
 75
     0
340
0
 46
0.0
 50
0.0
 44
0.0
 45
0.0
  0
LTYPE
  5
6F
330
5
100
AcDbSymbolTableRecord
100
AcDbLinetypeTableRecord
  2
DASHDOT
 70
     0
  3
_._._._._._._._._._._._._._._._.
 72
    65
 73
     4
 40
70.0
 49
31.0
 74
     4
 75
     0
340
0
 46
0.0
 50
0.0
 44
0.0
 45
0.0
 49
-13.0
 74
     4
 75
     0
340
0
 46
0.0
 50
0.0
 44
0.0
 45
0.0
 49
13.0
 74
     4
 75
     0
340
0
 46
0.0
 50
0.0
 44
0.0
 45
0.0
 49
-13.0
 74
     4
 75
     0
340
0
 46
0.0
 50
0.0
 44
0.0
 45
0.0
  0
LTYPE
  5
70
330
5
100
AcDbSymbolTableRecord
100
AcDbLinetypeTableRecord
  2
DASHED
 70
     0
  3
__ __ __ __ __ __ __ __ __
 72
    65
 73
     2
 40
25.72
 49
12.86
 74
     4
 75
     0
340
0
 46
0.0
 50
0.0
 44
0.0
 45
0.0
 49
-12.86
 74
     4
 75
     0
340
0
 46
0.0
 50
0.0
 44
0.0
 45
0.0
  0
LTYPE
  5
71
330
5
100
AcDbSymbolTableRecord
100
AcDbLinetypeTableRecord
  2
DOT
 70
     0
  3
.........................
 72
    65
 73
     2
 40
10.0
 49
0.0
 74
     4
 75
     0
340
0
 46
0.0
 50
0.0
 44
0.0
 45
0.0
 49
-10.0
 74
     4
 75
     0
340
0
 46
0.0
 50
0.0
 44
0.0
 45
0.0
  0
LTYPE
  5
72
330
5
100
AcDbSymbolTableRecord
100
AcDbLinetypeTableRecord
  2
PHANTOM
 70
     0
  3
____ _ _ ____ _ _ _____ _ _ ____
 72
    65
 73
     6
 40
50.5
 49
18.0
 74
     4
 75
     0
340
0
 46
0.0
 50
0.0
 44
0.0
 45
0.0
 49
-6.5
 74
     4
 75
     0
340
0
 46
0.0
 50
0.0
 44
0.0
 45
0.0
 49
6.5
 74
     4
 75
     0
340
0
 46
0.0
 50
0.0
 44
0.0
 45
0.0
 49
-6.5
 74
     4
 75
     0
340
0
 46
0.0
 50
0.0
 44
0.0
 45
0.0
 49
6.5
 74
     4
 75
     0
340
0
 46
0.0
 50
0.0
 44
0.0
 45
0.0
 49
-6.5
 74
     4
 75
     0
340
0
 46
0.0
 50
0.0
 44
0.0
 45
0.0
  0
LTYPE
  5
34A
330
5
100
AcDbSymbolTableRecord
100
AcDbLinetypeTableRecord
  2
CENTER2
 70
     0
  3
Center (.5x) ___ _ ___ _ ___ _ ___ _ ___ _ ___
 72
    65
 73
     4
 40
1.125
 49
0.75
 74
     0
 49
-0.125
 74
     0
 49
0.125
 74
     0
 49
-0.125
 74
     0
  0
ENDTAB
  0
TABLE
  2
LAYER
  5
2
330
0
100
AcDbSymbolTable
 70
    22
  0
LAYER
  5
10
102
{ACAD_XDICTIONARY
360
355
102
}
330
2
100
AcDbSymbolTableRecord
100
AcDbLayerTableRecord
  2
0
 70
     0
 62
     7
  6
Continuous
370
    -3
390
F
  0
LAYER
  5
206
330
2
100
AcDbSymbolTableRecord
100
AcDbLayerTableRecord
  2
Defpoints
 70
     0
 62
     7
  6
Continuous
290
     0
370
    -3
390
F
  0
LAYER
  5
347
102
{ACAD_XDICTIONARY
360
357
102
}
330
2
100
AcDbSymbolTableRecord
100
AcDbLayerTableRecord
  2
1
 70
     0
 62
     4
  6
Continuous
370
    -3
390
F
  0
LAYER
  5
348
102
{ACAD_XDICTIONARY
360
359
102
}
330
2
100
AcDbSymbolTableRecord
100
AcDbLayerTableRecord
  2
2
 70
     0
 62
     7
  6
Continuous
370
    -3
390
F
  0
LAYER
  5
349
102
{ACAD_XDICTIONARY
360
35B
102
}
330
2
100
AcDbSymbolTableRecord
100
AcDbLayerTableRecord
  2
4
 70
     0
 62
     2
  6
CENTER2
370
    -3
390
F
  0
LAYER
  5
34B
102
{ACAD_XDICTIONARY
360
35D
102
}
330
2
100
AcDbSymbolTableRecord
100
AcDbLayerTableRecord
  2
SK1
 70
     0
 62
     4
  6
Continuous
370
    -3
390
F
  0
LAYER
  5
34C
102
{ACAD_XDICTIONARY
360
35F
102
}
330
2
100
AcDbSymbolTableRecord
100
AcDbLayerTableRecord
  2
SK2
 70
     0
 62
     7
  6
Continuous
370
    -3
390
F
  0
LAYER
  5
34E
102
{ACAD_XDICTIONARY
360
361
102
}
330
2
100
AcDbSymbolTableRecord
100
AcDbLayerTableRecord
  2
SK4
 70
     0
 62
     2
  6
CENTER2
370
    -3
390
F
  0
LAYER
  5
34F
102
{ACAD_XDICTIONARY
360
363
102
}
330
2
100
AcDbSymbolTableRecord
100
AcDbLayerTableRecord
  2
SK6
 70
     0
 62
     5
  6
Continuous
370
    -3
390
F
  0
LAYER
  5
350
102
{ACAD_XDICTIONARY
360
365
102
}
330
2
100
AcDbSymbolTableRecord
100
AcDbLayerTableRecord
  2
CUT
 70
     0
 62
     1
  6
Continuous
370
    -3
390
F
  0
LAYER
  5
351
102
{ACAD_XDICTIONARY
360
367
102
}
330
2
100
AcDbSymbolTableRecord
100
AcDbLayerTableRecord
  2
NOCUT
 70
     0
 62
     7
  6
Continuous
370
    -3
390
F
  0
LAYER
  5
352
102
{ACAD_XDICTIONARY
360
369
102
}
330
2
100
AcDbSymbolTableRecord
100
AcDbLayerTableRecord
  2
80
 70
     0
 62
     6
  6
Continuous
370
    -3
390
F
  0
LAYER
  5
353
102
{ACAD_XDICTIONARY
360
36B
102
}
330
2
100
AcDbSymbolTableRecord
100
AcDbLayerTableRecord
  2
81
 70
     0
 62
     3
  6
Continuous
370
    -3
390
F
  0
ENDTAB
  0
TABLE
  2
STYLE
  5
3
330
0
100
AcDbSymbolTable
 70
     3
  0
STYLE
  5
11
330
3
100
AcDbSymbolTableRecord
100
AcDbTextStyleTableRecord
  2
Standard
 70
     0
 40
0.0
 41
1.0
 50
0.0
 71
     0
 42
0.2
  3
txt
  4

  0
STYLE
  5
1FF
330
3
100
AcDbSymbolTableRecord
100
AcDbTextStyleTableRecord
  2
cesky
 70
     0
 40
0.0
 41
1.0
 50
0.0
 71
     0
 42
0.2
  3
simplex.shx
  4

  0
STYLE
  5
200
330
3
100
AcDbSymbolTableRecord
100
AcDbTextStyleTableRecord
  2
DWGDirectTextStyle
 70
     0
 40
0.0
 41
1.0
 50
0.0
 71
     0
 42
0.2
  3
simplex
  4

  0
ENDTAB
  0
TABLE
  2
VIEW
  5
6
330
0
100
AcDbSymbolTable
 70
     0
  0
ENDTAB
  0
TABLE
  2
UCS
  5
7
330
0
100
AcDbSymbolTable
 70
     0
  0
ENDTAB
  0
TABLE
  2
APPID
  5
9
330
0
100
AcDbSymbolTable
 70
     7
  0
APPID
  5
12
330
9
100
AcDbSymbolTableRecord
100
AcDbRegAppTableRecord
  2
ACAD
 70
     0
  0
APPID
  5
202
330
9
100
AcDbSymbolTableRecord
100
AcDbRegAppTableRecord
  2
ACAD_DSTYLE_DIMBREAK
 70
     0
  0
APPID
  5
2BB
330
9
100
AcDbSymbolTableRecord
100
AcDbRegAppTableRecord
  2
ACAD_DSTYLE_DIM_LINETYPE
 70
     0
  0
APPID
  5
2BC
330
9
100
AcDbSymbolTableRecord
100
AcDbRegAppTableRecord
  2
ACAD_DSTYLE_DIM_EXT1_LINETYPE
 70
     0
  0
APPID
  5
2BD
330
9
100
AcDbSymbolTableRecord
100
AcDbRegAppTableRecord
  2
ACAD_DSTYLE_DIM_EXT2_LINETYPE
 70
     0
  0
APPID
  5
2FD
330
9
100
AcDbSymbolTableRecord
100
AcDbRegAppTableRecord
  2
ACAD_MLEADERVER
 70
     0
  0
APPID
  5
370
330
9
100
AcDbSymbolTableRecord
100
AcDbRegAppTableRecord
  2
ACAD_NAV_VCDISPLAY
 70
     0
  0
ENDTAB
  0
TABLE
  2
DIMSTYLE
  5
A
330
0
100
AcDbSymbolTable
 70
     1
100
AcDbDimStyleTable
 71
     0
  0
DIMSTYLE
105
27
330
A
100
AcDbSymbolTableRecord
100
AcDbDimStyleTableRecord
  2
Standard
 70
     0
340
11
1001
ACAD_DSTYLE_DIMBREAK
1070
   391
1040
6.349999999999999
  0
ENDTAB
  0
TABLE
  2
BLOCK_RECORD
  5
1
330
0
100
AcDbSymbolTable
 70
    16
  0
BLOCK_RECORD
  5
1F
102
{ACAD_XDICTIONARY
360
30D
102
}
330
1
100
AcDbSymbolTableRecord
100
AcDbBlockTableRecord
  2
*Model_Space
340
22
  0
BLOCK_RECORD
  5
1B
330
1
100
AcDbSymbolTableRecord
100
AcDbBlockTableRecord
  2
*Paper_Space
340
1E
  0
BLOCK_RECORD
  5
23
330
1
100
AcDbSymbolTableRecord
100
AcDbBlockTableRecord
  2
*Paper_Space0
340
26
  0
BLOCK_RECORD
  5
1F9
330
1
100
AcDbSymbolTableRecord
100
AcDbBlockTableRecord
  2
ASSORTED_DRAFT1
340
0
  0
BLOCK_RECORD
  5
207
330
1
100
AcDbSymbolTableRecord
100
AcDbBlockTableRecord
  2
*D2
340
0
  0
BLOCK_RECORD
  5
213
330
1
100
AcDbSymbolTableRecord
100
AcDbBlockTableRecord
  2
_U0
340
0
  0
BLOCK_RECORD
  5
21F
330
1
100
AcDbSymbolTableRecord
100
AcDbBlockTableRecord
  2
*D4
340
0
  0
BLOCK_RECORD
  5
22A
330
1
100
AcDbSymbolTableRecord
100
AcDbBlockTableRecord
  2
_U1
340
0
  0
BLOCK_RECORD
  5
235
330
1
100
AcDbSymbolTableRecord
100
AcDbBlockTableRecord
  2
*D6
340
0
  0
BLOCK_RECORD
  5
241
330
1
100
AcDbSymbolTableRecord
100
AcDbBlockTableRecord
  2
_U2
340
0
  0
BLOCK_RECORD
  5
24E
330
1
100
AcDbSymbolTableRecord
100
AcDbBlockTableRecord
  2
*D8
340
0
  0
BLOCK_RECORD
  5
25A
330
1
100
AcDbSymbolTableRecord
100
AcDbBlockTableRecord
  2
_U3
340
0
  0
BLOCK_RECORD
  5
267
330
1
100
AcDbSymbolTableRecord
100
AcDbBlockTableRecord
  2
*D10
340
0
  0
BLOCK_RECORD
  5
273
330
1
100
AcDbSymbolTableRecord
100
AcDbBlockTableRecord
  2
_U4
340
0
  0
BLOCK_RECORD
  5
27F
330
1
100
AcDbSymbolTableRecord
100
AcDbBlockTableRecord
  2
*D12
340
0
  0
BLOCK_RECORD
  5
28B
330
1
100
AcDbSymbolTableRecord
100
AcDbBlockTableRecord
  2
_U5
340
0
  0
BLOCK_RECORD
  5
297
330
1
100
AcDbSymbolTableRecord
100
AcDbBlockTableRecord
  2
*D14
340
0
  0
BLOCK_RECORD
  5
2A3
330
1
100
AcDbSymbolTableRecord
100
AcDbBlockTableRecord
  2
_U6
340
0
  0
ENDTAB
  0
ENDSEC
  0
SECTION
  2
BLOCKS
  0
BLOCK
  5
20
330
1F
100
AcDbEntity
  8
0
100
AcDbBlockBegin
  2
*Model_Space
 70
     0
 10
0.0
 20
0.0
 30
0.0
  3
*Model_Space
  1

  0
ENDBLK
  5
21
330
1F
100
AcDbEntity
  8
0
100
AcDbBlockEnd
  0
BLOCK
  5
1C
330
1B
100
AcDbEntity
 67
     1
  8
0
100
AcDbBlockBegin
  2
*Paper_Space
 70
     0
 10
0.0
 20
0.0
 30
0.0
  3
*Paper_Space
  1

  0
ENDBLK
  5
1D
330
1B
100
AcDbEntity
 67
     1
  8
0
100
AcDbBlockEnd
  0
BLOCK
  5
24
330
23
100
AcDbEntity
 67
     1
  8
0
100
AcDbBlockBegin
  2
*Paper_Space0
 70
     0
 10
0.0
 20
0.0
 30
0.0
  3
*Paper_Space0
  1

  0
ENDBLK
  5
25
330
23
100
AcDbEntity
 67
     1
  8
0
100
AcDbBlockEnd
  0
BLOCK
  5
1FC
330
1F9
100
AcDbEntity
  8
0
100
AcDbBlockBegin
  2
ASSORTED_DRAFT1
 70
     0
 10
0.0
 20
0.0
 30
0.0
  3
ASSORTED_DRAFT1
  1

  0
SOLID
  5
1FA
330
1F9
100
AcDbEntity
  8
0
 62
   254
370
    13
100
AcDbTrace
 10
270.185042
 20
168.534924
 30
0.0
 11
265.185046
 21
167.42645
 31
0.0
 12
265.1850379999999
 22
169.643397
 32
0.0
 13
270.185042
 23
168.534924
 33
0.0
  0
ENDBLK
  5
1FD
330
1F9
100
AcDbEntity
  8
0
100
AcDbBlockEnd
  0
BLOCK
  5
208
330
207
100
AcDbEntity
  8
0
100
AcDbBlockBegin
  2
*D2
 70
     1
 10
0.0
 20
0.0
 30
0.0
  3
*D2
  1

  0
LINE
  5
20A
330
207
100
AcDbEntity
  8
0
 62
   254
370
    -2
100
AcDbLine
 10
416.4048419999999
 20
308.407994
 30
0.0
 11
416.4048419999999
 21
328.5109970000001
 31
0.0
  0
LINE
  5
20B
330
207
100
AcDbEntity
  8
0
 62
   254
370
    -2
100
AcDbLine
 10
274.404842
 20
288.907994
 30
0.0
 11
274.404842
 21
328.5109970000001
 31
0.0
  0
LINE
  5
20C
330
207
100
AcDbEntity
  8
0
 62
   254
370
    -2
100
AcDbLine
 10
412.904842
 20
327.510997
 30
0.0
 11
277.904842
 21
327.510997
 31
0.0
  0
SOLID
  5
20D
330
207
100
AcDbEntity
  8
0
 62
   254
100
AcDbTrace
 10
412.904842
 20
326.927663
 30
0.0
 11
412.904842
 21
328.09433
 31
0.0
 12
416.4048419999999
 22
327.510997
 32
0.0
 13
416.4048419999999
 23
327.510997
 33
0.0
  0
SOLID
  5
20E
330
207
100
AcDbEntity
  8
0
 62
   254
100
AcDbTrace
 10
277.904842
 20
328.09433
 30
0.0
 11
277.904842
 21
326.927663
 31
0.0
 12
274.404842
 22
327.510997
 32
0.0
 13
274.404842
 23
327.510997
 33
0.0
  0
MTEXT
  5
20F
330
207
100
AcDbEntity
  8
0
 62
   254
370
    13
100
AcDbMText
 10
345.404842
 20
332.7609970000001
 30
0.0
 40
3.5
 41
0.0
 71
     5
 72
     1
  1
\A1;142
  7
cesky
 73
     1
 44
1.0
  0
POINT
  5
210
330
207
100
AcDbEntity
  8
Defpoints
 62
     0
100
AcDbPoint
 10
416.4048419999999
 20
308.407994
 30
0.0
  0
POINT
  5
211
330
207
100
AcDbEntity
  8
Defpoints
 62
     0
100
AcDbPoint
 10
274.404842
 20
288.907994
 30
0.0
  0
POINT
  5
212
330
207
100
AcDbEntity
  8
Defpoints
 62
     0
100
AcDbPoint
 10
274.404842
 20
327.510997
 30
0.0
  0
ENDBLK
  5
209
330
207
100
AcDbEntity
  8
0
100
AcDbBlockEnd
  0
BLOCK
  5
21A
330
213
100
AcDbEntity
  8
0
100
AcDbBlockBegin
  2
_U0
 70
     0
 10
0.0
 20
0.0
 30
0.0
  3
_U0
  1

  0
ENDBLK
  5
21B
330
213
100
AcDbEntity
  8
0
100
AcDbBlockEnd
  0
BLOCK
  5
220
330
21F
100
AcDbEntity
  8
0
100
AcDbBlockBegin
  2
*D4
 70
     1
 10
0.0
 20
0.0
 30
0.0
  3
*D4
  1

  0
LINE
  5
222
330
21F
100
AcDbEntity
  8
0
 62
   254
370
    -2
100
AcDbLine
 10
292.032259
 20
288.907994
 30
0.0
 11
435.825734
 21
288.907994
 31
0.0
  0
LINE
  5
223
330
21F
100
AcDbEntity
  8
0
 62
   254
370
    -2
100
AcDbLine
 10
330.83929
 20
308.407994
 30
0.0
 11
435.825734
 21
308.407994
 31
0.0
  0
LINE
  5
224
330
21F
100
AcDbEntity
  8
0
 62
   254
370
    -2
100
AcDbLine
 10
434.8257339999999
 20
304.907994
 30
0.0
 11
434.8257339999999
 21
284.191328
 31
0.0
  0
SOLID
  5
225
330
21F
100
AcDbEntity
  8
0
 62
   254
100
AcDbTrace
 10
435.4090679999999
 20
304.907994
 30
0.0
 11
434.242401
 21
304.907994
 31
0.0
 12
434.8257339999999
 22
308.407994
 32
0.0
 13
434.8257339999999
 23
308.407994
 33
0.0
  0
MTEXT
  5
226
330
21F
100
AcDbEntity
  8
0
 62
   254
370
    13
100
AcDbMText
 10
429.575734
 20
290.441328
 30
0.0
 40
3.5
 41
0.0
 71
     5
 72
     1
  1
\A1;39
  7
cesky
 11
0.0
 21
1.0
 31
0.0
 73
     1
 44
1.0
  0
POINT
  5
227
330
21F
100
AcDbEntity
  8
Defpoints
 62
     0
100
AcDbPoint
 10
292.032259
 20
288.907994
 30
0.0
  0
POINT
  5
228
330
21F
100
AcDbEntity
  8
Defpoints
 62
     0
100
AcDbPoint
 10
330.83929
 20
308.407994
 30
0.0
  0
POINT
  5
229
330
21F
100
AcDbEntity
  8
Defpoints
 62
     0
100
AcDbPoint
 10
434.8257339999999
 20
308.407994
 30
0.0
  0
ENDBLK
  5
221
330
21F
100
AcDbEntity
  8
0
100
AcDbBlockEnd
  0
BLOCK
  5
230
330
22A
100
AcDbEntity
  8
0
100
AcDbBlockBegin
  2
_U1
 70
     0
 10
0.0
 20
0.0
 30
0.0
  3
_U1
  1

  0
ENDBLK
  5
231
330
22A
100
AcDbEntity
  8
0
100
AcDbBlockEnd
  0
BLOCK
  5
236
330
235
100
AcDbEntity
  8
0
100
AcDbBlockBegin
  2
*D6
 70
     1
 10
0.0
 20
0.0
 30
0.0
  3
*D6
  1

  0
LINE
  5
238
330
235
100
AcDbEntity
  8
0
 62
    95
370
    -2
100
AcDbLine
 10
206.404842
 20
308.907994
 30
0.0
 11
191.367609
 21
308.907994
 31
0.0
  0
LINE
  5
239
330
235
100
AcDbEntity
  8
0
 62
    95
370
    -2
100
AcDbLine
 10
206.404842
 20
268.907994
 30
0.0
 11
191.367609
 21
268.907994
 31
0.0
  0
LINE
  5
23A
330
235
100
AcDbEntity
  8
0
 62
    95
370
    -2
100
AcDbLine
 10
192.367609
 20
305.407994
 30
0.0
 11
192.367609
 21
272.407994
 31
0.0
  0
SOLID
  5
23B
330
235
100
AcDbEntity
  8
0
 62
    95
100
AcDbTrace
 10
192.950943
 20
305.407994
 30
0.0
 11
191.784276
 21
305.407994
 31
0.0
 12
192.367609
 22
308.907994
 32
0.0
 13
192.367609
 23
308.907994
 33
0.0
  0
SOLID
  5
23C
330
235
100
AcDbEntity
  8
0
 62
    95
100
AcDbTrace
 10
191.784276
 20
272.407994
 30
0.0
 11
192.950943
 21
272.407994
 31
0.0
 12
192.367609
 22
268.907994
 32
0.0
 13
192.367609
 23
268.907994
 33
0.0
  0
MTEXT
  5
23D
330
235
100
AcDbEntity
  8
0
 62
    95
370
    13
100
AcDbMText
 10
187.117609
 20
288.907994
 30
0.0
 40
3.5
 41
0.0
 71
     5
 72
     1
  1
\A1;40
  7
cesky
 11
0.0
 21
1.0
 31
0.0
 73
     1
 44
1.0
  0
POINT
  5
23E
330
235
100
AcDbEntity
  8
Defpoints
 62
     0
100
AcDbPoint
 10
206.404842
 20
308.907994
 30
0.0
  0
POINT
  5
23F
330
235
100
AcDbEntity
  8
Defpoints
 62
     0
100
AcDbPoint
 10
206.404842
 20
268.907994
 30
0.0
  0
POINT
  5
240
330
235
100
AcDbEntity
  8
Defpoints
 62
     0
100
AcDbPoint
 10
192.367609
 20
268.907994
 30
0.0
  0
ENDBLK
  5
237
330
235
100
AcDbEntity
  8
0
100
AcDbBlockEnd
  0
BLOCK
  5
249
330
241
100
AcDbEntity
  8
0
100
AcDbBlockBegin
  2
_U2
 70
     0
 10
0.0
 20
0.0
 30
0.0
  3
_U2
  1

  0
ENDBLK
  5
24A
330
241
100
AcDbEntity
  8
0
100
AcDbBlockEnd
  0
BLOCK
  5
24F
330
24E
100
AcDbEntity
  8
0
100
AcDbBlockBegin
  2
*D8
 70
     1
 10
0.0
 20
0.0
 30
0.0
  3
*D8
  1

  0
LINE
  5
251
330
24E
100
AcDbEntity
  8
0
 62
    95
370
    -2
100
AcDbLine
 10
277.154842
 20
313.907994
 30
0.0
 11
179.019482
 21
313.907994
 31
0.0
  0
LINE
  5
252
330
24E
100
AcDbEntity
  8
0
 62
    95
370
    -2
100
AcDbLine
 10
277.154842
 20
263.907994
 30
0.0
 11
179.019482
 21
263.907994
 31
0.0
  0
LINE
  5
253
330
24E
100
AcDbEntity
  8
0
 62
    95
370
    -2
100
AcDbLine
 10
180.019482
 20
310.407994
 30
0.0
 11
180.019482
 21
267.407994
 31
0.0
  0
SOLID
  5
254
330
24E
100
AcDbEntity
  8
0
 62
    95
100
AcDbTrace
 10
180.602816
 20
310.407994
 30
0.0
 11
179.436149
 21
310.407994
 31
0.0
 12
180.019482
 22
313.907994
 32
0.0
 13
180.019482
 23
313.907994
 33
0.0
  0
SOLID
  5
255
330
24E
100
AcDbEntity
  8
0
 62
    95
100
AcDbTrace
 10
179.436149
 20
267.407994
 30
0.0
 11
180.602816
 21
267.407994
 31
0.0
 12
180.019482
 22
263.907994
 32
0.0
 13
180.019482
 23
263.907994
 33
0.0
  0
MTEXT
  5
256
330
24E
100
AcDbEntity
  8
0
 62
    95
370
    13
100
AcDbMText
 10
174.769482
 20
288.907994
 30
0.0
 40
3.5
 41
0.0
 71
     5
 72
     1
  1
\A1;50
  7
cesky
 11
0.0
 21
1.0
 31
0.0
 73
     1
 44
1.0
  0
POINT
  5
257
330
24E
100
AcDbEntity
  8
Defpoints
 62
     0
100
AcDbPoint
 10
277.154842
 20
313.907994
 30
0.0
  0
POINT
  5
258
330
24E
100
AcDbEntity
  8
Defpoints
 62
     0
100
AcDbPoint
 10
277.154842
 20
263.907994
 30
0.0
  0
POINT
  5
259
330
24E
100
AcDbEntity
  8
Defpoints
 62
     0
100
AcDbPoint
 10
180.019482
 20
263.907994
 30
0.0
  0
ENDBLK
  5
250
330
24E
100
AcDbEntity
  8
0
100
AcDbBlockEnd
  0
BLOCK
  5
262
330
25A
100
AcDbEntity
  8
0
100
AcDbBlockBegin
  2
_U3
 70
     0
 10
0.0
 20
0.0
 30
0.0
  3
_U3
  1

  0
ENDBLK
  5
263
330
25A
100
AcDbEntity
  8
0
100
AcDbBlockEnd
  0
BLOCK
  5
268
330
267
100
AcDbEntity
  8
0
100
AcDbBlockBegin
  2
*D10
 70
     1
 10
0.0
 20
0.0
 30
0.0
  3
*D10
  1

  0
LINE
  5
26A
330
267
100
AcDbEntity
  8
0
 62
   254
370
    -2
100
AcDbLine
 10
416.4048419999999
 20
310.407994
 30
0.0
 11
416.4048419999999
 21
341.687968
 31
0.0
  0
LINE
  5
26B
330
267
100
AcDbEntity
  8
0
 62
   254
370
    -2
100
AcDbLine
 10
204.404842
 20
306.907994
 30
0.0
 11
204.404842
 21
341.687968
 31
0.0
  0
LINE
  5
26C
330
267
100
AcDbEntity
  8
0
 62
   254
370
    -2
100
AcDbLine
 10
412.904842
 20
340.687968
 30
0.0
 11
207.904842
 21
340.687968
 31
0.0
  0
SOLID
  5
26D
330
267
100
AcDbEntity
  8
0
 62
   254
100
AcDbTrace
 10
412.904842
 20
340.104634
 30
0.0
 11
412.904842
 21
341.271301
 31
0.0
 12
416.4048419999999
 22
340.687968
 32
0.0
 13
416.4048419999999
 23
340.687968
 33
0.0
  0
SOLID
  5
26E
330
267
100
AcDbEntity
  8
0
 62
   254
100
AcDbTrace
 10
207.904842
 20
341.271301
 30
0.0
 11
207.904842
 21
340.104634
 31
0.0
 12
204.404842
 22
340.687968
 32
0.0
 13
204.404842
 23
340.687968
 33
0.0
  0
MTEXT
  5
26F
330
267
100
AcDbEntity
  8
0
 62
   254
370
    13
100
AcDbMText
 10
310.404842
 20
345.937968
 30
0.0
 40
3.5
 41
0.0
 71
     5
 72
     1
  1
\A1;212
  7
cesky
 73
     1
 44
1.0
  0
POINT
  5
270
330
267
100
AcDbEntity
  8
Defpoints
 62
     0
100
AcDbPoint
 10
416.4048419999999
 20
310.407994
 30
0.0
  0
POINT
  5
271
330
267
100
AcDbEntity
  8
Defpoints
 62
     0
100
AcDbPoint
 10
204.404842
 20
306.907994
 30
0.0
  0
POINT
  5
272
330
267
100
AcDbEntity
  8
Defpoints
 62
     0
100
AcDbPoint
 10
204.404842
 20
340.687968
 30
0.0
  0
ENDBLK
  5
269
330
267
100
AcDbEntity
  8
0
100
AcDbBlockEnd
  0
BLOCK
  5
27A
330
273
100
AcDbEntity
  8
0
100
AcDbBlockBegin
  2
_U4
 70
     0
 10
0.0
 20
0.0
 30
0.0
  3
_U4
  1

  0
ENDBLK
  5
27B
330
273
100
AcDbEntity
  8
0
100
AcDbBlockEnd
  0
BLOCK
  5
280
330
27F
100
AcDbEntity
  8
0
100
AcDbBlockBegin
  2
*D12
 70
     1
 10
0.0
 20
0.0
 30
0.0
  3
*D12
  1

  0
LINE
  5
282
330
27F
100
AcDbEntity
  8
0
 62
   254
370
    -2
100
AcDbLine
 10
274.404842
 20
288.907994
 30
0.0
 11
274.404842
 21
328.5109970000001
 31
0.0
  0
LINE
  5
283
330
27F
100
AcDbEntity
  8
0
 62
   254
370
    -2
100
AcDbLine
 10
204.404842
 20
297.907994
 30
0.0
 11
204.404842
 21
328.5109970000001
 31
0.0
  0
LINE
  5
284
330
27F
100
AcDbEntity
  8
0
 62
   254
370
    -2
100
AcDbLine
 10
270.904842
 20
327.510997
 30
0.0
 11
207.904842
 21
327.510997
 31
0.0
  0
SOLID
  5
285
330
27F
100
AcDbEntity
  8
0
 62
   254
100
AcDbTrace
 10
270.904842
 20
326.927663
 30
0.0
 11
270.904842
 21
328.09433
 31
0.0
 12
274.404842
 22
327.510997
 32
0.0
 13
274.404842
 23
327.510997
 33
0.0
  0
SOLID
  5
286
330
27F
100
AcDbEntity
  8
0
 62
   254
100
AcDbTrace
 10
207.904842
 20
328.09433
 30
0.0
 11
207.904842
 21
326.927663
 31
0.0
 12
204.404842
 22
327.510997
 32
0.0
 13
204.404842
 23
327.510997
 33
0.0
  0
MTEXT
  5
287
330
27F
100
AcDbEntity
  8
0
 62
   254
370
    13
100
AcDbMText
 10
239.404842
 20
332.7609970000001
 30
0.0
 40
3.5
 41
0.0
 71
     5
 72
     1
  1
\A1;70
  7
cesky
 73
     1
 44
1.0
  0
POINT
  5
288
330
27F
100
AcDbEntity
  8
Defpoints
 62
     0
100
AcDbPoint
 10
274.404842
 20
288.907994
 30
0.0
  0
POINT
  5
289
330
27F
100
AcDbEntity
  8
Defpoints
 62
     0
100
AcDbPoint
 10
204.404842
 20
297.907994
 30
0.0
  0
POINT
  5
28A
330
27F
100
AcDbEntity
  8
Defpoints
 62
     0
100
AcDbPoint
 10
204.404842
 20
327.510997
 30
0.0
  0
ENDBLK
  5
281
330
27F
100
AcDbEntity
  8
0
100
AcDbBlockEnd
  0
BLOCK
  5
292
330
28B
100
AcDbEntity
  8
0
100
AcDbBlockBegin
  2
_U5
 70
     0
 10
0.0
 20
0.0
 30
0.0
  3
_U5
  1

  0
ENDBLK
  5
293
330
28B
100
AcDbEntity
  8
0
100
AcDbBlockEnd
  0
BLOCK
  5
298
330
297
100
AcDbEntity
  8
0
100
AcDbBlockBegin
  2
*D14
 70
     1
 10
0.0
 20
0.0
 30
0.0
  3
*D14
  1

  0
LINE
  5
29A
330
297
100
AcDbEntity
  8
0
 62
   254
370
    -2
100
AcDbLine
 10
416.4048419999999
 20
308.407994
 30
0.0
 11
416.4048419999999
 21
317.848012
 31
0.0
  0
LINE
  5
29B
330
297
100
AcDbEntity
  8
0
 62
   254
370
    -2
100
AcDbLine
 10
289.911355
 20
309.389342
 30
0.0
 11
289.911355
 21
317.848012
 31
0.0
  0
LINE
  5
29C
330
297
100
AcDbEntity
  8
0
 62
   254
370
    -2
100
AcDbLine
 10
412.904842
 20
316.848012
 30
0.0
 11
293.411355
 21
316.848012
 31
0.0
  0
SOLID
  5
29D
330
297
100
AcDbEntity
  8
0
 62
   254
100
AcDbTrace
 10
412.904842
 20
316.264679
 30
0.0
 11
412.904842
 21
317.431346
 31
0.0
 12
416.4048419999999
 22
316.848012
 32
0.0
 13
416.4048419999999
 23
316.848012
 33
0.0
  0
SOLID
  5
29E
330
297
100
AcDbEntity
  8
0
 62
   254
100
AcDbTrace
 10
293.411355
 20
317.431346
 30
0.0
 11
293.411355
 21
316.264679
 31
0.0
 12
289.911355
 22
316.848012
 32
0.0
 13
289.911355
 23
316.848012
 33
0.0
  0
MTEXT
  5
29F
330
297
100
AcDbEntity
  8
0
 62
   254
370
    13
100
AcDbMText
 10
353.1580990000001
 20
322.098012
 30
0.0
 40
3.5
 41
0.0
 71
     5
 72
     1
  1
\A1;126.5
  7
cesky
 73
     1
 44
1.0
  0
POINT
  5
2A0
330
297
100
AcDbEntity
  8
Defpoints
 62
     0
100
AcDbPoint
 10
416.4048419999999
 20
308.407994
 30
0.0
  0
POINT
  5
2A1
330
297
100
AcDbEntity
  8
Defpoints
 62
     0
100
AcDbPoint
 10
289.911355
 20
309.389342
 30
0.0
  0
POINT
  5
2A2
330
297
100
AcDbEntity
  8
Defpoints
 62
     0
100
AcDbPoint
 10
289.911355
 20
316.848012
 30
0.0
  0
ENDBLK
  5
299
330
297
100
AcDbEntity
  8
0
100
AcDbBlockEnd
  0
BLOCK
  5
2AA
330
2A3
100
AcDbEntity
  8
0
100
AcDbBlockBegin
  2
_U6
 70
     0
 10
0.0
 20
0.0
 30
0.0
  3
_U6
  1

  0
ENDBLK
  5
2AB
330
2A3
100
AcDbEntity
  8
0
100
AcDbBlockEnd
  0
ENDSEC
  0
SECTION
  2
ENTITIES
  0
POINT
  5
73
102
{ACAD_REACTORS
330
354
102
}
330
1F
100
AcDbEntity
  8
80
100
AcDbPoint
 10
274.404842
 20
288.907994
 30
0.0
  0
POINT
  5
76
330
1F
100
AcDbEntity
  8
SK4
 60
     1
100
AcDbPoint
 10
206.404842
 20
288.907994
 30
0.0
  0
POINT
  5
78
330
1F
100
AcDbEntity
  8
SK4
 60
     1
100
AcDbPoint
 10
274.404842
 20
288.907994
 30
0.0
  0
POINT
  5
79
330
1F
100
AcDbEntity
  8
4
 60
     1
100
AcDbPoint
 10
292.032259
 20
288.907994
 30
0.0
  0
POINT
  5
7A
330
1F
100
AcDbEntity
  8
4
 60
     1
100
AcDbPoint
 10
415.540981
 20
288.907994
 30
0.0
  0
POINT
  5
7B
330
1F
100
AcDbEntity
  8
SK6
 60
     1
100
AcDbPoint
 10
274.404842
 20
288.907994
 30
0.0
  0
POINT
  5
7C
330
1F
100
AcDbEntity
  8
SK6
 60
     1
100
AcDbPoint
 10
289.911355
 20
309.389342
 30
0.0
  0
LINE
  5
7D
330
1F
100
AcDbEntity
  8
1
100
AcDbLine
 10
397.533664
 20
295.865583
 30
0.0
 11
397.301512
 21
295.997918
 31
0.0
  0
LINE
  5
83
330
1F
100
AcDbEntity
  8
80
100
AcDbLine
 10
275.404416
 20
288.907994
 30
0.0
 11
273.405268
 21
288.907994
 31
0.0
  0
LINE
  5
84
330
1F
100
AcDbEntity
  8
1
100
AcDbLine
 10
292.032259
 20
269.907994
 30
0.0
 11
305.785372
 21
269.907994
 31
0.0
  0
LINE
  5
85
330
1F
100
AcDbEntity
  8
1
100
AcDbLine
 10
408.037972
 20
301.788749
 30
0.0
 11
408.0735139999999
 21
301.889514
 31
0.0
  0
LINE
  5
87
330
1F
100
AcDbEntity
  8
1
100
AcDbLine
 10
410.6257779999999
 20
301.439455
 30
0.0
 11
410.5902359999999
 21
301.33869
 31
0.0
  0
LINE
  5
88
330
1F
100
AcDbEntity
  8
1
100
AcDbLine
 10
280.71855
 20
312.594285
 30
0.0
 11
279.404842
 21
313.907994
 31
0.0
  0
LINE
  5
89
330
1F
100
AcDbEntity
  8
1
100
AcDbLine
 10
279.404842
 20
263.907994
 30
0.0
 11
279.404842
 21
268.365715
 31
0.0
  0
LINE
  5
8A
330
1F
100
AcDbEntity
  8
1
100
AcDbLine
 10
279.404842
 20
313.907994
 30
0.0
 11
279.404842
 21
280.015083
 31
0.0
  0
LINE
  5
8B
330
1F
100
AcDbEntity
  8
1
100
AcDbLine
 10
413.0981109999999
 20
282.557994
 30
0.0
 11
413.647073
 21
282.557994
 31
0.0
  0
LINE
  5
8C
330
1F
100
AcDbEntity
  8
1
100
AcDbLine
 10
403.2378529999999
 20
307.7480700000001
 30
0.0
 11
403.2326
 21
307.900931
 31
0.0
  0
LINE
  5
8D
330
1F
100
AcDbEntity
  8
1
100
AcDbLine
 10
406.704411
 20
295.127973
 30
0.0
 11
415.4170569999999
 21
295.431909
 31
0.0
  0
LINE
  5
8E
330
1F
100
AcDbEntity
  8
1
100
AcDbLine
 10
415.41917
 20
295.127448
 30
0.0
 11
415.4170569999999
 21
295.431909
 31
0.0
  0
LINE
  5
8F
330
1F
100
AcDbEntity
  8
1
100
AcDbLine
 10
415.34325
 20
294.597399
 30
0.0
 11
404.293071
 21
294.211919
 31
0.0
  0
LINE
  5
90
330
1F
100
AcDbEntity
  8
1
100
AcDbLine
 10
415.34325
 20
294.597399
 30
0.0
 11
412.9557069999999
 21
290.641786
 31
0.0
  0
LINE
  5
91
330
1F
100
AcDbEntity
  8
1
100
AcDbLine
 10
415.459062
 20
295.448026
 30
0.0
 11
406.7096439999999
 21
295.142808
 31
0.0
  0
LINE
  5
92
330
1F
100
AcDbEntity
  8
1
100
AcDbLine
 10
406.704411
 20
295.127973
 30
0.0
 11
406.7096439999999
 21
295.142808
 31
0.0
  0
LINE
  5
93
330
1F
100
AcDbEntity
  8
1
100
AcDbLine
 10
415.1131109999999
 20
289.664774
 30
0.0
 11
415.2891799999999
 21
289.6617
 31
0.0
  0
LINE
  5
94
330
1F
100
AcDbEntity
  8
1
100
AcDbLine
 10
415.2891799999999
 20
289.6617
 30
0.0
 11
415.57268
 21
290.045873
 31
0.0
  0
LINE
  5
95
330
1F
100
AcDbEntity
  8
1
100
AcDbLine
 10
415.57268
 20
290.284484
 30
0.0
 11
415.57268
 21
290.045873
 31
0.0
  0
LINE
  5
96
330
1F
100
AcDbEntity
  8
1
100
AcDbLine
 10
415.57268
 20
290.284484
 30
0.0
 11
415.614842
 21
290.283748
 31
0.0
  0
LINE
  5
97
330
1F
100
AcDbEntity
  8
1
100
AcDbLine
 10
415.614842
 20
295.718864
 30
0.0
 11
415.614842
 21
290.283748
 31
0.0
  0
LINE
  5
98
330
1F
100
AcDbEntity
  8
1
100
AcDbLine
 10
415.459062
 20
295.448026
 30
0.0
 11
415.457605
 21
295.657941
 31
0.0
  0
LINE
  5
99
330
1F
100
AcDbEntity
  8
1
100
AcDbLine
 10
415.459062
 20
295.448026
 30
0.0
 11
415.4170569999999
 21
295.431909
 31
0.0
  0
LINE
  5
9A
330
1F
100
AcDbEntity
  8
1
100
AcDbLine
 10
415.34325
 20
294.597399
 30
0.0
 11
415.35263
 21
294.600998
 31
0.0
  0
LINE
  5
9B
330
1F
100
AcDbEntity
  8
1
100
AcDbLine
 10
414.2722069999999
 20
269.907994
 30
0.0
 11
415.0301799999999
 21
277.049442
 31
0.0
  0
LINE
  5
9C
330
1F
100
AcDbEntity
  8
1
100
AcDbLine
 10
415.0301799999999
 20
277.049442
 30
0.0
 11
414.988089
 21
277.050116
 31
0.0
  0
LINE
  5
9D
330
1F
100
AcDbEntity
  8
1
100
AcDbLine
 10
415.013371
 20
277.288316
 30
0.0
 11
414.988089
 21
277.050116
 31
0.0
  0
LINE
  5
9E
330
1F
100
AcDbEntity
  8
1
100
AcDbLine
 10
415.013371
 20
277.288316
 30
0.0
 11
414.771581
 21
277.681297
 31
0.0
  0
LINE
  5
9F
330
1F
100
AcDbEntity
  8
1
100
AcDbLine
 10
414.771581
 20
277.681297
 30
0.0
 11
414.5958109999999
 21
277.684109
 31
0.0
  0
LINE
  5
A0
330
1F
100
AcDbEntity
  8
1
100
AcDbLine
 10
414.578645
 20
278.184448
 30
0.0
 11
415.0428409999999
 21
282.557994
 31
0.0
  0
LINE
  5
A1
330
1F
100
AcDbEntity
  8
1
100
AcDbLine
 10
414.18461
 20
282.557994
 30
0.0
 11
415.0428409999999
 21
282.557994
 31
0.0
  0
LINE
  5
A2
330
1F
100
AcDbEntity
  8
1
100
AcDbLine
 10
415.0428409999999
 20
282.557994
 30
0.0
 11
415.0428409999999
 21
289.165924
 31
0.0
  0
LINE
  5
A3
330
1F
100
AcDbEntity
  8
1
100
AcDbLine
 10
415.287054
 20
295.632141
 30
0.0
 11
404.148875
 21
295.243592
 31
0.0
  0
LINE
  5
A5
330
1F
100
AcDbEntity
  8
1
100
AcDbLine
 10
404.829428
 20
306.099416
 30
0.0
 11
413.8223029999999
 21
306.413127
 31
0.0
  0
LINE
  5
A6
330
1F
100
AcDbEntity
  8
1
100
AcDbLine
 10
405.151243
 20
297.115902
 30
0.0
 11
404.829428
 21
306.099416
 31
0.0
  0
LINE
  5
A7
330
1F
100
AcDbEntity
  8
1
100
AcDbLine
 10
414.144117
 20
297.429614
 30
0.0
 11
405.151243
 21
297.115902
 31
0.0
  0
LINE
  5
A8
330
1F
100
AcDbEntity
  8
1
100
AcDbLine
 10
413.8223029999999
 20
306.413127
 30
0.0
 11
414.144117
 21
297.429614
 31
0.0
  0
LINE
  5
A9
330
1F
100
AcDbEntity
  8
1
100
AcDbLine
 10
415.172887
 20
289.663735
 30
0.0
 11
415.68309
 21
289.357174
 31
0.0
  0
LINE
  5
AA
330
1F
100
AcDbEntity
  8
1
100
AcDbLine
 10
415.506214
 20
278.128159
 30
0.0
 11
414.702061
 21
277.682409
 31
0.0
  0
LINE
  5
AB
330
1F
100
AcDbEntity
  8
1
100
AcDbLine
 10
415.025343
 20
278.626115
 30
0.0
 11
415.506214
 21
278.128159
 31
0.0
  0
LINE
  5
AC
330
1F
100
AcDbEntity
  8
1
100
AcDbLine
 10
416.2532689999999
 20
279.371467
 30
0.0
 11
415.506214
 21
278.128159
 31
0.0
  0
LINE
  5
AD
330
1F
100
AcDbEntity
  8
1
100
AcDbLine
 10
415.185134
 20
288.876303
 30
0.0
 11
415.68309
 21
289.357174
 31
0.0
  0
LINE
  5
AE
330
1F
100
AcDbEntity
  8
1
100
AcDbLine
 10
415.68309
 20
289.357174
 30
0.0
 11
416.4048419999999
 21
288.0550990000001
 31
0.0
  0
LINE
  5
AF
330
1F
100
AcDbEntity
  8
1
100
AcDbLine
 10
415.7331639999999
 20
287.88763
 30
0.0
 11
416.4048419999999
 21
288.0550990000001
 31
0.0
  0
LINE
  5
B0
330
1F
100
AcDbEntity
  8
1
100
AcDbLine
 10
415.587844
 20
279.562274
 30
0.0
 11
416.2532689999999
 21
279.371467
 31
0.0
  0
LINE
  5
B1
330
1F
100
AcDbEntity
  8
1
100
AcDbLine
 10
416.4048419999999
 20
288.0550990000001
 30
0.0
 11
416.2532689999999
 21
279.371467
 31
0.0
  0
LINE
  5
B2
330
1F
100
AcDbEntity
  8
1
100
AcDbLine
 10
415.7331639999999
 20
287.88763
 30
0.0
 11
415.587844
 21
279.562274
 31
0.0
  0
LINE
  5
B3
330
1F
100
AcDbEntity
  8
1
100
AcDbLine
 10
415.025343
 20
278.626115
 30
0.0
 11
414.600523
 21
278.390633
 31
0.0
  0
LINE
  5
B4
330
1F
100
AcDbEntity
  8
1
100
AcDbLine
 10
415.0428379999999
 20
288.961803
 30
0.0
 11
415.185134
 21
288.876303
 31
0.0
  0
LINE
  5
B5
330
1F
100
AcDbEntity
  8
1
100
AcDbLine
 10
414.947912
 20
279.745771
 30
0.0
 11
414.987978
 21
282.041126
 31
0.0
  0
LINE
  5
B6
330
1F
100
AcDbEntity
  8
1
100
AcDbLine
 10
415.04284
 20
285.184192
 30
0.0
 11
415.087218
 21
287.726578
 31
0.0
  0
LINE
  5
B7
330
1F
100
AcDbEntity
  8
1
100
AcDbLine
 10
415.185134
 20
288.876303
 30
0.0
 11
415.042839
 21
288.738891
 31
0.0
  0
LINE
  5
B8
330
1F
100
AcDbEntity
  8
1
100
AcDbLine
 10
415.087218
 20
287.726578
 30
0.0
 11
415.0428359999999
 21
287.806646
 31
0.0
  0
LINE
  5
B9
330
1F
100
AcDbEntity
  8
1
100
AcDbLine
 10
415.7331639999999
 20
287.88763
 30
0.0
 11
415.087218
 21
287.726578
 31
0.0
  0
LINE
  5
BA
330
1F
100
AcDbEntity
  8
1
100
AcDbLine
 10
415.185134
 20
288.876303
 30
0.0
 11
415.7331639999999
 21
287.88763
 31
0.0
  0
LINE
  5
BB
330
1F
100
AcDbEntity
  8
1
100
AcDbLine
 10
415.587844
 20
279.562274
 30
0.0
 11
414.947912
 21
279.745771
 31
0.0
  0
LINE
  5
BC
330
1F
100
AcDbEntity
  8
1
100
AcDbLine
 10
414.7006949999999
 20
279.334333
 30
0.0
 11
414.947912
 21
279.745771
 31
0.0
  0
LINE
  5
BD
330
1F
100
AcDbEntity
  8
1
100
AcDbLine
 10
415.025343
 20
278.626115
 30
0.0
 11
414.665118
 21
278.99914
 31
0.0
  0
LINE
  5
BE
330
1F
100
AcDbEntity
  8
1
100
AcDbLine
 10
415.587844
 20
279.562274
 30
0.0
 11
415.025343
 21
278.626115
 31
0.0
  0
LINE
  5
BF
330
1F
100
AcDbEntity
  8
81
100
AcDbLine
 10
416.4048419999999
 20
310.407994
 30
0.0
 11
416.4048419999999
 21
306.407994
 31
0.0
  0
LINE
  5
C0
330
1F
100
AcDbEntity
  8
SK1
100
AcDbLine
 10
206.404842
 20
268.907994
 30
0.0
 11
274.404842
 21
268.907994
 31
0.0
  0
LINE
  5
C1
330
1F
100
AcDbEntity
  8
81
100
AcDbLine
 10
414.4048419999999
 20
308.407994
 30
0.0
 11
418.4048419999999
 21
308.407994
 31
0.0
  0
LINE
  5
C2
330
1F
100
AcDbEntity
  8
80
100
AcDbLine
 10
274.404842
 20
287.90842
 30
0.0
 11
274.404842
 21
289.907567
 31
0.0
  0
LINE
  5
C3
330
1F
100
AcDbEntity
  8
1
100
AcDbLine
 10
274.904842
 20
263.907994
 30
0.0
 11
279.404842
 21
263.907994
 31
0.0
  0
LINE
  5
C4
330
1F
100
AcDbEntity
  8
1
100
AcDbLine
 10
415.6365859999999
 20
307.560868
 30
0.0
 11
416.035172
 21
296.434283
 31
0.0
  0
LINE
  5
C5
330
1F
100
AcDbEntity
  8
1
100
AcDbLine
 10
403.6947589999999
 20
307.920328
 30
0.0
 11
414.8329379999999
 21
308.308877
 31
0.0
  0
LINE
  5
C6
330
1F
100
AcDbEntity
  8
1
100
AcDbLine
 10
403.345227
 20
295.991601
 30
0.0
 11
402.946641
 21
307.118186
 31
0.0
  0
LINE
  5
C7
330
1F
100
AcDbEntity
  8
1
100
AcDbLine
 10
274.404842
 20
313.407994
 30
0.0
 11
274.404842
 21
288.907994
 31
0.0
  0
LINE
  5
C8
330
1F
100
AcDbEntity
  8
1
100
AcDbLine
 10
274.404842
 20
288.907994
 30
0.0
 11
274.404842
 21
264.407994
 31
0.0
  0
LINE
  5
C9
330
1F
100
AcDbEntity
  8
1
100
AcDbLine
 10
407.9721469999999
 20
302.412264
 30
0.0
 11
407.93832
 21
302.31636
 31
0.0
  0
LINE
  5
CA
330
1F
100
AcDbEntity
  8
1
100
AcDbLine
 10
408.0372779999999
 20
302.3526240000001
 30
0.0
 11
408.0029009999999
 21
302.255161
 31
0.0
  0
LINE
  5
CB
330
1F
100
AcDbEntity
  8
1
100
AcDbLine
 10
410.793294
 20
301.610495
 30
0.0
 11
410.827686
 21
301.708001
 31
0.0
  0
LINE
  5
CC
330
1F
100
AcDbEntity
  8
1
100
AcDbLine
 10
408.086085
 20
300.870314
 30
0.0
 11
408.051762
 21
300.773005
 31
0.0
  0
LINE
  5
CD
330
1F
100
AcDbEntity
  8
1
100
AcDbLine
 10
408.042774
 20
300.849753
 30
0.0
 11
408.0087509999999
 21
300.753294
 31
0.0
  0
LINE
  5
CE
330
1F
100
AcDbEntity
  8
1
100
AcDbLine
 10
410.1017889999999
 20
300.30159
 30
0.0
 11
410.136125
 21
300.398938
 31
0.0
  0
LINE
  5
CF
330
1F
100
AcDbEntity
  8
1
100
AcDbLine
 10
410.1393599999999
 20
300.258637
 30
0.0
 11
410.1733349999999
 21
300.35496
 31
0.0
  0
LINE
  5
D0
330
1F
100
AcDbEntity
  8
1
100
AcDbLine
 10
400.694183
 20
294.5958
 30
0.0
 11
400.7202669999999
 21
293.8334220000001
 31
0.0
  0
LINE
  5
D1
330
1F
100
AcDbEntity
  8
1
100
AcDbLine
 10
400.7921559999999
 20
291.732278
 30
0.0
 11
400.8270129999999
 21
290.713486
 31
0.0
  0
LINE
  5
D2
330
1F
100
AcDbEntity
  8
1
100
AcDbLine
 10
400.8395349999999
 20
294.559844
 30
0.0
 11
400.8428999999999
 21
294.569385
 31
0.0
  0
LINE
  5
D3
330
1F
100
AcDbEntity
  8
1
100
AcDbLine
 10
397.555161
 20
295.916185
 30
0.0
 11
396.183019
 21
296.707149
 31
0.0
  0
LINE
  5
D4
330
1F
100
AcDbEntity
  8
1
100
AcDbLine
 10
413.871906
 20
294.573764
 30
0.0
 11
404.285239
 21
294.239339
 31
0.0
  0
LINE
  5
D5
330
1F
100
AcDbEntity
  8
1
100
AcDbLine
 10
405.945262
 20
302.835368
 30
0.0
 11
405.945154
 21
302.83506
 31
0.0
  0
LINE
  5
D6
330
1F
100
AcDbEntity
  8
1
100
AcDbLine
 10
403.159546
 20
307.907994
 30
0.0
 11
395.205586
 21
307.907994
 31
0.0
  0
LINE
  5
D7
330
1F
100
AcDbEntity
  8
1
100
AcDbLine
 10
279.404842
 20
263.907994
 30
0.0
 11
280.71855
 21
265.221702
 31
0.0
  0
LINE
  5
D8
330
1F
100
AcDbEntity
  8
1
100
AcDbLine
 10
306.148688
 20
307.907994
 30
0.0
 11
292.032259
 21
307.907994
 31
0.0
  0
LINE
  5
D9
330
1F
100
AcDbEntity
  8
1
100
AcDbLine
 10
285.404842
 20
307.845061
 30
0.0
 11
285.404842
 21
285.759305
 31
0.0
  0
LINE
  5
DA
330
1F
100
AcDbEntity
  8
1
100
AcDbLine
 10
402.967807
 20
307.319947
 30
0.0
 11
402.949647
 21
307.848374
 31
0.0
  0
LINE
  5
DB
330
1F
100
AcDbEntity
  8
SK1
100
AcDbLine
 10
206.404842
 20
308.907994
 30
0.0
 11
206.404842
 21
268.907994
 31
0.0
  0
LINE
  5
DC
330
1F
100
AcDbEntity
  8
SK1
100
AcDbLine
 10
204.404842
 20
306.907994
 30
0.0
 11
204.404842
 21
270.907994
 31
0.0
  0
LINE
  5
DD
330
1F
100
AcDbEntity
  8
1
100
AcDbLine
 10
403.04562
 20
298.527289
 30
0.0
 11
403.0403869999999
 21
298.512454
 31
0.0
  0
LINE
  5
DE
330
1F
100
AcDbEntity
  8
1
100
AcDbLine
 10
403.04562
 20
298.527289
 30
0.0
 11
402.725284
 21
307.848684
 31
0.0
  0
LINE
  5
DF
330
1F
100
AcDbEntity
  8
1
100
AcDbLine
 10
402.7204369999999
 20
307.822622
 30
0.0
 11
403.0403869999999
 21
298.512454
 31
0.0
  0
LINE
  5
E0
330
1F
100
AcDbEntity
  8
1
100
AcDbLine
 10
414.2722069999999
 20
269.907994
 30
0.0
 11
393.8645390000001
 21
269.907994
 31
0.0
  0
LINE
  5
E1
330
1F
100
AcDbEntity
  8
1
100
AcDbLine
 10
274.904842
 20
263.907994
 30
0.0
 11
274.904842
 21
288.907994
 31
0.0
  0
LINE
  5
E2
330
1F
100
AcDbEntity
  8
1
100
AcDbLine
 10
274.904842
 20
288.907994
 30
0.0
 11
274.904842
 21
313.907994
 31
0.0
  0
LINE
  5
E3
330
1F
100
AcDbEntity
  8
1
100
AcDbLine
 10
408.612101
 20
300.244968
 30
0.0
 11
408.646386
 21
300.34217
 31
0.0
  0
LINE
  5
E4
330
1F
100
AcDbEntity
  8
1
100
AcDbLine
 10
409.4078699999999
 20
300.18895
 30
0.0
 11
409.3734549999999
 21
300.091377
 31
0.0
  0
LINE
  5
E5
330
1F
100
AcDbEntity
  8
1
100
AcDbLine
 10
409.2547539999999
 20
303.036062
 30
0.0
 11
409.289169
 21
303.133634
 31
0.0
  0
LINE
  5
E6
330
1F
100
AcDbEntity
  8
1
100
AcDbLine
 10
410.032154
 20
302.927966
 30
0.0
 11
410.0161069999999
 21
302.882471
 31
0.0
  0
LINE
  5
E7
330
1F
100
AcDbEntity
  8
1
100
AcDbLine
 10
405.945262
 20
302.835368
 30
0.0
 11
405.9291319999999
 21
302.789638
 31
0.0
  0
LINE
  5
E8
330
1F
100
AcDbEntity
  8
1
100
AcDbLine
 10
412.7191419999999
 20
300.394691
 30
0.0
 11
412.735272
 21
300.440421
 31
0.0
  0
LINE
  5
E9
330
1F
100
AcDbEntity
  8
SK1
100
AcDbLine
 10
204.404842
 20
270.907994
 30
0.0
 11
206.404842
 21
268.907994
 31
0.0
  0
LINE
  5
EA
330
1F
100
AcDbEntity
  8
SK1
100
AcDbLine
 10
206.404842
 20
308.907994
 30
0.0
 11
204.404842
 21
306.907994
 31
0.0
  0
LINE
  5
EB
330
1F
100
AcDbEntity
  8
SK1
100
AcDbLine
 10
274.404842
 20
308.907994
 30
0.0
 11
206.404842
 21
308.907994
 31
0.0
  0
LINE
  5
EC
330
1F
100
AcDbEntity
  8
1
100
AcDbLine
 10
274.904842
 20
263.907994
 30
0.0
 11
274.404842
 21
264.407994
 31
0.0
  0
LINE
  5
ED
330
1F
100
AcDbEntity
  8
1
100
AcDbLine
 10
274.404842
 20
313.407994
 30
0.0
 11
274.904842
 21
313.907994
 31
0.0
  0
LINE
  5
EE
330
1F
100
AcDbEntity
  8
1
100
AcDbLine
 10
279.404842
 20
313.907994
 30
0.0
 11
274.904842
 21
313.907994
 31
0.0
  0
LINE
  5
121
330
1F
100
AcDbEntity
  8
NOCUT
100
AcDbLine
 10
415.614842
 20
288.907994
 30
0.0
 11
204.404842
 21
288.907994
 31
0.0
  0
LINE
  5
122
330
1F
100
AcDbEntity
  8
NOCUT
100
AcDbLine
 10
274.404842
 20
308.907994
 30
0.0
 11
206.404842
 21
308.907994
 31
0.0
  0
LINE
  5
123
330
1F
100
AcDbEntity
  8
NOCUT
100
AcDbLine
 10
274.404842
 20
308.907994
 30
0.0
 11
274.404842
 21
313.407994
 31
0.0
  0
LINE
  5
124
330
1F
100
AcDbEntity
  8
NOCUT
100
AcDbLine
 10
279.404842
 20
313.907994
 30
0.0
 11
274.904842
 21
313.907994
 31
0.0
  0
LINE
  5
125
330
1F
100
AcDbEntity
  8
NOCUT
100
AcDbLine
 10
415.1946569999999
 20
307.907994
 30
0.0
 11
415.614842
 21
295.97879
 31
0.0
  0
LINE
  5
126
330
1F
100
AcDbEntity
  8
NOCUT
100
AcDbLine
 10
415.614842
 20
295.97879
 30
0.0
 11
415.614842
 21
288.907994
 31
0.0
  0
LINE
  5
127
330
1F
100
AcDbEntity
  8
NOCUT
100
AcDbLine
 10
292.032259
 20
307.907994
 30
0.0
 11
415.1946569999999
 21
307.907994
 31
0.0
  0
LINE
  5
128
330
1F
100
AcDbEntity
  8
NOCUT
100
AcDbLine
 10
274.404842
 20
313.407994
 30
0.0
 11
274.904842
 21
313.907994
 31
0.0
  0
LINE
  5
129
330
1F
100
AcDbEntity
  8
NOCUT
100
AcDbLine
 10
279.404842
 20
313.907994
 30
0.0
 11
280.71855
 21
312.594285
 31
0.0
  0
LINE
  5
12A
330
1F
100
AcDbEntity
  8
NOCUT
100
AcDbLine
 10
204.404842
 20
306.907994
 30
0.0
 11
204.404842
 21
288.907994
 31
0.0
  0
LINE
  5
12B
330
1F
100
AcDbEntity
  8
NOCUT
100
AcDbLine
 10
204.404842
 20
306.907994
 30
0.0
 11
206.404842
 21
308.907994
 31
0.0
  0
ARC
  5
134
330
1F
100
AcDbEntity
  8
1
100
AcDbCircle
 10
292.032259
 20
323.907994
 30
0.0
 40
16.0
100
AcDbArc
 50
225.0
 51
270.0
  0
CIRCLE
  5
135
330
1F
100
AcDbEntity
  8
1
100
AcDbCircle
 10
409.8131369999999
 20
284.004045
 30
0.0
 40
1.35
  0
ARC
  5
136
330
1F
100
AcDbEntity
  8
1
100
AcDbCircle
 10
409.8131369999999
 20
284.004045
 30
0.0
 40
1.75
100
AcDbArc
 50
75.0
 51
345.0
  0
ARC
  5
137
330
1F
100
AcDbEntity
  8
1
100
AcDbCircle
 10
292.032259
 20
253.907994
 30
0.0
 40
16.0
100
AcDbArc
 50
90.0
 51
135.0
  0
ARC
  5
146
330
1F
100
AcDbEntity
  8
NOCUT
100
AcDbCircle
 10
292.032259
 20
323.907994
 30
0.0
 40
16.0
100
AcDbArc
 50
225.0
 51
270.0
  0
ELLIPSE
  5
147
330
1F
100
AcDbEntity
  8
1
100
AcDbEllipse
 10
301.194741
 20
269.705918
 30
0.0
 11
-25.23030398595824
 21
5.190099202987132
 31
0.0
210
0.0
220
0.0
230
1.0
 40
0.5072130000000001
 41
4.807888753195471
 42
6.150421551706173
  0
ELLIPSE
  5
148
330
1F
100
AcDbEntity
  8
1
100
AcDbEllipse
 10
404.074879
 20
292.158833
 30
0.0
 11
-2.523258978896576
 21
-0.0990318125936776
 31
0.0
210
0.0
220
0.0
230
0.9999999999999998
 40
0.22151
 41
1.68408996881335
 42
4.596868378977166
  0
ELLIPSE
  5
149
330
1F
100
AcDbEntity
  8
1
100
AcDbEllipse
 10
405.4133199999999
 20
311.272574
 30
0.0
 11
7.100366677000518
 21
15.8030774521963
 31
0.0
210
0.0
220
0.0
230
1.0
 40
0.7249979999999999
 41
3.07201977021055
 42
3.078227525527158
  0
ELLIPSE
  5
14A
330
1F
100
AcDbEntity
  8
1
100
AcDbEllipse
 10
410.011127
 20
288.907994
 30
0.0
 11
32.58690563317863
 21
-18.74476435928282
 31
0.0
210
0.0
220
0.0
230
0.9999999999999998
 40
0.095248
 41
4.148081361226716
 42
4.381327543360194
  0
ELLIPSE
  5
14B
330
1F
100
AcDbEntity
  8
1
100
AcDbEllipse
 10
403.857635
 20
288.907993
 30
0.0
 11
0.6354082573038075
 21
-18.99999619192006
 31
0.0
210
0.0
220
0.0
230
1.0
 40
0.0191
 41
3.025570037498051
 42
3.113686340322423
  0
ELLIPSE
  5
14C
330
1F
100
AcDbEntity
  8
1
100
AcDbEllipse
 10
404.984649
 20
296.9414910000001
 30
0.0
 11
2.357642267228976
 21
-0.8315785830427666
 31
0.0
210
0.0
220
0.0
230
1.0
 40
0.9986239999999998
 41
5.598899378593447
 42
5.809792633311543
  0
ELLIPSE
  5
14D
330
1F
100
AcDbEntity
  8
1
100
AcDbEllipse
 10
403.681768
 20
288.907994
 30
0.0
 11
0.5327488200313506
 21
-18.99985244389369
 31
0.0
210
0.0
220
0.0
230
1.0
 40
0.140543
 41
3.110384343877388
 42
3.216892030891676
  0
ELLIPSE
  5
14E
330
1F
100
AcDbEntity
  8
1
100
AcDbEllipse
 10
259.188239
 20
288.907995
 30
0.0
 11
496.4572934414499
 21
18.52862601741821
 31
0.0
210
0.0
220
0.0
230
1.0
 40
0.008472
 41
5.008965352458074
 42
5.026981306850541
  0
ELLIPSE
  5
14F
330
1F
100
AcDbEntity
  8
1
100
AcDbEllipse
 10
404.989881
 20
296.956326
 30
0.0
 11
-2.357642267228973
 21
0.8315785830427763
 31
0.0
210
0.0
220
0.0
230
1.0
 40
0.9986239999999998
 41
2.668199979721753
 42
2.776747666076899
  0
ELLIPSE
  5
150
330
1F
100
AcDbEntity
  8
1
100
AcDbEllipse
 10
415.1131109999999
 20
289.164697
 30
0.0
 11
0.0001758288826049
 21
-0.5000776676690144
 31
0.0
210
0.0
220
0.0
230
1.0
 40
0.140519
 41
3.139090475970853
 42
4.709886802757821
  0
ELLIPSE
  5
151
330
1F
100
AcDbEntity
  8
1
100
AcDbEllipse
 10
415.349162
 20
295.1005850000001
 30
0.0
 11
0.0003016037636991
 21
0.5003084758530746
 31
0.0
210
0.0
220
0.0
230
0.9999999999999996
 40
0.140101
 41
3.195395734393336
 42
4.766192061199143
  0
ELLIPSE
  5
152
330
1F
100
AcDbEntity
  8
1
100
AcDbEllipse
 10
414.6487959999999
 20
278.1833259999999
 30
0.0
 11
0.053877002434723
 21
0.4991611425064525
 31
0.0
210
0.0
220
0.0
230
1.0
 40
0.139171
 41
1.58356817924268
 42
3.154364506043588
  0
ELLIPSE
  5
153
330
1F
100
AcDbEntity
  8
1
100
AcDbEllipse
 10
404.38473
 20
306.496051
 30
0.0
 11
0.5172967686934388
 21
-0.4819691094646715
 31
0.0
210
0.0
220
0.0
230
1.0
 40
0.033998
 41
0.5687050474043956
 42
1.585610887844354
  0
ELLIPSE
  5
154
330
1F
100
AcDbEntity
  8
1
100
AcDbEllipse
 10
414.227416
 20
306.839408
 30
0.0
 11
0.4817434594377767
 21
0.517054578836942
 31
0.0
210
0.0
220
0.0
230
1.0
 40
0.01483
 41
1.53677966474774
 42
2.553685504904759
  0
ELLIPSE
  5
155
330
1F
100
AcDbEntity
  8
1
100
AcDbEllipse
 10
414.579641
 20
297.006967
 30
0.0
 11
0.5172967688074829
 21
-0.4819691095712809
 31
0.0
210
0.0
220
0.0
230
1.0
 40
0.033998
 41
1.585610887856189
 42
2.602516728106028
  0
ELLIPSE
  5
156
330
1F
100
AcDbEntity
  8
1
100
AcDbEllipse
 10
409.4867729999999
 20
301.764515
 30
0.0
 11
-3.677921936877196
 21
1.29726258954673
 31
0.0
210
0.0
220
0.0
230
1.0
 40
0.9986239999999998
 41
0.0
 42
6.283185307179585
  0
ELLIPSE
  5
157
330
1F
100
AcDbEntity
  8
1
100
AcDbEllipse
 10
407.9356549999999
 20
302.187761
 30
0.0
 11
-0.089889753645666
 21
0.0317055708602409
 31
0.0
210
0.0
220
0.0
230
1.0
 40
0.998624
 41
3.886489476375076
 42
4.563221393255755
  0
ELLIPSE
  5
158
330
1F
100
AcDbEntity
  8
1
100
AcDbEllipse
 10
408.0249929999999
 20
302.355876
 30
0.0
 11
-0.0898897536456659
 21
0.0317055708602408
 31
0.0
210
0.0
220
0.0
230
1.0
 40
0.998624
 41
0.2212980471868037
 42
1.421628739665929
  0
ELLIPSE
  5
159
330
1F
100
AcDbEntity
  8
1
100
AcDbEllipse
 10
408.527016
 20
302.296315
 30
0.0
 11
-0.5666776289729537
 21
0.1998763706833404
 31
0.0
210
0.0
220
0.0
230
1.0
 40
0.9986239999999998
 41
5.239953310136209
 42
6.504483354366383
  0
ELLIPSE
  5
15A
330
1F
100
AcDbEntity
  8
1
100
AcDbEllipse
 10
408.432092
 20
302.792373
 30
0.0
 11
-0.0898897536456679
 21
0.0317055708602416
 31
0.0
210
0.0
220
0.0
230
0.9999999999999998
 40
0.9986239999999998
 41
4.039622617657187
 42
5.239953310135985
  0
ELLIPSE
  5
15B
330
1F
100
AcDbEntity
  8
1
100
AcDbEllipse
 10
408.5936479999999
 20
302.89327
 30
0.0
 11
-0.0898897536456679
 21
0.0317055708602416
 31
0.0
210
0.0
220
0.0
230
0.9999999999999998
 40
0.9986239999999998
 41
0.8980299640674177
 42
1.574761880948038
  0
ELLIPSE
  5
15C
330
1F
100
AcDbEntity
  8
1
100
AcDbEllipse
 10
408.759695
 20
303.370065
 30
0.0
 11
-0.5666776289729535
 21
0.1998763706833402
 31
0.0
210
0.0
220
0.0
230
1.0
 40
0.9986239999999998
 41
1.574761880948108
 42
2.839291925178318
  0
ELLIPSE
  5
15D
330
1F
100
AcDbEntity
  8
1
100
AcDbEllipse
 10
409.164864
 20
303.067767
 30
0.0
 11
-0.089889753645666
 21
0.0317055708602409
 31
0.0
210
0.0
220
0.0
230
1.0
 40
0.998624
 41
2.839291925178331
 42
3.516023842058973
  0
ELLIPSE
  5
15E
330
1F
100
AcDbEntity
  8
1
100
AcDbEllipse
 10
409.3553479999999
 20
303.074412
 30
0.0
 11
-0.0898897536456659
 21
0.0317055708602408
 31
0.0
210
0.0
220
0.0
230
1.0
 40
0.998624
 41
5.457285803169906
 42
6.657616495648838
  0
ELLIPSE
  5
15F
330
1F
100
AcDbEntity
  8
1
100
AcDbEllipse
 10
409.555099
 20
302.610378
 30
0.0
 11
-0.5666776289729537
 21
0.1998763706833404
 31
0.0
210
0.0
220
0.0
230
1.0
 40
0.9986239999999998
 41
4.192755758939625
 42
5.457285803169829
  0
ELLIPSE
  5
160
330
1F
100
AcDbEntity
  8
1
100
AcDbEllipse
 10
409.937625
 20
302.940154
 30
0.0
 11
-0.0898897536456679
 21
0.0317055708602416
 31
0.0
210
0.0
220
0.0
230
0.9999999999999998
 40
0.9986239999999998
 41
2.992425066460703
 42
4.192755758939556
  0
ELLIPSE
  5
161
330
1F
100
AcDbEntity
  8
1
100
AcDbEllipse
 10
410.1059969999999
 20
302.850766
 30
0.0
 11
-0.0898897536456679
 21
0.0317055708602416
 31
0.0
210
0.0
220
0.0
230
0.9999999999999998
 40
0.9986239999999998
 41
6.134017720050543
 42
6.810749636931192
  0
ELLIPSE
  5
162
330
1F
100
AcDbEntity
  8
1
100
AcDbEllipse
 10
410.602505
 20
302.945159
 30
0.0
 11
-0.5666776289729535
 21
0.1998763706833402
 31
0.0
210
0.0
220
0.0
230
1.0
 40
0.9986239999999998
 41
0.5275643297515332
 42
1.792094373981719
  0
ELLIPSE
  5
163
330
1F
100
AcDbEntity
  8
1
100
AcDbEllipse
 10
410.543314
 20
302.443726
 30
0.0
 11
-0.089889753645666
 21
0.0317055708602409
 31
0.0
210
0.0
220
0.0
230
1.0
 40
0.998624
 41
1.792094373981788
 42
2.468826290862739
  0
ELLIPSE
  5
164
330
1F
100
AcDbEntity
  8
1
100
AcDbEllipse
 10
410.6444589999999
 20
302.282256
 30
0.0
 11
-0.0898897536456659
 21
0.0317055708602408
 31
0.0
210
0.0
220
0.0
230
1.0
 40
0.998624
 41
4.410088251973179
 42
5.610418944452145
  0
ELLIPSE
  5
165
330
1F
100
AcDbEntity
  8
1
100
AcDbEllipse
 10
410.342187
 20
301.877782
 30
0.0
 11
-0.5666776289729537
 21
0.1998763706833404
 31
0.0
210
0.0
220
0.0
230
1.0
 40
0.9986239999999998
 41
3.145558207743012
 42
4.410088251973175
  0
ELLIPSE
  5
166
330
1F
100
AcDbEntity
  8
1
100
AcDbEllipse
 10
410.8196369999999
 20
301.711501
 30
0.0
 11
-0.0898897536456679
 21
0.0317055708602416
 31
0.0
210
0.0
220
0.0
230
0.9999999999999998
 40
0.9986239999999998
 41
1.945227515264249
 42
3.145558207742897
  0
ELLIPSE
  5
167
330
1F
100
AcDbEntity
  8
1
100
AcDbEllipse
 10
410.826454
 20
301.521215
 30
0.0
 11
-0.0898897536456679
 21
0.0317055708602416
 31
0.0
210
0.0
220
0.0
230
0.9999999999999998
 40
0.9986239999999998
 41
5.086820168853764
 42
5.763552085734549
  0
ELLIPSE
  5
168
330
1F
100
AcDbEntity
  8
1
100
AcDbEllipse
 10
411.156914
 20
301.138814
 30
0.0
 11
-0.5666776289729535
 21
0.1998763706833402
 31
0.0
210
0.0
220
0.0
230
1.0
 40
0.9986239999999998
 41
5.763552085734428
 42
7.028082129964721
  0
ELLIPSE
  5
169
330
1F
100
AcDbEntity
  8
1
100
AcDbEllipse
 10
410.692554
 20
300.9396779999999
 30
0.0
 11
-0.089889753645666
 21
0.0317055708602409
 31
0.0
210
0.0
220
0.0
230
1.0
 40
0.998624
 41
0.7448968227852287
 42
1.421628739665929
  0
ELLIPSE
  5
16A
330
1F
100
AcDbEntity
  8
1
100
AcDbEllipse
 10
410.6032149999999
 20
300.771563
 30
0.0
 11
-0.0898897536456659
 21
0.0317055708602408
 31
0.0
210
0.0
220
0.0
230
1.0
 40
0.998624
 41
3.362890700776564
 42
4.563221393255744
  0
ELLIPSE
  5
16B
330
1F
100
AcDbEntity
  8
1
100
AcDbEllipse
 10
410.101193
 20
300.8311240000001
 30
0.0
 11
-0.5666776289729537
 21
0.1998763706833404
 31
0.0
210
0.0
220
0.0
230
1.0
 40
0.9986239999999998
 41
2.09836065654641
 42
3.362890700776584
  0
ELLIPSE
  5
16C
330
1F
100
AcDbEntity
  8
1
100
AcDbEllipse
 10
410.196117
 20
300.3350660000001
 30
0.0
 11
-0.0898897536456679
 21
0.0317055708602416
 31
0.0
210
0.0
220
0.0
230
0.9999999999999998
 40
0.9986239999999998
 41
0.8980299640674177
 42
2.098360656546524
  0
ELLIPSE
  5
16D
330
1F
100
AcDbEntity
  8
1
100
AcDbEllipse
 10
410.0345609999999
 20
300.234169
 30
0.0
 11
-0.0898897536456679
 21
0.0317055708602416
 31
0.0
210
0.0
220
0.0
230
0.9999999999999998
 40
0.9986239999999998
 41
4.039622617657303
 42
4.716354534537681
  0
ELLIPSE
  5
16E
330
1F
100
AcDbEntity
  8
1
100
AcDbEllipse
 10
409.8685139999999
 20
299.757374
 30
0.0
 11
-0.5666776289729535
 21
0.1998763706833402
 31
0.0
210
0.0
220
0.0
230
1.0
 40
0.9986239999999998
 41
4.7163545345379
 42
5.980884578768089
  0
ELLIPSE
  5
16F
330
1F
100
AcDbEntity
  8
1
100
AcDbEllipse
 10
409.4633449999999
 20
300.059672
 30
0.0
 11
-0.089889753645666
 21
0.0317055708602409
 31
0.0
210
0.0
220
0.0
230
1.0
 40
0.998624
 41
5.980884578768195
 42
6.657616495648752
  0
ELLIPSE
  5
170
330
1F
100
AcDbEntity
  8
1
100
AcDbEllipse
 10
409.2728609999999
 20
300.053027
 30
0.0
 11
-0.0898897536456659
 21
0.0317055708602408
 31
0.0
210
0.0
220
0.0
230
1.0
 40
0.998624
 41
2.315693149580223
 42
3.516023842058973
  0
ELLIPSE
  5
171
330
1F
100
AcDbEntity
  8
1
100
AcDbEllipse
 10
409.07311
 20
300.517061
 30
0.0
 11
-0.5666776289729537
 21
0.1998763706833404
 31
0.0
210
0.0
220
0.0
230
1.0
 40
0.9986239999999998
 41
1.051163105349842
 42
2.315693149580053
  0
ELLIPSE
  5
172
330
1F
100
AcDbEntity
  8
1
100
AcDbEllipse
 10
408.690584
 20
300.187285
 30
0.0
 11
-0.0898897536456679
 21
0.0317055708602416
 31
0.0
210
0.0
220
0.0
230
0.9999999999999998
 40
0.9986239999999998
 41
6.134017720050637
 42
7.334348412528795
  0
ELLIPSE
  5
173
330
1F
100
AcDbEntity
  8
1
100
AcDbEllipse
 10
408.522212
 20
300.276673
 30
0.0
 11
-0.0898897536456679
 21
0.0317055708602416
 31
0.0
210
0.0
220
0.0
230
0.9999999999999998
 40
0.9986239999999998
 41
2.992425066460703
 42
3.669156983341153
  0
ELLIPSE
  5
174
330
1F
100
AcDbEntity
  8
1
100
AcDbEllipse
 10
408.025704
 20
300.18228
 30
0.0
 11
-0.5666776289729535
 21
0.1998763706833402
 31
0.0
210
0.0
220
0.0
230
1.0
 40
0.9986239999999998
 41
3.66915698334134
 42
4.933687027571541
  0
ELLIPSE
  5
175
330
1F
100
AcDbEntity
  8
1
100
AcDbEllipse
 10
408.084895
 20
300.683713
 30
0.0
 11
-0.089889753645666
 21
0.0317055708602409
 31
0.0
210
0.0
220
0.0
230
1.0
 40
0.998624
 41
4.933687027571403
 42
5.610418944452531
  0
ELLIPSE
  5
176
330
1F
100
AcDbEntity
  8
1
100
AcDbEllipse
 10
407.983749
 20
300.845183
 30
0.0
 11
-0.0898897536456659
 21
0.0317055708602408
 31
0.0
210
0.0
220
0.0
230
1.0
 40
0.998624
 41
1.268495598383385
 42
2.468826290861993
  0
ELLIPSE
  5
177
330
1F
100
AcDbEntity
  8
1
100
AcDbEllipse
 10
408.2860219999999
 20
301.249657
 30
0.0
 11
-0.5666776289729537
 21
0.1998763706833404
 31
0.0
210
0.0
220
0.0
230
1.0
 40
0.9986239999999998
 41
0.0039655541532316
 42
1.268495598383389
  0
ELLIPSE
  5
178
330
1F
100
AcDbEntity
  8
1
100
AcDbEllipse
 10
407.8085709999999
 20
301.415938
 30
0.0
 11
-0.0898897536456679
 21
0.0317055708602416
 31
0.0
210
0.0
220
0.0
230
0.9999999999999998
 40
0.9986239999999998
 41
5.086820168853876
 42
6.287150861332843
  0
ELLIPSE
  5
179
330
1F
100
AcDbEntity
  8
1
100
AcDbEllipse
 10
407.8017549999999
 20
301.606224
 30
0.0
 11
-0.0898897536456679
 21
0.0317055708602416
 31
0.0
210
0.0
220
0.0
230
0.9999999999999998
 40
0.9986239999999998
 41
1.945227515264111
 42
2.621959432144766
  0
ELLIPSE
  5
17A
330
1F
100
AcDbEntity
  8
1
100
AcDbEllipse
 10
407.471295
 20
301.988625
 30
0.0
 11
-0.5666776289729535
 21
0.1998763706833402
 31
0.0
210
0.0
220
0.0
230
1.0
 40
0.9986239999999998
 41
2.621959432144747
 42
3.886489476374906
  0
ELLIPSE
  5
17B
330
1F
100
AcDbEntity
  8
1
100
AcDbEllipse
 10
409.3141039999999
 20
301.56372
 30
0.0
 11
1.98041950447234
 21
-0.6985260097559243
 31
0.0
210
0.0
220
0.0
230
1.0
 40
0.9986239999999998
 41
0.0
 42
6.283185307179585
  0
ELLIPSE
  5
17C
330
1F
100
AcDbEntity
  8
1
100
AcDbEllipse
 10
409.324137
 20
301.592164
 30
0.0
 11
3.395004864809725
 21
-1.197473159581583
 31
0.0
210
0.0
220
0.0
230
1.0
 40
0.9986239999999998
 41
0.0
 42
6.283185307179585
  0
ELLIPSE
  5
17D
330
1F
100
AcDbEntity
  8
1
100
AcDbEllipse
 10
409.509447
 20
301.8288
 30
0.0
 11
3.531988007444662
 21
-1.245789330883937
 31
0.0
210
0.0
220
0.0
230
0.9999999999999998
 40
0.9986239999999998
 41
1.94522755203838
 42
3.356097206659879
  0
ELLIPSE
  5
17E
330
1F
100
AcDbEntity
  8
1
100
AcDbEllipse
 10
409.509447
 20
301.8288
 30
0.0
 11
3.531988007444662
 21
-1.245789330883937
 31
0.0
210
0.0
220
0.0
230
0.9999999999999998
 40
0.9986239999999998
 41
5.419043491545753
 42
6.283185307179585
  0
ELLIPSE
  5
17F
330
1F
100
AcDbEntity
  8
1
100
AcDbEllipse
 10
409.509447
 20
301.8288
 30
0.0
 11
3.531988007444662
 21
-1.245789330883937
 31
0.0
210
0.0
220
0.0
230
0.9999999999999998
 40
0.9986239999999998
 41
0.0
 42
1.50893877539691
  0
ELLIPSE
  5
180
330
1F
100
AcDbEntity
  8
1
100
AcDbEllipse
 10
409.509447
 20
301.8288
 30
0.0
 11
3.531988007444662
 21
-1.245789330883937
 31
0.0
210
0.0
220
0.0
230
0.9999999999999998
 40
0.9986239999999998
 41
1.632540859458623
 42
1.94522755203838
  0
ELLIPSE
  5
181
330
1F
100
AcDbEntity
  8
1
100
AcDbEllipse
 10
404.7369549999999
 20
296.663611
 30
0.0
 11
0.4817434593389429
 21
0.5170545787331392
 31
0.0
210
0.0
220
0.0
230
0.9999999999999998
 40
0.01483
 41
0.5198738242738319
 42
1.536779664609154
  0
ELLIPSE
  5
182
330
1F
100
AcDbEntity
  8
1
100
AcDbEllipse
 10
409.4896509999999
 20
301.772674
 30
0.0
 11
3.588083700633127
 21
-1.265575189707758
 31
0.0
210
0.0
220
0.0
230
1.0
 40
0.9986239999999998
 41
1.945227451328571
 42
3.745261875445964
  0
ELLIPSE
  5
183
330
1F
100
AcDbEntity
  8
1
100
AcDbEllipse
 10
409.4896509999999
 20
301.772674
 30
0.0
 11
3.588083700633127
 21
-1.265575189707758
 31
0.0
210
0.0
220
0.0
230
1.0
 40
0.9986239999999998
 41
4.874566385899283
 42
6.283185307179585
  0
ELLIPSE
  5
184
330
1F
100
AcDbEntity
  8
1
100
AcDbEllipse
 10
409.4896509999999
 20
301.772674
 30
0.0
 11
3.588083700633127
 21
-1.265575189707758
 31
0.0
210
0.0
220
0.0
230
1.0
 40
0.9986239999999998
 41
0.0
 42
1.945227440221053
  0
ELLIPSE
  5
185
330
1F
100
AcDbEntity
  8
1
100
AcDbEllipse
 10
409.3402669999999
 20
301.637894
 30
0.0
 11
-3.395004864809722
 21
1.197473159581599
 31
0.0
210
0.0
220
0.0
230
1.0
 40
0.9986239999999998
 41
3.141585274248861
 42
5.872218228534566
  0
ELLIPSE
  5
186
330
1F
100
AcDbEntity
  8
1
100
AcDbEllipse
 10
409.3402669999999
 20
301.637894
 30
0.0
 11
-3.395004864809722
 21
1.197473159581599
 31
0.0
210
0.0
220
0.0
230
1.0
 40
0.9986239999999998
 41
5.872218228534568
 42
6.283185307179585
  0
ELLIPSE
  5
187
330
1F
100
AcDbEntity
  8
1
100
AcDbEllipse
 10
416.2888129999999
 20
288.907994
 30
0.0
 11
2.056536618983884
 21
18.99785119900098
 31
0.0
210
0.0
220
0.0
230
0.9999999999999998
 40
0.138944
 41
1.926603535181357
 42
3.156632395651102
  0
ELLIPSE
  5
188
330
1F
100
AcDbEntity
  8
1
100
AcDbEllipse
 10
415.614842
 20
288.907994
 30
0.0
 11
0.0
 21
19.00000000025537
 31
0.0
210
0.0
220
0.0
230
1.0
 40
0.140541
 41
1.479416968881688
 42
1.911563793115704
  0
ELLIPSE
  5
189
330
1F
100
AcDbEntity
  8
1
100
AcDbEllipse
 10
405.07116
 20
297.186762
 30
0.0
 11
-2.357642267228971
 21
0.8315785830427762
 31
0.0
210
0.0
220
0.0
230
0.9999999999999998
 40
0.998624
 41
0.0520252572636202
 42
1.945227431237601
  0
ELLIPSE
  5
18A
330
1F
100
AcDbEntity
  8
1
100
AcDbEllipse
 10
405.07116
 20
297.186762
 30
0.0
 11
-2.357642267228971
 21
0.8315785830427762
 31
0.0
210
0.0
220
0.0
230
0.9999999999999998
 40
0.998624
 41
1.945227431237603
 42
2.645311779347065
  0
ELLIPSE
  5
18B
330
1F
100
AcDbEntity
  8
1
100
AcDbEllipse
 10
404.989881
 20
296.956326
 30
0.0
 11
-2.357642267228973
 21
0.8315785830427763
 31
0.0
210
0.0
220
0.0
230
1.0
 40
0.9986239999999998
 41
5.822888314034136
 42
5.942244189143316
  0
ELLIPSE
  5
18C
330
1F
100
AcDbEntity
  8
1
100
AcDbEllipse
 10
404.984649
 20
296.9414910000001
 30
0.0
 11
2.357642267228976
 21
-0.8315785830427666
 31
0.0
210
0.0
220
0.0
230
1.0
 40
0.9986239999999998
 41
2.800651535553506
 42
4.567917805098002
  0
ELLIPSE
  5
18D
330
1F
100
AcDbEntity
  8
1
100
AcDbEllipse
 10
403.387134
 20
288.908752
 30
0.0
 11
0.6353816453638381
 21
-18.99923760301004
 31
0.0
210
0.0
220
0.0
230
1.0
 40
0.0191
 41
3.219989505270336
 42
3.235788492957839
  0
ELLIPSE
  5
18E
330
1F
100
AcDbEntity
  8
1
100
AcDbEllipse
 10
353.297504
 20
288.892015
 30
0.0
 11
1089.632155651638
 21
-0.9396707120402872
 31
0.0
210
0.0
220
0.0
230
1.0
 40
0.01743
 41
1.525438344078061
 42
1.528097276877053
  0
ELLIPSE
  5
18F
330
1F
100
AcDbEntity
  8
1
100
AcDbEllipse
 10
325.084388
 20
288.907994
 30
0.0
 11
107.7444988850492
 21
-16.41703878838138
 31
0.0
210
0.0
220
0.0
230
0.9999999999999998
 40
0.088771
 41
4.414152449444264
 42
4.518597939239334
  0
ELLIPSE
  5
190
330
1F
100
AcDbEntity
  8
1
100
AcDbEllipse
 10
403.833024
 20
306.791779
 30
0.0
 11
-11.88251702683402
 21
4.191156058535593
 31
0.0
210
0.0
220
0.0
230
1.0
 40
0.9986239999999998
 41
1.386722154625875
 42
1.945227515264111
  0
ELLIPSE
  5
191
330
1F
100
AcDbEntity
  8
1
100
AcDbEllipse
 10
302.904842
 20
277.533548
 30
0.0
 11
-2.978256638435849
 21
-9.546202773648458
 31
0.0
210
0.0
220
0.0
230
1.0
 40
0.176153
 41
4.198387281074706
 42
5.680056227540375
  0
SPLINE
  5
197
330
1F
100
AcDbEntity
  8
1
100
AcDbSpline
210
0.0
220
0.0
230
1.0
 70
     8
 71
     3
 72
     8
 73
     4
 74
     0
 42
0.000000001
 43
0.0000000001
 40
0.0
 40
0.0
 40
0.0
 40
0.0
 40
1.0
 40
1.0
 40
1.0
 40
1.0
 10
404.3439296293405
 20
292.725450812292
 30
0.0
 10
404.1314392963716
 20
292.7225757139918
 30
0.0
 10
403.9184025066086
 20
292.7237041484348
 30
0.0
 10
403.7048419452958
 20
292.7289797515233
 30
0.0
  0
SPLINE
  5
198
330
1F
100
AcDbEntity
  8
1
100
AcDbSpline
210
0.0
220
0.0
230
1.0
 70
     8
 71
     3
 72
     8
 73
     4
 74
     0
 42
0.000000001
 43
0.0000000001
 40
0.0
 40
0.0
 40
0.0
 40
0.0
 40
1.0
 40
1.0
 40
1.0
 40
1.0
 10
403.7048419452958
 20
291.5937109332542
 30
0.0
 10
403.9312149946248
 20
291.5931723830842
 30
0.0
 10
404.1569226164603
 20
291.6001679527467
 30
0.0
 10
404.3819334609339
 20
291.6146845347303
 30
0.0
  0
SPLINE
  5
199
330
1F
100
AcDbEntity
  8
1
100
AcDbSpline
210
0.0
220
0.0
230
1.0
 70
     8
 71
     3
 72
    37
 73
    33
 74
     0
 42
0.000000001
 43
0.0000000001
 40
0.0
 40
0.0
 40
0.0
 40
0.0
 40
0.1249999999999999
 40
0.1249999999999999
 40
0.2499999999999997
 40
0.2499999999999997
 40
0.3749999999999996
 40
0.3749999999999996
 40
0.4062499999999994
 40
0.4218749999999994
 40
0.4218749999999994
 40
0.4374999999999994
 40
0.4374999999999994
 40
0.4999999999999999
 40
0.4999999999999999
 40
0.6250000000000001
 40
0.6250000000000001
 40
0.6875000000000002
 40
0.6875000000000002
 40
0.7500000000000004
 40
0.7500000000000004
 40
0.7656250000000002
 40
0.7656250000000002
 40
0.7812500000000001
 40
0.7812500000000001
 40
0.8125
 40
0.8125
 40
0.875
 40
0.875
 40
0.9375
 40
0.9375
 40
1.0
 40
1.0
 40
1.0
 40
1.0
 10
280.7185504442806
 20
281.4039074372492
 30
0.0
 10
281.0288932091188
 20
281.7005042922262
 30
0.0
 10
281.352699019939
 20
281.9806227129354
 30
0.0
 10
282.028174616118
 20
282.5084589969591
 30
0.0
 10
282.3798363729039
 20
282.756182180637
 30
0.0
 10
283.1128808847926
 20
283.2184595363236
 30
0.0
 10
283.4942482288618
 20
283.4330303369495
 30
0.0
 10
283.9914834411985
 20
283.6790125530418
 30
0.0
 10
284.1421992190691
 20
283.7511326016762
 30
0.0
 10
284.2953072633053
 20
283.8206739975984
 30
0.0
 10
284.397920128677
 20
283.8664532916475
 30
0.0
 10
284.4495342340584
 20
283.8890678953431
 30
0.0
 10
284.7083068172216
 20
284.0003778006053
 30
0.0
 10
284.9178224170828
 20
284.0839123616096
 30
0.0
 10
285.5540321723712
 20
284.3177067897142
 30
0.0
 10
285.9883639129923
 20
284.4512437215747
 30
0.0
 10
286.6562520389346
 20
284.6155785754086
 30
0.0
 10
286.8816192230108
 20
284.6643414639814
 30
0.0
 10
287.3380948725077
 20
284.7491375147364
 30
0.0
 10
287.5692030041855
 20
284.7851722962078
 30
0.0
 10
287.8618829012761
 20
284.8216746357518
 30
0.0
 10
287.9206087913221
 20
284.8285473883261
 30
0.0
 10
288.0384462849285
 20
284.841420025046
 30
0.0
 10
288.0974525460433
 20
284.8474080277867
 30
0.0
 10
288.274528899985
 20
284.8639971699573
 30
0.0
 10
288.3927432488154
 20
284.8732333356877
 30
0.0
 10
288.7478685218182
 20
284.8953991340135
 30
0.0
 10
288.9852620537445
 20
284.9027920349032
 30
0.0
 10
289.4612848174319
 20
284.9022794857383
 30
0.0
 10
289.699914215434
 20
284.8943744061354
 30
0.0
 10
290.178343820635
 20
284.862541260176
 30
0.0
 10
290.4181442362038
 20
284.8386137231709
 30
0.0
 10
290.6584877443703
 20
284.8062079635675
 30
0.0
  0
SPLINE
  5
19A
330
1F
100
AcDbEntity
  8
1
100
AcDbSpline
210
0.0
220
0.0
230
1.0
 70
     8
 71
     3
 72
    26
 73
    22
 74
     0
 42
0.000000001
 43
0.0000000001
 40
0.0
 40
0.0
 40
0.0
 40
0.0
 40
0.1250000000000009
 40
0.1250000000000009
 40
0.2500000000000018
 40
0.2500000000000018
 40
0.3750000000000027
 40
0.3750000000000027
 40
0.4375000000000031
 40
0.4375000000000031
 40
0.4687500000000033
 40
0.4687500000000033
 40
0.5000000000000036
 40
0.5000000000000036
 40
0.6250000000000027
 40
0.6250000000000027
 40
0.7500000000000018
 40
0.7500000000000018
 40
0.8750000000000008
 40
0.8750000000000008
 40
1.0
 40
1.0
 40
1.0
 40
1.0
 10
279.4048419452957
 20
280.015082536989
 30
0.0
 10
279.1819605438936
 20
279.8433237686125
 30
0.0
 10
278.9683360810297
 20
279.6647508549103
 30
0.0
 10
278.5591968651623
 20
279.2947500903183
 30
0.0
 10
278.3636826562859
 20
279.1033211696309
 30
0.0
 10
277.9907807633627
 20
278.7080693741726
 30
0.0
 10
277.8133919501637
 20
278.5042465953705
 30
0.0
 10
277.561235105545
 20
278.1893426517259
 30
0.0
 10
277.4795073167015
 20
278.0828440693662
 30
0.0
 10
277.3604774895383
 20
277.9207941694766
 30
0.0
 10
277.3213947699701
 20
277.8663937076044
 30
0.0
 10
277.2444327554655
 20
277.7568221367382
 30
0.0
 10
277.2066525228851
 20
277.7017900379216
 30
0.0
 10
277.0216874449429
 20
277.4260945496969
 30
0.0
 10
276.885816974759
 20
277.203164801436
 30
0.0
 10
276.6376808856804
 20
276.7531755943202
 30
0.0
 10
276.5254161743669
 20
276.5261151608576
 30
0.0
 10
276.324452875312
 20
276.06830523267
 30
0.0
 10
276.2357530879669
 20
275.83755538862
 30
0.0
 10
276.0824388322042
 20
275.3726537952295
 30
0.0
 10
276.0178207448306
 20
275.1385023009015
 30
0.0
 10
275.9658191001066
 20
274.9027174300303
 30
0.0
  0
SPLINE
  5
19B
330
1F
100
AcDbEntity
  8
1
100
AcDbSpline
210
0.0
220
0.0
230
1.0
 70
     8
 71
     3
 72
    22
 73
    18
 74
     0
 42
0.000000001
 43
0.0000000001
 40
0.0
 40
0.0
 40
0.0
 40
0.0
 40
0.125
 40
0.125
 40
0.25
 40
0.25
 40
0.375
 40
0.375
 40
0.5
 40
0.5
 40
0.625
 40
0.625
 40
0.75
 40
0.75
 40
0.875
 40
0.875
 40
1.0
 40
1.0
 40
1.0
 40
1.0
 10
312.9741440837192
 20
269.9801149617026
 30
0.0
 10
313.7213008484445
 20
270.0706053257836
 30
0.0
 10
314.4672538276897
 20
270.1685281400006
 30
0.0
 10
315.957392340187
 20
270.3790577211364
 30
0.0
 10
316.7015784260835
 20
270.4916663923384
 30
0.0
 10
318.1889087171127
 20
270.7308623405555
 30
0.0
 10
318.932053785734
 20
270.8574506542569
 30
0.0
 10
320.4180913805045
 20
271.1233258870202
 30
0.0
 10
321.1609851128416
 20
271.2626125962831
 30
0.0
 10
322.6473422320537
 20
271.5520159072321
 30
0.0
 10
323.3908072085403
 20
271.7021304406401
 30
0.0
 10
324.879120106884
 20
272.0107634145096
 30
0.0
 10
325.6239700510567
 20
272.1692769144121
 30
0.0
 10
327.1158032811467
 20
272.4918252349552
 30
0.0
 10
327.8627890438838
 20
272.6558507455719
 30
0.0
 10
329.3595139345107
 20
272.9862913916331
 30
0.0
 10
330.1090913390231
 20
273.1526545263939
 30
0.0
 10
330.8599931865925
 20
273.3186475265644
 30
0.0
  0
SPLINE
  5
19C
330
1F
100
AcDbEntity
  8
1
100
AcDbSpline
210
0.0
220
0.0
230
1.0
 70
    24
 71
     3
 72
    14
 73
    10
 74
     0
 42
0.000000001
 43
0.0000000001
 40
0.0
 40
0.0
 40
0.0
 40
0.0
 40
0.2900080797913547
 40
0.2900080797913547
 40
0.5800161595827094
 40
0.5800161595827094
 40
0.8700242393740641
 40
0.8700242393740641
 40
1.0
 40
1.0
 40
1.0
 40
1.0
 10
403.7048419452958
 20
292.7289797515233
 30
0.0
 10
403.7048419452958
 20
292.5283392515119
 30
0.0
 10
403.7048419452958
 20
292.352574967038
 30
0.0
 10
403.7048419452958
 20
292.053748712475
 30
0.0
 10
403.7048419452958
 20
291.9306881512118
 30
0.0
 10
403.7048419452958
 20
291.739337508053
 30
0.0
 10
403.7048419452958
 20
291.671048328286
 30
0.0
 10
403.7048419452958
 20
291.612643261614
 30
0.0
 10
403.7048419452958
 20
291.600184282058
 30
0.0
 10
403.7048419452958
 20
291.5933507515226
 30
0.0
  0
SPLINE
  5
19D
330
1F
100
AcDbEntity
  8
1
100
AcDbSpline
210
0.0
220
0.0
230
1.0
 70
     8
 71
     3
 72
    28
 73
    24
 74
     0
 42
0.000000001
 43
0.0000000001
 40
0.0
 40
0.0
 40
0.0
 40
0.0
 40
0.1249999999999976
 40
0.1249999999999976
 40
0.2499999999999951
 40
0.2499999999999951
 40
0.4999999999999902
 40
0.4999999999999902
 40
0.6249999999999878
 40
0.6249999999999878
 40
0.6874999999999867
 40
0.6874999999999867
 40
0.7499999999999857
 40
0.7499999999999857
 40
0.7812499999999849
 40
0.7812499999999849
 40
0.8124999999999843
 40
0.8124999999999843
 40
0.8749999999999895
 40
0.8749999999999895
 40
0.9374999999999948
 40
0.9374999999999948
 40
1.0
 40
1.0
 40
1.0
 40
1.0
 10
397.6038214894878
 20
295.7652432119726
 30
0.0
 10
397.8561648075328
 20
295.5698050735504
 30
0.0
 10
398.1093192506051
 20
295.3846571201832
 30
0.0
 10
398.6168184930474
 20
295.0332149388227
 30
0.0
 10
398.8711640452029
 20
294.8669268413567
 30
0.0
 10
399.635144093116
 20
294.3943711085652
 30
0.0
 10
400.1457399064803
 20
294.1143608601087
 30
0.0
 10
400.9092293662138
 20
293.740798090453
 30
0.0
 10
401.1633016492769
 20
293.6240334530568
 30
0.0
 10
401.5434981682049
 20
293.4598888041334
 30
0.0
 10
401.6700825858264
 20
293.4070084404821
 30
0.0
 10
401.9230219981631
 20
293.3048352606373
 30
0.0
 10
402.0493505943798
 20
293.2555393804223
 30
0.0
 10
402.238908240735
 20
293.184259300164
 30
0.0
 10
402.3021572756889
 20
293.160939659276
 30
0.0
 10
402.4286470811073
 20
293.1152480622624
 30
0.0
 10
402.491895306852
 20
293.0928729493852
 30
0.0
 10
402.6817285395853
 20
293.0271620436296
 30
0.0
 10
402.8083979304122
 20
292.9852379076476
 30
0.0
 10
403.0624775607264
 20
292.9052285511108
 30
0.0
 10
403.1898866572539
 20
292.8671424391122
 30
0.0
 10
403.4461037211447
 20
292.7949796009688
 30
0.0
 10
403.5749091139833
 20
292.760901365097
 30
0.0
 10
403.7048419452958
 20
292.7289797515233
 30
0.0
  0
SPLINE
  5
19E
330
1F
100
AcDbEntity
  8
1
100
AcDbSpline
210
0.0
220
0.0
230
1.0
 70
     8
 71
     3
 72
    18
 73
    14
 74
     0
 42
0.000000001
 43
0.0000000001
 40
0.0
 40
0.0
 40
0.0
 40
0.0
 40
0.2500000000000007
 40
0.2500000000000007
 40
0.5000000000000015
 40
0.5000000000000015
 40
0.6250000000000018
 40
0.6250000000000018
 40
0.6875000000000006
 40
0.6875000000000006
 40
0.7499999999999992
 40
0.7499999999999992
 40
1.0
 40
1.0
 40
1.0
 40
1.0
 10
299.4982160316571
 20
269.9692139892175
 30
0.0
 10
299.7602373073562
 20
269.9576141539922
 30
0.0
 10
300.0282153625528
 20
269.9489663640935
 30
0.0
 10
300.5763404093952
 20
269.9356049725704
 30
0.0
 10
300.8564851038387
 20
269.9308922213842
 30
0.0
 10
301.2863218834062
 20
269.9256930624965
 30
0.0
 10
301.4312074519152
 20
269.924275673423
 30
0.0
 10
301.6510424895098
 20
269.922525635578
 30
0.0
 10
301.7248491868463
 20
269.9220047043056
 30
0.0
 10
301.8722823595987
 20
269.9210817823015
 30
0.0
 10
301.9460060582761
 20
269.92067882474
 30
0.0
 10
302.314659812717
 20
269.9189225049932
 30
0.0
 10
302.6096953689464
 20
269.9183143795514
 30
0.0
 10
302.9048419452599
 20
269.9183143795513
 30
0.0
  0
SPLINE
  5
19F
330
1F
100
AcDbEntity
  8
1
100
AcDbSpline
210
0.0
220
0.0
230
1.0
 70
     8
 71
     3
 72
    10
 73
     6
 74
     0
 42
0.000000001
 43
0.0000000001
 40
0.0
 40
0.0
 40
0.0
 40
0.0
 40
0.5
 40
0.5
 40
1.0
 40
1.0
 40
1.0
 40
1.0
 10
312.9741440837188
 20
269.9801149617036
 30
0.0
 10
311.3006054290145
 20
269.9452651140459
 30
0.0
 10
309.62497859434
 20
269.9238543847314
 30
0.0
 10
306.2687717508183
 20
269.9044621140729
 30
0.0
 10
304.5881883331791
 20
269.906473100699
 30
0.0
 10
302.9048419452957
 20
269.9183143795515
 30
0.0
  0
SPLINE
  5
1A0
330
1F
100
AcDbEntity
  8
1
100
AcDbSpline
210
0.0
220
0.0
230
1.0
 70
     8
 71
     3
 72
   138
 73
   134
 74
     0
 42
0.000000001
 43
0.0000000001
 40
0.0
 40
0.0
 40
0.0
 40
0.0
 40
0.0078124999999992
 40
0.0078124999999992
 40
0.0156249999999985
 40
0.0156249999999985
 40
0.0312499999999968
 40
0.046874999999995
 40
0.046874999999995
 40
0.0624999999999933
 40
0.0624999999999933
 40
0.0781249999999916
 40
0.0781249999999916
 40
0.0937499999999899
 40
0.0937499999999899
 40
0.1093749999999882
 40
0.1093749999999882
 40
0.1171874999999877
 40
0.1171874999999877
 40
0.1249999999999871
 40
0.1249999999999871
 40
0.1562499999999858
 40
0.1562499999999858
 40
0.1874999999999845
 40
0.1874999999999845
 40
0.1953124999999839
 40
0.1953124999999839
 40
0.2031249999999832
 40
0.218749999999983
 40
0.218749999999983
 40
0.2343749999999827
 40
0.2343749999999827
 40
0.2499999999999823
 40
0.2499999999999823
 40
0.2578124999999825
 40
0.2578124999999825
 40
0.2656249999999827
 40
0.2656249999999827
 40
0.2812499999999831
 40
0.2968749999999834
 40
0.2968749999999834
 40
0.304687499999984
 40
0.304687499999984
 40
0.3124999999999845
 40
0.3281249999999856
 40
0.3281249999999856
 40
0.3437499999999869
 40
0.3437499999999869
 40
0.3593749999999881
 40
0.3593749999999881
 40
0.3671874999999891
 40
0.3671874999999891
 40
0.37499999999999
 40
0.37499999999999
 40
0.4062499999999928
 40
0.4062499999999928
 40
0.4374999999999957
 40
0.4374999999999957
 40
0.4453124999999957
 40
0.4453124999999957
 40
0.4531249999999957
 40
0.4687499999999961
 40
0.4843749999999968
 40
0.4843749999999968
 40
0.4921874999999964
 40
0.4921874999999964
 40
0.4999999999999963
 40
0.4999999999999963
 40
0.5312499999999973
 40
0.5312499999999973
 40
0.5390624999999982
 40
0.5390624999999982
 40
0.546874999999999
 40
0.5624999999999992
 40
0.5624999999999992
 40
0.5781249999999996
 40
0.5781249999999996
 40
0.59375
 40
0.59375
 40
0.6093750000000004
 40
0.6093750000000004
 40
0.6250000000000007
 40
0.640625000000001
 40
0.640625000000001
 40
0.6484375000000005
 40
0.6484375000000005
 40
0.65625
 40
0.6718749999999993
 40
0.6718749999999993
 40
0.687499999999999
 40
0.687499999999999
 40
0.7031249999999984
 40
0.7031249999999984
 40
0.7109374999999987
 40
0.7109374999999987
 40
0.7187499999999991
 40
0.7187499999999991
 40
0.7500000000000015
 40
0.7500000000000015
 40
0.7578125000000023
 40
0.7578125000000023
 40
0.7656250000000029
 40
0.7812500000000031
 40
0.7812500000000031
 40
0.7968750000000031
 40
0.7968750000000031
 40
0.8125000000000031
 40
0.8125000000000031
 40
0.8203125000000031
 40
0.8203125000000031
 40
0.8281250000000031
 40
0.8281250000000031
 40
0.8437500000000023
 40
0.8593750000000015
 40
0.8593750000000015
 40
0.875000000000001
 40
0.875000000000001
 40
0.8906250000000007
 40
0.8906250000000007
 40
0.8984375000000005
 40
0.8984375000000005
 40
0.9062500000000003
 40
0.9218750000000003
 40
0.9218750000000003
 40
0.9296875000000001
 40
0.9296875000000001
 40
0.9375
 40
0.9375
 40
0.953125
 40
0.953125
 40
0.96875
 40
0.96875
 40
1.0
 40
1.0
 40
1.0
 40
1.0
 10
413.6470732233444
 20
282.5579935136928
 30
0.0
 10
413.6421173440571
 20
282.5355846942397
 30
0.0
 10
413.6371803875253
 20
282.5128289125205
 30
0.0
 10
413.6273445511553
 20
282.4666191856421
 30
0.0
 10
413.6224411137268
 20
282.4431425454505
 30
0.0
 10
413.6078387039842
 20
282.3719027199723
 30
0.0
 10
413.5886386483039
 20
282.2746828561652
 30
0.0
 10
413.5699756669531
 20
282.1730174354982
 30
0.0
 10
413.5515840433099
 20
282.0691058897537
 30
0.0
 10
413.5425601128513
 20
282.016227663351
 30
0.0
 10
413.5249096120338
 20
281.9089671967329
 30
0.0
 10
413.5162739525717
 20
281.8545337844017
 30
0.0
 10
413.4993836461595
 20
281.7440528465004
 30
0.0
 10
413.4911248143688
 20
281.6879661286281
 30
0.0
 10
413.4751209086789
 20
281.5750667670283
 30
0.0
 10
413.4673588570056
 20
281.5181468084012
 30
0.0
 10
413.4560753255356
 20
281.4320620530168
 30
0.0
 10
413.4523741294871
 20
281.4032495536989
 30
0.0
 10
413.4450923364085
 20
281.3453881450284
 30
0.0
 10
413.4415111610887
 20
281.3163329579322
 30
0.0
 10
413.4239785623073
 20
281.171047365667
 30
0.0
 10
413.4110797339917
 20
281.054300780959
 30
0.0
 10
413.3875593771971
 20
280.8199448537333
 30
0.0
 10
413.3770719232725
 20
280.7036772661162
 30
0.0
 10
413.3655398115419
 20
280.5594709520807
 30
0.0
 10
413.3633108831002
 20
280.5306618293318
 30
0.0
 10
413.3590275195193
 20
280.4733614101344
 30
0.0
 10
413.3528598538341
 20
280.3878362146475
 30
0.0
 10
413.3474581112352
 20
280.3035770444546
 30
0.0
 10
413.3409352463552
 20
280.1923545888151
 30
0.0
 10
413.3380097384428
 20
280.1372099968019
 30
0.0
 10
413.3328793723469
 20
280.0287970472358
 30
0.0
 10
413.3306699356472
 20
279.9754700982284
 30
0.0
 10
413.3278858388765
 20
279.896790158778
 30
0.0
 10
413.3270462331971
 20
279.8707821328215
 30
0.0
 10
413.3255442800386
 20
279.8192043233727
 30
0.0
 10
413.3248814368495
 20
279.7936109603602
 30
0.0
 10
413.323164542534
 20
279.7176850915683
 30
0.0
 10
413.3215988736465
 20
279.6187888656866
 30
0.0
 10
413.321464321778
 20
279.5245176891463
 30
0.0
 10
413.3219021667438
 20
279.4555554546065
 30
0.0
 10
413.3221381851907
 20
279.4328628691856
 30
0.0
 10
413.3227879060291
 20
279.3882282823667
 30
0.0
 10
413.3240294466746
 20
279.322337559475
 30
0.0
 10
413.3260661994212
 20
279.2596077861276
 30
0.0
 10
413.3294885380029
 20
279.1787770781453
 30
0.0
 10
413.3315567671083
 20
279.1397319695521
 30
0.0
 10
413.3363706298482
 20
279.0650141219966
 30
0.0
 10
413.3391183328794
 20
279.0292711445029
 30
0.0
 10
413.343749081766
 20
278.9780712883796
 30
0.0
 10
413.3453776090056
 20
278.9614074771971
 30
0.0
 10
413.3488051698107
 20
278.9288883993651
 30
0.0
 10
413.3506055121683
 20
278.9130240600835
 30
0.0
 10
413.3600023755371
 20
278.8360028176039
 30
0.0
 10
413.3687972368696
 20
278.7815114797415
 30
0.0
 10
413.3889423212028
 20
278.6867835770449
 30
0.0
 10
413.4001904544718
 20
278.6470362760889
 30
0.0
 10
413.4156977309705
 20
278.6068751639123
 30
0.0
 10
413.4188758369074
 20
278.5993126410355
 30
0.0
 10
413.4253558946126
 20
278.5851977476302
 30
0.0
 10
413.4352623015616
 20
278.5655346200264
 30
0.0
 10
413.4526948707592
 20
278.540230143158
 30
0.0
 10
413.4676172578904
 20
278.5278949398727
 30
0.0
 10
413.4791779610957
 20
278.5216317658777
 30
0.0
 10
413.4830930702234
 20
278.5200425322172
 30
0.0
 10
413.491047526242
 20
278.5178704023427
 30
0.0
 10
413.4950905111836
 20
278.5172883339685
 30
0.0
 10
413.5155294524222
 20
278.5169196509163
 30
0.0
 10
413.5326488465215
 20
278.5246912974281
 30
0.0
 10
413.5550139858882
 20
278.5445478484546
 30
0.0
 10
413.5595341276438
 20
278.5490284472413
 30
0.0
 10
413.5686370181393
 20
278.5589752780763
 30
0.0
 10
413.5823978755013
 20
278.5753854077328
 30
0.0
 10
413.5964769279284
 20
278.5962460287765
 30
0.0
 10
413.6155333471133
 20
278.6280372915415
 30
0.0
 10
413.6252196103099
 20
278.6459581642993
 30
0.0
 10
413.6447407811624
 20
278.6855533721311
 30
0.0
 10
413.6545878863524
 20
278.7072424695303
 30
0.0
 10
413.6744551928911
 20
278.7544048893607
 30
0.0
 10
413.6844863336053
 20
278.7799080341102
 30
0.0
 10
413.7046762837764
 20
278.834625503506
 30
0.0
 10
413.7249227695494
 20
278.892853708247
 30
0.0
 10
413.7452817703243
 20
278.9580688448053
 30
0.0
 10
413.7605936411566
 20
279.0096268202066
 30
0.0
 10
413.7657080878661
 20
279.0272669545245
 30
0.0
 10
413.7759126604581
 20
279.0633004125256
 30
0.0
 10
413.7911954845536
 20
279.118521405214
 30
0.0
 10
413.8064065458471
 20
279.177238175855
 30
0.0
 10
413.8266238753872
 20
279.2586489981466
 30
0.0
 10
413.8367185478388
 20
279.3009979229525
 30
0.0
 10
413.8567023891201
 20
279.3882528870602
 30
0.0
 10
413.8666022112911
 20
279.4331953689144
 30
0.0
 10
413.8813138990598
 20
279.5025801319392
 30
0.0
 10
413.8861947657314
 20
279.5260372023943
 30
0.0
 10
413.8959101950267
 20
279.5736124814795
 30
0.0
 10
413.9007492251726
 20
279.5977535526952
 30
0.0
 10
413.9247699786132
 20
279.719832714915
 30
0.0
 10
413.9433853716235
 20
279.8216227806021
 30
0.0
 10
413.9659011945601
 20
279.9540318665076
 30
0.0
 10
413.9703670395566
 20
279.9807779526533
 30
0.0
 10
413.9791871010488
 20
280.0345757290256
 30
0.0
 10
413.9922633108189
 20
280.1158103382221
 30
0.0
 10
414.0048804392121
 20
280.1986498109715
 30
0.0
 10
414.021293929866
 20
280.3105334433889
 30
0.0
 10
414.0293056991117
 20
280.3672695887991
 30
0.0
 10
414.0447953499855
 20
280.4813088515084
 30
0.0
 10
414.0522875216643
 20
280.5387036983728
 30
0.0
 10
414.0631477238968
 20
280.6253574176979
 30
0.0
 10
414.0667047222879
 20
280.654335654461
 30
0.0
 10
414.073692013321
 20
280.7124802984016
 30
0.0
 10
414.0771250941615
 20
280.7416717725391
 30
0.0
 10
414.0871964334423
 20
280.8292106555591
 30
0.0
 10
414.1000362700953
 20
280.9459801681043
 30
0.0
 10
414.1117083061861
 20
281.062850867195
 30
0.0
 10
414.1227922373842
 20
281.179772523876
 30
0.0
 10
414.1280145832553
 20
281.237993539832
 30
0.0
 10
414.1378049498769
 20
281.3537140642808
 30
0.0
 10
414.1423767996977
 20
281.4112539043766
 30
0.0
 10
414.1487487231541
 20
281.49708218795
 30
0.0
 10
414.1507934958778
 20
281.5256386443401
 30
0.0
 10
414.1547096765239
 20
281.5824399193269
 30
0.0
 10
414.1603224863983
 20
281.667147968162
 30
0.0
 10
414.1651577828222
 20
281.7503874022229
 30
0.0
 10
414.169476515923
 20
281.832651120008
 30
0.0
 10
414.1708299186833
 20
281.8599095867932
 30
0.0
 10
414.1733636854986
 20
281.9140996743143
 30
0.0
 10
414.1745436177037
 20
281.9410262251525
 30
0.0
 10
414.1778106208528
 20
282.0210042773513
 30
0.0
 10
414.1796303232214
 20
282.0733602685525
 30
0.0
 10
414.1825588615462
 20
282.1761622344705
 30
0.0
 10
414.1836681044255
 20
282.2266358105593
 30
0.0
 10
414.185919501947
 20
282.3749986591649
 30
0.0
 10
414.1859786731404
 20
282.468950515728
 30
0.0
 10
414.1846100021661
 20
282.5579935136884
 30
0.0
  0
SPLINE
  5
1A1
330
1F
100
AcDbEntity
  8
1
100
AcDbSpline
210
0.0
220
0.0
230
1.0
 70
     8
 71
     3
 72
    20
 73
    16
 74
     0
 42
0.000000001
 43
0.0000000001
 40
0.0
 40
0.0
 40
0.0
 40
0.0
 40
0.25
 40
0.25
 40
0.375
 40
0.375
 40
0.5
 40
0.5
 40
0.625
 40
0.625
 40
0.75
 40
0.75
 40
0.875
 40
0.875
 40
1.0
 40
1.0
 40
1.0
 40
1.0
 10
292.0322589432653
 20
270.2578263371841
 30
0.0
 10
292.6512878940943
 20
270.2218432480537
 30
0.0
 10
293.2723047518034
 20
270.1899298286108
 30
0.0
 10
294.2048717579618
 20
270.1463361779516
 30
0.0
 10
294.5159055053531
 20
270.1325297231469
 30
0.0
 10
295.1381061576551
 20
270.1062074278184
 30
0.0
 10
295.449272038978
 20
270.0936919724872
 30
0.0
 10
296.0716228944944
 20
270.0698853686406
 30
0.0
 10
296.3828073164335
 20
270.058595052483
 30
0.0
 10
297.0052173012822
 20
270.0372469084792
 30
0.0
 10
297.3164429883009
 20
270.0271902752171
 30
0.0
 10
297.9391007064285
 20
270.0083612390371
 30
0.0
 10
298.2505335252676
 20
269.9995901324198
 30
0.0
 10
298.8738999028834
 20
269.9833889463209
 30
0.0
 10
299.1858346827751
 20
269.9759599369329
 30
0.0
 10
299.4982160316577
 20
269.9692139892175
 30
0.0
  0
SPLINE
  5
1A2
330
1F
100
AcDbEntity
  8
1
100
AcDbSpline
210
0.0
220
0.0
230
1.0
 70
     8
 71
     3
 72
    55
 73
    51
 74
     0
 42
0.000000001
 43
0.0000000001
 40
0.0
 40
0.0
 40
0.0
 40
0.0
 40
0.0312499999999986
 40
0.0312499999999986
 40
0.0624999999999972
 40
0.0937499999999958
 40
0.0937499999999958
 40
0.1249999999999944
 40
0.1249999999999944
 40
0.187499999999992
 40
0.187499999999992
 40
0.2187499999999913
 40
0.2187499999999913
 40
0.2499999999999906
 40
0.2812499999999899
 40
0.2812499999999899
 40
0.3124999999999892
 40
0.3124999999999892
 40
0.3749999999999891
 40
0.3749999999999891
 40
0.4062499999999904
 40
0.4062499999999904
 40
0.4374999999999917
 40
0.4687499999999929
 40
0.4687499999999929
 40
0.4999999999999943
 40
0.4999999999999943
 40
0.5624999999999942
 40
0.5624999999999942
 40
0.5937499999999935
 40
0.5937499999999935
 40
0.6249999999999929
 40
0.6562499999999922
 40
0.6562499999999922
 40
0.6874999999999917
 40
0.6874999999999917
 40
0.7499999999999916
 40
0.7499999999999916
 40
0.7812499999999928
 40
0.7812499999999928
 40
0.8124999999999939
 40
0.8437499999999948
 40
0.8437499999999948
 40
0.8749999999999962
 40
0.8749999999999962
 40
0.9374999999999975
 40
0.9374999999999975
 40
0.9687499999999987
 40
0.9687499999999987
 40
1.0
 40
1.0
 40
1.0
 40
1.0
 10
414.1846100021666
 20
282.5579935136877
 30
0.0
 10
414.1804525511337
 20
282.5928463139205
 30
0.0
 10
414.1761652494378
 20
282.626900789252
 30
0.0
 10
414.1673620965464
 20
282.6931913679306
 30
0.0
 10
414.1583217889534
 20
282.7577364421848
 30
0.0
 10
414.1488082494564
 20
282.8187984381955
 30
0.0
 10
414.1390565322979
 20
282.8781074006012
 30
0.0
 10
414.1340694815077
 20
282.9068333759263
 30
0.0
 10
414.1188319889838
 20
282.9899229002369
 30
0.0
 10
414.1082845372454
 20
283.0413394171111
 30
0.0
 10
414.0918760889298
 20
283.1124628014917
 30
0.0
 10
414.0863162860501
 20
283.1351306442447
 30
0.0
 10
414.0750611378973
 20
283.1782148993404
 30
0.0
 10
414.0636576199218
 20
283.2191041792567
 30
0.0
 10
414.0519575105833
 20
283.2556057024919
 30
0.0
 10
414.0401078579173
 20
283.2898948897793
 30
0.0
 10
414.0341155855308
 20
283.3059083194123
 30
0.0
 10
414.0160140816619
 20
283.3503601206554
 30
0.0
 10
414.0037511691293
 20
283.3753076163698
 30
0.0
 10
413.9850611629917
 20
283.4056317474367
 30
0.0
 10
413.9787883834925
 20
283.4145396875423
 30
0.0
 10
413.9662151537268
 20
283.4298786468258
 30
0.0
 10
413.9535978997346
 20
283.44276832002
 30
0.0
 10
413.940892530344
 20
283.4507556964984
 30
0.0
 10
413.9281426725495
 20
283.4562679623861
 30
0.0
 10
413.9217511661277
 20
283.4577799656153
 30
0.0
 10
413.9026215016201
 20
283.4585665892341
 30
0.0
 10
413.8898928632001
 20
283.4541209752743
 30
0.0
 10
413.8708370186736
 20
283.4399150066125
 30
0.0
 10
413.8644958415488
 20
283.4339195379823
 30
0.0
 10
413.8519018217431
 20
283.4194740340284
 30
0.0
 10
413.8393776775313
 20
283.4025617480349
 30
0.0
 10
413.826993402256
 20
283.3807117411139
 30
0.0
 10
413.8146797591593
 20
283.3563682428345
 30
0.0
 10
413.8085616358828
 20
283.3429515073779
 30
0.0
 10
413.7904256454028
 20
283.2991939610108
 30
0.0
 10
413.7785883805938
 20
283.2652869378575
 30
0.0
 10
413.7612164385378
 20
283.2072512457235
 30
0.0
 10
413.7554939309523
 20
283.1867155904777
 30
0.0
 10
413.7442478453418
 20
283.1434927643605
 30
0.0
 10
413.7331832036306
 20
283.0980618803123
 30
0.0
 10
413.7224814551642
 20
283.0482148141278
 30
0.0
 10
413.7119628303182
 20
282.9961392488755
 30
0.0
 10
413.7068009569453
 20
282.9690110047985
 30
0.0
 10
413.6916849448954
 20
282.8847757954906
 30
0.0
 10
413.6820689913305
 20
282.824680350455
 30
0.0
 10
413.6683428453888
 20
282.72858054351
 30
0.0
 10
413.6638922520562
 20
282.6956046597647
 30
0.0
 10
413.6552770366949
 20
282.6280562394838
 30
0.0
 10
413.6511066119888
 20
282.5934436282192
 30
0.0
 10
413.6470732233446
 20
282.5579935136935
 30
0.0
  0
SPLINE
  5
1A8
330
1F
100
AcDbEntity
  8
1
100
AcDbSpline
210
0.0
220
0.0
230
1.0
 70
     8
 71
     3
 72
    10
 73
     6
 74
     0
 42
0.000000001
 43
0.0000000001
 40
0.0
 40
0.0
 40
0.0
 40
0.0
 40
0.5
 40
0.5
 40
1.0
 40
1.0
 40
1.0
 40
1.0
 10
280.7185504442806
 20
281.4039074372492
 30
0.0
 10
280.4932935850335
 20
281.1886278058729
 30
0.0
 10
280.2710753744611
 20
280.9657760470662
 30
0.0
 10
279.833049156783
 20
280.5034055477831
 30
0.0
 10
279.6172394761133
 20
280.26389328496
 30
0.0
 10
279.4048419452957
 20
280.015082536989
 30
0.0
  0
SPLINE
  5
1A9
330
1F
100
AcDbEntity
  8
1
100
AcDbSpline
210
0.0
220
0.0
230
1.0
 70
     8
 71
     3
 72
     8
 73
     4
 74
     0
 42
0.000000001
 43
0.0000000001
 40
0.0
 40
0.0
 40
0.0
 40
0.0
 40
1.0
 40
1.0
 40
1.0
 40
1.0
 10
397.3015117015576
 20
295.9979184810982
 30
0.0
 10
397.4032874991918
 20
295.9200620129511
 30
0.0
 10
397.5040703751705
 20
295.8424997537302
 30
0.0
 10
397.603821489488
 20
295.7652432119726
 30
0.0
  0
SPLINE
  5
1AA
330
1F
100
AcDbEntity
  8
1
100
AcDbSpline
210
0.0
220
0.0
230
1.0
 70
     8
 71
     3
 72
     8
 73
     4
 74
     0
 42
0.000000001
 43
0.0000000001
 40
0.0
 40
0.0
 40
0.0
 40
0.0
 40
1.0
 40
1.0
 40
1.0
 40
1.0
 10
397.301511701559
 20
295.9979184810995
 30
0.0
 10
397.0012530499507
 20
296.1830804157711
 30
0.0
 10
396.6968358730497
 20
296.3701206334464
 30
0.0
 10
396.3886416911881
 20
296.558866812664
 30
0.0
  0
SPLINE
  5
1AB
330
1F
100
AcDbEntity
  8
1
100
AcDbSpline
210
0.0
220
0.0
230
1.0
 70
     8
 71
     3
 72
    44
 73
    40
 74
     0
 42
0.000000001
 43
0.0000000001
 40
0.0
 40
0.0
 40
0.0
 40
0.0
 40
0.1250000000000136
 40
0.1250000000000136
 40
0.2500000000000272
 40
0.2500000000000272
 40
0.3750000000000381
 40
0.3750000000000381
 40
0.4375000000000437
 40
0.4375000000000437
 40
0.5000000000000493
 40
0.5000000000000493
 40
0.5625000000000549
 40
0.5625000000000549
 40
0.6250000000000604
 40
0.6250000000000604
 40
0.6562500000000573
 40
0.6562500000000573
 40
0.6875000000000542
 40
0.6875000000000542
 40
0.718750000000051
 40
0.718750000000051
 40
0.7500000000000479
 40
0.7500000000000479
 40
0.8125000000000415
 40
0.8125000000000415
 40
0.8281250000000458
 40
0.8281250000000458
 40
0.84375000000005
 40
0.875000000000074
 40
0.875000000000074
 40
0.8906250000000742
 40
0.8906250000000742
 40
0.9062500000000742
 40
0.9375000000000495
 40
0.9375000000000495
 40
0.9687500000000246
 40
0.9687500000000246
 40
1.0
 40
1.0
 40
1.0
 40
1.0
 10
396.3886416911926
 20
296.5588668126618
 30
0.0
 10
396.3520663939995
 20
296.5812664814592
 30
0.0
 10
396.3165400084508
 20
296.6047592012837
 30
0.0
 10
396.2477965837958
 20
296.6541659941341
 30
0.0
 10
396.2145757883889
 20
296.6800761736543
 30
0.0
 10
396.1508486292045
 20
296.7347522937838
 30
0.0
 10
396.1203320863364
 20
296.7635077325097
 30
0.0
 10
396.0771843184133
 20
296.8094049211859
 30
0.0
 10
396.0632431869392
 20
296.8251683874072
 30
0.0
 10
396.0364221561015
 20
296.8578100674402
 30
0.0
 10
396.0236421903959
 20
296.8745693241494
 30
0.0
 10
395.9996759855748
 20
296.9090047180232
 30
0.0
 10
395.9884727130678
 20
296.9266963356126
 30
0.0
 10
395.9680129397278
 20
296.9632578673158
 30
0.0
 10
395.9587495242416
 20
296.9821237071903
 30
0.0
 10
395.9468049044714
 20
297.0115970615379
 30
0.0
 10
395.9431415873903
 20
297.0216533571043
 30
0.0
 10
395.936675007704
 20
297.0420040962565
 30
0.0
 10
395.933864967943
 20
297.0523068006269
 30
0.0
 10
395.9292308623685
 20
297.0732073522628
 30
0.0
 10
395.9274059066379
 20
297.0838049427741
 30
0.0
 10
395.9249366408537
 20
297.1053516766227
 30
0.0
 10
395.9243008786939
 20
297.1163206824104
 30
0.0
 10
395.9245295568816
 20
297.1490608409413
 30
0.0
 10
395.9274472823583
 20
297.1708986065839
 30
0.0
 10
395.9357899936881
 20
297.1982010162494
 30
0.0
 10
395.9377030510541
 20
297.2036696603692
 30
0.0
 10
395.9419527279483
 20
297.2143821424558
 30
0.0
 10
395.948985039207
 20
297.2301962449377
 30
0.0
 10
395.9580014392469
 20
297.2452411689464
 30
0.0
 10
395.9683750104336
 20
297.2597584033236
 30
0.0
 10
395.9720650506679
 20
297.2645122656571
 30
0.0
 10
395.9797522385247
 20
297.2736726204857
 30
0.0
 10
395.9917911615239
 20
297.2869618776438
 30
0.0
 10
396.0052623614979
 20
297.2989785145504
 30
0.0
 10
396.0243723704373
 20
297.3139794059165
 30
0.0
 10
396.0344323876563
 20
297.3209076878071
 30
0.0
 10
396.0551300434511
 20
297.3336050526317
 30
0.0
 10
396.0658125234429
 20
297.3394087709432
 30
0.0
 10
396.0767805499718
 20
297.3447460691373
 30
0.0
  0
SPLINE
  5
1AC
330
1F
100
AcDbEntity
  8
1
100
AcDbSpline
210
0.0
220
0.0
230
1.0
 70
     8
 71
     3
 72
    16
 73
    12
 74
     0
 42
0.000000001
 43
0.0000000001
 40
0.0
 40
0.0
 40
0.0
 40
0.0
 40
0.2296211135687669
 40
0.2296211135687669
 40
0.4592422271375339
 40
0.4592422271375339
 40
0.6888633407063009
 40
0.6888633407063009
 40
0.9184844542750699
 40
0.9184844542750699
 40
1.0
 40
1.0
 40
1.0
 40
1.0
 10
330.8599931865811
 20
273.318647526562
 30
0.0
 10
331.5009916798282
 20
273.4609218191127
 30
0.0
 10
332.1436260032989
 20
273.5995919097736
 30
0.0
 10
333.4319377109661
 20
273.8690257211536
 30
0.0
 10
334.0776109218526
 20
273.9997985174461
 30
0.0
 10
335.3714803300538
 20
274.2542574683531
 30
0.0
 10
336.0196725862781
 20
274.3779565608207
 30
0.0
 10
337.3179010251627
 20
274.6202549670957
 30
0.0
 10
337.9679341658778
 20
274.7388668216218
 30
0.0
 10
338.84948300855
 20
274.8979986687867
 30
0.0
 10
339.0805122564431
 20
274.9395436752899
 30
0.0
 10
339.3115956244934
 20
274.9810130797914
 30
0.0
  0
SPLINE
  5
1AD
330
1F
100
AcDbEntity
  8
1
100
AcDbSpline
210
0.0
220
0.0
230
1.0
 70
    12
 71
     3
 72
     9
 73
     5
 74
     0
 42
0.000000001
 43
0.0000000001
 40
0.0
 40
0.0
 40
0.0
 40
0.0
 40
0.9714735046707195
 40
1.0
 40
1.0
 40
1.0
 40
1.0
 10
330.8599931865927
 20
273.3186475265632
 30
0.0
 41
1.003714852528144
 10
334.2981995159573
 20
273.6721717749881
 30
0.0
 41
1.00460424790349
 10
337.805757038887
 20
274.0543971904017
 30
0.0
 41
1.005463046090506
 10
341.3495961016534
 20
274.5311485501566
 30
0.0
 41
1.005902883416027
 10
341.4506771401162
 20
274.5448224338659
 30
0.0
 41
1.00591508716266
  0
SPLINE
  5
1AE
330
1F
100
AcDbEntity
  8
1
100
AcDbSpline
210
0.0
220
0.0
230
1.0
 70
     8
 71
     3
 72
    22
 73
    18
 74
     0
 42
0.000000001
 43
0.0000000001
 40
0.0
 40
0.0
 40
0.0
 40
0.0
 40
0.125
 40
0.125
 40
0.25
 40
0.25
 40
0.375
 40
0.375
 40
0.5
 40
0.5
 40
0.625
 40
0.625
 40
0.75
 40
0.75
 40
0.875
 40
0.875
 40
1.0
 40
1.0
 40
1.0
 40
1.0
 10
397.7080192078044
 20
292.7197789297724
 30
0.0
 10
397.4406213301088
 20
292.8500496443593
 30
0.0
 10
397.1711455869238
 20
292.9843183167404
 30
0.0
 10
396.6289315375663
 20
293.2591330597207
 30
0.0
 10
396.3561879378195
 20
293.3996893155257
 30
0.0
 10
395.8080249056628
 20
293.6859503153817
 30
0.0
 10
395.532602675415
 20
293.8316604426679
 30
0.0
 10
394.9794959701953
 20
294.1274334135114
 30
0.0
 10
394.7018099064155
 20
294.2774993140456
 30
0.0
 10
394.1444776419726
 20
294.5814025548771
 30
0.0
 10
393.8647882206697
 20
294.735265163334
 30
0.0
 10
393.303847107684
 20
295.0462304971689
 30
0.0
 10
393.0239619644002
 20
295.2025750318264
 30
0.0
 10
392.4652143734964
 20
295.5167697528523
 30
0.0
 10
392.1863523511513
 20
295.6746205653268
 30
0.0
 10
391.6295395854162
 20
295.9916638100434
 30
0.0
 10
391.3515891100163
 20
296.1508566368306
 30
0.0
 10
391.07405122257
 20
296.3106568913996
 30
0.0
  0
SPLINE
  5
1AF
330
1F
100
AcDbEntity
  8
1
100
AcDbSpline
210
0.0
220
0.0
230
1.0
 70
     8
 71
     3
 72
    34
 73
    30
 74
     0
 42
0.000000001
 43
0.0000000001
 40
0.0
 40
0.0
 40
0.0
 40
0.0
 40
0.0303500460670309
 40
0.0303500460670309
 40
0.0949933763292279
 40
0.0949933763292279
 40
0.1596367065914249
 40
0.1596367065914249
 40
0.2242800368536217
 40
0.2242800368536217
 40
0.2566017019847209
 40
0.2566017019847209
 40
0.2889233671158201
 40
0.2889233671158201
 40
0.3535666973780182
 40
0.3535666973780182
 40
0.4182100276402165
 40
0.4182100276402165
 40
0.4828533579024146
 40
0.4828533579024146
 40
0.5474966881646127
 40
0.5474966881646127
 40
0.6121400184268109
 40
0.6121400184268109
 40
0.7414266789512072
 40
0.7414266789512072
 40
0.8707133394756036
 40
0.8707133394756036
 40
1.0
 40
1.0
 40
1.0
 40
1.0
 10
346.2986784366823
 20
273.6131976322355
 30
0.0
 10
345.9617213418941
 20
273.5507053128185
 30
0.0
 10
345.6247199309504
 20
273.4889410257683
 30
0.0
 10
344.5697754358617
 20
273.2979295068915
 30
0.0
 10
343.8516570846101
 20
273.1712889003904
 30
0.0
 10
342.4147827443666
 20
272.9249971712125
 30
0.0
 10
341.6960252332061
 20
272.8053499629658
 30
0.0
 10
340.2576026624513
 20
272.5734396087635
 30
0.0
 10
339.5379538239879
 20
272.4611420777549
 30
0.0
 10
338.4579728045603
 20
272.2978883434878
 30
0.0
 10
338.0978941560794
 20
272.244337145174
 30
0.0
 10
337.377586991242
 20
272.1389346417134
 30
0.0
 10
337.0173127065116
 20
272.0870769790557
 30
0.0
 10
335.9367886397791
 20
271.9340887486353
 30
0.0
 10
335.2167571507778
 20
271.8355252263631
 30
0.0
 10
333.7774227618004
 20
271.6451543699569
 30
0.0
 10
333.0581201042107
 20
271.5533478684893
 30
0.0
 10
331.6202791313118
 20
271.3765323424424
 30
0.0
 10
330.9017409191721
 20
271.2915243978198
 30
0.0
 10
329.4654015768327
 20
271.1284596305825
 30
0.0
 10
328.7476004124299
 20
271.0504040486622
 30
0.0
 10
327.3126438765028
 20
270.9014748413988
 30
0.0
 10
326.5954883469776
 20
270.8306025180229
 30
0.0
 10
324.4447618902788
 20
270.6291627159763
 30
0.0
 10
323.0119531805852
 20
270.5097944813286
 30
0.0
 10
320.1465146578107
 20
270.3029102948715
 30
0.0
 10
318.7138728766881
 20
270.2154243333471
 30
0.0
 10
315.8463505509409
 20
270.0733056459235
 30
0.0
 10
314.4114576568274
 20
270.0186871664439
 30
0.0
 10
312.974144083719
 20
269.9801149617036
 30
0.0
  0
SPLINE
  5
1B0
330
1F
100
AcDbEntity
  8
1
100
AcDbSpline
210
0.0
220
0.0
230
1.0
 70
     8
 71
     3
 72
    28
 73
    24
 74
     0
 42
0.000000001
 43
0.0000000001
 40
0.0
 40
0.0
 40
0.0
 40
0.0
 40
0.1249999999999613
 40
0.1249999999999613
 40
0.2499999999999226
 40
0.2499999999999226
 40
0.3124999999999033
 40
0.3124999999999033
 40
0.3749999999998839
 40
0.3749999999998839
 40
0.4999999999998836
 40
0.4999999999998836
 40
0.6249999999998833
 40
0.6249999999998833
 40
0.6874999999998832
 40
0.6874999999998832
 40
0.7187499999999029
 40
0.7187499999999029
 40
0.7499999999999226
 40
0.7499999999999226
 40
0.874999999999961
 40
0.874999999999961
 40
1.0
 40
1.0
 40
1.0
 40
1.0
 10
406.286582374122
 20
294.8088625211028
 30
0.0
 10
406.2113300021847
 20
294.7630614079775
 30
0.0
 10
406.1345888940916
 20
294.7215711504652
 30
0.0
 10
405.9779448513891
 20
294.6467587032782
 30
0.0
 10
405.8980453505352
 20
294.613439630825
 30
0.0
 10
405.7756203181843
 20
294.5695861036656
 30
0.0
 10
405.7343816161033
 20
294.5559922832197
 30
0.0
 10
405.6509927654192
 20
294.5308908763172
 30
0.0
 10
405.608819437815
 20
294.5193849381607
 30
0.0
 10
405.4821714537045
 20
294.4883780309789
 30
0.0
 10
405.3971489668213
 20
294.4722419916953
 30
0.0
 10
405.2258046315018
 20
294.4490708525914
 30
0.0
 10
405.1394805900791
 20
294.4420395233087
 30
0.0
 10
405.0089514263722
 20
294.4385493833809
 30
0.0
 10
404.9652683510716
 20
294.4385638406936
 30
0.0
 10
404.8994809640996
 20
294.4403936339746
 30
0.0
 10
404.8775257548127
 20
294.4413057571035
 30
0.0
 10
404.8338371177148
 20
294.4437167341993
 30
0.0
 10
404.8120653998276
 20
294.4452164151301
 30
0.0
 10
404.7035507191753
 20
294.454161570091
 30
0.0
 10
404.6178399035653
 20
294.4659298384481
 30
0.0
 10
404.448098972664
 20
294.4983428622091
 30
0.0
 10
404.3640674117439
 20
294.5189865569174
 30
0.0
 10
404.2806316371064
 20
294.5441259081526
 30
0.0
  0
SPLINE
  5
1B1
330
1F
100
AcDbEntity
  8
1
100
AcDbSpline
210
0.0
220
0.0
230
1.0
 70
     8
 71
     3
 72
    27
 73
    23
 74
     0
 42
0.000000001
 43
0.0000000001
 40
0.0
 40
0.0
 40
0.0
 40
0.0
 40
0.1250000000000087
 40
0.2500000000000173
 40
0.3750000000000261
 40
0.4062500000000281
 40
0.4062500000000281
 40
0.4375000000000302
 40
0.4375000000000302
 40
0.5000000000000228
 40
0.5000000000000228
 40
0.6250000000000079
 40
0.6250000000000079
 40
0.6874999999999945
 40
0.6874999999999945
 40
0.7187499999999878
 40
0.7187499999999878
 40
0.7499999999999868
 40
0.7499999999999868
 40
0.8749999999999932
 40
0.8749999999999932
 40
1.0
 40
1.0
 40
1.0
 40
1.0
 10
404.2823956729575
 20
294.2115457353149
 30
0.0
 10
403.9907947639555
 20
294.2013021810506
 30
0.0
 10
403.4092526476008
 20
294.2008890340995
 30
0.0
 10
402.5418320264614
 20
294.2594077187304
 30
0.0
 10
401.8949254900596
 20
294.3474812512416
 30
0.0
 10
401.5368183722563
 20
294.4119120836696
 30
0.0
 10
401.3936791065559
 20
294.4389329369836
 30
0.0
 10
401.3221939064673
 20
294.4530616861674
 30
0.0
 10
401.1083894949307
 20
294.4972193279002
 30
0.0
 10
400.9665690587748
 20
294.5290473698092
 30
0.0
 10
400.5432421237206
 20
294.6316475775154
 30
0.0
 10
400.2638674014836
 20
294.7095276969614
 30
0.0
 10
399.8490649785015
 20
294.8405066640946
 30
0.0
 10
399.7115080974372
 20
294.88652816286
 30
0.0
 10
399.5062439174465
 20
294.9591138617165
 30
0.0
 10
399.437968658065
 20
294.9839138510192
 30
0.0
 10
399.301997171498
 20
295.0346184727266
 30
0.0
 10
399.2342904826352
 20
295.0605260809078
 30
0.0
 10
398.8971467416678
 20
295.1928259740853
 30
0.0
 10
398.6318736590615
 20
295.3074947122141
 30
0.0
 10
398.1101518647441
 20
295.5542641263822
 30
0.0
 10
397.8537031273178
 20
295.6863653190094
 30
0.0
 10
397.6017023233117
 20
295.8271816593985
 30
0.0
  0
SPLINE
  5
1B2
330
1F
100
AcDbEntity
  8
1
100
AcDbSpline
210
0.0
220
0.0
230
1.0
 70
     8
 71
     3
 72
     8
 73
     4
 74
     0
 42
0.000000001
 43
0.0000000001
 40
0.0
 40
0.0
 40
0.0
 40
0.0
 40
1.0
 40
1.0
 40
1.0
 40
1.0
 10
404.2823956729575
 20
294.2115457353148
 30
0.0
 10
404.285953258954
 20
294.2116707086057
 30
0.0
 10
404.2895118646557
 20
294.2117952833543
 30
0.0
 10
404.2930714918051
 20
294.2119194588795
 30
0.0
  0
SPLINE
  5
1B3
330
1F
100
AcDbEntity
  8
1
100
AcDbSpline
210
0.0
220
0.0
230
1.0
 70
     8
 71
     3
 72
    27
 73
    23
 74
     0
 42
0.000000001
 43
0.0000000001
 40
0.0
 40
0.0
 40
0.0
 40
0.0
 40
0.1249999999999717
 40
0.1249999999999717
 40
0.2499999999999434
 40
0.2499999999999434
 40
0.3124999999999347
 40
0.3124999999999347
 40
0.3749999999999259
 40
0.3749999999999259
 40
0.4999999999998972
 40
0.4999999999998972
 40
0.5312499999998986
 40
0.5312499999998986
 40
0.5624999999998999
 40
0.5624999999998999
 40
0.6249999999999142
 40
0.6249999999999142
 40
0.7499999999999428
 40
0.8749999999999714
 40
0.8749999999999714
 40
1.0
 40
1.0
 40
1.0
 40
1.0
 10
397.7304002904031
 20
292.0656303672817
 30
0.0
 10
397.9795571748955
 20
291.9112452262043
 30
0.0
 10
398.2338524333981
 20
291.7663857288462
 30
0.0
 10
398.7526355430091
 20
291.4957542407227
 30
0.0
 10
399.0171230249886
 20
291.3699813686917
 30
0.0
 10
399.4215421310731
 20
291.1958479345629
 30
0.0
 10
399.5576956156794
 20
291.1402078392285
 30
0.0
 10
399.831432022741
 20
291.0342568123253
 30
0.0
 10
399.9691489188169
 20
290.9838849202366
 30
0.0
 10
400.3848309662731
 20
290.8405543381342
 30
0.0
 10
400.6653240013862
 20
290.7553706361792
 30
0.0
 10
401.0201572075341
 20
290.6619162432919
 30
0.0
 10
401.0913349666523
 20
290.643877417812
 30
0.0
 10
401.2341138849071
 20
290.6091086633257
 30
0.0
 10
401.305763908177
 20
290.5923681601344
 30
0.0
 10
401.5208916081038
 20
290.5442199540286
 30
0.0
 10
401.6645706265985
 20
290.5148741855153
 30
0.0
 10
402.0963790409407
 20
290.434996244334
 30
0.0
 10
402.6741783009453
 20
290.3502279716471
 30
0.0
 10
403.256032690714
 20
290.3084263759151
 30
0.0
 10
403.8399235509408
 20
290.2882198857424
 30
0.0
 10
404.1328871242122
 20
290.288913235685
 30
0.0
 10
404.4268919851244
 20
290.3006482792839
 30
0.0
  0
SPLINE
  5
1B4
330
1F
100
AcDbEntity
  8
1
100
AcDbSpline
210
0.0
220
0.0
230
1.0
 70
     8
 71
     3
 72
    28
 73
    24
 74
     0
 42
0.000000001
 43
0.0000000001
 40
0.0
 40
0.0
 40
0.0
 40
0.0
 40
0.0624999999999978
 40
0.0624999999999978
 40
0.1249999999999955
 40
0.1249999999999955
 40
0.249999999999991
 40
0.249999999999991
 40
0.3124999999999889
 40
0.3124999999999889
 40
0.3749999999999868
 40
0.3749999999999868
 40
0.499999999999994
 40
0.499999999999994
 40
0.6250000000000011
 40
0.6250000000000011
 40
0.6875000000000046
 40
0.6875000000000046
 40
0.7500000000000079
 40
0.7500000000000079
 40
0.8750000000000039
 40
0.8750000000000039
 40
1.0
 40
1.0
 40
1.0
 40
1.0
 10
403.7048419452957
 20
291.5937109332538
 30
0.0
 10
403.5727365501201
 20
291.5855064912013
 30
0.0
 10
403.4414303025693
 20
291.579034998639
 30
0.0
 10
403.1799424122223
 20
291.5697220142373
 30
0.0
 10
403.0497627209075
 20
291.5668801399765
 30
0.0
 10
402.6604212516758
 20
291.5640088230374
 30
0.0
 10
402.4024256555563
 20
291.569638113925
 30
0.0
 10
402.0166059355553
 20
291.5901166097953
 30
0.0
 10
401.8881871362594
 20
291.5989486481831
 30
0.0
 10
401.6317201218509
 20
291.6207230698534
 30
0.0
 10
401.5039335221809
 20
291.6336427430966
 30
0.0
 10
401.1218084267413
 20
291.6785648355363
 30
0.0
 10
400.8686928338894
 20
291.7167317818392
 30
0.0
 10
400.3655494574056
 20
291.80979231786
 30
0.0
 10
400.1155286709753
 20
291.8646825347666
 30
0.0
 10
399.7429130368558
 20
291.9597709778246
 30
0.0
 10
399.6190714427137
 20
291.9936089940257
 30
0.0
 10
399.3730775993362
 20
292.0653150993789
 30
0.0
 10
399.2508209825085
 20
292.1032078247678
 30
0.0
 10
398.8862993671526
 20
292.2229834318579
 30
0.0
 10
398.6462821750679
 20
292.3109566818218
 30
0.0
 10
398.1724150746306
 20
292.5031776902457
 30
0.0
 10
397.9385240047739
 20
292.6074817609401
 30
0.0
 10
397.7080192078044
 20
292.7197789297723
 30
0.0
  0
SPLINE
  5
1B5
330
1F
100
AcDbEntity
  8
1
100
AcDbSpline
210
0.0
220
0.0
230
1.0
 70
     9
 71
     3
 72
   135
 73
   131
 74
     0
 42
0.000000001
 43
0.0000000001
 40
0.0
 40
0.0
 40
0.0
 40
0.0
 40
0.0312500000000072
 40
0.0312500000000072
 40
0.0468750000000099
 40
0.0468750000000099
 40
0.0546875000000123
 40
0.0546875000000123
 40
0.0625000000000147
 40
0.0625000000000147
 40
0.0937500000000194
 40
0.0937500000000194
 40
0.1093750000000195
 40
0.1093750000000195
 40
0.1171875000000196
 40
0.1171875000000196
 40
0.1250000000000196
 40
0.1250000000000196
 40
0.1562500000000261
 40
0.1562500000000261
 40
0.1640625000000257
 40
0.1640625000000257
 40
0.1718750000000254
 40
0.1718750000000254
 40
0.1875000000000168
 40
0.2031250000000082
 40
0.2031250000000082
 40
0.210937500000004
 40
0.210937500000004
 40
0.2187499999999997
 40
0.2187499999999997
 40
0.2499999999999739
 40
0.2499999999999739
 40
0.2656249999999565
 40
0.2656249999999565
 40
0.2734374999999521
 40
0.2734374999999521
 40
0.2812499999999479
 40
0.2812499999999479
 40
0.3124999999999483
 40
0.3124999999999483
 40
0.3203124999999525
 40
0.3203124999999525
 40
0.3281249999999567
 40
0.3281249999999567
 40
0.3437499999999652
 40
0.3593749999999737
 40
0.3593749999999737
 40
0.3671874999999779
 40
0.3671874999999779
 40
0.3749999999999821
 40
0.3749999999999821
 40
0.4062500000000057
 40
0.4062500000000057
 40
0.4218750000000175
 40
0.4218750000000175
 40
0.4296875000000215
 40
0.4296875000000215
 40
0.4375000000000254
 40
0.4375000000000254
 40
0.4687500000000446
 40
0.4687500000000446
 40
0.4765625000000494
 40
0.4765625000000494
 40
0.4843750000000541
 40
0.4843750000000541
 40
0.5000000000000636
 40
0.5000000000000636
 40
0.5312500000000832
 40
0.5312500000000832
 40
0.5390625000000889
 40
0.5390625000000889
 40
0.546875000000095
 40
0.546875000000095
 40
0.5625000000001043
 40
0.5781250000001135
 40
0.5781250000001135
 40
0.5859375000001162
 40
0.5859375000001162
 40
0.5937500000001187
 40
0.5937500000001187
 40
0.6250000000001244
 40
0.6250000000001244
 40
0.640625000000124
 40
0.640625000000124
 40
0.6484375000001239
 40
0.6484375000001239
 40
0.6562500000001237
 40
0.6562500000001237
 40
0.6875000000001225
 40
0.6875000000001225
 40
0.7031250000001218
 40
0.7031250000001218
 40
0.7187500000001213
 40
0.7187500000001213
 40
0.7500000000001111
 40
0.7500000000001111
 40
0.7578125000001064
 40
0.7578125000001064
 40
0.7656250000001016
 40
0.7656250000001016
 40
0.7812500000000921
 40
0.7968750000000826
 40
0.7968750000000826
 40
0.8046875000000779
 40
0.8046875000000779
 40
0.8125000000000731
 40
0.8125000000000731
 40
0.8437500000000712
 40
0.8437500000000712
 40
0.8515625000000671
 40
0.8515625000000671
 40
0.8593750000000628
 40
0.8593750000000628
 40
0.8750000000000543
 40
0.8750000000000543
 40
0.9062500000000312
 40
0.9062500000000312
 40
0.9140625000000291
 40
0.9140625000000291
 40
0.9218750000000268
 40
0.9218750000000268
 40
0.9375000000000216
 40
0.9531250000000166
 40
0.9531250000000166
 40
0.9609375000000143
 40
0.9609375000000143
 40
0.968750000000012
 40
0.968750000000012
 40
1.0
 40
1.0
 40
1.0
 40
1.0
 10
408.363358210799
 20
284.0293513132517
 30
0.0
 10
408.365002382017
 20
284.1235458192502
 30
0.0
 10
408.3757185428761
 20
284.2162995704216
 30
0.0
 10
408.4050536442981
 20
284.3533036973516
 30
0.0
 10
408.4170574995615
 20
284.3986145984993
 30
0.0
 10
408.4384987504403
 20
284.4660243790679
 30
0.0
 10
408.4462194080571
 20
284.4884013645259
 30
0.0
 10
408.4628370633283
 20
284.5329636262264
 30
0.0
 10
408.4716816631226
 20
284.5550051717678
 30
0.0
 10
408.5184217344588
 20
284.6637225578854
 30
0.0
 10
408.5639185738618
 20
284.7462909383507
 30
0.0
 10
408.6443223379135
 20
284.8634727269358
 30
0.0
 10
408.6731635200372
 20
284.9014140232348
 30
0.0
 10
408.7196181923467
 20
284.9565649039591
 30
0.0
 10
408.7355665195834
 20
284.9745679483522
 30
0.0
 10
408.7681917297485
 20
285.0096106927757
 30
0.0
 10
408.7848967924185
 20
285.0266840879858
 30
0.0
 10
408.8703603538436
 20
285.1098351296183
 30
0.0
 10
408.9448776766217
 20
285.1693288932403
 30
0.0
 10
409.0458840120422
 20
285.2346553676369
 30
0.0
 10
409.0664818162396
 20
285.2472645591471
 30
0.0
 10
409.1084899663074
 20
285.2715470474556
 30
0.0
 10
409.1297478387635
 20
285.2831311166085
 30
0.0
 10
409.1941248074343
 20
285.3161619945256
 30
0.0
 10
409.2816916746816
 20
285.3556940497546
 30
0.0
 10
409.3726558436457
 20
285.3863603442427
 30
0.0
 10
409.4421669099863
 20
285.4059941874839
 30
0.0
 10
409.4655523154552
 20
285.4119768068896
 30
0.0
 10
409.5127605153924
 20
285.4227983595045
 30
0.0
 10
409.536642564345
 20
285.4276473676963
 30
0.0
 10
409.6564543715515
 20
285.4488376734374
 30
0.0
 10
409.752492184542
 20
285.4559702498482
 30
0.0
 10
409.8968219066493
 20
285.4524281653473
 30
0.0
 10
409.9449776631421
 20
285.4488560532552
 30
0.0
 10
410.0172820612698
 20
285.4398081599157
 30
0.0
 10
410.0414400384051
 20
285.4361650954073
 30
0.0
 10
410.0892448582399
 20
285.4277214820074
 30
0.0
 10
410.1129511188051
 20
285.4229158387054
 30
0.0
 10
410.2305195065886
 20
285.3960228058081
 30
0.0
 10
410.3215214080862
 20
285.3654246864324
 30
0.0
 10
410.4314488134283
 20
285.3158275900229
 30
0.0
 10
410.4532412634988
 20
285.3053354693719
 30
0.0
 10
410.4964325223298
 20
285.2831843983836
 30
0.0
 10
410.5177174135453
 20
285.2715816409002
 30
0.0
 10
410.5803470458983
 20
285.2353916766313
 30
0.0
 10
410.6608607756903
 20
285.1833260459613
 30
0.0
 10
410.7355405108647
 20
285.1238478452526
 30
0.0
 10
410.7893553458661
 20
285.0764583842803
 30
0.0
 10
410.8069271452643
 20
285.0601976067337
 30
0.0
 10
410.8413285608183
 20
285.0267371821802
 30
0.0
 10
410.8581998716211
 20
285.0094919377511
 30
0.0
 10
410.9401313019418
 20
284.9214553328944
 30
0.0
 10
410.9975444827083
 20
284.8458451064609
 30
0.0
 10
411.0720379193579
 20
284.7250905202123
 30
0.0
 10
411.0949170479158
 20
284.6836065672677
 30
0.0
 10
411.1262536287786
 20
284.6195055948091
 30
0.0
 10
411.1362173778102
 20
284.5977817603097
 30
0.0
 10
411.154946091955
 20
284.5541480566918
 30
0.0
 10
411.1637352547338
 20
284.5321938826618
 30
0.0
 10
411.2048659379582
 20
284.4217538158734
 30
0.0
 10
411.2288389486551
 20
284.3312798587615
 30
0.0
 10
411.2478116752556
 20
284.2156090780923
 30
0.0
 10
411.2510517784584
 20
284.1923447979251
 30
0.0
 10
411.2564080060556
 20
284.1455529528661
 30
0.0
 10
411.2585208994206
 20
284.1220174002028
 30
0.0
 10
411.2631125932558
 20
284.051749560255
 30
0.0
 10
411.2638811461633
 20
284.0051106210173
 30
0.0
 10
411.2595195798072
 20
283.8657952983909
 30
0.0
 10
411.247783917391
 20
283.7737161997076
 30
0.0
 10
411.2218318941437
 20
283.6596220766543
 30
0.0
 10
411.2160625596141
 20
283.6368301091096
 30
0.0
 10
411.2035005976947
 20
283.5918121414285
 30
0.0
 10
411.1966965513427
 20
283.569529227663
 30
0.0
 10
411.1747399808402
 20
283.5033464871939
 30
0.0
 10
411.1413532187162
 20
283.4168758741195
 30
0.0
 10
411.0998270533579
 20
283.3338960402965
 30
0.0
 10
411.0655728052663
 20
283.2729857647093
 30
0.0
 10
411.0536355281618
 20
283.2529034833845
 30
0.0
 10
411.0287011920938
 20
283.2131886115607
 30
0.0
 10
411.0156663646971
 20
283.1935039096621
 30
0.0
 10
410.9483531860369
 20
283.0970508518714
 30
0.0
 10
410.8877084005366
 20
283.0260016811851
 30
0.0
 10
410.7866422138612
 20
282.9284146326754
 30
0.0
 10
410.7512583173354
 20
282.8973941031143
 30
0.0
 10
410.6955363418398
 20
282.8532047563351
 30
0.0
 10
410.6764928571769
 20
282.8388462873318
 30
0.0
 10
410.6376131329894
 20
282.8110192519321
 30
0.0
 10
410.6178915588905
 20
282.7976306528832
 30
0.0
 10
410.5178944426957
 20
282.7332707150018
 30
0.0
 10
410.4334917323159
 20
282.6899721733209
 30
0.0
 10
410.3001558349451
 20
282.6374455438134
 30
0.0
 10
410.2545293907416
 20
282.6220070173221
 30
0.0
 10
410.1611016306041
 20
282.5955788988856
 30
0.0
 10
410.1140776119609
 20
282.5848042021353
 30
0.0
 10
409.9721008428961
 20
282.5595827315327
 30
0.0
 10
409.8762521094701
 20
282.5521682049714
 30
0.0
 10
409.7548960800313
 20
282.5550120712888
 30
0.0
 10
409.7304757530501
 20
282.556199347625
 30
0.0
 10
409.6819906309328
 20
282.5597837662577
 30
0.0
 10
409.6578939037905
 20
282.5621777295975
 30
0.0
 10
409.5860319692903
 20
282.5711274396451
 30
0.0
 10
409.4913558586098
 20
282.587765378854
 30
0.0
 10
409.3989132743985
 20
282.6136366755741
 30
0.0
 10
409.3304261585792
 20
282.6365405378242
 30
0.0
 10
409.3077294367632
 20
282.6447630523065
 30
0.0
 10
409.2626580806749
 20
282.6623829129403
 30
0.0
 10
409.2404602203134
 20
282.6717105971649
 30
0.0
 10
409.1311124038968
 20
282.7208691883123
 30
0.0
 10
409.0488385524313
 20
282.7681853625197
 30
0.0
 10
408.9522562723
 20
282.8370207331165
 30
0.0
 10
408.9332557765737
 20
282.8512769270691
 30
0.0
 10
408.8958923592998
 20
282.8807785765863
 30
0.0
 10
408.8775150386956
 20
282.8960410947173
 30
0.0
 10
408.8239099774853
 20
282.942829401402
 30
0.0
 10
408.7900084797515
 20
282.9755011748216
 30
0.0
 10
408.6935971949047
 20
283.0778094145135
 30
0.0
 10
408.6363304442311
 20
283.1516981636728
 30
0.0
 10
408.5735980063976
 20
283.2513192397295
 30
0.0
 10
408.5615614033913
 20
283.271512192818
 30
0.0
 10
408.5385837931982
 20
283.3122647457942
 30
0.0
 10
408.5276266282407
 20
283.3328499030539
 30
0.0
 10
408.496322731665
 20
283.3952235948468
 30
0.0
 10
408.4587571578185
 20
283.480034449541
 30
0.0
 10
408.4294326925815
 20
283.5681172551675
 30
0.0
 10
408.4105798047792
 20
283.6354327119688
 30
0.0
 10
408.4048198440896
 20
283.6580804408184
 30
0.0
 10
408.3943686600412
 20
283.7038032519292
 30
0.0
 10
408.3896957650717
 20
283.7268064548508
 30
0.0
 10
408.369187253238
 20
283.8419765154782
 30
0.0
 10
408.3617140395808
 20
283.9351568072531
 30
0.0
 10
408.3633582107989
 20
284.0293513132516
 30
0.0
  0
SPLINE
  5
1B6
330
1F
100
AcDbEntity
  8
1
100
AcDbSpline
210
0.0
220
0.0
230
1.0
 70
     8
 71
     3
 72
    36
 73
    32
 74
     0
 42
0.000000001
 43
0.0000000001
 40
0.0
 40
0.0
 40
0.0
 40
0.0
 40
0.1250000000000356
 40
0.1250000000000356
 40
0.1875000000000523
 40
0.1875000000000523
 40
0.2187500000000607
 40
0.2187500000000607
 40
0.2500000000000691
 40
0.2500000000000691
 40
0.3750000000001638
 40
0.3750000000001638
 40
0.4062500000001661
 40
0.4062500000001661
 40
0.4375000000001684
 40
0.4375000000001684
 40
0.500000000000218
 40
0.500000000000218
 40
0.6250000000003161
 40
0.6250000000003161
 40
0.6562500000003113
 40
0.6562500000003113
 40
0.6875000000003066
 40
0.7500000000002984
 40
0.8125000000002899
 40
0.8125000000002899
 40
0.8437500000002525
 40
0.8437500000002525
 40
0.8750000000002154
 40
0.8750000000002154
 40
1.0
 40
1.0
 40
1.0
 40
1.0
 10
403.3452266163813
 20
295.9916011394803
 30
0.0
 10
403.3470578129643
 20
295.9404829849474
 30
0.0
 10
403.3540186370642
 20
295.8904240186921
 30
0.0
 10
403.3717143546068
 20
295.8168335068549
 30
0.0
 10
403.3788318092386
 20
295.7925550164368
 30
0.0
 10
403.3913660710929
 20
295.7565209454032
 30
0.0
 10
403.3958670062992
 20
295.7445433346803
 30
0.0
 10
403.4054372020404
 20
295.7208748832489
 30
0.0
 10
403.4104964850225
 20
295.7092035502764
 30
0.0
 10
403.4371335398871
 20
295.6516433565218
 30
0.0
 10
403.4626938448532
 20
295.6081205094701
 30
0.0
 10
403.4998852667591
 20
295.5568306408603
 30
0.0
 10
403.5075880431937
 20
295.5467298012579
 30
0.0
 10
403.523530698655
 20
295.5268472134658
 30
0.0
 10
403.5317906438907
 20
295.5170444671605
 30
0.0
 10
403.5571368528299
 20
295.4884072444776
 30
0.0
 10
403.5748404366383
 20
295.4702674189843
 30
0.0
 10
403.6303007536065
 20
295.4186217271768
 30
0.0
 10
403.6703839125765
 20
295.3878623278723
 30
0.0
 10
403.7244991912976
 20
295.3541486630388
 30
0.0
 10
403.7355451824286
 20
295.3476352042574
 30
0.0
 10
403.7578107264379
 20
295.3352275203232
 30
0.0
 10
403.7915446038718
 20
295.3174953520346
 30
0.0
 10
403.8494153564898
 20
295.2922594286213
 30
0.0
 10
403.8974547189658
 20
295.27663769169
 30
0.0
 10
403.9341519807194
 20
295.2666712390243
 30
0.0
 10
403.946495900517
 20
295.263641278107
 30
0.0
 10
403.9714117656897
 20
295.2581789101504
 30
0.0
 10
403.9840020512541
 20
295.2557448055592
 30
0.0
 10
404.0469506070165
 20
295.2451990654412
 30
0.0
 10
404.0977082134132
 20
295.2418070504848
 30
0.0
 10
404.1488750445758
 20
295.2435919756671
 30
0.0
  0
SPLINE
  5
1B7
330
1F
100
AcDbEntity
  8
1
100
AcDbSpline
210
0.0
220
0.0
230
1.0
 70
     8
 71
     3
 72
    36
 73
    32
 74
     0
 42
0.000000001
 43
0.0000000001
 40
0.0
 40
0.0
 40
0.0
 40
0.0
 40
0.1249999999997782
 40
0.1249999999997782
 40
0.1874999999997007
 40
0.1874999999997007
 40
0.2187499999996619
 40
0.2187499999996619
 40
0.2499999999996232
 40
0.2499999999996232
 40
0.3749999999996551
 40
0.3749999999996551
 40
0.4062499999996766
 40
0.4062499999996766
 40
0.4374999999996981
 40
0.4374999999996981
 40
0.4999999999996902
 40
0.4999999999996902
 40
0.6249999999997212
 40
0.6249999999997212
 40
0.6562499999997292
 40
0.6562499999997292
 40
0.6874999999997375
 40
0.7499999999997861
 40
0.8124999999998346
 40
0.8124999999998346
 40
0.8437499999998598
 40
0.8437499999998598
 40
0.8749999999998854
 40
0.8749999999998854
 40
1.0
 40
1.0
 40
1.0
 40
1.0
 10
415.287054243654
 20
295.6321408868661
 30
0.0
 10
415.3382256645148
 20
295.6339259721573
 30
0.0
 10
415.3883323302484
 20
295.6408361055896
 30
0.0
 10
415.4619865184884
 20
295.658449310832
 30
0.0
 10
415.4862849116008
 20
295.6655381732304
 30
0.0
 10
415.5223468202231
 20
295.6780278879691
 30
0.0
 10
415.5343333950949
 20
295.6825136574911
 30
0.0
 10
415.558018976277
 20
295.692053160827
 30
0.0
 10
415.5696984625375
 20
295.6970969446233
 30
0.0
 10
415.6272974102575
 20
295.7236557555429
 30
0.0
 10
415.670844879689
 20
295.7491510936745
 30
0.0
 10
415.7221576587928
 20
295.7862583827713
 30
0.0
 10
415.7322626834571
 20
295.7939441850694
 30
0.0
 10
415.7521528351126
 20
295.8098525925785
 30
0.0
 10
415.7619589654188
 20
295.8180952243706
 30
0.0
 10
415.7906050236643
 20
295.843389552269
 30
0.0
 10
415.8087490222142
 20
295.8610585072474
 30
0.0
 10
415.8604022277406
 20
295.9164148168562
 30
0.0
 10
415.8911600115506
 20
295.9564284776169
 30
0.0
 10
415.9248631113843
 20
296.0104566772193
 30
0.0
 10
415.9313740186172
 20
296.0214852117679
 30
0.0
 10
415.9437757851368
 20
296.0437161915387
 30
0.0
 10
415.9614978439656
 20
296.0773986226935
 30
0.0
 10
415.9867107861806
 20
296.1351856250461
 30
0.0
 10
416.0023078701608
 20
296.1831600127116
 30
0.0
 10
416.0122533216101
 20
296.2198093613275
 30
0.0
 10
416.0152758723127
 20
296.2321374430157
 30
0.0
 10
416.0207225817442
 20
296.2570219038369
 30
0.0
 10
416.0231484240064
 20
296.2695966020494
 30
0.0
 10
416.0336511116276
 20
296.3324686274276
 30
0.0
 10
416.0370029275361
 20
296.3831689393388
 30
0.0
 10
416.035171895198
 20
296.434282508951
 30
0.0
  0
SPLINE
  5
1B8
330
1F
100
AcDbEntity
  8
1
100
AcDbSpline
210
0.0
220
0.0
230
1.0
 70
     8
 71
     3
 72
    36
 73
    32
 74
     0
 42
0.000000001
 43
0.0000000001
 40
0.0
 40
0.0
 40
0.0
 40
0.0
 40
0.1250000000000738
 40
0.1250000000000738
 40
0.1875000000001066
 40
0.1875000000001066
 40
0.2187500000001229
 40
0.2187500000001229
 40
0.2500000000001393
 40
0.2500000000001393
 40
0.3750000000001705
 40
0.3750000000001705
 40
0.406250000000195
 40
0.406250000000195
 40
0.4375000000002194
 40
0.4375000000002194
 40
0.5000000000002233
 40
0.5000000000002233
 40
0.6250000000002251
 40
0.6250000000002251
 40
0.6562500000001967
 40
0.6562500000001967
 40
0.6875000000001683
 40
0.7500000000001076
 40
0.8125000000000468
 40
0.8125000000000468
 40
0.8437500000000508
 40
0.8437500000000508
 40
0.8750000000000545
 40
0.8750000000000545
 40
1.0
 40
1.0
 40
1.0
 40
1.0
 10
415.6365862130698
 20
307.5608675428464
 30
0.0
 10
415.6347550164869
 20
307.6119856973793
 30
0.0
 10
415.6277941923868
 20
307.6620446636346
 30
0.0
 10
415.6100984748443
 20
307.7356351754719
 30
0.0
 10
415.6029810202124
 20
307.7599136658899
 30
0.0
 10
415.5904467583583
 20
307.7959477369237
 30
0.0
 10
415.5859458231517
 20
307.8079253476464
 30
0.0
 10
415.5763756274106
 20
307.8315937990778
 30
0.0
 10
415.5713163444286
 20
307.8432651320504
 30
0.0
 10
415.5446792895639
 20
307.9008253258048
 30
0.0
 10
415.5191189845977
 20
307.9443481728565
 30
0.0
 10
415.4819275626918
 20
307.9956380414663
 30
0.0
 10
415.4742247862574
 20
308.0057388810688
 30
0.0
 10
415.4582821307961
 20
308.0256214688609
 30
0.0
 10
415.4500221855601
 20
308.0354242151662
 30
0.0
 10
415.424675976621
 20
308.0640614378491
 30
0.0
 10
415.4069723928127
 20
308.0822012633423
 30
0.0
 10
415.3515120758446
 20
308.1338469551499
 30
0.0
 10
415.3114289168745
 20
308.1646063544543
 30
0.0
 10
415.2573136381533
 20
308.198320019288
 30
0.0
 10
415.2462676470226
 20
308.2048334780693
 30
0.0
 10
415.2240021030133
 20
308.2172411620035
 30
0.0
 10
415.1902682255792
 20
308.234973330292
 30
0.0
 10
415.1323974438673
 20
308.2602091774634
 30
0.0
 10
415.0843581104854
 20
308.2758309906367
 30
0.0
 10
415.0476608487316
 20
308.2857974433024
 30
0.0
 10
415.0353169289343
 20
308.2888274042197
 30
0.0
 10
415.0104010637614
 20
308.2942897721764
 30
0.0
 10
414.9978107781969
 20
308.2967238767675
 30
0.0
 10
414.9348622224344
 20
308.3072696168855
 30
0.0
 10
414.8841046160379
 20
308.3106616318419
 30
0.0
 10
414.8329377848753
 20
308.3088767066596
 30
0.0
  0
SPLINE
  5
1B9
330
1F
100
AcDbEntity
  8
1
100
AcDbSpline
210
0.0
220
0.0
230
1.0
 70
     8
 71
     3
 72
    36
 73
    32
 74
     0
 42
0.000000001
 43
0.0000000001
 40
0.0
 40
0.0
 40
0.0
 40
0.0
 40
0.1249999999999592
 40
0.1249999999999592
 40
0.1874999999999065
 40
0.1874999999999065
 40
0.2187499999998801
 40
0.2187499999998801
 40
0.2499999999998537
 40
0.2499999999998537
 40
0.3749999999997588
 40
0.3749999999997588
 40
0.4062499999997528
 40
0.4062499999997528
 40
0.4374999999997466
 40
0.4374999999997466
 40
0.4999999999997797
 40
0.4999999999997797
 40
0.6249999999997929
 40
0.6249999999997929
 40
0.6562499999997979
 40
0.6562499999997979
 40
0.6874999999998029
 40
0.7499999999998433
 40
0.8124999999998838
 40
0.8124999999998838
 40
0.8437499999998998
 40
0.8437499999998998
 40
0.8749999999999159
 40
0.8749999999999159
 40
1.0
 40
1.0
 40
1.0
 40
1.0
 10
403.6947585857971
 20
307.9203277954607
 30
0.0
 10
403.6435871649362
 20
307.9185427101693
 30
0.0
 10
403.5934804992028
 20
307.9116325767371
 30
0.0
 10
403.5198263109628
 20
307.8940193714946
 30
0.0
 10
403.4955279178503
 20
307.8869305090964
 30
0.0
 10
403.4594660092279
 20
307.8744407943577
 30
0.0
 10
403.4474794343561
 20
307.8699550248356
 30
0.0
 10
403.4237938531741
 20
307.8604155214998
 30
0.0
 10
403.4121143669135
 20
307.8553717377033
 30
0.0
 10
403.3545154191936
 20
307.8288129267838
 30
0.0
 10
403.3109679497621
 20
307.8033175886522
 30
0.0
 10
403.2596551706581
 20
307.7662102995554
 30
0.0
 10
403.2495501459939
 20
307.7585244972573
 30
0.0
 10
403.2296599943383
 20
307.7426160897483
 30
0.0
 10
403.2198538640321
 20
307.7343734579561
 30
0.0
 10
403.1912078057869
 20
307.7090791300577
 30
0.0
 10
403.1730638072366
 20
307.6914101750792
 30
0.0
 10
403.1214106017105
 20
307.6360538654705
 30
0.0
 10
403.0906528179005
 20
307.5960402047098
 30
0.0
 10
403.0569497180666
 20
307.5420120051074
 30
0.0
 10
403.0504388108338
 20
307.5309834705589
 30
0.0
 10
403.0380370443143
 20
307.5087524907879
 30
0.0
 10
403.0203149854854
 20
307.4750700596333
 30
0.0
 10
402.9951020432703
 20
307.4172830572806
 30
0.0
 10
402.9795049592902
 20
307.369308669615
 30
0.0
 10
402.9695595078409
 20
307.3326593209992
 30
0.0
 10
402.9665369571383
 20
307.320331239311
 30
0.0
 10
402.9610902477068
 20
307.2954467784899
 30
0.0
 10
402.9586644054446
 20
307.2828720802773
 30
0.0
 10
402.9481617178233
 20
307.2200000548991
 30
0.0
 10
402.9448099019148
 20
307.169299742988
 30
0.0
 10
402.946640934253
 20
307.1181861733757
 30
0.0
  0
SPLINE
  5
1BA
330
1F
100
AcDbEntity
  8
1
100
AcDbSpline
210
0.0
220
0.0
230
1.0
 70
     8
 71
     3
 72
    10
 73
     6
 74
     0
 42
0.000000001
 43
0.0000000001
 40
0.0
 40
0.0
 40
0.0
 40
0.0
 40
0.7126968672815343
 40
0.7126968672815343
 40
1.0
 40
1.0
 40
1.0
 40
1.0
 10
407.9639693543328
 20
302.4624322044667
 30
0.0
 10
407.9676032393571
 20
302.4936674134054
 30
0.0
 10
407.9736938964791
 20
302.5243629757302
 30
0.0
 10
407.9856326427788
 20
302.5666793497744
 30
0.0
 10
407.9894574364105
 20
302.5787493600747
 30
0.0
 10
407.9936833805104
 20
302.5907300314665
 30
0.0
  0
SPLINE
  5
1BB
330
1F
100
AcDbEntity
  8
1
100
AcDbSpline
210
0.0
220
0.0
230
1.0
 70
     8
 71
     3
 72
    10
 73
     6
 74
     0
 42
0.000000001
 43
0.0000000001
 40
0.0
 40
0.0
 40
0.0
 40
0.0
 40
0.6730942228938867
 40
0.6730942228938867
 40
1.0
 40
1.0
 40
1.0
 40
1.0
 10
409.2921503471424
 20
303.1439726091326
 30
0.0
 10
409.2916220214103
 20
303.1416360557906
 30
0.0
 10
409.2909998768013
 20
303.139311432049
 30
0.0
 10
409.2899358402554
 20
303.135877079667
 30
0.0
 10
409.2895677370091
 20
303.1347631213724
 30
0.0
 10
409.2891792310089
 20
303.1336579644593
 30
0.0
  0
SPLINE
  5
1BC
330
1F
100
AcDbEntity
  8
1
100
AcDbSpline
210
0.0
220
0.0
230
1.0
 70
     8
 71
     3
 72
    27
 73
    23
 74
     0
 42
0.000000001
 43
0.0000000001
 40
0.0
 40
0.0
 40
0.0
 40
0.0
 40
0.1249999999998281
 40
0.1249999999998281
 40
0.1874999999997941
 40
0.1874999999997941
 40
0.24999999999976
 40
0.24999999999976
 40
0.3749999999998003
 40
0.3749999999998003
 40
0.4374999999998201
 40
0.4374999999998201
 40
0.4999999999998401
 40
0.4999999999998401
 40
0.6249999999998798
 40
0.6249999999998798
 40
0.6874999999999011
 40
0.6874999999999011
 40
0.7499999999999223
 40
0.7499999999999223
 40
0.874999999999961
 40
1.0
 40
1.0
 40
1.0
 40
1.0
 10
409.3441434899768
 20
300.0608687524098
 30
0.0
 10
409.31492751426
 20
300.0481473046524
 30
0.0
 10
409.2849895671776
 20
300.0378552221048
 30
0.0
 10
409.2390207148331
 20
300.0260050629838
 30
0.0
 10
409.2235199477787
 20
300.0226557465554
 30
0.0
 10
409.1921561708812
 20
300.0171829171646
 30
0.0
 10
409.1762470970735
 20
300.015059514088
 30
0.0
 10
409.1287314718688
 20
300.0106465036601
 30
0.0
 10
409.0971200902981
 20
300.0102498512184
 30
0.0
 10
409.0498006479028
 20
300.0134120624671
 30
0.0
 10
409.0340438429813
 20
300.0150952504163
 30
0.0
 10
409.0025636400308
 20
300.0197455107747
 30
0.0
 10
408.9867683884638
 20
300.0227316681738
 30
0.0
 10
408.9401393244149
 20
300.033515255146
 30
0.0
 10
408.9099867108583
 20
300.0431082508223
 30
0.0
 10
408.8661159120553
 20
300.0609947963385
 30
0.0
 10
408.8517197638763
 20
300.0675426348796
 30
0.0
 10
408.8233883743976
 20
300.0818248199683
 30
0.0
 10
408.8094028771386
 20
300.0895903852407
 30
0.0
 10
408.7685188159638
 20
300.1145020316705
 30
0.0
 10
408.7173908953527
 20
300.1516260538539
 30
0.0
 10
408.6727422050868
 20
300.1962202080575
 30
0.0
 10
408.6520887939411
 20
300.2204392221132
 30
0.0
  0
SPLINE
  5
1BD
330
1F
100
AcDbEntity
  8
1
100
AcDbSpline
210
0.0
220
0.0
230
1.0
 70
     8
 71
     3
 72
    16
 73
    12
 74
     0
 42
0.000000001
 43
0.0000000001
 40
0.0
 40
0.0
 40
0.0
 40
0.0
 40
0.3593083127181369
 40
0.3593083127181369
 40
0.5389624690772339
 40
0.5389624690772339
 40
0.7186166254363308
 40
0.7186166254363308
 40
0.8982707817954278
 40
0.8982707817954278
 40
1.0
 40
1.0
 40
1.0
 40
1.0
 10
408.6520887939411
 20
300.2204392221132
 30
0.0
 10
408.6456219408409
 20
300.2280225121093
 30
0.0
 10
408.6404357168687
 20
300.2365586247367
 30
0.0
 10
408.6348216592545
 20
300.2499682557481
 30
0.0
 10
408.6332925445264
 20
300.2545645854965
 30
0.0
 10
408.6309239187442
 20
300.2640113644754
 30
0.0
 10
408.6301016469122
 20
300.2688160099064
 30
0.0
 10
408.6291810428215
 20
300.2783596551317
 30
0.0
 10
408.6290739910571
 20
300.2831322922841
 30
0.0
 10
408.6294513412615
 20
300.2906081582885
 30
0.0
 10
408.6297025405536
 20
300.2933228033051
 30
0.0
 10
408.630064307654
 20
300.2960193079821
 30
0.0
  0
SPLINE
  5
1BE
330
1F
100
AcDbEntity
  8
1
100
AcDbSpline
210
0.0
220
0.0
230
1.0
 70
     8
 71
     3
 72
    10
 73
     6
 74
     0
 42
0.000000001
 43
0.0000000001
 40
0.0
 40
0.0
 40
0.0
 40
0.0
 40
0.1264374877278435
 40
0.1264374877278435
 40
1.0
 40
1.0
 40
1.0
 40
1.0
 10
409.3720444747016
 20
300.0794193447334
 30
0.0
 10
409.3710196042191
 20
300.0784415016079
 30
0.0
 10
409.3699717298076
 20
300.0774846246525
 30
0.0
 10
409.3615135988231
 20
300.0700993855917
 30
0.0
 10
409.3532781085672
 20
300.0648462192007
 30
0.0
 10
409.3441434899768
 20
300.0608687524098
 30
0.0
  0
SPLINE
  5
1BF
330
1F
100
AcDbEntity
  8
1
100
AcDbSpline
210
0.0
220
0.0
230
1.0
 70
     8
 71
     3
 72
    10
 73
     6
 74
     0
 42
0.000000001
 43
0.0000000001
 40
0.0
 40
0.0
 40
0.0
 40
0.0
 40
0.6429392429780228
 40
0.6429392429780228
 40
1.0
 40
1.0
 40
1.0
 40
1.0
 10
408.6503919595056
 20
300.3924885040037
 30
0.0
 10
408.6524073711016
 20
300.3815217139046
 30
0.0
 10
408.6525095485756
 20
300.3705383341499
 30
0.0
 10
408.6498674379956
 20
300.3536743130336
 30
0.0
 10
408.6483951587097
 20
300.3478346035202
 30
0.0
 10
408.6463978110089
 20
300.3421750093818
 30
0.0
  0
SPLINE
  5
1C0
330
1F
100
AcDbEntity
  8
1
100
AcDbSpline
210
0.0
220
0.0
230
1.0
 70
     8
 71
     3
 72
     8
 73
     4
 74
     0
 42
0.000000001
 43
0.0000000001
 40
0.0
 40
0.0
 40
0.0
 40
0.0
 40
1.0
 40
1.0
 40
1.0
 40
1.0
 10
409.4078612391731
 20
300.1889291116703
 30
0.0
 10
409.4110898712893
 20
300.1981124113236
 30
0.0
 10
409.4156225224636
 20
300.206706600621
 30
0.0
 10
409.4215301059843
 20
300.2146833724948
 30
0.0
  0
SPLINE
  5
1C1
330
1F
100
AcDbEntity
  8
1
100
AcDbSpline
210
0.0
220
0.0
230
1.0
 70
     8
 71
     3
 72
    20
 73
    16
 74
     0
 42
0.000000001
 43
0.0000000001
 40
0.0
 40
0.0
 40
0.0
 40
0.0
 40
0.1249999999999986
 40
0.1249999999999986
 40
0.249999999999997
 40
0.249999999999997
 40
0.3749999999999956
 40
0.3749999999999956
 40
0.4999999999999938
 40
0.4999999999999938
 40
0.6249999999999921
 40
0.6249999999999921
 40
0.7499999999999904
 40
0.7499999999999904
 40
1.0
 40
1.0
 40
1.0
 40
1.0
 10
408.0685170101674
 20
300.8613953958926
 30
0.0
 10
408.0645014371254
 20
300.8588215198051
 30
0.0
 10
408.0603283922571
 20
300.8565576815898
 30
0.0
 10
408.0516695509794
 20
300.852646086822
 30
0.0
 10
408.0471760820894
 20
300.8510012120998
 30
0.0
 10
408.0380863178821
 20
300.8484092815343
 30
0.0
 10
408.0334646097265
 20
300.8474489654363
 30
0.0
 10
408.0240656163757
 20
300.8462108632759
 30
0.0
 10
408.0192501958856
 20
300.8459356056872
 30
0.0
 10
408.0096910104505
 20
300.8461134023203
 30
0.0
 10
408.004942764311
 20
300.8465589424528
 30
0.0
 10
407.9955103996824
 20
300.8481702623173
 30
0.0
 10
407.990795553372
 20
300.8493465579406
 30
0.0
 10
407.9769731926299
 20
300.8539669038425
 30
0.0
 10
407.9683586640186
 20
300.8583944437168
 30
0.0
 10
407.9603850251989
 20
300.864254029075
 30
0.0
  0
SPLINE
  5
1C2
330
1F
100
AcDbEntity
  8
1
100
AcDbSpline
210
0.0
220
0.0
230
1.0
 70
     8
 71
     3
 72
    10
 73
     6
 74
     0
 42
0.000000001
 43
0.0000000001
 40
0.0
 40
0.0
 40
0.0
 40
0.0
 40
0.5
 40
0.5
 40
1.0
 40
1.0
 40
1.0
 40
1.0
 10
408.0685170101674
 20
300.8613953958926
 30
0.0
 10
408.0776957089038
 20
300.8672786989592
 30
0.0
 10
408.0876210899091
 20
300.8715313544307
 30
0.0
 10
408.1088346617467
 20
300.8766525435625
 30
0.0
 10
408.1196288060732
 20
300.8774140044546
 30
0.0
 10
408.1306269949704
 20
300.8762684043447
 30
0.0
  0
SPLINE
  5
1C3
330
1F
100
AcDbEntity
  8
1
100
AcDbSpline
210
0.0
220
0.0
230
1.0
 70
     8
 71
     3
 72
    24
 73
    20
 74
     0
 42
0.000000001
 43
0.0000000001
 40
0.0
 40
0.0
 40
0.0
 40
0.0
 40
0.1250000000001329
 40
0.1250000000001329
 40
0.2500000000002659
 40
0.2500000000002659
 40
0.3125000000002828
 40
0.3125000000002828
 40
0.3750000000002996
 40
0.3750000000002996
 40
0.5000000000002398
 40
0.5000000000002398
 40
0.6250000000001798
 40
0.6250000000001798
 40
0.7500000000001199
 40
0.7500000000001199
 40
0.87500000000006
 40
0.87500000000006
 40
1.0
 40
1.0
 40
1.0
 40
1.0
 10
408.1306269949704
 20
300.8762684043447
 30
0.0
 10
408.1617753683336
 20
300.8730239083388
 30
0.0
 10
408.1924070777333
 20
300.867370859601
 30
0.0
 10
408.2526848192462
 20
300.8512477811075
 30
0.0
 10
408.2823312765036
 20
300.8407801072573
 30
0.0
 10
408.3260384970262
 20
300.821165755087
 30
0.0
 10
408.3403863676783
 20
300.8140077435106
 30
0.0
 10
408.3682948995912
 20
300.7986308252227
 30
0.0
 10
408.3819096876827
 20
300.7903881517703
 30
0.0
 10
408.4217381471748
 20
300.7639963565527
 30
0.0
 10
408.4469803017233
 20
300.7441603081535
 30
0.0
 10
408.4944654155593
 20
300.6999500549286
 30
0.0
 10
408.5160176800894
 20
300.6762304519293
 30
0.0
 10
408.554992944834
 20
300.6257430976881
 30
0.0
 10
408.5724206997241
 20
300.5989644889036
 30
0.0
 10
408.6030507609232
 20
300.5423335199391
 30
0.0
 10
408.6158103202357
 20
300.5133095650281
 30
0.0
 10
408.6366281332964
 20
300.4539175691619
 30
0.0
 10
408.6446838715976
 20
300.4235488601494
 30
0.0
 10
408.6503919595056
 20
300.3924885040037
 30
0.0
  0
SPLINE
  5
1C4
330
1F
100
AcDbEntity
  8
1
100
AcDbSpline
210
0.0
220
0.0
230
1.0
 70
     8
 71
     3
 72
    18
 73
    14
 74
     0
 42
0.000000001
 43
0.0000000001
 40
0.0
 40
0.0
 40
0.0
 40
0.0
 40
0.2499999999999971
 40
0.2499999999999971
 40
0.3749999999999929
 40
0.3749999999999929
 40
0.4999999999999887
 40
0.4999999999999887
 40
0.6249999999999845
 40
0.6249999999999845
 40
0.7499999999999803
 40
0.7499999999999803
 40
1.0
 40
1.0
 40
1.0
 40
1.0
 10
410.2476362183863
 20
300.3368712234713
 30
0.0
 10
410.2379076727111
 20
300.3350879206906
 30
0.0
 10
410.2280166341568
 20
300.3348940770193
 30
0.0
 10
410.2137628617344
 20
300.3367846769846
 30
0.0
 10
410.2090775267681
 20
300.3377751403996
 30
0.0
 10
410.1998404443797
 20
300.3404816811078
 30
0.0
 10
410.1953363984099
 20
300.3421896246639
 30
0.0
 10
410.1867514824031
 20
300.3461998180082
 30
0.0
 10
410.1826375742301
 20
300.348511457983
 30
0.0
 10
410.1747622517826
 20
300.3537383554637
 30
0.0
 10
410.1709747876405
 20
300.3566806906379
 30
0.0
 10
410.1604497458517
 20
300.3661842717287
 30
0.0
 10
410.1544691795143
 20
300.3734210616889
 30
0.0
 10
410.1495336281038
 20
300.3815651150105
 30
0.0
  0
SPLINE
  5
1C5
330
1F
100
AcDbEntity
  8
1
100
AcDbSpline
210
0.0
220
0.0
230
1.0
 70
     8
 71
     3
 72
    10
 73
     6
 74
     0
 42
0.000000001
 43
0.0000000001
 40
0.0
 40
0.0
 40
0.0
 40
0.0
 40
0.5
 40
0.5
 40
1.0
 40
1.0
 40
1.0
 40
1.0
 10
410.1004390365998
 20
300.4220791119221
 30
0.0
 10
410.1107938175218
 20
300.4183012385185
 30
0.0
 10
410.1201892904945
 20
300.4128565394716
 30
0.0
 10
410.1369103718338
 20
300.3989876159952
 30
0.0
 10
410.1438983388361
 20
300.3908637915841
 30
0.0
 10
410.1495336281038
 20
300.3815651150105
 30
0.0
  0
SPLINE
  5
1C6
330
1F
100
AcDbEntity
  8
1
100
AcDbSpline
210
0.0
220
0.0
230
1.0
 70
     8
 71
     3
 72
    24
 73
    20
 74
     0
 42
0.000000001
 43
0.0000000001
 40
0.0
 40
0.0
 40
0.0
 40
0.0
 40
0.1249999999999971
 40
0.1249999999999971
 40
0.2499999999999942
 40
0.2499999999999942
 40
0.3124999999999947
 40
0.3124999999999947
 40
0.3749999999999951
 40
0.3749999999999951
 40
0.4999999999999961
 40
0.4999999999999961
 40
0.6249999999999972
 40
0.6249999999999972
 40
0.7499999999999979
 40
0.7499999999999979
 40
0.8749999999999989
 40
0.8749999999999989
 40
1.0
 40
1.0
 40
1.0
 40
1.0
 10
409.4215301059843
 20
300.2146833724948
 30
0.0
 10
409.4403457646918
 20
300.2400893979251
 30
0.0
 10
409.4609518677116
 20
300.2638349131771
 30
0.0
 10
409.5057579207979
 20
300.3080442513502
 30
0.0
 10
409.5299560979707
 20
300.3285096320213
 30
0.0
 10
409.5691831224073
 20
300.3565734548044
 30
0.0
 10
409.5826708006659
 20
300.3654233542178
 30
0.0
 10
409.6101397534739
 20
300.3819048980497
 30
0.0
 10
409.6241690526529
 20
300.3895714785584
 30
0.0
 10
409.6671421829261
 20
300.4108499686158
 30
0.0
 10
409.6970141225519
 20
300.4227676107142
 30
0.0
 10
409.7590485035698
 20
300.4417083059247
 30
0.0
 10
409.7902998627668
 20
300.4484620782463
 30
0.0
 10
409.8532512703803
 20
300.4568464373359
 30
0.0
 10
409.8849635654791
 20
300.4584756686234
 30
0.0
 10
409.9488160127771
 20
300.456516191313
 30
0.0
 10
409.9800261544303
 20
300.4529608468113
 30
0.0
 10
410.0411749793368
 20
300.4410932863283
 30
0.0
 10
410.0711129250816
 20
300.432778549947
 30
0.0
 10
410.1004390365998
 20
300.4220791119221
 30
0.0
  0
SPLINE
  5
1C7
330
1F
100
AcDbEntity
  8
1
100
AcDbSpline
210
0.0
220
0.0
230
1.0
 70
     8
 71
     3
 72
    27
 73
    23
 74
     0
 42
0.000000001
 43
0.0000000001
 40
0.0
 40
0.0
 40
0.0
 40
0.0
 40
0.1378026508803716
 40
0.1378026508803716
 40
0.2067039763205601
 40
0.2067039763205601
 40
0.2756053017607485
 40
0.2756053017607485
 40
0.4134079526411886
 40
0.4134079526411886
 40
0.4823092780814087
 40
0.4823092780814087
 40
0.5512106035216286
 40
0.5512106035216286
 40
0.6890132544020408
 40
0.6890132544020408
 40
0.7579145798422468
 40
0.7579145798422468
 40
0.8268159052824529
 40
0.8268159052824529
 40
0.9646185561628676
 40
1.0
 40
1.0
 40
1.0
 40
1.0
 10
407.9603850251989
 20
300.864254029075
 30
0.0
 10
407.9348828391093
 20
300.8829948122473
 30
0.0
 10
407.9111053405056
 20
300.9035963495883
 30
0.0
 10
407.8779901560778
 20
300.9372410379232
 30
0.0
 10
407.8673788742838
 20
300.9489151150485
 30
0.0
 10
407.8470283559321
 20
300.973199441042
 30
0.0
 10
407.8372661775711
 20
300.9858495625277
 30
0.0
 10
407.809766397412
 20
301.0246127203306
 30
0.0
 10
407.7936525348926
 20
301.051692436543
 30
0.0
 10
407.7727587097406
 20
301.0941373813484
 30
0.0
 10
407.7663428006959
 20
301.1085913540295
 30
0.0
 10
407.7546308363968
 20
301.1381229490354
 30
0.0
 10
407.749315317388
 20
301.1532722981284
 30
0.0
 10
407.7353144914121
 20
301.1989952038396
 30
0.0
 10
407.7285120537596
 20
301.2298931966326
 30
0.0
 10
407.7219907542641
 20
301.2768455057414
 30
0.0
 10
407.7204336753555
 20
301.2925976509536
 30
0.0
 10
407.7185688282527
 20
301.3243073566798
 30
0.0
 10
407.7182628034019
 20
301.3403240844982
 30
0.0
 10
407.7192670115734
 20
301.3882707145016
 30
0.0
 10
407.7232790320397
 20
301.4278559282651
 30
0.0
 10
407.7310998547416
 20
301.4667347869667
 30
0.0
 10
407.7328578212922
 20
301.4746479853238
 30
0.0
  0
SPLINE
  5
1C8
330
1F
100
AcDbEntity
  8
1
100
AcDbSpline
210
0.0
220
0.0
230
1.0
 70
     8
 71
     3
 72
    25
 73
    21
 74
     0
 42
0.000000001
 43
0.0000000001
 40
0.0
 40
0.0
 40
0.0
 40
0.0
 40
0.0146845592525638
 40
0.0146845592525638
 40
0.0904780546946477
 40
0.0904780546946477
 40
0.2420650455788713
 40
0.2420650455788713
 40
0.3178585410209866
 40
0.3178585410209866
 40
0.3936520364631018
 40
0.3936520364631018
 40
0.545239027347332
 40
0.545239027347332
 40
0.6210325227894448
 40
0.6210325227894448
 40
0.6968260182315574
 40
0.6968260182315574
 40
0.8484130091157787
 40
1.0
 40
1.0
 40
1.0
 40
1.0
 10
410.7012153745331
 20
300.7257849820104
 30
0.0
 10
410.7001896594467
 20
300.7228770593829
 30
0.0
 10
410.6991409575836
 20
300.719974801381
 30
0.0
 10
410.6925372627587
 20
300.7021277549276
 30
0.0
 10
410.6863672991487
 20
300.68728877552
 30
0.0
 10
410.6662901496973
 20
300.6439391714871
 30
0.0
 10
410.6507622400399
 20
300.6163767867677
 30
0.0
 10
410.6243061965593
 20
300.5770075424172
 30
0.0
 10
410.6149576998206
 20
300.5642150478591
 30
0.0
 10
410.5951794255445
 20
300.5393047275376
 30
0.0
 10
410.5846972342865
 20
300.5271342587722
 30
0.0
 10
410.5520686738896
 20
300.4921949972015
 30
0.0
 10
410.5287286958263
 20
300.4709192867799
 30
0.0
 10
410.4914098085115
 20
300.4419402471338
 30
0.0
 10
410.478583510518
 20
300.4327720225479
 30
0.0
 10
410.4521477726996
 20
300.4154313344577
 30
0.0
 10
410.4384865837816
 20
300.4072311592754
 30
0.0
 10
410.396659232834
 20
300.3843704029678
 30
0.0
 10
410.3392472343959
 20
300.3587850273553
 30
0.0
 10
410.278707253533
 20
300.3425667369866
 30
0.0
 10
410.2476362183863
 20
300.3368712234713
 30
0.0
  0
SPLINE
  5
1C9
330
1F
100
AcDbEntity
  8
1
100
AcDbSpline
210
0.0
220
0.0
230
1.0
 70
     8
 71
     3
 72
    18
 73
    14
 74
     0
 42
0.000000001
 43
0.0000000001
 40
0.0
 40
0.0
 40
0.0
 40
0.0
 40
0.2126812293048489
 40
0.2126812293048489
 40
0.4253624586096977
 40
0.4253624586096977
 40
0.5317030732621132
 40
0.5317030732621132
 40
0.638043687914529
 40
0.638043687914529
 40
0.8507249172193491
 40
0.8507249172193491
 40
1.0
 40
1.0
 40
1.0
 40
1.0
 10
408.0577740772823
 20
302.3233235548465
 30
0.0
 10
408.0702597575796
 20
302.2951060091167
 30
0.0
 10
408.0804248898006
 20
302.2661022528512
 30
0.0
 10
408.09614508911
 20
302.2064728975828
 30
0.0
 10
408.1017023742189
 20
302.1758481510258
 30
0.0
 10
408.1063183292313
 20
302.1285539271876
 30
0.0
 10
408.1072184715318
 20
302.1126602607362
 30
0.0
 10
408.1077269988567
 20
302.0809979989163
 30
0.0
 10
408.1073415239056
 20
302.0651713022984
 30
0.0
 10
408.1042671184075
 20
302.0177006108976
 30
0.0
 10
408.099662081462
 20
301.9860153833007
 30
0.0
 10
408.0872810385593
 20
301.9322783765921
 30
0.0
 10
408.0809686690553
 20
301.9106253884781
 30
0.0
 10
408.0734975083642
 20
301.8894607836516
 30
0.0
  0
SPLINE
  5
1CA
330
1F
100
AcDbEntity
  8
1
100
AcDbSpline
210
0.0
220
0.0
230
1.0
 70
     8
 71
     3
 72
    10
 73
     6
 74
     0
 42
0.000000001
 43
0.0000000001
 40
0.0
 40
0.0
 40
0.0
 40
0.0
 40
0.5
 40
0.5
 40
1.0
 40
1.0
 40
1.0
 40
1.0
 10
408.0145187480746
 20
302.3687657852431
 30
0.0
 10
408.0240817444938
 20
302.3639185435893
 30
0.0
 10
408.0326086670607
 20
302.3576071760251
 30
0.0
 10
408.0474167618496
 20
302.3421086518519
 30
0.0
 10
408.0533653559765
 20
302.333287232603
 30
0.0
 10
408.0577740772823
 20
302.3233235548465
 30
0.0
  0
SPLINE
  5
1CB
330
1F
100
AcDbEntity
  8
1
100
AcDbSpline
210
0.0
220
0.0
230
1.0
 70
     8
 71
     3
 72
    20
 73
    16
 74
     0
 42
0.000000001
 43
0.0000000001
 40
0.0
 40
0.0
 40
0.0
 40
0.0
 40
0.1249999999999999
 40
0.1249999999999999
 40
0.2499999999999998
 40
0.2499999999999998
 40
0.3749999999999998
 40
0.3749999999999998
 40
0.4999999999999998
 40
0.4999999999999998
 40
0.6249999999999997
 40
0.6249999999999997
 40
0.7499999999999997
 40
0.7499999999999997
 40
1.0
 40
1.0
 40
1.0
 40
1.0
 10
408.0145187480746
 20
302.3687657852431
 30
0.0
 10
408.0103349922143
 20
302.3708864255513
 30
0.0
 10
408.0063408636545
 20
302.3732984924186
 30
0.0
 10
407.9987294753545
 20
302.3787015038398
 30
0.0
 10
407.9951105001976
 20
302.3817007966
 30
0.0
 10
407.9884228829096
 20
302.3881406164895
 30
0.0
 10
407.9853303802996
 20
302.3915960484557
 30
0.0
 10
407.9796566800363
 20
302.3989850962955
 30
0.0
 10
407.9770589050695
 20
302.4029525355583
 30
0.0
 10
407.9725248900193
 20
302.4111961203608
 30
0.0
 10
407.9705803619669
 20
302.415471667673
 30
0.0
 10
407.9673429249501
 20
302.4243323705088
 30
0.0
 10
407.9660440608316
 20
302.4289486634522
 30
0.0
 10
407.9632446203238
 20
302.4430780890514
 30
0.0
 10
407.9628332498342
 20
302.4526667712854
 30
0.0
 10
407.9639693543328
 20
302.4624322044667
 30
0.0
  0
SPLINE
  5
1CC
330
1F
100
AcDbEntity
  8
1
100
AcDbSpline
210
0.0
220
0.0
230
1.0
 70
     8
 71
     3
 72
    14
 73
    10
 74
     0
 42
0.000000001
 43
0.0000000001
 40
0.0
 40
0.0
 40
0.0
 40
0.0
 40
0.090391090177094
 40
0.090391090177094
 40
0.3935940601180625
 40
0.3935940601180625
 40
0.6967970300590313
 40
0.6967970300590313
 40
1.0
 40
1.0
 40
1.0
 40
1.0
 10
410.6258214205302
 20
301.4395860439799
 30
0.0
 10
410.6289749558985
 20
301.4485194288636
 30
0.0
 10
410.6323334637171
 20
301.4573531114149
 30
0.0
 10
410.6478346963223
 20
301.4953919764189
 30
0.0
 10
410.6620498446199
 20
301.523604272612
 30
0.0
 10
410.6950915009781
 20
301.577761830755
 30
0.0
 10
410.713433159047
 20
301.6029213252837
 30
0.0
 10
410.7535159509986
 20
301.649741780526
 30
0.0
 10
410.7752588397104
 20
301.6714008304934
 30
0.0
 10
410.7987242653904
 20
301.6913291309152
 30
0.0
  0
SPLINE
  5
1CD
330
1F
100
AcDbEntity
  8
1
100
AcDbSpline
210
0.0
220
0.0
230
1.0
 70
     8
 71
     3
 72
    10
 73
     6
 74
     0
 42
0.000000001
 43
0.0000000001
 40
0.0
 40
0.0
 40
0.0
 40
0.0
 40
0.5
 40
0.5
 40
1.0
 40
1.0
 40
1.0
 40
1.0
 10
410.7987242653904
 20
301.6913291309152
 30
0.0
 10
410.8070100725263
 20
301.6983659542011
 30
0.0
 10
410.8162412221791
 20
301.7037334052913
 30
0.0
 10
410.8362331512071
 20
301.7111839033773
 30
0.0
 10
410.8465683521989
 20
301.7131242250944
 30
0.0
 10
410.8572403138731
 20
301.7133054320529
 30
0.0
  0
SPLINE
  5
1CE
330
1F
100
AcDbEntity
  8
1
100
AcDbSpline
210
0.0
220
0.0
230
1.0
 70
     8
 71
     3
 72
    16
 73
    12
 74
     0
 42
0.000000001
 43
0.0000000001
 40
0.0
 40
0.0
 40
0.0
 40
0.0
 40
0.0529636402290281
 40
0.0529636402290281
 40
0.24237091218341
 40
0.24237091218341
 40
0.4317781841377921
 40
0.4317781841377921
 40
0.6211854560921739
 40
0.6211854560921739
 40
1.0
 40
1.0
 40
1.0
 40
1.0
 10
410.9230366616995
 20
301.742174258604
 30
0.0
 10
410.9221260088053
 20
301.741212558247
 30
0.0
 10
410.9211937991351
 20
301.7402696191652
 30
0.0
 10
410.9168290407663
 20
301.7360406162894
 30
0.0
 10
410.9131708034537
 20
301.7330121203902
 30
0.0
 10
410.905556356956
 20
301.7276209097603
 30
0.0
 10
410.9015756003704
 20
301.7252339779075
 30
0.0
 10
410.8932730789722
 20
301.7210685459213
 30
0.0
 10
410.8889153320428
 20
301.7192810632693
 30
0.0
 10
410.8756738225233
 20
301.7149816298822
 30
0.0
 10
410.8665869477021
 20
301.7134641353111
 30
0.0
 10
410.8572403138733
 20
301.7133054320529
 30
0.0
  0
SPLINE
  5
1D0
330
1F
100
AcDbEntity
  8
1
100
AcDbSpline
210
0.0
220
0.0
230
1.0
 70
     8
 71
     3
 72
    10
 73
     6
 74
     0
 42
0.000000001
 43
0.0000000001
 40
0.0
 40
0.0
 40
0.0
 40
0.0
 40
0.5
 40
0.5
 40
1.0
 40
1.0
 40
1.0
 40
1.0
 10
279.4048419452957
 20
268.3657147147786
 30
0.0
 10
279.6183923990309
 20
268.396031933147
 30
0.0
 10
279.8349918939542
 20
268.4373920108771
 30
0.0
 10
280.2732280842688
 20
268.5389390087965
 30
0.0
 10
280.4948659508923
 20
268.5991325364374
 30
0.0
 10
280.7185504442805
 20
268.6674560869963
 30
0.0
  0
SPLINE
  5
1D1
330
1F
100
AcDbEntity
  8
1
100
AcDbSpline
210
0.0
220
0.0
230
1.0
 70
     8
 71
     3
 72
     8
 73
     4
 74
     0
 42
0.000000001
 43
0.0000000001
 40
0.0
 40
0.0
 40
0.0
 40
0.0
 40
1.0
 40
1.0
 40
1.0
 40
1.0
 10
290.6584877443703
 20
284.8062079635675
 30
0.0
 10
291.1145482921874
 20
284.7447168561527
 30
0.0
 10
291.572471666331
 20
284.6724995647662
 30
0.0
 10
292.0322589432652
 20
284.5895498911104
 30
0.0
  0
SPLINE
  5
1D2
330
1F
100
AcDbEntity
  8
1
100
AcDbSpline
210
0.0
220
0.0
230
1.0
 70
     8
 71
     3
 72
    10
 73
     6
 74
     0
 42
0.000000001
 43
0.0000000001
 40
0.0
 40
0.0
 40
0.0
 40
0.0
 40
0.5
 40
0.5
 40
1.0
 40
1.0
 40
1.0
 40
1.0
 10
404.2806316371064
 20
294.5441259081526
 30
0.0
 10
404.2013156707091
 20
294.5680239536431
 30
0.0
 10
404.1236271068926
 20
294.5956459716367
 30
0.0
 10
403.9712875990355
 20
294.6580925546613
 30
0.0
 10
403.8966386274465
 20
294.6929181108162
 30
0.0
 10
403.8234378548639
 20
294.7313411121843
 30
0.0
  0
SPLINE
  5
1D3
330
1F
100
AcDbEntity
  8
1
100
AcDbSpline
210
0.0
220
0.0
230
1.0
 70
    12
 71
     2
 72
     6
 73
     3
 74
     0
 42
0.000000001
 43
0.0000000001
 40
0.0
 40
0.0
 40
0.0
 40
1.0
 40
1.0
 40
1.0
 10
402.7252836616535
 20
307.8486837959592
 30
0.0
 41
0.5000002265912231
 10
402.8374658914346
 20
307.8485292231462
 30
0.0
 41
0.4999997734087771
 10
402.9496474336971
 20
307.848374248121
 30
0.0
 41
0.5000002265912231
  0
SPLINE
  5
1D4
330
1F
100
AcDbEntity
  8
1
100
AcDbSpline
210
0.0
220
0.0
230
1.0
 70
     8
 71
     3
 72
    10
 73
     6
 74
     0
 42
0.000000001
 43
0.0000000001
 40
0.0
 40
0.0
 40
0.0
 40
0.0
 40
0.5000000000000005
 40
0.5000000000000005
 40
1.0
 40
1.0
 40
1.0
 40
1.0
 10
399.7766644231564
 20
301.8770078283708
 30
0.0
 10
399.787129941217
 20
302.868708054619
 30
0.0
 10
399.796186890926
 20
303.8604232074059
 30
0.0
 10
399.8123909045478
 20
305.843871149912
 30
0.0
 10
399.8195309751185
 20
306.8356030447354
 30
0.0
 10
399.8259887695702
 20
307.8273405595391
 30
0.0
  0
SPLINE
  5
1D5
330
1F
100
AcDbEntity
  8
1
100
AcDbSpline
210
0.0
220
0.0
230
1.0
 70
    28
 71
     4
 72
    13
 73
     8
 74
     0
 42
0.000000001
 43
0.0000000001
 40
0.0
 40
0.0
 40
0.0
 40
0.0
 40
0.0
 40
0.3733873045651347
 40
0.3733873045651347
 40
0.3733873045651347
 40
1.0
 40
1.0
 40
1.0
 40
1.0
 40
1.0
 10
302.9048419452957
 20
282.683929173103
 30
0.0
 41
0.9970039865930488
 10
302.9048419452957
 20
281.5355427430955
 30
0.0
 41
0.9970039865930488
 10
302.9048419452957
 20
280.2675267440991
 30
0.0
 41
0.9985019932965244
 10
302.9048419452957
 20
278.9578821073208
 30
0.0
 41
1.001498006703475
 10
302.9048419452957
 20
275.6106616644589
 30
0.0
 41
1.001498006703475
 10
302.9048419452957
 20
273.3087567056843
 30
0.0
 41
0.9930603269766123
 10
302.9048419452957
 20
271.3328725082545
 30
0.0
 41
0.9974249394189184
 10
302.9048419452957
 20
269.9183143795513
 30
0.0
 41
1.000187229519734
  0
SPLINE
  5
1D6
330
1F
100
AcDbEntity
  8
1
100
AcDbSpline
210
0.0
220
0.0
230
1.0
 70
     8
 71
     3
 72
    38
 73
    34
 74
     0
 42
0.000000001
 43
0.0000000001
 40
0.0
 40
0.0
 40
0.0
 40
0.0
 40
0.1250000000000032
 40
0.1250000000000032
 40
0.2500000000000064
 40
0.2500000000000064
 40
0.3125000000000052
 40
0.3125000000000052
 40
0.3437500000000019
 40
0.3437500000000019
 40
0.3749999999999987
 40
0.3749999999999987
 40
0.4999999999999948
 40
0.4999999999999948
 40
0.5624999999999925
 40
0.5624999999999925
 40
0.5937499999999936
 40
0.5937499999999936
 40
0.6249999999999946
 40
0.6249999999999946
 40
0.6874999999999928
 40
0.6874999999999928
 40
0.7499999999999908
 40
0.7499999999999908
 40
0.8124999999999889
 40
0.8124999999999889
 40
0.8437499999999902
 40
0.8437499999999902
 40
0.8593749999999923
 40
0.8593749999999923
 40
0.8749999999999943
 40
0.9374999999999971
 40
1.0
 40
1.0
 40
1.0
 40
1.0
 10
396.0767805499718
 20
297.3447460691373
 30
0.0
 10
396.3077316406956
 20
297.4571322706282
 30
0.0
 10
396.5344588663166
 20
297.5765209847921
 30
0.0
 10
396.978063823619
 20
297.8316273451434
 30
0.0
 10
397.1949503914693
 20
297.9673303423341
 30
0.0
 10
397.5114728067118
 20
298.1854862007214
 30
0.0
 10
397.615507713911
 20
298.26064610362
 30
0.0
 10
397.76911478025
 20
298.377439876601
 30
0.0
 10
397.8199091056792
 20
298.4170475846917
 30
0.0
 10
397.9206355024099
 20
298.4976924843698
 30
0.0
 10
397.970625732449
 20
298.5387793739333
 30
0.0
 10
398.2174989616842
 20
298.7473258257407
 30
0.0
 10
398.4048923886633
 20
298.9237412455892
 30
0.0
 10
398.6679298371742
 20
299.2054757728935
 30
0.0
 10
398.7525883029755
 20
299.3022504627199
 30
0.0
 10
398.874525909796
 20
299.4521992699783
 30
0.0
 10
398.9143287337429
 20
299.5029812930943
 30
0.0
 10
398.992141921276
 20
299.6062443381165
 30
0.0
 10
399.0302065086454
 20
299.6588101274718
 30
0.0
 10
399.1406958353415
 20
299.8179927831452
 30
0.0
 10
399.2096650942714
 20
299.9263887104627
 30
0.0
 10
399.3375228939054
 20
300.1480683489743
 30
0.0
 10
399.3964140153521
 20
300.2613508088575
 30
0.0
 10
399.5031786316936
 20
300.4932577862245
 30
0.0
 10
399.5510560423459
 20
300.6118804050958
 30
0.0
 10
399.6136547341745
 20
300.7942835365027
 30
0.0
 10
399.6329817512443
 20
300.8558308905334
 30
0.0
 10
399.6595112313024
 20
300.9493451955578
 30
0.0
 10
399.6679545529475
 20
300.9807581296636
 30
0.0
 10
399.6839397760549
 20
301.0437884917962
 30
0.0
 10
399.7215944928546
 20
301.2016416916621
 30
0.0
 10
399.7684966637422
 20
301.4882852651866
 30
0.0
 10
399.7793554662898
 20
301.7467833164829
 30
0.0
 10
399.7766644231565
 20
301.8770078283708
 30
0.0
  0
SPLINE
  5
1D7
330
1F
100
AcDbEntity
  8
1
100
AcDbSpline
210
0.0
220
0.0
230
1.0
 70
    12
 71
     3
 72
     9
 73
     5
 74
     0
 42
0.000000001
 43
0.0000000001
 40
0.0
 40
0.0
 40
0.0
 40
0.0
 40
0.3319881897679019
 40
1.0
 40
1.0
 40
1.0
 40
1.0
 10
368.4666885044612
 20
301.4443265854977
 30
0.0
 41
1.002333876761047
 10
371.9746038858781
 20
301.4160928605917
 30
0.0
 41
1.00110411916244
 10
382.5892651131078
 20
301.1201367470355
 30
0.0
 41
0.9977223190598326
 10
392.8554177386197
 20
300.7988980668073
 30
0.0
 41
1.004571052000442
 10
399.7766644231565
 20
301.8770078283708
 30
0.0
 41
1.00306206126142
  0
SPLINE
  5
1D8
330
1F
100
AcDbEntity
  8
1
100
AcDbSpline
210
0.0
220
0.0
230
1.0
 70
     8
 71
     3
 72
    39
 73
    35
 74
     0
 42
0.000000001
 43
0.0000000001
 40
0.0
 40
0.0
 40
0.0
 40
0.0
 40
0.0624999999999971
 40
0.0624999999999971
 40
0.1249999999999941
 40
0.1249999999999941
 40
0.2499999999999877
 40
0.2499999999999877
 40
0.281249999999986
 40
0.2968749999999855
 40
0.2968749999999855
 40
0.3124999999999851
 40
0.3124999999999851
 40
0.3749999999999846
 40
0.3749999999999846
 40
0.4999999999999846
 40
0.4999999999999846
 40
0.5624999999999841
 40
0.5624999999999841
 40
0.5937499999999845
 40
0.5937499999999845
 40
0.6093749999999851
 40
0.6093749999999851
 40
0.6249999999999857
 40
0.6249999999999857
 40
0.7499999999999898
 40
0.7499999999999898
 40
0.8749999999999943
 40
0.8749999999999943
 40
0.9062499999999955
 40
0.9062499999999955
 40
0.9374999999999968
 40
0.9374999999999968
 40
1.0
 40
1.0
 40
1.0
 40
1.0
 10
275.9658191001066
 20
274.9027174300303
 30
0.0
 10
275.9321119296866
 20
274.726114291493
 30
0.0
 10
275.9059669791412
 20
274.5512137135662
 30
0.0
 10
275.8682859717738
 20
274.2047988046314
 30
0.0
 10
275.8567508300854
 20
274.0332844850046
 30
0.0
 10
275.8436049865184
 20
273.5238041787151
 30
0.0
 10
275.8633645670457
 20
273.1908972214104
 30
0.0
 10
275.9236059739238
 20
272.7831963494566
 30
0.0
 10
275.9443546864592
 20
272.6615189764564
 30
0.0
 10
275.9691468733656
 20
272.54079220681
 30
0.0
 10
275.9865781485918
 20
272.4605191333792
 30
0.0
 10
275.9957389744021
 20
272.4205218030256
 30
0.0
 10
276.0436137355169
 20
272.2218203597798
 30
0.0
 10
276.0886505493933
 20
272.0664115130523
 30
0.0
 10
276.2431816396233
 20
271.6102869528449
 30
0.0
 10
276.3720196313528
 20
271.3196476368117
 30
0.0
 10
276.6024387887191
 20
270.9022021149697
 30
0.0
 10
276.6854591111826
 20
270.766146140344
 30
0.0
 10
276.8192850384405
 20
270.566548654947
 30
0.0
 10
276.8654440410288
 20
270.5007642384797
 30
0.0
 10
276.9370149130808
 20
270.4031935170633
 30
0.0
 10
276.9612647061904
 20
270.3708503745489
 30
0.0
 10
277.0103814844098
 20
270.3067367590261
 30
0.0
 10
277.0352675679788
 20
270.2749397912461
 30
0.0
 10
277.2621593879669
 20
269.9910626572309
 30
0.0
 10
277.4844972062544
 20
269.7549887614947
 30
0.0
 10
277.968085390195
 20
269.3113941833897
 30
0.0
 10
278.2293486114983
 20
269.1038886039054
 30
0.0
 10
278.5799130979418
 20
268.8606500643335
 30
0.0
 10
278.6512293392666
 20
268.8128119501925
 30
0.0
 10
278.796275870214
 20
268.7187210666777
 30
0.0
 10
278.8699901873637
 20
268.6724818797807
 30
0.0
 10
279.094003386393
 20
268.5365413994034
 30
0.0
 10
279.2474093606145
 20
268.4494567690568
 30
0.0
 10
279.4048419452957
 20
268.3657147147786
 30
0.0
  0
SPLINE
  5
1D9
330
1F
100
AcDbEntity
  8
1
100
AcDbSpline
210
0.0
220
0.0
230
1.0
 70
     8
 71
     3
 72
    66
 73
    62
 74
     0
 42
0.000000001
 43
0.0000000001
 40
0.0
 40
0.0
 40
0.0
 40
0.0
 40
0.0625000000000007
 40
0.0625000000000007
 40
0.1250000000000013
 40
0.1250000000000013
 40
0.1875000000000019
 40
0.1875000000000019
 40
0.2187500000000024
 40
0.2187500000000024
 40
0.2343750000000027
 40
0.2343750000000027
 40
0.2500000000000031
 40
0.2500000000000031
 40
0.3125000000000044
 40
0.3125000000000044
 40
0.3750000000000057
 40
0.3750000000000057
 40
0.4062500000000062
 40
0.4062500000000062
 40
0.4218750000000063
 40
0.4218750000000063
 40
0.4375000000000066
 40
0.4375000000000066
 40
0.4531250000000068
 40
0.4531250000000068
 40
0.4687500000000071
 40
0.4687500000000071
 40
0.5000000000000071
 40
0.5000000000000071
 40
0.5312500000000071
 40
0.5312500000000071
 40
0.5625000000000071
 40
0.5625000000000071
 40
0.5937500000000071
 40
0.5937500000000071
 40
0.6250000000000071
 40
0.6250000000000071
 40
0.6562500000000071
 40
0.6562500000000071
 40
0.6875000000000071
 40
0.6875000000000071
 40
0.7031250000000068
 40
0.7031250000000068
 40
0.7187500000000067
 40
0.7187500000000067
 40
0.7500000000000057
 40
0.7500000000000057
 40
0.8125000000000039
 40
0.8125000000000039
 40
0.8437500000000033
 40
0.8437500000000033
 40
0.8750000000000026
 40
0.8750000000000026
 40
0.9062500000000021
 40
0.9062500000000021
 40
0.9375000000000012
 40
0.9375000000000012
 40
0.9687500000000007
 40
0.9687500000000007
 40
1.0
 40
1.0
 40
1.0
 40
1.0
 10
302.9048419452957
 20
282.6840680566402
 30
0.0
 10
304.8166647870769
 20
282.2788555721245
 30
0.0
 10
306.7267535139253
 20
281.8732866309607
 30
0.0
 10
310.543301852921
 20
281.0619213678814
 30
0.0
 10
312.4497589353365
 20
280.6561105074459
 30
0.0
 10
316.2587552721425
 20
279.8445811071592
 30
0.0
 10
318.1612894196443
 20
279.4388399480845
 30
0.0
 10
321.0119258763883
 20
278.8308441900655
 30
0.0
 10
321.9616109705589
 20
278.6282870465284
 30
0.0
 10
323.3853308612771
 20
278.3247602071257
 30
0.0
 10
323.859803078398
 20
278.2236296016191
 30
0.0
 10
324.8083112832579
 20
278.0215413280509
 30
0.0
 10
325.2823156432786
 20
277.920590370484
 30
0.0
 10
327.6510740376546
 20
277.4164047897309
 30
0.0
 10
329.5420172790559
 20
277.0147925268589
 30
0.0
 10
333.3156913007114
 20
276.2189709386204
 30
0.0
 10
335.1984125885586
 20
275.8247505095136
 30
0.0
 10
338.0167751982531
 20
275.2437143590993
 30
0.0
 10
338.9552825041265
 20
275.0517715013415
 30
0.0
 10
340.3617443833908
 20
274.7672345887101
 30
0.0
 10
340.8303489849733
 20
274.6729530722748
 30
0.0
 10
341.767152455676
 20
274.485661371726
 30
0.0
 10
342.2353426744373
 20
274.3926326936337
 30
0.0
 10
343.1715000453867
 20
274.2083391110989
 30
0.0
 10
343.6394686709201
 20
274.1170775375159
 30
0.0
 10
344.5753804470819
 20
273.9368022831836
 30
0.0
 10
345.0433661253112
 20
273.847780687031
 30
0.0
 10
346.4470851138485
 20
273.584784228681
 30
0.0
 10
347.3826666955464
 20
273.414894058454
 30
0.0
 10
349.2546577839719
 20
273.0883862894207
 30
0.0
 10
350.1910672172726
 20
272.9317630406952
 30
0.0
 10
352.0658091683349
 20
272.6331922890051
 30
0.0
 10
353.0041410434131
 20
272.4912386783866
 30
0.0
 10
354.8836429571307
 20
272.2226203903395
 30
0.0
 10
355.8247806088261
 20
272.0958709630316
 30
0.0
 10
357.7094264320848
 20
271.8558248219927
 30
0.0
 10
358.6529353559702
 20
271.7425331005094
 30
0.0
 10
360.5420571146879
 20
271.5282069522743
 30
0.0
 10
361.4876708322772
 20
271.4271766555686
 30
0.0
 10
363.3808455210478
 20
271.2365001438816
 30
0.0
 10
364.3284072861153
 20
271.1468570655789
 30
0.0
 10
365.7511559181958
 20
271.0204353138293
 30
0.0
 10
366.225653051147
 20
270.9796358349585
 30
0.0
 10
367.1747363234614
 20
270.9006810060724
 30
0.0
 10
367.6493696231917
 20
270.8625214055973
 30
0.0
 10
369.0735534314268
 20
270.751893583028
 30
0.0
 10
370.023386750754
 20
270.6832745588264
 30
0.0
 10
372.8741320268174
 20
270.4920832357627
 30
0.0
 10
374.776269147717
 20
270.3841727876024
 30
0.0
 10
377.6327215197353
 20
270.2490212037795
 30
0.0
 10
378.5854297008607
 20
270.208433777445
 30
0.0
 10
380.4920864090437
 20
270.1356891916002
 30
0.0
 10
381.4460078944226
 20
270.1035035027855
 30
0.0
 10
383.3547862073386
 20
270.0468438628544
 30
0.0
 10
384.3096430869452
 20
270.0223689155702
 30
0.0
 10
386.2199805713626
 20
269.9806307828816
 30
0.0
 10
387.1754609493157
 20
269.9633663857141
 30
0.0
 10
389.086675052123
 20
269.9357459289235
 30
0.0
 10
390.0424082719369
 20
269.9253886337249
 30
0.0
 10
391.9537099287112
 20
269.9115129644402
 30
0.0
 10
392.9092776156632
 20
269.9079935137005
 30
0.0
 10
393.8645394663746
 20
269.9079935137005
 30
0.0
  0
SPLINE
  5
1DA
330
1F
100
AcDbEntity
  8
1
100
AcDbSpline
210
0.0
220
0.0
230
1.0
 70
     8
 71
     3
 72
    74
 73
    70
 74
     0
 42
0.000000001
 43
0.0000000001
 40
0.0
 40
0.0
 40
0.0
 40
0.0
 40
0.0270638370261878
 40
0.0270638370261878
 40
0.0919262478911085
 40
0.0919262478911085
 40
0.1243574533235688
 40
0.1243574533235688
 40
0.140573056039799
 40
0.140573056039799
 40
0.1567886587560291
 40
0.1567886587560291
 40
0.1892198641884895
 40
0.1892198641884895
 40
0.2216510696209498
 40
0.2216510696209498
 40
0.2540822750534101
 40
0.2540822750534101
 40
0.2865134804858705
 40
0.2865134804858705
 40
0.3189446859183308
 40
0.3189446859183308
 40
0.3513758913507911
 40
0.3513758913507911
 40
0.383807096783251
 40
0.383807096783251
 40
0.416238302215711
 40
0.416238302215711
 40
0.4486695076481708
 40
0.4486695076481708
 40
0.4811007130806307
 40
0.4811007130806307
 40
0.5135319185130905
 40
0.5135319185130905
 40
0.5459631239455504
 40
0.5459631239455504
 40
0.5621787266617805
 40
0.5621787266617805
 40
0.5783943293780106
 40
0.5783943293780106
 40
0.6108255348104716
 40
0.6108255348104716
 40
0.6432567402429323
 40
0.6432567402429323
 40
0.675687945675393
 40
0.675687945675393
 40
0.7081191511078539
 40
0.7081191511078539
 40
0.7405503565403146
 40
0.7405503565403146
 40
0.7729815619727754
 40
0.7729815619727754
 40
0.8054127674052363
 40
0.8054127674052363
 40
0.8378439728376969
 40
0.8378439728376969
 40
0.8540595755539273
 40
0.8540595755539273
 40
0.8702751782701575
 40
0.8702751782701575
 40
0.9027063837026179
 40
0.9027063837026179
 40
0.9189219864188483
 40
0.9189219864188483
 40
0.9351375891350784
 40
0.9351375891350784
 40
0.9675687945675392
 40
0.9675687945675392
 40
1.0
 40
1.0
 40
1.0
 40
1.0
 10
306.1498024336568
 20
307.9080000324577
 30
0.0
 10
306.9237001417725
 20
307.9080190861681
 30
0.0
 10
307.697184054061
 20
307.9057900065015
 30
0.0
 10
310.3229762462685
 20
307.8901356788645
 30
0.0
 10
312.1732333739321
 20
307.8654125205032
 30
0.0
 10
314.9447974848488
 20
307.8044801085342
 30
0.0
 10
315.8680189265472
 20
307.7801889012488
 30
0.0
 10
317.2519330968521
 20
307.737339922604
 30
0.0
 10
317.7130851926573
 20
307.7219882111516
 30
0.0
 10
318.6350943120858
 20
307.6890751320907
 30
0.0
 10
319.0959756348765
 20
307.6715126915029
 30
0.0
 10
320.4779829026561
 20
307.6154153305742
 30
0.0
 10
321.3984637700603
 20
307.5734681152732
 30
0.0
 10
323.2378619393226
 20
307.4799940599908
 30
0.0
 10
324.1567790685389
 20
307.428465383653
 30
0.0
 10
325.9932789541316
 20
307.3154649539277
 30
0.0
 10
326.9108617347529
 20
307.2539913686538
 30
0.0
 10
328.7450032988186
 20
307.1209150038304
 30
0.0
 10
329.661562331633
 20
307.0493106225275
 30
0.0
 10
331.4940439361335
 20
306.896016293341
 30
0.0
 10
332.4099669797103
 20
306.8143252043517
 30
0.0
 10
334.2416304438781
 20
306.6411728628392
 30
0.0
 10
335.1574629658205
 20
306.5497012574076
 30
0.0
 10
336.9889105299094
 20
306.357657653857
 30
0.0
 10
337.9045206605667
 20
306.2570879509682
 30
0.0
 10
339.7360594279296
 20
306.0477758101483
 30
0.0
 10
340.6519893123937
 20
305.9390352297523
 30
0.0
 10
342.4847286669992
 20
305.7145725537067
 30
0.0
 10
343.4015215265183
 20
305.5988418783747
 30
0.0
 10
345.2355866312182
 20
305.3599904994315
 30
0.0
 10
346.1528586941301
 20
305.2368672110481
 30
0.0
 10
347.9876138662017
 20
304.9828157283819
 30
0.0
 10
348.9050972106588
 20
304.8518859440384
 30
0.0
 10
350.7401055385372
 20
304.5818531059965
 30
0.0
 10
351.6577016966209
 20
304.4427379599335
 30
0.0
 10
353.0335735652989
 20
304.2277960381307
 30
0.0
 10
353.4921263881581
 20
304.1551024242148
 30
0.0
 10
354.409084486563
 20
304.0075957619298
 30
0.0
 10
354.8674902770011
 20
303.9327833774615
 30
0.0
 10
356.2425623965991
 20
303.7053198307989
 30
0.0
 10
357.1590860885938
 20
303.5496451429433
 30
0.0
 10
358.9920810621531
 20
303.230971653333
 30
0.0
 10
359.9085518669753
 20
303.0679731239731
 30
0.0
 10
361.7416920327134
 20
302.7352988501265
 30
0.0
 10
362.6583610613398
 20
302.5656234414188
 30
0.0
 10
364.492083479502
 20
302.2201398362863
 30
0.0
 10
365.4091367368029
 20
302.0443323247935
 30
0.0
 10
367.2437553597827
 20
301.6870121159515
 30
0.0
 10
368.161331234602
 20
301.5054978167512
 30
0.0
 10
369.9963678362399
 20
301.1371903831689
 30
0.0
 10
370.9139163610753
 20
300.9503817890439
 30
0.0
 10
372.7490892915994
 20
300.5715600599377
 30
0.0
 10
373.6667138423312
 20
300.3795482577977
 30
0.0
 10
375.5019882950021
 20
299.9902016288968
 30
0.0
 10
376.4196381213078
 20
299.7928675149062
 30
0.0
 10
377.7960429364693
 20
299.4925906374741
 30
0.0
 10
378.2548323621297
 20
299.3917836284137
 30
0.0
 10
379.1723662045649
 20
299.1886678411013
 30
0.0
 10
379.6311122456986
 20
299.0863646356101
 30
0.0
 10
381.007168200318
 20
298.7768152844345
 30
0.0
 10
381.9242839331857
 20
298.5668951565799
 30
0.0
 10
383.2992818586052
 20
298.2455507960133
 30
0.0
 10
383.757511145022
 20
298.1373643185157
 30
0.0
 10
384.6735621999615
 20
297.9188031536107
 30
0.0
 10
385.1314046330862
 20
297.8084233048496
 30
0.0
 10
386.5043924558416
 20
297.4739725981668
 30
0.0
 10
387.4189827065486
 20
297.2465374942389
 30
0.0
 10
389.2470908216362
 20
296.7837891189882
 30
0.0
 10
390.1606049811057
 20
296.5484581162933
 30
0.0
 10
391.0740512225481
 20
296.3106568914053
 30
0.0
  0
SPLINE
  5
1DB
330
1F
100
AcDbEntity
  8
1
100
AcDbSpline
210
0.0
220
0.0
230
1.0
 70
     8
 71
     3
 72
    43
 73
    39
 74
     0
 42
0.000000001
 43
0.0000000001
 40
0.0
 40
0.0
 40
0.0
 40
0.0
 40
0.0301459060707358
 40
0.0301459060707358
 40
0.0602918121414717
 40
0.0602918121414717
 40
0.0904377182122075
 40
0.1205836242829434
 40
0.1205836242829434
 40
0.1808754364244151
 40
0.1808754364244151
 40
0.2411672485658867
 40
0.2411672485658867
 40
0.3014590607073584
 40
0.3014590607073584
 40
0.3316049667780939
 40
0.3316049667780939
 40
0.3617508728488293
 40
0.3617508728488293
 40
0.4220426849903003
 40
0.4220426849903003
 40
0.4823344971317713
 40
0.4823344971317713
 40
0.6029181214147138
 40
0.6029181214147138
 40
0.6632099335561851
 40
0.6632099335561851
 40
0.7235017456976563
 40
0.7235017456976563
 40
0.7837935578391276
 40
0.7837935578391276
 40
0.8440853699805987
 40
0.8440853699805987
 40
0.9043771821220699
 40
0.9043771821220699
 40
0.9646689942635413
 40
0.9646689942635413
 40
1.0
 40
1.0
 40
1.0
 40
1.0
 10
399.8259887695702
 20
307.827340559539
 30
0.0
 10
399.3447216265042
 20
307.8456186889908
 30
0.0
 10
398.8621050443917
 20
307.8603992127605
 30
0.0
 10
397.8939995207595
 20
307.8837338414405
 30
0.0
 10
397.4085106242416
 20
307.8922889562321
 30
0.0
 10
396.4345584364084
 20
307.9039484650721
 30
0.0
 10
395.4576318981914
 20
307.9101582702669
 30
0.0
 10
394.4746920214046
 20
307.9069729442452
 30
0.0
 10
392.9958235280212
 20
307.8962036111152
 30
0.0
 10
392.003937492035
 20
307.8810784951179
 30
0.0
 10
390.0092310372686
 20
307.8397025947245
 30
0.0
 10
389.0064167594893
 20
307.8134611820218
 30
0.0
 10
386.9917244626011
 20
307.7531643359029
 30
0.0
 10
385.9798536034915
 20
307.7191109328591
 30
0.0
 10
384.4571372813545
 20
307.6634139967832
 30
0.0
 10
383.9486627850251
 20
307.6440622555023
 30
0.0
 10
382.9310491864442
 20
307.6038713502293
 30
0.0
 10
382.4218725057214
 20
307.5830310032418
 30
0.0
 10
380.8936068280181
 20
307.518204749812
 30
0.0
 10
379.8737799867645
 20
307.471957974582
 30
0.0
 10
377.8342806966922
 20
307.3718947483869
 30
0.0
 10
376.8145721155527
 20
307.3180636591676
 30
0.0
 10
373.7557756132158
 20
307.1448899699366
 30
0.0
 10
371.7170271179603
 20
307.0139136483484
 30
0.0
 10
368.6604180337362
 20
306.7919719370079
 30
0.0
 10
367.6417987252262
 20
306.7137329638894
 30
0.0
 10
365.6051773473937
 20
306.5482369225108
 30
0.0
 10
364.5871159789749
 20
306.460975939123
 30
0.0
 10
362.5519826778889
 20
306.276851906498
 30
0.0
 10
361.5350763555047
 20
306.1800077742588
 30
0.0
 10
359.5027717319173
 20
305.9759877576766
 30
0.0
 10
358.487371387257
 20
305.8688177155892
 30
0.0
 10
356.4583522088996
 20
305.6430774376751
 30
0.0
 10
355.4447309928273
 20
305.5245157804233
 30
0.0
 10
353.4197001873179
 20
305.274400339351
 30
0.0
 10
352.4083523751966
 20
305.1427072944248
 30
0.0
 10
350.8059514800806
 20
304.9231153613821
 30
0.0
 10
350.2142352027852
 20
304.8396604141324
 30
0.0
 10
349.6228129766151
 20
304.7539127037408
 30
0.0
  0
SPLINE
  5
1DC
330
1F
100
AcDbEntity
  8
1
100
AcDbSpline
210
0.0
220
0.0
230
1.0
 70
     8
 71
     3
 72
    36
 73
    32
 74
     0
 42
0.000000001
 43
0.0000000001
 40
0.0
 40
0.0
 40
0.0
 40
0.0
 40
0.0624999999999999
 40
0.0624999999999999
 40
0.1249999999999998
 40
0.1249999999999998
 40
0.1874999999999996
 40
0.1874999999999996
 40
0.2499999999999995
 40
0.2499999999999995
 40
0.3124999999999994
 40
0.3124999999999994
 40
0.3437499999999993
 40
0.3437499999999993
 40
0.3749999999999992
 40
0.3749999999999992
 40
0.4374999999999992
 40
0.4374999999999992
 40
0.4999999999999992
 40
0.4999999999999992
 40
0.6249999999999995
 40
0.6249999999999995
 40
0.7499999999999999
 40
0.7499999999999999
 40
0.8125
 40
0.8125
 40
0.8437500000000001
 40
0.8437500000000001
 40
0.8750000000000001
 40
0.8750000000000001
 40
1.0
 40
1.0
 40
1.0
 40
1.0
 10
292.0322589432653
 20
270.2578263371841
 30
0.0
 10
291.7373983014841
 20
270.2749660795823
 30
0.0
 10
291.4469559161412
 20
270.2862551170492
 30
0.0
 10
290.8738058174389
 20
270.2986345305991
 30
0.0
 10
290.5911015862359
 20
270.2997225402762
 30
0.0
 10
290.0326329972184
 20
270.2929377568148
 30
0.0
 10
289.756870821057
 20
270.2850632815304
 30
0.0
 10
289.2117054708215
 20
270.2613926554459
 30
0.0
 10
288.9423037200619
 20
270.2455952435601
 30
0.0
 10
288.4094400307197
 20
270.2069623922162
 30
0.0
 10
288.1459790501058
 20
270.1841259641348
 30
0.0
 10
287.7550232669621
 20
270.1451638524088
 30
0.0
 10
287.6253140042769
 20
270.1313784213264
 30
0.0
 10
287.3684453794411
 20
270.1024602399323
 30
0.0
 10
287.2411526098578
 20
270.0873155163188
 30
0.0
 10
286.8625707116084
 20
270.0399810127767
 30
0.0
 10
286.614572743003
 20
270.005894420642
 30
0.0
 10
286.1268176808051
 20
269.9333972437673
 30
0.0
 10
285.887061943386
 20
269.894985593506
 30
0.0
 10
285.1795807069752
 20
269.7742154425395
 30
0.0
 10
284.723597079105
 20
269.6863447954942
 30
0.0
 10
283.841214933748
 20
269.5001827238646
 30
0.0
 10
283.4148319277797
 20
269.4018742756076
 30
0.0
 10
282.7970925920084
 20
269.2493767426624
 30
0.0
 10
282.5948269727554
 20
269.1977023573871
 30
0.0
 10
282.2969193879495
 20
269.1192677832396
 30
0.0
 10
282.1985324225097
 20
269.0929690889914
 30
0.0
 10
282.0035977553014
 20
269.0401211948763
 30
0.0
 10
281.9070249205139
 20
269.0135645642843
 30
0.0
 10
281.4298727269237
 20
268.8806069452386
 30
0.0
 10
281.0655434215911
 20
268.7734437299918
 30
0.0
 10
280.7185504442805
 20
268.6674560869963
 30
0.0
  0
LINE
  5
1F7
330
1F
100
AcDbEntity
  8
SK4
100
AcDbLine
 10
200.904842
 20
288.907994
 30
0.0
 11
277.404842
 21
288.907994
 31
0.0
  0
LINE
  5
1F8
330
1F
100
AcDbEntity
  8
4
100
AcDbLine
 10
269.032259
 20
288.907994
 30
0.0
 11
420.3409809999999
 21
288.907994
 31
0.0
  0
MTEXT
  5
1FE
330
1F
100
AcDbEntity
  8
SK6
100
AcDbMText
 10
298.851423
 20
241.131885
 30
0.0
 40
3.5
 41
0.0
 71
     7
 72
     5
  1
\W0.7240;803D-39-117-S40
  7
cesky
 73
     2
 44
0.8433729999999998
  0
MTEXT
  5
30F
330
1F
100
AcDbEntity
  8
2
100
AcDbMText
 10
342.327842
 20
327.385163
 30
0.0
 40
3.5
 41
0.0
 71
     7
 72
     5
  1
\W0.7809;142
  7
cesky
 73
     2
 44
0.8433729999999998
  0
LINE
  5
310
330
1F
100
AcDbEntity
  8
2
100
AcDbLine
 10
416.4048419999999
 20
308.407994
 30
0.0
 11
416.4048419999999
 21
328.5109970000001
 31
0.0
  0
LINE
  5
311
330
1F
100
AcDbEntity
  8
2
100
AcDbLine
 10
274.404842
 20
289.907567
 30
0.0
 11
274.404842
 21
328.5109970000001
 31
0.0
  0
LINE
  5
312
330
1F
100
AcDbEntity
  8
2
100
AcDbLine
 10
416.4048419999999
 20
327.510997
 30
0.0
 11
274.404842
 21
327.510997
 31
0.0
  0
SOLID
  5
313
330
1F
100
AcDbEntity
  8
2
100
AcDbTrace
 10
416.4048419999999
 20
327.510997
 30
0.0
 11
412.904844
 21
326.893852
 31
0.0
 12
412.90484
 22
328.128141
 32
0.0
 13
412.90484
 23
328.128141
 33
0.0
  0
SOLID
  5
314
330
1F
100
AcDbEntity
  8
2
100
AcDbTrace
 10
274.404842
 20
327.510997
 30
0.0
 11
277.90484
 21
328.128141
 31
0.0
 12
277.904844
 22
326.893852
 32
0.0
 13
277.904844
 23
326.893852
 33
0.0
  0
MTEXT
  5
315
330
1F
100
AcDbEntity
  8
2
100
AcDbMText
 10
434.638318
 20
291.967578
 30
0.0
 40
3.5
 41
0.0
 71
     7
 72
     5
  1
\W0.7259;39
  7
cesky
 11
0.0000000000000001
 21
1.0
 31
0.0
 73
     2
 44
0.8433729999999998
  0
MTEXT
  5
316
330
1F
100
AcDbEntity
  8
2
100
AcDbMText
 10
434.638318
 20
285.230078
 30
0.0
 40
3.5
 41
0.0
 71
     7
 72
     5
  1
\W3.0115;\H2.63;%%c\H3.50;
  7
cesky
 11
0.0000000000000001
 21
1.0
 31
0.0
 73
     2
 44
0.8433729999999998
  0
LINE
  5
317
330
1F
100
AcDbEntity
  8
2
100
AcDbLine
 10
418.4048419999999
 20
308.407994
 30
0.0
 11
435.825734
 21
308.407994
 31
0.0
  0
LINE
  5
318
330
1F
100
AcDbEntity
  8
2
100
AcDbLine
 10
434.8257339999999
 20
308.407994
 30
0.0
 11
434.8257339999999
 21
285.072578
 31
0.0
  0
SOLID
  5
319
330
1F
100
AcDbEntity
  8
2
100
AcDbTrace
 10
434.8257339999999
 20
308.407994
 30
0.0
 11
435.442879
 21
304.907996
 31
0.0
 12
434.2085899999999
 22
304.9079910000001
 32
0.0
 13
434.2085899999999
 23
304.9079910000001
 33
0.0
  0
MTEXT
  5
31A
330
1F
100
AcDbEntity
  8
2
100
AcDbMText
 10
307.327842
 20
340.562135
 30
0.0
 40
3.5
 41
0.0
 71
     7
 72
     5
  1
\W0.7809;212
  7
cesky
 73
     2
 44
0.8433729999999998
  0
LINE
  5
31B
330
1F
100
AcDbEntity
  8
2
100
AcDbLine
 10
416.4048419999999
 20
310.407994
 30
0.0
 11
416.4048419999999
 21
341.687968
 31
0.0
  0
LINE
  5
31C
330
1F
100
AcDbEntity
  8
2
100
AcDbLine
 10
204.404842
 20
306.907994
 30
0.0
 11
204.404842
 21
341.687968
 31
0.0
  0
LINE
  5
31D
330
1F
100
AcDbEntity
  8
2
100
AcDbLine
 10
416.4048419999999
 20
340.687968
 30
0.0
 11
204.404842
 21
340.687968
 31
0.0
  0
SOLID
  5
31E
330
1F
100
AcDbEntity
  8
2
100
AcDbTrace
 10
416.4048419999999
 20
340.687968
 30
0.0
 11
412.904844
 21
340.070823
 31
0.0
 12
412.90484
 22
341.305112
 32
0.0
 13
412.90484
 23
341.305112
 33
0.0
  0
SOLID
  5
31F
330
1F
100
AcDbEntity
  8
2
100
AcDbTrace
 10
204.404842
 20
340.687968
 30
0.0
 11
207.90484
 21
341.305112
 31
0.0
 12
207.904844
 22
340.070823
 32
0.0
 13
207.904844
 23
340.070823
 33
0.0
  0
MTEXT
  5
320
330
1F
100
AcDbEntity
  8
2
100
AcDbMText
 10
237.590342
 20
327.385163
 30
0.0
 40
3.5
 41
0.0
 71
     7
 72
     5
  1
\W0.7045;70
  7
cesky
 73
     2
 44
0.8433729999999998
  0
LINE
  5
321
330
1F
100
AcDbEntity
  8
2
100
AcDbLine
 10
274.404842
 20
288.907994
 30
0.0
 11
274.404842
 21
328.5109970000001
 31
0.0
  0
LINE
  5
322
330
1F
100
AcDbEntity
  8
2
100
AcDbLine
 10
204.404842
 20
306.907994
 30
0.0
 11
204.404842
 21
328.5109970000001
 31
0.0
  0
LINE
  5
323
330
1F
100
AcDbEntity
  8
2
100
AcDbLine
 10
274.404842
 20
327.510997
 30
0.0
 11
204.404842
 21
327.510997
 31
0.0
  0
SOLID
  5
324
330
1F
100
AcDbEntity
  8
2
100
AcDbTrace
 10
274.404842
 20
327.510997
 30
0.0
 11
270.904844
 21
326.893852
 31
0.0
 12
270.90484
 22
328.128141
 32
0.0
 13
270.90484
 23
328.128141
 33
0.0
  0
SOLID
  5
325
330
1F
100
AcDbEntity
  8
2
100
AcDbTrace
 10
204.404842
 20
327.510997
 30
0.0
 11
207.90484
 21
328.128141
 31
0.0
 12
207.904844
 22
326.893852
 32
0.0
 13
207.904844
 23
326.893852
 33
0.0
  0
MTEXT
  5
326
330
1F
100
AcDbEntity
  8
2
100
AcDbMText
 10
347.556099
 20
316.722179
 30
0.0
 40
3.5
 41
0.0
 71
     7
 72
     5
  1
\W0.8654;126,5
  7
cesky
 73
     2
 44
0.8433729999999998
  0
LINE
  5
327
330
1F
100
AcDbEntity
  8
2
100
AcDbLine
 10
416.4048419999999
 20
310.407994
 30
0.0
 11
416.4048419999999
 21
317.848012
 31
0.0
  0
LINE
  5
328
330
1F
100
AcDbEntity
  8
2
100
AcDbLine
 10
289.911355
 20
309.389342
 30
0.0
 11
289.911355
 21
317.848012
 31
0.0
  0
LINE
  5
329
330
1F
100
AcDbEntity
  8
2
100
AcDbLine
 10
416.4048419999999
 20
316.848012
 30
0.0
 11
289.911355
 21
316.848012
 31
0.0
  0
SOLID
  5
32A
330
1F
100
AcDbEntity
  8
2
100
AcDbTrace
 10
416.4048419999999
 20
316.848012
 30
0.0
 11
412.904844
 21
316.2308680000001
 31
0.0
 12
412.90484
 22
317.465157
 32
0.0
 13
412.90484
 23
317.465157
 33
0.0
  0
SOLID
  5
32B
330
1F
100
AcDbEntity
  8
2
100
AcDbTrace
 10
289.911355
 20
316.848012
 30
0.0
 11
293.411353
 21
317.465157
 31
0.0
 12
293.411358
 22
316.2308680000001
 32
0.0
 13
293.411358
 23
316.2308680000001
 33
0.0
  0
MTEXT
  5
32C
330
1F
100
AcDbEntity
  8
SK2
100
AcDbMText
 10
192.180193
 20
290.434244
 30
0.0
 40
3.5
 41
0.0
 71
     7
 72
     5
  1
\W0.7045;40
  7
cesky
 11
0.0000000000000001
 21
1.0
 31
0.0
 73
     2
 44
0.8433729999999998
  0
MTEXT
  5
32D
330
1F
100
AcDbEntity
  8
SK2
100
AcDbMText
 10
192.180193
 20
283.696744
 30
0.0
 40
3.5
 41
0.0
 71
     7
 72
     5
  1
\W3.0115;\H2.63;%%c\H3.50;
  7
cesky
 11
0.0000000000000001
 21
1.0
 31
0.0
 73
     2
 44
0.8433729999999998
  0
LINE
  5
32E
330
1F
100
AcDbEntity
  8
SK2
100
AcDbLine
 10
206.404842
 20
308.907994
 30
0.0
 11
191.367609
 21
308.907994
 31
0.0
  0
LINE
  5
32F
330
1F
100
AcDbEntity
  8
SK2
100
AcDbLine
 10
206.404842
 20
268.907994
 30
0.0
 11
191.367609
 21
268.907994
 31
0.0
  0
LINE
  5
330
330
1F
100
AcDbEntity
  8
SK2
100
AcDbLine
 10
192.367609
 20
308.907994
 30
0.0
 11
192.367609
 21
268.907994
 31
0.0
  0
SOLID
  5
331
330
1F
100
AcDbEntity
  8
SK2
100
AcDbTrace
 10
192.367609
 20
308.907994
 30
0.0
 11
192.984754
 21
305.407996
 31
0.0
 12
191.750465
 22
305.407991
 32
0.0
 13
191.750465
 23
305.407991
 33
0.0
  0
SOLID
  5
332
330
1F
100
AcDbEntity
  8
SK2
100
AcDbTrace
 10
192.367609
 20
268.907994
 30
0.0
 11
191.750465
 21
272.407991
 31
0.0
 12
192.984754
 22
272.407996
 32
0.0
 13
192.984754
 23
272.407996
 33
0.0
  0
MTEXT
  5
333
330
1F
100
AcDbEntity
  8
SK2
100
AcDbMText
 10
179.832065
 20
290.434244
 30
0.0
 40
3.5
 41
0.0
 71
     7
 72
     5
  1
\W0.7045;50
  7
cesky
 11
0.0000000000000001
 21
1.0
 31
0.0
 73
     2
 44
0.8433729999999998
  0
MTEXT
  5
334
330
1F
100
AcDbEntity
  8
SK2
100
AcDbMText
 10
179.832065
 20
283.696744
 30
0.0
 40
3.5
 41
0.0
 71
     7
 72
     5
  1
\W3.0115;\H2.63;%%c\H3.50;
  7
cesky
 11
0.0000000000000001
 21
1.0
 31
0.0
 73
     2
 44
0.8433729999999998
  0
LINE
  5
335
330
1F
100
AcDbEntity
  8
SK2
100
AcDbLine
 10
274.904842
 20
313.907994
 30
0.0
 11
179.019482
 21
313.907994
 31
0.0
  0
LINE
  5
336
330
1F
100
AcDbEntity
  8
SK2
100
AcDbLine
 10
274.904842
 20
263.907994
 30
0.0
 11
179.019482
 21
263.907994
 31
0.0
  0
LINE
  5
337
330
1F
100
AcDbEntity
  8
SK2
100
AcDbLine
 10
180.019482
 20
313.907994
 30
0.0
 11
180.019482
 21
263.907994
 31
0.0
  0
SOLID
  5
338
330
1F
100
AcDbEntity
  8
SK2
100
AcDbTrace
 10
180.019482
 20
313.907994
 30
0.0
 11
180.636627
 21
310.407996
 31
0.0
 12
179.402338
 22
310.407991
 32
0.0
 13
179.402338
 23
310.407991
 33
0.0
  0
SOLID
  5
339
330
1F
100
AcDbEntity
  8
SK2
100
AcDbTrace
 10
180.019482
 20
263.907994
 30
0.0
 11
179.402338
 21
267.4079910000001
 31
0.0
 12
180.636627
 22
267.407996
 32
0.0
 13
180.636627
 23
267.407996
 33
0.0
  0
LINE
  5
33A
330
1F
100
AcDbEntity
  8
CUT
100
AcDbLine
 10
415.9489547227035
 20
298.9514815920228
 30
0.0
 11
416.2532685852163
 21
298.4450447125749
 31
0.0
  0
LINE
  5
33B
330
1F
100
AcDbEntity
  8
CUT
100
AcDbLine
 10
416.2532685852162
 20
298.4450447125749
 30
0.0
 11
416.4048419452957
 21
289.7667308204213
 31
0.0
  0
LINE
  5
33D
330
1F
100
AcDbEntity
  8
CUT
100
AcDbLine
 10
415.6365862130698
 20
307.6585662292483
 30
0.0
 11
415.9489547227034
 21
298.9514815920228
 31
0.0
  0
LINE
  5
33F
330
1F
100
AcDbEntity
  8
CUT
100
AcDbLine
 10
403.6947585857971
 20
307.9980470570311
 30
0.0
 11
414.8329377848753
 21
308.4050962065995
 31
0.0
  0
LINE
  5
340
330
1F
100
AcDbEntity
  8
CUT
100
AcDbLine
 10
416.4048419999999
 20
288.907994
 30
0.0
 11
402.946641
 21
288.907994
 31
0.0
  0
LINE
  5
341
330
1F
100
AcDbEntity
  8
CUT
100
AcDbLine
 10
402.946641
 20
288.907994
 30
0.0
 11
402.946641
 21
307.194423
 31
0.0
  0
LINE
  5
342
330
1F
100
AcDbEntity
  8
CUT
100
AcDbLine
 10
416.4048419999999
 20
289.766731
 30
0.0
 11
416.4048419999999
 21
288.907994
 31
0.0
  0
LINE
  5
343
330
1F
100
AcDbEntity
  8
CUT
100
AcDbLine
 10
402.946640934253
 20
307.19442336364
 30
0.0
 11
402.946640934253
 21
307.19442336364
 31
0.0
  0
ARC
  5
344
330
1F
100
AcDbEntity
  8
CUT
100
AcDbCircle
 10
403.7284807279303
 20
307.2166195487237
 30
0.0
 40
0.7821548015640153
100
AcDbArc
 50
92.47103963368175
 51
181.6261723139688
  0
LINE
  5
345
330
1F
100
AcDbEntity
  8
CUT
100
AcDbLine
 10
414.8329377848753
 20
308.4050962065995
 30
0.0
 11
414.8329377848753
 21
308.4050962065995
 31
0.0
  0
ARC
  5
346
330
1F
100
AcDbEntity
  8
CUT
100
AcDbCircle
 10
414.8566629323334
 20
307.6248030612189
 30
0.0
 40
0.7806537486939094
100
AcDbArc
 50
2.478807839201399
 51
91.74156617395846
  0
ENDSEC
  0
SECTION
  2
OBJECTS
  0
DICTIONARY
  5
C
330
0
100
AcDbDictionary
281
     1
  3
ACAD_CIP_PREVIOUS_PRODUCT_INFO
350
30C
  3
ACAD_COLOR
350
307
  3
ACAD_DETAILVIEWSTYLE
350
303
  3
ACAD_GROUP
350
D
  3
ACAD_LAYOUT
350
1A
  3
ACAD_MATERIAL
350
43
  3
ACAD_MLEADERSTYLE
350
6B
  3
ACAD_MLINESTYLE
350
17
  3
ACAD_PLOTSETTINGS
350
19
  3
ACAD_PLOTSTYLENAME
350
E
  3
ACAD_SCALELIST
350
47
  3
ACAD_SECTIONVIEWSTYLE
350
304
  3
ACAD_TABLESTYLE
350
69
  3
ACAD_VISUALSTYLE
350
2A
  3
ACDB_RECOMPOSE_DATA
350
372
  3
AcDbVariableDictionary
350
2C0
  0
DICTIONARY
  5
355
330
10
100
AcDbDictionary
280
     1
281
     1
  3
ADSK_XREC_LAYER_RECONCILED
360
356
  0
DICTIONARY
  5
357
330
347
100
AcDbDictionary
280
     1
281
     1
  3
ADSK_XREC_LAYER_RECONCILED
360
358
  0
DICTIONARY
  5
359
330
348
100
AcDbDictionary
280
     1
281
     1
  3
ADSK_XREC_LAYER_RECONCILED
360
35A
  0
DICTIONARY
  5
35B
330
349
100
AcDbDictionary
280
     1
281
     1
  3
ADSK_XREC_LAYER_RECONCILED
360
35C
  0
DICTIONARY
  5
35D
330
34B
100
AcDbDictionary
280
     1
281
     1
  3
ADSK_XREC_LAYER_RECONCILED
360
35E
  0
DICTIONARY
  5
35F
330
34C
100
AcDbDictionary
280
     1
281
     1
  3
ADSK_XREC_LAYER_RECONCILED
360
360
  0
DICTIONARY
  5
361
330
34E
100
AcDbDictionary
280
     1
281
     1
  3
ADSK_XREC_LAYER_RECONCILED
360
362
  0
DICTIONARY
  5
363
330
34F
100
AcDbDictionary
280
     1
281
     1
  3
ADSK_XREC_LAYER_RECONCILED
360
364
  0
DICTIONARY
  5
365
330
350
100
AcDbDictionary
280
     1
281
     1
  3
ADSK_XREC_LAYER_RECONCILED
360
366
  0
DICTIONARY
  5
367
330
351
100
AcDbDictionary
280
     1
281
     1
  3
ADSK_XREC_LAYER_RECONCILED
360
368
  0
DICTIONARY
  5
369
330
352
100
AcDbDictionary
280
     1
281
     1
  3
ADSK_XREC_LAYER_RECONCILED
360
36A
  0
DICTIONARY
  5
36B
330
353
100
AcDbDictionary
280
     1
281
     1
  3
ADSK_XREC_LAYER_RECONCILED
360
36C
  0
DICTIONARY
  5
30D
330
1F
100
AcDbDictionary
280
     1
281
     1
  3
ACAD_SORTENTS
360
30E
  0
XRECORD
  5
30C
102
{ACAD_REACTORS
330
C
102
}
330
C
100
AcDbXrecord
280
     1
300
ACD
300
2019
300
87084ACD_2019_0F
  0
DICTIONARY
  5
307
102
{ACAD_REACTORS
330
C
102
}
330
C
100
AcDbDictionary
281
     1
  0
DICTIONARY
  5
303
102
{ACAD_REACTORS
330
C
102
}
330
C
100
AcDbDictionary
281
     1
  3
Metric50
350
309
  0
DICTIONARY
  5
D
102
{ACAD_REACTORS
330
C
102
}
330
C
100
AcDbDictionary
281
     1
  3
NULOVY_BOD
350
354
  0
DICTIONARY
  5
1A
102
{ACAD_REACTORS
330
C
102
}
330
C
100
AcDbDictionary
281
     1
  3
Layout1
350
1E
  3
Layout2
350
26
  3
Model
350
22
  0
DICTIONARY
  5
43
102
{ACAD_REACTORS
330
C
102
}
330
C
100
AcDbDictionary
281
     1
  3
ByBlock
350
45
  3
ByLayer
350
44
  3
Global
350
46
  0
DICTIONARY
  5
6B
102
{ACAD_REACTORS
330
C
102
}
330
C
100
AcDbDictionary
281
     1
  3
Standard
350
6C
  0
DICTIONARY
  5
17
102
{ACAD_REACTORS
330
C
102
}
330
C
100
AcDbDictionary
281
     1
  3
Standard
350
18
  0
DICTIONARY
  5
19
102
{ACAD_REACTORS
330
C
102
}
330
C
100
AcDbDictionary
281
     1
  0
ACDBDICTIONARYWDFLT
  5
E
102
{ACAD_REACTORS
330
C
102
}
330
C
100
AcDbDictionary
281
     1
  3
Normal
350
F
100
AcDbDictionaryWithDefault
340
F
  0
DICTIONARY
  5
47
102
{ACAD_REACTORS
330
C
102
}
330
C
100
AcDbDictionary
281
     1
  3
A0
350
48
  3
A1
350
49
  3
A2
350
4A
  3
A3
350
4B
  3
A4
350
4C
  3
A5
350
4D
  3
A6
350
4E
  3
A7
350
4F
  3
A8
350
50
  3
A9
350
51
  3
B0
350
52
  3
B1
350
53
  3
B2
350
54
  3
B3
350
55
  3
B4
350
56
  3
B5
350
57
  3
B6
350
58
  3
B7
350
59
  3
B8
350
5A
  3
B9
350
5B
  3
C0
350
5C
  3
C1
350
5D
  3
C2
350
5E
  3
C3
350
5F
  3
C4
350
60
  3
C5
350
61
  3
C6
350
62
  3
C7
350
63
  3
C8
350
64
  3
C9
350
65
  3
D0
350
66
  3
D1
350
67
  3
D2
350
68
  0
DICTIONARY
  5
304
102
{ACAD_REACTORS
330
C
102
}
330
C
100
AcDbDictionary
281
     1
  3
Metric50
350
308
  0
DICTIONARY
  5
69
102
{ACAD_REACTORS
330
C
102
}
330
C
100
AcDbDictionary
281
     1
  3
Standard
350
6A
  0
DICTIONARY
  5
2A
102
{ACAD_REACTORS
330
C
102
}
330
C
100
AcDbDictionary
281
     1
  3
2dWireframe
350
2F
  3
Basic
350
32
  3
Brighten
350
36
  3
ColorChange
350
3A
  3
Conceptual
350
34
  3
Dim
350
35
  3
EdgeColorOff
350
3D
  3
Facepattern
350
39
  3
Flat
350
2B
  3
FlatWithEdges
350
2C
  3
Gouraud
350
2D
  3
GouraudWithEdges
350
2E
  3
Hidden
350
31
  3
JitterOff
350
3B
  3
Linepattern
350
38
  3
OverhangOff
350
3C
  3
Realistic
350
33
  3
Shaded
350
42
  3
Shaded with edges
350
41
  3
Shades of Gray
350
3E
  3
Sketchy
350
3F
  3
Thicken
350
37
  3
Wireframe
350
30
  3
X-Ray
350
40
  0
XRECORD
  5
372
102
{ACAD_REACTORS
330
C
102
}
330
C
100
AcDbXrecord
280
     1
 90
        1
330
6A
  0
DICTIONARY
  5
2C0
102
{ACAD_REACTORS
330
C
102
}
330
C
100
AcDbDictionary
281
     1
  3
CANNOSCALE
350
2C1
  3
CMLEADERSTYLE
350
302
  3
CTABLESTYLE
350
301
  3
CVIEWDETAILSTYLE
350
36D
  3
CVIEWSECTIONSTYLE
350
36E
  3
MSLTSCALE
350
2C2
  3
XCLIPFRAME
350
36F
  0
XRECORD
  5
356
102
{ACAD_REACTORS
330
355
102
}
330
355
100
AcDbXrecord
280
     1
290
     1
  0
XRECORD
  5
358
102
{ACAD_REACTORS
330
357
102
}
330
357
100
AcDbXrecord
280
     1
290
     1
  0
XRECORD
  5
35A
102
{ACAD_REACTORS
330
359
102
}
330
359
100
AcDbXrecord
280
     1
290
     1
  0
XRECORD
  5
35C
102
{ACAD_REACTORS
330
35B
102
}
330
35B
100
AcDbXrecord
280
     1
290
     1
  0
XRECORD
  5
35E
102
{ACAD_REACTORS
330
35D
102
}
330
35D
100
AcDbXrecord
280
     1
290
     1
  0
XRECORD
  5
360
102
{ACAD_REACTORS
330
35F
102
}
330
35F
100
AcDbXrecord
280
     1
290
     1
  0
XRECORD
  5
362
102
{ACAD_REACTORS
330
361
102
}
330
361
100
AcDbXrecord
280
     1
290
     1
  0
XRECORD
  5
364
102
{ACAD_REACTORS
330
363
102
}
330
363
100
AcDbXrecord
280
     1
290
     1
  0
XRECORD
  5
366
102
{ACAD_REACTORS
330
365
102
}
330
365
100
AcDbXrecord
280
     1
290
     1
  0
XRECORD
  5
368
102
{ACAD_REACTORS
330
367
102
}
330
367
100
AcDbXrecord
280
     1
290
     1
  0
XRECORD
  5
36A
102
{ACAD_REACTORS
330
369
102
}
330
369
100
AcDbXrecord
280
     1
290
     1
  0
XRECORD
  5
36C
102
{ACAD_REACTORS
330
36B
102
}
330
36B
100
AcDbXrecord
280
     1
290
     1
  0
SORTENTSTABLE
  5
30E
102
{ACAD_REACTORS
330
30D
102
}
330
30D
100
AcDbSortentsTable
330
1F
331
30F
  5
232
331
310
  5
24B
331
311
  5
30F
331
312
  5
310
331
313
  5
311
331
314
  5
312
331
315
  5
313
331
316
  5
314
331
317
  5
315
331
318
  5
316
331
319
  5
317
331
31A
  5
328
331
31B
  5
329
331
31C
  5
32A
331
31D
  5
32B
331
31E
  5
32C
331
31F
  5
32D
331
320
  5
32E
331
321
  5
32F
331
322
  5
330
331
323
  5
331
331
324
  5
332
331
325
  5
333
331
326
  5
334
331
327
  5
335
331
328
  5
336
331
329
  5
337
331
32A
  5
338
331
32B
  5
339
331
32C
  5
31A
331
32D
  5
31B
331
32E
  5
31C
331
32F
  5
31D
331
330
  5
31E
331
331
  5
31F
331
332
  5
320
331
333
  5
321
331
334
  5
322
331
335
  5
323
331
336
  5
324
331
337
  5
325
331
338
  5
326
331
339
  5
327
331
33D
  5
340
331
33F
  5
343
331
340
  5
344
331
341
  5
345
331
342
  5
346
331
343
  5
33D
331
344
  5
33F
331
345
  5
341
331
346
  5
342
  0
ACDBDETAILVIEWSTYLE
  5
309
102
{ACAD_XDICTIONARY
360
3A6
102
}
102
{ACAD_REACTORS
330
303
102
}
330
303
100
AcDbModelDocViewStyle
 70
     0
  3
Metric50
290
     0
100
AcDbDetailViewStyle
 70
     0
 71
     0
 90
        3
 71
     1
340
11
 62
   256
 40
5.0
340
0
 62
   256
 40
5.0
300

 40
0.0
280
     1
 71
     2
340
16
 90
       25
 62
   256
 71
     3
340
11
 62
   256
 40
5.0
 90
        0
 40
15.0
 90
        1
300
%<\AcVar ViewDetailId>% (%<\AcVar ViewScale \f "%sn">%)
 71
     4
340
16
 90
       25
 62
   256
340
16
 90
       25
 62
   256
280
     0
  0
GROUP
  5
354
102
{ACAD_REACTORS
330
D
102
}
330
D
100
AcDbGroup
300

 70
     0
 71
     1
340
73
  0
LAYOUT
  5
1E
102
{ACAD_REACTORS
330
1A
102
}
330
1A
100
AcDbPlotSettings
  1

  2
none_device
  4

  6

 40
0.0
 41
0.0
 42
0.0
 43
0.0
 44
0.0
 45
0.0
 46
0.0
 47
0.0
 48
0.0
 49
0.0
140
0.0
141
0.0
142
1.0
143
1.0
 70
   688
 72
     0
 73
     0
 74
     5
  7

 75
    16
147
1.0
 76
     0
 77
     2
 78
   300
148
0.0
149
0.0
100
AcDbLayout
  1
Layout1
 70
     1
 71
     1
 10
-0.5
 20
-0.5
 11
5.0
 21
5.0
 12
0.0
 22
0.0
 32
0.0
 14
-0.5
 24
-0.5
 34
-0.5
 15
5.0
 25
5.0
 35
5.0
146
0.0
 13
0.0
 23
0.0
 33
0.0
 16
1.0
 26
0.0
 36
0.0
 17
0.0
 27
1.0
 37
0.0
 76
     0
330
1B
  0
LAYOUT
  5
26
102
{ACAD_REACTORS
330
1A
102
}
330
1A
100
AcDbPlotSettings
  1

  2
none_device
  4

  6

 40
0.0
 41
0.0
 42
0.0
 43
0.0
 44
0.0
 45
0.0
 46
0.0
 47
0.0
 48
0.0
 49
0.0
140
0.0
141
0.0
142
1.0
143
1.0
 70
   688
 72
     0
 73
     0
 74
     5
  7

 75
    16
147
1.0
 76
     0
 77
     2
 78
   300
148
0.0
149
0.0
100
AcDbLayout
  1
Layout2
 70
     1
 71
     2
 10
0.0
 20
0.0
 11
0.0
 21
0.0
 12
0.0
 22
0.0
 32
0.0
 14
0.0
 24
0.0
 34
0.0
 15
0.0
 25
0.0
 35
0.0
146
0.0
 13
0.0
 23
0.0
 33
0.0
 16
1.0
 26
0.0
 36
0.0
 17
0.0
 27
1.0
 37
0.0
 76
     0
330
23
  0
LAYOUT
  5
22
102
{ACAD_REACTORS
330
1A
102
}
330
1A
100
AcDbPlotSettings
  1

  2
none_device
  4
Letter_(8.50_x_11.00_Inches)
  6

 40
6.349999999999999
 41
6.349999999999999
 42
6.350005
 43
6.350005
 44
215.9
 45
279.4
 46
0.0
 47
0.0
 48
0.0
 49
0.0
140
0.0
141
0.0
142
1.0
143
1.0
 70
  1712
 72
     0
 73
     0
 74
     0
  7

 75
     0
147
1.0
 76
     0
 77
     2
 78
   300
148
0.0
149
0.0
100
AcDbLayout
  1
Model
 70
     1
 71
     0
 10
-0.5
 20
-0.5
 11
5.0
 21
5.0
 12
0.0
 22
0.0
 32
0.0
 14
-0.5
 24
-0.5
 34
-0.5
 15
5.0
 25
5.0
 35
5.0
146
0.0
 13
0.0
 23
0.0
 33
0.0
 16
1.0
 26
0.0
 36
0.0
 17
0.0
 27
1.0
 37
0.0
 76
     0
330
1F
331
29
  0
MATERIAL
  5
45
102
{ACAD_XDICTIONARY
360
2F6
102
}
102
{ACAD_REACTORS
330
43
102
}
330
43
100
AcDbMaterial
  1
ByBlock
  0
MATERIAL
  5
44
102
{ACAD_XDICTIONARY
360
2F4
102
}
102
{ACAD_REACTORS
330
43
102
}
330
43
100
AcDbMaterial
  1
ByLayer
  0
MATERIAL
  5
46
102
{ACAD_XDICTIONARY
360
2F8
102
}
102
{ACAD_REACTORS
330
43
102
}
330
43
100
AcDbMaterial
  1
Global
  0
MLEADERSTYLE
  5
6C
102
{ACAD_REACTORS
330
6B
102
}
330
6B
100
AcDbMLeaderStyle
170
     2
171
     1
172
     0
 90
        2
 40
0.0
 41
0.0
173
     1
 91
-1056964608
340
14
 92
       -2
290
     1
 42
0.09
291
     1
 43
0.36
  3
Standard
 44
0.18
300

342
11
174
     1
178
     6
175
     1
176
     0
 93
-1056964608
 45
0.18
292
     0
297
     0
 46
0.18
 94
-1056964608
 47
1.0
 49
1.0
140
1.0
293
     1
141
0.0
294
     1
177
     0
142
1.0
295
     0
296
     0
143
0.125
1001
ACAD_MLEADERVER
1070
     2
  0
MLINESTYLE
  5
18
102
{ACAD_REACTORS
330
17
102
}
330
17
100
AcDbMlineStyle
  2
STANDARD
 70
     0
  3

 62
   256
 51
90.0
 52
90.0
 71
     2
 49
0.5
 62
   256
  6
BYLAYER
 49
-0.5
 62
   256
  6
BYLAYER
  0
ACDBPLACEHOLDER
  5
F
102
{ACAD_REACTORS
330
E
102
}
330
E
  0
SCALE
  5
48
102
{ACAD_REACTORS
330
47
102
}
330
47
100
AcDbScale
 70
     0
300
1:1
140
1.0
141
1.0
290
     1
  0
SCALE
  5
49
102
{ACAD_REACTORS
330
47
102
}
330
47
100
AcDbScale
 70
     0
300
1:2
140
1.0
141
2.0
290
     0
  0
SCALE
  5
4A
102
{ACAD_REACTORS
330
47
102
}
330
47
100
AcDbScale
 70
     0
300
1:4
140
1.0
141
4.0
290
     0
  0
SCALE
  5
4B
102
{ACAD_REACTORS
330
47
102
}
330
47
100
AcDbScale
 70
     0
300
1:5
140
1.0
141
5.0
290
     0
  0
SCALE
  5
4C
102
{ACAD_REACTORS
330
47
102
}
330
47
100
AcDbScale
 70
     0
300
1:8
140
1.0
141
8.0
290
     0
  0
SCALE
  5
4D
102
{ACAD_REACTORS
330
47
102
}
330
47
100
AcDbScale
 70
     0
300
1:10
140
1.0
141
10.0
290
     0
  0
SCALE
  5
4E
102
{ACAD_REACTORS
330
47
102
}
330
47
100
AcDbScale
 70
     0
300
1:16
140
1.0
141
16.0
290
     0
  0
SCALE
  5
4F
102
{ACAD_REACTORS
330
47
102
}
330
47
100
AcDbScale
 70
     0
300
1:20
140
1.0
141
20.0
290
     0
  0
SCALE
  5
50
102
{ACAD_REACTORS
330
47
102
}
330
47
100
AcDbScale
 70
     0
300
1:30
140
1.0
141
30.0
290
     0
  0
SCALE
  5
51
102
{ACAD_REACTORS
330
47
102
}
330
47
100
AcDbScale
 70
     0
300
1:40
140
1.0
141
40.0
290
     0
  0
SCALE
  5
52
102
{ACAD_REACTORS
330
47
102
}
330
47
100
AcDbScale
 70
     0
300
1:50
140
1.0
141
50.0
290
     0
  0
SCALE
  5
53
102
{ACAD_REACTORS
330
47
102
}
330
47
100
AcDbScale
 70
     0
300
1:100
140
1.0
141
100.0
290
     0
  0
SCALE
  5
54
102
{ACAD_REACTORS
330
47
102
}
330
47
100
AcDbScale
 70
     0
300
2:1
140
2.0
141
1.0
290
     0
  0
SCALE
  5
55
102
{ACAD_REACTORS
330
47
102
}
330
47
100
AcDbScale
 70
     0
300
4:1
140
4.0
141
1.0
290
     0
  0
SCALE
  5
56
102
{ACAD_REACTORS
330
47
102
}
330
47
100
AcDbScale
 70
     0
300
8:1
140
8.0
141
1.0
290
     0
  0
SCALE
  5
57
102
{ACAD_REACTORS
330
47
102
}
330
47
100
AcDbScale
 70
     0
300
10:1
140
10.0
141
1.0
290
     0
  0
SCALE
  5
58
102
{ACAD_REACTORS
330
47
102
}
330
47
100
AcDbScale
 70
     0
300
100:1
140
100.0
141
1.0
290
     0
  0
SCALE
  5
59
102
{ACAD_REACTORS
330
47
102
}
330
47
100
AcDbScale
 70
     0
300
1/128" = 1'-0"
140
0.007812
141
12.0
290
     0
  0
SCALE
  5
5A
102
{ACAD_REACTORS
330
47
102
}
330
47
100
AcDbScale
 70
     0
300
1/64" = 1'-0"
140
0.015625
141
12.0
290
     0
  0
SCALE
  5
5B
102
{ACAD_REACTORS
330
47
102
}
330
47
100
AcDbScale
 70
     0
300
1/32" = 1'-0"
140
0.03125
141
12.0
290
     0
  0
SCALE
  5
5C
102
{ACAD_REACTORS
330
47
102
}
330
47
100
AcDbScale
 70
     0
300
1/16" = 1'-0"
140
0.0625
141
12.0
290
     0
  0
SCALE
  5
5D
102
{ACAD_REACTORS
330
47
102
}
330
47
100
AcDbScale
 70
     0
300
3/32" = 1'-0"
140
0.09375
141
12.0
290
     0
  0
SCALE
  5
5E
102
{ACAD_REACTORS
330
47
102
}
330
47
100
AcDbScale
 70
     0
300
1/8" = 1'-0"
140
0.125
141
12.0
290
     0
  0
SCALE
  5
5F
102
{ACAD_REACTORS
330
47
102
}
330
47
100
AcDbScale
 70
     0
300
3/16" = 1'-0"
140
0.1875
141
12.0
290
     0
  0
SCALE
  5
60
102
{ACAD_REACTORS
330
47
102
}
330
47
100
AcDbScale
 70
     0
300
1/4" = 1'-0"
140
0.25
141
12.0
290
     0
  0
SCALE
  5
61
102
{ACAD_REACTORS
330
47
102
}
330
47
100
AcDbScale
 70
     0
300
3/8" = 1'-0"
140
0.375
141
12.0
290
     0
  0
SCALE
  5
62
102
{ACAD_REACTORS
330
47
102
}
330
47
100
AcDbScale
 70
     0
300
1/2" = 1'-0"
140
0.5
141
12.0
290
     0
  0
SCALE
  5
63
102
{ACAD_REACTORS
330
47
102
}
330
47
100
AcDbScale
 70
     0
300
3/4" = 1'-0"
140
0.75
141
12.0
290
     0
  0
SCALE
  5
64
102
{ACAD_REACTORS
330
47
102
}
330
47
100
AcDbScale
 70
     0
300
1" = 1'-0"
140
1.0
141
12.0
290
     0
  0
SCALE
  5
65
102
{ACAD_REACTORS
330
47
102
}
330
47
100
AcDbScale
 70
     0
300
1-1/2" = 1'-0"
140
1.5
141
12.0
290
     0
  0
SCALE
  5
66
102
{ACAD_REACTORS
330
47
102
}
330
47
100
AcDbScale
 70
     0
300
3" = 1'-0"
140
3.0
141
12.0
290
     0
  0
SCALE
  5
67
102
{ACAD_REACTORS
330
47
102
}
330
47
100
AcDbScale
 70
     0
300
6" = 1'-0"
140
6.0
141
12.0
290
     0
  0
SCALE
  5
68
102
{ACAD_REACTORS
330
47
102
}
330
47
100
AcDbScale
 70
     0
300
1'-0" = 1'-0"
140
12.0
141
12.0
290
     0
  0
ACDBSECTIONVIEWSTYLE
  5
308
102
{ACAD_XDICTIONARY
360
3A4
102
}
102
{ACAD_REACTORS
330
304
102
}
330
304
100
AcDbModelDocViewStyle
 70
     0
  3
Metric50
290
     0
100
AcDbSectionViewStyle
 70
     0
 71
     0
 90
      102
 71
     1
340
11
 62
   256
 40
5.0
340
0
340
0
 62
   256
 40
5.0
300
I, O, Q, S, X, Z
 40
10.0
 90
        0
 40
2.5
 90
        0
 71
     2
340
16
 90
       25
 62
   256
340
16
 90
       50
 62
   256
 40
5.0
 40
2.5
 40
5.0
 71
     3
340
11
 62
   256
 40
5.0
 90
        0
 40
15.0
 90
        1
300
%<\AcVar ViewSectionStartId>%-%<\AcVar ViewSectionEndId>% (%<\AcVar ViewScale \f "%sn">%)
 71
     4
 62
   256
 62
   257
300
ANSI31
 40
1.0
 90
        0
290
     0
290
     0
 90
        6
 40
0.0
 40
1.570796326794896
 40
0.2617993877991494
 40
1.308996938995747
 40
-0.2617993877991494
 40
1.832595714594046
  0
TABLESTYLE
  5
6A
102
{ACAD_XDICTIONARY
360
2FA
102
}
102
{ACAD_REACTORS
330
69
102
}
330
69
100
AcDbTableStyle
  3
Standard
 70
     0
 71
     0
 40
0.06
 41
0.06
280
     0
281
     0
  7
Standard
140
0.18
170
     2
 62
     0
 63
     7
283
     0
274
    -2
284
     1
 64
     0
275
    -2
285
     1
 65
     0
276
    -2
286
     1
 66
     0
277
    -2
287
     1
 67
     0
278
    -2
288
     1
 68
     0
279
    -2
289
     1
 69
     0
  7
Standard
140
0.25
170
     5
 62
     0
 63
     7
283
     0
274
    -2
284
     1
 64
     0
275
    -2
285
     1
 65
     0
276
    -2
286
     1
 66
     0
277
    -2
287
     1
 67
     0
278
    -2
288
     1
 68
     0
279
    -2
289
     1
 69
     0
  7
Standard
140
0.18
170
     5
 62
     0
 63
     7
283
     0
274
    -2
284
     1
 64
     0
275
    -2
285
     1
 65
     0
276
    -2
286
     1
 66
     0
277
    -2
287
     1
 67
     0
278
    -2
288
     1
 68
     0
279
    -2
289
     1
 69
     0
  0
VISUALSTYLE
  5
2F
102
{ACAD_XDICTIONARY
360
37B
102
}
102
{ACAD_REACTORS
330
2A
102
}
330
2A
100
AcDbVisualStyle
  2

 70
     4
 71
     0
 72
     2
 73
     0
 90
        0
 40
-0.6
 41
-30.0
 62
     5
 63
     7
421
 16777215
 74
     1
 91
        4
 64
     7
 65
   257
 75
     1
175
     1
 42
1.0
 92
        0
 66
   257
 43
1.0
 76
     1
 77
     6
 78
     2
 67
     7
 79
     5
170
     0
171
     0
290
     0
174
     0
 93
        1
 44
0.0
173
     0
291
     0
 45
0.0
1001
ACAD
1000
AcDbSavedByObjectVersion
1070
     0
  0
VISUALSTYLE
  5
32
102
{ACAD_XDICTIONARY
360
381
102
}
102
{ACAD_REACTORS
330
2A
102
}
330
2A
100
AcDbVisualStyle
  2

 70
     7
 71
     1
 72
     0
 73
     1
 90
        0
 40
-0.6
 41
-30.0
 62
     5
 63
     7
421
 16777215
 74
     0
 91
        4
 64
     7
 65
   257
 75
     1
175
     1
 42
1.0
 92
        8
 66
     7
 43
1.0
 76
     1
 77
     6
 78
     2
 67
     7
 79
     5
170
     0
171
     0
290
     0
174
     0
 93
        1
 44
0.0
173
     0
291
     1
 45
0.0
1001
ACAD
1000
AcDbSavedByObjectVersion
1070
     0
  0
VISUALSTYLE
  5
36
102
{ACAD_XDICTIONARY
360
389
102
}
102
{ACAD_REACTORS
330
2A
102
}
330
2A
100
AcDbVisualStyle
  2

 70
    12
 71
     2
 72
     2
 73
     0
 90
        0
 40
-0.6
 41
-30.0
 62
     5
 63
     7
421
 16777215
 74
     1
 91
        4
 64
     7
 65
   257
 75
     1
175
     1
 42
1.0
 92
        8
 66
     7
 43
1.0
 76
     1
 77
     6
 78
     2
 67
     7
 79
     5
170
     0
171
     0
290
     0
174
     0
 93
        1
 44
50.0
173
     0
291
     1
 45
0.0
1001
ACAD
1000
AcDbSavedByObjectVersion
1070
     0
  0
VISUALSTYLE
  5
3A
102
{ACAD_XDICTIONARY
360
391
102
}
102
{ACAD_REACTORS
330
2A
102
}
330
2A
100
AcDbVisualStyle
  2

 70
    16
 71
     2
 72
     2
 73
     3
 90
        0
 40
-0.6
 41
-30.0
 62
     5
 63
     8
421
  8421504
 74
     1
 91
        4
 64
     7
 65
   257
 75
     1
175
     1
 42
1.0
 92
        8
 66
     8
424
  8421504
 43
1.0
 76
     1
 77
     6
 78
     2
 67
     7
 79
     5
170
     0
171
     0
290
     0
174
     0
 93
        1
 44
0.0
173
     0
291
     1
 45
0.0
1001
ACAD
1000
AcDbSavedByObjectVersion
1070
     0
  0
VISUALSTYLE
  5
34
102
{ACAD_XDICTIONARY
360
385
102
}
102
{ACAD_REACTORS
330
2A
102
}
330
2A
100
AcDbVisualStyle
  2

 70
     9
 71
     3
 72
     2
 73
     0
 90
        0
 40
-0.6
 41
-30.0
 62
     5
 63
     7
421
 16777215
 74
     2
 91
        2
 64
     7
 65
   257
 75
     1
175
     1
 42
179.0
 92
        8
 66
     7
 43
1.0
 76
     1
 77
     6
 78
     2
 67
     7
 79
     3
170
     0
171
     0
290
     0
174
     0
 93
        1
 44
0.0
173
     0
291
     0
 45
0.0
1001
ACAD
1000
AcDbSavedByObjectVersion
1070
     0
  0
VISUALSTYLE
  5
35
102
{ACAD_XDICTIONARY
360
387
102
}
102
{ACAD_REACTORS
330
2A
102
}
330
2A
100
AcDbVisualStyle
  2

 70
    11
 71
     2
 72
     2
 73
     0
 90
        0
 40
-0.6
 41
-30.0
 62
     5
 63
     7
421
 16777215
 74
     1
 91
        4
 64
     7
 65
   257
 75
     1
175
     1
 42
1.0
 92
        8
 66
     7
 43
1.0
 76
     1
 77
     6
 78
     2
 67
     7
 79
     5
170
     0
171
     0
290
     0
174
     0
 93
        1
 44
-50.0
173
     0
291
     1
 45
0.0
1001
ACAD
1000
AcDbSavedByObjectVersion
1070
     0
  0
VISUALSTYLE
  5
3D
102
{ACAD_XDICTIONARY
360
397
102
}
102
{ACAD_REACTORS
330
2A
102
}
330
2A
100
AcDbVisualStyle
  2

 70
    22
 71
     2
 72
     2
 73
     0
 90
        0
 40
-0.6
 41
-30.0
 62
     5
 63
     7
421
 16777215
 74
     1
 91
        4
 64
     7
 65
   257
 75
     1
175
     1
 42
1.0
 92
        8
 66
     7
 43
1.0
 76
     1
 77
     6
 78
     2
 67
     7
 79
     5
170
     0
171
     0
290
     0
174
     0
 93
        1
 44
0.0
173
     0
291
     1
 45
0.0
1001
ACAD
1000
AcDbSavedByObjectVersion
1070
     0
  0
VISUALSTYLE
  5
39
102
{ACAD_XDICTIONARY
360
38F
102
}
102
{ACAD_REACTORS
330
2A
102
}
330
2A
100
AcDbVisualStyle
  2

 70
    15
 71
     2
 72
     2
 73
     0
 90
        0
 40
-0.6
 41
-30.0
 62
     5
 63
     7
421
 16777215
 74
     1
 91
        4
 64
     7
 65
   257
 75
     1
175
     1
 42
1.0
 92
        8
 66
     7
 43
1.0
 76
     1
 77
     6
 78
     2
 67
     7
 79
     5
170
     0
171
     0
290
     0
174
     0
 93
        1
 44
0.0
173
     0
291
     1
 45
0.0
1001
ACAD
1000
AcDbSavedByObjectVersion
1070
     0
  0
VISUALSTYLE
  5
2B
102
{ACAD_XDICTIONARY
360
373
102
}
102
{ACAD_REACTORS
330
2A
102
}
330
2A
100
AcDbVisualStyle
  2

 70
     0
 71
     2
 72
     1
 73
     1
 90
        2
 40
-0.6
 41
30.0
 62
     5
 63
     7
421
 16777215
 74
     0
 91
        0
 64
     7
 65
   257
 75
     1
175
     1
 42
1.0
 92
        8
 66
     7
 43
1.0
 76
     1
 77
     6
 78
     2
 67
     7
 79
     5
170
     0
171
     0
290
     0
174
     0
 93
       13
 44
0.0
173
     0
291
     1
 45
0.0
1001
ACAD
1000
AcDbSavedByObjectVersion
1070
     0
  0
VISUALSTYLE
  5
2C
102
{ACAD_XDICTIONARY
360
375
102
}
102
{ACAD_REACTORS
330
2A
102
}
330
2A
100
AcDbVisualStyle
  2

 70
     1
 71
     2
 72
     1
 73
     1
 90
        2
 40
-0.6
 41
30.0
 62
     5
 63
     7
421
 16777215
 74
     1
 91
        0
 64
     7
 65
   257
 75
     1
175
     1
 42
1.0
 92
        0
 66
   257
 43
1.0
 76
     1
 77
     6
 78
     2
 67
     7
 79
     5
170
     0
171
     0
290
     0
174
     0
 93
       13
 44
0.0
173
     0
291
     1
 45
0.0
1001
ACAD
1000
AcDbSavedByObjectVersion
1070
     0
  0
VISUALSTYLE
  5
2D
102
{ACAD_XDICTIONARY
360
377
102
}
102
{ACAD_REACTORS
330
2A
102
}
330
2A
100
AcDbVisualStyle
  2

 70
     2
 71
     2
 72
     2
 73
     1
 90
        2
 40
-0.6
 41
30.0
 62
     5
 63
     7
421
 16777215
 74
     0
 91
        0
 64
     7
 65
   257
 75
     1
175
     1
 42
1.0
 92
        0
 66
     7
 43
1.0
 76
     1
 77
     6
 78
     2
 67
     7
 79
     5
170
     0
171
     0
290
     0
174
     0
 93
       13
 44
0.0
173
     0
291
     1
 45
0.0
1001
ACAD
1000
AcDbSavedByObjectVersion
1070
     0
  0
VISUALSTYLE
  5
2E
102
{ACAD_XDICTIONARY
360
379
102
}
102
{ACAD_REACTORS
330
2A
102
}
330
2A
100
AcDbVisualStyle
  2

 70
     3
 71
     2
 72
     2
 73
     1
 90
        2
 40
-0.6
 41
30.0
 62
     5
 63
     7
421
 16777215
 74
     1
 91
        0
 64
     7
 65
   257
 75
     1
175
     1
 42
1.0
 92
        0
 66
   257
 43
1.0
 76
     1
 77
     6
 78
     2
 67
     7
 79
     5
170
     0
171
     0
290
     0
174
     0
 93
       13
 44
0.0
173
     0
291
     1
 45
0.0
1001
ACAD
1000
AcDbSavedByObjectVersion
1070
     0
  0
VISUALSTYLE
  5
31
102
{ACAD_XDICTIONARY
360
37F
102
}
102
{ACAD_REACTORS
330
2A
102
}
330
2A
100
AcDbVisualStyle
  2

 70
     6
 71
     1
 72
     2
 73
     2
 90
        0
 40
-0.6
 41
-30.0
 62
     5
 63
     7
421
 16777215
 74
     2
 91
        2
 64
     7
 65
   257
 75
     2
175
     1
 42
40.0
 92
        0
 66
   257
 43
1.0
 76
     1
 77
     6
 78
     2
 67
     7
 79
     3
170
     0
171
     0
290
     0
174
     0
 93
        1
 44
0.0
173
     0
291
     0
 45
0.0
1001
ACAD
1000
AcDbSavedByObjectVersion
1070
     0
  0
VISUALSTYLE
  5
3B
102
{ACAD_XDICTIONARY
360
393
102
}
102
{ACAD_REACTORS
330
2A
102
}
330
2A
100
AcDbVisualStyle
  2

 70
    20
 71
     2
 72
     2
 73
     0
 90
        0
 40
-0.6
 41
-30.0
 62
     5
 63
     7
421
 16777215
 74
     1
 91
        4
 64
     7
 65
   257
 75
     1
175
     1
 42
1.0
 92
       10
 66
     7
 43
1.0
 76
     1
 77
     6
 78
     2
 67
     7
 79
     5
170
     0
171
     0
290
     0
174
     0
 93
        1
 44
0.0
173
     0
291
     1
 45
0.0
1001
ACAD
1000
AcDbSavedByObjectVersion
1070
     0
  0
VISUALSTYLE
  5
38
102
{ACAD_XDICTIONARY
360
38D
102
}
102
{ACAD_REACTORS
330
2A
102
}
330
2A
100
AcDbVisualStyle
  2

 70
    14
 71
     2
 72
     2
 73
     0
 90
        0
 40
-0.6
 41
-30.0
 62
     5
 63
     7
421
 16777215
 74
     1
 91
        4
 64
     7
 65
   257
 75
     7
175
     7
 42
1.0
 92
        8
 66
     7
 43
1.0
 76
     1
 77
     6
 78
     2
 67
     7
 79
     5
170
     0
171
     0
290
     0
174
     0
 93
        1
 44
0.0
173
     0
291
     1
 45
0.0
1001
ACAD
1000
AcDbSavedByObjectVersion
1070
     0
  0
VISUALSTYLE
  5
3C
102
{ACAD_XDICTIONARY
360
395
102
}
102
{ACAD_REACTORS
330
2A
102
}
330
2A
100
AcDbVisualStyle
  2

 70
    21
 71
     2
 72
     2
 73
     0
 90
        0
 40
-0.6
 41
-30.0
 62
     5
 63
     7
421
 16777215
 74
     1
 91
        4
 64
     7
 65
   257
 75
     1
175
     1
 42
1.0
 92
        9
 66
     7
 43
1.0
 76
     1
 77
     6
 78
     2
 67
     7
 79
     5
170
     0
171
     0
290
     0
174
     0
 93
        1
 44
0.0
173
     0
291
     1
 45
0.0
1001
ACAD
1000
AcDbSavedByObjectVersion
1070
     0
  0
VISUALSTYLE
  5
33
102
{ACAD_XDICTIONARY
360
383
102
}
102
{ACAD_REACTORS
330
2A
102
}
330
2A
100
AcDbVisualStyle
  2

 70
     8
 71
     2
 72
     3
 73
     0
 90
        2
 40
-0.6
 41
30.0
 62
     5
 63
     7
421
 16777215
 74
     0
 91
        0
 64
     7
 65
   257
 75
     1
175
     1
 42
1.0
 92
        8
 66
   257
 43
1.0
 76
     1
 77
     6
 78
     2
 67
     7
 79
     3
170
     0
171
     0
290
     0
174
     0
 93
       13
 44
0.0
173
     0
291
     0
 45
0.0
1001
ACAD
1000
AcDbSavedByObjectVersion
1070
     0
  0
VISUALSTYLE
  5
42
102
{ACAD_XDICTIONARY
360
3A1
102
}
102
{ACAD_REACTORS
330
2A
102
}
330
2A
100
AcDbVisualStyle
  2

 70
    27
 71
     2
 72
     2
 73
     1
 90
        2
 40
-0.6
 41
30.0
 62
     5
 63
     7
421
 16777215
 74
     0
 91
        4
 64
     7
 65
   257
 75
     1
175
     1
 42
1.0
 92
        8
 66
   257
 43
1.0
 76
     1
 77
     6
 78
     2
 67
     8
425
  7895160
 79
     3
170
     0
171
     0
290
     0
174
     0
 93
        5
 44
0.0
173
     0
291
     0
 45
0.0
1001
ACAD
1000
AcDbSavedByObjectVersion
1070
     0
  0
VISUALSTYLE
  5
41
102
{ACAD_XDICTIONARY
360
39F
102
}
102
{ACAD_REACTORS
330
2A
102
}
330
2A
100
AcDbVisualStyle
  2

 70
    26
 71
     2
 72
     2
 73
     1
 90
        2
 40
-0.6
 41
30.0
 62
     5
 63
     7
421
 16777215
 74
     1
 91
       10
 64
     7
 65
   257
 75
     2
175
     1
 42
1.0
 92
        8
 66
   257
 43
1.0
 76
     1
 77
     6
 78
     2
 67
     7
 79
     3
170
     0
171
     0
290
     0
174
     0
 93
        5
 44
0.0
173
     0
291
     0
 45
0.0
1001
ACAD
1000
AcDbSavedByObjectVersion
1070
     0
  0
VISUALSTYLE
  5
3E
102
{ACAD_XDICTIONARY
360
399
102
}
102
{ACAD_REACTORS
330
2A
102
}
330
2A
100
AcDbVisualStyle
  2

 70
    23
 71
     2
 72
     2
 73
     3
 90
        0
 40
-0.6
 41
-30.0
 62
     5
 63
     7
421
 16777215
 74
     2
 91
        2
 64
     7
 65
     7
 75
     1
175
     1
 42
40.0
 92
        8
 66
     7
 43
1.0
 76
     1
 77
     6
 78
     2
 67
     7
 79
     3
170
     0
171
     0
290
     0
174
     0
 93
        1
 44
0.0
173
     0
291
     0
 45
0.0
1001
ACAD
1000
AcDbSavedByObjectVersion
1070
     0
  0
VISUALSTYLE
  5
3F
102
{ACAD_XDICTIONARY
360
39B
102
}
102
{ACAD_REACTORS
330
2A
102
}
330
2A
100
AcDbVisualStyle
  2

 70
    24
 71
     1
 72
     2
 73
     2
 90
        0
 40
-0.6
 41
-30.0
 62
     5
 63
     7
421
 16777215
 74
     2
 91
        2
 64
     7
 65
     7
 75
     1
175
     1
 42
40.0
 92
       11
 66
     7
 43
1.0
 76
     1
 77
     6
 78
     2
 67
     7
 79
     6
170
     0
171
     0
290
     0
174
     0
 93
        1
 44
0.0
173
     0
291
     0
 45
0.0
1001
ACAD
1000
AcDbSavedByObjectVersion
1070
     0
  0
VISUALSTYLE
  5
37
102
{ACAD_XDICTIONARY
360
38B
102
}
102
{ACAD_REACTORS
330
2A
102
}
330
2A
100
AcDbVisualStyle
  2

 70
    13
 71
     2
 72
     2
 73
     0
 90
        0
 40
-0.6
 41
-30.0
 62
     5
 63
     7
421
 16777215
 74
     1
 91
        4
 64
     7
 65
   257
 75
     1
175
     1
 42
1.0
 92
       12
 66
     7
 43
1.0
 76
     1
 77
     6
 78
     2
 67
     7
 79
     5
170
     0
171
     0
290
     0
174
     0
 93
        1
 44
0.0
173
     0
291
     1
 45
0.0
1001
ACAD
1000
AcDbSavedByObjectVersion
1070
     0
  0
VISUALSTYLE
  5
30
102
{ACAD_XDICTIONARY
360
37D
102
}
102
{ACAD_REACTORS
330
2A
102
}
330
2A
100
AcDbVisualStyle
  2

 70
     5
 71
     0
 72
     2
 73
     0
 90
        0
 40
-0.6
 41
-30.0
 62
     5
 63
     7
421
 16777215
 74
     1
 91
        4
 64
     7
 65
   257
 75
     1
175
     1
 42
1.0
 92
        0
 66
   257
 43
1.0
 76
     1
 77
     6
 78
     2
 67
     7
 79
     3
170
     0
171
     0
290
     0
174
     0
 93
        1
 44
0.0
173
     0
291
     0
 45
0.0
1001
ACAD
1000
AcDbSavedByObjectVersion
1070
     0
  0
VISUALSTYLE
  5
40
102
{ACAD_XDICTIONARY
360
39D
102
}
102
{ACAD_REACTORS
330
2A
102
}
330
2A
100
AcDbVisualStyle
  2

 70
    25
 71
     2
 72
     2
 73
     1
 90
        1
 40
0.5
 41
-30.0
 62
     5
 63
     7
421
 16777215
 74
     1
 91
        0
 64
     7
 65
   257
 75
     1
175
     1
 42
1.0
 92
        8
 66
     7
 43
1.0
 76
     1
 77
     6
 78
     2
 67
     7
 79
     3
170
     0
171
     0
290
     0
174
     0
 93
       13
 44
0.0
173
     0
291
     0
 45
0.0
1001
ACAD
1000
AcDbSavedByObjectVersion
1070
     0
  0
DICTIONARYVAR
  5
2C1
102
{ACAD_REACTORS
330
2C0
102
}
330
2C0
100
DictionaryVariables
280
     0
  1
1:1
  0
DICTIONARYVAR
  5
302
102
{ACAD_REACTORS
330
2C0
102
}
330
2C0
100
DictionaryVariables
280
     0
  1
STANDARD
  0
DICTIONARYVAR
  5
301
102
{ACAD_REACTORS
330
2C0
102
}
330
2C0
100
DictionaryVariables
280
     0
  1
STANDARD
  0
DICTIONARYVAR
  5
36D
102
{ACAD_REACTORS
330
2C0
102
}
330
2C0
100
DictionaryVariables
280
     0
  1
Metric50
  0
DICTIONARYVAR
  5
36E
102
{ACAD_REACTORS
330
2C0
102
}
330
2C0
100
DictionaryVariables
280
     0
  1
Metric50
  0
DICTIONARYVAR
  5
2C2
102
{ACAD_REACTORS
330
2C0
102
}
330
2C0
100
DictionaryVariables
280
     0
  1
1
  0
DICTIONARYVAR
  5
36F
102
{ACAD_REACTORS
330
2C0
102
}
330
2C0
100
DictionaryVariables
280
     0
  1
2
  0
DICTIONARY
  5
3A6
330
309
100
AcDbDictionary
280
     1
281
     1
  3
ACAD_XREC_ROUNDTRIP
360
3A7
  0
DICTIONARY
  5
2F6
330
45
100
AcDbDictionary
280
     1
281
     1
  3
ACAD_XREC_ROUNDTRIP
360
2F7
  0
DICTIONARY
  5
2F4
330
44
100
AcDbDictionary
280
     1
281
     1
  3
ACAD_XREC_ROUNDTRIP
360
2F5
  0
DICTIONARY
  5
2F8
330
46
100
AcDbDictionary
280
     1
281
     1
  3
ACAD_XREC_ROUNDTRIP
360
2F9
  0
DICTIONARY
  5
3A4
330
308
100
AcDbDictionary
280
     1
281
     1
  3
ACAD_XREC_ROUNDTRIP
360
3A5
  0
DICTIONARY
  5
2FA
330
6A
100
AcDbDictionary
280
     1
281
     1
  3
ACAD_ROUNDTRIP_2008_TABLESTYLE_CELLSTYLEMAP
360
371
  3
ACAD_XREC_ROUNDTRIP
360
3A3
  0
DICTIONARY
  5
37B
330
2F
100
AcDbDictionary
280
     1
281
     1
  3
ACAD_XREC_ROUNDTRIP
360
37C
  0
DICTIONARY
  5
381
330
32
100
AcDbDictionary
280
     1
281
     1
  3
ACAD_XREC_ROUNDTRIP
360
382
  0
DICTIONARY
  5
389
330
36
100
AcDbDictionary
280
     1
281
     1
  3
ACAD_XREC_ROUNDTRIP
360
38A
  0
DICTIONARY
  5
391
330
3A
100
AcDbDictionary
280
     1
281
     1
  3
ACAD_XREC_ROUNDTRIP
360
392
  0
DICTIONARY
  5
385
330
34
100
AcDbDictionary
280
     1
281
     1
  3
ACAD_XREC_ROUNDTRIP
360
386
  0
DICTIONARY
  5
387
330
35
100
AcDbDictionary
280
     1
281
     1
  3
ACAD_XREC_ROUNDTRIP
360
388
  0
DICTIONARY
  5
397
330
3D
100
AcDbDictionary
280
     1
281
     1
  3
ACAD_XREC_ROUNDTRIP
360
398
  0
DICTIONARY
  5
38F
330
39
100
AcDbDictionary
280
     1
281
     1
  3
ACAD_XREC_ROUNDTRIP
360
390
  0
DICTIONARY
  5
373
330
2B
100
AcDbDictionary
280
     1
281
     1
  3
ACAD_XREC_ROUNDTRIP
360
374
  0
DICTIONARY
  5
375
330
2C
100
AcDbDictionary
280
     1
281
     1
  3
ACAD_XREC_ROUNDTRIP
360
376
  0
DICTIONARY
  5
377
330
2D
100
AcDbDictionary
280
     1
281
     1
  3
ACAD_XREC_ROUNDTRIP
360
378
  0
DICTIONARY
  5
379
330
2E
100
AcDbDictionary
280
     1
281
     1
  3
ACAD_XREC_ROUNDTRIP
360
37A
  0
DICTIONARY
  5
37F
330
31
100
AcDbDictionary
280
     1
281
     1
  3
ACAD_XREC_ROUNDTRIP
360
380
  0
DICTIONARY
  5
393
330
3B
100
AcDbDictionary
280
     1
281
     1
  3
ACAD_XREC_ROUNDTRIP
360
394
  0
DICTIONARY
  5
38D
330
38
100
AcDbDictionary
280
     1
281
     1
  3
ACAD_XREC_ROUNDTRIP
360
38E
  0
DICTIONARY
  5
395
330
3C
100
AcDbDictionary
280
     1
281
     1
  3
ACAD_XREC_ROUNDTRIP
360
396
  0
DICTIONARY
  5
383
330
33
100
AcDbDictionary
280
     1
281
     1
  3
ACAD_XREC_ROUNDTRIP
360
384
  0
DICTIONARY
  5
3A1
330
42
100
AcDbDictionary
280
     1
281
     1
  3
ACAD_XREC_ROUNDTRIP
360
3A2
  0
DICTIONARY
  5
39F
330
41
100
AcDbDictionary
280
     1
281
     1
  3
ACAD_XREC_ROUNDTRIP
360
3A0
  0
DICTIONARY
  5
399
330
3E
100
AcDbDictionary
280
     1
281
     1
  3
ACAD_XREC_ROUNDTRIP
360
39A
  0
DICTIONARY
  5
39B
330
3F
100
AcDbDictionary
280
     1
281
     1
  3
ACAD_XREC_ROUNDTRIP
360
39C
  0
DICTIONARY
  5
38B
330
37
100
AcDbDictionary
280
     1
281
     1
  3
ACAD_XREC_ROUNDTRIP
360
38C
  0
DICTIONARY
  5
37D
330
30
100
AcDbDictionary
280
     1
281
     1
  3
ACAD_XREC_ROUNDTRIP
360
37E
  0
DICTIONARY
  5
39D
330
40
100
AcDbDictionary
280
     1
281
     1
  3
ACAD_XREC_ROUNDTRIP
360
39E
  0
XRECORD
  5
3A7
102
{ACAD_REACTORS
330
3A6
102
}
330
3A6
100
AcDbXrecord
280
     1
102
DISPLAYNAME
  1
Metric50
102
FLAGS
 90
        0
  0
XRECORD
  5
2F7
102
{ACAD_REACTORS
330
2F6
102
}
330
2F6
100
AcDbXrecord
280
     1
102
MATERIAL
148
0.0
149
0.0
149
0.0
 93
        0
 94
      127
282
     0
 72
     1
 77
     1
171
     1
175
     1
179
     1
273
     0
  0
XRECORD
  5
2F5
102
{ACAD_REACTORS
330
2F4
102
}
330
2F4
100
AcDbXrecord
280
     1
102
MATERIAL
148
0.0
149
0.0
149
0.0
 93
        0
 94
      127
282
     0
 72
     1
 77
     1
171
     1
175
     1
179
     1
273
     0
  0
XRECORD
  5
2F9
102
{ACAD_REACTORS
330
2F8
102
}
330
2F8
100
AcDbXrecord
280
     1
102
MATERIAL
148
0.0
149
0.0
149
0.0
 93
        0
 94
      127
282
     0
 72
     1
 77
     1
171
     1
175
     1
179
     1
273
     0
  0
XRECORD
  5
3A5
102
{ACAD_REACTORS
330
3A4
102
}
330
3A4
100
AcDbXrecord
280
     1
102
DISPLAYNAME
  1
Metric50
102
FLAGS
 90
        0
  0
CELLSTYLEMAP
  5
371
102
{ACAD_REACTORS
330
2FA
102
}
330
2FA
100
AcDbCellStyleMap
 90
        3
300
CELLSTYLE
  1
TABLEFORMAT_BEGIN
 90
        5
170
     1
 91
        0
 92
    32768
 62
   257
 93
        1
300
CONTENTFORMAT
  1
CONTENTFORMAT_BEGIN
 90
        0
 91
        0
 92
        4
 93
        0
300

 40
0.0
140
1.0
 94
        5
 62
     0
340
11
144
0.25
309
CONTENTFORMAT_END
171
     1
301
MARGIN
  1
CELLMARGIN_BEGIN
 40
0.06
 40
0.06
 40
0.06
 40
0.06
 40
0.18
 40
0.18
309
CELLMARGIN_END
 94
        6
 95
        1
302
GRIDFORMAT
  1
GRIDFORMAT_BEGIN
 90
        0
 91
        1
 62
     0
 92
       -2
340
14
 93
        0
 40
0.045
309
GRIDFORMAT_END
 95
        2
302
GRIDFORMAT
  1
GRIDFORMAT_BEGIN
 90
        0
 91
        1
 62
     0
 92
       -2
340
14
 93
        0
 40
0.045
309
GRIDFORMAT_END
 95
        4
302
GRIDFORMAT
  1
GRIDFORMAT_BEGIN
 90
        0
 91
        1
 62
     0
 92
       -2
340
14
 93
        0
 40
0.045
309
GRIDFORMAT_END
 95
        8
302
GRIDFORMAT
  1
GRIDFORMAT_BEGIN
 90
        0
 91
        1
 62
     0
 92
       -2
340
14
 93
        0
 40
0.045
309
GRIDFORMAT_END
 95
       16
302
GRIDFORMAT
  1
GRIDFORMAT_BEGIN
 90
        0
 91
        1
 62
     0
 92
       -2
340
14
 93
        0
 40
0.045
309
GRIDFORMAT_END
 95
       32
302
GRIDFORMAT
  1
GRIDFORMAT_BEGIN
 90
        0
 91
        1
 62
     0
 92
       -2
340
14
 93
        0
 40
0.045
309
GRIDFORMAT_END
309
TABLEFORMAT_END
  1
CELLSTYLE_BEGIN
 90
        1
 91
        1
300
_TITLE
309
CELLSTYLE_END
300
CELLSTYLE
  1
TABLEFORMAT_BEGIN
 90
        5
170
     1
 91
        0
 92
        0
 62
   257
 93
        1
300
CONTENTFORMAT
  1
CONTENTFORMAT_BEGIN
 90
        0
 91
        0
 92
        4
 93
        0
300

 40
0.0
140
1.0
 94
        5
 62
     0
340
11
144
0.18
309
CONTENTFORMAT_END
171
     1
301
MARGIN
  1
CELLMARGIN_BEGIN
 40
0.06
 40
0.06
 40
0.06
 40
0.06
 40
0.18
 40
0.18
309
CELLMARGIN_END
 94
        6
 95
        1
302
GRIDFORMAT
  1
GRIDFORMAT_BEGIN
 90
        0
 91
        1
 62
     0
 92
       -2
340
14
 93
        0
 40
0.045
309
GRIDFORMAT_END
 95
        2
302
GRIDFORMAT
  1
GRIDFORMAT_BEGIN
 90
        0
 91
        1
 62
     0
 92
       -2
340
14
 93
        0
 40
0.045
309
GRIDFORMAT_END
 95
        4
302
GRIDFORMAT
  1
GRIDFORMAT_BEGIN
 90
        0
 91
        1
 62
     0
 92
       -2
340
14
 93
        0
 40
0.045
309
GRIDFORMAT_END
 95
        8
302
GRIDFORMAT
  1
GRIDFORMAT_BEGIN
 90
        0
 91
        1
 62
     0
 92
       -2
340
14
 93
        0
 40
0.045
309
GRIDFORMAT_END
 95
       16
302
GRIDFORMAT
  1
GRIDFORMAT_BEGIN
 90
        0
 91
        1
 62
     0
 92
       -2
340
14
 93
        0
 40
0.045
309
GRIDFORMAT_END
 95
       32
302
GRIDFORMAT
  1
GRIDFORMAT_BEGIN
 90
        0
 91
        1
 62
     0
 92
       -2
340
14
 93
        0
 40
0.045
309
GRIDFORMAT_END
309
TABLEFORMAT_END
  1
CELLSTYLE_BEGIN
 90
        2
 91
        1
300
_HEADER
309
CELLSTYLE_END
300
CELLSTYLE
  1
TABLEFORMAT_BEGIN
 90
        5
170
     1
 91
        0
 92
        0
 62
   257
 93
        1
300
CONTENTFORMAT
  1
CONTENTFORMAT_BEGIN
 90
        0
 91
        0
 92
        4
 93
        0
300

 40
0.0
140
1.0
 94
        2
 62
     0
340
11
144
0.18
309
CONTENTFORMAT_END
171
     1
301
MARGIN
  1
CELLMARGIN_BEGIN
 40
0.06
 40
0.06
 40
0.06
 40
0.06
 40
0.18
 40
0.18
309
CELLMARGIN_END
 94
        6
 95
        1
302
GRIDFORMAT
  1
GRIDFORMAT_BEGIN
 90
        0
 91
        1
 62
     0
 92
       -2
340
14
 93
        0
 40
0.045
309
GRIDFORMAT_END
 95
        2
302
GRIDFORMAT
  1
GRIDFORMAT_BEGIN
 90
        0
 91
        1
 62
     0
 92
       -2
340
14
 93
        0
 40
0.045
309
GRIDFORMAT_END
 95
        4
302
GRIDFORMAT
  1
GRIDFORMAT_BEGIN
 90
        0
 91
        1
 62
     0
 92
       -2
340
14
 93
        0
 40
0.045
309
GRIDFORMAT_END
 95
        8
302
GRIDFORMAT
  1
GRIDFORMAT_BEGIN
 90
        0
 91
        1
 62
     0
 92
       -2
340
14
 93
        0
 40
0.045
309
GRIDFORMAT_END
 95
       16
302
GRIDFORMAT
  1
GRIDFORMAT_BEGIN
 90
        0
 91
        1
 62
     0
 92
       -2
340
14
 93
        0
 40
0.045
309
GRIDFORMAT_END
 95
       32
302
GRIDFORMAT
  1
GRIDFORMAT_BEGIN
 90
        0
 91
        1
 62
     0
 92
       -2
340
14
 93
        0
 40
0.045
309
GRIDFORMAT_END
309
TABLEFORMAT_END
  1
CELLSTYLE_BEGIN
 90
        3
 91
        2
300
_DATA
309
CELLSTYLE_END
  0
XRECORD
  5
3A3
102
{ACAD_REACTORS
330
2FA
102
}
330
2FA
100
AcDbXrecord
280
     1
102
ACAD_ROUNDTRIP_PRE2007_TABLESTYLE
 90
        4
 91
        0
  1

 92
        4
 93
        0
  2

 94
        4
 95
        0
  3

  0
XRECORD
  5
37C
102
{ACAD_REACTORS
330
37B
102
}
330
37B
100
AcDbXrecord
280
     1
102
RTVSPost2010Prop28
280
     1
102
RTVSPost2010PropOp28
 70
     1
102
RTVSPost2010Prop29
280
     1
102
RTVSPost2010PropOp29
 70
     1
102
RTVSPost2010Prop30
280
     0
102
RTVSPost2010PropOp30
 70
     1
102
RTVSPost2010Prop31
280
     0
102
RTVSPost2010PropOp31
 70
     1
102
RTVSPost2010Prop32
280
     0
102
RTVSPost2010PropOp32
 70
     1
102
RTVSPost2010Prop33
280
     0
102
RTVSPost2010PropOp33
 70
     1
102
RTVSPost2010Prop34
280
     0
102
RTVSPost2010PropOp34
 70
     1
102
RTVSPost2010Prop35
280
     0
102
RTVSPost2010PropOp35
 70
     1
102
RTVSPost2010Prop36
280
     0
102
RTVSPost2010PropOp36
 70
     1
102
RTVSPost2010Prop37
 90
       50
102
RTVSPost2010PropOp37
 70
     1
102
RTVSPost2010Prop38
140
0.0
102
RTVSPost2010PropOp38
 70
     1
102
RTVSPost2010Prop39
140
1.0
102
RTVSPost2010PropOp39
 70
     1
102
RTVSPost2010Prop40
 90
        0
102
RTVSPost2010PropOp40
 70
     1
102
RTVSPost2010Prop41ColorIndex
 90
       18
102
RTVSPost2010Prop41ColorRGB
 90
        0
102
RTVSPost2010PropOp41
 70
     1
102
RTVSPost2010Prop42
 90
       50
102
RTVSPost2010PropOp42
 70
     1
102
RTVSPost2010Prop43
 90
        3
102
RTVSPost2010PropOp43
 70
     1
102
RTVSPost2010Prop44ColorIndex
 90
        5
102
RTVSPost2010Prop44ColorRGB
 90
      255
102
RTVSPost2010PropOp44
 70
     1
102
RTVSPost2010Prop45
280
     0
102
RTVSPost2010PropOp45
 70
     1
102
RTVSPost2010Prop46
 90
       50
102
RTVSPost2010PropOp46
 70
     1
102
RTVSPost2010Prop47
 90
       50
102
RTVSPost2010PropOp47
 70
     1
102
RTVSPost2010Prop48
 90
       50
102
RTVSPost2010PropOp48
 70
     1
102
RTVSPost2010Prop49
280
     0
102
RTVSPost2010PropOp49
 70
     1
102
RTVSPost2010Prop50
 90
       50
102
RTVSPost2010PropOp50
 70
     1
102
RTVSPost2010Prop51ColorIndex
 90
      256
102
RTVSPost2010Prop51ColorRGB
 90
-16777216
102
RTVSPost2010PropOp51
 70
     0
102
RTVSPost2010Prop52
140
1.0
102
RTVSPost2010PropOp52
 70
     0
102
RTVSPost2010Prop53
 90
        2
102
RTVSPost2010PropOp53
 70
     1
102
RTVSPost2010Prop54
  1
strokes_ogs.tif
102
RTVSPost2010PropOp54
 70
     1
102
RTVSPost2010Prop55
280
     0
102
RTVSPost2010PropOp55
 70
     1
102
RTVSPost2010Prop56
140
1.0
102
RTVSPost2010PropOp56
 70
     1
102
RTVSPost2010Prop57
140
1.0
102
RTVSPost2010PropOp57
 70
     1
102
RTVSPropertyOp0
 70
     1
102
RTVSPropertyOp1
 70
     1
102
RTVSPropertyOp2
 70
     1
102
RTVSPropertyOp3
 70
     1
102
RTVSPropertyOp4
 70
     1
102
RTVSPropertyOp5
 70
     1
102
RTVSPropertyOp6
 70
     1
102
RTVSPropertyOp7
 70
     1
102
RTVSPropertyOp8
 70
     1
102
RTVSPropertyOp9
 70
     1
102
RTVSPropertyOp10
 70
     1
102
RTVSPropertyOp11
 70
     1
102
RTVSPropertyOp12
 70
     1
102
RTVSPropertyOp13
 70
     1
102
RTVSPropertyOp14
 70
     1
102
RTVSPropertyOp15
 70
     1
102
RTVSPropertyOp16
 70
     1
102
RTVSPropertyOp17
 70
     1
102
RTVSPropertyOp18
 70
     1
102
RTVSPropertyOp19
 70
     1
102
RTVSPropertyOp20
 70
     1
102
RTVSPropertyOp21
 70
     1
102
RTVSPropertyOp22
 70
     1
102
RTVSPropertyOp23
 70
     1
102
RTVSPropertyOp24
 70
     1
102
RTVSPropertyOp25
 70
     1
102
RTVSPropertyOp26
 70
     1
102
RTVSPropertyOp27
 70
     1
102
RTVSPropertyOp28
 70
     1
102
RTVSPropertyOp29
 70
     1
102
RTVSPropertyOp30
 70
     1
102
RTVSPropertyOp31
 70
     1
102
RTVSPropertyOp32
 70
     1
102
RTVSPropertyOp33
 70
     1
102
RTVSPropertyOp34
 70
     1
102
RTVSPropertyOp35
 70
     1
102
RTVSPropertyOp36
 70
     1
102
RTVSPropertyOp37
 70
     1
102
RTVSPropertyOp38
 70
     1
102
RTVSPropertyOp39
 70
     1
102
RTVSPropertyOp40
 70
     1
102
RTVSPropertyOp41
 70
     1
102
RTVSPropertyOp42
 70
     1
102
RTVSPropertyOp43
 70
     1
102
RTVSPropertyOp44
 70
     1
102
RTVSPropertyOp45
 70
     1
102
RTVSPropertyOp46
 70
     1
102
RTVSPropertyOp47
 70
     1
102
RTVSPropertyOp48
 70
     1
102
RTVSPropertyOp49
 70
     1
102
RTVSPropertyOp50
 70
     1
102
RTVSPropertyOp51
 70
     0
102
RTVSPropertyOp52
 70
     0
102
RTVSPropertyOp53
 70
     1
102
RTVSPropertyOp54
 70
     1
102
RTVSPropertyOp55
 70
     1
102
RTVSPropertyOp56
 70
     1
102
RTVSPropertyOp57
 70
     1
102
RTVSPropertyOp58
 70
     1
102
RTVSPropertyOp59
 70
     1
102
RTVSPropertyOp60
 70
     1
102
RTVSPropertyOp61
 70
     1
102
RTVSPropertyOp62
 70
     1
  0
XRECORD
  5
382
102
{ACAD_REACTORS
330
381
102
}
330
381
100
AcDbXrecord
280
     1
102
RTVSPost2010Prop28
280
     0
102
RTVSPost2010PropOp28
 70
     1
102
RTVSPost2010Prop29
280
     1
102
RTVSPost2010PropOp29
 70
     1
102
RTVSPost2010Prop30
280
     1
102
RTVSPost2010PropOp30
 70
     1
102
RTVSPost2010Prop31
280
     0
102
RTVSPost2010PropOp31
 70
     1
102
RTVSPost2010Prop32
280
     0
102
RTVSPost2010PropOp32
 70
     1
102
RTVSPost2010Prop33
280
     0
102
RTVSPost2010PropOp33
 70
     1
102
RTVSPost2010Prop34
280
     0
102
RTVSPost2010PropOp34
 70
     1
102
RTVSPost2010Prop35
280
     0
102
RTVSPost2010PropOp35
 70
     1
102
RTVSPost2010Prop36
280
     0
102
RTVSPost2010PropOp36
 70
     1
102
RTVSPost2010Prop37
 90
       50
102
RTVSPost2010PropOp37
 70
     1
102
RTVSPost2010Prop38
140
0.0
102
RTVSPost2010PropOp38
 70
     1
102
RTVSPost2010Prop39
140
1.0
102
RTVSPost2010PropOp39
 70
     1
102
RTVSPost2010Prop40
 90
        0
102
RTVSPost2010PropOp40
 70
     1
102
RTVSPost2010Prop41ColorIndex
 90
       18
102
RTVSPost2010Prop41ColorRGB
 90
        0
102
RTVSPost2010PropOp41
 70
     1
102
RTVSPost2010Prop42
 90
       50
102
RTVSPost2010PropOp42
 70
     1
102
RTVSPost2010Prop43
 90
        3
102
RTVSPost2010PropOp43
 70
     1
102
RTVSPost2010Prop44ColorIndex
 90
        5
102
RTVSPost2010Prop44ColorRGB
 90
      255
102
RTVSPost2010PropOp44
 70
     1
102
RTVSPost2010Prop45
280
     0
102
RTVSPost2010PropOp45
 70
     1
102
RTVSPost2010Prop46
 90
       50
102
RTVSPost2010PropOp46
 70
     1
102
RTVSPost2010Prop47
 90
       50
102
RTVSPost2010PropOp47
 70
     1
102
RTVSPost2010Prop48
 90
       50
102
RTVSPost2010PropOp48
 70
     1
102
RTVSPost2010Prop49
280
     0
102
RTVSPost2010PropOp49
 70
     1
102
RTVSPost2010Prop50
 90
       50
102
RTVSPost2010PropOp50
 70
     1
102
RTVSPost2010Prop51ColorIndex
 90
      256
102
RTVSPost2010Prop51ColorRGB
 90
-16777216
102
RTVSPost2010PropOp51
 70
     0
102
RTVSPost2010Prop52
140
1.0
102
RTVSPost2010PropOp52
 70
     0
102
RTVSPost2010Prop53
 90
        2
102
RTVSPost2010PropOp53
 70
     1
102
RTVSPost2010Prop54
  1
strokes_ogs.tif
102
RTVSPost2010PropOp54
 70
     1
102
RTVSPost2010Prop55
280
     0
102
RTVSPost2010PropOp55
 70
     1
102
RTVSPost2010Prop56
140
1.0
102
RTVSPost2010PropOp56
 70
     1
102
RTVSPost2010Prop57
140
1.0
102
RTVSPost2010PropOp57
 70
     1
102
RTVSPropertyOp0
 70
     1
102
RTVSPropertyOp1
 70
     1
102
RTVSPropertyOp2
 70
     1
102
RTVSPropertyOp3
 70
     1
102
RTVSPropertyOp4
 70
     1
102
RTVSPropertyOp5
 70
     1
102
RTVSPropertyOp6
 70
     1
102
RTVSPropertyOp7
 70
     1
102
RTVSPropertyOp8
 70
     1
102
RTVSPropertyOp9
 70
     1
102
RTVSPropertyOp10
 70
     1
102
RTVSPropertyOp11
 70
     1
102
RTVSPropertyOp12
 70
     1
102
RTVSPropertyOp13
 70
     1
102
RTVSPropertyOp14
 70
     1
102
RTVSPropertyOp15
 70
     1
102
RTVSPropertyOp16
 70
     1
102
RTVSPropertyOp17
 70
     1
102
RTVSPropertyOp18
 70
     1
102
RTVSPropertyOp19
 70
     1
102
RTVSPropertyOp20
 70
     1
102
RTVSPropertyOp21
 70
     1
102
RTVSPropertyOp22
 70
     1
102
RTVSPropertyOp23
 70
     1
102
RTVSPropertyOp24
 70
     1
102
RTVSPropertyOp25
 70
     1
102
RTVSPropertyOp26
 70
     1
102
RTVSPropertyOp27
 70
     1
102
RTVSPropertyOp28
 70
     1
102
RTVSPropertyOp29
 70
     1
102
RTVSPropertyOp30
 70
     1
102
RTVSPropertyOp31
 70
     1
102
RTVSPropertyOp32
 70
     1
102
RTVSPropertyOp33
 70
     1
102
RTVSPropertyOp34
 70
     1
102
RTVSPropertyOp35
 70
     1
102
RTVSPropertyOp36
 70
     1
102
RTVSPropertyOp37
 70
     1
102
RTVSPropertyOp38
 70
     1
102
RTVSPropertyOp39
 70
     1
102
RTVSPropertyOp40
 70
     1
102
RTVSPropertyOp41
 70
     1
102
RTVSPropertyOp42
 70
     1
102
RTVSPropertyOp43
 70
     1
102
RTVSPropertyOp44
 70
     1
102
RTVSPropertyOp45
 70
     1
102
RTVSPropertyOp46
 70
     1
102
RTVSPropertyOp47
 70
     1
102
RTVSPropertyOp48
 70
     1
102
RTVSPropertyOp49
 70
     1
102
RTVSPropertyOp50
 70
     1
102
RTVSPropertyOp51
 70
     0
102
RTVSPropertyOp52
 70
     0
102
RTVSPropertyOp53
 70
     1
102
RTVSPropertyOp54
 70
     1
102
RTVSPropertyOp55
 70
     1
102
RTVSPropertyOp56
 70
     1
102
RTVSPropertyOp57
 70
     1
102
RTVSPropertyOp58
 70
     1
102
RTVSPropertyOp59
 70
     1
102
RTVSPropertyOp60
 70
     1
102
RTVSPropertyOp61
 70
     1
102
RTVSPropertyOp62
 70
     1
  0
XRECORD
  5
38A
102
{ACAD_REACTORS
330
389
102
}
330
389
100
AcDbXrecord
280
     1
102
RTVSPost2010Prop28
280
     0
102
RTVSPost2010PropOp28
 70
     1
102
RTVSPost2010Prop29
280
     1
102
RTVSPost2010PropOp29
 70
     1
102
RTVSPost2010Prop30
280
     1
102
RTVSPost2010PropOp30
 70
     1
102
RTVSPost2010Prop31
280
     0
102
RTVSPost2010PropOp31
 70
     1
102
RTVSPost2010Prop32
280
     0
102
RTVSPost2010PropOp32
 70
     1
102
RTVSPost2010Prop33
280
     0
102
RTVSPost2010PropOp33
 70
     1
102
RTVSPost2010Prop34
280
     0
102
RTVSPost2010PropOp34
 70
     1
102
RTVSPost2010Prop35
280
     0
102
RTVSPost2010PropOp35
 70
     1
102
RTVSPost2010Prop36
280
     0
102
RTVSPost2010PropOp36
 70
     1
102
RTVSPost2010Prop37
 90
       50
102
RTVSPost2010PropOp37
 70
     1
102
RTVSPost2010Prop38
140
0.0
102
RTVSPost2010PropOp38
 70
     1
102
RTVSPost2010Prop39
140
1.0
102
RTVSPost2010PropOp39
 70
     1
102
RTVSPost2010Prop40
 90
        0
102
RTVSPost2010PropOp40
 70
     1
102
RTVSPost2010Prop41ColorIndex
 90
       18
102
RTVSPost2010Prop41ColorRGB
 90
        0
102
RTVSPost2010PropOp41
 70
     1
102
RTVSPost2010Prop42
 90
       50
102
RTVSPost2010PropOp42
 70
     1
102
RTVSPost2010Prop43
 90
        3
102
RTVSPost2010PropOp43
 70
     1
102
RTVSPost2010Prop44ColorIndex
 90
        5
102
RTVSPost2010Prop44ColorRGB
 90
      255
102
RTVSPost2010PropOp44
 70
     1
102
RTVSPost2010Prop45
280
     0
102
RTVSPost2010PropOp45
 70
     1
102
RTVSPost2010Prop46
 90
       50
102
RTVSPost2010PropOp46
 70
     1
102
RTVSPost2010Prop47
 90
       50
102
RTVSPost2010PropOp47
 70
     1
102
RTVSPost2010Prop48
 90
       50
102
RTVSPost2010PropOp48
 70
     1
102
RTVSPost2010Prop49
280
     0
102
RTVSPost2010PropOp49
 70
     1
102
RTVSPost2010Prop50
 90
       50
102
RTVSPost2010PropOp50
 70
     1
102
RTVSPost2010Prop51ColorIndex
 90
      256
102
RTVSPost2010Prop51ColorRGB
 90
-16777216
102
RTVSPost2010PropOp51
 70
     0
102
RTVSPost2010Prop52
140
1.0
102
RTVSPost2010PropOp52
 70
     0
102
RTVSPost2010Prop53
 90
        2
102
RTVSPost2010PropOp53
 70
     1
102
RTVSPost2010Prop54
  1
strokes_ogs.tif
102
RTVSPost2010PropOp54
 70
     1
102
RTVSPost2010Prop55
280
     0
102
RTVSPost2010PropOp55
 70
     1
102
RTVSPost2010Prop56
140
1.0
102
RTVSPost2010PropOp56
 70
     1
102
RTVSPost2010Prop57
140
1.0
102
RTVSPost2010PropOp57
 70
     1
102
RTVSPropertyOp0
 70
     1
102
RTVSPropertyOp1
 70
     1
102
RTVSPropertyOp2
 70
     1
102
RTVSPropertyOp3
 70
     1
102
RTVSPropertyOp4
 70
     1
102
RTVSPropertyOp5
 70
     1
102
RTVSPropertyOp6
 70
     1
102
RTVSPropertyOp7
 70
     1
102
RTVSPropertyOp8
 70
     1
102
RTVSPropertyOp9
 70
     1
102
RTVSPropertyOp10
 70
     1
102
RTVSPropertyOp11
 70
     1
102
RTVSPropertyOp12
 70
     1
102
RTVSPropertyOp13
 70
     1
102
RTVSPropertyOp14
 70
     1
102
RTVSPropertyOp15
 70
     1
102
RTVSPropertyOp16
 70
     1
102
RTVSPropertyOp17
 70
     1
102
RTVSPropertyOp18
 70
     1
102
RTVSPropertyOp19
 70
     1
102
RTVSPropertyOp20
 70
     1
102
RTVSPropertyOp21
 70
     1
102
RTVSPropertyOp22
 70
     1
102
RTVSPropertyOp23
 70
     1
102
RTVSPropertyOp24
 70
     1
102
RTVSPropertyOp25
 70
     1
102
RTVSPropertyOp26
 70
     1
102
RTVSPropertyOp27
 70
     1
102
RTVSPropertyOp28
 70
     1
102
RTVSPropertyOp29
 70
     1
102
RTVSPropertyOp30
 70
     1
102
RTVSPropertyOp31
 70
     1
102
RTVSPropertyOp32
 70
     1
102
RTVSPropertyOp33
 70
     1
102
RTVSPropertyOp34
 70
     1
102
RTVSPropertyOp35
 70
     1
102
RTVSPropertyOp36
 70
     1
102
RTVSPropertyOp37
 70
     1
102
RTVSPropertyOp38
 70
     1
102
RTVSPropertyOp39
 70
     1
102
RTVSPropertyOp40
 70
     1
102
RTVSPropertyOp41
 70
     1
102
RTVSPropertyOp42
 70
     1
102
RTVSPropertyOp43
 70
     1
102
RTVSPropertyOp44
 70
     1
102
RTVSPropertyOp45
 70
     1
102
RTVSPropertyOp46
 70
     1
102
RTVSPropertyOp47
 70
     1
102
RTVSPropertyOp48
 70
     1
102
RTVSPropertyOp49
 70
     1
102
RTVSPropertyOp50
 70
     1
102
RTVSPropertyOp51
 70
     0
102
RTVSPropertyOp52
 70
     0
102
RTVSPropertyOp53
 70
     1
102
RTVSPropertyOp54
 70
     1
102
RTVSPropertyOp55
 70
     1
102
RTVSPropertyOp56
 70
     1
102
RTVSPropertyOp57
 70
     1
102
RTVSPropertyOp58
 70
     1
102
RTVSPropertyOp59
 70
     1
102
RTVSPropertyOp60
 70
     1
102
RTVSPropertyOp61
 70
     1
102
RTVSPropertyOp62
 70
     1
  0
XRECORD
  5
392
102
{ACAD_REACTORS
330
391
102
}
330
391
100
AcDbXrecord
280
     1
102
RTVSPost2010Prop28
280
     0
102
RTVSPost2010PropOp28
 70
     1
102
RTVSPost2010Prop29
280
     1
102
RTVSPost2010PropOp29
 70
     1
102
RTVSPost2010Prop30
280
     1
102
RTVSPost2010PropOp30
 70
     1
102
RTVSPost2010Prop31
280
     0
102
RTVSPost2010PropOp31
 70
     1
102
RTVSPost2010Prop32
280
     0
102
RTVSPost2010PropOp32
 70
     1
102
RTVSPost2010Prop33
280
     0
102
RTVSPost2010PropOp33
 70
     1
102
RTVSPost2010Prop34
280
     0
102
RTVSPost2010PropOp34
 70
     1
102
RTVSPost2010Prop35
280
     0
102
RTVSPost2010PropOp35
 70
     1
102
RTVSPost2010Prop36
280
     0
102
RTVSPost2010PropOp36
 70
     1
102
RTVSPost2010Prop37
 90
       50
102
RTVSPost2010PropOp37
 70
     1
102
RTVSPost2010Prop38
140
0.0
102
RTVSPost2010PropOp38
 70
     1
102
RTVSPost2010Prop39
140
1.0
102
RTVSPost2010PropOp39
 70
     1
102
RTVSPost2010Prop40
 90
        0
102
RTVSPost2010PropOp40
 70
     1
102
RTVSPost2010Prop41ColorIndex
 90
       18
102
RTVSPost2010Prop41ColorRGB
 90
        0
102
RTVSPost2010PropOp41
 70
     1
102
RTVSPost2010Prop42
 90
       50
102
RTVSPost2010PropOp42
 70
     1
102
RTVSPost2010Prop43
 90
        3
102
RTVSPost2010PropOp43
 70
     1
102
RTVSPost2010Prop44ColorIndex
 90
        5
102
RTVSPost2010Prop44ColorRGB
 90
      255
102
RTVSPost2010PropOp44
 70
     1
102
RTVSPost2010Prop45
280
     0
102
RTVSPost2010PropOp45
 70
     1
102
RTVSPost2010Prop46
 90
       50
102
RTVSPost2010PropOp46
 70
     1
102
RTVSPost2010Prop47
 90
       50
102
RTVSPost2010PropOp47
 70
     1
102
RTVSPost2010Prop48
 90
       50
102
RTVSPost2010PropOp48
 70
     1
102
RTVSPost2010Prop49
280
     0
102
RTVSPost2010PropOp49
 70
     1
102
RTVSPost2010Prop50
 90
       50
102
RTVSPost2010PropOp50
 70
     1
102
RTVSPost2010Prop51ColorIndex
 90
      256
102
RTVSPost2010Prop51ColorRGB
 90
-16777216
102
RTVSPost2010PropOp51
 70
     0
102
RTVSPost2010Prop52
140
1.0
102
RTVSPost2010PropOp52
 70
     0
102
RTVSPost2010Prop53
 90
        2
102
RTVSPost2010PropOp53
 70
     1
102
RTVSPost2010Prop54
  1
strokes_ogs.tif
102
RTVSPost2010PropOp54
 70
     1
102
RTVSPost2010Prop55
280
     0
102
RTVSPost2010PropOp55
 70
     1
102
RTVSPost2010Prop56
140
1.0
102
RTVSPost2010PropOp56
 70
     1
102
RTVSPost2010Prop57
140
1.0
102
RTVSPost2010PropOp57
 70
     1
102
RTVSPropertyOp0
 70
     1
102
RTVSPropertyOp1
 70
     1
102
RTVSPropertyOp2
 70
     1
102
RTVSPropertyOp3
 70
     1
102
RTVSPropertyOp4
 70
     1
102
RTVSPropertyOp5
 70
     1
102
RTVSPropertyOp6
 70
     1
102
RTVSPropertyOp7
 70
     1
102
RTVSPropertyOp8
 70
     1
102
RTVSPropertyOp9
 70
     1
102
RTVSPropertyOp10
 70
     1
102
RTVSPropertyOp11
 70
     1
102
RTVSPropertyOp12
 70
     1
102
RTVSPropertyOp13
 70
     1
102
RTVSPropertyOp14
 70
     1
102
RTVSPropertyOp15
 70
     1
102
RTVSPropertyOp16
 70
     1
102
RTVSPropertyOp17
 70
     1
102
RTVSPropertyOp18
 70
     1
102
RTVSPropertyOp19
 70
     1
102
RTVSPropertyOp20
 70
     1
102
RTVSPropertyOp21
 70
     1
102
RTVSPropertyOp22
 70
     1
102
RTVSPropertyOp23
 70
     1
102
RTVSPropertyOp24
 70
     1
102
RTVSPropertyOp25
 70
     1
102
RTVSPropertyOp26
 70
     1
102
RTVSPropertyOp27
 70
     1
102
RTVSPropertyOp28
 70
     1
102
RTVSPropertyOp29
 70
     1
102
RTVSPropertyOp30
 70
     1
102
RTVSPropertyOp31
 70
     1
102
RTVSPropertyOp32
 70
     1
102
RTVSPropertyOp33
 70
     1
102
RTVSPropertyOp34
 70
     1
102
RTVSPropertyOp35
 70
     1
102
RTVSPropertyOp36
 70
     1
102
RTVSPropertyOp37
 70
     1
102
RTVSPropertyOp38
 70
     1
102
RTVSPropertyOp39
 70
     1
102
RTVSPropertyOp40
 70
     1
102
RTVSPropertyOp41
 70
     1
102
RTVSPropertyOp42
 70
     1
102
RTVSPropertyOp43
 70
     1
102
RTVSPropertyOp44
 70
     1
102
RTVSPropertyOp45
 70
     1
102
RTVSPropertyOp46
 70
     1
102
RTVSPropertyOp47
 70
     1
102
RTVSPropertyOp48
 70
     1
102
RTVSPropertyOp49
 70
     1
102
RTVSPropertyOp50
 70
     1
102
RTVSPropertyOp51
 70
     0
102
RTVSPropertyOp52
 70
     0
102
RTVSPropertyOp53
 70
     1
102
RTVSPropertyOp54
 70
     1
102
RTVSPropertyOp55
 70
     1
102
RTVSPropertyOp56
 70
     1
102
RTVSPropertyOp57
 70
     1
102
RTVSPropertyOp58
 70
     1
102
RTVSPropertyOp59
 70
     1
102
RTVSPropertyOp60
 70
     1
102
RTVSPropertyOp61
 70
     1
102
RTVSPropertyOp62
 70
     1
  0
XRECORD
  5
386
102
{ACAD_REACTORS
330
385
102
}
330
385
100
AcDbXrecord
280
     1
102
RTVSPost2010Prop28
280
     0
102
RTVSPost2010PropOp28
 70
     1
102
RTVSPost2010Prop29
280
     1
102
RTVSPost2010PropOp29
 70
     1
102
RTVSPost2010Prop30
280
     1
102
RTVSPost2010PropOp30
 70
     1
102
RTVSPost2010Prop31
280
     0
102
RTVSPost2010PropOp31
 70
     1
102
RTVSPost2010Prop32
280
     0
102
RTVSPost2010PropOp32
 70
     1
102
RTVSPost2010Prop33
280
     0
102
RTVSPost2010PropOp33
 70
     1
102
RTVSPost2010Prop34
280
     0
102
RTVSPost2010PropOp34
 70
     1
102
RTVSPost2010Prop35
280
     0
102
RTVSPost2010PropOp35
 70
     1
102
RTVSPost2010Prop36
280
     0
102
RTVSPost2010PropOp36
 70
     1
102
RTVSPost2010Prop37
 90
       50
102
RTVSPost2010PropOp37
 70
     1
102
RTVSPost2010Prop38
140
0.0
102
RTVSPost2010PropOp38
 70
     1
102
RTVSPost2010Prop39
140
1.0
102
RTVSPost2010PropOp39
 70
     1
102
RTVSPost2010Prop40
 90
        0
102
RTVSPost2010PropOp40
 70
     1
102
RTVSPost2010Prop41ColorIndex
 90
       18
102
RTVSPost2010Prop41ColorRGB
 90
        0
102
RTVSPost2010PropOp41
 70
     1
102
RTVSPost2010Prop42
 90
       50
102
RTVSPost2010PropOp42
 70
     1
102
RTVSPost2010Prop43
 90
        3
102
RTVSPost2010PropOp43
 70
     1
102
RTVSPost2010Prop44ColorIndex
 90
        5
102
RTVSPost2010Prop44ColorRGB
 90
      255
102
RTVSPost2010PropOp44
 70
     1
102
RTVSPost2010Prop45
280
     0
102
RTVSPost2010PropOp45
 70
     1
102
RTVSPost2010Prop46
 90
       50
102
RTVSPost2010PropOp46
 70
     1
102
RTVSPost2010Prop47
 90
       50
102
RTVSPost2010PropOp47
 70
     1
102
RTVSPost2010Prop48
 90
       50
102
RTVSPost2010PropOp48
 70
     1
102
RTVSPost2010Prop49
280
     0
102
RTVSPost2010PropOp49
 70
     1
102
RTVSPost2010Prop50
 90
       50
102
RTVSPost2010PropOp50
 70
     1
102
RTVSPost2010Prop51ColorIndex
 90
      256
102
RTVSPost2010Prop51ColorRGB
 90
-16777216
102
RTVSPost2010PropOp51
 70
     0
102
RTVSPost2010Prop52
140
1.0
102
RTVSPost2010PropOp52
 70
     0
102
RTVSPost2010Prop53
 90
        2
102
RTVSPost2010PropOp53
 70
     1
102
RTVSPost2010Prop54
  1
strokes_ogs.tif
102
RTVSPost2010PropOp54
 70
     1
102
RTVSPost2010Prop55
280
     0
102
RTVSPost2010PropOp55
 70
     1
102
RTVSPost2010Prop56
140
1.0
102
RTVSPost2010PropOp56
 70
     1
102
RTVSPost2010Prop57
140
1.0
102
RTVSPost2010PropOp57
 70
     1
102
RTVSPropertyOp0
 70
     1
102
RTVSPropertyOp1
 70
     1
102
RTVSPropertyOp2
 70
     1
102
RTVSPropertyOp3
 70
     1
102
RTVSPropertyOp4
 70
     1
102
RTVSPropertyOp5
 70
     1
102
RTVSPropertyOp6
 70
     1
102
RTVSPropertyOp7
 70
     1
102
RTVSPropertyOp8
 70
     1
102
RTVSPropertyOp9
 70
     1
102
RTVSPropertyOp10
 70
     1
102
RTVSPropertyOp11
 70
     1
102
RTVSPropertyOp12
 70
     1
102
RTVSPropertyOp13
 70
     1
102
RTVSPropertyOp14
 70
     1
102
RTVSPropertyOp15
 70
     1
102
RTVSPropertyOp16
 70
     1
102
RTVSPropertyOp17
 70
     1
102
RTVSPropertyOp18
 70
     1
102
RTVSPropertyOp19
 70
     1
102
RTVSPropertyOp20
 70
     1
102
RTVSPropertyOp21
 70
     1
102
RTVSPropertyOp22
 70
     1
102
RTVSPropertyOp23
 70
     1
102
RTVSPropertyOp24
 70
     1
102
RTVSPropertyOp25
 70
     1
102
RTVSPropertyOp26
 70
     1
102
RTVSPropertyOp27
 70
     1
102
RTVSPropertyOp28
 70
     1
102
RTVSPropertyOp29
 70
     1
102
RTVSPropertyOp30
 70
     1
102
RTVSPropertyOp31
 70
     1
102
RTVSPropertyOp32
 70
     1
102
RTVSPropertyOp33
 70
     1
102
RTVSPropertyOp34
 70
     1
102
RTVSPropertyOp35
 70
     1
102
RTVSPropertyOp36
 70
     1
102
RTVSPropertyOp37
 70
     1
102
RTVSPropertyOp38
 70
     1
102
RTVSPropertyOp39
 70
     1
102
RTVSPropertyOp40
 70
     1
102
RTVSPropertyOp41
 70
     1
102
RTVSPropertyOp42
 70
     1
102
RTVSPropertyOp43
 70
     1
102
RTVSPropertyOp44
 70
     1
102
RTVSPropertyOp45
 70
     1
102
RTVSPropertyOp46
 70
     1
102
RTVSPropertyOp47
 70
     1
102
RTVSPropertyOp48
 70
     1
102
RTVSPropertyOp49
 70
     1
102
RTVSPropertyOp50
 70
     1
102
RTVSPropertyOp51
 70
     0
102
RTVSPropertyOp52
 70
     0
102
RTVSPropertyOp53
 70
     1
102
RTVSPropertyOp54
 70
     1
102
RTVSPropertyOp55
 70
     1
102
RTVSPropertyOp56
 70
     1
102
RTVSPropertyOp57
 70
     1
102
RTVSPropertyOp58
 70
     1
102
RTVSPropertyOp59
 70
     1
102
RTVSPropertyOp60
 70
     1
102
RTVSPropertyOp61
 70
     1
102
RTVSPropertyOp62
 70
     1
  0
XRECORD
  5
388
102
{ACAD_REACTORS
330
387
102
}
330
387
100
AcDbXrecord
280
     1
102
RTVSPost2010Prop28
280
     0
102
RTVSPost2010PropOp28
 70
     1
102
RTVSPost2010Prop29
280
     1
102
RTVSPost2010PropOp29
 70
     1
102
RTVSPost2010Prop30
280
     1
102
RTVSPost2010PropOp30
 70
     1
102
RTVSPost2010Prop31
280
     0
102
RTVSPost2010PropOp31
 70
     1
102
RTVSPost2010Prop32
280
     0
102
RTVSPost2010PropOp32
 70
     1
102
RTVSPost2010Prop33
280
     0
102
RTVSPost2010PropOp33
 70
     1
102
RTVSPost2010Prop34
280
     0
102
RTVSPost2010PropOp34
 70
     1
102
RTVSPost2010Prop35
280
     0
102
RTVSPost2010PropOp35
 70
     1
102
RTVSPost2010Prop36
280
     0
102
RTVSPost2010PropOp36
 70
     1
102
RTVSPost2010Prop37
 90
       50
102
RTVSPost2010PropOp37
 70
     1
102
RTVSPost2010Prop38
140
0.0
102
RTVSPost2010PropOp38
 70
     1
102
RTVSPost2010Prop39
140
1.0
102
RTVSPost2010PropOp39
 70
     1
102
RTVSPost2010Prop40
 90
        0
102
RTVSPost2010PropOp40
 70
     1
102
RTVSPost2010Prop41ColorIndex
 90
       18
102
RTVSPost2010Prop41ColorRGB
 90
        0
102
RTVSPost2010PropOp41
 70
     1
102
RTVSPost2010Prop42
 90
       50
102
RTVSPost2010PropOp42
 70
     1
102
RTVSPost2010Prop43
 90
        3
102
RTVSPost2010PropOp43
 70
     1
102
RTVSPost2010Prop44ColorIndex
 90
        5
102
RTVSPost2010Prop44ColorRGB
 90
      255
102
RTVSPost2010PropOp44
 70
     1
102
RTVSPost2010Prop45
280
     0
102
RTVSPost2010PropOp45
 70
     1
102
RTVSPost2010Prop46
 90
       50
102
RTVSPost2010PropOp46
 70
     1
102
RTVSPost2010Prop47
 90
       50
102
RTVSPost2010PropOp47
 70
     1
102
RTVSPost2010Prop48
 90
       50
102
RTVSPost2010PropOp48
 70
     1
102
RTVSPost2010Prop49
280
     0
102
RTVSPost2010PropOp49
 70
     1
102
RTVSPost2010Prop50
 90
       50
102
RTVSPost2010PropOp50
 70
     1
102
RTVSPost2010Prop51ColorIndex
 90
      256
102
RTVSPost2010Prop51ColorRGB
 90
-16777216
102
RTVSPost2010PropOp51
 70
     0
102
RTVSPost2010Prop52
140
1.0
102
RTVSPost2010PropOp52
 70
     0
102
RTVSPost2010Prop53
 90
        2
102
RTVSPost2010PropOp53
 70
     1
102
RTVSPost2010Prop54
  1
strokes_ogs.tif
102
RTVSPost2010PropOp54
 70
     1
102
RTVSPost2010Prop55
280
     0
102
RTVSPost2010PropOp55
 70
     1
102
RTVSPost2010Prop56
140
1.0
102
RTVSPost2010PropOp56
 70
     1
102
RTVSPost2010Prop57
140
1.0
102
RTVSPost2010PropOp57
 70
     1
102
RTVSPropertyOp0
 70
     1
102
RTVSPropertyOp1
 70
     1
102
RTVSPropertyOp2
 70
     1
102
RTVSPropertyOp3
 70
     1
102
RTVSPropertyOp4
 70
     1
102
RTVSPropertyOp5
 70
     1
102
RTVSPropertyOp6
 70
     1
102
RTVSPropertyOp7
 70
     1
102
RTVSPropertyOp8
 70
     1
102
RTVSPropertyOp9
 70
     1
102
RTVSPropertyOp10
 70
     1
102
RTVSPropertyOp11
 70
     1
102
RTVSPropertyOp12
 70
     1
102
RTVSPropertyOp13
 70
     1
102
RTVSPropertyOp14
 70
     1
102
RTVSPropertyOp15
 70
     1
102
RTVSPropertyOp16
 70
     1
102
RTVSPropertyOp17
 70
     1
102
RTVSPropertyOp18
 70
     1
102
RTVSPropertyOp19
 70
     1
102
RTVSPropertyOp20
 70
     1
102
RTVSPropertyOp21
 70
     1
102
RTVSPropertyOp22
 70
     1
102
RTVSPropertyOp23
 70
     1
102
RTVSPropertyOp24
 70
     1
102
RTVSPropertyOp25
 70
     1
102
RTVSPropertyOp26
 70
     1
102
RTVSPropertyOp27
 70
     1
102
RTVSPropertyOp28
 70
     1
102
RTVSPropertyOp29
 70
     1
102
RTVSPropertyOp30
 70
     1
102
RTVSPropertyOp31
 70
     1
102
RTVSPropertyOp32
 70
     1
102
RTVSPropertyOp33
 70
     1
102
RTVSPropertyOp34
 70
     1
102
RTVSPropertyOp35
 70
     1
102
RTVSPropertyOp36
 70
     1
102
RTVSPropertyOp37
 70
     1
102
RTVSPropertyOp38
 70
     1
102
RTVSPropertyOp39
 70
     1
102
RTVSPropertyOp40
 70
     1
102
RTVSPropertyOp41
 70
     1
102
RTVSPropertyOp42
 70
     1
102
RTVSPropertyOp43
 70
     1
102
RTVSPropertyOp44
 70
     1
102
RTVSPropertyOp45
 70
     1
102
RTVSPropertyOp46
 70
     1
102
RTVSPropertyOp47
 70
     1
102
RTVSPropertyOp48
 70
     1
102
RTVSPropertyOp49
 70
     1
102
RTVSPropertyOp50
 70
     1
102
RTVSPropertyOp51
 70
     0
102
RTVSPropertyOp52
 70
     0
102
RTVSPropertyOp53
 70
     1
102
RTVSPropertyOp54
 70
     1
102
RTVSPropertyOp55
 70
     1
102
RTVSPropertyOp56
 70
     1
102
RTVSPropertyOp57
 70
     1
102
RTVSPropertyOp58
 70
     1
102
RTVSPropertyOp59
 70
     1
102
RTVSPropertyOp60
 70
     1
102
RTVSPropertyOp61
 70
     1
102
RTVSPropertyOp62
 70
     1
  0
XRECORD
  5
398
102
{ACAD_REACTORS
330
397
102
}
330
397
100
AcDbXrecord
280
     1
102
RTVSPost2010Prop28
280
     0
102
RTVSPost2010PropOp28
 70
     0
102
RTVSPost2010Prop29
280
     1
102
RTVSPost2010PropOp29
 70
     0
102
RTVSPost2010Prop30
280
     1
102
RTVSPost2010PropOp30
 70
     0
102
RTVSPost2010Prop31
280
     0
102
RTVSPost2010PropOp31
 70
     0
102
RTVSPost2010Prop32
280
     0
102
RTVSPost2010PropOp32
 70
     0
102
RTVSPost2010Prop33
280
     0
102
RTVSPost2010PropOp33
 70
     0
102
RTVSPost2010Prop34
280
     0
102
RTVSPost2010PropOp34
 70
     0
102
RTVSPost2010Prop35
280
     0
102
RTVSPost2010PropOp35
 70
     0
102
RTVSPost2010Prop36
280
     0
102
RTVSPost2010PropOp36
 70
     0
102
RTVSPost2010Prop37
 90
       50
102
RTVSPost2010PropOp37
 70
     0
102
RTVSPost2010Prop38
140
0.0
102
RTVSPost2010PropOp38
 70
     0
102
RTVSPost2010Prop39
140
1.0
102
RTVSPost2010PropOp39
 70
     0
102
RTVSPost2010Prop40
 90
        0
102
RTVSPost2010PropOp40
 70
     0
102
RTVSPost2010Prop41ColorIndex
 90
       18
102
RTVSPost2010Prop41ColorRGB
 90
        0
102
RTVSPost2010PropOp41
 70
     0
102
RTVSPost2010Prop42
 90
       50
102
RTVSPost2010PropOp42
 70
     0
102
RTVSPost2010Prop43
 90
        3
102
RTVSPost2010PropOp43
 70
     0
102
RTVSPost2010Prop44ColorIndex
 90
        5
102
RTVSPost2010Prop44ColorRGB
 90
      255
102
RTVSPost2010PropOp44
 70
     0
102
RTVSPost2010Prop45
280
     0
102
RTVSPost2010PropOp45
 70
     0
102
RTVSPost2010Prop46
 90
       50
102
RTVSPost2010PropOp46
 70
     0
102
RTVSPost2010Prop47
 90
       50
102
RTVSPost2010PropOp47
 70
     0
102
RTVSPost2010Prop48
 90
       50
102
RTVSPost2010PropOp48
 70
     0
102
RTVSPost2010Prop49
280
     0
102
RTVSPost2010PropOp49
 70
     0
102
RTVSPost2010Prop50
 90
       50
102
RTVSPost2010PropOp50
 70
     0
102
RTVSPost2010Prop51ColorIndex
 90
      256
102
RTVSPost2010Prop51ColorRGB
 90
-16777216
102
RTVSPost2010PropOp51
 70
     0
102
RTVSPost2010Prop52
140
1.0
102
RTVSPost2010PropOp52
 70
     0
102
RTVSPost2010Prop53
 90
        2
102
RTVSPost2010PropOp53
 70
     0
102
RTVSPost2010Prop54
  1
strokes_ogs.tif
102
RTVSPost2010PropOp54
 70
     0
102
RTVSPost2010Prop55
280
     0
102
RTVSPost2010PropOp55
 70
     0
102
RTVSPost2010Prop56
140
1.0
102
RTVSPost2010PropOp56
 70
     0
102
RTVSPost2010Prop57
140
1.0
102
RTVSPost2010PropOp57
 70
     0
102
RTVSPropertyOp0
 70
     0
102
RTVSPropertyOp1
 70
     0
102
RTVSPropertyOp2
 70
     0
102
RTVSPropertyOp3
 70
     0
102
RTVSPropertyOp4
 70
     0
102
RTVSPropertyOp5
 70
     0
102
RTVSPropertyOp6
 70
     0
102
RTVSPropertyOp7
 70
     0
102
RTVSPropertyOp8
 70
     0
102
RTVSPropertyOp9
 70
     0
102
RTVSPropertyOp10
 70
     0
102
RTVSPropertyOp11
 70
     0
102
RTVSPropertyOp12
 70
     0
102
RTVSPropertyOp13
 70
     0
102
RTVSPropertyOp14
 70
     2
102
RTVSPropertyOp15
 70
     0
102
RTVSPropertyOp16
 70
     0
102
RTVSPropertyOp17
 70
     0
102
RTVSPropertyOp18
 70
     0
102
RTVSPropertyOp19
 70
     0
102
RTVSPropertyOp20
 70
     0
102
RTVSPropertyOp21
 70
     0
102
RTVSPropertyOp22
 70
     0
102
RTVSPropertyOp23
 70
     0
102
RTVSPropertyOp24
 70
     0
102
RTVSPropertyOp25
 70
     0
102
RTVSPropertyOp26
 70
     0
102
RTVSPropertyOp27
 70
     0
102
RTVSPropertyOp28
 70
     0
102
RTVSPropertyOp29
 70
     0
102
RTVSPropertyOp30
 70
     0
102
RTVSPropertyOp31
 70
     0
102
RTVSPropertyOp32
 70
     0
102
RTVSPropertyOp33
 70
     0
102
RTVSPropertyOp34
 70
     0
102
RTVSPropertyOp35
 70
     0
102
RTVSPropertyOp36
 70
     0
102
RTVSPropertyOp37
 70
     0
102
RTVSPropertyOp38
 70
     0
102
RTVSPropertyOp39
 70
     0
102
RTVSPropertyOp40
 70
     0
102
RTVSPropertyOp41
 70
     0
102
RTVSPropertyOp42
 70
     0
102
RTVSPropertyOp43
 70
     0
102
RTVSPropertyOp44
 70
     0
102
RTVSPropertyOp45
 70
     0
102
RTVSPropertyOp46
 70
     0
102
RTVSPropertyOp47
 70
     0
102
RTVSPropertyOp48
 70
     0
102
RTVSPropertyOp49
 70
     0
102
RTVSPropertyOp50
 70
     0
102
RTVSPropertyOp51
 70
     0
102
RTVSPropertyOp52
 70
     0
102
RTVSPropertyOp53
 70
     0
102
RTVSPropertyOp54
 70
     0
102
RTVSPropertyOp55
 70
     0
102
RTVSPropertyOp56
 70
     0
102
RTVSPropertyOp57
 70
     0
102
RTVSPropertyOp58
 70
     1
102
RTVSPropertyOp59
 70
     1
102
RTVSPropertyOp60
 70
     1
102
RTVSPropertyOp61
 70
     1
102
RTVSPropertyOp62
 70
     1
  0
XRECORD
  5
390
102
{ACAD_REACTORS
330
38F
102
}
330
38F
100
AcDbXrecord
280
     1
102
RTVSPost2010Prop28
280
     0
102
RTVSPost2010PropOp28
 70
     1
102
RTVSPost2010Prop29
280
     1
102
RTVSPost2010PropOp29
 70
     1
102
RTVSPost2010Prop30
280
     1
102
RTVSPost2010PropOp30
 70
     1
102
RTVSPost2010Prop31
280
     0
102
RTVSPost2010PropOp31
 70
     1
102
RTVSPost2010Prop32
280
     0
102
RTVSPost2010PropOp32
 70
     1
102
RTVSPost2010Prop33
280
     0
102
RTVSPost2010PropOp33
 70
     1
102
RTVSPost2010Prop34
280
     0
102
RTVSPost2010PropOp34
 70
     1
102
RTVSPost2010Prop35
280
     0
102
RTVSPost2010PropOp35
 70
     1
102
RTVSPost2010Prop36
280
     0
102
RTVSPost2010PropOp36
 70
     1
102
RTVSPost2010Prop37
 90
       50
102
RTVSPost2010PropOp37
 70
     1
102
RTVSPost2010Prop38
140
0.0
102
RTVSPost2010PropOp38
 70
     1
102
RTVSPost2010Prop39
140
1.0
102
RTVSPost2010PropOp39
 70
     1
102
RTVSPost2010Prop40
 90
        0
102
RTVSPost2010PropOp40
 70
     1
102
RTVSPost2010Prop41ColorIndex
 90
       18
102
RTVSPost2010Prop41ColorRGB
 90
        0
102
RTVSPost2010PropOp41
 70
     1
102
RTVSPost2010Prop42
 90
       50
102
RTVSPost2010PropOp42
 70
     1
102
RTVSPost2010Prop43
 90
        3
102
RTVSPost2010PropOp43
 70
     1
102
RTVSPost2010Prop44ColorIndex
 90
        5
102
RTVSPost2010Prop44ColorRGB
 90
      255
102
RTVSPost2010PropOp44
 70
     1
102
RTVSPost2010Prop45
280
     0
102
RTVSPost2010PropOp45
 70
     1
102
RTVSPost2010Prop46
 90
       50
102
RTVSPost2010PropOp46
 70
     1
102
RTVSPost2010Prop47
 90
       50
102
RTVSPost2010PropOp47
 70
     1
102
RTVSPost2010Prop48
 90
       50
102
RTVSPost2010PropOp48
 70
     1
102
RTVSPost2010Prop49
280
     0
102
RTVSPost2010PropOp49
 70
     1
102
RTVSPost2010Prop50
 90
       50
102
RTVSPost2010PropOp50
 70
     1
102
RTVSPost2010Prop51ColorIndex
 90
      256
102
RTVSPost2010Prop51ColorRGB
 90
-16777216
102
RTVSPost2010PropOp51
 70
     0
102
RTVSPost2010Prop52
140
1.0
102
RTVSPost2010PropOp52
 70
     0
102
RTVSPost2010Prop53
 90
        2
102
RTVSPost2010PropOp53
 70
     1
102
RTVSPost2010Prop54
  1
strokes_ogs.tif
102
RTVSPost2010PropOp54
 70
     1
102
RTVSPost2010Prop55
280
     0
102
RTVSPost2010PropOp55
 70
     1
102
RTVSPost2010Prop56
140
1.0
102
RTVSPost2010PropOp56
 70
     1
102
RTVSPost2010Prop57
140
1.0
102
RTVSPost2010PropOp57
 70
     1
102
RTVSPropertyOp0
 70
     1
102
RTVSPropertyOp1
 70
     1
102
RTVSPropertyOp2
 70
     1
102
RTVSPropertyOp3
 70
     1
102
RTVSPropertyOp4
 70
     1
102
RTVSPropertyOp5
 70
     1
102
RTVSPropertyOp6
 70
     1
102
RTVSPropertyOp7
 70
     1
102
RTVSPropertyOp8
 70
     1
102
RTVSPropertyOp9
 70
     1
102
RTVSPropertyOp10
 70
     1
102
RTVSPropertyOp11
 70
     1
102
RTVSPropertyOp12
 70
     1
102
RTVSPropertyOp13
 70
     1
102
RTVSPropertyOp14
 70
     1
102
RTVSPropertyOp15
 70
     1
102
RTVSPropertyOp16
 70
     1
102
RTVSPropertyOp17
 70
     1
102
RTVSPropertyOp18
 70
     1
102
RTVSPropertyOp19
 70
     1
102
RTVSPropertyOp20
 70
     1
102
RTVSPropertyOp21
 70
     1
102
RTVSPropertyOp22
 70
     1
102
RTVSPropertyOp23
 70
     1
102
RTVSPropertyOp24
 70
     1
102
RTVSPropertyOp25
 70
     1
102
RTVSPropertyOp26
 70
     1
102
RTVSPropertyOp27
 70
     1
102
RTVSPropertyOp28
 70
     1
102
RTVSPropertyOp29
 70
     1
102
RTVSPropertyOp30
 70
     1
102
RTVSPropertyOp31
 70
     1
102
RTVSPropertyOp32
 70
     1
102
RTVSPropertyOp33
 70
     1
102
RTVSPropertyOp34
 70
     1
102
RTVSPropertyOp35
 70
     1
102
RTVSPropertyOp36
 70
     1
102
RTVSPropertyOp37
 70
     1
102
RTVSPropertyOp38
 70
     1
102
RTVSPropertyOp39
 70
     1
102
RTVSPropertyOp40
 70
     1
102
RTVSPropertyOp41
 70
     1
102
RTVSPropertyOp42
 70
     1
102
RTVSPropertyOp43
 70
     1
102
RTVSPropertyOp44
 70
     1
102
RTVSPropertyOp45
 70
     1
102
RTVSPropertyOp46
 70
     1
102
RTVSPropertyOp47
 70
     1
102
RTVSPropertyOp48
 70
     1
102
RTVSPropertyOp49
 70
     1
102
RTVSPropertyOp50
 70
     1
102
RTVSPropertyOp51
 70
     0
102
RTVSPropertyOp52
 70
     0
102
RTVSPropertyOp53
 70
     1
102
RTVSPropertyOp54
 70
     1
102
RTVSPropertyOp55
 70
     1
102
RTVSPropertyOp56
 70
     1
102
RTVSPropertyOp57
 70
     1
102
RTVSPropertyOp58
 70
     1
102
RTVSPropertyOp59
 70
     1
102
RTVSPropertyOp60
 70
     1
102
RTVSPropertyOp61
 70
     1
102
RTVSPropertyOp62
 70
     1
  0
XRECORD
  5
374
102
{ACAD_REACTORS
330
373
102
}
330
373
100
AcDbXrecord
280
     1
102
RTVSPost2010Prop28
280
     0
102
RTVSPost2010PropOp28
 70
     1
102
RTVSPost2010Prop29
280
     1
102
RTVSPost2010PropOp29
 70
     1
102
RTVSPost2010Prop30
280
     1
102
RTVSPost2010PropOp30
 70
     1
102
RTVSPost2010Prop31
280
     0
102
RTVSPost2010PropOp31
 70
     1
102
RTVSPost2010Prop32
280
     0
102
RTVSPost2010PropOp32
 70
     1
102
RTVSPost2010Prop33
280
     0
102
RTVSPost2010PropOp33
 70
     1
102
RTVSPost2010Prop34
280
     0
102
RTVSPost2010PropOp34
 70
     1
102
RTVSPost2010Prop35
280
     0
102
RTVSPost2010PropOp35
 70
     1
102
RTVSPost2010Prop36
280
     0
102
RTVSPost2010PropOp36
 70
     1
102
RTVSPost2010Prop37
 90
       50
102
RTVSPost2010PropOp37
 70
     1
102
RTVSPost2010Prop38
140
0.0
102
RTVSPost2010PropOp38
 70
     1
102
RTVSPost2010Prop39
140
1.0
102
RTVSPost2010PropOp39
 70
     1
102
RTVSPost2010Prop40
 90
        0
102
RTVSPost2010PropOp40
 70
     1
102
RTVSPost2010Prop41ColorIndex
 90
       18
102
RTVSPost2010Prop41ColorRGB
 90
        0
102
RTVSPost2010PropOp41
 70
     1
102
RTVSPost2010Prop42
 90
       50
102
RTVSPost2010PropOp42
 70
     1
102
RTVSPost2010Prop43
 90
        3
102
RTVSPost2010PropOp43
 70
     1
102
RTVSPost2010Prop44ColorIndex
 90
        5
102
RTVSPost2010Prop44ColorRGB
 90
      255
102
RTVSPost2010PropOp44
 70
     1
102
RTVSPost2010Prop45
280
     0
102
RTVSPost2010PropOp45
 70
     1
102
RTVSPost2010Prop46
 90
       50
102
RTVSPost2010PropOp46
 70
     1
102
RTVSPost2010Prop47
 90
       50
102
RTVSPost2010PropOp47
 70
     1
102
RTVSPost2010Prop48
 90
       50
102
RTVSPost2010PropOp48
 70
     1
102
RTVSPost2010Prop49
280
     0
102
RTVSPost2010PropOp49
 70
     1
102
RTVSPost2010Prop50
 90
       50
102
RTVSPost2010PropOp50
 70
     1
102
RTVSPost2010Prop51ColorIndex
 90
      256
102
RTVSPost2010Prop51ColorRGB
 90
-16777216
102
RTVSPost2010PropOp51
 70
     0
102
RTVSPost2010Prop52
140
1.0
102
RTVSPost2010PropOp52
 70
     0
102
RTVSPost2010Prop53
 90
        2
102
RTVSPost2010PropOp53
 70
     1
102
RTVSPost2010Prop54
  1
strokes_ogs.tif
102
RTVSPost2010PropOp54
 70
     1
102
RTVSPost2010Prop55
280
     0
102
RTVSPost2010PropOp55
 70
     1
102
RTVSPost2010Prop56
140
1.0
102
RTVSPost2010PropOp56
 70
     1
102
RTVSPost2010Prop57
140
1.0
102
RTVSPost2010PropOp57
 70
     1
102
RTVSPropertyOp0
 70
     1
102
RTVSPropertyOp1
 70
     1
102
RTVSPropertyOp2
 70
     1
102
RTVSPropertyOp3
 70
     1
102
RTVSPropertyOp4
 70
     1
102
RTVSPropertyOp5
 70
     1
102
RTVSPropertyOp6
 70
     1
102
RTVSPropertyOp7
 70
     1
102
RTVSPropertyOp8
 70
     1
102
RTVSPropertyOp9
 70
     1
102
RTVSPropertyOp10
 70
     1
102
RTVSPropertyOp11
 70
     1
102
RTVSPropertyOp12
 70
     1
102
RTVSPropertyOp13
 70
     1
102
RTVSPropertyOp14
 70
     1
102
RTVSPropertyOp15
 70
     1
102
RTVSPropertyOp16
 70
     1
102
RTVSPropertyOp17
 70
     1
102
RTVSPropertyOp18
 70
     1
102
RTVSPropertyOp19
 70
     1
102
RTVSPropertyOp20
 70
     1
102
RTVSPropertyOp21
 70
     1
102
RTVSPropertyOp22
 70
     1
102
RTVSPropertyOp23
 70
     1
102
RTVSPropertyOp24
 70
     1
102
RTVSPropertyOp25
 70
     1
102
RTVSPropertyOp26
 70
     1
102
RTVSPropertyOp27
 70
     1
102
RTVSPropertyOp28
 70
     1
102
RTVSPropertyOp29
 70
     1
102
RTVSPropertyOp30
 70
     1
102
RTVSPropertyOp31
 70
     1
102
RTVSPropertyOp32
 70
     1
102
RTVSPropertyOp33
 70
     1
102
RTVSPropertyOp34
 70
     1
102
RTVSPropertyOp35
 70
     1
102
RTVSPropertyOp36
 70
     1
102
RTVSPropertyOp37
 70
     1
102
RTVSPropertyOp38
 70
     1
102
RTVSPropertyOp39
 70
     1
102
RTVSPropertyOp40
 70
     1
102
RTVSPropertyOp41
 70
     1
102
RTVSPropertyOp42
 70
     1
102
RTVSPropertyOp43
 70
     1
102
RTVSPropertyOp44
 70
     1
102
RTVSPropertyOp45
 70
     1
102
RTVSPropertyOp46
 70
     1
102
RTVSPropertyOp47
 70
     1
102
RTVSPropertyOp48
 70
     1
102
RTVSPropertyOp49
 70
     1
102
RTVSPropertyOp50
 70
     1
102
RTVSPropertyOp51
 70
     0
102
RTVSPropertyOp52
 70
     0
102
RTVSPropertyOp53
 70
     1
102
RTVSPropertyOp54
 70
     1
102
RTVSPropertyOp55
 70
     1
102
RTVSPropertyOp56
 70
     1
102
RTVSPropertyOp57
 70
     1
102
RTVSPropertyOp58
 70
     1
102
RTVSPropertyOp59
 70
     1
102
RTVSPropertyOp60
 70
     1
102
RTVSPropertyOp61
 70
     1
102
RTVSPropertyOp62
 70
     1
  0
XRECORD
  5
376
102
{ACAD_REACTORS
330
375
102
}
330
375
100
AcDbXrecord
280
     1
102
RTVSPost2010Prop28
280
     0
102
RTVSPost2010PropOp28
 70
     1
102
RTVSPost2010Prop29
280
     1
102
RTVSPost2010PropOp29
 70
     1
102
RTVSPost2010Prop30
280
     1
102
RTVSPost2010PropOp30
 70
     1
102
RTVSPost2010Prop31
280
     0
102
RTVSPost2010PropOp31
 70
     1
102
RTVSPost2010Prop32
280
     0
102
RTVSPost2010PropOp32
 70
     1
102
RTVSPost2010Prop33
280
     0
102
RTVSPost2010PropOp33
 70
     1
102
RTVSPost2010Prop34
280
     0
102
RTVSPost2010PropOp34
 70
     1
102
RTVSPost2010Prop35
280
     0
102
RTVSPost2010PropOp35
 70
     1
102
RTVSPost2010Prop36
280
     0
102
RTVSPost2010PropOp36
 70
     1
102
RTVSPost2010Prop37
 90
       50
102
RTVSPost2010PropOp37
 70
     1
102
RTVSPost2010Prop38
140
0.0
102
RTVSPost2010PropOp38
 70
     1
102
RTVSPost2010Prop39
140
1.0
102
RTVSPost2010PropOp39
 70
     1
102
RTVSPost2010Prop40
 90
        0
102
RTVSPost2010PropOp40
 70
     1
102
RTVSPost2010Prop41ColorIndex
 90
       18
102
RTVSPost2010Prop41ColorRGB
 90
        0
102
RTVSPost2010PropOp41
 70
     1
102
RTVSPost2010Prop42
 90
       50
102
RTVSPost2010PropOp42
 70
     1
102
RTVSPost2010Prop43
 90
        3
102
RTVSPost2010PropOp43
 70
     1
102
RTVSPost2010Prop44ColorIndex
 90
        5
102
RTVSPost2010Prop44ColorRGB
 90
      255
102
RTVSPost2010PropOp44
 70
     1
102
RTVSPost2010Prop45
280
     0
102
RTVSPost2010PropOp45
 70
     1
102
RTVSPost2010Prop46
 90
       50
102
RTVSPost2010PropOp46
 70
     1
102
RTVSPost2010Prop47
 90
       50
102
RTVSPost2010PropOp47
 70
     1
102
RTVSPost2010Prop48
 90
       50
102
RTVSPost2010PropOp48
 70
     1
102
RTVSPost2010Prop49
280
     0
102
RTVSPost2010PropOp49
 70
     1
102
RTVSPost2010Prop50
 90
       50
102
RTVSPost2010PropOp50
 70
     1
102
RTVSPost2010Prop51ColorIndex
 90
      256
102
RTVSPost2010Prop51ColorRGB
 90
-16777216
102
RTVSPost2010PropOp51
 70
     0
102
RTVSPost2010Prop52
140
1.0
102
RTVSPost2010PropOp52
 70
     0
102
RTVSPost2010Prop53
 90
        2
102
RTVSPost2010PropOp53
 70
     1
102
RTVSPost2010Prop54
  1
strokes_ogs.tif
102
RTVSPost2010PropOp54
 70
     1
102
RTVSPost2010Prop55
280
     0
102
RTVSPost2010PropOp55
 70
     1
102
RTVSPost2010Prop56
140
1.0
102
RTVSPost2010PropOp56
 70
     1
102
RTVSPost2010Prop57
140
1.0
102
RTVSPost2010PropOp57
 70
     1
102
RTVSPropertyOp0
 70
     1
102
RTVSPropertyOp1
 70
     1
102
RTVSPropertyOp2
 70
     1
102
RTVSPropertyOp3
 70
     1
102
RTVSPropertyOp4
 70
     1
102
RTVSPropertyOp5
 70
     1
102
RTVSPropertyOp6
 70
     1
102
RTVSPropertyOp7
 70
     1
102
RTVSPropertyOp8
 70
     1
102
RTVSPropertyOp9
 70
     1
102
RTVSPropertyOp10
 70
     1
102
RTVSPropertyOp11
 70
     1
102
RTVSPropertyOp12
 70
     1
102
RTVSPropertyOp13
 70
     1
102
RTVSPropertyOp14
 70
     1
102
RTVSPropertyOp15
 70
     1
102
RTVSPropertyOp16
 70
     1
102
RTVSPropertyOp17
 70
     1
102
RTVSPropertyOp18
 70
     1
102
RTVSPropertyOp19
 70
     1
102
RTVSPropertyOp20
 70
     1
102
RTVSPropertyOp21
 70
     1
102
RTVSPropertyOp22
 70
     1
102
RTVSPropertyOp23
 70
     1
102
RTVSPropertyOp24
 70
     1
102
RTVSPropertyOp25
 70
     1
102
RTVSPropertyOp26
 70
     1
102
RTVSPropertyOp27
 70
     1
102
RTVSPropertyOp28
 70
     1
102
RTVSPropertyOp29
 70
     1
102
RTVSPropertyOp30
 70
     1
102
RTVSPropertyOp31
 70
     1
102
RTVSPropertyOp32
 70
     1
102
RTVSPropertyOp33
 70
     1
102
RTVSPropertyOp34
 70
     1
102
RTVSPropertyOp35
 70
     1
102
RTVSPropertyOp36
 70
     1
102
RTVSPropertyOp37
 70
     1
102
RTVSPropertyOp38
 70
     1
102
RTVSPropertyOp39
 70
     1
102
RTVSPropertyOp40
 70
     1
102
RTVSPropertyOp41
 70
     1
102
RTVSPropertyOp42
 70
     1
102
RTVSPropertyOp43
 70
     1
102
RTVSPropertyOp44
 70
     1
102
RTVSPropertyOp45
 70
     1
102
RTVSPropertyOp46
 70
     1
102
RTVSPropertyOp47
 70
     1
102
RTVSPropertyOp48
 70
     1
102
RTVSPropertyOp49
 70
     1
102
RTVSPropertyOp50
 70
     1
102
RTVSPropertyOp51
 70
     0
102
RTVSPropertyOp52
 70
     0
102
RTVSPropertyOp53
 70
     1
102
RTVSPropertyOp54
 70
     1
102
RTVSPropertyOp55
 70
     1
102
RTVSPropertyOp56
 70
     1
102
RTVSPropertyOp57
 70
     1
102
RTVSPropertyOp58
 70
     1
102
RTVSPropertyOp59
 70
     1
102
RTVSPropertyOp60
 70
     1
102
RTVSPropertyOp61
 70
     1
102
RTVSPropertyOp62
 70
     1
  0
XRECORD
  5
378
102
{ACAD_REACTORS
330
377
102
}
330
377
100
AcDbXrecord
280
     1
102
RTVSPost2010Prop28
280
     0
102
RTVSPost2010PropOp28
 70
     1
102
RTVSPost2010Prop29
280
     1
102
RTVSPost2010PropOp29
 70
     1
102
RTVSPost2010Prop30
280
     1
102
RTVSPost2010PropOp30
 70
     1
102
RTVSPost2010Prop31
280
     0
102
RTVSPost2010PropOp31
 70
     1
102
RTVSPost2010Prop32
280
     0
102
RTVSPost2010PropOp32
 70
     1
102
RTVSPost2010Prop33
280
     0
102
RTVSPost2010PropOp33
 70
     1
102
RTVSPost2010Prop34
280
     0
102
RTVSPost2010PropOp34
 70
     1
102
RTVSPost2010Prop35
280
     0
102
RTVSPost2010PropOp35
 70
     1
102
RTVSPost2010Prop36
280
     0
102
RTVSPost2010PropOp36
 70
     1
102
RTVSPost2010Prop37
 90
       50
102
RTVSPost2010PropOp37
 70
     1
102
RTVSPost2010Prop38
140
0.0
102
RTVSPost2010PropOp38
 70
     1
102
RTVSPost2010Prop39
140
1.0
102
RTVSPost2010PropOp39
 70
     1
102
RTVSPost2010Prop40
 90
        0
102
RTVSPost2010PropOp40
 70
     1
102
RTVSPost2010Prop41ColorIndex
 90
       18
102
RTVSPost2010Prop41ColorRGB
 90
        0
102
RTVSPost2010PropOp41
 70
     1
102
RTVSPost2010Prop42
 90
       50
102
RTVSPost2010PropOp42
 70
     1
102
RTVSPost2010Prop43
 90
        3
102
RTVSPost2010PropOp43
 70
     1
102
RTVSPost2010Prop44ColorIndex
 90
        5
102
RTVSPost2010Prop44ColorRGB
 90
      255
102
RTVSPost2010PropOp44
 70
     1
102
RTVSPost2010Prop45
280
     0
102
RTVSPost2010PropOp45
 70
     1
102
RTVSPost2010Prop46
 90
       50
102
RTVSPost2010PropOp46
 70
     1
102
RTVSPost2010Prop47
 90
       50
102
RTVSPost2010PropOp47
 70
     1
102
RTVSPost2010Prop48
 90
       50
102
RTVSPost2010PropOp48
 70
     1
102
RTVSPost2010Prop49
280
     0
102
RTVSPost2010PropOp49
 70
     1
102
RTVSPost2010Prop50
 90
       50
102
RTVSPost2010PropOp50
 70
     1
102
RTVSPost2010Prop51ColorIndex
 90
      256
102
RTVSPost2010Prop51ColorRGB
 90
-16777216
102
RTVSPost2010PropOp51
 70
     0
102
RTVSPost2010Prop52
140
1.0
102
RTVSPost2010PropOp52
 70
     0
102
RTVSPost2010Prop53
 90
        2
102
RTVSPost2010PropOp53
 70
     1
102
RTVSPost2010Prop54
  1
strokes_ogs.tif
102
RTVSPost2010PropOp54
 70
     1
102
RTVSPost2010Prop55
280
     0
102
RTVSPost2010PropOp55
 70
     1
102
RTVSPost2010Prop56
140
1.0
102
RTVSPost2010PropOp56
 70
     1
102
RTVSPost2010Prop57
140
1.0
102
RTVSPost2010PropOp57
 70
     1
102
RTVSPropertyOp0
 70
     1
102
RTVSPropertyOp1
 70
     1
102
RTVSPropertyOp2
 70
     1
102
RTVSPropertyOp3
 70
     1
102
RTVSPropertyOp4
 70
     1
102
RTVSPropertyOp5
 70
     1
102
RTVSPropertyOp6
 70
     1
102
RTVSPropertyOp7
 70
     1
102
RTVSPropertyOp8
 70
     1
102
RTVSPropertyOp9
 70
     1
102
RTVSPropertyOp10
 70
     1
102
RTVSPropertyOp11
 70
     1
102
RTVSPropertyOp12
 70
     1
102
RTVSPropertyOp13
 70
     1
102
RTVSPropertyOp14
 70
     1
102
RTVSPropertyOp15
 70
     1
102
RTVSPropertyOp16
 70
     1
102
RTVSPropertyOp17
 70
     1
102
RTVSPropertyOp18
 70
     1
102
RTVSPropertyOp19
 70
     1
102
RTVSPropertyOp20
 70
     1
102
RTVSPropertyOp21
 70
     1
102
RTVSPropertyOp22
 70
     1
102
RTVSPropertyOp23
 70
     1
102
RTVSPropertyOp24
 70
     1
102
RTVSPropertyOp25
 70
     1
102
RTVSPropertyOp26
 70
     1
102
RTVSPropertyOp27
 70
     1
102
RTVSPropertyOp28
 70
     1
102
RTVSPropertyOp29
 70
     1
102
RTVSPropertyOp30
 70
     1
102
RTVSPropertyOp31
 70
     1
102
RTVSPropertyOp32
 70
     1
102
RTVSPropertyOp33
 70
     1
102
RTVSPropertyOp34
 70
     1
102
RTVSPropertyOp35
 70
     1
102
RTVSPropertyOp36
 70
     1
102
RTVSPropertyOp37
 70
     1
102
RTVSPropertyOp38
 70
     1
102
RTVSPropertyOp39
 70
     1
102
RTVSPropertyOp40
 70
     1
102
RTVSPropertyOp41
 70
     1
102
RTVSPropertyOp42
 70
     1
102
RTVSPropertyOp43
 70
     1
102
RTVSPropertyOp44
 70
     1
102
RTVSPropertyOp45
 70
     1
102
RTVSPropertyOp46
 70
     1
102
RTVSPropertyOp47
 70
     1
102
RTVSPropertyOp48
 70
     1
102
RTVSPropertyOp49
 70
     1
102
RTVSPropertyOp50
 70
     1
102
RTVSPropertyOp51
 70
     0
102
RTVSPropertyOp52
 70
     0
102
RTVSPropertyOp53
 70
     1
102
RTVSPropertyOp54
 70
     1
102
RTVSPropertyOp55
 70
     1
102
RTVSPropertyOp56
 70
     1
102
RTVSPropertyOp57
 70
     1
102
RTVSPropertyOp58
 70
     1
102
RTVSPropertyOp59
 70
     1
102
RTVSPropertyOp60
 70
     1
102
RTVSPropertyOp61
 70
     1
102
RTVSPropertyOp62
 70
     1
  0
XRECORD
  5
37A
102
{ACAD_REACTORS
330
379
102
}
330
379
100
AcDbXrecord
280
     1
102
RTVSPost2010Prop28
280
     0
102
RTVSPost2010PropOp28
 70
     1
102
RTVSPost2010Prop29
280
     1
102
RTVSPost2010PropOp29
 70
     1
102
RTVSPost2010Prop30
280
     1
102
RTVSPost2010PropOp30
 70
     1
102
RTVSPost2010Prop31
280
     0
102
RTVSPost2010PropOp31
 70
     1
102
RTVSPost2010Prop32
280
     0
102
RTVSPost2010PropOp32
 70
     1
102
RTVSPost2010Prop33
280
     0
102
RTVSPost2010PropOp33
 70
     1
102
RTVSPost2010Prop34
280
     0
102
RTVSPost2010PropOp34
 70
     1
102
RTVSPost2010Prop35
280
     0
102
RTVSPost2010PropOp35
 70
     1
102
RTVSPost2010Prop36
280
     0
102
RTVSPost2010PropOp36
 70
     1
102
RTVSPost2010Prop37
 90
       50
102
RTVSPost2010PropOp37
 70
     1
102
RTVSPost2010Prop38
140
0.0
102
RTVSPost2010PropOp38
 70
     1
102
RTVSPost2010Prop39
140
1.0
102
RTVSPost2010PropOp39
 70
     1
102
RTVSPost2010Prop40
 90
        0
102
RTVSPost2010PropOp40
 70
     1
102
RTVSPost2010Prop41ColorIndex
 90
       18
102
RTVSPost2010Prop41ColorRGB
 90
        0
102
RTVSPost2010PropOp41
 70
     1
102
RTVSPost2010Prop42
 90
       50
102
RTVSPost2010PropOp42
 70
     1
102
RTVSPost2010Prop43
 90
        3
102
RTVSPost2010PropOp43
 70
     1
102
RTVSPost2010Prop44ColorIndex
 90
        5
102
RTVSPost2010Prop44ColorRGB
 90
      255
102
RTVSPost2010PropOp44
 70
     1
102
RTVSPost2010Prop45
280
     0
102
RTVSPost2010PropOp45
 70
     1
102
RTVSPost2010Prop46
 90
       50
102
RTVSPost2010PropOp46
 70
     1
102
RTVSPost2010Prop47
 90
       50
102
RTVSPost2010PropOp47
 70
     1
102
RTVSPost2010Prop48
 90
       50
102
RTVSPost2010PropOp48
 70
     1
102
RTVSPost2010Prop49
280
     0
102
RTVSPost2010PropOp49
 70
     1
102
RTVSPost2010Prop50
 90
       50
102
RTVSPost2010PropOp50
 70
     1
102
RTVSPost2010Prop51ColorIndex
 90
      256
102
RTVSPost2010Prop51ColorRGB
 90
-16777216
102
RTVSPost2010PropOp51
 70
     0
102
RTVSPost2010Prop52
140
1.0
102
RTVSPost2010PropOp52
 70
     0
102
RTVSPost2010Prop53
 90
        2
102
RTVSPost2010PropOp53
 70
     1
102
RTVSPost2010Prop54
  1
strokes_ogs.tif
102
RTVSPost2010PropOp54
 70
     1
102
RTVSPost2010Prop55
280
     0
102
RTVSPost2010PropOp55
 70
     1
102
RTVSPost2010Prop56
140
1.0
102
RTVSPost2010PropOp56
 70
     1
102
RTVSPost2010Prop57
140
1.0
102
RTVSPost2010PropOp57
 70
     1
102
RTVSPropertyOp0
 70
     1
102
RTVSPropertyOp1
 70
     1
102
RTVSPropertyOp2
 70
     1
102
RTVSPropertyOp3
 70
     1
102
RTVSPropertyOp4
 70
     1
102
RTVSPropertyOp5
 70
     1
102
RTVSPropertyOp6
 70
     1
102
RTVSPropertyOp7
 70
     1
102
RTVSPropertyOp8
 70
     1
102
RTVSPropertyOp9
 70
     1
102
RTVSPropertyOp10
 70
     1
102
RTVSPropertyOp11
 70
     1
102
RTVSPropertyOp12
 70
     1
102
RTVSPropertyOp13
 70
     1
102
RTVSPropertyOp14
 70
     1
102
RTVSPropertyOp15
 70
     1
102
RTVSPropertyOp16
 70
     1
102
RTVSPropertyOp17
 70
     1
102
RTVSPropertyOp18
 70
     1
102
RTVSPropertyOp19
 70
     1
102
RTVSPropertyOp20
 70
     1
102
RTVSPropertyOp21
 70
     1
102
RTVSPropertyOp22
 70
     1
102
RTVSPropertyOp23
 70
     1
102
RTVSPropertyOp24
 70
     1
102
RTVSPropertyOp25
 70
     1
102
RTVSPropertyOp26
 70
     1
102
RTVSPropertyOp27
 70
     1
102
RTVSPropertyOp28
 70
     1
102
RTVSPropertyOp29
 70
     1
102
RTVSPropertyOp30
 70
     1
102
RTVSPropertyOp31
 70
     1
102
RTVSPropertyOp32
 70
     1
102
RTVSPropertyOp33
 70
     1
102
RTVSPropertyOp34
 70
     1
102
RTVSPropertyOp35
 70
     1
102
RTVSPropertyOp36
 70
     1
102
RTVSPropertyOp37
 70
     1
102
RTVSPropertyOp38
 70
     1
102
RTVSPropertyOp39
 70
     1
102
RTVSPropertyOp40
 70
     1
102
RTVSPropertyOp41
 70
     1
102
RTVSPropertyOp42
 70
     1
102
RTVSPropertyOp43
 70
     1
102
RTVSPropertyOp44
 70
     1
102
RTVSPropertyOp45
 70
     1
102
RTVSPropertyOp46
 70
     1
102
RTVSPropertyOp47
 70
     1
102
RTVSPropertyOp48
 70
     1
102
RTVSPropertyOp49
 70
     1
102
RTVSPropertyOp50
 70
     1
102
RTVSPropertyOp51
 70
     0
102
RTVSPropertyOp52
 70
     0
102
RTVSPropertyOp53
 70
     1
102
RTVSPropertyOp54
 70
     1
102
RTVSPropertyOp55
 70
     1
102
RTVSPropertyOp56
 70
     1
102
RTVSPropertyOp57
 70
     1
102
RTVSPropertyOp58
 70
     1
102
RTVSPropertyOp59
 70
     1
102
RTVSPropertyOp60
 70
     1
102
RTVSPropertyOp61
 70
     1
102
RTVSPropertyOp62
 70
     1
  0
XRECORD
  5
380
102
{ACAD_REACTORS
330
37F
102
}
330
37F
100
AcDbXrecord
280
     1
102
RTVSPost2010Prop28
280
     0
102
RTVSPost2010PropOp28
 70
     1
102
RTVSPost2010Prop29
280
     1
102
RTVSPost2010PropOp29
 70
     1
102
RTVSPost2010Prop30
280
     1
102
RTVSPost2010PropOp30
 70
     1
102
RTVSPost2010Prop31
280
     0
102
RTVSPost2010PropOp31
 70
     1
102
RTVSPost2010Prop32
280
     0
102
RTVSPost2010PropOp32
 70
     1
102
RTVSPost2010Prop33
280
     0
102
RTVSPost2010PropOp33
 70
     1
102
RTVSPost2010Prop34
280
     0
102
RTVSPost2010PropOp34
 70
     1
102
RTVSPost2010Prop35
280
     0
102
RTVSPost2010PropOp35
 70
     1
102
RTVSPost2010Prop36
280
     0
102
RTVSPost2010PropOp36
 70
     1
102
RTVSPost2010Prop37
 90
       50
102
RTVSPost2010PropOp37
 70
     1
102
RTVSPost2010Prop38
140
0.0
102
RTVSPost2010PropOp38
 70
     1
102
RTVSPost2010Prop39
140
1.0
102
RTVSPost2010PropOp39
 70
     1
102
RTVSPost2010Prop40
 90
        0
102
RTVSPost2010PropOp40
 70
     1
102
RTVSPost2010Prop41ColorIndex
 90
       18
102
RTVSPost2010Prop41ColorRGB
 90
        0
102
RTVSPost2010PropOp41
 70
     1
102
RTVSPost2010Prop42
 90
       50
102
RTVSPost2010PropOp42
 70
     1
102
RTVSPost2010Prop43
 90
        3
102
RTVSPost2010PropOp43
 70
     1
102
RTVSPost2010Prop44ColorIndex
 90
        5
102
RTVSPost2010Prop44ColorRGB
 90
      255
102
RTVSPost2010PropOp44
 70
     1
102
RTVSPost2010Prop45
280
     0
102
RTVSPost2010PropOp45
 70
     1
102
RTVSPost2010Prop46
 90
       50
102
RTVSPost2010PropOp46
 70
     1
102
RTVSPost2010Prop47
 90
       50
102
RTVSPost2010PropOp47
 70
     1
102
RTVSPost2010Prop48
 90
       50
102
RTVSPost2010PropOp48
 70
     1
102
RTVSPost2010Prop49
280
     0
102
RTVSPost2010PropOp49
 70
     1
102
RTVSPost2010Prop50
 90
       50
102
RTVSPost2010PropOp50
 70
     1
102
RTVSPost2010Prop51ColorIndex
 90
      256
102
RTVSPost2010Prop51ColorRGB
 90
-16777216
102
RTVSPost2010PropOp51
 70
     0
102
RTVSPost2010Prop52
140
1.0
102
RTVSPost2010PropOp52
 70
     0
102
RTVSPost2010Prop53
 90
        2
102
RTVSPost2010PropOp53
 70
     1
102
RTVSPost2010Prop54
  1
strokes_ogs.tif
102
RTVSPost2010PropOp54
 70
     1
102
RTVSPost2010Prop55
280
     0
102
RTVSPost2010PropOp55
 70
     1
102
RTVSPost2010Prop56
140
1.0
102
RTVSPost2010PropOp56
 70
     1
102
RTVSPost2010Prop57
140
1.0
102
RTVSPost2010PropOp57
 70
     1
102
RTVSPropertyOp0
 70
     1
102
RTVSPropertyOp1
 70
     1
102
RTVSPropertyOp2
 70
     1
102
RTVSPropertyOp3
 70
     1
102
RTVSPropertyOp4
 70
     1
102
RTVSPropertyOp5
 70
     1
102
RTVSPropertyOp6
 70
     1
102
RTVSPropertyOp7
 70
     1
102
RTVSPropertyOp8
 70
     1
102
RTVSPropertyOp9
 70
     1
102
RTVSPropertyOp10
 70
     1
102
RTVSPropertyOp11
 70
     1
102
RTVSPropertyOp12
 70
     1
102
RTVSPropertyOp13
 70
     1
102
RTVSPropertyOp14
 70
     1
102
RTVSPropertyOp15
 70
     1
102
RTVSPropertyOp16
 70
     1
102
RTVSPropertyOp17
 70
     1
102
RTVSPropertyOp18
 70
     1
102
RTVSPropertyOp19
 70
     1
102
RTVSPropertyOp20
 70
     1
102
RTVSPropertyOp21
 70
     1
102
RTVSPropertyOp22
 70
     1
102
RTVSPropertyOp23
 70
     1
102
RTVSPropertyOp24
 70
     1
102
RTVSPropertyOp25
 70
     1
102
RTVSPropertyOp26
 70
     1
102
RTVSPropertyOp27
 70
     1
102
RTVSPropertyOp28
 70
     1
102
RTVSPropertyOp29
 70
     1
102
RTVSPropertyOp30
 70
     1
102
RTVSPropertyOp31
 70
     1
102
RTVSPropertyOp32
 70
     1
102
RTVSPropertyOp33
 70
     1
102
RTVSPropertyOp34
 70
     1
102
RTVSPropertyOp35
 70
     1
102
RTVSPropertyOp36
 70
     1
102
RTVSPropertyOp37
 70
     1
102
RTVSPropertyOp38
 70
     1
102
RTVSPropertyOp39
 70
     1
102
RTVSPropertyOp40
 70
     1
102
RTVSPropertyOp41
 70
     1
102
RTVSPropertyOp42
 70
     1
102
RTVSPropertyOp43
 70
     1
102
RTVSPropertyOp44
 70
     1
102
RTVSPropertyOp45
 70
     1
102
RTVSPropertyOp46
 70
     1
102
RTVSPropertyOp47
 70
     1
102
RTVSPropertyOp48
 70
     1
102
RTVSPropertyOp49
 70
     1
102
RTVSPropertyOp50
 70
     1
102
RTVSPropertyOp51
 70
     0
102
RTVSPropertyOp52
 70
     0
102
RTVSPropertyOp53
 70
     1
102
RTVSPropertyOp54
 70
     1
102
RTVSPropertyOp55
 70
     1
102
RTVSPropertyOp56
 70
     1
102
RTVSPropertyOp57
 70
     1
102
RTVSPropertyOp58
 70
     1
102
RTVSPropertyOp59
 70
     1
102
RTVSPropertyOp60
 70
     1
102
RTVSPropertyOp61
 70
     1
102
RTVSPropertyOp62
 70
     1
  0
XRECORD
  5
394
102
{ACAD_REACTORS
330
393
102
}
330
393
100
AcDbXrecord
280
     1
102
RTVSPost2010Prop28
280
     0
102
RTVSPost2010PropOp28
 70
     0
102
RTVSPost2010Prop29
280
     1
102
RTVSPost2010PropOp29
 70
     0
102
RTVSPost2010Prop30
280
     1
102
RTVSPost2010PropOp30
 70
     0
102
RTVSPost2010Prop31
280
     0
102
RTVSPost2010PropOp31
 70
     0
102
RTVSPost2010Prop32
280
     0
102
RTVSPost2010PropOp32
 70
     0
102
RTVSPost2010Prop33
280
     0
102
RTVSPost2010PropOp33
 70
     0
102
RTVSPost2010Prop34
280
     0
102
RTVSPost2010PropOp34
 70
     0
102
RTVSPost2010Prop35
280
     0
102
RTVSPost2010PropOp35
 70
     0
102
RTVSPost2010Prop36
280
     0
102
RTVSPost2010PropOp36
 70
     0
102
RTVSPost2010Prop37
 90
       50
102
RTVSPost2010PropOp37
 70
     0
102
RTVSPost2010Prop38
140
0.0
102
RTVSPost2010PropOp38
 70
     0
102
RTVSPost2010Prop39
140
1.0
102
RTVSPost2010PropOp39
 70
     0
102
RTVSPost2010Prop40
 90
        0
102
RTVSPost2010PropOp40
 70
     0
102
RTVSPost2010Prop41ColorIndex
 90
       18
102
RTVSPost2010Prop41ColorRGB
 90
        0
102
RTVSPost2010PropOp41
 70
     0
102
RTVSPost2010Prop42
 90
       50
102
RTVSPost2010PropOp42
 70
     0
102
RTVSPost2010Prop43
 90
        3
102
RTVSPost2010PropOp43
 70
     0
102
RTVSPost2010Prop44ColorIndex
 90
        5
102
RTVSPost2010Prop44ColorRGB
 90
      255
102
RTVSPost2010PropOp44
 70
     0
102
RTVSPost2010Prop45
280
     0
102
RTVSPost2010PropOp45
 70
     0
102
RTVSPost2010Prop46
 90
       50
102
RTVSPost2010PropOp46
 70
     0
102
RTVSPost2010Prop47
 90
       50
102
RTVSPost2010PropOp47
 70
     0
102
RTVSPost2010Prop48
 90
       50
102
RTVSPost2010PropOp48
 70
     0
102
RTVSPost2010Prop49
280
     0
102
RTVSPost2010PropOp49
 70
     0
102
RTVSPost2010Prop50
 90
       50
102
RTVSPost2010PropOp50
 70
     0
102
RTVSPost2010Prop51ColorIndex
 90
      256
102
RTVSPost2010Prop51ColorRGB
 90
-16777216
102
RTVSPost2010PropOp51
 70
     0
102
RTVSPost2010Prop52
140
1.0
102
RTVSPost2010PropOp52
 70
     0
102
RTVSPost2010Prop53
 90
        2
102
RTVSPost2010PropOp53
 70
     0
102
RTVSPost2010Prop54
  1
strokes_ogs.tif
102
RTVSPost2010PropOp54
 70
     0
102
RTVSPost2010Prop55
280
     0
102
RTVSPost2010PropOp55
 70
     0
102
RTVSPost2010Prop56
140
1.0
102
RTVSPost2010PropOp56
 70
     0
102
RTVSPost2010Prop57
140
1.0
102
RTVSPost2010PropOp57
 70
     0
102
RTVSPropertyOp0
 70
     0
102
RTVSPropertyOp1
 70
     0
102
RTVSPropertyOp2
 70
     0
102
RTVSPropertyOp3
 70
     0
102
RTVSPropertyOp4
 70
     0
102
RTVSPropertyOp5
 70
     0
102
RTVSPropertyOp6
 70
     0
102
RTVSPropertyOp7
 70
     0
102
RTVSPropertyOp8
 70
     0
102
RTVSPropertyOp9
 70
     0
102
RTVSPropertyOp10
 70
     0
102
RTVSPropertyOp11
 70
     0
102
RTVSPropertyOp12
 70
     0
102
RTVSPropertyOp13
 70
     0
102
RTVSPropertyOp14
 70
     2
102
RTVSPropertyOp15
 70
     0
102
RTVSPropertyOp16
 70
     0
102
RTVSPropertyOp17
 70
     0
102
RTVSPropertyOp18
 70
     0
102
RTVSPropertyOp19
 70
     0
102
RTVSPropertyOp20
 70
     0
102
RTVSPropertyOp21
 70
     0
102
RTVSPropertyOp22
 70
     0
102
RTVSPropertyOp23
 70
     0
102
RTVSPropertyOp24
 70
     0
102
RTVSPropertyOp25
 70
     0
102
RTVSPropertyOp26
 70
     0
102
RTVSPropertyOp27
 70
     0
102
RTVSPropertyOp28
 70
     0
102
RTVSPropertyOp29
 70
     0
102
RTVSPropertyOp30
 70
     0
102
RTVSPropertyOp31
 70
     0
102
RTVSPropertyOp32
 70
     0
102
RTVSPropertyOp33
 70
     0
102
RTVSPropertyOp34
 70
     0
102
RTVSPropertyOp35
 70
     0
102
RTVSPropertyOp36
 70
     0
102
RTVSPropertyOp37
 70
     0
102
RTVSPropertyOp38
 70
     0
102
RTVSPropertyOp39
 70
     0
102
RTVSPropertyOp40
 70
     0
102
RTVSPropertyOp41
 70
     0
102
RTVSPropertyOp42
 70
     0
102
RTVSPropertyOp43
 70
     0
102
RTVSPropertyOp44
 70
     0
102
RTVSPropertyOp45
 70
     0
102
RTVSPropertyOp46
 70
     0
102
RTVSPropertyOp47
 70
     0
102
RTVSPropertyOp48
 70
     0
102
RTVSPropertyOp49
 70
     0
102
RTVSPropertyOp50
 70
     0
102
RTVSPropertyOp51
 70
     0
102
RTVSPropertyOp52
 70
     0
102
RTVSPropertyOp53
 70
     0
102
RTVSPropertyOp54
 70
     0
102
RTVSPropertyOp55
 70
     0
102
RTVSPropertyOp56
 70
     0
102
RTVSPropertyOp57
 70
     0
102
RTVSPropertyOp58
 70
     1
102
RTVSPropertyOp59
 70
     1
102
RTVSPropertyOp60
 70
     1
102
RTVSPropertyOp61
 70
     1
102
RTVSPropertyOp62
 70
     1
  0
XRECORD
  5
38E
102
{ACAD_REACTORS
330
38D
102
}
330
38D
100
AcDbXrecord
280
     1
102
RTVSPost2010Prop28
280
     0
102
RTVSPost2010PropOp28
 70
     1
102
RTVSPost2010Prop29
280
     1
102
RTVSPost2010PropOp29
 70
     1
102
RTVSPost2010Prop30
280
     1
102
RTVSPost2010PropOp30
 70
     1
102
RTVSPost2010Prop31
280
     0
102
RTVSPost2010PropOp31
 70
     1
102
RTVSPost2010Prop32
280
     0
102
RTVSPost2010PropOp32
 70
     1
102
RTVSPost2010Prop33
280
     0
102
RTVSPost2010PropOp33
 70
     1
102
RTVSPost2010Prop34
280
     0
102
RTVSPost2010PropOp34
 70
     1
102
RTVSPost2010Prop35
280
     0
102
RTVSPost2010PropOp35
 70
     1
102
RTVSPost2010Prop36
280
     0
102
RTVSPost2010PropOp36
 70
     1
102
RTVSPost2010Prop37
 90
       50
102
RTVSPost2010PropOp37
 70
     1
102
RTVSPost2010Prop38
140
0.0
102
RTVSPost2010PropOp38
 70
     1
102
RTVSPost2010Prop39
140
1.0
102
RTVSPost2010PropOp39
 70
     1
102
RTVSPost2010Prop40
 90
        0
102
RTVSPost2010PropOp40
 70
     1
102
RTVSPost2010Prop41ColorIndex
 90
       18
102
RTVSPost2010Prop41ColorRGB
 90
        0
102
RTVSPost2010PropOp41
 70
     1
102
RTVSPost2010Prop42
 90
       50
102
RTVSPost2010PropOp42
 70
     1
102
RTVSPost2010Prop43
 90
        3
102
RTVSPost2010PropOp43
 70
     1
102
RTVSPost2010Prop44ColorIndex
 90
        5
102
RTVSPost2010Prop44ColorRGB
 90
      255
102
RTVSPost2010PropOp44
 70
     1
102
RTVSPost2010Prop45
280
     0
102
RTVSPost2010PropOp45
 70
     1
102
RTVSPost2010Prop46
 90
       50
102
RTVSPost2010PropOp46
 70
     1
102
RTVSPost2010Prop47
 90
       50
102
RTVSPost2010PropOp47
 70
     1
102
RTVSPost2010Prop48
 90
       50
102
RTVSPost2010PropOp48
 70
     1
102
RTVSPost2010Prop49
280
     0
102
RTVSPost2010PropOp49
 70
     1
102
RTVSPost2010Prop50
 90
       50
102
RTVSPost2010PropOp50
 70
     1
102
RTVSPost2010Prop51ColorIndex
 90
      256
102
RTVSPost2010Prop51ColorRGB
 90
-16777216
102
RTVSPost2010PropOp51
 70
     0
102
RTVSPost2010Prop52
140
1.0
102
RTVSPost2010PropOp52
 70
     0
102
RTVSPost2010Prop53
 90
        2
102
RTVSPost2010PropOp53
 70
     1
102
RTVSPost2010Prop54
  1
strokes_ogs.tif
102
RTVSPost2010PropOp54
 70
     1
102
RTVSPost2010Prop55
280
     0
102
RTVSPost2010PropOp55
 70
     1
102
RTVSPost2010Prop56
140
1.0
102
RTVSPost2010PropOp56
 70
     1
102
RTVSPost2010Prop57
140
1.0
102
RTVSPost2010PropOp57
 70
     1
102
RTVSPropertyOp0
 70
     1
102
RTVSPropertyOp1
 70
     1
102
RTVSPropertyOp2
 70
     1
102
RTVSPropertyOp3
 70
     1
102
RTVSPropertyOp4
 70
     1
102
RTVSPropertyOp5
 70
     1
102
RTVSPropertyOp6
 70
     1
102
RTVSPropertyOp7
 70
     1
102
RTVSPropertyOp8
 70
     1
102
RTVSPropertyOp9
 70
     1
102
RTVSPropertyOp10
 70
     1
102
RTVSPropertyOp11
 70
     1
102
RTVSPropertyOp12
 70
     1
102
RTVSPropertyOp13
 70
     1
102
RTVSPropertyOp14
 70
     1
102
RTVSPropertyOp15
 70
     1
102
RTVSPropertyOp16
 70
     1
102
RTVSPropertyOp17
 70
     1
102
RTVSPropertyOp18
 70
     1
102
RTVSPropertyOp19
 70
     1
102
RTVSPropertyOp20
 70
     1
102
RTVSPropertyOp21
 70
     1
102
RTVSPropertyOp22
 70
     1
102
RTVSPropertyOp23
 70
     1
102
RTVSPropertyOp24
 70
     1
102
RTVSPropertyOp25
 70
     1
102
RTVSPropertyOp26
 70
     1
102
RTVSPropertyOp27
 70
     1
102
RTVSPropertyOp28
 70
     1
102
RTVSPropertyOp29
 70
     1
102
RTVSPropertyOp30
 70
     1
102
RTVSPropertyOp31
 70
     1
102
RTVSPropertyOp32
 70
     1
102
RTVSPropertyOp33
 70
     1
102
RTVSPropertyOp34
 70
     1
102
RTVSPropertyOp35
 70
     1
102
RTVSPropertyOp36
 70
     1
102
RTVSPropertyOp37
 70
     1
102
RTVSPropertyOp38
 70
     1
102
RTVSPropertyOp39
 70
     1
102
RTVSPropertyOp40
 70
     1
102
RTVSPropertyOp41
 70
     1
102
RTVSPropertyOp42
 70
     1
102
RTVSPropertyOp43
 70
     1
102
RTVSPropertyOp44
 70
     1
102
RTVSPropertyOp45
 70
     1
102
RTVSPropertyOp46
 70
     1
102
RTVSPropertyOp47
 70
     1
102
RTVSPropertyOp48
 70
     1
102
RTVSPropertyOp49
 70
     1
102
RTVSPropertyOp50
 70
     1
102
RTVSPropertyOp51
 70
     0
102
RTVSPropertyOp52
 70
     0
102
RTVSPropertyOp53
 70
     1
102
RTVSPropertyOp54
 70
     1
102
RTVSPropertyOp55
 70
     1
102
RTVSPropertyOp56
 70
     1
102
RTVSPropertyOp57
 70
     1
102
RTVSPropertyOp58
 70
     1
102
RTVSPropertyOp59
 70
     1
102
RTVSPropertyOp60
 70
     1
102
RTVSPropertyOp61
 70
     1
102
RTVSPropertyOp62
 70
     1
  0
XRECORD
  5
396
102
{ACAD_REACTORS
330
395
102
}
330
395
100
AcDbXrecord
280
     1
102
RTVSPost2010Prop28
280
     0
102
RTVSPost2010PropOp28
 70
     0
102
RTVSPost2010Prop29
280
     1
102
RTVSPost2010PropOp29
 70
     0
102
RTVSPost2010Prop30
280
     1
102
RTVSPost2010PropOp30
 70
     0
102
RTVSPost2010Prop31
280
     0
102
RTVSPost2010PropOp31
 70
     0
102
RTVSPost2010Prop32
280
     0
102
RTVSPost2010PropOp32
 70
     0
102
RTVSPost2010Prop33
280
     0
102
RTVSPost2010PropOp33
 70
     0
102
RTVSPost2010Prop34
280
     0
102
RTVSPost2010PropOp34
 70
     0
102
RTVSPost2010Prop35
280
     0
102
RTVSPost2010PropOp35
 70
     0
102
RTVSPost2010Prop36
280
     0
102
RTVSPost2010PropOp36
 70
     0
102
RTVSPost2010Prop37
 90
       50
102
RTVSPost2010PropOp37
 70
     0
102
RTVSPost2010Prop38
140
0.0
102
RTVSPost2010PropOp38
 70
     0
102
RTVSPost2010Prop39
140
1.0
102
RTVSPost2010PropOp39
 70
     0
102
RTVSPost2010Prop40
 90
        0
102
RTVSPost2010PropOp40
 70
     0
102
RTVSPost2010Prop41ColorIndex
 90
       18
102
RTVSPost2010Prop41ColorRGB
 90
        0
102
RTVSPost2010PropOp41
 70
     0
102
RTVSPost2010Prop42
 90
       50
102
RTVSPost2010PropOp42
 70
     0
102
RTVSPost2010Prop43
 90
        3
102
RTVSPost2010PropOp43
 70
     0
102
RTVSPost2010Prop44ColorIndex
 90
        5
102
RTVSPost2010Prop44ColorRGB
 90
      255
102
RTVSPost2010PropOp44
 70
     0
102
RTVSPost2010Prop45
280
     0
102
RTVSPost2010PropOp45
 70
     0
102
RTVSPost2010Prop46
 90
       50
102
RTVSPost2010PropOp46
 70
     0
102
RTVSPost2010Prop47
 90
       50
102
RTVSPost2010PropOp47
 70
     0
102
RTVSPost2010Prop48
 90
       50
102
RTVSPost2010PropOp48
 70
     0
102
RTVSPost2010Prop49
280
     0
102
RTVSPost2010PropOp49
 70
     0
102
RTVSPost2010Prop50
 90
       50
102
RTVSPost2010PropOp50
 70
     0
102
RTVSPost2010Prop51ColorIndex
 90
      256
102
RTVSPost2010Prop51ColorRGB
 90
-16777216
102
RTVSPost2010PropOp51
 70
     0
102
RTVSPost2010Prop52
140
1.0
102
RTVSPost2010PropOp52
 70
     0
102
RTVSPost2010Prop53
 90
        2
102
RTVSPost2010PropOp53
 70
     0
102
RTVSPost2010Prop54
  1
strokes_ogs.tif
102
RTVSPost2010PropOp54
 70
     0
102
RTVSPost2010Prop55
280
     0
102
RTVSPost2010PropOp55
 70
     0
102
RTVSPost2010Prop56
140
1.0
102
RTVSPost2010PropOp56
 70
     0
102
RTVSPost2010Prop57
140
1.0
102
RTVSPost2010PropOp57
 70
     0
102
RTVSPropertyOp0
 70
     0
102
RTVSPropertyOp1
 70
     0
102
RTVSPropertyOp2
 70
     0
102
RTVSPropertyOp3
 70
     0
102
RTVSPropertyOp4
 70
     0
102
RTVSPropertyOp5
 70
     0
102
RTVSPropertyOp6
 70
     0
102
RTVSPropertyOp7
 70
     0
102
RTVSPropertyOp8
 70
     0
102
RTVSPropertyOp9
 70
     0
102
RTVSPropertyOp10
 70
     0
102
RTVSPropertyOp11
 70
     0
102
RTVSPropertyOp12
 70
     0
102
RTVSPropertyOp13
 70
     0
102
RTVSPropertyOp14
 70
     2
102
RTVSPropertyOp15
 70
     0
102
RTVSPropertyOp16
 70
     0
102
RTVSPropertyOp17
 70
     0
102
RTVSPropertyOp18
 70
     0
102
RTVSPropertyOp19
 70
     0
102
RTVSPropertyOp20
 70
     0
102
RTVSPropertyOp21
 70
     0
102
RTVSPropertyOp22
 70
     0
102
RTVSPropertyOp23
 70
     0
102
RTVSPropertyOp24
 70
     0
102
RTVSPropertyOp25
 70
     0
102
RTVSPropertyOp26
 70
     0
102
RTVSPropertyOp27
 70
     0
102
RTVSPropertyOp28
 70
     0
102
RTVSPropertyOp29
 70
     0
102
RTVSPropertyOp30
 70
     0
102
RTVSPropertyOp31
 70
     0
102
RTVSPropertyOp32
 70
     0
102
RTVSPropertyOp33
 70
     0
102
RTVSPropertyOp34
 70
     0
102
RTVSPropertyOp35
 70
     0
102
RTVSPropertyOp36
 70
     0
102
RTVSPropertyOp37
 70
     0
102
RTVSPropertyOp38
 70
     0
102
RTVSPropertyOp39
 70
     0
102
RTVSPropertyOp40
 70
     0
102
RTVSPropertyOp41
 70
     0
102
RTVSPropertyOp42
 70
     0
102
RTVSPropertyOp43
 70
     0
102
RTVSPropertyOp44
 70
     0
102
RTVSPropertyOp45
 70
     0
102
RTVSPropertyOp46
 70
     0
102
RTVSPropertyOp47
 70
     0
102
RTVSPropertyOp48
 70
     0
102
RTVSPropertyOp49
 70
     0
102
RTVSPropertyOp50
 70
     0
102
RTVSPropertyOp51
 70
     0
102
RTVSPropertyOp52
 70
     0
102
RTVSPropertyOp53
 70
     0
102
RTVSPropertyOp54
 70
     0
102
RTVSPropertyOp55
 70
     0
102
RTVSPropertyOp56
 70
     0
102
RTVSPropertyOp57
 70
     0
102
RTVSPropertyOp58
 70
     1
102
RTVSPropertyOp59
 70
     1
102
RTVSPropertyOp60
 70
     1
102
RTVSPropertyOp61
 70
     1
102
RTVSPropertyOp62
 70
     1
  0
XRECORD
  5
384
102
{ACAD_REACTORS
330
383
102
}
330
383
100
AcDbXrecord
280
     1
102
RTVSPost2010Prop28
280
     0
102
RTVSPost2010PropOp28
 70
     1
102
RTVSPost2010Prop29
280
     1
102
RTVSPost2010PropOp29
 70
     1
102
RTVSPost2010Prop30
280
     1
102
RTVSPost2010PropOp30
 70
     1
102
RTVSPost2010Prop31
280
     0
102
RTVSPost2010PropOp31
 70
     1
102
RTVSPost2010Prop32
280
     0
102
RTVSPost2010PropOp32
 70
     1
102
RTVSPost2010Prop33
280
     0
102
RTVSPost2010PropOp33
 70
     1
102
RTVSPost2010Prop34
280
     0
102
RTVSPost2010PropOp34
 70
     1
102
RTVSPost2010Prop35
280
     0
102
RTVSPost2010PropOp35
 70
     1
102
RTVSPost2010Prop36
280
     0
102
RTVSPost2010PropOp36
 70
     1
102
RTVSPost2010Prop37
 90
       50
102
RTVSPost2010PropOp37
 70
     1
102
RTVSPost2010Prop38
140
0.0
102
RTVSPost2010PropOp38
 70
     1
102
RTVSPost2010Prop39
140
1.0
102
RTVSPost2010PropOp39
 70
     1
102
RTVSPost2010Prop40
 90
        0
102
RTVSPost2010PropOp40
 70
     1
102
RTVSPost2010Prop41ColorIndex
 90
       18
102
RTVSPost2010Prop41ColorRGB
 90
        0
102
RTVSPost2010PropOp41
 70
     1
102
RTVSPost2010Prop42
 90
       50
102
RTVSPost2010PropOp42
 70
     1
102
RTVSPost2010Prop43
 90
        3
102
RTVSPost2010PropOp43
 70
     1
102
RTVSPost2010Prop44ColorIndex
 90
        5
102
RTVSPost2010Prop44ColorRGB
 90
      255
102
RTVSPost2010PropOp44
 70
     1
102
RTVSPost2010Prop45
280
     0
102
RTVSPost2010PropOp45
 70
     1
102
RTVSPost2010Prop46
 90
       50
102
RTVSPost2010PropOp46
 70
     1
102
RTVSPost2010Prop47
 90
       50
102
RTVSPost2010PropOp47
 70
     1
102
RTVSPost2010Prop48
 90
       50
102
RTVSPost2010PropOp48
 70
     1
102
RTVSPost2010Prop49
280
     0
102
RTVSPost2010PropOp49
 70
     1
102
RTVSPost2010Prop50
 90
       50
102
RTVSPost2010PropOp50
 70
     1
102
RTVSPost2010Prop51ColorIndex
 90
      256
102
RTVSPost2010Prop51ColorRGB
 90
-16777216
102
RTVSPost2010PropOp51
 70
     0
102
RTVSPost2010Prop52
140
1.0
102
RTVSPost2010PropOp52
 70
     0
102
RTVSPost2010Prop53
 90
        2
102
RTVSPost2010PropOp53
 70
     1
102
RTVSPost2010Prop54
  1
strokes_ogs.tif
102
RTVSPost2010PropOp54
 70
     1
102
RTVSPost2010Prop55
280
     0
102
RTVSPost2010PropOp55
 70
     1
102
RTVSPost2010Prop56
140
1.0
102
RTVSPost2010PropOp56
 70
     1
102
RTVSPost2010Prop57
140
1.0
102
RTVSPost2010PropOp57
 70
     1
102
RTVSPropertyOp0
 70
     1
102
RTVSPropertyOp1
 70
     1
102
RTVSPropertyOp2
 70
     1
102
RTVSPropertyOp3
 70
     1
102
RTVSPropertyOp4
 70
     1
102
RTVSPropertyOp5
 70
     1
102
RTVSPropertyOp6
 70
     1
102
RTVSPropertyOp7
 70
     1
102
RTVSPropertyOp8
 70
     1
102
RTVSPropertyOp9
 70
     1
102
RTVSPropertyOp10
 70
     1
102
RTVSPropertyOp11
 70
     1
102
RTVSPropertyOp12
 70
     1
102
RTVSPropertyOp13
 70
     1
102
RTVSPropertyOp14
 70
     1
102
RTVSPropertyOp15
 70
     1
102
RTVSPropertyOp16
 70
     1
102
RTVSPropertyOp17
 70
     1
102
RTVSPropertyOp18
 70
     1
102
RTVSPropertyOp19
 70
     1
102
RTVSPropertyOp20
 70
     1
102
RTVSPropertyOp21
 70
     1
102
RTVSPropertyOp22
 70
     1
102
RTVSPropertyOp23
 70
     1
102
RTVSPropertyOp24
 70
     1
102
RTVSPropertyOp25
 70
     1
102
RTVSPropertyOp26
 70
     1
102
RTVSPropertyOp27
 70
     1
102
RTVSPropertyOp28
 70
     1
102
RTVSPropertyOp29
 70
     1
102
RTVSPropertyOp30
 70
     1
102
RTVSPropertyOp31
 70
     1
102
RTVSPropertyOp32
 70
     1
102
RTVSPropertyOp33
 70
     1
102
RTVSPropertyOp34
 70
     1
102
RTVSPropertyOp35
 70
     1
102
RTVSPropertyOp36
 70
     1
102
RTVSPropertyOp37
 70
     1
102
RTVSPropertyOp38
 70
     1
102
RTVSPropertyOp39
 70
     1
102
RTVSPropertyOp40
 70
     1
102
RTVSPropertyOp41
 70
     1
102
RTVSPropertyOp42
 70
     1
102
RTVSPropertyOp43
 70
     1
102
RTVSPropertyOp44
 70
     1
102
RTVSPropertyOp45
 70
     1
102
RTVSPropertyOp46
 70
     1
102
RTVSPropertyOp47
 70
     1
102
RTVSPropertyOp48
 70
     1
102
RTVSPropertyOp49
 70
     1
102
RTVSPropertyOp50
 70
     1
102
RTVSPropertyOp51
 70
     0
102
RTVSPropertyOp52
 70
     0
102
RTVSPropertyOp53
 70
     1
102
RTVSPropertyOp54
 70
     1
102
RTVSPropertyOp55
 70
     1
102
RTVSPropertyOp56
 70
     1
102
RTVSPropertyOp57
 70
     1
102
RTVSPropertyOp58
 70
     1
102
RTVSPropertyOp59
 70
     1
102
RTVSPropertyOp60
 70
     1
102
RTVSPropertyOp61
 70
     1
102
RTVSPropertyOp62
 70
     1
  0
XRECORD
  5
3A2
102
{ACAD_REACTORS
330
3A1
102
}
330
3A1
100
AcDbXrecord
280
     1
102
RTVSPost2010Prop28
280
     0
102
RTVSPost2010PropOp28
 70
     1
102
RTVSPost2010Prop29
280
     1
102
RTVSPost2010PropOp29
 70
     1
102
RTVSPost2010Prop30
280
     1
102
RTVSPost2010PropOp30
 70
     1
102
RTVSPost2010Prop31
280
     0
102
RTVSPost2010PropOp31
 70
     1
102
RTVSPost2010Prop32
280
     0
102
RTVSPost2010PropOp32
 70
     1
102
RTVSPost2010Prop33
280
     0
102
RTVSPost2010PropOp33
 70
     1
102
RTVSPost2010Prop34
280
     0
102
RTVSPost2010PropOp34
 70
     1
102
RTVSPost2010Prop35
280
     0
102
RTVSPost2010PropOp35
 70
     1
102
RTVSPost2010Prop36
280
     0
102
RTVSPost2010PropOp36
 70
     1
102
RTVSPost2010Prop37
 90
       50
102
RTVSPost2010PropOp37
 70
     1
102
RTVSPost2010Prop38
140
0.0
102
RTVSPost2010PropOp38
 70
     1
102
RTVSPost2010Prop39
140
1.0
102
RTVSPost2010PropOp39
 70
     1
102
RTVSPost2010Prop40
 90
        0
102
RTVSPost2010PropOp40
 70
     1
102
RTVSPost2010Prop41ColorIndex
 90
       18
102
RTVSPost2010Prop41ColorRGB
 90
        0
102
RTVSPost2010PropOp41
 70
     1
102
RTVSPost2010Prop42
 90
       50
102
RTVSPost2010PropOp42
 70
     1
102
RTVSPost2010Prop43
 90
        3
102
RTVSPost2010PropOp43
 70
     1
102
RTVSPost2010Prop44ColorIndex
 90
        5
102
RTVSPost2010Prop44ColorRGB
 90
      255
102
RTVSPost2010PropOp44
 70
     1
102
RTVSPost2010Prop45
280
     0
102
RTVSPost2010PropOp45
 70
     1
102
RTVSPost2010Prop46
 90
       50
102
RTVSPost2010PropOp46
 70
     1
102
RTVSPost2010Prop47
 90
       50
102
RTVSPost2010PropOp47
 70
     1
102
RTVSPost2010Prop48
 90
       50
102
RTVSPost2010PropOp48
 70
     1
102
RTVSPost2010Prop49
280
     0
102
RTVSPost2010PropOp49
 70
     1
102
RTVSPost2010Prop50
 90
       50
102
RTVSPost2010PropOp50
 70
     1
102
RTVSPost2010Prop51ColorIndex
 90
      256
102
RTVSPost2010Prop51ColorRGB
 90
-16777216
102
RTVSPost2010PropOp51
 70
     0
102
RTVSPost2010Prop52
140
1.0
102
RTVSPost2010PropOp52
 70
     0
102
RTVSPost2010Prop53
 90
        2
102
RTVSPost2010PropOp53
 70
     1
102
RTVSPost2010Prop54
  1
strokes_ogs.tif
102
RTVSPost2010PropOp54
 70
     1
102
RTVSPost2010Prop55
280
     0
102
RTVSPost2010PropOp55
 70
     1
102
RTVSPost2010Prop56
140
1.0
102
RTVSPost2010PropOp56
 70
     1
102
RTVSPost2010Prop57
140
1.0
102
RTVSPost2010PropOp57
 70
     1
102
RTVSPropertyOp0
 70
     1
102
RTVSPropertyOp1
 70
     1
102
RTVSPropertyOp2
 70
     1
102
RTVSPropertyOp3
 70
     1
102
RTVSPropertyOp4
 70
     1
102
RTVSPropertyOp5
 70
     1
102
RTVSPropertyOp6
 70
     1
102
RTVSPropertyOp7
 70
     1
102
RTVSPropertyOp8
 70
     1
102
RTVSPropertyOp9
 70
     1
102
RTVSPropertyOp10
 70
     1
102
RTVSPropertyOp11
 70
     1
102
RTVSPropertyOp12
 70
     1
102
RTVSPropertyOp13
 70
     1
102
RTVSPropertyOp14
 70
     1
102
RTVSPropertyOp15
 70
     1
102
RTVSPropertyOp16
 70
     1
102
RTVSPropertyOp17
 70
     1
102
RTVSPropertyOp18
 70
     1
102
RTVSPropertyOp19
 70
     1
102
RTVSPropertyOp20
 70
     1
102
RTVSPropertyOp21
 70
     1
102
RTVSPropertyOp22
 70
     1
102
RTVSPropertyOp23
 70
     1
102
RTVSPropertyOp24
 70
     1
102
RTVSPropertyOp25
 70
     1
102
RTVSPropertyOp26
 70
     1
102
RTVSPropertyOp27
 70
     1
102
RTVSPropertyOp28
 70
     1
102
RTVSPropertyOp29
 70
     1
102
RTVSPropertyOp30
 70
     1
102
RTVSPropertyOp31
 70
     1
102
RTVSPropertyOp32
 70
     1
102
RTVSPropertyOp33
 70
     1
102
RTVSPropertyOp34
 70
     1
102
RTVSPropertyOp35
 70
     1
102
RTVSPropertyOp36
 70
     1
102
RTVSPropertyOp37
 70
     1
102
RTVSPropertyOp38
 70
     1
102
RTVSPropertyOp39
 70
     1
102
RTVSPropertyOp40
 70
     1
102
RTVSPropertyOp41
 70
     1
102
RTVSPropertyOp42
 70
     1
102
RTVSPropertyOp43
 70
     1
102
RTVSPropertyOp44
 70
     1
102
RTVSPropertyOp45
 70
     1
102
RTVSPropertyOp46
 70
     1
102
RTVSPropertyOp47
 70
     1
102
RTVSPropertyOp48
 70
     1
102
RTVSPropertyOp49
 70
     1
102
RTVSPropertyOp50
 70
     1
102
RTVSPropertyOp51
 70
     0
102
RTVSPropertyOp52
 70
     0
102
RTVSPropertyOp53
 70
     1
102
RTVSPropertyOp54
 70
     1
102
RTVSPropertyOp55
 70
     1
102
RTVSPropertyOp56
 70
     1
102
RTVSPropertyOp57
 70
     1
102
RTVSPropertyOp58
 70
     1
102
RTVSPropertyOp59
 70
     1
102
RTVSPropertyOp60
 70
     1
102
RTVSPropertyOp61
 70
     1
102
RTVSPropertyOp62
 70
     1
  0
XRECORD
  5
3A0
102
{ACAD_REACTORS
330
39F
102
}
330
39F
100
AcDbXrecord
280
     1
102
RTVSPost2010Prop28
280
     0
102
RTVSPost2010PropOp28
 70
     1
102
RTVSPost2010Prop29
280
     1
102
RTVSPost2010PropOp29
 70
     1
102
RTVSPost2010Prop30
280
     1
102
RTVSPost2010PropOp30
 70
     1
102
RTVSPost2010Prop31
280
     0
102
RTVSPost2010PropOp31
 70
     1
102
RTVSPost2010Prop32
280
     0
102
RTVSPost2010PropOp32
 70
     1
102
RTVSPost2010Prop33
280
     0
102
RTVSPost2010PropOp33
 70
     1
102
RTVSPost2010Prop34
280
     0
102
RTVSPost2010PropOp34
 70
     1
102
RTVSPost2010Prop35
280
     0
102
RTVSPost2010PropOp35
 70
     1
102
RTVSPost2010Prop36
280
     0
102
RTVSPost2010PropOp36
 70
     1
102
RTVSPost2010Prop37
 90
       50
102
RTVSPost2010PropOp37
 70
     1
102
RTVSPost2010Prop38
140
0.0
102
RTVSPost2010PropOp38
 70
     1
102
RTVSPost2010Prop39
140
1.0
102
RTVSPost2010PropOp39
 70
     1
102
RTVSPost2010Prop40
 90
        0
102
RTVSPost2010PropOp40
 70
     1
102
RTVSPost2010Prop41ColorIndex
 90
       18
102
RTVSPost2010Prop41ColorRGB
 90
        0
102
RTVSPost2010PropOp41
 70
     1
102
RTVSPost2010Prop42
 90
       50
102
RTVSPost2010PropOp42
 70
     1
102
RTVSPost2010Prop43
 90
        3
102
RTVSPost2010PropOp43
 70
     1
102
RTVSPost2010Prop44ColorIndex
 90
        5
102
RTVSPost2010Prop44ColorRGB
 90
      255
102
RTVSPost2010PropOp44
 70
     1
102
RTVSPost2010Prop45
280
     0
102
RTVSPost2010PropOp45
 70
     1
102
RTVSPost2010Prop46
 90
       50
102
RTVSPost2010PropOp46
 70
     1
102
RTVSPost2010Prop47
 90
       50
102
RTVSPost2010PropOp47
 70
     1
102
RTVSPost2010Prop48
 90
       50
102
RTVSPost2010PropOp48
 70
     1
102
RTVSPost2010Prop49
280
     0
102
RTVSPost2010PropOp49
 70
     1
102
RTVSPost2010Prop50
 90
       50
102
RTVSPost2010PropOp50
 70
     1
102
RTVSPost2010Prop51ColorIndex
 90
      256
102
RTVSPost2010Prop51ColorRGB
 90
-16777216
102
RTVSPost2010PropOp51
 70
     0
102
RTVSPost2010Prop52
140
1.0
102
RTVSPost2010PropOp52
 70
     0
102
RTVSPost2010Prop53
 90
        2
102
RTVSPost2010PropOp53
 70
     1
102
RTVSPost2010Prop54
  1
strokes_ogs.tif
102
RTVSPost2010PropOp54
 70
     1
102
RTVSPost2010Prop55
280
     0
102
RTVSPost2010PropOp55
 70
     1
102
RTVSPost2010Prop56
140
1.0
102
RTVSPost2010PropOp56
 70
     1
102
RTVSPost2010Prop57
140
1.0
102
RTVSPost2010PropOp57
 70
     1
102
RTVSPropertyOp0
 70
     1
102
RTVSPropertyOp1
 70
     1
102
RTVSPropertyOp2
 70
     1
102
RTVSPropertyOp3
 70
     1
102
RTVSPropertyOp4
 70
     1
102
RTVSPropertyOp5
 70
     1
102
RTVSPropertyOp6
 70
     1
102
RTVSPropertyOp7
 70
     1
102
RTVSPropertyOp8
 70
     1
102
RTVSPropertyOp9
 70
     1
102
RTVSPropertyOp10
 70
     1
102
RTVSPropertyOp11
 70
     1
102
RTVSPropertyOp12
 70
     1
102
RTVSPropertyOp13
 70
     1
102
RTVSPropertyOp14
 70
     1
102
RTVSPropertyOp15
 70
     1
102
RTVSPropertyOp16
 70
     1
102
RTVSPropertyOp17
 70
     1
102
RTVSPropertyOp18
 70
     1
102
RTVSPropertyOp19
 70
     1
102
RTVSPropertyOp20
 70
     1
102
RTVSPropertyOp21
 70
     1
102
RTVSPropertyOp22
 70
     1
102
RTVSPropertyOp23
 70
     1
102
RTVSPropertyOp24
 70
     1
102
RTVSPropertyOp25
 70
     1
102
RTVSPropertyOp26
 70
     1
102
RTVSPropertyOp27
 70
     1
102
RTVSPropertyOp28
 70
     1
102
RTVSPropertyOp29
 70
     1
102
RTVSPropertyOp30
 70
     1
102
RTVSPropertyOp31
 70
     1
102
RTVSPropertyOp32
 70
     1
102
RTVSPropertyOp33
 70
     1
102
RTVSPropertyOp34
 70
     1
102
RTVSPropertyOp35
 70
     1
102
RTVSPropertyOp36
 70
     1
102
RTVSPropertyOp37
 70
     1
102
RTVSPropertyOp38
 70
     1
102
RTVSPropertyOp39
 70
     1
102
RTVSPropertyOp40
 70
     1
102
RTVSPropertyOp41
 70
     1
102
RTVSPropertyOp42
 70
     1
102
RTVSPropertyOp43
 70
     1
102
RTVSPropertyOp44
 70
     1
102
RTVSPropertyOp45
 70
     1
102
RTVSPropertyOp46
 70
     1
102
RTVSPropertyOp47
 70
     1
102
RTVSPropertyOp48
 70
     1
102
RTVSPropertyOp49
 70
     1
102
RTVSPropertyOp50
 70
     1
102
RTVSPropertyOp51
 70
     0
102
RTVSPropertyOp52
 70
     0
102
RTVSPropertyOp53
 70
     1
102
RTVSPropertyOp54
 70
     1
102
RTVSPropertyOp55
 70
     1
102
RTVSPropertyOp56
 70
     1
102
RTVSPropertyOp57
 70
     1
102
RTVSPropertyOp58
 70
     1
102
RTVSPropertyOp59
 70
     1
102
RTVSPropertyOp60
 70
     1
102
RTVSPropertyOp61
 70
     1
102
RTVSPropertyOp62
 70
     1
  0
XRECORD
  5
39A
102
{ACAD_REACTORS
330
399
102
}
330
399
100
AcDbXrecord
280
     1
102
RTVSPost2010Prop28
280
     0
102
RTVSPost2010PropOp28
 70
     1
102
RTVSPost2010Prop29
280
     1
102
RTVSPost2010PropOp29
 70
     1
102
RTVSPost2010Prop30
280
     1
102
RTVSPost2010PropOp30
 70
     1
102
RTVSPost2010Prop31
280
     0
102
RTVSPost2010PropOp31
 70
     1
102
RTVSPost2010Prop32
280
     0
102
RTVSPost2010PropOp32
 70
     1
102
RTVSPost2010Prop33
280
     0
102
RTVSPost2010PropOp33
 70
     1
102
RTVSPost2010Prop34
280
     0
102
RTVSPost2010PropOp34
 70
     1
102
RTVSPost2010Prop35
280
     0
102
RTVSPost2010PropOp35
 70
     1
102
RTVSPost2010Prop36
280
     0
102
RTVSPost2010PropOp36
 70
     1
102
RTVSPost2010Prop37
 90
       50
102
RTVSPost2010PropOp37
 70
     1
102
RTVSPost2010Prop38
140
0.0
102
RTVSPost2010PropOp38
 70
     1
102
RTVSPost2010Prop39
140
1.0
102
RTVSPost2010PropOp39
 70
     1
102
RTVSPost2010Prop40
 90
        0
102
RTVSPost2010PropOp40
 70
     1
102
RTVSPost2010Prop41ColorIndex
 90
       18
102
RTVSPost2010Prop41ColorRGB
 90
        0
102
RTVSPost2010PropOp41
 70
     1
102
RTVSPost2010Prop42
 90
       50
102
RTVSPost2010PropOp42
 70
     1
102
RTVSPost2010Prop43
 90
        3
102
RTVSPost2010PropOp43
 70
     1
102
RTVSPost2010Prop44ColorIndex
 90
        5
102
RTVSPost2010Prop44ColorRGB
 90
      255
102
RTVSPost2010PropOp44
 70
     1
102
RTVSPost2010Prop45
280
     0
102
RTVSPost2010PropOp45
 70
     1
102
RTVSPost2010Prop46
 90
       50
102
RTVSPost2010PropOp46
 70
     1
102
RTVSPost2010Prop47
 90
       50
102
RTVSPost2010PropOp47
 70
     1
102
RTVSPost2010Prop48
 90
       50
102
RTVSPost2010PropOp48
 70
     1
102
RTVSPost2010Prop49
280
     0
102
RTVSPost2010PropOp49
 70
     1
102
RTVSPost2010Prop50
 90
       50
102
RTVSPost2010PropOp50
 70
     1
102
RTVSPost2010Prop51ColorIndex
 90
      256
102
RTVSPost2010Prop51ColorRGB
 90
-16777216
102
RTVSPost2010PropOp51
 70
     0
102
RTVSPost2010Prop52
140
1.0
102
RTVSPost2010PropOp52
 70
     0
102
RTVSPost2010Prop53
 90
        2
102
RTVSPost2010PropOp53
 70
     1
102
RTVSPost2010Prop54
  1
strokes_ogs.tif
102
RTVSPost2010PropOp54
 70
     1
102
RTVSPost2010Prop55
280
     0
102
RTVSPost2010PropOp55
 70
     1
102
RTVSPost2010Prop56
140
1.0
102
RTVSPost2010PropOp56
 70
     1
102
RTVSPost2010Prop57
140
1.0
102
RTVSPost2010PropOp57
 70
     1
102
RTVSPropertyOp0
 70
     1
102
RTVSPropertyOp1
 70
     1
102
RTVSPropertyOp2
 70
     1
102
RTVSPropertyOp3
 70
     1
102
RTVSPropertyOp4
 70
     1
102
RTVSPropertyOp5
 70
     1
102
RTVSPropertyOp6
 70
     1
102
RTVSPropertyOp7
 70
     1
102
RTVSPropertyOp8
 70
     1
102
RTVSPropertyOp9
 70
     1
102
RTVSPropertyOp10
 70
     1
102
RTVSPropertyOp11
 70
     1
102
RTVSPropertyOp12
 70
     1
102
RTVSPropertyOp13
 70
     1
102
RTVSPropertyOp14
 70
     1
102
RTVSPropertyOp15
 70
     1
102
RTVSPropertyOp16
 70
     1
102
RTVSPropertyOp17
 70
     1
102
RTVSPropertyOp18
 70
     1
102
RTVSPropertyOp19
 70
     1
102
RTVSPropertyOp20
 70
     1
102
RTVSPropertyOp21
 70
     1
102
RTVSPropertyOp22
 70
     1
102
RTVSPropertyOp23
 70
     1
102
RTVSPropertyOp24
 70
     1
102
RTVSPropertyOp25
 70
     1
102
RTVSPropertyOp26
 70
     1
102
RTVSPropertyOp27
 70
     1
102
RTVSPropertyOp28
 70
     1
102
RTVSPropertyOp29
 70
     1
102
RTVSPropertyOp30
 70
     1
102
RTVSPropertyOp31
 70
     1
102
RTVSPropertyOp32
 70
     1
102
RTVSPropertyOp33
 70
     1
102
RTVSPropertyOp34
 70
     1
102
RTVSPropertyOp35
 70
     1
102
RTVSPropertyOp36
 70
     1
102
RTVSPropertyOp37
 70
     1
102
RTVSPropertyOp38
 70
     1
102
RTVSPropertyOp39
 70
     1
102
RTVSPropertyOp40
 70
     1
102
RTVSPropertyOp41
 70
     1
102
RTVSPropertyOp42
 70
     1
102
RTVSPropertyOp43
 70
     1
102
RTVSPropertyOp44
 70
     1
102
RTVSPropertyOp45
 70
     1
102
RTVSPropertyOp46
 70
     1
102
RTVSPropertyOp47
 70
     1
102
RTVSPropertyOp48
 70
     1
102
RTVSPropertyOp49
 70
     1
102
RTVSPropertyOp50
 70
     1
102
RTVSPropertyOp51
 70
     0
102
RTVSPropertyOp52
 70
     0
102
RTVSPropertyOp53
 70
     1
102
RTVSPropertyOp54
 70
     1
102
RTVSPropertyOp55
 70
     1
102
RTVSPropertyOp56
 70
     1
102
RTVSPropertyOp57
 70
     1
102
RTVSPropertyOp58
 70
     1
102
RTVSPropertyOp59
 70
     1
102
RTVSPropertyOp60
 70
     1
102
RTVSPropertyOp61
 70
     1
102
RTVSPropertyOp62
 70
     1
  0
XRECORD
  5
39C
102
{ACAD_REACTORS
330
39B
102
}
330
39B
100
AcDbXrecord
280
     1
102
RTVSPost2010Prop28
280
     0
102
RTVSPost2010PropOp28
 70
     1
102
RTVSPost2010Prop29
280
     1
102
RTVSPost2010PropOp29
 70
     1
102
RTVSPost2010Prop30
280
     1
102
RTVSPost2010PropOp30
 70
     1
102
RTVSPost2010Prop31
280
     0
102
RTVSPost2010PropOp31
 70
     1
102
RTVSPost2010Prop32
280
     0
102
RTVSPost2010PropOp32
 70
     1
102
RTVSPost2010Prop33
280
     0
102
RTVSPost2010PropOp33
 70
     1
102
RTVSPost2010Prop34
280
     0
102
RTVSPost2010PropOp34
 70
     1
102
RTVSPost2010Prop35
280
     0
102
RTVSPost2010PropOp35
 70
     1
102
RTVSPost2010Prop36
280
     0
102
RTVSPost2010PropOp36
 70
     1
102
RTVSPost2010Prop37
 90
       50
102
RTVSPost2010PropOp37
 70
     1
102
RTVSPost2010Prop38
140
0.0
102
RTVSPost2010PropOp38
 70
     1
102
RTVSPost2010Prop39
140
1.0
102
RTVSPost2010PropOp39
 70
     1
102
RTVSPost2010Prop40
 90
        0
102
RTVSPost2010PropOp40
 70
     1
102
RTVSPost2010Prop41ColorIndex
 90
       18
102
RTVSPost2010Prop41ColorRGB
 90
        0
102
RTVSPost2010PropOp41
 70
     1
102
RTVSPost2010Prop42
 90
       50
102
RTVSPost2010PropOp42
 70
     1
102
RTVSPost2010Prop43
 90
        3
102
RTVSPost2010PropOp43
 70
     1
102
RTVSPost2010Prop44ColorIndex
 90
        5
102
RTVSPost2010Prop44ColorRGB
 90
      255
102
RTVSPost2010PropOp44
 70
     1
102
RTVSPost2010Prop45
280
     0
102
RTVSPost2010PropOp45
 70
     1
102
RTVSPost2010Prop46
 90
       50
102
RTVSPost2010PropOp46
 70
     1
102
RTVSPost2010Prop47
 90
       50
102
RTVSPost2010PropOp47
 70
     1
102
RTVSPost2010Prop48
 90
       50
102
RTVSPost2010PropOp48
 70
     1
102
RTVSPost2010Prop49
280
     0
102
RTVSPost2010PropOp49
 70
     1
102
RTVSPost2010Prop50
 90
       50
102
RTVSPost2010PropOp50
 70
     1
102
RTVSPost2010Prop51ColorIndex
 90
      256
102
RTVSPost2010Prop51ColorRGB
 90
-16777216
102
RTVSPost2010PropOp51
 70
     0
102
RTVSPost2010Prop52
140
1.0
102
RTVSPost2010PropOp52
 70
     0
102
RTVSPost2010Prop53
 90
        2
102
RTVSPost2010PropOp53
 70
     1
102
RTVSPost2010Prop54
  1
strokes_ogs.tif
102
RTVSPost2010PropOp54
 70
     1
102
RTVSPost2010Prop55
280
     0
102
RTVSPost2010PropOp55
 70
     1
102
RTVSPost2010Prop56
140
1.0
102
RTVSPost2010PropOp56
 70
     1
102
RTVSPost2010Prop57
140
1.0
102
RTVSPost2010PropOp57
 70
     1
102
RTVSPropertyOp0
 70
     1
102
RTVSPropertyOp1
 70
     1
102
RTVSPropertyOp2
 70
     1
102
RTVSPropertyOp3
 70
     1
102
RTVSPropertyOp4
 70
     1
102
RTVSPropertyOp5
 70
     1
102
RTVSPropertyOp6
 70
     1
102
RTVSPropertyOp7
 70
     1
102
RTVSPropertyOp8
 70
     1
102
RTVSPropertyOp9
 70
     1
102
RTVSPropertyOp10
 70
     1
102
RTVSPropertyOp11
 70
     1
102
RTVSPropertyOp12
 70
     1
102
RTVSPropertyOp13
 70
     1
102
RTVSPropertyOp14
 70
     1
102
RTVSPropertyOp15
 70
     1
102
RTVSPropertyOp16
 70
     1
102
RTVSPropertyOp17
 70
     1
102
RTVSPropertyOp18
 70
     1
102
RTVSPropertyOp19
 70
     1
102
RTVSPropertyOp20
 70
     1
102
RTVSPropertyOp21
 70
     1
102
RTVSPropertyOp22
 70
     1
102
RTVSPropertyOp23
 70
     1
102
RTVSPropertyOp24
 70
     1
102
RTVSPropertyOp25
 70
     1
102
RTVSPropertyOp26
 70
     1
102
RTVSPropertyOp27
 70
     1
102
RTVSPropertyOp28
 70
     1
102
RTVSPropertyOp29
 70
     1
102
RTVSPropertyOp30
 70
     1
102
RTVSPropertyOp31
 70
     1
102
RTVSPropertyOp32
 70
     1
102
RTVSPropertyOp33
 70
     1
102
RTVSPropertyOp34
 70
     1
102
RTVSPropertyOp35
 70
     1
102
RTVSPropertyOp36
 70
     1
102
RTVSPropertyOp37
 70
     1
102
RTVSPropertyOp38
 70
     1
102
RTVSPropertyOp39
 70
     1
102
RTVSPropertyOp40
 70
     1
102
RTVSPropertyOp41
 70
     1
102
RTVSPropertyOp42
 70
     1
102
RTVSPropertyOp43
 70
     1
102
RTVSPropertyOp44
 70
     1
102
RTVSPropertyOp45
 70
     1
102
RTVSPropertyOp46
 70
     1
102
RTVSPropertyOp47
 70
     1
102
RTVSPropertyOp48
 70
     1
102
RTVSPropertyOp49
 70
     1
102
RTVSPropertyOp50
 70
     1
102
RTVSPropertyOp51
 70
     0
102
RTVSPropertyOp52
 70
     0
102
RTVSPropertyOp53
 70
     1
102
RTVSPropertyOp54
 70
     1
102
RTVSPropertyOp55
 70
     1
102
RTVSPropertyOp56
 70
     1
102
RTVSPropertyOp57
 70
     1
102
RTVSPropertyOp58
 70
     1
102
RTVSPropertyOp59
 70
     1
102
RTVSPropertyOp60
 70
     1
102
RTVSPropertyOp61
 70
     1
102
RTVSPropertyOp62
 70
     1
  0
XRECORD
  5
38C
102
{ACAD_REACTORS
330
38B
102
}
330
38B
100
AcDbXrecord
280
     1
102
RTVSPost2010Prop28
280
     0
102
RTVSPost2010PropOp28
 70
     1
102
RTVSPost2010Prop29
280
     1
102
RTVSPost2010PropOp29
 70
     1
102
RTVSPost2010Prop30
280
     1
102
RTVSPost2010PropOp30
 70
     1
102
RTVSPost2010Prop31
280
     0
102
RTVSPost2010PropOp31
 70
     1
102
RTVSPost2010Prop32
280
     0
102
RTVSPost2010PropOp32
 70
     1
102
RTVSPost2010Prop33
280
     0
102
RTVSPost2010PropOp33
 70
     1
102
RTVSPost2010Prop34
280
     0
102
RTVSPost2010PropOp34
 70
     1
102
RTVSPost2010Prop35
280
     0
102
RTVSPost2010PropOp35
 70
     1
102
RTVSPost2010Prop36
280
     0
102
RTVSPost2010PropOp36
 70
     1
102
RTVSPost2010Prop37
 90
       50
102
RTVSPost2010PropOp37
 70
     1
102
RTVSPost2010Prop38
140
0.0
102
RTVSPost2010PropOp38
 70
     1
102
RTVSPost2010Prop39
140
1.0
102
RTVSPost2010PropOp39
 70
     1
102
RTVSPost2010Prop40
 90
        0
102
RTVSPost2010PropOp40
 70
     1
102
RTVSPost2010Prop41ColorIndex
 90
       18
102
RTVSPost2010Prop41ColorRGB
 90
        0
102
RTVSPost2010PropOp41
 70
     1
102
RTVSPost2010Prop42
 90
       50
102
RTVSPost2010PropOp42
 70
     1
102
RTVSPost2010Prop43
 90
        3
102
RTVSPost2010PropOp43
 70
     1
102
RTVSPost2010Prop44ColorIndex
 90
        5
102
RTVSPost2010Prop44ColorRGB
 90
      255
102
RTVSPost2010PropOp44
 70
     1
102
RTVSPost2010Prop45
280
     0
102
RTVSPost2010PropOp45
 70
     1
102
RTVSPost2010Prop46
 90
       50
102
RTVSPost2010PropOp46
 70
     1
102
RTVSPost2010Prop47
 90
       50
102
RTVSPost2010PropOp47
 70
     1
102
RTVSPost2010Prop48
 90
       50
102
RTVSPost2010PropOp48
 70
     1
102
RTVSPost2010Prop49
280
     0
102
RTVSPost2010PropOp49
 70
     1
102
RTVSPost2010Prop50
 90
       50
102
RTVSPost2010PropOp50
 70
     1
102
RTVSPost2010Prop51ColorIndex
 90
      256
102
RTVSPost2010Prop51ColorRGB
 90
-16777216
102
RTVSPost2010PropOp51
 70
     0
102
RTVSPost2010Prop52
140
1.0
102
RTVSPost2010PropOp52
 70
     0
102
RTVSPost2010Prop53
 90
        2
102
RTVSPost2010PropOp53
 70
     1
102
RTVSPost2010Prop54
  1
strokes_ogs.tif
102
RTVSPost2010PropOp54
 70
     1
102
RTVSPost2010Prop55
280
     0
102
RTVSPost2010PropOp55
 70
     1
102
RTVSPost2010Prop56
140
1.0
102
RTVSPost2010PropOp56
 70
     1
102
RTVSPost2010Prop57
140
1.0
102
RTVSPost2010PropOp57
 70
     1
102
RTVSPropertyOp0
 70
     1
102
RTVSPropertyOp1
 70
     1
102
RTVSPropertyOp2
 70
     1
102
RTVSPropertyOp3
 70
     1
102
RTVSPropertyOp4
 70
     1
102
RTVSPropertyOp5
 70
     1
102
RTVSPropertyOp6
 70
     1
102
RTVSPropertyOp7
 70
     1
102
RTVSPropertyOp8
 70
     1
102
RTVSPropertyOp9
 70
     1
102
RTVSPropertyOp10
 70
     1
102
RTVSPropertyOp11
 70
     1
102
RTVSPropertyOp12
 70
     1
102
RTVSPropertyOp13
 70
     1
102
RTVSPropertyOp14
 70
     1
102
RTVSPropertyOp15
 70
     1
102
RTVSPropertyOp16
 70
     1
102
RTVSPropertyOp17
 70
     1
102
RTVSPropertyOp18
 70
     1
102
RTVSPropertyOp19
 70
     1
102
RTVSPropertyOp20
 70
     1
102
RTVSPropertyOp21
 70
     1
102
RTVSPropertyOp22
 70
     1
102
RTVSPropertyOp23
 70
     1
102
RTVSPropertyOp24
 70
     1
102
RTVSPropertyOp25
 70
     1
102
RTVSPropertyOp26
 70
     1
102
RTVSPropertyOp27
 70
     1
102
RTVSPropertyOp28
 70
     1
102
RTVSPropertyOp29
 70
     1
102
RTVSPropertyOp30
 70
     1
102
RTVSPropertyOp31
 70
     1
102
RTVSPropertyOp32
 70
     1
102
RTVSPropertyOp33
 70
     1
102
RTVSPropertyOp34
 70
     1
102
RTVSPropertyOp35
 70
     1
102
RTVSPropertyOp36
 70
     1
102
RTVSPropertyOp37
 70
     1
102
RTVSPropertyOp38
 70
     1
102
RTVSPropertyOp39
 70
     1
102
RTVSPropertyOp40
 70
     1
102
RTVSPropertyOp41
 70
     1
102
RTVSPropertyOp42
 70
     1
102
RTVSPropertyOp43
 70
     1
102
RTVSPropertyOp44
 70
     1
102
RTVSPropertyOp45
 70
     1
102
RTVSPropertyOp46
 70
     1
102
RTVSPropertyOp47
 70
     1
102
RTVSPropertyOp48
 70
     1
102
RTVSPropertyOp49
 70
     1
102
RTVSPropertyOp50
 70
     1
102
RTVSPropertyOp51
 70
     0
102
RTVSPropertyOp52
 70
     0
102
RTVSPropertyOp53
 70
     1
102
RTVSPropertyOp54
 70
     1
102
RTVSPropertyOp55
 70
     1
102
RTVSPropertyOp56
 70
     1
102
RTVSPropertyOp57
 70
     1
102
RTVSPropertyOp58
 70
     1
102
RTVSPropertyOp59
 70
     1
102
RTVSPropertyOp60
 70
     1
102
RTVSPropertyOp61
 70
     1
102
RTVSPropertyOp62
 70
     1
  0
XRECORD
  5
37E
102
{ACAD_REACTORS
330
37D
102
}
330
37D
100
AcDbXrecord
280
     1
102
RTVSPost2010Prop28
280
     0
102
RTVSPost2010PropOp28
 70
     1
102
RTVSPost2010Prop29
280
     1
102
RTVSPost2010PropOp29
 70
     1
102
RTVSPost2010Prop30
280
     1
102
RTVSPost2010PropOp30
 70
     1
102
RTVSPost2010Prop31
280
     0
102
RTVSPost2010PropOp31
 70
     1
102
RTVSPost2010Prop32
280
     0
102
RTVSPost2010PropOp32
 70
     1
102
RTVSPost2010Prop33
280
     0
102
RTVSPost2010PropOp33
 70
     1
102
RTVSPost2010Prop34
280
     0
102
RTVSPost2010PropOp34
 70
     1
102
RTVSPost2010Prop35
280
     0
102
RTVSPost2010PropOp35
 70
     1
102
RTVSPost2010Prop36
280
     0
102
RTVSPost2010PropOp36
 70
     1
102
RTVSPost2010Prop37
 90
       50
102
RTVSPost2010PropOp37
 70
     1
102
RTVSPost2010Prop38
140
0.0
102
RTVSPost2010PropOp38
 70
     1
102
RTVSPost2010Prop39
140
1.0
102
RTVSPost2010PropOp39
 70
     1
102
RTVSPost2010Prop40
 90
        0
102
RTVSPost2010PropOp40
 70
     1
102
RTVSPost2010Prop41ColorIndex
 90
       18
102
RTVSPost2010Prop41ColorRGB
 90
        0
102
RTVSPost2010PropOp41
 70
     1
102
RTVSPost2010Prop42
 90
       50
102
RTVSPost2010PropOp42
 70
     1
102
RTVSPost2010Prop43
 90
        3
102
RTVSPost2010PropOp43
 70
     1
102
RTVSPost2010Prop44ColorIndex
 90
        5
102
RTVSPost2010Prop44ColorRGB
 90
      255
102
RTVSPost2010PropOp44
 70
     1
102
RTVSPost2010Prop45
280
     0
102
RTVSPost2010PropOp45
 70
     1
102
RTVSPost2010Prop46
 90
       50
102
RTVSPost2010PropOp46
 70
     1
102
RTVSPost2010Prop47
 90
       50
102
RTVSPost2010PropOp47
 70
     1
102
RTVSPost2010Prop48
 90
       50
102
RTVSPost2010PropOp48
 70
     1
102
RTVSPost2010Prop49
280
     0
102
RTVSPost2010PropOp49
 70
     1
102
RTVSPost2010Prop50
 90
       50
102
RTVSPost2010PropOp50
 70
     1
102
RTVSPost2010Prop51ColorIndex
 90
      256
102
RTVSPost2010Prop51ColorRGB
 90
-16777216
102
RTVSPost2010PropOp51
 70
     0
102
RTVSPost2010Prop52
140
1.0
102
RTVSPost2010PropOp52
 70
     0
102
RTVSPost2010Prop53
 90
        2
102
RTVSPost2010PropOp53
 70
     1
102
RTVSPost2010Prop54
  1
strokes_ogs.tif
102
RTVSPost2010PropOp54
 70
     1
102
RTVSPost2010Prop55
280
     0
102
RTVSPost2010PropOp55
 70
     1
102
RTVSPost2010Prop56
140
1.0
102
RTVSPost2010PropOp56
 70
     1
102
RTVSPost2010Prop57
140
1.0
102
RTVSPost2010PropOp57
 70
     1
102
RTVSPropertyOp0
 70
     1
102
RTVSPropertyOp1
 70
     1
102
RTVSPropertyOp2
 70
     1
102
RTVSPropertyOp3
 70
     1
102
RTVSPropertyOp4
 70
     1
102
RTVSPropertyOp5
 70
     1
102
RTVSPropertyOp6
 70
     1
102
RTVSPropertyOp7
 70
     1
102
RTVSPropertyOp8
 70
     1
102
RTVSPropertyOp9
 70
     1
102
RTVSPropertyOp10
 70
     1
102
RTVSPropertyOp11
 70
     1
102
RTVSPropertyOp12
 70
     1
102
RTVSPropertyOp13
 70
     1
102
RTVSPropertyOp14
 70
     1
102
RTVSPropertyOp15
 70
     1
102
RTVSPropertyOp16
 70
     1
102
RTVSPropertyOp17
 70
     1
102
RTVSPropertyOp18
 70
     1
102
RTVSPropertyOp19
 70
     1
102
RTVSPropertyOp20
 70
     1
102
RTVSPropertyOp21
 70
     1
102
RTVSPropertyOp22
 70
     1
102
RTVSPropertyOp23
 70
     1
102
RTVSPropertyOp24
 70
     1
102
RTVSPropertyOp25
 70
     1
102
RTVSPropertyOp26
 70
     1
102
RTVSPropertyOp27
 70
     1
102
RTVSPropertyOp28
 70
     1
102
RTVSPropertyOp29
 70
     1
102
RTVSPropertyOp30
 70
     1
102
RTVSPropertyOp31
 70
     1
102
RTVSPropertyOp32
 70
     1
102
RTVSPropertyOp33
 70
     1
102
RTVSPropertyOp34
 70
     1
102
RTVSPropertyOp35
 70
     1
102
RTVSPropertyOp36
 70
     1
102
RTVSPropertyOp37
 70
     1
102
RTVSPropertyOp38
 70
     1
102
RTVSPropertyOp39
 70
     1
102
RTVSPropertyOp40
 70
     1
102
RTVSPropertyOp41
 70
     1
102
RTVSPropertyOp42
 70
     1
102
RTVSPropertyOp43
 70
     1
102
RTVSPropertyOp44
 70
     1
102
RTVSPropertyOp45
 70
     1
102
RTVSPropertyOp46
 70
     1
102
RTVSPropertyOp47
 70
     1
102
RTVSPropertyOp48
 70
     1
102
RTVSPropertyOp49
 70
     1
102
RTVSPropertyOp50
 70
     1
102
RTVSPropertyOp51
 70
     0
102
RTVSPropertyOp52
 70
     0
102
RTVSPropertyOp53
 70
     1
102
RTVSPropertyOp54
 70
     1
102
RTVSPropertyOp55
 70
     1
102
RTVSPropertyOp56
 70
     1
102
RTVSPropertyOp57
 70
     1
102
RTVSPropertyOp58
 70
     1
102
RTVSPropertyOp59
 70
     1
102
RTVSPropertyOp60
 70
     1
102
RTVSPropertyOp61
 70
     1
102
RTVSPropertyOp62
 70
     1
  0
XRECORD
  5
39E
102
{ACAD_REACTORS
330
39D
102
}
330
39D
100
AcDbXrecord
280
     1
102
RTVSPost2010Prop28
280
     0
102
RTVSPost2010PropOp28
 70
     1
102
RTVSPost2010Prop29
280
     1
102
RTVSPost2010PropOp29
 70
     1
102
RTVSPost2010Prop30
280
     1
102
RTVSPost2010PropOp30
 70
     1
102
RTVSPost2010Prop31
280
     0
102
RTVSPost2010PropOp31
 70
     1
102
RTVSPost2010Prop32
280
     0
102
RTVSPost2010PropOp32
 70
     1
102
RTVSPost2010Prop33
280
     0
102
RTVSPost2010PropOp33
 70
     1
102
RTVSPost2010Prop34
280
     0
102
RTVSPost2010PropOp34
 70
     1
102
RTVSPost2010Prop35
280
     0
102
RTVSPost2010PropOp35
 70
     1
102
RTVSPost2010Prop36
280
     0
102
RTVSPost2010PropOp36
 70
     1
102
RTVSPost2010Prop37
 90
       50
102
RTVSPost2010PropOp37
 70
     1
102
RTVSPost2010Prop38
140
0.0
102
RTVSPost2010PropOp38
 70
     1
102
RTVSPost2010Prop39
140
1.0
102
RTVSPost2010PropOp39
 70
     1
102
RTVSPost2010Prop40
 90
        0
102
RTVSPost2010PropOp40
 70
     1
102
RTVSPost2010Prop41ColorIndex
 90
       18
102
RTVSPost2010Prop41ColorRGB
 90
        0
102
RTVSPost2010PropOp41
 70
     1
102
RTVSPost2010Prop42
 90
       50
102
RTVSPost2010PropOp42
 70
     1
102
RTVSPost2010Prop43
 90
        3
102
RTVSPost2010PropOp43
 70
     1
102
RTVSPost2010Prop44ColorIndex
 90
        5
102
RTVSPost2010Prop44ColorRGB
 90
      255
102
RTVSPost2010PropOp44
 70
     1
102
RTVSPost2010Prop45
280
     0
102
RTVSPost2010PropOp45
 70
     1
102
RTVSPost2010Prop46
 90
       50
102
RTVSPost2010PropOp46
 70
     1
102
RTVSPost2010Prop47
 90
       50
102
RTVSPost2010PropOp47
 70
     1
102
RTVSPost2010Prop48
 90
       50
102
RTVSPost2010PropOp48
 70
     1
102
RTVSPost2010Prop49
280
     0
102
RTVSPost2010PropOp49
 70
     1
102
RTVSPost2010Prop50
 90
       50
102
RTVSPost2010PropOp50
 70
     1
102
RTVSPost2010Prop51ColorIndex
 90
      256
102
RTVSPost2010Prop51ColorRGB
 90
-16777216
102
RTVSPost2010PropOp51
 70
     0
102
RTVSPost2010Prop52
140
1.0
102
RTVSPost2010PropOp52
 70
     0
102
RTVSPost2010Prop53
 90
        2
102
RTVSPost2010PropOp53
 70
     1
102
RTVSPost2010Prop54
  1
strokes_ogs.tif
102
RTVSPost2010PropOp54
 70
     1
102
RTVSPost2010Prop55
280
     0
102
RTVSPost2010PropOp55
 70
     1
102
RTVSPost2010Prop56
140
1.0
102
RTVSPost2010PropOp56
 70
     1
102
RTVSPost2010Prop57
140
1.0
102
RTVSPost2010PropOp57
 70
     1
102
RTVSPropertyOp0
 70
     1
102
RTVSPropertyOp1
 70
     1
102
RTVSPropertyOp2
 70
     1
102
RTVSPropertyOp3
 70
     1
102
RTVSPropertyOp4
 70
     1
102
RTVSPropertyOp5
 70
     1
102
RTVSPropertyOp6
 70
     1
102
RTVSPropertyOp7
 70
     1
102
RTVSPropertyOp8
 70
     1
102
RTVSPropertyOp9
 70
     1
102
RTVSPropertyOp10
 70
     1
102
RTVSPropertyOp11
 70
     1
102
RTVSPropertyOp12
 70
     1
102
RTVSPropertyOp13
 70
     1
102
RTVSPropertyOp14
 70
     1
102
RTVSPropertyOp15
 70
     1
102
RTVSPropertyOp16
 70
     1
102
RTVSPropertyOp17
 70
     1
102
RTVSPropertyOp18
 70
     1
102
RTVSPropertyOp19
 70
     1
102
RTVSPropertyOp20
 70
     1
102
RTVSPropertyOp21
 70
     1
102
RTVSPropertyOp22
 70
     1
102
RTVSPropertyOp23
 70
     1
102
RTVSPropertyOp24
 70
     1
102
RTVSPropertyOp25
 70
     1
102
RTVSPropertyOp26
 70
     1
102
RTVSPropertyOp27
 70
     1
102
RTVSPropertyOp28
 70
     1
102
RTVSPropertyOp29
 70
     1
102
RTVSPropertyOp30
 70
     1
102
RTVSPropertyOp31
 70
     1
102
RTVSPropertyOp32
 70
     1
102
RTVSPropertyOp33
 70
     1
102
RTVSPropertyOp34
 70
     1
102
RTVSPropertyOp35
 70
     1
102
RTVSPropertyOp36
 70
     1
102
RTVSPropertyOp37
 70
     1
102
RTVSPropertyOp38
 70
     1
102
RTVSPropertyOp39
 70
     1
102
RTVSPropertyOp40
 70
     1
102
RTVSPropertyOp41
 70
     1
102
RTVSPropertyOp42
 70
     1
102
RTVSPropertyOp43
 70
     1
102
RTVSPropertyOp44
 70
     1
102
RTVSPropertyOp45
 70
     1
102
RTVSPropertyOp46
 70
     1
102
RTVSPropertyOp47
 70
     1
102
RTVSPropertyOp48
 70
     1
102
RTVSPropertyOp49
 70
     1
102
RTVSPropertyOp50
 70
     1
102
RTVSPropertyOp51
 70
     0
102
RTVSPropertyOp52
 70
     0
102
RTVSPropertyOp53
 70
     1
102
RTVSPropertyOp54
 70
     1
102
RTVSPropertyOp55
 70
     1
102
RTVSPropertyOp56
 70
     1
102
RTVSPropertyOp57
 70
     1
102
RTVSPropertyOp58
 70
     1
102
RTVSPropertyOp59
 70
     1
102
RTVSPropertyOp60
 70
     1
102
RTVSPropertyOp61
 70
     1
102
RTVSPropertyOp62
 70
     1
  0
ENDSEC
  0
EOF
